  0
SECTION
  2
HEADER
  9
$ACADVER
  1
AC1027
  9
$ACADMAINTVER
 70
   125
  9
$DWGCODEPAGE
  3
ANSI_1252
  9
$LASTSAVEDBY
  1
ufficio.tecnico
  9
$REQUIREDVERSIONS
160
                 0
  9
$INSBASE
 10
0.0
 20
0.0
 30
0.0
  9
$EXTMIN
 10
11.47205588778763
 20
-19.36536568960312
 30
0.0
  9
$EXTMAX
 10
19.14821966752197
 20
-10.11426407441707
 30
0.0
  9
$LIMMIN
 10
0.0
 20
0.0
  9
$LIMMAX
 10
12.0
 20
9.0
  9
$ORTHOMODE
 70
     0
  9
$REGENMODE
 70
     1
  9
$FILLMODE
 70
     1
  9
$QTEXTMODE
 70
     0
  9
$MIRRTEXT
 70
     1
  9
$LTSCALE
 40
1.0
  9
$ATTMODE
 70
     1
  9
$TEXTSIZE
 40
0.2
  9
$TRACEWID
 40
0.05
  9
$TEXTSTYLE
  7
Standard
  9
$CLAYER
  8
0
  9
$CELTYPE
  6
ByLayer
  9
$CECOLOR
 62
   256
  9
$CELTSCALE
 40
1.0
  9
$DISPSILH
 70
     0
  9
$DIMSCALE
 40
1.0
  9
$DIMASZ
 40
0.18
  9
$DIMEXO
 40
0.0625
  9
$DIMDLI
 40
0.38
  9
$DIMRND
 40
0.0
  9
$DIMDLE
 40
0.0
  9
$DIMEXE
 40
0.18
  9
$DIMTP
 40
0.0
  9
$DIMTM
 40
0.0
  9
$DIMTXT
 40
0.18
  9
$DIMCEN
 40
0.09
  9
$DIMTSZ
 40
0.0
  9
$DIMTOL
 70
     0
  9
$DIMLIM
 70
     0
  9
$DIMTIH
 70
     1
  9
$DIMTOH
 70
     1
  9
$DIMSE1
 70
     0
  9
$DIMSE2
 70
     0
  9
$DIMTAD
 70
     0
  9
$DIMZIN
 70
     0
  9
$DIMBLK
  1

  9
$DIMASO
 70
     1
  9
$DIMSHO
 70
     1
  9
$DIMPOST
  1

  9
$DIMAPOST
  1

  9
$DIMALT
 70
     0
  9
$DIMALTD
 70
     2
  9
$DIMALTF
 40
25.4
  9
$DIMLFAC
 40
1.0
  9
$DIMTOFL
 70
     0
  9
$DIMTVP
 40
0.0
  9
$DIMTIX
 70
     0
  9
$DIMSOXD
 70
     0
  9
$DIMSAH
 70
     0
  9
$DIMBLK1
  1

  9
$DIMBLK2
  1

  9
$DIMSTYLE
  2
Standard
  9
$DIMCLRD
 70
     0
  9
$DIMCLRE
 70
     0
  9
$DIMCLRT
 70
     0
  9
$DIMTFAC
 40
1.0
  9
$DIMGAP
 40
0.09
  9
$DIMJUST
 70
     0
  9
$DIMSD1
 70
     0
  9
$DIMSD2
 70
     0
  9
$DIMTOLJ
 70
     1
  9
$DIMTZIN
 70
     0
  9
$DIMALTZ
 70
     0
  9
$DIMALTTZ
 70
     0
  9
$DIMUPT
 70
     0
  9
$DIMDEC
 70
     4
  9
$DIMTDEC
 70
     4
  9
$DIMALTU
 70
     2
  9
$DIMALTTD
 70
     2
  9
$DIMTXSTY
  7
Standard
  9
$DIMAUNIT
 70
     0
  9
$DIMADEC
 70
     0
  9
$DIMALTRND
 40
0.0
  9
$DIMAZIN
 70
     0
  9
$DIMDSEP
 70
    46
  9
$DIMATFIT
 70
     3
  9
$DIMFRAC
 70
     0
  9
$DIMLDRBLK
  1

  9
$DIMLUNIT
 70
     2
  9
$DIMLWD
 70
    -2
  9
$DIMLWE
 70
    -2
  9
$DIMTMOVE
 70
     0
  9
$DIMFXL
 40
1.0
  9
$DIMFXLON
 70
     0
  9
$DIMJOGANG
 40
0.7853981633974483
  9
$DIMTFILL
 70
     0
  9
$DIMTFILLCLR
 70
     0
  9
$DIMARCSYM
 70
     0
  9
$DIMLTYPE
  6

  9
$DIMLTEX1
  6

  9
$DIMLTEX2
  6

  9
$DIMTXTDIRECTION
 70
     0
  9
$LUNITS
 70
     2
  9
$LUPREC
 70
     4
  9
$SKETCHINC
 40
0.1
  9
$FILLETRAD
 40
0.5
  9
$AUNITS
 70
     0
  9
$AUPREC
 70
     0
  9
$MENU
  1
.
  9
$ELEVATION
 40
0.0
  9
$PELEVATION
 40
0.0
  9
$THICKNESS
 40
0.0
  9
$LIMCHECK
 70
     0
  9
$CHAMFERA
 40
0.5
  9
$CHAMFERB
 40
0.5
  9
$CHAMFERC
 40
1.0
  9
$CHAMFERD
 40
0.0
  9
$SKPOLY
 70
     0
  9
$TDCREATE
 40
2459325.425925926
  9
$TDUCREATE
 40
2459325.342599826
  9
$TDUPDATE
 40
2459325.451215278
  9
$TDUUPDATE
 40
2459325.367881945
  9
$TDINDWG
 40
0.0002777894
  9
$TDUSRTIMER
 40
0.0002777894
  9
$USRTIMER
 70
     1
  9
$ANGBASE
 50
0.0
  9
$ANGDIR
 70
     0
  9
$PDMODE
 70
     0
  9
$PDSIZE
 40
0.0
  9
$PLINEWID
 40
0.0
  9
$SPLFRAME
 70
     0
  9
$SPLINETYPE
 70
     6
  9
$SPLINESEGS
 70
     8
  9
$HANDSEED
  5
2A3
  9
$SURFTAB1
 70
     6
  9
$SURFTAB2
 70
     6
  9
$SURFTYPE
 70
     6
  9
$SURFU
 70
     6
  9
$SURFV
 70
     6
  9
$UCSBASE
  2

  9
$UCSNAME
  2

  9
$UCSORG
 10
0.0
 20
0.0
 30
0.0
  9
$UCSXDIR
 10
1.0
 20
0.0
 30
0.0
  9
$UCSYDIR
 10
0.0
 20
1.0
 30
0.0
  9
$UCSORTHOREF
  2

  9
$UCSORTHOVIEW
 70
     0
  9
$UCSORGTOP
 10
0.0
 20
0.0
 30
0.0
  9
$UCSORGBOTTOM
 10
0.0
 20
0.0
 30
0.0
  9
$UCSORGLEFT
 10
0.0
 20
0.0
 30
0.0
  9
$UCSORGRIGHT
 10
0.0
 20
0.0
 30
0.0
  9
$UCSORGFRONT
 10
0.0
 20
0.0
 30
0.0
  9
$UCSORGBACK
 10
0.0
 20
0.0
 30
0.0
  9
$PUCSBASE
  2

  9
$PUCSNAME
  2

  9
$PUCSORG
 10
0.0
 20
0.0
 30
0.0
  9
$PUCSXDIR
 10
1.0
 20
0.0
 30
0.0
  9
$PUCSYDIR
 10
0.0
 20
1.0
 30
0.0
  9
$PUCSORTHOREF
  2

  9
$PUCSORTHOVIEW
 70
     0
  9
$PUCSORGTOP
 10
0.0
 20
0.0
 30
0.0
  9
$PUCSORGBOTTOM
 10
0.0
 20
0.0
 30
0.0
  9
$PUCSORGLEFT
 10
0.0
 20
0.0
 30
0.0
  9
$PUCSORGRIGHT
 10
0.0
 20
0.0
 30
0.0
  9
$PUCSORGFRONT
 10
0.0
 20
0.0
 30
0.0
  9
$PUCSORGBACK
 10
0.0
 20
0.0
 30
0.0
  9
$USERI1
 70
     0
  9
$USERI2
 70
     0
  9
$USERI3
 70
     0
  9
$USERI4
 70
     0
  9
$USERI5
 70
     0
  9
$USERR1
 40
0.0
  9
$USERR2
 40
0.0
  9
$USERR3
 40
0.0
  9
$USERR4
 40
0.0
  9
$USERR5
 40
0.0
  9
$WORLDVIEW
 70
     1
  9
$SHADEDGE
 70
     3
  9
$SHADEDIF
 70
    70
  9
$TILEMODE
 70
     1
  9
$MAXACTVP
 70
    64
  9
$PINSBASE
 10
0.0
 20
0.0
 30
0.0
  9
$PLIMCHECK
 70
     0
  9
$PEXTMIN
 10
1.000000000000000E+20
 20
1.000000000000000E+20
 30
1.000000000000000E+20
  9
$PEXTMAX
 10
-1.000000000000000E+20
 20
-1.000000000000000E+20
 30
-1.000000000000000E+20
  9
$PLIMMIN
 10
0.0
 20
0.0
  9
$PLIMMAX
 10
12.0
 20
9.0
  9
$UNITMODE
 70
     0
  9
$VISRETAIN
 70
     1
  9
$PLINEGEN
 70
     0
  9
$PSLTSCALE
 70
     1
  9
$TREEDEPTH
 70
  3020
  9
$CMLSTYLE
  2
Standard
  9
$CMLJUST
 70
     0
  9
$CMLSCALE
 40
1.0
  9
$PROXYGRAPHICS
 70
     1
  9
$MEASUREMENT
 70
     0
  9
$CELWEIGHT
370
    -1
  9
$ENDCAPS
280
     0
  9
$JOINSTYLE
280
     0
  9
$LWDISPLAY
290
     1
  9
$INSUNITS
 70
     5
  9
$HYPERLINKBASE
  1

  9
$STYLESHEET
  1

  9
$XEDIT
290
     1
  9
$CEPSNTYPE
380
     0
  9
$PSTYLEMODE
290
     1
  9
$FINGERPRINTGUID
  2
{C3D32711-3B2A-4F6F-8D30-EF32D84DFE8E}
  9
$VERSIONGUID
  2
{F68D7234-CEC6-5946-BF9A-2CEB1AECBB4B}
  9
$EXTNAMES
290
     1
  9
$PSVPSCALE
 40
0.0
  9
$OLESTARTUP
290
     0
  9
$SORTENTS
280
   127
  9
$INDEXCTL
280
     0
  9
$HIDETEXT
280
     1
  9
$XCLIPFRAME
280
     2
  9
$HALOGAP
280
     0
  9
$OBSCOLOR
 70
   257
  9
$OBSLTYPE
280
     0
  9
$INTERSECTIONDISPLAY
280
     0
  9
$INTERSECTIONCOLOR
 70
   257
  9
$DIMASSOC
280
     2
  9
$PROJECTNAME
  1

  9
$CAMERADISPLAY
290
     0
  9
$LENSLENGTH
 40
50.0
  9
$CAMERAHEIGHT
 40
0.0
  9
$STEPSPERSEC
 40
2.0
  9
$STEPSIZE
 40
6.0
  9
$3DDWFPREC
 40
2.0
  9
$PSOLWIDTH
 40
0.25
  9
$PSOLHEIGHT
 40
4.0
  9
$LOFTANG1
 40
1.570796326794897
  9
$LOFTANG2
 40
1.570796326794897
  9
$LOFTMAG1
 40
0.0
  9
$LOFTMAG2
 40
0.0
  9
$LOFTPARAM
 70
     7
  9
$LOFTNORMALS
280
     1
  9
$LATITUDE
 40
37.795
  9
$LONGITUDE
 40
-122.394
  9
$NORTHDIRECTION
 40
0.0
  9
$TIMEZONE
 70
 -8000
  9
$LIGHTGLYPHDISPLAY
280
     1
  9
$TILEMODELIGHTSYNCH
280
     1
  9
$CMATERIAL
347
3C
  9
$SOLIDHIST
280
     1
  9
$SHOWHIST
280
     1
  9
$DWFFRAME
280
     2
  9
$DGNFRAME
280
     2
  9
$REALWORLDSCALE
290
     1
  9
$INTERFERECOLOR
 62
   256
  9
$INTERFEREOBJVS
345
33
  9
$INTERFEREVPVS
346
13A
  9
$CSHADOW
280
     0
  9
$SHADOWPLANELOCATION
 40
0.0
  0
ENDSEC
  0
SECTION
  2
CLASSES
  0
CLASS
  1
ACDBDICTIONARYWDFLT
  2
AcDbDictionaryWithDefault
  3
ObjectDBX Classes
 90
        0
 91
        1
280
     0
281
     0
  0
CLASS
  1
VISUALSTYLE
  2
AcDbVisualStyle
  3
ObjectDBX Classes
 90
     4095
 91
       26
280
     0
281
     0
  0
CLASS
  1
MATERIAL
  2
AcDbMaterial
  3
ObjectDBX Classes
 90
     1153
 91
        3
280
     0
281
     0
  0
CLASS
  1
SUN
  2
AcDbSun
  3
SCENEOE
 90
     1153
 91
        1
280
     0
281
     0
  0
CLASS
  1
TABLESTYLE
  2
AcDbTableStyle
  3
ObjectDBX Classes
 90
     4095
 91
        1
280
     0
281
     0
  0
CLASS
  1
SCALE
  2
AcDbScale
  3
ObjectDBX Classes
 90
     1153
 91
       21
280
     0
281
     0
  0
CLASS
  1
MLEADERSTYLE
  2
AcDbMLeaderStyle
  3
ACDB_MLEADERSTYLE_CLASS
 90
     4095
 91
        1
280
     0
281
     0
  0
CLASS
  1
ACDBSECTIONVIEWSTYLE
  2
AcDbSectionViewStyle
  3
ObjectDBX Classes
 90
     1025
 91
        1
280
     0
281
     0
  0
CLASS
  1
ACDBDETAILVIEWSTYLE
  2
AcDbDetailViewStyle
  3
ObjectDBX Classes
 90
     1025
 91
        1
280
     0
281
     0
  0
CLASS
  1
SORTENTSTABLE
  2
AcDbSortentsTable
  3
ObjectDBX Classes
 90
        0
 91
        1
280
     0
281
     0
  0
CLASS
  1
DICTIONARYVAR
  2
AcDbDictionaryVar
  3
ObjectDBX Classes
 90
        0
 91
        5
280
     0
281
     0
  0
CLASS
  1
CELLSTYLEMAP
  2
AcDbCellStyleMap
  3
ObjectDBX Classes
 90
     1152
 91
        1
280
     0
281
     0
  0
ENDSEC
  0
SECTION
  2
TABLES
  0
TABLE
  2
VPORT
  5
8
330
0
100
AcDbSymbolTable
 70
     1
1001
ACAD
1000
DbSaveVer
1071
      105
  0
VPORT
  5
29
330
8
100
AcDbSymbolTableRecord
100
AcDbViewportTableRecord
  2
*Active
 70
     0
 10
0.0
 20
0.0
 11
1.0
 21
1.0
 12
3.55337252539601
 22
0.0
 13
0.0
 23
0.0
 14
0.5
 24
0.5
 15
0.5
 25
0.5
 16
0.0
 26
0.0
 36
1.0
 17
10.50008306681941
 27
-14.84999887128748
 37
0.0
 40
20.18271000226228
 41
1.823776223776223
 42
50.0
 43
0.0
 44
0.0
 50
0.0
 51
0.0
 71
     0
 72
   100
 73
     1
 74
     3
 75
     0
 76
     0
 77
     0
 78
     0
281
     0
 65
     1
110
0.0
120
0.0
130
0.0
111
1.0
121
0.0
131
0.0
112
0.0
122
1.0
132
0.0
 79
     0
146
0.0
348
2F
 60
     3
 61
     5
292
     1
282
     1
141
0.0
142
0.0
 63
   250
361
3F
1001
ACAD_NAV_VCDISPLAY
1070
     3
  0
ENDTAB
  0
TABLE
  2
LTYPE
  5
5
330
0
100
AcDbSymbolTable
 70
     1
  0
LTYPE
  5
14
330
5
100
AcDbSymbolTableRecord
100
AcDbLinetypeTableRecord
  2
ByBlock
 70
     0
  3

 72
    65
 73
     0
 40
0.0
  0
LTYPE
  5
15
330
5
100
AcDbSymbolTableRecord
100
AcDbLinetypeTableRecord
  2
ByLayer
 70
     0
  3

 72
    65
 73
     0
 40
0.0
  0
LTYPE
  5
16
330
5
100
AcDbSymbolTableRecord
100
AcDbLinetypeTableRecord
  2
Continuous
 70
     0
  3
Solid line
 72
    65
 73
     0
 40
0.0
  0
ENDTAB
  0
TABLE
  2
LAYER
  5
2
330
0
100
AcDbSymbolTable
 70
     2
  0
LAYER
  5
10
330
2
100
AcDbSymbolTableRecord
100
AcDbLayerTableRecord
  2
0
 70
     0
 62
     7
  6
Continuous
370
    -3
390
F
347
3E
348
0
  0
LAYER
  5
40
330
2
100
AcDbSymbolTableRecord
100
AcDbLayerTableRecord
  2
Livello 1
 70
     0
 62
     7
  6
Continuous
370
    -3
390
F
347
3E
348
0
  0
ENDTAB
  0
TABLE
  2
STYLE
  5
3
330
0
100
AcDbSymbolTable
 70
     1
  0
STYLE
  5
11
330
3
100
AcDbSymbolTableRecord
100
AcDbTextStyleTableRecord
  2
Standard
 70
     0
 40
0.0
 41
1.0
 50
0.0
 71
     0
 42
0.2
  3
txt
  4

  0
ENDTAB
  0
TABLE
  2
VIEW
  5
6
330
0
100
AcDbSymbolTable
 70
     0
  0
ENDTAB
  0
TABLE
  2
UCS
  5
7
330
0
100
AcDbSymbolTable
 70
     0
  0
ENDTAB
  0
TABLE
  2
APPID
  5
9
330
0
100
AcDbSymbolTable
 70
     2
  0
APPID
  5
12
330
9
100
AcDbSymbolTableRecord
100
AcDbRegAppTableRecord
  2
ACAD
 70
     0
  0
APPID
  5
29B
330
9
100
AcDbSymbolTableRecord
100
AcDbRegAppTableRecord
  2
ACAD_NAV_VCDISPLAY
 70
     0
  0
ENDTAB
  0
TABLE
  2
DIMSTYLE
  5
A
330
0
100
AcDbSymbolTable
 70
     1
100
AcDbDimStyleTable
 71
     0
  0
DIMSTYLE
105
27
330
A
100
AcDbSymbolTableRecord
100
AcDbDimStyleTableRecord
  2
Standard
 70
     0
340
11
  0
ENDTAB
  0
TABLE
  2
BLOCK_RECORD
  5
1
330
0
100
AcDbSymbolTable
 70
     4
  0
BLOCK_RECORD
  5
1F
102
{ACAD_XDICTIONARY
360
164
102
}
330
1
100
AcDbSymbolTableRecord
100
AcDbBlockTableRecord
  2
*Model_Space
340
22
 70
     0
280
     1
281
     0
  0
BLOCK_RECORD
  5
1B
330
1
100
AcDbSymbolTableRecord
100
AcDbBlockTableRecord
  2
*Paper_Space
340
1E
 70
     0
280
     1
281
     0
  0
BLOCK_RECORD
  5
23
330
1
100
AcDbSymbolTableRecord
100
AcDbBlockTableRecord
  2
*Paper_Space0
340
26
 70
     0
280
     1
281
     0
  0
BLOCK_RECORD
  5
FB
330
1
100
AcDbSymbolTableRecord
100
AcDbBlockTableRecord
  2
block 2
340
0
 70
     0
280
     1
281
     0
  0
BLOCK_RECORD
  5
10D
330
1
100
AcDbSymbolTableRecord
100
AcDbBlockTableRecord
  2
block 3
340
0
 70
     0
280
     1
281
     0
  0
BLOCK_RECORD
  5
120
330
1
100
AcDbSymbolTableRecord
100
AcDbBlockTableRecord
  2
block 4
340
0
 70
     0
280
     1
281
     0
  0
ENDTAB
  0
ENDSEC
  0
SECTION
  2
BLOCKS
  0
BLOCK
  5
20
330
1F
100
AcDbEntity
  8
0
100
AcDbBlockBegin
  2
*Model_Space
 70
     0
 10
0.0
 20
0.0
 30
0.0
  3
*Model_Space
  1

  0
ENDBLK
  5
21
330
1F
100
AcDbEntity
  8
0
100
AcDbBlockEnd
  0
BLOCK
  5
1C
330
1B
100
AcDbEntity
 67
     1
  8
0
100
AcDbBlockBegin
  2
*Paper_Space
 70
     0
 10
0.0
 20
0.0
 30
0.0
  3
*Paper_Space
  1

  0
ENDBLK
  5
1D
330
1B
100
AcDbEntity
 67
     1
  8
0
100
AcDbBlockEnd
  0
BLOCK
  5
24
330
23
100
AcDbEntity
 67
     1
  8
0
100
AcDbBlockBegin
  2
*Paper_Space0
 70
     0
 10
0.0
 20
0.0
 30
0.0
  3
*Paper_Space0
  1

  0
ENDBLK
  5
25
330
23
100
AcDbEntity
 67
     1
  8
0
100
AcDbBlockEnd
  0
BLOCK
  5
FD
330
FB
100
AcDbEntity
  8
0
100
AcDbBlockBegin
  2
block 2
 70
     0
 10
0.0
 20
0.0
 30
0.0
  3
block 2
  1

  0
POLYLINE
  5
FF
330
FB
100
AcDbEntity
  8
Livello 1
370
     0
100
AcDb2dPolyline
 66
     1
 10
0.0
 20
0.0
 30
0.0
  0
VERTEX
  5
100
330
FF
100
AcDbEntity
  8
Livello 1
370
     0
100
AcDbVertex
100
AcDb2dVertex
 10
16.80476236559047
 20
-13.69001708642124
 30
0.0
  0
VERTEX
  5
101
330
FF
100
AcDbEntity
  8
Livello 1
370
     0
100
AcDbVertex
100
AcDb2dVertex
 10
16.80221299493139
 20
-13.69001708642124
 30
0.0
  0
VERTEX
  5
102
330
FF
100
AcDbEntity
  8
Livello 1
370
     0
100
AcDbVertex
100
AcDb2dVertex
 10
16.65869031701588
 20
-13.76748005840709
 30
0.0
  0
VERTEX
  5
103
330
FF
100
AcDbEntity
  8
Livello 1
370
     0
100
AcDbVertex
100
AcDb2dVertex
 10
16.63712401927822
 20
-13.68238619992142
 30
0.0
  0
VERTEX
  5
104
330
FF
100
AcDbEntity
  8
Livello 1
370
     0
100
AcDbVertex
100
AcDb2dVertex
 10
16.8174403169762
 20
-13.58588907537957
 30
0.0
  0
VERTEX
  5
105
330
FF
100
AcDbEntity
  8
Livello 1
370
     0
100
AcDbVertex
100
AcDb2dVertex
 10
16.9126627561885
 20
-13.58588907537957
 30
0.0
  0
VERTEX
  5
106
330
FF
100
AcDbEntity
  8
Livello 1
370
     0
100
AcDbVertex
100
AcDb2dVertex
 10
16.9126627561885
 20
-14.41128227721315
 30
0.0
  0
VERTEX
  5
107
330
FF
100
AcDbEntity
  8
Livello 1
370
     0
100
AcDbVertex
100
AcDb2dVertex
 10
16.80476236559047
 20
-14.41128227721315
 30
0.0
  0
VERTEX
  5
108
330
FF
100
AcDbEntity
  8
Livello 1
370
     0
100
AcDbVertex
100
AcDb2dVertex
 10
16.80476236559047
 20
-13.69001708642124
 30
0.0
  0
SEQEND
  5
109
330
FF
100
AcDbEntity
  8
Livello 1
370
     0
  0
HATCH
  5
10A
330
FB
100
AcDbEntity
  8
Livello 1
 62
   250
420
  1842203
100
AcDbHatch
 10
0.0
 20
0.0
 30
0.0
210
0.0
220
0.0
230
1.0
  2
SOLID
 70
     1
 71
     0
 91
        1
 92
        1
 93
        8
 72
     1
 10
16.80476236559047
 20
-13.69001708642124
 11
16.80221299493139
 21
-13.69001708642124
 72
     1
 10
16.80221299493139
 20
-13.69001708642124
 11
16.65869031701588
 21
-13.76748005840709
 72
     1
 10
16.65869031701588
 20
-13.76748005840709
 11
16.63712401927822
 21
-13.68238619992142
 72
     1
 10
16.63712401927822
 20
-13.68238619992142
 11
16.8174403169762
 21
-13.58588907537957
 72
     1
 10
16.8174403169762
 20
-13.58588907537957
 11
16.9126627561885
 21
-13.58588907537957
 72
     1
 10
16.9126627561885
 20
-13.58588907537957
 11
16.9126627561885
 21
-14.41128227721315
 72
     1
 10
16.9126627561885
 20
-14.41128227721315
 11
16.80476236559047
 21
-14.41128227721315
 72
     1
 10
16.80476236559047
 20
-14.41128227721315
 11
16.80476236559047
 21
-13.69001708642124
 97
        0
 75
     2
 76
     1
 98
        0
450
        0
451
        0
460
0.0
461
0.0
452
        0
462
0.0
453
        0
470

  0
SPLINE
  5
10B
330
FB
100
AcDbEntity
  8
Livello 1
370
     0
100
AcDbSpline
210
0.0
220
0.0
230
1.0
 70
    11
 71
     3
 72
    50
 73
    46
 74
     0
 42
0.000000001
 43
0.0000000001
 40
0.0
 40
0.0
 40
0.0
 40
0.0
 40
1.0
 40
1.0
 40
1.0
 40
2.0
 40
2.0
 40
2.0
 40
3.0
 40
3.0
 40
3.0
 40
4.0
 40
4.0
 40
4.0
 40
5.0
 40
5.0
 40
5.0
 40
6.0
 40
6.0
 40
6.0
 40
7.0
 40
7.0
 40
7.0
 40
8.0
 40
8.0
 40
8.0
 40
9.0
 40
9.0
 40
9.0
 40
10.0
 40
10.0
 40
10.0
 40
11.0
 40
11.0
 40
11.0
 40
12.0
 40
12.0
 40
12.0
 40
13.0
 40
13.0
 40
13.0
 40
14.0
 40
14.0
 40
14.0
 40
15.0
 40
15.0
 40
15.0
 40
15.0
 10
17.70637830503521
 20
-13.67985405473976
 30
0.0
 10
17.70637830503521
 20
-13.67985405473976
 30
0.0
 10
17.39146212672852
 20
-13.67985405473976
 30
0.0
 10
17.39146212672852
 20
-13.67985405473976
 30
0.0
 10
17.39146212672852
 20
-13.67985405473976
 30
0.0
 10
17.35969834635452
 20
-13.89191690733431
 30
0.0
 10
17.35969834635452
 20
-13.89191690733431
 30
0.0
 10
17.3787841753428
 20
-13.88938476215265
 30
0.0
 10
17.39656086804669
 20
-13.88683539149357
 30
0.0
 10
17.4270155121363
 20
-13.88683539149357
 30
0.0
 10
17.49050862192945
 20
-13.88683539149357
 30
0.0
 10
17.55400173172261
 20
-13.90080525368626
 30
0.0
 10
17.60478243917519
 20
-13.93127712325329
 30
0.0
 10
17.66955023429789
 20
-13.96810519399061
 30
0.0
 10
17.72288031240956
 20
-14.03921196480617
 30
0.0
 10
17.72288031240956
 20
-14.14333997584784
 30
0.0
 10
17.72288031240956
 20
-14.30462212098982
 30
0.0
 10
17.59465385844856
 20
-14.42525213940584
 30
0.0
 10
17.41557779512527
 20
-14.42525213940584
 30
0.0
 10
17.32545409723113
 20
-14.42525213940584
 30
0.0
 10
17.24924858509741
 20
-14.39986178567955
 30
0.0
 10
17.209871143701
 20
-14.37445420647583
 30
0.0
 10
17.209871143701
 20
-14.37445420647583
 30
0.0
 10
17.23781086808638
 20
-14.28937757346758
 30
0.0
 10
17.23781086808638
 20
-14.28937757346758
 30
0.0
 10
17.27208956816461
 20
-14.30970363683056
 30
0.0
 10
17.33937228299154
 20
-14.33509399055685
 30
0.0
 10
17.41433756075058
 20
-14.33509399055685
 30
0.0
 10
17.51972303164438
 20
-14.33509399055685
 30
0.0
 10
17.60988118049336
 20
-14.26651936492295
 30
0.0
 10
17.60988118049336
 20
-14.15605237818842
 30
0.0
 10
17.60860649516382
 20
-14.04937499648766
 30
0.0
 10
17.53749972434826
 20
-13.97318670983135
 30
0.0
 10
17.37241074869509
 20
-13.97318670983135
 30
0.0
 10
17.32545409723113
 20
-13.97318670983135
 30
0.0
 10
17.28859157553896
 20
-13.9782682256721
 30
0.0
 10
17.25813693144935
 20
-13.9820750561833
 30
0.0
 10
17.25813693144935
 20
-13.9820750561833
 30
0.0
 10
17.31146700956102
 20
-13.58588907537957
 30
0.0
 10
17.31146700956102
 20
-13.58588907537957
 30
0.0
 10
17.31146700956102
 20
-13.58588907537957
 30
0.0
 10
17.70637830503521
 20
-13.58588907537957
 30
0.0
 10
17.70637830503521
 20
-13.58588907537957
 30
0.0
 10
17.70637830503521
 20
-13.58588907537957
 30
0.0
 10
17.70637830503521
 20
-13.67985405473976
 30
0.0
 10
17.70637830503521
 20
-13.67985405473976
 30
0.0
  0
HATCH
  5
10C
330
FB
100
AcDbEntity
  8
Livello 1
 62
   250
420
  1842203
100
AcDbHatch
 10
0.0
 20
0.0
 30
0.0
210
0.0
220
0.0
230
1.0
  2
SOLID
 70
     1
 71
     0
 91
        1
 92
        1
 93
        1
 72
     4
 94
        3
 73
     0
 74
     0
 95
       50
 96
       46
 40
0.0
 40
0.0
 40
0.0
 40
0.0
 40
1.0
 40
1.0
 40
1.0
 40
2.0
 40
2.0
 40
2.0
 40
3.0
 40
3.0
 40
3.0
 40
4.0
 40
4.0
 40
4.0
 40
5.0
 40
5.0
 40
5.0
 40
6.0
 40
6.0
 40
6.0
 40
7.0
 40
7.0
 40
7.0
 40
8.0
 40
8.0
 40
8.0
 40
9.0
 40
9.0
 40
9.0
 40
10.0
 40
10.0
 40
10.0
 40
11.0
 40
11.0
 40
11.0
 40
12.0
 40
12.0
 40
12.0
 40
13.0
 40
13.0
 40
13.0
 40
14.0
 40
14.0
 40
14.0
 40
15.0
 40
15.0
 40
15.0
 40
15.0
 10
17.70637830503521
 20
-13.67985405473976
 10
17.70637830503521
 20
-13.67985405473976
 10
17.39146212672852
 20
-13.67985405473976
 10
17.39146212672852
 20
-13.67985405473976
 10
17.39146212672852
 20
-13.67985405473976
 10
17.35969834635452
 20
-13.89191690733431
 10
17.35969834635452
 20
-13.89191690733431
 10
17.3787841753428
 20
-13.88938476215265
 10
17.39656086804669
 20
-13.88683539149357
 10
17.4270155121363
 20
-13.88683539149357
 10
17.49050862192945
 20
-13.88683539149357
 10
17.55400173172261
 20
-13.90080525368626
 10
17.60478243917519
 20
-13.93127712325329
 10
17.66955023429789
 20
-13.96810519399061
 10
17.72288031240956
 20
-14.03921196480617
 10
17.72288031240956
 20
-14.14333997584784
 10
17.72288031240956
 20
-14.30462212098982
 10
17.59465385844856
 20
-14.42525213940584
 10
17.41557779512527
 20
-14.42525213940584
 10
17.32545409723113
 20
-14.42525213940584
 10
17.24924858509741
 20
-14.39986178567955
 10
17.209871143701
 20
-14.37445420647583
 10
17.209871143701
 20
-14.37445420647583
 10
17.23781086808638
 20
-14.28937757346758
 10
17.23781086808638
 20
-14.28937757346758
 10
17.27208956816461
 20
-14.30970363683056
 10
17.33937228299154
 20
-14.33509399055685
 10
17.41433756075058
 20
-14.33509399055685
 10
17.51972303164438
 20
-14.33509399055685
 10
17.60988118049336
 20
-14.26651936492295
 10
17.60988118049336
 20
-14.15605237818842
 10
17.60860649516382
 20
-14.04937499648766
 10
17.53749972434826
 20
-13.97318670983135
 10
17.37241074869509
 20
-13.97318670983135
 10
17.32545409723113
 20
-13.97318670983135
 10
17.28859157553896
 20
-13.9782682256721
 10
17.25813693144935
 20
-13.9820750561833
 10
17.25813693144935
 20
-13.9820750561833
 10
17.31146700956102
 20
-13.58588907537957
 10
17.31146700956102
 20
-13.58588907537957
 10
17.31146700956102
 20
-13.58588907537957
 10
17.70637830503521
 20
-13.58588907537957
 10
17.70637830503521
 20
-13.58588907537957
 10
17.70637830503521
 20
-13.58588907537957
 10
17.70637830503521
 20
-13.67985405473976
 10
17.70637830503521
 20
-13.67985405473976
 97
        0
 97
        0
 75
     2
 76
     1
 98
        0
450
        0
451
        0
460
0.0
461
0.0
452
        0
462
0.0
453
        0
470

  0
ENDBLK
  5
FE
330
FB
100
AcDbEntity
  8
0
100
AcDbBlockEnd
  0
BLOCK
  5
10F
330
10D
100
AcDbEntity
  8
0
100
AcDbBlockBegin
  2
block 3
 70
     0
 10
0.0
 20
0.0
 30
0.0
  3
block 3
  1

  0
POLYLINE
  5
111
330
10D
100
AcDbEntity
  8
Livello 1
370
     0
100
AcDb2dPolyline
 66
     1
 10
0.0
 20
0.0
 30
0.0
  0
VERTEX
  5
112
330
111
100
AcDbEntity
  8
Livello 1
370
     0
100
AcDbVertex
100
AcDb2dVertex
 10
18.6653206333545
 20
-11.22632595205453
 30
0.0
  0
VERTEX
  5
113
330
111
100
AcDbEntity
  8
Livello 1
370
     0
100
AcDbVertex
100
AcDb2dVertex
 10
18.66421820279922
 20
-11.22401773807941
 30
0.0
  0
VERTEX
  5
114
330
111
100
AcDbEntity
  8
Livello 1
370
     0
100
AcDbVertex
100
AcDb2dVertex
 10
18.53140977184284
 20
-11.12941541605445
 30
0.0
  0
VERTEX
  5
115
330
111
100
AcDbEntity
  8
Livello 1
370
     0
100
AcDbVertex
100
AcDb2dVertex
 10
18.59827907521154
 20
-11.07250243863812
 30
0.0
  0
VERTEX
  5
116
330
111
100
AcDbEntity
  8
Livello 1
370
     0
100
AcDbVertex
100
AcDb2dVertex
 10
18.76440157951028
 20
-11.19177164433747
 30
0.0
  0
VERTEX
  5
117
330
111
100
AcDbEntity
  8
Livello 1
370
     0
100
AcDbVertex
100
AcDb2dVertex
 10
18.80639729347548
 20
-11.27727891428137
 30
0.0
  0
VERTEX
  5
118
330
111
100
AcDbEntity
  8
Livello 1
370
     0
100
AcDbVertex
100
AcDb2dVertex
 10
18.06559841128221
 20
-11.64125325229802
 30
0.0
  0
VERTEX
  5
119
330
111
100
AcDbEntity
  8
Livello 1
370
     0
100
AcDbVertex
100
AcDb2dVertex
 10
18.01798719167606
 20
-11.54437716725279
 30
0.0
  0
VERTEX
  5
11A
330
111
100
AcDbEntity
  8
Livello 1
370
     0
100
AcDbVertex
100
AcDb2dVertex
 10
18.6653206333545
 20
-11.22632595205453
 30
0.0
  0
SEQEND
  5
11B
330
111
100
AcDbEntity
  8
Livello 1
370
     0
  0
HATCH
  5
11C
330
10D
100
AcDbEntity
  8
Livello 1
 62
   250
420
  1842203
100
AcDbHatch
 10
0.0
 20
0.0
 30
0.0
210
0.0
220
0.0
230
1.0
  2
SOLID
 70
     1
 71
     0
 91
        1
 92
        1
 93
        8
 72
     1
 10
18.6653206333545
 20
-11.22632595205453
 11
18.66421820279922
 21
-11.22401773807941
 72
     1
 10
18.66421820279922
 20
-11.22401773807941
 11
18.53140977184284
 21
-11.12941541605445
 72
     1
 10
18.53140977184284
 20
-11.12941541605445
 11
18.59827907521154
 21
-11.07250243863812
 72
     1
 10
18.59827907521154
 20
-11.07250243863812
 11
18.76440157951028
 21
-11.19177164433747
 72
     1
 10
18.76440157951028
 20
-11.19177164433747
 11
18.80639729347548
 21
-11.27727891428137
 72
     1
 10
18.80639729347548
 20
-11.27727891428137
 11
18.06559841128221
 21
-11.64125325229802
 72
     1
 10
18.06559841128221
 20
-11.64125325229802
 11
18.01798719167606
 21
-11.54437716725279
 72
     1
 10
18.01798719167606
 20
-11.54437716725279
 11
18.6653206333545
 21
-11.22632595205453
 97
        0
 75
     2
 76
     1
 98
        0
450
        0
451
        0
460
0.0
461
0.0
452
        0
462
0.0
453
        0
470

  0
SPLINE
  5
11D
330
10D
100
AcDbEntity
  8
Livello 1
370
     0
100
AcDbSpline
210
0.0
220
0.0
230
1.0
 70
     9
 71
     3
 72
    41
 73
    37
 74
     0
 42
0.000000001
 43
0.0000000001
 40
0.0
 40
0.0
 40
0.0
 40
0.0
 40
1.0
 40
1.0
 40
1.0
 40
2.0
 40
2.0
 40
2.0
 40
3.0
 40
3.0
 40
3.0
 40
4.0
 40
4.0
 40
4.0
 40
5.0
 40
5.0
 40
5.0
 40
6.0
 40
6.0
 40
6.0
 40
7.0
 40
7.0
 40
7.0
 40
8.0
 40
8.0
 40
8.0
 40
9.0
 40
9.0
 40
9.0
 40
10.0
 40
10.0
 40
10.0
 40
11.0
 40
11.0
 40
11.0
 40
12.0
 40
12.0
 40
12.0
 40
12.0
 10
18.29752223934923
 20
-11.93480983859616
 30
0.0
 10
18.30589382137839
 20
-11.95758191975366
 30
0.0
 10
18.32050102623585
 20
-11.98152533337615
 30
0.0
 10
18.34072373673426
 20
-12.0140470347569
 30
0.0
 10
18.37724174887791
 20
-12.06823838673988
 30
0.0
 10
18.42805690728535
 20
-12.11119872744095
 30
0.0
 10
18.48869058782574
 20
-12.13376410286934
 30
0.0
 10
18.55721353702736
 20
-12.16094590624796
 30
0.0
 10
18.63951686816998
 20
-12.16435655077835
 30
0.0
 10
18.73401583733038
 20
-12.13493543533432
 30
0.0
 10
18.73401583733038
 20
-12.13493543533432
 30
0.0
 10
18.73229328958776
 20
-12.13149033984907
 30
0.0
 10
18.73229328958776
 20
-12.13149033984907
 30
0.0
 10
18.66201334168866
 20
-12.11509168533928
 30
0.0
 10
18.60327446366515
 20
-12.07040879689559
 30
0.0
 10
18.56685980438606
 20
-11.99630479300787
 30
0.0
 10
18.50133408825661
 20
-11.86297959772869
 30
0.0
 10
18.55962510386704
 20
-11.72820746234573
 30
0.0
 10
18.68612901008541
 20
-11.66605793979182
 30
0.0
 10
18.82634439633507
 20
-11.59715603008682
 30
0.0
 10
18.99925373873977
 20
-11.63815266636129
 30
0.0
 10
19.07373670313087
 20
-11.78973686771229
 30
0.0
 10
19.14821966752197
 20
-11.94132106906328
 30
0.0
 10
19.07104952865237
 20
-12.09524793534424
 30
0.0
 10
18.88184488460245
 20
-12.18819661153628
 30
0.0
 10
18.71885741719528
 20
-12.26826063061349
 30
0.0
 10
18.57802191375826
 20
-12.26956976689788
 30
0.0
 10
18.47149956135435
 20
-12.23132920701161
 30
0.0
 10
18.38768038819822
 20
-12.20177028774817
 30
0.0
 10
18.31485106964004
 20
-12.13996527474279
 30
0.0
 10
18.26651637998198
 20
-12.06465548743522
 30
0.0
 10
18.24291747590802
 20
-12.03096245358948
 30
0.0
 10
18.22610540994
 20
-11.99961208467371
 30
0.0
 10
18.21546006489058
 20
-11.97515190672843
 30
0.0
 10
18.21546006489058
 20
-11.97515190672843
 30
0.0
 10
18.29752223934923
 20
-11.93480983859616
 30
0.0
 10
18.29752223934923
 20
-11.93480983859616
 30
0.0
  0
SPLINE
  5
11E
330
10D
100
AcDbEntity
  8
Livello 1
370
     0
100
AcDbSpline
210
0.0
220
0.0
230
1.0
 70
     9
 71
     3
 72
    20
 73
    16
 74
     0
 42
0.000000001
 43
0.0000000001
 40
0.0
 40
0.0
 40
0.0
 40
0.0
 40
1.0
 40
1.0
 40
1.0
 40
2.0
 40
2.0
 40
2.0
 40
3.0
 40
3.0
 40
3.0
 40
4.0
 40
4.0
 40
4.0
 40
5.0
 40
5.0
 40
5.0
 40
5.0
 10
18.74169840026249
 20
-11.76186604523662
 30
0.0
 10
18.64940429221265
 20
-11.8072035018225
 30
0.0
 10
18.61185275142342
 20
-11.89498453478667
 30
0.0
 10
18.65443413162111
 20
-11.98159423528585
 30
0.0
 10
18.68743814636981
 20
-12.04884249915793
 30
0.0
 10
18.74628037725787
 20
-12.08501600175305
 30
0.0
 10
18.80360676613243
 20
-12.08939127301932
 30
0.0
 10
18.81552679651139
 20
-12.09063150739401
 30
0.0
 10
18.82861815935534
 20
-12.08842664628345
 30
0.0
 10
18.8445345004972
 20
-12.08060627953193
 30
0.0
 10
18.97103840671556
 20
-12.01842230602317
 30
0.0
 10
19.04497015582903
 20
-11.92409559163703
 30
0.0
 10
18.99346597832455
 20
-11.81926133602088
 30
0.0
 10
18.95147026435935
 20
-11.73378851703183
 30
0.0
 10
18.8465671068335
 20
-11.71036186773213
 30
0.0
 10
18.74169840026249
 20
-11.76186604523662
 30
0.0
  0
HATCH
  5
11F
330
10D
100
AcDbEntity
  8
Livello 1
 62
   250
420
  1842203
100
AcDbHatch
 10
0.0
 20
0.0
 30
0.0
210
0.0
220
0.0
230
1.0
  2
SOLID
 70
     1
 71
     0
 91
        2
 92
        1
 93
        1
 72
     4
 94
        3
 73
     0
 74
     0
 95
       41
 96
       37
 40
0.0
 40
0.0
 40
0.0
 40
0.0
 40
1.0
 40
1.0
 40
1.0
 40
2.0
 40
2.0
 40
2.0
 40
3.0
 40
3.0
 40
3.0
 40
4.0
 40
4.0
 40
4.0
 40
5.0
 40
5.0
 40
5.0
 40
6.0
 40
6.0
 40
6.0
 40
7.0
 40
7.0
 40
7.0
 40
8.0
 40
8.0
 40
8.0
 40
9.0
 40
9.0
 40
9.0
 40
10.0
 40
10.0
 40
10.0
 40
11.0
 40
11.0
 40
11.0
 40
12.0
 40
12.0
 40
12.0
 40
12.0
 10
18.29752223934923
 20
-11.93480983859616
 10
18.30589382137839
 20
-11.95758191975366
 10
18.32050102623585
 20
-11.98152533337615
 10
18.34072373673426
 20
-12.0140470347569
 10
18.37724174887791
 20
-12.06823838673988
 10
18.42805690728535
 20
-12.11119872744095
 10
18.48869058782574
 20
-12.13376410286934
 10
18.55721353702736
 20
-12.16094590624796
 10
18.63951686816998
 20
-12.16435655077835
 10
18.73401583733038
 20
-12.13493543533432
 10
18.73401583733038
 20
-12.13493543533432
 10
18.73229328958776
 20
-12.13149033984907
 10
18.73229328958776
 20
-12.13149033984907
 10
18.66201334168866
 20
-12.11509168533928
 10
18.60327446366515
 20
-12.07040879689559
 10
18.56685980438606
 20
-11.99630479300787
 10
18.50133408825661
 20
-11.86297959772869
 10
18.55962510386704
 20
-11.72820746234573
 10
18.68612901008541
 20
-11.66605793979182
 10
18.82634439633507
 20
-11.59715603008682
 10
18.99925373873977
 20
-11.63815266636129
 10
19.07373670313087
 20
-11.78973686771229
 10
19.14821966752197
 20
-11.94132106906328
 10
19.07104952865237
 20
-12.09524793534424
 10
18.88184488460245
 20
-12.18819661153628
 10
18.71885741719528
 20
-12.26826063061349
 10
18.57802191375826
 20
-12.26956976689788
 10
18.47149956135435
 20
-12.23132920701161
 10
18.38768038819822
 20
-12.20177028774817
 10
18.31485106964004
 20
-12.13996527474279
 10
18.26651637998198
 20
-12.06465548743522
 10
18.24291747590802
 20
-12.03096245358948
 10
18.22610540994
 20
-11.99961208467371
 10
18.21546006489058
 20
-11.97515190672843
 10
18.21546006489058
 20
-11.97515190672843
 10
18.29752223934923
 20
-11.93480983859616
 10
18.29752223934923
 20
-11.93480983859616
 97
        0
 97
        0
 92
        1
 93
        1
 72
     4
 94
        3
 73
     0
 74
     0
 95
       20
 96
       16
 40
0.0
 40
0.0
 40
0.0
 40
0.0
 40
1.0
 40
1.0
 40
1.0
 40
2.0
 40
2.0
 40
2.0
 40
3.0
 40
3.0
 40
3.0
 40
4.0
 40
4.0
 40
4.0
 40
5.0
 40
5.0
 40
5.0
 40
5.0
 10
18.74169840026249
 20
-11.76186604523662
 10
18.64940429221265
 20
-11.8072035018225
 10
18.61185275142342
 20
-11.89498453478667
 10
18.65443413162111
 20
-11.98159423528585
 10
18.68743814636981
 20
-12.04884249915793
 10
18.74628037725787
 20
-12.08501600175305
 10
18.80360676613243
 20
-12.08939127301932
 10
18.81552679651139
 20
-12.09063150739401
 10
18.82861815935534
 20
-12.08842664628345
 10
18.8445345004972
 20
-12.08060627953193
 10
18.97103840671556
 20
-12.01842230602317
 10
19.04497015582903
 20
-11.92409559163703
 10
18.99346597832455
 20
-11.81926133602088
 10
18.95147026435935
 20
-11.73378851703183
 10
18.8465671068335
 20
-11.71036186773213
 10
18.74169840026249
 20
-11.76186604523662
 97
        0
 97
        0
 75
     2
 76
     1
 98
        0
450
        0
451
        0
460
0.0
461
0.0
452
        0
462
0.0
453
        0
470

  0
ENDBLK
  5
110
330
10D
100
AcDbEntity
  8
0
100
AcDbBlockEnd
  0
BLOCK
  5
122
330
120
100
AcDbEntity
  8
0
100
AcDbBlockBegin
  2
block 4
 70
     0
 10
0.0
 20
0.0
 30
0.0
  3
block 4
  1

  0
POLYLINE
  5
124
330
120
100
AcDbEntity
  8
Livello 1
370
     0
100
AcDb2dPolyline
 66
     1
 10
0.0
 20
0.0
 30
0.0
  0
VERTEX
  5
125
330
124
100
AcDbEntity
  8
Livello 1
370
     0
100
AcDbVertex
100
AcDb2dVertex
 10
12.96857964085508
 20
-11.91158989502557
 30
0.0
  0
VERTEX
  5
126
330
124
100
AcDbEntity
  8
Livello 1
370
     0
100
AcDbVertex
100
AcDb2dVertex
 10
12.82085394644756
 20
-11.74216009906099
 30
0.0
  0
VERTEX
  5
127
330
124
100
AcDbEntity
  8
Livello 1
370
     0
100
AcDbVertex
100
AcDb2dVertex
 10
12.50859049166452
 20
-12.01432264239572
 30
0.0
  0
VERTEX
  5
128
330
124
100
AcDbEntity
  8
Livello 1
370
     0
100
AcDbVertex
100
AcDb2dVertex
 10
12.46022135105161
 20
-11.95880492865092
 30
0.0
  0
VERTEX
  5
129
330
124
100
AcDbEntity
  8
Livello 1
370
     0
100
AcDbVertex
100
AcDb2dVertex
 10
12.4138159148653
 20
-11.30018879925828
 30
0.0
  0
VERTEX
  5
12A
330
124
100
AcDbEntity
  8
Livello 1
370
     0
100
AcDbVertex
100
AcDb2dVertex
 10
12.51203558714977
 20
-11.21457817644983
 30
0.0
  0
VERTEX
  5
12B
330
124
100
AcDbEntity
  8
Livello 1
370
     0
100
AcDbVertex
100
AcDb2dVertex
 10
12.84913818038146
 20
-11.60132459562397
 30
0.0
  0
VERTEX
  5
12C
330
124
100
AcDbEntity
  8
Livello 1
370
     0
100
AcDbVertex
100
AcDb2dVertex
 10
12.94322373808364
 20
-11.5193140975976
 30
0.0
  0
VERTEX
  5
12D
330
124
100
AcDbEntity
  8
Livello 1
370
     0
100
AcDbVertex
100
AcDb2dVertex
 10
13.00075683268731
 20
-11.58535657804984
 30
0.0
  0
VERTEX
  5
12E
330
124
100
AcDbEntity
  8
Livello 1
370
     0
100
AcDbVertex
100
AcDb2dVertex
 10
12.90670572593999
 20
-11.66736707607621
 30
0.0
  0
VERTEX
  5
12F
330
124
100
AcDbEntity
  8
Livello 1
370
     0
100
AcDbVertex
100
AcDb2dVertex
 10
13.0543625184378
 20
-11.8367968720408
 30
0.0
  0
VERTEX
  5
130
330
124
100
AcDbEntity
  8
Livello 1
370
     0
100
AcDbVertex
100
AcDb2dVertex
 10
12.96857964085508
 20
-11.91158989502557
 30
0.0
  0
SEQEND
  5
131
330
124
100
AcDbEntity
  8
Livello 1
370
     0
  0
SPLINE
  5
132
330
120
100
AcDbEntity
  8
Livello 1
370
     0
100
AcDbSpline
210
0.0
220
0.0
230
1.0
 70
    11
 71
     3
 72
    26
 73
    22
 74
     0
 42
0.000000001
 43
0.0000000001
 40
0.0
 40
0.0
 40
0.0
 40
0.0
 40
1.0
 40
1.0
 40
1.0
 40
2.0
 40
2.0
 40
2.0
 40
3.0
 40
3.0
 40
3.0
 40
4.0
 40
4.0
 40
4.0
 40
5.0
 40
5.0
 40
5.0
 40
6.0
 40
6.0
 40
6.0
 40
7.0
 40
7.0
 40
7.0
 40
7.0
 10
12.76332085184389
 20
-11.67611761860875
 30
0.0
 10
12.76332085184389
 20
-11.67611761860875
 30
0.0
 10
12.58224663313916
 20
-11.46837836084818
 30
0.0
 10
12.58224663313916
 20
-11.46837836084818
 30
0.0
 10
12.5538590463407
 20
-11.43583943399
 30
0.0
 10
12.52653943914267
 20
-11.40240478230565
 30
0.0
 10
12.50025336059021
 20
-11.36803995484028
 30
0.0
 10
12.50025336059021
 20
-11.36803995484028
 30
0.0
 10
12.49715277465349
 20
-11.3707443547962
 30
0.0
 10
12.49715277465349
 20
-11.3707443547962
 30
0.0
 10
12.50817708020629
 20
-11.4251424125083
 30
0.0
 10
12.51496391831223
 20
-11.46636297998931
 30
0.0
 10
12.52140624686965
 20
-11.5113042505944
 30
0.0
 10
12.52140624686965
 20
-11.5113042505944
 30
0.0
 10
12.5413878006841
 20
-11.86614908557513
 30
0.0
 10
12.5413878006841
 20
-11.86614908557513
 30
0.0
 10
12.5413878006841
 20
-11.86614908557513
 30
0.0
 10
12.54311034842672
 20
-11.86806111356944
 30
0.0
 10
12.54311034842672
 20
-11.86806111356944
 30
0.0
 10
12.54311034842672
 20
-11.86806111356944
 30
0.0
 10
12.76332085184389
 20
-11.67611761860875
 30
0.0
 10
12.76332085184389
 20
-11.67611761860875
 30
0.0
  0
HATCH
  5
133
330
120
100
AcDbEntity
  8
Livello 1
 62
   250
420
  1842203
100
AcDbHatch
 10
0.0
 20
0.0
 30
0.0
210
0.0
220
0.0
230
1.0
  2
SOLID
 70
     1
 71
     0
 91
        2
 92
        1
 93
       11
 72
     1
 10
12.96857964085508
 20
-11.91158989502557
 11
12.82085394644756
 21
-11.74216009906099
 72
     1
 10
12.82085394644756
 20
-11.74216009906099
 11
12.50859049166452
 21
-12.01432264239572
 72
     1
 10
12.50859049166452
 20
-12.01432264239572
 11
12.46022135105161
 21
-11.95880492865092
 72
     1
 10
12.46022135105161
 20
-11.95880492865092
 11
12.4138159148653
 21
-11.30018879925828
 72
     1
 10
12.4138159148653
 20
-11.30018879925828
 11
12.51203558714977
 21
-11.21457817644983
 72
     1
 10
12.51203558714977
 20
-11.21457817644983
 11
12.84913818038146
 21
-11.60132459562397
 72
     1
 10
12.84913818038146
 20
-11.60132459562397
 11
12.94322373808364
 21
-11.5193140975976
 72
     1
 10
12.94322373808364
 20
-11.5193140975976
 11
13.00075683268731
 21
-11.58535657804984
 72
     1
 10
13.00075683268731
 20
-11.58535657804984
 11
12.90670572593999
 21
-11.66736707607621
 72
     1
 10
12.90670572593999
 20
-11.66736707607621
 11
13.0543625184378
 21
-11.8367968720408
 72
     1
 10
13.0543625184378
 20
-11.8367968720408
 11
12.96857964085508
 21
-11.91158989502557
 97
        0
 92
        1
 93
        1
 72
     4
 94
        3
 73
     0
 74
     0
 95
       26
 96
       22
 40
0.0
 40
0.0
 40
0.0
 40
0.0
 40
1.0
 40
1.0
 40
1.0
 40
2.0
 40
2.0
 40
2.0
 40
3.0
 40
3.0
 40
3.0
 40
4.0
 40
4.0
 40
4.0
 40
5.0
 40
5.0
 40
5.0
 40
6.0
 40
6.0
 40
6.0
 40
7.0
 40
7.0
 40
7.0
 40
7.0
 10
12.76332085184389
 20
-11.67611761860875
 10
12.76332085184389
 20
-11.67611761860875
 10
12.58224663313916
 20
-11.46837836084818
 10
12.58224663313916
 20
-11.46837836084818
 10
12.5538590463407
 20
-11.43583943399
 10
12.52653943914267
 20
-11.40240478230565
 10
12.50025336059021
 20
-11.36803995484028
 10
12.50025336059021
 20
-11.36803995484028
 10
12.49715277465349
 20
-11.3707443547962
 10
12.49715277465349
 20
-11.3707443547962
 10
12.50817708020629
 20
-11.4251424125083
 10
12.51496391831223
 20
-11.46636297998931
 10
12.52140624686965
 20
-11.5113042505944
 10
12.52140624686965
 20
-11.5113042505944
 10
12.5413878006841
 20
-11.86614908557513
 10
12.5413878006841
 20
-11.86614908557513
 10
12.5413878006841
 20
-11.86614908557513
 10
12.54311034842672
 20
-11.86806111356944
 10
12.54311034842672
 20
-11.86806111356944
 10
12.54311034842672
 20
-11.86806111356944
 10
12.76332085184389
 20
-11.67611761860875
 10
12.76332085184389
 20
-11.67611761860875
 97
        0
 97
        0
 75
     2
 76
     1
 98
        0
450
        0
451
        0
460
0.0
461
0.0
452
        0
462
0.0
453
        0
470

  0
SPLINE
  5
134
330
120
100
AcDbEntity
  8
Livello 1
370
     0
100
AcDbSpline
210
0.0
220
0.0
230
1.0
 70
    11
 71
     3
 72
    47
 73
    43
 74
     0
 42
0.000000001
 43
0.0000000001
 40
0.0
 40
0.0
 40
0.0
 40
0.0
 40
1.0
 40
1.0
 40
1.0
 40
2.0
 40
2.0
 40
2.0
 40
3.0
 40
3.0
 40
3.0
 40
4.0
 40
4.0
 40
4.0
 40
5.0
 40
5.0
 40
5.0
 40
6.0
 40
6.0
 40
6.0
 40
7.0
 40
7.0
 40
7.0
 40
8.0
 40
8.0
 40
8.0
 40
9.0
 40
9.0
 40
9.0
 40
10.0
 40
10.0
 40
10.0
 40
11.0
 40
11.0
 40
11.0
 40
12.0
 40
12.0
 40
12.0
 40
13.0
 40
13.0
 40
13.0
 40
14.0
 40
14.0
 40
14.0
 40
14.0
 10
13.21779784825805
 20
-11.69435939920315
 30
0.0
 10
13.21779784825805
 20
-11.69435939920315
 30
0.0
 10
13.17273599931098
 20
-11.6426829669244
 30
0.0
 10
13.17273599931098
 20
-11.6426829669244
 30
0.0
 10
13.17273599931098
 20
-11.6426829669244
 30
0.0
 10
13.1881700270849
 20
-11.51635131548029
 30
0.0
 10
13.1881700270849
 20
-11.51635131548029
 30
0.0
 10
13.22796087993954
 20
-11.21550835223085
 30
0.0
 10
13.23540228618768
 20
-11.06752427566194
 30
0.0
 10
13.15468369896827
 20
-10.97281860077242
 30
0.0
 10
13.09963107311398
 20
-10.90961832409551
 30
0.0
 10
13.01563964518359
 20
-10.88007663030949
 30
0.0
 10
12.91531846465311
 20
-10.96749592824771
 30
0.0
 10
12.85434027456419
 20
-11.02065375158511
 30
0.0
 10
12.82870876415393
 20
-11.09353474657557
 30
0.0
 10
12.81854573247245
 20
-11.14450493427985
 30
0.0
 10
12.81854573247245
 20
-11.14450493427985
 30
0.0
 10
12.73786159620789
 20
-11.11036403802102
 30
0.0
 10
12.73786159620789
 20
-11.11036403802102
 30
0.0
 10
12.75270995774932
 20
-11.03346950679024
 30
0.0
 10
12.79549804367612
 20
-10.94897854001449
 30
0.0
 10
12.8730471430491
 20
-10.88138576659389
 30
0.0
 10
13.0178100553393
 20
-10.75522636992404
 30
0.0
 10
13.15892116641513
 20
-10.79394924317825
 30
0.0
 10
13.23650471674296
 20
-10.8829705105171
 30
0.0
 10
13.33661919154432
 20
-10.99782999399533
 30
0.0
 10
13.32759304137296
 20
-11.16912014152195
 30
0.0
 10
13.29607041768293
 20
-11.41890678967999
 30
0.0
 10
13.29607041768293
 20
-11.41890678967999
 30
0.0
 10
13.28235893765163
 20
-11.51175211300748
 30
0.0
 10
13.28235893765163
 20
-11.51175211300748
 30
0.0
 10
13.28235893765163
 20
-11.51175211300748
 30
0.0
 10
13.28401258348455
 20
-11.51364691552437
 30
0.0
 10
13.28401258348455
 20
-11.51364691552437
 30
0.0
 10
13.28401258348455
 20
-11.51364691552437
 30
0.0
 10
13.58594075181185
 20
-11.25049329688356
 30
0.0
 10
13.58594075181185
 20
-11.25049329688356
 30
0.0
 10
13.58594075181185
 20
-11.25049329688356
 30
0.0
 10
13.64685003999106
 20
-11.32037705880185
 30
0.0
 10
13.64685003999106
 20
-11.32037705880185
 30
0.0
 10
13.64685003999106
 20
-11.32037705880185
 30
0.0
 10
13.21779784825805
 20
-11.69435939920315
 30
0.0
 10
13.21779784825805
 20
-11.69435939920315
 30
0.0
  0
HATCH
  5
135
330
120
100
AcDbEntity
  8
Livello 1
 62
   250
420
  1842203
100
AcDbHatch
 10
0.0
 20
0.0
 30
0.0
210
0.0
220
0.0
230
1.0
  2
SOLID
 70
     1
 71
     0
 91
        1
 92
        1
 93
        1
 72
     4
 94
        3
 73
     0
 74
     0
 95
       47
 96
       43
 40
0.0
 40
0.0
 40
0.0
 40
0.0
 40
1.0
 40
1.0
 40
1.0
 40
2.0
 40
2.0
 40
2.0
 40
3.0
 40
3.0
 40
3.0
 40
4.0
 40
4.0
 40
4.0
 40
5.0
 40
5.0
 40
5.0
 40
6.0
 40
6.0
 40
6.0
 40
7.0
 40
7.0
 40
7.0
 40
8.0
 40
8.0
 40
8.0
 40
9.0
 40
9.0
 40
9.0
 40
10.0
 40
10.0
 40
10.0
 40
11.0
 40
11.0
 40
11.0
 40
12.0
 40
12.0
 40
12.0
 40
13.0
 40
13.0
 40
13.0
 40
14.0
 40
14.0
 40
14.0
 40
14.0
 10
13.21779784825805
 20
-11.69435939920315
 10
13.21779784825805
 20
-11.69435939920315
 10
13.17273599931098
 20
-11.6426829669244
 10
13.17273599931098
 20
-11.6426829669244
 10
13.17273599931098
 20
-11.6426829669244
 10
13.1881700270849
 20
-11.51635131548029
 10
13.1881700270849
 20
-11.51635131548029
 10
13.22796087993954
 20
-11.21550835223085
 10
13.23540228618768
 20
-11.06752427566194
 10
13.15468369896827
 20
-10.97281860077242
 10
13.09963107311398
 20
-10.90961832409551
 10
13.01563964518359
 20
-10.88007663030949
 10
12.91531846465311
 20
-10.96749592824771
 10
12.85434027456419
 20
-11.02065375158511
 10
12.82870876415393
 20
-11.09353474657557
 10
12.81854573247245
 20
-11.14450493427985
 10
12.81854573247245
 20
-11.14450493427985
 10
12.73786159620789
 20
-11.11036403802102
 10
12.73786159620789
 20
-11.11036403802102
 10
12.75270995774932
 20
-11.03346950679024
 10
12.79549804367612
 20
-10.94897854001449
 10
12.8730471430491
 20
-10.88138576659389
 10
13.0178100553393
 20
-10.75522636992404
 10
13.15892116641513
 20
-10.79394924317825
 10
13.23650471674296
 20
-10.8829705105171
 10
13.33661919154432
 20
-10.99782999399533
 10
13.32759304137296
 20
-11.16912014152195
 10
13.29607041768293
 20
-11.41890678967999
 10
13.29607041768293
 20
-11.41890678967999
 10
13.28235893765163
 20
-11.51175211300748
 10
13.28235893765163
 20
-11.51175211300748
 10
13.28235893765163
 20
-11.51175211300748
 10
13.28401258348455
 20
-11.51364691552437
 10
13.28401258348455
 20
-11.51364691552437
 10
13.28401258348455
 20
-11.51364691552437
 10
13.58594075181185
 20
-11.25049329688356
 10
13.58594075181185
 20
-11.25049329688356
 10
13.58594075181185
 20
-11.25049329688356
 10
13.64685003999106
 20
-11.32037705880185
 10
13.64685003999106
 20
-11.32037705880185
 10
13.64685003999106
 20
-11.32037705880185
 10
13.21779784825805
 20
-11.69435939920315
 10
13.21779784825805
 20
-11.69435939920315
 97
        0
 97
        0
 75
     2
 76
     1
 98
        0
450
        0
451
        0
460
0.0
461
0.0
452
        0
462
0.0
453
        0
470

  0
ENDBLK
  5
123
330
120
100
AcDbEntity
  8
0
100
AcDbBlockEnd
  0
ENDSEC
  0
SECTION
  2
ENTITIES
  0
HATCH
  5
42
330
1F
100
AcDbEntity
  8
Livello 1
100
AcDbHatch
 10
0.0
 20
0.0
 30
0.0
210
0.0
220
0.0
230
1.0
  2
SOLID
 70
     1
 71
     0
 91
        1
 92
        1
 93
        1
 72
     4
 94
        3
 73
     0
 74
     0
 95
       65
 96
       61
 40
0.0
 40
0.0
 40
0.0
 40
0.0
 40
1.0
 40
1.0
 40
1.0
 40
2.0
 40
2.0
 40
2.0
 40
3.0
 40
3.0
 40
3.0
 40
4.0
 40
4.0
 40
4.0
 40
5.0
 40
5.0
 40
5.0
 40
6.0
 40
6.0
 40
6.0
 40
7.0
 40
7.0
 40
7.0
 40
8.0
 40
8.0
 40
8.0
 40
9.0
 40
9.0
 40
9.0
 40
10.0
 40
10.0
 40
10.0
 40
11.0
 40
11.0
 40
11.0
 40
12.0
 40
12.0
 40
12.0
 40
13.0
 40
13.0
 40
13.0
 40
14.0
 40
14.0
 40
14.0
 40
15.0
 40
15.0
 40
15.0
 40
16.0
 40
16.0
 40
16.0
 40
17.0
 40
17.0
 40
17.0
 40
18.0
 40
18.0
 40
18.0
 40
19.0
 40
19.0
 40
19.0
 40
20.0
 40
20.0
 40
20.0
 40
20.0
 10
14.09285097379475
 20
-19.36536568960312
 10
12.85644250533816
 20
-19.36536568960312
 10
12.8268479783154
 20
-19.05365124523656
 10
12.82619181166547
 20
-19.04028449523991
 10
12.82619181166547
 20
-19.04028449523991
 10
12.82616006166628
 20
-18.64902571755995
 10
12.82616006166628
 20
-18.64902571755995
 10
12.82581433945288
 20
-18.64761460644922
 10
12.82247353398256
 20
-18.61326463423557
 10
12.86012903302188
 20
-18.56586188424744
 10
12.94108833009809
 20
-18.46391968982843
 10
13.1854465802779
 20
-18.32842480097348
 10
13.89000375674759
 20
-18.26162280099014
 10
13.89000375674759
 20
-18.26162280099014
 10
13.89331281221873
 20
-18.29676299542581
 10
13.89331281221873
 20
-18.29676299542581
 10
12.85209981100451
 20
-18.39546668984556
 10
12.86112739410753
 20
-18.64458071756106
 10
12.86133200521342
 20
-18.64709602311603
 10
12.86133200521342
 20
-18.64709602311603
 10
12.86143783854405
 20
-19.03942371746234
 10
12.86143783854405
 20
-19.03942371746234
 10
12.86164277456238
 20
-19.04118055079526
 10
12.90171094862771
 20
-19.33008791183416
 10
14.09243822380528
 20
-19.33008791183416
 10
14.10253119577001
 20
-19.33008791183416
 10
14.11252221869412
 20
-19.33005263405638
 10
14.12282332980264
 20
-19.33001735627861
 10
14.13381552830521
 20
-19.32980921738977
 10
15.24540769439058
 20
-19.30621191184009
 10
15.31751547032873
 20
-18.99639541191755
 10
15.31751547032873
 20
-18.99639541191755
 10
15.31751547032873
 20
-18.64902571755995
 10
15.31751547032873
 20
-18.64902571755995
 10
15.31789332950388
 20
-18.64506402311654
 10
15.32178760910863
 20
-18.60992382868087
 10
15.2805831657154
 20
-18.56124402313748
 10
15.20782275090501
 20
-18.47539202315894
 10
14.97128172916189
 20
-18.32684082875163
 10
14.20433580428387
 20
-18.29683355098136
 10
14.20433580428387
 20
-18.29683355098136
 10
14.2057116375821
 20
-18.2615557732124
 10
14.2057116375821
 20
-18.2615557732124
 10
14.95257392408361
 20
-18.29080457876061
 10
15.21853661174278
 20
-18.4300212731703
 10
15.31014241496128
 20
-18.54164016203125
 10
15.35978530258367
 20
-18.60210274534949
 10
15.35289555275945
 20
-18.64978418978201
 10
15.35258510832292
 20
-18.65178091200373
 10
15.35258510832292
 20
-18.65178091200373
 10
15.3527932472065
 20
-19.0002512730277
 10
15.3527932472065
 20
-19.0002512730277
 10
15.3527932472065
 20
-19.0002512730277
 10
15.35237696943934
 20
-19.00211393969389
 10
15.35237696943934
 20
-19.00211393969389
 10
15.27830774910678
 20
-19.34069593960928
 10
14.17033155515139
 20
-19.36443435626999
 10
14.12320397302038
 20
-19.36529513404756
 10
14.11300516772502
 20
-19.36533041182534
 10
14.10287691798341
 20
-19.36536568960312
 10
14.09285097379475
 20
-19.36536568960312
 97
        0
 97
        0
 75
     2
 76
     1
 98
        0
450
        0
451
        0
460
0.0
461
0.0
452
        0
462
0.0
453
        0
470

  0
HATCH
  5
44
330
1F
100
AcDbEntity
  8
Livello 1
100
AcDbHatch
 10
0.0
 20
0.0
 30
0.0
210
0.0
220
0.0
230
1.0
  2
SOLID
 70
     1
 71
     0
 91
        1
 92
        1
 93
        1
 72
     4
 94
        3
 73
     0
 74
     0
 95
       26
 96
       22
 40
0.0
 40
0.0
 40
0.0
 40
0.0
 40
1.0
 40
1.0
 40
1.0
 40
2.0
 40
2.0
 40
2.0
 40
3.0
 40
3.0
 40
3.0
 40
4.0
 40
4.0
 40
4.0
 40
5.0
 40
5.0
 40
5.0
 40
6.0
 40
6.0
 40
6.0
 40
7.0
 40
7.0
 40
7.0
 40
7.0
 10
13.99721644845681
 20
-18.9877135508086
 10
12.8497926443967
 20
-18.9877135508086
 10
12.82657281165575
 20
-18.66401171755623
 10
12.82616006166628
 20
-18.64954077311539
 10
12.82616006166628
 20
-18.64954077311539
 10
12.86140256076717
 20
-18.64823196756018
 10
12.86140256076717
 20
-18.64823196756018
 10
12.86161069965075
 20
-18.65160805089267
 10
12.89671561542182
 20
-18.98451032858718
 10
14.17884055493431
 20
-18.94988518970696
 10
14.18872891579314
 20
-18.94968057859593
 10
15.15731908552679
 20
-18.92580457860186
 10
15.31975208138278
 20
-18.61019899534744
 10
15.31975208138278
 20
-18.61019899534744
 10
15.35110344169406
 20
-18.62632093978787
 10
15.35110344169406
 20
-18.62632093978787
 10
15.17912427941494
 20
-18.96053202303766
 10
14.22042247054013
 20
-18.98430218969834
 10
14.17970133269012
 20
-18.98516296747592
 10
14.11593322320587
 20
-18.98688452303106
 10
14.05509316920248
 20
-18.9877135508086
 10
13.99721644845681
 20
-18.9877135508086
 97
        0
 97
        0
 75
     2
 76
     1
 98
        0
450
        0
451
        0
460
0.0
461
0.0
452
        0
462
0.0
453
        0
470

  0
HATCH
  5
46
330
1F
100
AcDbEntity
  8
Livello 1
100
AcDbHatch
 10
0.0
 20
0.0
 30
0.0
210
0.0
220
0.0
230
1.0
  2
SOLID
 70
     1
 71
     0
 91
        1
 92
        1
 93
        1
 72
     4
 94
        3
 73
     0
 74
     0
 95
       41
 96
       37
 40
0.0
 40
0.0
 40
0.0
 40
0.0
 40
1.0
 40
1.0
 40
1.0
 40
2.0
 40
2.0
 40
2.0
 40
3.0
 40
3.0
 40
3.0
 40
4.0
 40
4.0
 40
4.0
 40
5.0
 40
5.0
 40
5.0
 40
6.0
 40
6.0
 40
6.0
 40
7.0
 40
7.0
 40
7.0
 40
8.0
 40
8.0
 40
8.0
 40
9.0
 40
9.0
 40
9.0
 40
10.0
 40
10.0
 40
10.0
 40
11.0
 40
11.0
 40
11.0
 40
12.0
 40
12.0
 40
12.0
 40
12.0
 10
13.95849203277809
 20
-18.61825996756762
 10
13.95849203277809
 20
-18.61825996756762
 10
13.95849203277809
 20
-18.39736110651177
 10
13.95849203277809
 20
-18.39736110651177
 10
13.95849203277809
 20
-18.39736110651177
 10
13.89165828448316
 20
-18.39736110651177
 10
13.89165828448316
 20
-18.39736110651177
 10
13.89165828448316
 20
-18.39736110651177
 10
13.85059142441975
 20
-18.2946286898708
 10
13.91735814493861
 20
-18.23295960655286
 10
13.91735814493861
 20
-18.23295960655286
 10
13.95849203277809
 20
-18.23295960655286
 10
13.95849203277809
 20
-18.23295960655286
 10
13.95849203277809
 20
-18.23295960655286
 10
13.98419189323354
 20
-18.26121005099028
 10
13.98419189323354
 20
-18.26121005099028
 10
13.98419189323354
 20
-18.26121005099028
 10
14.01499292022552
 20
-18.25094421765947
 10
14.01499292022552
 20
-18.25094421765947
 10
14.01499292022552
 20
-18.25094421765947
 10
14.0178856979295
 20
-18.27919466209688
 10
14.08961247387737
 20
-18.27919466209688
 10
14.161409805379
 20
-18.27919466209688
 10
14.15885922211074
 20
-18.24832660654904
 10
14.16395721868122
 20
-18.24577602321635
 10
14.16912505518217
 20
-18.24322896766142
 10
14.19737549890588
 20
-18.26121005099028
 10
14.19737549890588
 20
-18.26121005099028
 10
14.19737549890588
 20
-18.26121005099028
 10
14.22300833158527
 20
-18.60795885645911
 10
14.22300833158527
 20
-18.60795885645911
 10
14.22300833158527
 20
-18.60795885645911
 10
14.20764133197732
 20
-18.64647513422726
 10
14.10229166314109
 20
-18.64647513422726
 10
14.10229166314109
 20
-18.64647513422726
 10
13.95849203277809
 20
-18.64902571755995
 10
13.95849203277809
 20
-18.61825996756762
 97
        0
 97
        0
 75
     2
 76
     1
 98
        0
450
        0
451
        0
460
0.0
461
0.0
452
        0
462
0.0
453
        0
470

  0
HATCH
  5
48
330
1F
100
AcDbEntity
  8
Livello 1
100
AcDbHatch
 10
0.0
 20
0.0
 30
0.0
210
0.0
220
0.0
230
1.0
  2
SOLID
 70
     1
 71
     0
 91
        1
 92
        1
 93
        1
 72
     4
 94
        3
 73
     0
 74
     0
 95
      101
 96
       97
 40
0.0
 40
0.0
 40
0.0
 40
0.0
 40
1.0
 40
1.0
 40
1.0
 40
2.0
 40
2.0
 40
2.0
 40
3.0
 40
3.0
 40
3.0
 40
4.0
 40
4.0
 40
4.0
 40
5.0
 40
5.0
 40
5.0
 40
6.0
 40
6.0
 40
6.0
 40
7.0
 40
7.0
 40
7.0
 40
8.0
 40
8.0
 40
8.0
 40
9.0
 40
9.0
 40
9.0
 40
10.0
 40
10.0
 40
10.0
 40
11.0
 40
11.0
 40
11.0
 40
12.0
 40
12.0
 40
12.0
 40
13.0
 40
13.0
 40
13.0
 40
14.0
 40
14.0
 40
14.0
 40
15.0
 40
15.0
 40
15.0
 40
16.0
 40
16.0
 40
16.0
 40
17.0
 40
17.0
 40
17.0
 40
18.0
 40
18.0
 40
18.0
 40
19.0
 40
19.0
 40
19.0
 40
20.0
 40
20.0
 40
20.0
 40
21.0
 40
21.0
 40
21.0
 40
22.0
 40
22.0
 40
22.0
 40
23.0
 40
23.0
 40
23.0
 40
24.0
 40
24.0
 40
24.0
 40
25.0
 40
25.0
 40
25.0
 40
26.0
 40
26.0
 40
26.0
 40
27.0
 40
27.0
 40
27.0
 40
28.0
 40
28.0
 40
28.0
 40
29.0
 40
29.0
 40
29.0
 40
30.0
 40
30.0
 40
30.0
 40
31.0
 40
31.0
 40
31.0
 40
32.0
 40
32.0
 40
32.0
 40
32.0
 10
14.0326318086644
 20
-18.25094421765947
 10
14.0326318086644
 20
-18.25094421765947
 10
13.99735403178664
 20
-18.25094421765947
 10
13.99735403178664
 20
-18.25094421765947
 10
13.99735403178664
 20
-18.25094421765947
 10
13.99735403178664
 20
-17.84194424553952
 10
13.99735403178664
 20
-17.84194424553952
 10
13.99697303179636
 20
-17.82995332887582
 10
14.00558786490991
 20
-17.80917824554772
 10
14.06412110759507
 20
-17.80263421777159
 10
14.06412110759507
 20
-17.80263421777159
 10
14.06412110759507
 20
-17.73407538445539
 10
14.06412110759507
 20
-17.73407538445539
 10
14.06398316897567
 20
-17.73283713445567
 10
14.06043422462177
 20
-17.67272027335962
 10
14.15176133340293
 20
-17.64143946781185
 10
14.15176133340293
 20
-17.64143946781185
 10
14.48996938033008
 20
-17.33951107899844
 10
14.48996938033008
 20
-17.33951107899844
 10
14.50860662985461
 20
-17.3208738290031
 10
14.55566718420955
 20
-17.29300085678784
 10
14.59821218312413
 20
-17.32311044011368
 10
14.60479148851184
 20
-17.32548816233531
 10
14.61237305190249
 20
-17.33072338455622
 10
14.61829971856766
 20
-17.33995910677614
 10
14.63604054327016
 20
-17.36772624565807
 10
14.63228346003268
 20
-17.42115796786695
 10
14.60710218289733
 20
-17.49874085673641
 10
14.60710218289733
 20
-17.49874085673641
 10
14.5265877127292
 20
-17.86606013442239
 10
14.5265877127292
 20
-17.86606013442239
 10
14.5265877127292
 20
-17.86606013442239
 10
14.60920121062156
 20
-17.96372666217575
 10
14.60920121062156
 20
-17.96372666217575
 10
14.60920121062156
 20
-17.96372666217575
 10
14.61891671037369
 20
-18.05412596770871
 10
14.61891671037369
 20
-18.05412596770871
 10
14.61891671037369
 20
-18.05412596770871
 10
14.51639243521153
 20
-18.0906772732551
 10
14.51639243521153
 20
-18.0906772732551
 10
14.51639243521153
 20
-18.0906772732551
 10
14.18049508266987
 20
-18.1127258843607
 10
14.18049508266987
 20
-18.1127258843607
 10
14.18049508266987
 20
-18.1127258843607
 10
14.1815961075657
 20
-18.245638439883
 10
14.1815961075657
 20
-18.245638439883
 10
14.1815961075657
 20
-18.245638439883
 10
14.14631832979674
 20
-18.24591360654964
 10
14.14631832979674
 20
-18.24591360654964
 10
14.14631832979674
 20
-18.24591360654964
 10
14.14494249646379
 20
-18.07972352325785
 10
14.14494249646379
 20
-18.07972352325785
 10
14.14494249646379
 20
-18.07972352325785
 10
14.51156996311234
 20
-18.05564291215276
 10
14.51156996311234
 20
-18.05564291215276
 10
14.51156996311234
 20
-18.05564291215276
 10
14.58088373912177
 20
-18.0304228288257
 10
14.58088373912177
 20
-18.0304228288257
 10
14.58088373912177
 20
-18.0304228288257
 10
14.57530279481971
 20
-17.97826463439432
 10
14.57530279481971
 20
-17.97826463439432
 10
14.57530279481971
 20
-17.97826463439432
 10
14.48841715814746
 20
-17.87553221775336
 10
14.48841715814746
 20
-17.87553221775336
 10
14.48841715814746
 20
-17.87553221775336
 10
14.57309793376485
 20
-17.48950866229431
 10
14.57309793376485
 20
-17.48950866229431
 10
14.61044298836766
 20
-17.37423499565643
 10
14.58636237787089
 20
-17.35635621788315
 10
14.58608721121124
 20
-17.35625391232763
 10
14.58608721121124
 20
-17.35625391232763
 10
14.58126121133437
 20
-17.35566830121664
 10
14.58126121133437
 20
-17.35566830121664
 10
14.58126121133437
 20
-17.35566830121664
 10
14.57953965582273
 20
-17.35315299566173
 10
14.57953965582273
 20
-17.35315299566173
 10
14.55011798990667
 20
-17.33041646788962
 10
14.51559868523178
 20
-17.3637645512146
 10
14.51415229637978
 20
-17.36517566232538
 10
14.51415229637978
 20
-17.36517566232538
 10
14.16623227747819
 20
-17.67378919002597
 10
14.16623227747819
 20
-17.67378919002597
 10
14.09912336252362
 20
-17.69562966224273
 10
14.09932832980847
 20
-17.73159535667819
 10
14.09936360758625
 20
-17.73314757890002
 10
14.09936360758625
 20
-17.73314757890002
 10
14.09939888536403
 20
-17.83553427331886
 10
14.09939888536403
 20
-17.83553427331886
 10
14.09939888536403
 20
-17.83553427331886
 10
14.08275800183002
 20
-17.83646560665198
 10
14.08275800183002
 20
-17.83646560665198
 10
14.04913475268782
 20
-17.83839530109597
 10
14.03659350300778
 20
-17.84418085665004
 10
14.0326318086644
 20
-17.84669616220501
 10
14.0326318086644
 20
-17.84669616220501
 10
14.0326318086644
 20
-18.25094421765947
 10
14.0326318086644
 20
-18.25094421765947
 97
        0
 97
        0
 75
     2
 76
     1
 98
        0
450
        0
451
        0
460
0.0
461
0.0
452
        0
462
0.0
453
        0
470

  0
SPLINE
  5
49
330
1F
100
AcDbEntity
  8
Livello 1
100
AcDbSpline
210
0.0
220
0.0
230
1.0
 70
     9
 71
     3
 72
    17
 73
    13
 74
     0
 42
0.000000001
 43
0.0000000001
 40
0.0
 40
0.0
 40
0.0
 40
0.0
 40
1.0
 40
1.0
 40
1.0
 40
2.0
 40
2.0
 40
2.0
 40
3.0
 40
3.0
 40
3.0
 40
4.0
 40
4.0
 40
4.0
 40
4.0
 10
14.53403132365041
 20
-17.4974320511812
 30
0.0
 10
14.49193082472449
 20
-17.4974320511812
 30
0.0
 10
14.45768668670924
 20
-17.46318791230088
 30
0.0
 10
14.45768668670924
 20
-17.42109094008915
 30
0.0
 10
14.45768668670924
 20
-17.3789551623219
 30
0.0
 10
14.49193082472449
 20
-17.34467927344162
 30
0.0
 10
14.53403132365041
 20
-17.34467927344162
 30
0.0
 10
14.57616357257553
 20
-17.34467927344162
 30
0.0
 10
14.61044298836766
 20
-17.3789551623219
 30
0.0
 10
14.61044298836766
 20
-17.42109094008915
 30
0.0
 10
14.61044298836766
 20
-17.46318791230088
 30
0.0
 10
14.57616357257553
 20
-17.4974320511812
 30
0.0
 10
14.53403132365041
 20
-17.4974320511812
 30
0.0
  0
SPLINE
  5
4A
330
1F
100
AcDbEntity
  8
Livello 1
100
AcDbSpline
210
0.0
220
0.0
230
1.0
 70
     9
 71
     3
 72
    17
 73
    13
 74
     0
 42
0.000000001
 43
0.0000000001
 40
0.0
 40
0.0
 40
0.0
 40
0.0
 40
1.0
 40
1.0
 40
1.0
 40
2.0
 40
2.0
 40
2.0
 40
3.0
 40
3.0
 40
3.0
 40
4.0
 40
4.0
 40
4.0
 40
4.0
 10
14.53403132365041
 20
-17.37995705121057
 30
0.0
 10
14.51139710200564
 20
-17.37995705121057
 30
0.0
 10
14.492964463587
 20
-17.39842144009485
 30
0.0
 10
14.492964463587
 20
-17.42109094008915
 30
0.0
 10
14.492964463587
 20
-17.44372516230575
 30
0.0
 10
14.51139710200564
 20
-17.46215427341225
 30
0.0
 10
14.53403132365041
 20
-17.46215427341225
 30
0.0
 10
14.55670082307206
 20
-17.46215427341225
 30
0.0
 10
14.57516521148989
 20
-17.44372516230575
 30
0.0
 10
14.57516521148989
 20
-17.42109094008915
 30
0.0
 10
14.57516521148989
 20
-17.39842144009485
 30
0.0
 10
14.55670082307206
 20
-17.37995705121057
 30
0.0
 10
14.53403132365041
 20
-17.37995705121057
 30
0.0
  0
HATCH
  5
4B
330
1F
100
AcDbEntity
  8
Livello 1
100
AcDbHatch
 10
0.0
 20
0.0
 30
0.0
210
0.0
220
0.0
230
1.0
  2
SOLID
 70
     1
 71
     0
 91
        2
 92
        1
 93
        1
 72
     4
 94
        3
 73
     0
 74
     0
 95
       17
 96
       13
 40
0.0
 40
0.0
 40
0.0
 40
0.0
 40
1.0
 40
1.0
 40
1.0
 40
2.0
 40
2.0
 40
2.0
 40
3.0
 40
3.0
 40
3.0
 40
4.0
 40
4.0
 40
4.0
 40
4.0
 10
14.53403132365041
 20
-17.4974320511812
 10
14.49193082472449
 20
-17.4974320511812
 10
14.45768668670924
 20
-17.46318791230088
 10
14.45768668670924
 20
-17.42109094008915
 10
14.45768668670924
 20
-17.3789551623219
 10
14.49193082472449
 20
-17.34467927344162
 10
14.53403132365041
 20
-17.34467927344162
 10
14.57616357257553
 20
-17.34467927344162
 10
14.61044298836766
 20
-17.3789551623219
 10
14.61044298836766
 20
-17.42109094008915
 10
14.61044298836766
 20
-17.46318791230088
 10
14.57616357257553
 20
-17.4974320511812
 10
14.53403132365041
 20
-17.4974320511812
 97
        0
 97
        0
 92
        1
 93
        1
 72
     4
 94
        3
 73
     0
 74
     0
 95
       17
 96
       13
 40
0.0
 40
0.0
 40
0.0
 40
0.0
 40
1.0
 40
1.0
 40
1.0
 40
2.0
 40
2.0
 40
2.0
 40
3.0
 40
3.0
 40
3.0
 40
4.0
 40
4.0
 40
4.0
 40
4.0
 10
14.53403132365041
 20
-17.37995705121057
 10
14.51139710200564
 20
-17.37995705121057
 10
14.492964463587
 20
-17.39842144009485
 10
14.492964463587
 20
-17.42109094008915
 10
14.492964463587
 20
-17.44372516230575
 10
14.51139710200564
 20
-17.46215427341225
 10
14.53403132365041
 20
-17.46215427341225
 10
14.55670082307206
 20
-17.46215427341225
 10
14.57516521148989
 20
-17.44372516230575
 10
14.57516521148989
 20
-17.42109094008915
 10
14.57516521148989
 20
-17.39842144009485
 10
14.55670082307206
 20
-17.37995705121057
 10
14.53403132365041
 20
-17.37995705121057
 97
        0
 97
        0
 75
     2
 76
     1
 98
        0
450
        0
451
        0
460
0.0
461
0.0
452
        0
462
0.0
453
        0
470

  0
SPLINE
  5
4C
330
1F
100
AcDbEntity
  8
Livello 1
100
AcDbSpline
210
0.0
220
0.0
230
1.0
 70
     9
 71
     3
 72
    17
 73
    13
 74
     0
 42
0.000000001
 43
0.0000000001
 40
0.0
 40
0.0
 40
0.0
 40
0.0
 40
1.0
 40
1.0
 40
1.0
 40
2.0
 40
2.0
 40
2.0
 40
3.0
 40
3.0
 40
3.0
 40
4.0
 40
4.0
 40
4.0
 40
4.0
 10
13.4116864911727
 20
-16.28775705148359
 30
0.0
 10
13.36955424224759
 20
-16.28775705148359
 30
0.0
 10
13.33527482645546
 20
-16.25347763482549
 30
0.0
 10
13.33527482645546
 20
-16.21131010705828
 30
0.0
 10
13.33527482645546
 20
-16.1692096070688
 30
0.0
 10
13.36955424224759
 20
-16.13493371818852
 30
0.0
 10
13.4116864911727
 20
-16.13493371818852
 30
0.0
 10
13.45378699009863
 20
-16.13493371818852
 30
0.0
 10
13.48803112811388
 20
-16.1692096070688
 30
0.0
 10
13.48803112811388
 20
-16.21131010705828
 30
0.0
 10
13.48803112811388
 20
-16.25347763482549
 30
0.0
 10
13.45378699009863
 20
-16.28775705148359
 30
0.0
 10
13.4116864911727
 20
-16.28775705148359
 30
0.0
  0
SPLINE
  5
4D
330
1F
100
AcDbEntity
  8
Livello 1
100
AcDbSpline
210
0.0
220
0.0
230
1.0
 70
     9
 71
     3
 72
    17
 73
    13
 74
     0
 42
0.000000001
 43
0.0000000001
 40
0.0
 40
0.0
 40
0.0
 40
0.0
 40
1.0
 40
1.0
 40
1.0
 40
2.0
 40
2.0
 40
2.0
 40
3.0
 40
3.0
 40
3.0
 40
4.0
 40
4.0
 40
4.0
 40
4.0
 10
13.4116864911727
 20
-16.17021149595747
 30
0.0
 10
13.38902051952874
 20
-16.17021149595747
 30
0.0
 10
13.37055260333323
 20
-16.18864060706397
 30
0.0
 10
13.37055260333323
 20
-16.21131010705828
 30
0.0
 10
13.37055260333323
 20
-16.23401488483036
 30
0.0
 10
13.38902051952874
 20
-16.25247927371463
 30
0.0
 10
13.4116864911727
 20
-16.25247927371463
 30
0.0
 10
13.43432071281748
 20
-16.25247927371463
 30
0.0
 10
13.45275335123611
 20
-16.23401488483036
 30
0.0
 10
13.45275335123611
 20
-16.21131010705828
 30
0.0
 10
13.45275335123611
 20
-16.18864060706397
 30
0.0
 10
13.43432071281748
 20
-16.17021149595747
 30
0.0
 10
13.4116864911727
 20
-16.17021149595747
 30
0.0
  0
HATCH
  5
4E
330
1F
100
AcDbEntity
  8
Livello 1
100
AcDbHatch
 10
0.0
 20
0.0
 30
0.0
210
0.0
220
0.0
230
1.0
  2
SOLID
 70
     1
 71
     0
 91
        2
 92
        1
 93
        1
 72
     4
 94
        3
 73
     0
 74
     0
 95
       17
 96
       13
 40
0.0
 40
0.0
 40
0.0
 40
0.0
 40
1.0
 40
1.0
 40
1.0
 40
2.0
 40
2.0
 40
2.0
 40
3.0
 40
3.0
 40
3.0
 40
4.0
 40
4.0
 40
4.0
 40
4.0
 10
13.4116864911727
 20
-16.28775705148359
 10
13.36955424224759
 20
-16.28775705148359
 10
13.33527482645546
 20
-16.25347763482549
 10
13.33527482645546
 20
-16.21131010705828
 10
13.33527482645546
 20
-16.1692096070688
 10
13.36955424224759
 20
-16.13493371818852
 10
13.4116864911727
 20
-16.13493371818852
 10
13.45378699009863
 20
-16.13493371818852
 10
13.48803112811388
 20
-16.1692096070688
 10
13.48803112811388
 20
-16.21131010705828
 10
13.48803112811388
 20
-16.25347763482549
 10
13.45378699009863
 20
-16.28775705148359
 10
13.4116864911727
 20
-16.28775705148359
 97
        0
 97
        0
 92
        1
 93
        1
 72
     4
 94
        3
 73
     0
 74
     0
 95
       17
 96
       13
 40
0.0
 40
0.0
 40
0.0
 40
0.0
 40
1.0
 40
1.0
 40
1.0
 40
2.0
 40
2.0
 40
2.0
 40
3.0
 40
3.0
 40
3.0
 40
4.0
 40
4.0
 40
4.0
 40
4.0
 10
13.4116864911727
 20
-16.17021149595747
 10
13.38902051952874
 20
-16.17021149595747
 10
13.37055260333323
 20
-16.18864060706397
 10
13.37055260333323
 20
-16.21131010705828
 10
13.37055260333323
 20
-16.23401488483036
 10
13.38902051952874
 20
-16.25247927371463
 10
13.4116864911727
 20
-16.25247927371463
 10
13.43432071281748
 20
-16.25247927371463
 10
13.45275335123611
 20
-16.23401488483036
 10
13.45275335123611
 20
-16.21131010705828
 10
13.45275335123611
 20
-16.18864060706397
 10
13.43432071281748
 20
-16.17021149595747
 10
13.4116864911727
 20
-16.17021149595747
 97
        0
 97
        0
 75
     2
 76
     1
 98
        0
450
        0
451
        0
460
0.0
461
0.0
452
        0
462
0.0
453
        0
470

  0
SPLINE
  5
4F
330
1F
100
AcDbEntity
  8
Livello 1
100
AcDbSpline
210
0.0
220
0.0
230
1.0
 70
    11
 71
     3
 72
    17
 73
    13
 74
     0
 42
0.000000001
 43
0.0000000001
 40
0.0
 40
0.0
 40
0.0
 40
0.0
 40
1.0
 40
1.0
 40
1.0
 40
2.0
 40
2.0
 40
2.0
 40
3.0
 40
3.0
 40
3.0
 40
4.0
 40
4.0
 40
4.0
 40
4.0
 10
14.1543119166712
 20
-17.80917824554772
 30
0.0
 10
14.11769005649439
 20
-17.80917824554772
 30
0.0
 10
14.08789091836574
 20
-17.779414384444
 30
0.0
 10
14.08789091836574
 20
-17.74279252334206
 30
0.0
 10
14.08789091836574
 20
-17.70617066224011
 30
0.0
 10
14.11769005649439
 20
-17.67637152335868
 30
0.0
 10
14.1543119166712
 20
-17.67637152335868
 30
0.0
 10
14.190933776848
 20
-17.67637152335868
 30
0.0
 10
14.22073291497665
 20
-17.70617066224011
 30
0.0
 10
14.22073291497665
 20
-17.74279252334206
 30
0.0
 10
14.22073291497665
 20
-17.779414384444
 30
0.0
 10
14.190933776848
 20
-17.80917824554772
 30
0.0
 10
14.1543119166712
 20
-17.80917824554772
 30
0.0
  0
SPLINE
  5
50
330
1F
100
AcDbEntity
  8
Livello 1
100
AcDbSpline
210
0.0
220
0.0
230
1.0
 70
    11
 71
     3
 72
    17
 73
    13
 74
     0
 42
0.000000001
 43
0.0000000001
 40
0.0
 40
0.0
 40
0.0
 40
0.0
 40
1.0
 40
1.0
 40
1.0
 40
2.0
 40
2.0
 40
2.0
 40
3.0
 40
3.0
 40
3.0
 40
4.0
 40
4.0
 40
4.0
 40
4.0
 10
14.1543119166712
 20
-17.71164930112764
 30
0.0
 10
14.13715633377554
 20
-17.71164930112764
 30
0.0
 10
14.1231686952435
 20
-17.72563694001306
 30
0.0
 10
14.1231686952435
 20
-17.74279252334206
 30
0.0
 10
14.1231686952435
 20
-17.75994810667112
 30
0.0
 10
14.13715633377554
 20
-17.77390046777876
 30
0.0
 10
14.1543119166712
 20
-17.77390046777876
 30
0.0
 10
14.17146749956685
 20
-17.77390046777876
 30
0.0
 10
14.18545513809889
 20
-17.75994810667112
 30
0.0
 10
14.18545513809889
 20
-17.74279252334206
 30
0.0
 10
14.18545513809889
 20
-17.72563694001306
 30
0.0
 10
14.17146749956685
 20
-17.71164930112764
 30
0.0
 10
14.1543119166712
 20
-17.71164930112764
 30
0.0
  0
HATCH
  5
51
330
1F
100
AcDbEntity
  8
Livello 1
100
AcDbHatch
 10
0.0
 20
0.0
 30
0.0
210
0.0
220
0.0
230
1.0
  2
SOLID
 70
     1
 71
     0
 91
        2
 92
        1
 93
        1
 72
     4
 94
        3
 73
     0
 74
     0
 95
       17
 96
       13
 40
0.0
 40
0.0
 40
0.0
 40
0.0
 40
1.0
 40
1.0
 40
1.0
 40
2.0
 40
2.0
 40
2.0
 40
3.0
 40
3.0
 40
3.0
 40
4.0
 40
4.0
 40
4.0
 40
4.0
 10
14.1543119166712
 20
-17.80917824554772
 10
14.11769005649439
 20
-17.80917824554772
 10
14.08789091836574
 20
-17.779414384444
 10
14.08789091836574
 20
-17.74279252334206
 10
14.08789091836574
 20
-17.70617066224011
 10
14.11769005649439
 20
-17.67637152335868
 10
14.1543119166712
 20
-17.67637152335868
 10
14.190933776848
 20
-17.67637152335868
 10
14.22073291497665
 20
-17.70617066224011
 10
14.22073291497665
 20
-17.74279252334206
 10
14.22073291497665
 20
-17.779414384444
 10
14.190933776848
 20
-17.80917824554772
 10
14.1543119166712
 20
-17.80917824554772
 97
        0
 97
        0
 92
        1
 93
        1
 72
     4
 94
        3
 73
     0
 74
     0
 95
       17
 96
       13
 40
0.0
 40
0.0
 40
0.0
 40
0.0
 40
1.0
 40
1.0
 40
1.0
 40
2.0
 40
2.0
 40
2.0
 40
3.0
 40
3.0
 40
3.0
 40
4.0
 40
4.0
 40
4.0
 40
4.0
 10
14.1543119166712
 20
-17.71164930112764
 10
14.13715633377554
 20
-17.71164930112764
 10
14.1231686952435
 20
-17.72563694001306
 10
14.1231686952435
 20
-17.74279252334206
 10
14.1231686952435
 20
-17.75994810667112
 10
14.13715633377554
 20
-17.77390046777876
 10
14.1543119166712
 20
-17.77390046777876
 10
14.17146749956685
 20
-17.77390046777876
 10
14.18545513809889
 20
-17.75994810667112
 10
14.18545513809889
 20
-17.74279252334206
 10
14.18545513809889
 20
-17.72563694001306
 10
14.17146749956685
 20
-17.71164930112764
 10
14.1543119166712
 20
-17.71164930112764
 97
        0
 97
        0
 75
     2
 76
     1
 98
        0
450
        0
451
        0
460
0.0
461
0.0
452
        0
462
0.0
453
        0
470

  0
SPLINE
  5
52
330
1F
100
AcDbEntity
  8
Livello 1
100
AcDbSpline
210
0.0
220
0.0
230
1.0
 70
     9
 71
     3
 72
    17
 73
    13
 74
     0
 42
0.000000001
 43
0.0000000001
 40
0.0
 40
0.0
 40
0.0
 40
0.0
 40
1.0
 40
1.0
 40
1.0
 40
2.0
 40
2.0
 40
2.0
 40
3.0
 40
3.0
 40
3.0
 40
4.0
 40
4.0
 40
4.0
 40
4.0
 10
11.93980591761239
 20
-14.09226571869915
 30
0.0
 10
11.90318405743558
 20
-14.09226571869915
 30
0.0
 10
11.87338491930693
 20
-14.06248421870662
 30
0.0
 10
11.87338491930693
 20
-14.02586235760464
 30
0.0
 10
11.87338491930693
 20
-13.98924049650269
 30
0.0
 10
11.90318405743558
 20
-13.95945899651015
 30
0.0
 10
11.93980591761239
 20
-13.95945899651015
 30
0.0
 10
11.97639250001233
 20
-13.95945899651015
 30
0.0
 10
12.00615666366514
 20
-13.98924049650269
 30
0.0
 10
12.00615666366514
 20
-14.02586235760464
 30
0.0
 10
12.00615666366514
 20
-14.06248421870662
 30
0.0
 10
11.97639250001233
 20
-14.09226571869915
 30
0.0
 10
11.93980591761239
 20
-14.09226571869915
 30
0.0
  0
SPLINE
  5
53
330
1F
100
AcDbEntity
  8
Livello 1
100
AcDbSpline
210
0.0
220
0.0
230
1.0
 70
     9
 71
     3
 72
    17
 73
    13
 74
     0
 42
0.000000001
 43
0.0000000001
 40
0.0
 40
0.0
 40
0.0
 40
0.0
 40
1.0
 40
1.0
 40
1.0
 40
2.0
 40
2.0
 40
2.0
 40
3.0
 40
3.0
 40
3.0
 40
4.0
 40
4.0
 40
4.0
 40
4.0
 10
11.93980591761239
 20
-13.99473677427911
 30
0.0
 10
11.92264680693905
 20
-13.99473677427911
 30
0.0
 10
11.9086626961847
 20
-14.00870677427561
 30
0.0
 10
11.9086626961847
 20
-14.02586235760464
 30
0.0
 10
11.9086626961847
 20
-14.0430179409337
 30
0.0
 10
11.92264680693905
 20
-14.05698794093019
 30
0.0
 10
11.93980591761239
 20
-14.05698794093019
 30
0.0
 10
11.95692622273118
 20
-14.05698794093019
 30
0.0
 10
11.97087888589618
 20
-14.0430179409337
 30
0.0
 10
11.97087888589618
 20
-14.02586235760464
 30
0.0
 10
11.97087888589618
 20
-14.00870677427561
 30
0.0
 10
11.95692622273118
 20
-13.99473677427911
 30
0.0
 10
11.93980591761239
 20
-13.99473677427911
 30
0.0
  0
HATCH
  5
54
330
1F
100
AcDbEntity
  8
Livello 1
100
AcDbHatch
 10
0.0
 20
0.0
 30
0.0
210
0.0
220
0.0
230
1.0
  2
SOLID
 70
     1
 71
     0
 91
        2
 92
        1
 93
        1
 72
     4
 94
        3
 73
     0
 74
     0
 95
       17
 96
       13
 40
0.0
 40
0.0
 40
0.0
 40
0.0
 40
1.0
 40
1.0
 40
1.0
 40
2.0
 40
2.0
 40
2.0
 40
3.0
 40
3.0
 40
3.0
 40
4.0
 40
4.0
 40
4.0
 40
4.0
 10
11.93980591761239
 20
-14.09226571869915
 10
11.90318405743558
 20
-14.09226571869915
 10
11.87338491930693
 20
-14.06248421870662
 10
11.87338491930693
 20
-14.02586235760464
 10
11.87338491930693
 20
-13.98924049650269
 10
11.90318405743558
 20
-13.95945899651015
 10
11.93980591761239
 20
-13.95945899651015
 10
11.97639250001233
 20
-13.95945899651015
 10
12.00615666366514
 20
-13.98924049650269
 10
12.00615666366514
 20
-14.02586235760464
 10
12.00615666366514
 20
-14.06248421870662
 10
11.97639250001233
 20
-14.09226571869915
 10
11.93980591761239
 20
-14.09226571869915
 97
        0
 97
        0
 92
        1
 93
        1
 72
     4
 94
        3
 73
     0
 74
     0
 95
       17
 96
       13
 40
0.0
 40
0.0
 40
0.0
 40
0.0
 40
1.0
 40
1.0
 40
1.0
 40
2.0
 40
2.0
 40
2.0
 40
3.0
 40
3.0
 40
3.0
 40
4.0
 40
4.0
 40
4.0
 40
4.0
 10
11.93980591761239
 20
-13.99473677427911
 10
11.92264680693905
 20
-13.99473677427911
 10
11.9086626961847
 20
-14.00870677427561
 10
11.9086626961847
 20
-14.02586235760464
 10
11.9086626961847
 20
-14.0430179409337
 10
11.92264680693905
 20
-14.05698794093019
 10
11.93980591761239
 20
-14.05698794093019
 10
11.95692622273118
 20
-14.05698794093019
 10
11.97087888589618
 20
-14.0430179409337
 10
11.97087888589618
 20
-14.02586235760464
 10
11.97087888589618
 20
-14.00870677427561
 10
11.95692622273118
 20
-13.99473677427911
 10
11.93980591761239
 20
-13.99473677427911
 97
        0
 97
        0
 75
     2
 76
     1
 98
        0
450
        0
451
        0
460
0.0
461
0.0
452
        0
462
0.0
453
        0
470

  0
SPLINE
  5
55
330
1F
100
AcDbEntity
  8
Livello 1
100
AcDbSpline
210
0.0
220
0.0
230
1.0
 70
     9
 71
     3
 72
    17
 73
    13
 74
     0
 42
0.000000001
 43
0.0000000001
 40
0.0
 40
0.0
 40
0.0
 40
0.0
 40
1.0
 40
1.0
 40
1.0
 40
2.0
 40
2.0
 40
2.0
 40
3.0
 40
3.0
 40
3.0
 40
4.0
 40
4.0
 40
4.0
 40
4.0
 10
12.28631129766119
 20
-14.39295585751288
 30
0.0
 10
12.24969296526207
 20
-14.39295585751288
 30
0.0
 10
12.21989029935574
 20
-14.36317082974256
 30
0.0
 10
12.21989029935574
 20
-14.32654896864058
 30
0.0
 10
12.21989029935574
 20
-14.28992710753863
 30
0.0
 10
12.24969296526207
 20
-14.26014560754606
 30
0.0
 10
12.28631129766119
 20
-14.26014560754606
 30
0.0
 10
12.322933157838
 20
-14.26014560754606
 30
0.0
 10
12.35273582374434
 20
-14.28992710753863
 30
0.0
 10
12.35273582374434
 20
-14.32654896864058
 30
0.0
 10
12.35273582374434
 20
-14.36317082974256
 30
0.0
 10
12.322933157838
 20
-14.39295585751288
 30
0.0
 10
12.28631129766119
 20
-14.39295585751288
 30
0.0
  0
SPLINE
  5
56
330
1F
100
AcDbEntity
  8
Livello 1
100
AcDbSpline
210
0.0
220
0.0
230
1.0
 70
     9
 71
     3
 72
    17
 73
    13
 74
     0
 42
0.000000001
 43
0.0000000001
 40
0.0
 40
0.0
 40
0.0
 40
0.0
 40
1.0
 40
1.0
 40
1.0
 40
2.0
 40
2.0
 40
2.0
 40
3.0
 40
3.0
 40
3.0
 40
4.0
 40
4.0
 40
4.0
 40
4.0
 10
12.28631129766119
 20
-14.29542338531502
 30
0.0
 10
12.26915571476554
 20
-14.29542338531502
 30
0.0
 10
12.2551680762335
 20
-14.30939338531155
 30
0.0
 10
12.2551680762335
 20
-14.32654896864058
 30
0.0
 10
12.2551680762335
 20
-14.34370807974742
 30
0.0
 10
12.26915571476554
 20
-14.35767807974392
 30
0.0
 10
12.28631129766119
 20
-14.35767807974392
 30
0.0
 10
12.30347040833454
 20
-14.35767807974392
 30
0.0
 10
12.31745804686657
 20
-14.34370807974742
 30
0.0
 10
12.31745804686657
 20
-14.32654896864058
 30
0.0
 10
12.31745804686657
 20
-14.30939338531155
 30
0.0
 10
12.30347040833454
 20
-14.29542338531502
 30
0.0
 10
12.28631129766119
 20
-14.29542338531502
 30
0.0
  0
HATCH
  5
57
330
1F
100
AcDbEntity
  8
Livello 1
100
AcDbHatch
 10
0.0
 20
0.0
 30
0.0
210
0.0
220
0.0
230
1.0
  2
SOLID
 70
     1
 71
     0
 91
        2
 92
        1
 93
        1
 72
     4
 94
        3
 73
     0
 74
     0
 95
       17
 96
       13
 40
0.0
 40
0.0
 40
0.0
 40
0.0
 40
1.0
 40
1.0
 40
1.0
 40
2.0
 40
2.0
 40
2.0
 40
3.0
 40
3.0
 40
3.0
 40
4.0
 40
4.0
 40
4.0
 40
4.0
 10
12.28631129766119
 20
-14.39295585751288
 10
12.24969296526207
 20
-14.39295585751288
 10
12.21989029935574
 20
-14.36317082974256
 10
12.21989029935574
 20
-14.32654896864058
 10
12.21989029935574
 20
-14.28992710753863
 10
12.24969296526207
 20
-14.26014560754606
 10
12.28631129766119
 20
-14.26014560754606
 10
12.322933157838
 20
-14.26014560754606
 10
12.35273582374434
 20
-14.28992710753863
 10
12.35273582374434
 20
-14.32654896864058
 10
12.35273582374434
 20
-14.36317082974256
 10
12.322933157838
 20
-14.39295585751288
 10
12.28631129766119
 20
-14.39295585751288
 97
        0
 97
        0
 92
        1
 93
        1
 72
     4
 94
        3
 73
     0
 74
     0
 95
       17
 96
       13
 40
0.0
 40
0.0
 40
0.0
 40
0.0
 40
1.0
 40
1.0
 40
1.0
 40
2.0
 40
2.0
 40
2.0
 40
3.0
 40
3.0
 40
3.0
 40
4.0
 40
4.0
 40
4.0
 40
4.0
 10
12.28631129766119
 20
-14.29542338531502
 10
12.26915571476554
 20
-14.29542338531502
 10
12.2551680762335
 20
-14.30939338531155
 10
12.2551680762335
 20
-14.32654896864058
 10
12.2551680762335
 20
-14.34370807974742
 10
12.26915571476554
 20
-14.35767807974392
 10
12.28631129766119
 20
-14.35767807974392
 10
12.30347040833454
 20
-14.35767807974392
 10
12.31745804686657
 20
-14.34370807974742
 10
12.31745804686657
 20
-14.32654896864058
 10
12.31745804686657
 20
-14.30939338531155
 10
12.30347040833454
 20
-14.29542338531502
 10
12.28631129766119
 20
-14.29542338531502
 97
        0
 97
        0
 75
     2
 76
     1
 98
        0
450
        0
451
        0
460
0.0
461
0.0
452
        0
462
0.0
453
        0
470

  0
SPLINE
  5
58
330
1F
100
AcDbEntity
  8
Livello 1
100
AcDbSpline
210
0.0
220
0.0
230
1.0
 70
    11
 71
     3
 72
    17
 73
    13
 74
     0
 42
0.000000001
 43
0.0000000001
 40
0.0
 40
0.0
 40
0.0
 40
0.0
 40
1.0
 40
1.0
 40
1.0
 40
2.0
 40
2.0
 40
2.0
 40
3.0
 40
3.0
 40
3.0
 40
4.0
 40
4.0
 40
4.0
 40
4.0
 10
15.61896054597156
 20
-11.41374046936878
 30
0.0
 10
15.58233868579475
 20
-11.41374046936878
 30
0.0
 10
15.5525395476661
 20
-11.38395544159846
 30
0.0
 10
15.5525395476661
 20
-11.34735121938537
 30
0.0
 10
15.5525395476661
 20
-11.31074699717231
 30
0.0
 10
15.58233868579475
 20
-11.28096549717977
 30
0.0
 10
15.61896054597156
 20
-11.28096549717977
 30
0.0
 10
15.65558240614837
 20
-11.28096549717977
 30
0.0
 10
15.6853819405231
 20
-11.31074699717231
 30
0.0
 10
15.6853819405231
 20
-11.34735121938537
 30
0.0
 10
15.6853819405231
 20
-11.38395544159846
 30
0.0
 10
15.65558240614837
 20
-11.41374046936878
 30
0.0
 10
15.61896054597156
 20
-11.41374046936878
 30
0.0
  0
SPLINE
  5
59
330
1F
100
AcDbEntity
  8
Livello 1
100
AcDbSpline
210
0.0
220
0.0
230
1.0
 70
    11
 71
     3
 72
    17
 73
    13
 74
     0
 42
0.000000001
 43
0.0000000001
 40
0.0
 40
0.0
 40
0.0
 40
0.0
 40
1.0
 40
1.0
 40
1.0
 40
2.0
 40
2.0
 40
2.0
 40
3.0
 40
3.0
 40
3.0
 40
4.0
 40
4.0
 40
4.0
 40
4.0
 10
15.61896054597156
 20
-11.31624327494873
 30
0.0
 10
15.6018049630759
 20
-11.31624327494873
 30
0.0
 10
15.58781732454387
 20
-11.33019563605634
 30
0.0
 10
15.58781732454387
 20
-11.34735121938537
 30
0.0
 10
15.58781732454387
 20
-11.36451033049222
 30
0.0
 10
15.6018049630759
 20
-11.37846269159983
 30
0.0
 10
15.61896054597156
 20
-11.37846269159983
 30
0.0
 10
15.63611612886722
 20
-11.37846269159983
 30
0.0
 10
15.65010416275414
 20
-11.36451033049222
 30
0.0
 10
15.65010416275414
 20
-11.34735121938537
 30
0.0
 10
15.65010416275414
 20
-11.33019563605634
 30
0.0
 10
15.63611612886722
 20
-11.31624327494873
 30
0.0
 10
15.61896054597156
 20
-11.31624327494873
 30
0.0
  0
HATCH
  5
5A
330
1F
100
AcDbEntity
  8
Livello 1
100
AcDbHatch
 10
0.0
 20
0.0
 30
0.0
210
0.0
220
0.0
230
1.0
  2
SOLID
 70
     1
 71
     0
 91
        2
 92
        1
 93
        1
 72
     4
 94
        3
 73
     0
 74
     0
 95
       17
 96
       13
 40
0.0
 40
0.0
 40
0.0
 40
0.0
 40
1.0
 40
1.0
 40
1.0
 40
2.0
 40
2.0
 40
2.0
 40
3.0
 40
3.0
 40
3.0
 40
4.0
 40
4.0
 40
4.0
 40
4.0
 10
15.61896054597156
 20
-11.41374046936878
 10
15.58233868579475
 20
-11.41374046936878
 10
15.5525395476661
 20
-11.38395544159846
 10
15.5525395476661
 20
-11.34735121938537
 10
15.5525395476661
 20
-11.31074699717231
 10
15.58233868579475
 20
-11.28096549717977
 10
15.61896054597156
 20
-11.28096549717977
 10
15.65558240614837
 20
-11.28096549717977
 10
15.6853819405231
 20
-11.31074699717231
 10
15.6853819405231
 20
-11.34735121938537
 10
15.6853819405231
 20
-11.38395544159846
 10
15.65558240614837
 20
-11.41374046936878
 10
15.61896054597156
 20
-11.41374046936878
 97
        0
 97
        0
 92
        1
 93
        1
 72
     4
 94
        3
 73
     0
 74
     0
 95
       17
 96
       13
 40
0.0
 40
0.0
 40
0.0
 40
0.0
 40
1.0
 40
1.0
 40
1.0
 40
2.0
 40
2.0
 40
2.0
 40
3.0
 40
3.0
 40
3.0
 40
4.0
 40
4.0
 40
4.0
 40
4.0
 10
15.61896054597156
 20
-11.31624327494873
 10
15.6018049630759
 20
-11.31624327494873
 10
15.58781732454387
 20
-11.33019563605634
 10
15.58781732454387
 20
-11.34735121938537
 10
15.58781732454387
 20
-11.36451033049222
 10
15.6018049630759
 20
-11.37846269159983
 10
15.61896054597156
 20
-11.37846269159983
 10
15.63611612886722
 20
-11.37846269159983
 10
15.65010416275414
 20
-11.36451033049222
 10
15.65010416275414
 20
-11.34735121938537
 10
15.65010416275414
 20
-11.33019563605634
 10
15.63611612886722
 20
-11.31624327494873
 10
15.61896054597156
 20
-11.31624327494873
 97
        0
 97
        0
 75
     2
 76
     1
 98
        0
450
        0
451
        0
460
0.0
461
0.0
452
        0
462
0.0
453
        0
470

  0
SPLINE
  5
5B
330
1F
100
AcDbEntity
  8
Livello 1
100
AcDbSpline
210
0.0
220
0.0
230
1.0
 70
     9
 71
     3
 72
    17
 73
    13
 74
     0
 42
0.000000001
 43
0.0000000001
 40
0.0
 40
0.0
 40
0.0
 40
0.0
 40
1.0
 40
1.0
 40
1.0
 40
2.0
 40
2.0
 40
2.0
 40
3.0
 40
3.0
 40
3.0
 40
4.0
 40
4.0
 40
4.0
 40
4.0
 10
15.81305534657535
 20
-11.06537241390032
 30
0.0
 10
15.77643701417622
 20
-11.06537241390032
 30
0.0
 10
15.74663434826989
 20
-11.03558738613
 30
0.0
 10
15.74663434826989
 20
-10.99896552502802
 30
0.0
 10
15.74663434826989
 20
-10.96236130281496
 30
0.0
 10
15.77643701417622
 20
-10.93257980282242
 30
0.0
 10
15.81305534657535
 20
-10.93257980282242
 30
0.0
 10
15.84964545675297
 20
-10.93257980282242
 30
0.0
 10
15.87940971825237
 20
-10.96236130281496
 30
0.0
 10
15.87940971825237
 20
-10.99896552502802
 30
0.0
 10
15.87940971825237
 20
-11.03558738613
 30
0.0
 10
15.84964545675297
 20
-11.06537241390032
 30
0.0
 10
15.81305534657535
 20
-11.06537241390032
 30
0.0
  0
SPLINE
  5
5C
330
1F
100
AcDbEntity
  8
Livello 1
100
AcDbSpline
210
0.0
220
0.0
230
1.0
 70
     9
 71
     3
 72
    17
 73
    13
 74
     0
 42
0.000000001
 43
0.0000000001
 40
0.0
 40
0.0
 40
0.0
 40
0.0
 40
1.0
 40
1.0
 40
1.0
 40
2.0
 40
2.0
 40
2.0
 40
3.0
 40
3.0
 40
3.0
 40
4.0
 40
4.0
 40
4.0
 40
4.0
 10
15.81305534657535
 20
-10.96785758059138
 30
0.0
 10
15.79589976367969
 20
-10.96785758059138
 30
0.0
 10
15.78191212514765
 20
-10.98180994169899
 30
0.0
 10
15.78191212514765
 20
-10.99896552502802
 30
0.0
 10
15.78191212514765
 20
-11.01612463613487
 30
0.0
 10
15.79589976367969
 20
-11.03009463613136
 30
0.0
 10
15.81305534657535
 20
-11.03009463613136
 30
0.0
 10
15.83017917947181
 20
-11.03009463613136
 30
0.0
 10
15.84413194048341
 20
-11.01612463613487
 30
0.0
 10
15.84413194048341
 20
-10.99896552502802
 30
0.0
 10
15.84413194048341
 20
-10.98180994169899
 30
0.0
 10
15.83017917947181
 20
-10.96785758059138
 30
0.0
 10
15.81305534657535
 20
-10.96785758059138
 30
0.0
  0
HATCH
  5
5D
330
1F
100
AcDbEntity
  8
Livello 1
100
AcDbHatch
 10
0.0
 20
0.0
 30
0.0
210
0.0
220
0.0
230
1.0
  2
SOLID
 70
     1
 71
     0
 91
        2
 92
        1
 93
        1
 72
     4
 94
        3
 73
     0
 74
     0
 95
       17
 96
       13
 40
0.0
 40
0.0
 40
0.0
 40
0.0
 40
1.0
 40
1.0
 40
1.0
 40
2.0
 40
2.0
 40
2.0
 40
3.0
 40
3.0
 40
3.0
 40
4.0
 40
4.0
 40
4.0
 40
4.0
 10
15.81305534657535
 20
-11.06537241390032
 10
15.77643701417622
 20
-11.06537241390032
 10
15.74663434826989
 20
-11.03558738613
 10
15.74663434826989
 20
-10.99896552502802
 10
15.74663434826989
 20
-10.96236130281496
 10
15.77643701417622
 20
-10.93257980282242
 10
15.81305534657535
 20
-10.93257980282242
 10
15.84964545675297
 20
-10.93257980282242
 10
15.87940971825237
 20
-10.96236130281496
 10
15.87940971825237
 20
-10.99896552502802
 10
15.87940971825237
 20
-11.03558738613
 10
15.84964545675297
 20
-11.06537241390032
 10
15.81305534657535
 20
-11.06537241390032
 97
        0
 97
        0
 92
        1
 93
        1
 72
     4
 94
        3
 73
     0
 74
     0
 95
       17
 96
       13
 40
0.0
 40
0.0
 40
0.0
 40
0.0
 40
1.0
 40
1.0
 40
1.0
 40
2.0
 40
2.0
 40
2.0
 40
3.0
 40
3.0
 40
3.0
 40
4.0
 40
4.0
 40
4.0
 40
4.0
 10
15.81305534657535
 20
-10.96785758059138
 10
15.79589976367969
 20
-10.96785758059138
 10
15.78191212514765
 20
-10.98180994169899
 10
15.78191212514765
 20
-10.99896552502802
 10
15.78191212514765
 20
-11.01612463613487
 10
15.79589976367969
 20
-11.03009463613136
 10
15.81305534657535
 20
-11.03009463613136
 10
15.83017917947181
 20
-11.03009463613136
 10
15.84413194048341
 20
-11.01612463613487
 10
15.84413194048341
 20
-10.99896552502802
 10
15.84413194048341
 20
-10.98180994169899
 10
15.83017917947181
 20
-10.96785758059138
 10
15.81305534657535
 20
-10.96785758059138
 97
        0
 97
        0
 75
     2
 76
     1
 98
        0
450
        0
451
        0
460
0.0
461
0.0
452
        0
462
0.0
453
        0
470

  0
SPLINE
  5
5E
330
1F
100
AcDbEntity
  8
Livello 1
100
AcDbSpline
210
0.0
220
0.0
230
1.0
 70
     9
 71
     3
 72
    17
 73
    13
 74
     0
 42
0.000000001
 43
0.0000000001
 40
0.0
 40
0.0
 40
0.0
 40
0.0
 40
1.0
 40
1.0
 40
1.0
 40
2.0
 40
2.0
 40
2.0
 40
3.0
 40
3.0
 40
3.0
 40
4.0
 40
4.0
 40
4.0
 40
4.0
 10
16.01438914699445
 20
-11.40817363603684
 30
0.0
 10
15.97776728681764
 20
-11.40817363603684
 30
0.0
 10
15.94796814868899
 20
-11.37839213604427
 30
0.0
 10
15.94796814868899
 20
-11.34177027494233
 30
0.0
 10
15.94796814868899
 20
-11.30516605272927
 30
0.0
 10
15.97776728681764
 20
-11.2753845527367
 30
0.0
 10
16.01438914699445
 20
-11.2753845527367
 30
0.0
 10
16.05097572939438
 20
-11.2753845527367
 30
0.0
 10
16.08073999597983
 20
-11.30516605272927
 30
0.0
 10
16.08073999597983
 20
-11.34177027494233
 30
0.0
 10
16.08073999597983
 20
-11.37839213604427
 30
0.0
 10
16.05097572939438
 20
-11.40817363603684
 30
0.0
 10
16.01438914699445
 20
-11.40817363603684
 30
0.0
  0
SPLINE
  5
5F
330
1F
100
AcDbEntity
  8
Livello 1
100
AcDbSpline
210
0.0
220
0.0
230
1.0
 70
     9
 71
     3
 72
    17
 73
    13
 74
     0
 42
0.000000001
 43
0.0000000001
 40
0.0
 40
0.0
 40
0.0
 40
0.0
 40
1.0
 40
1.0
 40
1.0
 40
2.0
 40
2.0
 40
2.0
 40
3.0
 40
3.0
 40
3.0
 40
4.0
 40
4.0
 40
4.0
 40
4.0
 10
16.01438914699445
 20
-11.31066233050566
 30
0.0
 10
15.9972300363211
 20
-11.31066233050566
 30
0.0
 10
15.98324592556676
 20
-11.3246146916133
 30
0.0
 10
15.98324592556676
 20
-11.34177027494233
 30
0.0
 10
15.98324592556676
 20
-11.35892938604914
 30
0.0
 10
15.9972300363211
 20
-11.37289585826789
 30
0.0
 10
16.01438914699445
 20
-11.37289585826789
 30
0.0
 10
16.03150945211323
 20
-11.37289585826789
 30
0.0
 10
16.04546221821087
 20
-11.35892938604914
 30
0.0
 10
16.04546221821087
 20
-11.34177027494233
 30
0.0
 10
16.04546221821087
 20
-11.3246146916133
 30
0.0
 10
16.03150945211323
 20
-11.31066233050566
 30
0.0
 10
16.01438914699445
 20
-11.31066233050566
 30
0.0
  0
HATCH
  5
60
330
1F
100
AcDbEntity
  8
Livello 1
100
AcDbHatch
 10
0.0
 20
0.0
 30
0.0
210
0.0
220
0.0
230
1.0
  2
SOLID
 70
     1
 71
     0
 91
        2
 92
        1
 93
        1
 72
     4
 94
        3
 73
     0
 74
     0
 95
       17
 96
       13
 40
0.0
 40
0.0
 40
0.0
 40
0.0
 40
1.0
 40
1.0
 40
1.0
 40
2.0
 40
2.0
 40
2.0
 40
3.0
 40
3.0
 40
3.0
 40
4.0
 40
4.0
 40
4.0
 40
4.0
 10
16.01438914699445
 20
-11.40817363603684
 10
15.97776728681764
 20
-11.40817363603684
 10
15.94796814868899
 20
-11.37839213604427
 10
15.94796814868899
 20
-11.34177027494233
 10
15.94796814868899
 20
-11.30516605272927
 10
15.97776728681764
 20
-11.2753845527367
 10
16.01438914699445
 20
-11.2753845527367
 10
16.05097572939438
 20
-11.2753845527367
 10
16.08073999597983
 20
-11.30516605272927
 10
16.08073999597983
 20
-11.34177027494233
 10
16.08073999597983
 20
-11.37839213604427
 10
16.05097572939438
 20
-11.40817363603684
 10
16.01438914699445
 20
-11.40817363603684
 97
        0
 97
        0
 92
        1
 93
        1
 72
     4
 94
        3
 73
     0
 74
     0
 95
       17
 96
       13
 40
0.0
 40
0.0
 40
0.0
 40
0.0
 40
1.0
 40
1.0
 40
1.0
 40
2.0
 40
2.0
 40
2.0
 40
3.0
 40
3.0
 40
3.0
 40
4.0
 40
4.0
 40
4.0
 40
4.0
 10
16.01438914699445
 20
-11.31066233050566
 10
15.9972300363211
 20
-11.31066233050566
 10
15.98324592556676
 20
-11.3246146916133
 10
15.98324592556676
 20
-11.34177027494233
 10
15.98324592556676
 20
-11.35892938604914
 10
15.9972300363211
 20
-11.37289585826789
 10
16.01438914699445
 20
-11.37289585826789
 10
16.03150945211323
 20
-11.37289585826789
 10
16.04546221821087
 20
-11.35892938604914
 10
16.04546221821087
 20
-11.34177027494233
 10
16.04546221821087
 20
-11.3246146916133
 10
16.03150945211323
 20
-11.31066233050566
 10
16.01438914699445
 20
-11.31066233050566
 97
        0
 97
        0
 75
     2
 76
     1
 98
        0
450
        0
451
        0
460
0.0
461
0.0
452
        0
462
0.0
453
        0
470

  0
SPLINE
  5
61
330
1F
100
AcDbEntity
  8
Livello 1
100
AcDbSpline
210
0.0
220
0.0
230
1.0
 70
     9
 71
     3
 72
    17
 73
    13
 74
     0
 42
0.000000001
 43
0.0000000001
 40
0.0
 40
0.0
 40
0.0
 40
0.0
 40
1.0
 40
1.0
 40
1.0
 40
2.0
 40
2.0
 40
2.0
 40
3.0
 40
3.0
 40
3.0
 40
4.0
 40
4.0
 40
4.0
 40
4.0
 10
12.46655957084046
 20
-14.33674777419358
 30
0.0
 10
12.42993771066365
 20
-14.33674777419358
 30
0.0
 10
12.40013888578885
 20
-14.30696627420104
 30
0.0
 10
12.40013888578885
 20
-14.27034441309909
 30
0.0
 10
12.40013888578885
 20
-14.2337225519971
 30
0.0
 10
12.42993771066365
 20
-14.20393752422679
 30
0.0
 10
12.46655957084046
 20
-14.20393752422679
 30
0.0
 10
12.50314615324039
 20
-14.20393752422679
 30
0.0
 10
12.53291354136985
 20
-14.2337225519971
 30
0.0
 10
12.53291354136985
 20
-14.27034441309909
 30
0.0
 10
12.53291354136985
 20
-14.30696627420104
 30
0.0
 10
12.50314615324039
 20
-14.33674777419358
 30
0.0
 10
12.46655957084046
 20
-14.33674777419358
 30
0.0
  0
SPLINE
  5
62
330
1F
100
AcDbEntity
  8
Livello 1
100
AcDbSpline
210
0.0
220
0.0
230
1.0
 70
     9
 71
     3
 72
    17
 73
    13
 74
     0
 42
0.000000001
 43
0.0000000001
 40
0.0
 40
0.0
 40
0.0
 40
0.0
 40
1.0
 40
1.0
 40
1.0
 40
2.0
 40
2.0
 40
2.0
 40
3.0
 40
3.0
 40
3.0
 40
4.0
 40
4.0
 40
4.0
 40
4.0
 10
12.46655957084046
 20
-14.23921530199575
 30
0.0
 10
12.4494039879448
 20
-14.23921530199575
 30
0.0
 10
12.43541666355781
 20
-14.25318530199225
 30
0.0
 10
12.43541666355781
 20
-14.27034441309909
 30
0.0
 10
12.43541666355781
 20
-14.28749999642812
 30
0.0
 10
12.4494039879448
 20
-14.30146999642462
 30
0.0
 10
12.46655957084046
 20
-14.30146999642462
 30
0.0
 10
12.48368340373692
 20
-14.30146999642462
 30
0.0
 10
12.49763576449208
 20
-14.28749999642812
 30
0.0
 10
12.49763576449208
 20
-14.27034441309909
 30
0.0
 10
12.49763576449208
 20
-14.25318530199225
 30
0.0
 10
12.48368340373692
 20
-14.23921530199575
 30
0.0
 10
12.46655957084046
 20
-14.23921530199575
 30
0.0
  0
HATCH
  5
63
330
1F
100
AcDbEntity
  8
Livello 1
100
AcDbHatch
 10
0.0
 20
0.0
 30
0.0
210
0.0
220
0.0
230
1.0
  2
SOLID
 70
     1
 71
     0
 91
        2
 92
        1
 93
        1
 72
     4
 94
        3
 73
     0
 74
     0
 95
       17
 96
       13
 40
0.0
 40
0.0
 40
0.0
 40
0.0
 40
1.0
 40
1.0
 40
1.0
 40
2.0
 40
2.0
 40
2.0
 40
3.0
 40
3.0
 40
3.0
 40
4.0
 40
4.0
 40
4.0
 40
4.0
 10
12.46655957084046
 20
-14.33674777419358
 10
12.42993771066365
 20
-14.33674777419358
 10
12.40013888578885
 20
-14.30696627420104
 10
12.40013888578885
 20
-14.27034441309909
 10
12.40013888578885
 20
-14.2337225519971
 10
12.42993771066365
 20
-14.20393752422679
 10
12.46655957084046
 20
-14.20393752422679
 10
12.50314615324039
 20
-14.20393752422679
 10
12.53291354136985
 20
-14.2337225519971
 10
12.53291354136985
 20
-14.27034441309909
 10
12.53291354136985
 20
-14.30696627420104
 10
12.50314615324039
 20
-14.33674777419358
 10
12.46655957084046
 20
-14.33674777419358
 97
        0
 97
        0
 92
        1
 93
        1
 72
     4
 94
        3
 73
     0
 74
     0
 95
       17
 96
       13
 40
0.0
 40
0.0
 40
0.0
 40
0.0
 40
1.0
 40
1.0
 40
1.0
 40
2.0
 40
2.0
 40
2.0
 40
3.0
 40
3.0
 40
3.0
 40
4.0
 40
4.0
 40
4.0
 40
4.0
 10
12.46655957084046
 20
-14.23921530199575
 10
12.4494039879448
 20
-14.23921530199575
 10
12.43541666355781
 20
-14.25318530199225
 10
12.43541666355781
 20
-14.27034441309909
 10
12.43541666355781
 20
-14.28749999642812
 10
12.4494039879448
 20
-14.30146999642462
 10
12.46655957084046
 20
-14.30146999642462
 10
12.48368340373692
 20
-14.30146999642462
 10
12.49763576449208
 20
-14.28749999642812
 10
12.49763576449208
 20
-14.27034441309909
 10
12.49763576449208
 20
-14.25318530199225
 10
12.48368340373692
 20
-14.23921530199575
 10
12.46655957084046
 20
-14.23921530199575
 97
        0
 97
        0
 75
     2
 76
     1
 98
        0
450
        0
451
        0
460
0.0
461
0.0
452
        0
462
0.0
453
        0
470

  0
SPLINE
  5
64
330
1F
100
AcDbEntity
  8
Livello 1
100
AcDbSpline
210
0.0
220
0.0
230
1.0
 70
     9
 71
     3
 72
    17
 73
    13
 74
     0
 42
0.000000001
 43
0.0000000001
 40
0.0
 40
0.0
 40
0.0
 40
0.0
 40
1.0
 40
1.0
 40
1.0
 40
2.0
 40
2.0
 40
2.0
 40
3.0
 40
3.0
 40
3.0
 40
4.0
 40
4.0
 40
4.0
 40
4.0
 10
14.52410805192454
 20
-18.07524324548118
 30
0.0
 10
14.48748582483789
 20
-18.07524324548118
 30
0.0
 10
14.45768668670924
 20
-18.04547938437753
 30
0.0
 10
14.45768668670924
 20
-18.00885752327559
 30
0.0
 10
14.45768668670924
 20
-17.97223566217357
 30
0.0
 10
14.48748582483789
 20
-17.94247180106992
 30
0.0
 10
14.52410805192454
 20
-17.94247180106992
 30
0.0
 10
14.56069426741463
 20
-17.94247180106992
 30
0.0
 10
14.59046165554409
 20
-17.97223566217357
 30
0.0
 10
14.59046165554409
 20
-18.00885752327559
 30
0.0
 10
14.59046165554409
 20
-18.04547938437753
 30
0.0
 10
14.56069426741463
 20
-18.07524324548118
 30
0.0
 10
14.52410805192454
 20
-18.07524324548118
 30
0.0
  0
SPLINE
  5
65
330
1F
100
AcDbEntity
  8
Livello 1
100
AcDbSpline
210
0.0
220
0.0
230
1.0
 70
     9
 71
     3
 72
    17
 73
    13
 74
     0
 42
0.000000001
 43
0.0000000001
 40
0.0
 40
0.0
 40
0.0
 40
0.0
 40
1.0
 40
1.0
 40
1.0
 40
2.0
 40
2.0
 40
2.0
 40
3.0
 40
3.0
 40
3.0
 40
4.0
 40
4.0
 40
4.0
 40
4.0
 10
14.52410805192454
 20
-17.97774957883888
 30
0.0
 10
14.50695210211904
 20
-17.97774957883888
 30
0.0
 10
14.492964463587
 20
-17.99170193994652
 30
0.0
 10
14.492964463587
 20
-18.00885752327559
 30
0.0
 10
14.492964463587
 20
-18.02601310660458
 30
0.0
 10
14.50695210211904
 20
-18.03996546771221
 30
0.0
 10
14.52410805192454
 20
-18.03996546771221
 30
0.0
 10
14.54123151791116
 20
-18.03996546771221
 30
0.0
 10
14.55518387866632
 20
-18.02601310660458
 30
0.0
 10
14.55518387866632
 20
-18.00885752327559
 30
0.0
 10
14.55518387866632
 20
-17.99170193994652
 30
0.0
 10
14.54123151791116
 20
-17.97774957883888
 30
0.0
 10
14.52410805192454
 20
-17.97774957883888
 30
0.0
  0
HATCH
  5
66
330
1F
100
AcDbEntity
  8
Livello 1
100
AcDbHatch
 10
0.0
 20
0.0
 30
0.0
210
0.0
220
0.0
230
1.0
  2
SOLID
 70
     1
 71
     0
 91
        2
 92
        1
 93
        1
 72
     4
 94
        3
 73
     0
 74
     0
 95
       17
 96
       13
 40
0.0
 40
0.0
 40
0.0
 40
0.0
 40
1.0
 40
1.0
 40
1.0
 40
2.0
 40
2.0
 40
2.0
 40
3.0
 40
3.0
 40
3.0
 40
4.0
 40
4.0
 40
4.0
 40
4.0
 10
14.52410805192454
 20
-18.07524324548118
 10
14.48748582483789
 20
-18.07524324548118
 10
14.45768668670924
 20
-18.04547938437753
 10
14.45768668670924
 20
-18.00885752327559
 10
14.45768668670924
 20
-17.97223566217357
 10
14.48748582483789
 20
-17.94247180106992
 10
14.52410805192454
 20
-17.94247180106992
 10
14.56069426741463
 20
-17.94247180106992
 10
14.59046165554409
 20
-17.97223566217357
 10
14.59046165554409
 20
-18.00885752327559
 10
14.59046165554409
 20
-18.04547938437753
 10
14.56069426741463
 20
-18.07524324548118
 10
14.52410805192454
 20
-18.07524324548118
 97
        0
 97
        0
 92
        1
 93
        1
 72
     4
 94
        3
 73
     0
 74
     0
 95
       17
 96
       13
 40
0.0
 40
0.0
 40
0.0
 40
0.0
 40
1.0
 40
1.0
 40
1.0
 40
2.0
 40
2.0
 40
2.0
 40
3.0
 40
3.0
 40
3.0
 40
4.0
 40
4.0
 40
4.0
 40
4.0
 10
14.52410805192454
 20
-17.97774957883888
 10
14.50695210211904
 20
-17.97774957883888
 10
14.492964463587
 20
-17.99170193994652
 10
14.492964463587
 20
-18.00885752327559
 10
14.492964463587
 20
-18.02601310660458
 10
14.50695210211904
 20
-18.03996546771221
 10
14.52410805192454
 20
-18.03996546771221
 10
14.54123151791116
 20
-18.03996546771221
 10
14.55518387866632
 20
-18.02601310660458
 10
14.55518387866632
 20
-18.00885752327559
 10
14.55518387866632
 20
-17.99170193994652
 10
14.54123151791116
 20
-17.97774957883888
 10
14.52410805192454
 20
-17.97774957883888
 97
        0
 97
        0
 75
     2
 76
     1
 98
        0
450
        0
451
        0
460
0.0
461
0.0
452
        0
462
0.0
453
        0
470

  0
HATCH
  5
6D
330
1F
100
AcDbEntity
  8
Livello 1
100
AcDbHatch
 10
0.0
 20
0.0
 30
0.0
210
0.0
220
0.0
230
1.0
  2
SOLID
 70
     1
 71
     0
 91
        1
 92
        1
 93
        4
 72
     1
 10
14.50171688003038
 20
-17.45109821785942
 11
13.37937204755267
 21
-16.24131738482853
 72
     1
 10
13.37937204755267
 20
-16.24131738482853
 11
13.44400093479274
 21
-16.18130282928801
 72
     1
 10
13.44400093479274
 20
-16.18130282928801
 11
14.56634576727045
 21
-17.39108366231888
 72
     1
 10
14.56634576727045
 20
-17.39108366231888
 11
14.50171688003038
 21
-17.45109821785942
 97
        0
 75
     2
 76
     1
 98
        0
450
        0
451
        0
460
0.0
461
0.0
452
        0
462
0.0
453
        0
470

  0
HATCH
  5
75
330
1F
100
AcDbEntity
  8
Livello 1
100
AcDbHatch
 10
0.0
 20
0.0
 30
0.0
210
0.0
220
0.0
230
1.0
  2
SOLID
 70
     1
 71
     0
 91
        1
 92
        1
 93
        4
 72
     1
 10
14.06660078002
 20
-17.7430676900087
 11
11.94001083034834
 21
-14.15825632979377
 72
     1
 10
11.94001083034834
 20
-14.15825632979377
 11
11.97032825016703
 21
-14.14027524646492
 72
     1
 10
11.97032825016703
 20
-14.14027524646492
 11
14.09691850146876
 21
-17.72508660667984
 72
     1
 10
14.09691850146876
 20
-17.72508660667984
 11
14.06660078002
 21
-17.7430676900087
 97
        0
 75
     2
 76
     1
 98
        0
450
        0
451
        0
460
0.0
461
0.0
452
        0
462
0.0
453
        0
470

  0
HATCH
  5
78
330
1F
100
AcDbEntity
  8
Livello 1
100
AcDbHatch
 10
0.0
 20
0.0
 30
0.0
210
0.0
220
0.0
230
1.0
  2
SOLID
 70
     1
 71
     0
 91
        1
 92
        1
 93
        1
 72
     4
 94
        3
 73
     0
 74
     0
 95
       83
 96
       79
 40
0.0
 40
0.0
 40
0.0
 40
0.0
 40
1.0
 40
1.0
 40
1.0
 40
2.0
 40
2.0
 40
2.0
 40
3.0
 40
3.0
 40
3.0
 40
4.0
 40
4.0
 40
4.0
 40
5.0
 40
5.0
 40
5.0
 40
6.0
 40
6.0
 40
6.0
 40
7.0
 40
7.0
 40
7.0
 40
8.0
 40
8.0
 40
8.0
 40
9.0
 40
9.0
 40
9.0
 40
10.0
 40
10.0
 40
10.0
 40
11.0
 40
11.0
 40
11.0
 40
12.0
 40
12.0
 40
12.0
 40
13.0
 40
13.0
 40
13.0
 40
14.0
 40
14.0
 40
14.0
 40
15.0
 40
15.0
 40
15.0
 40
16.0
 40
16.0
 40
16.0
 40
17.0
 40
17.0
 40
17.0
 40
18.0
 40
18.0
 40
18.0
 40
19.0
 40
19.0
 40
19.0
 40
20.0
 40
20.0
 40
20.0
 40
21.0
 40
21.0
 40
21.0
 40
22.0
 40
22.0
 40
22.0
 40
23.0
 40
23.0
 40
23.0
 40
24.0
 40
24.0
 40
24.0
 40
25.0
 40
25.0
 40
25.0
 40
26.0
 40
26.0
 40
26.0
 40
26.0
 10
12.29664768628638
 20
-14.41128266306383
 10
12.22202813263453
 20
-14.41128266306383
 10
12.18072138368835
 20
-14.36782396863026
 10
12.17848124485661
 20
-14.36541096863086
 10
12.17848124485661
 20
-14.36541096863086
 10
11.89205744660834
 20
-14.11107582980556
 10
11.89205744660834
 20
-14.11107582980556
 10
11.89074511330849
 20
-14.11002455202803
 10
11.8478543921805
 20
-14.07431638537032
 10
11.8449968922534
 20
-14.02687835760438
 10
11.84355050340141
 20
-14.00248730205494
 10
11.85257455872674
 20
-13.979937746505
 10
11.87179741934744
 20
-13.95985410762116
 10
11.87510647481857
 20
-13.95696132984409
 10
11.89281239103352
 20
-13.94293841318093
 10
11.94345716751924
 20
-13.92697169096271
 10
11.94345716751924
 20
-13.92697169096271
 10
12.4364147104984
 20
-13.76648249655836
 10
12.4364147104984
 20
-13.76648249655836
 10
12.45546823779009
 20
-13.75795585767163
 10
12.56088529065623
 20
-13.71421846879366
 10
12.60202270627339
 20
-13.75536999656116
 10
12.60202270627339
 20
-13.75536999656116
 10
12.57707779024312
 20
-13.7803113854438
 10
12.57707779024312
 20
-13.7803113854438
 10
12.55930131847442
 20
-13.76255255211492
 10
12.49016040357168
 20
-13.78118980211026
 10
12.44902298795452
 20
-13.7993825521057
 10
12.44902298795452
 20
-13.7993825521057
 10
11.9542063061339
 20
-13.96057730206541
 10
11.9542063061339
 20
-13.96057730206541
 10
11.910589163689
 20
-13.97432505206196
 10
11.89577572429125
 20
-13.98567391317025
 10
11.89560286318455
 20
-13.98577974650355
 10
11.88499483567741
 20
-13.99709685761184
 10
11.87941389137534
 20
-14.01030838538632
 10
11.88020411357741
 20
-14.02462057982719
 10
11.88206678019655
 20
-14.05661046870807
 10
11.91465639047624
 20
-14.0839966075901
 10
11.91499888591012
 20
-14.08427530203449
 10
11.91499888591012
 20
-14.08427530203449
 10
12.20314777472696
 20
-14.3402438019705
 10
12.20314777472696
 20
-14.3402438019705
 10
12.20659410525051
 20
-14.34381038530293
 10
12.26160979829138
 20
-14.40008549639997
 10
12.36138240685708
 20
-14.36382699640904
 10
12.36138240685708
 20
-14.36382699640904
 10
12.47103984850393
 20
-14.32065757975318
 10
12.47103984850393
 20
-14.32065757975318
 10
12.47276140401557
 20
-14.32029774641991
 10
12.51968437504068
 20
-14.30992607975584
 10
12.53501256909408
 20
-14.22819099644295
 10
12.53501256909408
 20
-14.22819099644295
 10
12.59623362308775
 20
-13.84990385764863
 10
12.59623362308775
 20
-13.84990385764863
 10
12.59623362308775
 20
-13.84990385764863
 10
12.60105609518694
 20
-13.84571991320524
 10
12.60105609518694
 20
-13.84571991320524
 10
12.60105609518694
 20
-13.84571991320524
 10
15.54468318675542
 20
-11.2797237194023
 10
15.54468318675542
 20
-11.2797237194023
 10
15.54468318675542
 20
-11.2797237194023
 10
15.56783638499692
 20
-11.3063196360623
 10
15.56783638499692
 20
-11.3063196360623
 10
15.56783638499692
 20
-11.3063196360623
 10
12.62903137225101
 20
-13.86812835764407
 10
12.62903137225101
 20
-13.86812835764407
 10
12.62903137225101
 20
-13.86812835764407
 10
12.56974001265255
 20
-14.23427288533033
 10
12.56974001265255
 20
-14.23427288533033
 10
12.55137792978767
 20
-14.33237332975024
 10
12.49181140352956
 20
-14.35188899641203
 10
12.47923840385033
 20
-14.35493699641128
 10
12.47923840385033
 20
-14.35493699641128
 10
12.37392012875944
 20
-14.39679407973414
 10
12.37392012875944
 20
-14.39679407973414
 10
12.34518990727019
 20
-14.40723277417598
 10
12.31935277469791
 20
-14.41128266306383
 10
12.29664768628638
 20
-14.41128266306383
 97
        0
 97
        0
 75
     2
 76
     1
 98
        0
450
        0
451
        0
460
0.0
461
0.0
452
        0
462
0.0
453
        0
470

  0
HATCH
  5
7B
330
1F
100
AcDbEntity
  8
Livello 1
100
AcDbHatch
 10
0.0
 20
0.0
 30
0.0
210
0.0
220
0.0
230
1.0
  2
SOLID
 70
     1
 71
     0
 91
        2
 92
        1
 93
        1
 72
     4
 94
        3
 73
     0
 74
     0
 95
       41
 96
       37
 40
0.0
 40
0.0
 40
0.0
 40
0.0
 40
1.0
 40
1.0
 40
1.0
 40
2.0
 40
2.0
 40
2.0
 40
3.0
 40
3.0
 40
3.0
 40
4.0
 40
4.0
 40
4.0
 40
5.0
 40
5.0
 40
5.0
 40
6.0
 40
6.0
 40
6.0
 40
7.0
 40
7.0
 40
7.0
 40
8.0
 40
8.0
 40
8.0
 40
9.0
 40
9.0
 40
9.0
 40
10.0
 40
10.0
 40
10.0
 40
11.0
 40
11.0
 40
11.0
 40
12.0
 40
12.0
 40
12.0
 40
12.0
 10
12.30264138057791
 20
-14.26796669087744
 10
12.30264138057791
 20
-14.26796669087744
 10
12.30260963057872
 20
-14.26796669087744
 10
12.30260963057872
 20
-14.26796669087744
 10
12.25878757614116
 20
-14.26796669087744
 10
12.22643785474425
 20
-14.23623785755206
 10
12.22509377144521
 20
-14.23487613533018
 10
12.22509377144521
 20
-14.23487613533018
 10
12.09514455253827
 20
-14.12273866313598
 10
12.09514455253827
 20
-14.12273866313598
 10
12.06710224769813
 20
-14.09850282980871
 10
12.05552408132684
 20
-14.07499019092569
 10
12.06076283119319
 20
-14.05285338537568
 10
12.06868621987994
 20
-14.01928305205073
 10
12.11161221878481
 20
-14.00748263538702
 10
12.11647027474869
 20
-14.00624085760954
 10
12.11647027474869
 20
-14.00624085760954
 10
12.40196596137726
 20
-13.9166176631875
 10
12.40196596137726
 20
-13.9166176631875
 10
12.43686305244631
 20
-13.90586852430131
 10
12.46015312655945
 20
-13.91754899652062
 10
12.46955818187507
 20
-13.92810763540686
 10
12.48705948698413
 20
-13.94781380206861
 10
12.48419845927934
 20
-13.97718255206125
 10
12.48378570928987
 20
-13.98047396872711
 10
12.48378570928987
 20
-13.98047396872711
 10
12.45932409880283
 20
-14.14285757979763
 10
12.45932409880283
 20
-14.14285757979763
 10
12.45198632121225
 20
-14.21680685755692
 10
12.40675315569958
 20
-14.23215621866417
 10
12.40485873908124
 20
-14.23277357977514
 10
12.40485873908124
 20
-14.23277357977514
 10
12.33178787983432
 20
-14.2630736631009
 10
12.33178787983432
 20
-14.2630736631009
 10
12.32145149120914
 20
-14.26648502421116
 10
12.3120817136704
 20
-14.26796669087744
 10
12.30264138057791
 20
-14.26796669087744
 97
        0
 97
        0
 92
        1
 93
        1
 72
     4
 94
        3
 73
     0
 74
     0
 95
       44
 96
       40
 40
0.0
 40
0.0
 40
0.0
 40
0.0
 40
1.0
 40
1.0
 40
1.0
 40
2.0
 40
2.0
 40
2.0
 40
3.0
 40
3.0
 40
3.0
 40
4.0
 40
4.0
 40
4.0
 40
5.0
 40
5.0
 40
5.0
 40
6.0
 40
6.0
 40
6.0
 40
7.0
 40
7.0
 40
7.0
 40
8.0
 40
8.0
 40
8.0
 40
9.0
 40
9.0
 40
9.0
 40
10.0
 40
10.0
 40
10.0
 40
11.0
 40
11.0
 40
11.0
 40
12.0
 40
12.0
 40
12.0
 40
13.0
 40
13.0
 40
13.0
 40
13.0
 10
12.43049157176063
 20
-13.94710824651322
 10
12.42542568300098
 20
-13.94710824651322
 10
12.41932615537881
 20
-13.94817363540185
 10
12.41243640555459
 20
-13.95031146873464
 10
12.41243640555459
 20
-13.95031146873464
 10
12.12607963508238
 20
-14.04017807982329
 10
12.12607963508238
 20
-14.04017807982329
 10
12.11433213538208
 20
-14.04327546871142
 10
12.0972118302633
 20
-14.05177035759817
 10
12.09507399698451
 20
-14.06100255204031
 10
12.09325013591993
 20
-14.06885538537168
 10
12.10189671903267
 20
-14.08194696870175
 10
12.11822680194939
 20
-14.09604044092043
 10
12.11822680194939
 20
-14.09604044092043
 10
12.24907207638902
 20
-14.20903869089217
 10
12.24907207638902
 20
-14.20903869089217
 10
12.250173052493
 20
-14.21007232978081
 10
12.27360071465213
 20
-14.23268891310848
 10
12.30260963057872
 20
-14.23268891310848
 10
12.30260963057872
 20
-14.23268891310848
 10
12.30264138057791
 20
-14.23268891310848
 10
12.30264138057791
 20
-14.23268891310848
 10
12.3083599082098
 20
-14.23268891310848
 10
12.31407843584168
 20
-14.23179285755316
 10
12.31959235236768
 20
-14.2300007464425
 10
12.31959235236768
 20
-14.2300007464425
 10
12.39269848939148
 20
-14.19968302422785
 10
12.39269848939148
 20
-14.19968302422785
 10
12.39465993378588
 20
-14.19892807978361
 10
12.41929471911739
 20
-14.18888449645278
 10
12.42435676636158
 20
-14.1384654964654
 10
12.42435676636158
 20
-14.1384654964654
 10
12.44885365462551
 20
-13.9757714409505
 10
12.44885365462551
 20
-13.9757714409505
 10
12.4492311268381
 20
-13.97210255206255
 10
12.44916057128434
 20
-13.95819957984378
 10
12.44313512699362
 20
-13.95150032984545
 10
12.44144532148117
 20
-13.94960591317927
 10
12.43827737711755
 20
-13.94710824651322
 10
12.43049157176063
 20
-13.94710824651322
 97
        0
 97
        0
 75
     2
 76
     1
 98
        0
450
        0
451
        0
460
0.0
461
0.0
452
        0
462
0.0
453
        0
470

  0
SPLINE
  5
7C
330
1F
100
AcDbEntity
  8
Livello 1
100
AcDbSpline
210
0.0
220
0.0
230
1.0
 70
     9
 71
     3
 72
    17
 73
    13
 74
     0
 42
0.000000001
 43
0.0000000001
 40
0.0
 40
0.0
 40
0.0
 40
0.0
 40
1.0
 40
1.0
 40
1.0
 40
2.0
 40
2.0
 40
2.0
 40
3.0
 40
3.0
 40
3.0
 40
4.0
 40
4.0
 40
4.0
 40
4.0
 10
12.55392851305593
 20
-13.91162232985542
 30
0.0
 10
12.51179305242764
 20
-13.91162232985542
 30
0.0
 10
12.47751684833869
 20
-13.87734291319732
 30
0.0
 10
12.47751684833869
 20
-13.83522830209674
 30
0.0
 10
12.47751684833869
 20
-13.7931101632184
 30
0.0
 10
12.51179305242764
 20
-13.75883427433805
 30
0.0
 10
12.55392851305593
 20
-13.75883427433805
 30
0.0
 10
12.59602548420417
 20
-13.75883427433805
 30
0.0
 10
12.63026962221942
 20
-13.7931101632184
 30
0.0
 10
12.63026962221942
 20
-13.83522830209674
 30
0.0
 10
12.63026962221942
 20
-13.87734291319732
 30
0.0
 10
12.59602548420417
 20
-13.91162232985542
 30
0.0
 10
12.55392851305593
 20
-13.91162232985542
 30
0.0
  0
SPLINE
  5
7D
330
1F
100
AcDbEntity
  8
Livello 1
100
AcDbSpline
210
0.0
220
0.0
230
1.0
 70
     9
 71
     3
 72
    17
 73
    13
 74
     0
 42
0.000000001
 43
0.0000000001
 40
0.0
 40
0.0
 40
0.0
 40
0.0
 40
1.0
 40
1.0
 40
1.0
 40
2.0
 40
2.0
 40
2.0
 40
3.0
 40
3.0
 40
3.0
 40
4.0
 40
4.0
 40
4.0
 40
4.0
 10
12.55392851305593
 20
-13.79411205210701
 30
0.0
 10
12.53125901363428
 20
-13.79411205210701
 30
0.0
 10
12.51279462521646
 20
-13.8125588021024
 30
0.0
 10
12.51279462521646
 20
-13.83522830209674
 30
0.0
 10
12.51279462521646
 20
-13.85789780209107
 30
0.0
 10
12.53125901363428
 20
-13.87634455208646
 30
0.0
 10
12.55392851305593
 20
-13.87634455208646
 30
0.0
 10
12.57656305241142
 20
-13.87634455208646
 30
0.0
 10
12.59499184534165
 20
-13.85789780209107
 30
0.0
 10
12.59499184534165
 20
-13.83522830209674
 30
0.0
 10
12.59499184534165
 20
-13.8125588021024
 30
0.0
 10
12.57656305241142
 20
-13.79411205210701
 30
0.0
 10
12.55392851305593
 20
-13.79411205210701
 30
0.0
  0
HATCH
  5
7E
330
1F
100
AcDbEntity
  8
Livello 1
100
AcDbHatch
 10
0.0
 20
0.0
 30
0.0
210
0.0
220
0.0
230
1.0
  2
SOLID
 70
     1
 71
     0
 91
        2
 92
        1
 93
        1
 72
     4
 94
        3
 73
     0
 74
     0
 95
       17
 96
       13
 40
0.0
 40
0.0
 40
0.0
 40
0.0
 40
1.0
 40
1.0
 40
1.0
 40
2.0
 40
2.0
 40
2.0
 40
3.0
 40
3.0
 40
3.0
 40
4.0
 40
4.0
 40
4.0
 40
4.0
 10
12.55392851305593
 20
-13.91162232985542
 10
12.51179305242764
 20
-13.91162232985542
 10
12.47751684833869
 20
-13.87734291319732
 10
12.47751684833869
 20
-13.83522830209674
 10
12.47751684833869
 20
-13.7931101632184
 10
12.51179305242764
 20
-13.75883427433805
 10
12.55392851305593
 20
-13.75883427433805
 10
12.59602548420417
 20
-13.75883427433805
 10
12.63026962221942
 20
-13.7931101632184
 10
12.63026962221942
 20
-13.83522830209674
 10
12.63026962221942
 20
-13.87734291319732
 10
12.59602548420417
 20
-13.91162232985542
 10
12.55392851305593
 20
-13.91162232985542
 97
        0
 97
        0
 92
        1
 93
        1
 72
     4
 94
        3
 73
     0
 74
     0
 95
       17
 96
       13
 40
0.0
 40
0.0
 40
0.0
 40
0.0
 40
1.0
 40
1.0
 40
1.0
 40
2.0
 40
2.0
 40
2.0
 40
3.0
 40
3.0
 40
3.0
 40
4.0
 40
4.0
 40
4.0
 40
4.0
 10
12.55392851305593
 20
-13.79411205210701
 10
12.53125901363428
 20
-13.79411205210701
 10
12.51279462521646
 20
-13.8125588021024
 10
12.51279462521646
 20
-13.83522830209674
 10
12.51279462521646
 20
-13.85789780209107
 10
12.53125901363428
 20
-13.87634455208646
 10
12.55392851305593
 20
-13.87634455208646
 10
12.57656305241142
 20
-13.87634455208646
 10
12.59499184534165
 20
-13.85789780209107
 10
12.59499184534165
 20
-13.83522830209674
 10
12.59499184534165
 20
-13.8125588021024
 10
12.57656305241142
 20
-13.79411205210701
 10
12.55392851305593
 20
-13.79411205210701
 97
        0
 97
        0
 75
     2
 76
     1
 98
        0
450
        0
451
        0
460
0.0
461
0.0
452
        0
462
0.0
453
        0
470

  0
SPLINE
  5
7F
330
1F
100
AcDbEntity
  8
Livello 1
100
AcDbSpline
210
0.0
220
0.0
230
1.0
 70
     9
 71
     3
 72
    17
 73
    13
 74
     0
 42
0.000000001
 43
0.0000000001
 40
0.0
 40
0.0
 40
0.0
 40
0.0
 40
1.0
 40
1.0
 40
1.0
 40
2.0
 40
2.0
 40
2.0
 40
3.0
 40
3.0
 40
3.0
 40
4.0
 40
4.0
 40
4.0
 40
4.0
 10
14.02326203112567
 20
-12.90774024677308
 30
0.0
 10
13.98116153219974
 20
-12.90774024677308
 30
0.0
 10
13.94691739418449
 20
-12.87347846900384
 30
0.0
 10
13.94691739418449
 20
-12.8313603301255
 30
0.0
 10
13.94691739418449
 20
-12.78924571902492
 30
0.0
 10
13.98116153219974
 20
-12.75498394125571
 30
0.0
 10
14.02326203112567
 20
-12.75498394125571
 30
0.0
 10
14.06539428005078
 20
-12.75498394125571
 30
0.0
 10
14.09967369584291
 20
-12.78924571902492
 30
0.0
 10
14.09967369584291
 20
-12.8313603301255
 30
0.0
 10
14.09967369584291
 20
-12.87347846900384
 30
0.0
 10
14.06539428005078
 20
-12.90774024677308
 30
0.0
 10
14.02326203112567
 20
-12.90774024677308
 30
0.0
  0
SPLINE
  5
80
330
1F
100
AcDbEntity
  8
Livello 1
100
AcDbSpline
210
0.0
220
0.0
230
1.0
 70
     9
 71
     3
 72
    17
 73
    13
 74
     0
 42
0.000000001
 43
0.0000000001
 40
0.0
 40
0.0
 40
0.0
 40
0.0
 40
1.0
 40
1.0
 40
1.0
 40
2.0
 40
2.0
 40
2.0
 40
3.0
 40
3.0
 40
3.0
 40
4.0
 40
4.0
 40
4.0
 40
4.0
 10
14.02326203112567
 20
-12.79026171902467
 30
0.0
 10
14.00062780948089
 20
-12.79026171902467
 30
0.0
 10
13.98219517106226
 20
-12.80869435790895
 30
0.0
 10
13.98219517106226
 20
-12.8313603301255
 30
0.0
 10
13.98219517106226
 20
-12.85402983011984
 30
0.0
 10
14.00062780948089
 20
-12.87246246900411
 30
0.0
 10
14.02326203112567
 20
-12.87246246900411
 30
0.0
 10
14.04592800276963
 20
-12.87246246900411
 30
0.0
 10
14.06439591896514
 20
-12.85402983011984
 30
0.0
 10
14.06439591896514
 20
-12.8313603301255
 30
0.0
 10
14.06439591896514
 20
-12.80869435790895
 30
0.0
 10
14.04592800276963
 20
-12.79026171902467
 30
0.0
 10
14.02326203112567
 20
-12.79026171902467
 30
0.0
  0
HATCH
  5
81
330
1F
100
AcDbEntity
  8
Livello 1
100
AcDbHatch
 10
0.0
 20
0.0
 30
0.0
210
0.0
220
0.0
230
1.0
  2
SOLID
 70
     1
 71
     0
 91
        2
 92
        1
 93
        1
 72
     4
 94
        3
 73
     0
 74
     0
 95
       17
 96
       13
 40
0.0
 40
0.0
 40
0.0
 40
0.0
 40
1.0
 40
1.0
 40
1.0
 40
2.0
 40
2.0
 40
2.0
 40
3.0
 40
3.0
 40
3.0
 40
4.0
 40
4.0
 40
4.0
 40
4.0
 10
14.02326203112567
 20
-12.90774024677308
 10
13.98116153219974
 20
-12.90774024677308
 10
13.94691739418449
 20
-12.87347846900384
 10
13.94691739418449
 20
-12.8313603301255
 10
13.94691739418449
 20
-12.78924571902492
 10
13.98116153219974
 20
-12.75498394125571
 10
14.02326203112567
 20
-12.75498394125571
 10
14.06539428005078
 20
-12.75498394125571
 10
14.09967369584291
 20
-12.78924571902492
 10
14.09967369584291
 20
-12.8313603301255
 10
14.09967369584291
 20
-12.87347846900384
 10
14.06539428005078
 20
-12.90774024677308
 10
14.02326203112567
 20
-12.90774024677308
 97
        0
 97
        0
 92
        1
 93
        1
 72
     4
 94
        3
 73
     0
 74
     0
 95
       17
 96
       13
 40
0.0
 40
0.0
 40
0.0
 40
0.0
 40
1.0
 40
1.0
 40
1.0
 40
2.0
 40
2.0
 40
2.0
 40
3.0
 40
3.0
 40
3.0
 40
4.0
 40
4.0
 40
4.0
 40
4.0
 10
14.02326203112567
 20
-12.79026171902467
 10
14.00062780948089
 20
-12.79026171902467
 10
13.98219517106226
 20
-12.80869435790895
 10
13.98219517106226
 20
-12.8313603301255
 10
13.98219517106226
 20
-12.85402983011984
 10
14.00062780948089
 20
-12.87246246900411
 10
14.02326203112567
 20
-12.87246246900411
 10
14.04592800276963
 20
-12.87246246900411
 10
14.06439591896514
 20
-12.85402983011984
 10
14.06439591896514
 20
-12.8313603301255
 10
14.06439591896514
 20
-12.80869435790895
 10
14.04592800276963
 20
-12.79026171902467
 10
14.02326203112567
 20
-12.79026171902467
 97
        0
 97
        0
 75
     2
 76
     1
 98
        0
450
        0
451
        0
460
0.0
461
0.0
452
        0
462
0.0
453
        0
470

  0
HATCH
  5
88
330
1F
100
AcDbEntity
  8
Livello 1
100
AcDbHatch
 10
0.0
 20
0.0
 30
0.0
210
0.0
220
0.0
230
1.0
  2
SOLID
 70
     1
 71
     0
 91
        1
 92
        1
 93
        4
 72
     1
 10
12.57900748463834
 20
-13.87150444097655
 11
12.52884601369584
 21
-13.79895216321692
 72
     1
 10
12.52884601369584
 20
-13.79895216321692
 11
13.98109450442367
 21
-12.79508419124568
 72
     1
 10
13.98109450442367
 20
-12.79508419124568
 11
14.03125244758848
 21
-12.8676399967831
 72
     1
 10
14.03125244758848
 20
-12.8676399967831
 11
12.57900748463834
 21
-13.87150444097655
 97
        0
 75
     2
 76
     1
 98
        0
450
        0
451
        0
460
0.0
461
0.0
452
        0
462
0.0
453
        0
470

  0
HATCH
  5
90
330
1F
100
AcDbEntity
  8
Livello 1
100
AcDbHatch
 10
0.0
 20
0.0
 30
0.0
210
0.0
220
0.0
230
1.0
  2
SOLID
 70
     1
 71
     0
 91
        1
 92
        1
 93
        4
 72
     1
 10
14.1692308885128
 20
-17.64502016225543
 11
12.20676696635721
 21
-14.38441157973725
 72
     1
 10
12.20676696635721
 20
-14.38441157973725
 11
12.2370144413852
 21
-14.36621882974177
 72
     1
 10
12.2370144413852
 20
-14.36621882974177
 11
14.1994780544078
 21
-17.62683094003773
 72
     1
 10
14.1994780544078
 20
-17.62683094003773
 11
14.1692308885128
 21
-17.64502016225543
 97
        0
 75
     2
 76
     1
 98
        0
450
        0
451
        0
460
0.0
461
0.0
452
        0
462
0.0
453
        0
470

  0
HATCH
  5
98
330
1F
100
AcDbEntity
  8
Livello 1
100
AcDbHatch
 10
0.0
 20
0.0
 30
0.0
210
0.0
220
0.0
230
1.0
  2
SOLID
 70
     1
 71
     0
 91
        1
 92
        1
 93
        4
 72
     1
 10
14.19871958220493
 20
-17.61894282892861
 11
12.23177538238586
 21
-14.39497021862348
 72
     1
 10
12.23177538238586
 20
-14.39497021862348
 11
12.26188849272872
 21
-14.37660813529472
 72
     1
 10
12.26188849272872
 20
-14.37660813529472
 11
14.2288291647701
 21
-17.60054546782208
 72
     1
 10
14.2288291647701
 20
-17.60054546782208
 11
14.19871958220493
 21
-17.61894282892861
 97
        0
 75
     2
 76
     1
 98
        0
450
        0
451
        0
460
0.0
461
0.0
452
        0
462
0.0
453
        0
470

  0
HATCH
  5
A0
330
1F
100
AcDbEntity
  8
Livello 1
100
AcDbHatch
 10
0.0
 20
0.0
 30
0.0
210
0.0
220
0.0
230
1.0
  2
SOLID
 70
     1
 71
     0
 91
        1
 92
        1
 93
        4
 72
     1
 10
14.30441532950841
 20
-17.5245465511744
 11
12.37791710087969
 21
-14.37944799640512
 72
     1
 10
12.37791710087969
 20
-14.37944799640512
 11
12.40802668344486
 21
-14.36101888529863
 72
     1
 10
12.40802668344486
 20
-14.36101888529863
 11
14.33452527419416
 21
-17.50614919006793
 72
     1
 10
14.33452527419416
 20
-17.50614919006793
 11
14.30441532950841
 21
-17.5245465511744
 97
        0
 75
     2
 76
     1
 98
        0
450
        0
451
        0
460
0.0
461
0.0
452
        0
462
0.0
453
        0
470

  0
HATCH
  5
A8
330
1F
100
AcDbEntity
  8
Livello 1
100
AcDbHatch
 10
0.0
 20
0.0
 30
0.0
210
0.0
220
0.0
230
1.0
  2
SOLID
 70
     1
 71
     0
 91
        1
 92
        1
 93
        4
 72
     1
 10
12.55323706862913
 20
-14.28328077420696
 11
12.529262291463
 21
-14.2574080519912
 72
     1
 10
12.529262291463
 20
-14.2574080519912
 11
15.60696962961081
 21
-11.40679780270386
 72
     1
 10
15.60696962961081
 20
-11.40679780270386
 11
15.63094832942561
 21
-11.43267052491962
 72
     1
 10
15.63094832942561
 20
-11.43267052491962
 11
12.55323706862913
 21
-14.28328077420696
 97
        0
 75
     2
 76
     1
 98
        0
450
        0
451
        0
460
0.0
461
0.0
452
        0
462
0.0
453
        0
470

  0
HATCH
  5
AC
330
1F
100
AcDbEntity
  8
Livello 1
100
AcDbHatch
 10
0.0
 20
0.0
 30
0.0
210
0.0
220
0.0
230
1.0
  2
SOLID
 70
     1
 71
     0
 91
        2
 92
        1
 93
        1
 72
     4
 94
        3
 73
     0
 74
     0
 95
       35
 96
       31
 40
0.0
 40
0.0
 40
0.0
 40
0.0
 40
1.0
 40
1.0
 40
1.0
 40
2.0
 40
2.0
 40
2.0
 40
3.0
 40
3.0
 40
3.0
 40
4.0
 40
4.0
 40
4.0
 40
5.0
 40
5.0
 40
5.0
 40
6.0
 40
6.0
 40
6.0
 40
7.0
 40
7.0
 40
7.0
 40
8.0
 40
8.0
 40
8.0
 40
9.0
 40
9.0
 40
9.0
 40
10.0
 40
10.0
 40
10.0
 40
10.0
 10
15.99840166266705
 20
-11.43737305269621
 10
15.99840166266705
 20
-11.43737305269621
 10
15.66512504479381
 20
-11.43737305269621
 10
15.66512504479381
 20
-11.43737305269621
 10
15.56759257505985
 20
-11.43737305269621
 10
15.54110249240233
 20
-11.3986662749281
 10
15.53837944055987
 20
-11.39423891381811
 10
15.49921013235998
 20
-11.34617999716345
 10
15.54637299226787
 20
-11.27428035829254
 10
15.54840499221603
 20
-11.2712323582933
 10
15.54840499221603
 20
-11.2712323582933
 10
15.72300176553947
 20
-10.96032930281546
 10
15.72300176553947
 20
-10.96032930281546
 10
15.75152777383989
 20
-10.90955046949482
 10
15.787150875014
 20
-10.90196927505227
 10
15.80585555160412
 20
-10.90196927505227
 10
15.81546834651379
 20
-10.90196927505227
 10
15.82294370743418
 20
-10.9038143028296
 10
15.82721584621408
 20
-10.90520777505147
 10
15.88785128911159
 20
-10.90820638616183
 10
15.91716712169701
 20
-10.97851852503316
 10
15.91840889944311
 20
-10.98157005281016
 10
15.91840889944311
 20
-10.98157005281016
 10
16.09996638486391
 20
-11.26578899718354
 10
16.09996638486391
 20
-11.26578899718354
 10
16.13841169938593
 20
-11.33291555272231
 10
16.12139369982009
 20
-11.37060633049067
 10
16.11443339444211
 20
-11.38157771937684
 10
16.09376414496942
 20
-11.43578908047438
 10
16.00822259159622
 20
-11.43737305269621
 10
15.99840166266705
 20
-11.43737305269621
 97
        0
 97
        0
 92
        1
 93
        1
 72
     4
 94
        3
 73
     0
 74
     0
 95
       47
 96
       43
 40
0.0
 40
0.0
 40
0.0
 40
0.0
 40
1.0
 40
1.0
 40
1.0
 40
2.0
 40
2.0
 40
2.0
 40
3.0
 40
3.0
 40
3.0
 40
4.0
 40
4.0
 40
4.0
 40
5.0
 40
5.0
 40
5.0
 40
6.0
 40
6.0
 40
6.0
 40
7.0
 40
7.0
 40
7.0
 40
8.0
 40
8.0
 40
8.0
 40
9.0
 40
9.0
 40
9.0
 40
10.0
 40
10.0
 40
10.0
 40
11.0
 40
11.0
 40
11.0
 40
12.0
 40
12.0
 40
12.0
 40
13.0
 40
13.0
 40
13.0
 40
14.0
 40
14.0
 40
14.0
 40
14.0
 10
15.80585555160412
 20
-10.93724705282123
 10
15.78659701391702
 20
-10.93724705282123
 10
15.76858065326555
 20
-10.95119941392887
 10
15.75373223697769
 20
-10.97760835836671
 10
15.75373223697769
 20
-10.97760835836671
 10
15.57844754700514
 20
-11.28966499717758
 10
15.57844754700514
 20
-11.28966499717758
 10
15.57741390814262
 20
-11.29133363606606
 10
15.54337438123326
 20
-11.3446313027194
 10
15.5671445472935
 20
-11.37392949715652
 10
15.56835104726272
 20
-11.3755840249339
 10
15.58823007453334
 20
-11.40209527492725
 10
15.66512504479381
 20
-11.40209527492725
 10
15.66512504479381
 20
-11.40209527492725
 10
15.99836950851425
 20
-11.40209527492725
 10
15.99836950851425
 20
-11.40209527492725
 10
16.01707378581485
 20
-11.40204235826062
 10
16.07257631217664
 20
-11.39565355270663
 10
16.08184378416243
 20
-11.36790052493581
 10
16.08184378416243
 20
-11.36790052493581
 10
16.08490942297311
 20
-11.36235485827054
 10
16.08490942297311
 20
-11.36235485827054
 10
16.08490942297311
 20
-11.36235485827054
 10
16.08490942297311
 20
-11.36235485827054
 10
16.08490942297311
 20
-11.36235485827054
 10
16.08483886741935
 20
-11.36235485827054
 10
16.10068917257053
 20
-11.33799908049883
 10
16.06978584002561
 20
-11.28403113606787
 10
16.06978584002561
 20
-11.28403113606787
 10
15.88719512246166
 20
-10.99772727502836
 10
15.88719512246166
 20
-10.99772727502836
 10
15.88554059472609
 20
-10.99438646947362
 10
15.86218317865533
 20
-10.94034796948714
 10
15.82594231846879
 20
-10.94034796948714
 10
15.82594231846879
 20
-10.94034796948714
 10
15.81663956870613
 20
-10.93886630282083
 10
15.81663956870613
 20
-10.93886630282083
 10
15.81667484648301
 20
-10.93886630282083
 10
15.81667484648301
 20
-10.93886630282083
 10
15.81667484648301
 20
-10.93886630282083
 10
15.81663956870613
 20
-10.93886630282083
 10
15.81230040215016
 20
-10.93724705282123
 10
15.80585555160412
 20
-10.93724705282123
 97
        0
 97
        0
 75
     2
 76
     1
 98
        0
450
        0
451
        0
460
0.0
461
0.0
452
        0
462
0.0
453
        0
470

  0
HATCH
  5
B3
330
1F
100
AcDbEntity
  8
Livello 1
100
AcDbHatch
 10
0.0
 20
0.0
 30
0.0
210
0.0
220
0.0
230
1.0
  2
SOLID
 70
     1
 71
     0
 91
        1
 92
        1
 93
        4
 72
     1
 10
12.58696615110196
 20
-14.06100255204031
 11
12.57504610796737
 21
-14.04801327426578
 72
     1
 10
12.57504610796737
 20
-14.04801327426578
 11
15.53651990918591
 21
-11.32590585827962
 72
     1
 10
15.53651990918591
 20
-11.32590585827962
 11
15.54844026999291
 21
-11.33889513605415
 72
     1
 10
15.54844026999291
 20
-11.33889513605415
 11
12.58696615110196
 21
-14.06100255204031
 97
        0
 75
     2
 76
     1
 98
        0
450
        0
451
        0
460
0.0
461
0.0
452
        0
462
0.0
453
        0
470

  0
HATCH
  5
BB
330
1F
100
AcDbEntity
  8
Livello 1
100
AcDbHatch
 10
0.0
 20
0.0
 30
0.0
210
0.0
220
0.0
230
1.0
  2
SOLID
 70
     1
 71
     0
 91
        1
 92
        1
 93
        4
 72
     1
 10
12.56553842942641
 20
-13.76901191322442
 11
12.54231859668546
 21
-13.74241599656441
 72
     1
 10
12.54231859668546
 20
-13.74241599656441
 11
15.71800643233358
 21
-10.97131833059049
 72
     1
 10
15.71800643233358
 20
-10.97131833059049
 11
15.74122666273138
 21
-10.99791777502831
 72
     1
 10
15.74122666273138
 20
-10.99791777502831
 11
12.56553842942641
 21
-13.76901191322442
 97
        0
 75
     2
 76
     1
 98
        0
450
        0
451
        0
460
0.0
461
0.0
452
        0
462
0.0
453
        0
470

  0
HATCH
  5
CB
330
1F
100
AcDbEntity
  8
Livello 1
100
AcDbHatch
 10
0.0
 20
0.0
 30
0.0
210
0.0
220
0.0
230
1.0
  2
SOLID
 70
     1
 71
     0
 91
        2
 92
        1
 93
        4
 72
     1
 10
16.43014127527662
 20
-11.44445330269445
 11
16.08894167287023
 21
-11.44445330269445
 72
     1
 10
16.08894167287023
 20
-11.44445330269445
 11
16.08894167287023
 21
-11.31476160828242
 72
     1
 10
16.08894167287023
 20
-11.31476160828242
 11
16.44075283056145
 21
-11.31476160828242
 72
     1
 10
16.44075283056145
 20
-11.31476160828242
 11
16.43014127527662
 21
-11.44445330269445
 97
        0
 92
        1
 93
        4
 72
     1
 10
16.124219449748
 20
-11.40917552492549
 11
16.39762222055069
 21
-11.40917552492549
 72
     1
 10
16.39762222055069
 20
-11.40917552492549
 11
16.40244469264988
 21
-11.35003938605138
 72
     1
 10
16.40244469264988
 20
-11.35003938605138
 11
16.124219449748
 21
-11.35003938605138
 72
     1
 10
16.124219449748
 20
-11.35003938605138
 11
16.124219449748
 21
-11.40917552492549
 97
        0
 75
     2
 76
     1
 98
        0
450
        0
451
        0
460
0.0
461
0.0
452
        0
462
0.0
453
        0
470

  0
HATCH
  5
CD
330
1F
100
AcDbEntity
  8
Livello 1
100
AcDbHatch
 10
0.0
 20
0.0
 30
0.0
210
0.0
220
0.0
230
1.0
  2
SOLID
 70
     1
 71
     0
 91
        1
 92
        1
 93
        1
 72
     4
 94
        3
 73
     0
 74
     0
 95
       62
 96
       58
 40
0.0
 40
0.0
 40
0.0
 40
0.0
 40
1.0
 40
1.0
 40
1.0
 40
2.0
 40
2.0
 40
2.0
 40
3.0
 40
3.0
 40
3.0
 40
4.0
 40
4.0
 40
4.0
 40
5.0
 40
5.0
 40
5.0
 40
6.0
 40
6.0
 40
6.0
 40
7.0
 40
7.0
 40
7.0
 40
8.0
 40
8.0
 40
8.0
 40
9.0
 40
9.0
 40
9.0
 40
10.0
 40
10.0
 40
10.0
 40
11.0
 40
11.0
 40
11.0
 40
12.0
 40
12.0
 40
12.0
 40
13.0
 40
13.0
 40
13.0
 40
14.0
 40
14.0
 40
14.0
 40
15.0
 40
15.0
 40
15.0
 40
16.0
 40
16.0
 40
16.0
 40
17.0
 40
17.0
 40
17.0
 40
18.0
 40
18.0
 40
18.0
 40
19.0
 40
19.0
 40
19.0
 40
19.0
 10
15.62626304578526
 20
-11.02892341390944
 10
15.62626304578526
 20
-11.02820021946516
 10
15.62460851804969
 20
-10.95483655281686
 10
15.57183296384055
 20
-10.8321898306253
 10
15.51598471526536
 20
-10.73910235842634
 10
15.45262935577058
 20
-10.53098463625614
 10
15.60121935197973
 20
-10.38598238629241
 10
15.6092803239963
 20
-10.37853877518315
 10
15.77419687534449
 20
-10.23055555299792
 10
15.99106388489115
 20
-10.33788819185996
 10
15.99664442522493
 20
-10.34086916408146
 10
16.08418622854711
 20
-10.38894219184721
 10
16.1574969766768
 20
-10.45608991405265
 10
16.1574969766768
 20
-10.45608991405265
 10
16.16063317104123
 20
-10.45922258071852
 10
16.16063317104123
 20
-10.45922258071852
 10
16.16221714322304
 20
-10.46087710849589
 10
16.3277902736958
 20
-10.63513169178568
 10
16.54152380021279
 20
-10.59528896957339
 10
16.54152380021279
 20
-10.59528896957339
 10
16.54510449456588
 20
-10.59473510846242
 10
16.54510449456588
 20
-10.59473510846242
 10
16.57452616048194
 20
-10.59127435846328
 10
16.72328549002011
 20
-10.57875074735531
 10
16.75704632249213
 20
-10.67250849733187
 10
16.75704632249213
 20
-10.67250849733187
 10
16.65748538058769
 20
-10.7083401362118
 10
16.65748538058769
 20
-10.7083401362118
 10
16.6489411030279
 20
-10.70075894176925
 10
16.59901952096817
 20
-10.69529794177064
 10
16.55909213309792
 20
-10.69965827510288
 10
16.29784961198499
 20
-10.74738910842428
 10
16.10613253354277
 20
-10.55544624736114
 10
16.08459897853658
 20
-10.53284377514457
 10
16.02093317460528
 20
-10.47494941404794
 10
15.94303984325917
 20
-10.43219627516973
 10
15.9422496210571
 20
-10.43176588628094
 10
15.79362787484876
 20
-10.35822935852155
 10
15.67855882222886
 20
-10.45870752516311
 10
15.67373635012967
 20
-10.46302905293979
 10
15.54802399222575
 20
-10.58577808068689
 10
15.6592689338321
 20
-10.77228110841803
 10
15.66409140593129
 20
-10.78015158063829
 10
15.66409140593129
 20
-10.78015158063829
 10
15.66750276695537
 20
-10.78671324730331
 10
15.66750276695537
 20
-10.78671324730331
 10
15.73144373754632
 20
-10.93383569171097
 10
15.73209637641856
 20
-11.02482060835492
 10
15.73209637641856
 20
-11.02863060835394
 10
15.73209637641856
 20
-11.02863060835394
 10
15.62626304578526
 20
-11.02852477502065
 10
15.62626304578526
 20
-11.02852477502065
 10
15.62626304578526
 20
-11.02852477502065
 10
15.67917971110191
 20
-11.02857769168731
 10
15.67917971110191
 20
-11.02857769168731
 10
15.67917971110191
 20
-11.02857769168731
 10
15.62626304578526
 20
-11.02892341390944
 10
15.62626304578526
 20
-11.02892341390944
 97
        0
 97
        0
 75
     2
 76
     1
 98
        0
450
        0
451
        0
460
0.0
461
0.0
452
        0
462
0.0
453
        0
470

  0
HATCH
  5
DC
330
1F
100
AcDbEntity
  8
Livello 1
100
AcDbHatch
 10
0.0
 20
0.0
 30
0.0
210
0.0
220
0.0
230
1.0
  2
SOLID
 70
     1
 71
     0
 91
        2
 92
        1
 93
        4
 72
     1
 10
16.62534027029668
 20
-10.92675896949054
 11
16.60959579847613
 21
-10.67385258066485
 72
     1
 10
16.60959579847613
 20
-10.67385258066485
 11
16.78743459949464
 21
-10.66341388622305
 72
     1
 10
16.78743459949464
 20
-10.66341388622305
 11
16.8300148761861
 21
-10.90558877505137
 72
     1
 10
16.8300148761861
 20
-10.90558877505137
 11
16.62534027029668
 21
-10.92675896949054
 97
        0
 92
        1
 93
        4
 72
     1
 10
16.64701140863269
 20
-10.70699605287881
 11
16.65827560278976
 21
-10.88789696950026
 72
     1
 10
16.65827560278976
 20
-10.88789696950026
 11
16.7887434050168
 21
-10.87441027505918
 72
     1
 10
16.7887434050168
 20
-10.87441027505918
 11
16.7581505169084
 21
-10.70048377510267
 72
     1
 10
16.7581505169084
 20
-10.70048377510267
 11
16.64701140863269
 21
-10.70699605287881
 97
        0
 75
     2
 76
     1
 98
        0
450
        0
451
        0
460
0.0
461
0.0
452
        0
462
0.0
453
        0
470

  0
HATCH
  5
DF
330
1F
100
AcDbEntity
  8
Livello 1
100
AcDbHatch
 10
0.0
 20
0.0
 30
0.0
210
0.0
220
0.0
230
1.0
  2
SOLID
 70
     1
 71
     0
 91
        2
 92
        1
 93
        1
 72
     4
 94
        3
 73
     0
 74
     0
 95
       56
 96
       52
 40
0.0
 40
0.0
 40
0.0
 40
0.0
 40
1.0
 40
1.0
 40
1.0
 40
2.0
 40
2.0
 40
2.0
 40
3.0
 40
3.0
 40
3.0
 40
4.0
 40
4.0
 40
4.0
 40
5.0
 40
5.0
 40
5.0
 40
6.0
 40
6.0
 40
6.0
 40
7.0
 40
7.0
 40
7.0
 40
8.0
 40
8.0
 40
8.0
 40
9.0
 40
9.0
 40
9.0
 40
10.0
 40
10.0
 40
10.0
 40
11.0
 40
11.0
 40
11.0
 40
12.0
 40
12.0
 40
12.0
 40
13.0
 40
13.0
 40
13.0
 40
14.0
 40
14.0
 40
14.0
 40
15.0
 40
15.0
 40
15.0
 40
16.0
 40
16.0
 40
16.0
 40
17.0
 40
17.0
 40
17.0
 40
17.0
 10
17.8808728215987
 20
-13.06991571895476
 10
17.88083754382183
 20
-13.06991571895476
 10
17.88083754382183
 20
-13.06991571895476
 10
17.88083754382183
 20
-13.06991571895476
 10
17.64694941089992
 20
-13.06990160784362
 10
17.26158203184258
 20
-12.94994305231807
 10
17.24528722670273
 20
-12.9448242467638
 10
16.25802452966768
 20
-12.67213055238752
 10
16.16435144872415
 20
-12.42583874689354
 10
16.16083778214712
 20
-12.41548824689612
 10
16.16083778214712
 20
-12.41548824689612
 10
16.15904919885942
 20
-12.41021421911967
 10
16.15904919885942
 20
-12.41021421911967
 10
16.15904919885942
 20
-12.41021421911967
 10
16.36658130467595
 20
-11.70739974707315
 10
16.36658130467595
 20
-11.70739974707315
 10
16.36658130467595
 20
-11.70739974707315
 10
16.40395810927794
 20
-11.64412905264453
 10
16.40395810927794
 20
-11.64412905264453
 10
16.40395810927794
 20
-11.64412905264453
 10
16.40395810927794
 20
-10.9846180528094
 10
16.40395810927794
 20
-10.9846180528094
 10
16.40395810927794
 20
-10.92756683060145
 10
16.44619619153369
 20
-10.89818044171989
 10
16.46851996874194
 20
-10.89061688616623
 10
16.5909585489516
 20
-10.83427474729143
 10
16.85506209776932
 20
-10.82984738618142
 10
16.93305773466837
 20
-10.82984738618142
 10
16.94652721798558
 20
-10.82984738618142
 10
16.9541750119074
 20
-10.82996733062585
 10
16.9541750119074
 20
-10.82996733062585
 10
17.01825356582818
 20
-10.83182646951425
 10
17.04860656505381
 20
-10.88664108061168
 10
17.05573620376081
 20
-10.9153713028267
 10
17.05573620376081
 20
-10.9153713028267
 10
17.23515897696113
 20
-11.56163549710958
 10
17.23515897696113
 20
-11.56163549710958
 10
17.26761100391099
 20
-11.58806208043631
 10
17.29627419762417
 20
-11.62718160820431
 10
17.29754772536946
 20
-11.62892080264834
 10
17.29754772536946
 20
-11.62892080264834
 10
18.03073281777546
 20
-12.97348744120108
 10
18.03073281777546
 20
-12.97348744120108
 10
18.04964876173732
 20
-12.99837944119484
 10
18.03789773425933
 20
-13.02638999674342
 10
18.028873678934
 20
-13.03741430229621
 10
18.028873678934
 20
-13.03741430229621
 10
18.0246015401541
 20
-13.04116785785082
 10
18.0246015401541
 20
-13.04116785785082
 10
17.993835790939
 20
-13.06051066340152
 10
17.94681051436094
 20
-13.06991571895476
 10
17.8808728215987
 20
-13.06991571895476
 97
        0
 97
        0
 92
        1
 93
        1
 72
     4
 94
        3
 73
     0
 74
     0
 95
       56
 96
       52
 40
0.0
 40
0.0
 40
0.0
 40
0.0
 40
1.0
 40
1.0
 40
1.0
 40
2.0
 40
2.0
 40
2.0
 40
3.0
 40
3.0
 40
3.0
 40
4.0
 40
4.0
 40
4.0
 40
5.0
 40
5.0
 40
5.0
 40
6.0
 40
6.0
 40
6.0
 40
7.0
 40
7.0
 40
7.0
 40
8.0
 40
8.0
 40
8.0
 40
9.0
 40
9.0
 40
9.0
 40
10.0
 40
10.0
 40
10.0
 40
11.0
 40
11.0
 40
11.0
 40
12.0
 40
12.0
 40
12.0
 40
13.0
 40
13.0
 40
13.0
 40
14.0
 40
14.0
 40
14.0
 40
15.0
 40
15.0
 40
15.0
 40
16.0
 40
16.0
 40
16.0
 40
17.0
 40
17.0
 40
17.0
 40
17.0
 10
16.19635897568535
 20
-12.40844327467565
 10
16.21437533633682
 20
-12.44175608022288
 10
16.36516666582315
 20
-12.66511733016705
 10
17.25524305124175
 20
-12.91099638566113
 10
17.25975464300031
 20
-12.91240749677189
 10
17.65239277187216
 20
-13.03462383007466
 10
17.88083754382183
 20
-13.0346379411858
 10
17.88083754382183
 20
-13.0346379411858
 10
17.8808728215987
 20
-13.0346379411858
 10
17.8808728215987
 20
-13.0346379411858
 10
17.93689040350291
 20
-13.0346379411858
 10
17.97788670801256
 20
-13.02738835785428
 10
18.00286337404202
 20
-13.01307263563562
 10
18.00506823509688
 20
-13.00919560785883
 10
18.00775640169497
 20
-13.00134277452745
 10
18.00114181853039
 20
-12.99252333008521
 10
18.00114181853039
 20
-12.99252333008521
 10
17.26778386501768
 20
-11.64774855264363
 10
17.26778386501768
 20
-11.64774855264363
 10
17.26781561501688
 20
-11.64779794153251
 10
17.26781561501688
 20
-11.64779794153251
 10
17.26781561501688
 20
-11.64779794153251
 10
17.26764628168786
 20
-11.64779794153251
 10
17.23863736576127
 20
-11.60862902487563
 10
17.20897581096245
 20
-11.58590660821462
 10
17.20897581096245
 20
-11.58590660821462
 10
17.20429092219308
 20
-11.58232591377108
 10
17.20429092219308
 20
-11.58232591377108
 10
17.20429092219308
 20
-11.58232591377108
 10
17.02162964907538
 20
-10.92432833060226
 10
17.02162964907538
 20
-10.92432833060226
 10
17.02090645464938
 20
-10.92159077504737
 10
17.00619562169136
 20
-10.86676205283887
 10
16.95334951192846
 20
-10.86524510839481
 10
16.95334951192846
 20
-10.86524510839481
 10
16.93305773466837
 20
-10.86512516395038
 10
16.93305773466837
 20
-10.86512516395038
 10
16.85688638467468
 20
-10.86512516395038
 10
16.59919238207488
 20
-10.86930910839377
 10
16.48154452396521
 20
-10.92336524726917
 10
16.47830602404783
 20
-10.92458585837998
 10
16.43923588615571
 20
-10.93898624726526
 10
16.43923588615571
 20
-10.9846180528094
 10
16.43923588615571
 20
-10.9846180528094
 10
16.43923588615571
 20
-11.65377752486435
 10
16.43923588615571
 20
-11.65377752486435
 10
16.43923588615571
 20
-11.65377752486435
 10
16.39806672053935
 20
-11.72345466373581
 10
16.39806672053935
 20
-11.72345466373581
 10
16.39806672053935
 20
-11.72345466373581
 10
16.19635897568535
 20
-12.40844327467565
 10
16.19635897568535
 20
-12.40844327467565
 97
        0
 97
        0
 75
     2
 76
     1
 98
        0
450
        0
451
        0
460
0.0
461
0.0
452
        0
462
0.0
453
        0
470

  0
HATCH
  5
E5
330
1F
100
AcDbEntity
  8
Livello 1
100
AcDbHatch
 10
0.0
 20
0.0
 30
0.0
210
0.0
220
0.0
230
1.0
  2
SOLID
 70
     1
 71
     0
 91
        1
 92
        1
 93
        3
 72
     1
 10
15.62206146255912
 20
-11.10182141389119
 11
15.62206146255912
 21
-11.01469235835744
 72
     1
 10
15.62206146255912
 20
-11.01469235835744
 11
15.76010693125951
 21
-10.98139719169909
 72
     1
 10
15.76010693125951
 20
-10.98139719169909
 11
15.62206146255912
 21
-11.10182141389119
 97
        0
 75
     2
 76
     1
 98
        0
450
        0
451
        0
460
0.0
461
0.0
452
        0
462
0.0
453
        0
470

  0
HATCH
  5
ED
330
1F
100
AcDbEntity
  8
Livello 1
100
AcDbHatch
 10
0.0
 20
0.0
 30
0.0
210
0.0
220
0.0
230
1.0
  2
SOLID
 70
     1
 71
     0
 91
        1
 92
        1
 93
        4
 72
     1
 10
16.77034604437505
 20
-10.72782052509582
 11
16.68962696310103
 21
-10.71478185843241
 72
     1
 10
16.68962696310103
 20
-10.71478185843241
 11
16.68962696310103
 21
-10.67216630288752
 72
     1
 10
16.68962696310103
 20
-10.67216630288752
 11
16.75666885027954
 21
-10.65464735844744
 72
     1
 10
16.75666885027954
 20
-10.65464735844744
 11
16.77034604437505
 21
-10.72782052509582
 97
        0
 75
     2
 76
     1
 98
        0
450
        0
451
        0
460
0.0
461
0.0
452
        0
462
0.0
453
        0
470

  0
SPLINE
  5
166
330
1F
100
AcDbEntity
  8
Livello 1
100
AcDbSpline
210
0.0
220
0.0
230
1.0
 70
     8
 71
     3
 72
     8
 73
     4
 74
     0
 42
0.000000001
 43
0.0000000001
 40
0.0
 40
0.0
 40
0.0
 40
0.0
 40
1.0
 40
1.0
 40
1.0
 40
1.0
 10
14.09285097379475
 20
-19.36536568960312
 30
0.0
 10
12.85644250533816
 20
-19.36536568960312
 30
0.0
 10
12.8268479783154
 20
-19.05365124523656
 30
0.0
 10
12.82619181166547
 20
-19.04028449523991
 30
0.0
  0
SPLINE
  5
167
330
1F
100
AcDbEntity
  8
Livello 1
100
AcDbSpline
210
0.0
220
0.0
230
1.0
 70
    24
 71
     3
 72
     8
 73
     4
 74
     0
 42
0.000000001
 43
0.0000000001
 40
1.0
 40
1.0
 40
1.0
 40
1.0
 40
2.0
 40
2.0
 40
2.0
 40
2.0
 10
12.82619181166547
 20
-19.04028449523991
 30
0.0
 10
12.82619181166547
 20
-19.04028449523991
 30
0.0
 10
12.82616006166628
 20
-18.64902571755995
 30
0.0
 10
12.82616006166628
 20
-18.64902571755995
 30
0.0
  0
SPLINE
  5
168
330
1F
100
AcDbEntity
  8
Livello 1
100
AcDbSpline
210
0.0
220
0.0
230
1.0
 70
     8
 71
     3
 72
     8
 73
     4
 74
     0
 42
0.000000001
 43
0.0000000001
 40
2.0
 40
2.0
 40
2.0
 40
2.0
 40
3.0
 40
3.0
 40
3.0
 40
3.0
 10
12.82616006166628
 20
-18.64902571755995
 30
0.0
 10
12.82581433945288
 20
-18.64761460644922
 30
0.0
 10
12.82247353398256
 20
-18.61326463423557
 30
0.0
 10
12.86012903302188
 20
-18.56586188424744
 30
0.0
  0
SPLINE
  5
169
330
1F
100
AcDbEntity
  8
Livello 1
100
AcDbSpline
210
0.0
220
0.0
230
1.0
 70
     8
 71
     3
 72
     8
 73
     4
 74
     0
 42
0.000000001
 43
0.0000000001
 40
3.0
 40
3.0
 40
3.0
 40
3.0
 40
4.0
 40
4.0
 40
4.0
 40
4.0
 10
12.86012903302188
 20
-18.56586188424744
 30
0.0
 10
12.94108833009809
 20
-18.46391968982843
 30
0.0
 10
13.1854465802779
 20
-18.32842480097348
 30
0.0
 10
13.89000375674759
 20
-18.26162280099014
 30
0.0
  0
SPLINE
  5
16A
330
1F
100
AcDbEntity
  8
Livello 1
100
AcDbSpline
210
0.0
220
0.0
230
1.0
 70
    24
 71
     3
 72
     8
 73
     4
 74
     0
 42
0.000000001
 43
0.0000000001
 40
4.0
 40
4.0
 40
4.0
 40
4.0
 40
5.0
 40
5.0
 40
5.0
 40
5.0
 10
13.89000375674759
 20
-18.26162280099014
 30
0.0
 10
13.89000375674759
 20
-18.26162280099014
 30
0.0
 10
13.89331281221873
 20
-18.29676299542581
 30
0.0
 10
13.89331281221873
 20
-18.29676299542581
 30
0.0
  0
SPLINE
  5
16B
330
1F
100
AcDbEntity
  8
Livello 1
100
AcDbSpline
210
0.0
220
0.0
230
1.0
 70
     8
 71
     3
 72
     8
 73
     4
 74
     0
 42
0.000000001
 43
0.0000000001
 40
5.0
 40
5.0
 40
5.0
 40
5.0
 40
6.0
 40
6.0
 40
6.0
 40
6.0
 10
13.89331281221873
 20
-18.29676299542581
 30
0.0
 10
12.85209981100451
 20
-18.39546668984556
 30
0.0
 10
12.86112739410753
 20
-18.64458071756106
 30
0.0
 10
12.86133200521342
 20
-18.64709602311603
 30
0.0
  0
SPLINE
  5
16C
330
1F
100
AcDbEntity
  8
Livello 1
100
AcDbSpline
210
0.0
220
0.0
230
1.0
 70
    24
 71
     3
 72
     8
 73
     4
 74
     0
 42
0.000000001
 43
0.0000000001
 40
6.0
 40
6.0
 40
6.0
 40
6.0
 40
7.0
 40
7.0
 40
7.0
 40
7.0
 10
12.86133200521342
 20
-18.64709602311603
 30
0.0
 10
12.86133200521342
 20
-18.64709602311603
 30
0.0
 10
12.86143783854405
 20
-19.03942371746234
 30
0.0
 10
12.86143783854405
 20
-19.03942371746234
 30
0.0
  0
SPLINE
  5
16D
330
1F
100
AcDbEntity
  8
Livello 1
100
AcDbSpline
210
0.0
220
0.0
230
1.0
 70
     8
 71
     3
 72
    11
 73
     7
 74
     0
 42
0.000000001
 43
0.0000000001
 40
7.0
 40
7.0
 40
7.0
 40
7.0
 40
8.0
 40
8.0
 40
8.0
 40
9.0
 40
9.0
 40
9.0
 40
9.0
 10
12.86143783854405
 20
-19.03942371746234
 30
0.0
 10
12.86164277456238
 20
-19.04118055079526
 30
0.0
 10
12.90171094862771
 20
-19.33008791183416
 30
0.0
 10
14.09243822380528
 20
-19.33008791183416
 30
0.0
 10
14.10253119577001
 20
-19.33008791183416
 30
0.0
 10
14.11252221869412
 20
-19.33005263405638
 30
0.0
 10
14.12282332980264
 20
-19.33001735627861
 30
0.0
  0
SPLINE
  5
16E
330
1F
100
AcDbEntity
  8
Livello 1
100
AcDbSpline
210
0.0
220
0.0
230
1.0
 70
     8
 71
     3
 72
     8
 73
     4
 74
     0
 42
0.000000001
 43
0.0000000001
 40
9.0
 40
9.0
 40
9.0
 40
9.0
 40
10.0
 40
10.0
 40
10.0
 40
10.0
 10
14.12282332980264
 20
-19.33001735627861
 30
0.0
 10
14.13381552830521
 20
-19.32980921738977
 30
0.0
 10
15.24540769439058
 20
-19.30621191184009
 30
0.0
 10
15.31751547032873
 20
-18.99639541191755
 30
0.0
  0
SPLINE
  5
16F
330
1F
100
AcDbEntity
  8
Livello 1
100
AcDbSpline
210
0.0
220
0.0
230
1.0
 70
    24
 71
     3
 72
     8
 73
     4
 74
     0
 42
0.000000001
 43
0.0000000001
 40
10.0
 40
10.0
 40
10.0
 40
10.0
 40
11.0
 40
11.0
 40
11.0
 40
11.0
 10
15.31751547032873
 20
-18.99639541191755
 30
0.0
 10
15.31751547032873
 20
-18.99639541191755
 30
0.0
 10
15.31751547032873
 20
-18.64902571755995
 30
0.0
 10
15.31751547032873
 20
-18.64902571755995
 30
0.0
  0
SPLINE
  5
170
330
1F
100
AcDbEntity
  8
Livello 1
100
AcDbSpline
210
0.0
220
0.0
230
1.0
 70
     8
 71
     3
 72
     8
 73
     4
 74
     0
 42
0.000000001
 43
0.0000000001
 40
11.0
 40
11.0
 40
11.0
 40
11.0
 40
12.0
 40
12.0
 40
12.0
 40
12.0
 10
15.31751547032873
 20
-18.64902571755995
 30
0.0
 10
15.31789332950388
 20
-18.64506402311654
 30
0.0
 10
15.32178760910863
 20
-18.60992382868087
 30
0.0
 10
15.2805831657154
 20
-18.56124402313748
 30
0.0
  0
SPLINE
  5
171
330
1F
100
AcDbEntity
  8
Livello 1
100
AcDbSpline
210
0.0
220
0.0
230
1.0
 70
     8
 71
     3
 72
     8
 73
     4
 74
     0
 42
0.000000001
 43
0.0000000001
 40
12.0
 40
12.0
 40
12.0
 40
12.0
 40
13.0
 40
13.0
 40
13.0
 40
13.0
 10
15.2805831657154
 20
-18.56124402313748
 30
0.0
 10
15.20782275090501
 20
-18.47539202315894
 30
0.0
 10
14.97128172916189
 20
-18.32684082875163
 30
0.0
 10
14.20433580428387
 20
-18.29683355098136
 30
0.0
  0
SPLINE
  5
172
330
1F
100
AcDbEntity
  8
Livello 1
100
AcDbSpline
210
0.0
220
0.0
230
1.0
 70
    24
 71
     3
 72
     8
 73
     4
 74
     0
 42
0.000000001
 43
0.0000000001
 40
13.0
 40
13.0
 40
13.0
 40
13.0
 40
14.0
 40
14.0
 40
14.0
 40
14.0
 10
14.20433580428387
 20
-18.29683355098136
 30
0.0
 10
14.20433580428387
 20
-18.29683355098136
 30
0.0
 10
14.2057116375821
 20
-18.2615557732124
 30
0.0
 10
14.2057116375821
 20
-18.2615557732124
 30
0.0
  0
SPLINE
  5
173
330
1F
100
AcDbEntity
  8
Livello 1
100
AcDbSpline
210
0.0
220
0.0
230
1.0
 70
     8
 71
     3
 72
     8
 73
     4
 74
     0
 42
0.000000001
 43
0.0000000001
 40
14.0
 40
14.0
 40
14.0
 40
14.0
 40
15.0
 40
15.0
 40
15.0
 40
15.0
 10
14.2057116375821
 20
-18.2615557732124
 30
0.0
 10
14.95257392408361
 20
-18.29080457876061
 30
0.0
 10
15.21853661174278
 20
-18.4300212731703
 30
0.0
 10
15.31014241496128
 20
-18.54164016203125
 30
0.0
  0
SPLINE
  5
174
330
1F
100
AcDbEntity
  8
Livello 1
100
AcDbSpline
210
0.0
220
0.0
230
1.0
 70
     8
 71
     3
 72
     8
 73
     4
 74
     0
 42
0.000000001
 43
0.0000000001
 40
15.0
 40
15.0
 40
15.0
 40
15.0
 40
16.0
 40
16.0
 40
16.0
 40
16.0
 10
15.31014241496128
 20
-18.54164016203125
 30
0.0
 10
15.35978530258367
 20
-18.60210274534949
 30
0.0
 10
15.35289555275945
 20
-18.64978418978201
 30
0.0
 10
15.35258510832292
 20
-18.65178091200373
 30
0.0
  0
SPLINE
  5
175
330
1F
100
AcDbEntity
  8
Livello 1
100
AcDbSpline
210
0.0
220
0.0
230
1.0
 70
    24
 71
     3
 72
     8
 73
     4
 74
     0
 42
0.000000001
 43
0.0000000001
 40
16.0
 40
16.0
 40
16.0
 40
16.0
 40
17.0
 40
17.0
 40
17.0
 40
17.0
 10
15.35258510832292
 20
-18.65178091200373
 30
0.0
 10
15.35258510832292
 20
-18.65178091200373
 30
0.0
 10
15.3527932472065
 20
-19.0002512730277
 30
0.0
 10
15.3527932472065
 20
-19.0002512730277
 30
0.0
  0
SPLINE
  5
176
330
1F
100
AcDbEntity
  8
Livello 1
100
AcDbSpline
210
0.0
220
0.0
230
1.0
 70
    24
 71
     3
 72
     8
 73
     4
 74
     0
 42
0.000000001
 43
0.0000000001
 40
17.0
 40
17.0
 40
17.0
 40
17.0
 40
18.0
 40
18.0
 40
18.0
 40
18.0
 10
15.3527932472065
 20
-19.0002512730277
 30
0.0
 10
15.3527932472065
 20
-19.0002512730277
 30
0.0
 10
15.35237696943934
 20
-19.00211393969389
 30
0.0
 10
15.35237696943934
 20
-19.00211393969389
 30
0.0
  0
SPLINE
  5
177
330
1F
100
AcDbEntity
  8
Livello 1
100
AcDbSpline
210
0.0
220
0.0
230
1.0
 70
     8
 71
     3
 72
     8
 73
     4
 74
     0
 42
0.000000001
 43
0.0000000001
 40
18.0
 40
18.0
 40
18.0
 40
18.0
 40
19.0
 40
19.0
 40
19.0
 40
19.0
 10
15.35237696943934
 20
-19.00211393969389
 30
0.0
 10
15.27830774910678
 20
-19.34069593960928
 30
0.0
 10
14.17033155515139
 20
-19.36443435626999
 30
0.0
 10
14.12320397302038
 20
-19.36529513404756
 30
0.0
  0
SPLINE
  5
178
330
1F
100
AcDbEntity
  8
Livello 1
100
AcDbSpline
210
0.0
220
0.0
230
1.0
 70
     8
 71
     3
 72
     8
 73
     4
 74
     0
 42
0.000000001
 43
0.0000000001
 40
19.0
 40
19.0
 40
19.0
 40
19.0
 40
20.0
 40
20.0
 40
20.0
 40
20.0
 10
14.12320397302038
 20
-19.36529513404756
 30
0.0
 10
14.11300516772502
 20
-19.36533041182534
 30
0.0
 10
14.10287691798341
 20
-19.36536568960312
 30
0.0
 10
14.09285097379475
 20
-19.36536568960312
 30
0.0
  0
SPLINE
  5
179
330
1F
100
AcDbEntity
  8
Livello 1
100
AcDbSpline
210
0.0
220
0.0
230
1.0
 70
     8
 71
     3
 72
     8
 73
     4
 74
     0
 42
0.000000001
 43
0.0000000001
 40
0.0
 40
0.0
 40
0.0
 40
0.0
 40
1.0
 40
1.0
 40
1.0
 40
1.0
 10
13.99721644845681
 20
-18.9877135508086
 30
0.0
 10
12.8497926443967
 20
-18.9877135508086
 30
0.0
 10
12.82657281165575
 20
-18.66401171755623
 30
0.0
 10
12.82616006166628
 20
-18.64954077311539
 30
0.0
  0
SPLINE
  5
17A
330
1F
100
AcDbEntity
  8
Livello 1
100
AcDbSpline
210
0.0
220
0.0
230
1.0
 70
    24
 71
     3
 72
     8
 73
     4
 74
     0
 42
0.000000001
 43
0.0000000001
 40
1.0
 40
1.0
 40
1.0
 40
1.0
 40
2.0
 40
2.0
 40
2.0
 40
2.0
 10
12.82616006166628
 20
-18.64954077311539
 30
0.0
 10
12.82616006166628
 20
-18.64954077311539
 30
0.0
 10
12.86140256076717
 20
-18.64823196756018
 30
0.0
 10
12.86140256076717
 20
-18.64823196756018
 30
0.0
  0
SPLINE
  5
17B
330
1F
100
AcDbEntity
  8
Livello 1
100
AcDbSpline
210
0.0
220
0.0
230
1.0
 70
     8
 71
     3
 72
     8
 73
     4
 74
     0
 42
0.000000001
 43
0.0000000001
 40
2.0
 40
2.0
 40
2.0
 40
2.0
 40
3.0
 40
3.0
 40
3.0
 40
3.0
 10
12.86140256076717
 20
-18.64823196756018
 30
0.0
 10
12.86161069965075
 20
-18.65160805089267
 30
0.0
 10
12.89671561542182
 20
-18.98451032858718
 30
0.0
 10
14.17884055493431
 20
-18.94988518970696
 30
0.0
  0
SPLINE
  5
17C
330
1F
100
AcDbEntity
  8
Livello 1
100
AcDbSpline
210
0.0
220
0.0
230
1.0
 70
     8
 71
     3
 72
     8
 73
     4
 74
     0
 42
0.000000001
 43
0.0000000001
 40
3.0
 40
3.0
 40
3.0
 40
3.0
 40
4.0
 40
4.0
 40
4.0
 40
4.0
 10
14.17884055493431
 20
-18.94988518970696
 30
0.0
 10
14.18872891579314
 20
-18.94968057859593
 30
0.0
 10
15.15731908552679
 20
-18.92580457860186
 30
0.0
 10
15.31975208138278
 20
-18.61019899534744
 30
0.0
  0
SPLINE
  5
17D
330
1F
100
AcDbEntity
  8
Livello 1
100
AcDbSpline
210
0.0
220
0.0
230
1.0
 70
    24
 71
     3
 72
     8
 73
     4
 74
     0
 42
0.000000001
 43
0.0000000001
 40
4.0
 40
4.0
 40
4.0
 40
4.0
 40
5.0
 40
5.0
 40
5.0
 40
5.0
 10
15.31975208138278
 20
-18.61019899534744
 30
0.0
 10
15.31975208138278
 20
-18.61019899534744
 30
0.0
 10
15.35110344169406
 20
-18.62632093978787
 30
0.0
 10
15.35110344169406
 20
-18.62632093978787
 30
0.0
  0
SPLINE
  5
17E
330
1F
100
AcDbEntity
  8
Livello 1
100
AcDbSpline
210
0.0
220
0.0
230
1.0
 70
     8
 71
     3
 72
     8
 73
     4
 74
     0
 42
0.000000001
 43
0.0000000001
 40
5.0
 40
5.0
 40
5.0
 40
5.0
 40
6.0
 40
6.0
 40
6.0
 40
6.0
 10
15.35110344169406
 20
-18.62632093978787
 30
0.0
 10
15.17912427941494
 20
-18.96053202303766
 30
0.0
 10
14.22042247054013
 20
-18.98430218969834
 30
0.0
 10
14.17970133269012
 20
-18.98516296747592
 30
0.0
  0
SPLINE
  5
17F
330
1F
100
AcDbEntity
  8
Livello 1
100
AcDbSpline
210
0.0
220
0.0
230
1.0
 70
     8
 71
     3
 72
     8
 73
     4
 74
     0
 42
0.000000001
 43
0.0000000001
 40
6.0
 40
6.0
 40
6.0
 40
6.0
 40
7.0
 40
7.0
 40
7.0
 40
7.0
 10
14.17970133269012
 20
-18.98516296747592
 30
0.0
 10
14.11593322320587
 20
-18.98688452303106
 30
0.0
 10
14.05509316920248
 20
-18.9877135508086
 30
0.0
 10
13.99721644845681
 20
-18.9877135508086
 30
0.0
  0
SPLINE
  5
180
330
1F
100
AcDbEntity
  8
Livello 1
100
AcDbSpline
210
0.0
220
0.0
230
1.0
 70
    24
 71
     3
 72
     8
 73
     4
 74
     0
 42
0.000000001
 43
0.0000000001
 40
0.0
 40
0.0
 40
0.0
 40
0.0
 40
1.0
 40
1.0
 40
1.0
 40
1.0
 10
13.95849203277809
 20
-18.61825996756762
 30
0.0
 10
13.95849203277809
 20
-18.61825996756762
 30
0.0
 10
13.95849203277809
 20
-18.39736110651177
 30
0.0
 10
13.95849203277809
 20
-18.39736110651177
 30
0.0
  0
SPLINE
  5
181
330
1F
100
AcDbEntity
  8
Livello 1
100
AcDbSpline
210
0.0
220
0.0
230
1.0
 70
    24
 71
     3
 72
     8
 73
     4
 74
     0
 42
0.000000001
 43
0.0000000001
 40
1.0
 40
1.0
 40
1.0
 40
1.0
 40
2.0
 40
2.0
 40
2.0
 40
2.0
 10
13.95849203277809
 20
-18.39736110651177
 30
0.0
 10
13.95849203277809
 20
-18.39736110651177
 30
0.0
 10
13.89165828448316
 20
-18.39736110651177
 30
0.0
 10
13.89165828448316
 20
-18.39736110651177
 30
0.0
  0
SPLINE
  5
182
330
1F
100
AcDbEntity
  8
Livello 1
100
AcDbSpline
210
0.0
220
0.0
230
1.0
 70
     8
 71
     3
 72
     8
 73
     4
 74
     0
 42
0.000000001
 43
0.0000000001
 40
2.0
 40
2.0
 40
2.0
 40
2.0
 40
3.0
 40
3.0
 40
3.0
 40
3.0
 10
13.89165828448316
 20
-18.39736110651177
 30
0.0
 10
13.89165828448316
 20
-18.39736110651177
 30
0.0
 10
13.85059142441975
 20
-18.2946286898708
 30
0.0
 10
13.91735814493861
 20
-18.23295960655286
 30
0.0
  0
SPLINE
  5
183
330
1F
100
AcDbEntity
  8
Livello 1
100
AcDbSpline
210
0.0
220
0.0
230
1.0
 70
    24
 71
     3
 72
     8
 73
     4
 74
     0
 42
0.000000001
 43
0.0000000001
 40
3.0
 40
3.0
 40
3.0
 40
3.0
 40
4.0
 40
4.0
 40
4.0
 40
4.0
 10
13.91735814493861
 20
-18.23295960655286
 30
0.0
 10
13.91735814493861
 20
-18.23295960655286
 30
0.0
 10
13.95849203277809
 20
-18.23295960655286
 30
0.0
 10
13.95849203277809
 20
-18.23295960655286
 30
0.0
  0
SPLINE
  5
184
330
1F
100
AcDbEntity
  8
Livello 1
100
AcDbSpline
210
0.0
220
0.0
230
1.0
 70
    24
 71
     3
 72
     8
 73
     4
 74
     0
 42
0.000000001
 43
0.0000000001
 40
4.0
 40
4.0
 40
4.0
 40
4.0
 40
5.0
 40
5.0
 40
5.0
 40
5.0
 10
13.95849203277809
 20
-18.23295960655286
 30
0.0
 10
13.95849203277809
 20
-18.23295960655286
 30
0.0
 10
13.98419189323354
 20
-18.26121005099028
 30
0.0
 10
13.98419189323354
 20
-18.26121005099028
 30
0.0
  0
SPLINE
  5
185
330
1F
100
AcDbEntity
  8
Livello 1
100
AcDbSpline
210
0.0
220
0.0
230
1.0
 70
    24
 71
     3
 72
     8
 73
     4
 74
     0
 42
0.000000001
 43
0.0000000001
 40
5.0
 40
5.0
 40
5.0
 40
5.0
 40
6.0
 40
6.0
 40
6.0
 40
6.0
 10
13.98419189323354
 20
-18.26121005099028
 30
0.0
 10
13.98419189323354
 20
-18.26121005099028
 30
0.0
 10
14.01499292022552
 20
-18.25094421765947
 30
0.0
 10
14.01499292022552
 20
-18.25094421765947
 30
0.0
  0
SPLINE
  5
186
330
1F
100
AcDbEntity
  8
Livello 1
100
AcDbSpline
210
0.0
220
0.0
230
1.0
 70
     8
 71
     3
 72
    11
 73
     7
 74
     0
 42
0.000000001
 43
0.0000000001
 40
6.0
 40
6.0
 40
6.0
 40
6.0
 40
7.0
 40
7.0
 40
7.0
 40
8.0
 40
8.0
 40
8.0
 40
8.0
 10
14.01499292022552
 20
-18.25094421765947
 30
0.0
 10
14.01499292022552
 20
-18.25094421765947
 30
0.0
 10
14.0178856979295
 20
-18.27919466209688
 30
0.0
 10
14.08961247387737
 20
-18.27919466209688
 30
0.0
 10
14.161409805379
 20
-18.27919466209688
 30
0.0
 10
14.15885922211074
 20
-18.24832660654904
 30
0.0
 10
14.16395721868122
 20
-18.24577602321635
 30
0.0
  0
SPLINE
  5
187
330
1F
100
AcDbEntity
  8
Livello 1
100
AcDbSpline
210
0.0
220
0.0
230
1.0
 70
     8
 71
     3
 72
     8
 73
     4
 74
     0
 42
0.000000001
 43
0.0000000001
 40
8.0
 40
8.0
 40
8.0
 40
8.0
 40
9.0
 40
9.0
 40
9.0
 40
9.0
 10
14.16395721868122
 20
-18.24577602321635
 30
0.0
 10
14.16912505518217
 20
-18.24322896766142
 30
0.0
 10
14.19737549890588
 20
-18.26121005099028
 30
0.0
 10
14.19737549890588
 20
-18.26121005099028
 30
0.0
  0
SPLINE
  5
188
330
1F
100
AcDbEntity
  8
Livello 1
100
AcDbSpline
210
0.0
220
0.0
230
1.0
 70
    24
 71
     3
 72
     8
 73
     4
 74
     0
 42
0.000000001
 43
0.0000000001
 40
9.0
 40
9.0
 40
9.0
 40
9.0
 40
10.0
 40
10.0
 40
10.0
 40
10.0
 10
14.19737549890588
 20
-18.26121005099028
 30
0.0
 10
14.19737549890588
 20
-18.26121005099028
 30
0.0
 10
14.22300833158527
 20
-18.60795885645911
 30
0.0
 10
14.22300833158527
 20
-18.60795885645911
 30
0.0
  0
SPLINE
  5
189
330
1F
100
AcDbEntity
  8
Livello 1
100
AcDbSpline
210
0.0
220
0.0
230
1.0
 70
     8
 71
     3
 72
     8
 73
     4
 74
     0
 42
0.000000001
 43
0.0000000001
 40
10.0
 40
10.0
 40
10.0
 40
10.0
 40
11.0
 40
11.0
 40
11.0
 40
11.0
 10
14.22300833158527
 20
-18.60795885645911
 30
0.0
 10
14.22300833158527
 20
-18.60795885645911
 30
0.0
 10
14.20764133197732
 20
-18.64647513422726
 30
0.0
 10
14.10229166314109
 20
-18.64647513422726
 30
0.0
  0
SPLINE
  5
18A
330
1F
100
AcDbEntity
  8
Livello 1
100
AcDbSpline
210
0.0
220
0.0
230
1.0
 70
     8
 71
     3
 72
     8
 73
     4
 74
     0
 42
0.000000001
 43
0.0000000001
 40
11.0
 40
11.0
 40
11.0
 40
11.0
 40
12.0
 40
12.0
 40
12.0
 40
12.0
 10
14.10229166314109
 20
-18.64647513422726
 30
0.0
 10
14.10229166314109
 20
-18.64647513422726
 30
0.0
 10
13.95849203277809
 20
-18.64902571755995
 30
0.0
 10
13.95849203277809
 20
-18.61825996756762
 30
0.0
  0
SPLINE
  5
18B
330
1F
100
AcDbEntity
  8
Livello 1
100
AcDbSpline
210
0.0
220
0.0
230
1.0
 70
    24
 71
     3
 72
     8
 73
     4
 74
     0
 42
0.000000001
 43
0.0000000001
 40
0.0
 40
0.0
 40
0.0
 40
0.0
 40
1.0
 40
1.0
 40
1.0
 40
1.0
 10
14.0326318086644
 20
-18.25094421765947
 30
0.0
 10
14.0326318086644
 20
-18.25094421765947
 30
0.0
 10
13.99735403178664
 20
-18.25094421765947
 30
0.0
 10
13.99735403178664
 20
-18.25094421765947
 30
0.0
  0
SPLINE
  5
18C
330
1F
100
AcDbEntity
  8
Livello 1
100
AcDbSpline
210
0.0
220
0.0
230
1.0
 70
    24
 71
     3
 72
     8
 73
     4
 74
     0
 42
0.000000001
 43
0.0000000001
 40
1.0
 40
1.0
 40
1.0
 40
1.0
 40
2.0
 40
2.0
 40
2.0
 40
2.0
 10
13.99735403178664
 20
-18.25094421765947
 30
0.0
 10
13.99735403178664
 20
-18.25094421765947
 30
0.0
 10
13.99735403178664
 20
-17.84194424553952
 30
0.0
 10
13.99735403178664
 20
-17.84194424553952
 30
0.0
  0
SPLINE
  5
18D
330
1F
100
AcDbEntity
  8
Livello 1
100
AcDbSpline
210
0.0
220
0.0
230
1.0
 70
     8
 71
     3
 72
     8
 73
     4
 74
     0
 42
0.000000001
 43
0.0000000001
 40
2.0
 40
2.0
 40
2.0
 40
2.0
 40
3.0
 40
3.0
 40
3.0
 40
3.0
 10
13.99735403178664
 20
-17.84194424553952
 30
0.0
 10
13.99697303179636
 20
-17.82995332887582
 30
0.0
 10
14.00558786490991
 20
-17.80917824554772
 30
0.0
 10
14.06412110759507
 20
-17.80263421777159
 30
0.0
  0
SPLINE
  5
18E
330
1F
100
AcDbEntity
  8
Livello 1
100
AcDbSpline
210
0.0
220
0.0
230
1.0
 70
    24
 71
     3
 72
     8
 73
     4
 74
     0
 42
0.000000001
 43
0.0000000001
 40
3.0
 40
3.0
 40
3.0
 40
3.0
 40
4.0
 40
4.0
 40
4.0
 40
4.0
 10
14.06412110759507
 20
-17.80263421777159
 30
0.0
 10
14.06412110759507
 20
-17.80263421777159
 30
0.0
 10
14.06412110759507
 20
-17.73407538445539
 30
0.0
 10
14.06412110759507
 20
-17.73407538445539
 30
0.0
  0
SPLINE
  5
18F
330
1F
100
AcDbEntity
  8
Livello 1
100
AcDbSpline
210
0.0
220
0.0
230
1.0
 70
     8
 71
     3
 72
     8
 73
     4
 74
     0
 42
0.000000001
 43
0.0000000001
 40
4.0
 40
4.0
 40
4.0
 40
4.0
 40
5.0
 40
5.0
 40
5.0
 40
5.0
 10
14.06412110759507
 20
-17.73407538445539
 30
0.0
 10
14.06398316897567
 20
-17.73283713445567
 30
0.0
 10
14.06043422462177
 20
-17.67272027335962
 30
0.0
 10
14.15176133340293
 20
-17.64143946781185
 30
0.0
  0
SPLINE
  5
190
330
1F
100
AcDbEntity
  8
Livello 1
100
AcDbSpline
210
0.0
220
0.0
230
1.0
 70
    24
 71
     3
 72
     8
 73
     4
 74
     0
 42
0.000000001
 43
0.0000000001
 40
5.0
 40
5.0
 40
5.0
 40
5.0
 40
6.0
 40
6.0
 40
6.0
 40
6.0
 10
14.15176133340293
 20
-17.64143946781185
 30
0.0
 10
14.15176133340293
 20
-17.64143946781185
 30
0.0
 10
14.48996938033008
 20
-17.33951107899844
 30
0.0
 10
14.48996938033008
 20
-17.33951107899844
 30
0.0
  0
SPLINE
  5
191
330
1F
100
AcDbEntity
  8
Livello 1
100
AcDbSpline
210
0.0
220
0.0
230
1.0
 70
     8
 71
     3
 72
     8
 73
     4
 74
     0
 42
0.000000001
 43
0.0000000001
 40
6.0
 40
6.0
 40
6.0
 40
6.0
 40
7.0
 40
7.0
 40
7.0
 40
7.0
 10
14.48996938033008
 20
-17.33951107899844
 30
0.0
 10
14.50860662985461
 20
-17.3208738290031
 30
0.0
 10
14.55566718420955
 20
-17.29300085678784
 30
0.0
 10
14.59821218312413
 20
-17.32311044011368
 30
0.0
  0
SPLINE
  5
192
330
1F
100
AcDbEntity
  8
Livello 1
100
AcDbSpline
210
0.0
220
0.0
230
1.0
 70
     8
 71
     3
 72
     8
 73
     4
 74
     0
 42
0.000000001
 43
0.0000000001
 40
7.0
 40
7.0
 40
7.0
 40
7.0
 40
8.0
 40
8.0
 40
8.0
 40
8.0
 10
14.59821218312413
 20
-17.32311044011368
 30
0.0
 10
14.60479148851184
 20
-17.32548816233531
 30
0.0
 10
14.61237305190249
 20
-17.33072338455622
 30
0.0
 10
14.61829971856766
 20
-17.33995910677614
 30
0.0
  0
SPLINE
  5
193
330
1F
100
AcDbEntity
  8
Livello 1
100
AcDbSpline
210
0.0
220
0.0
230
1.0
 70
     8
 71
     3
 72
     8
 73
     4
 74
     0
 42
0.000000001
 43
0.0000000001
 40
8.0
 40
8.0
 40
8.0
 40
8.0
 40
9.0
 40
9.0
 40
9.0
 40
9.0
 10
14.61829971856766
 20
-17.33995910677614
 30
0.0
 10
14.63604054327016
 20
-17.36772624565807
 30
0.0
 10
14.63228346003268
 20
-17.42115796786695
 30
0.0
 10
14.60710218289733
 20
-17.49874085673641
 30
0.0
  0
SPLINE
  5
194
330
1F
100
AcDbEntity
  8
Livello 1
100
AcDbSpline
210
0.0
220
0.0
230
1.0
 70
    24
 71
     3
 72
     8
 73
     4
 74
     0
 42
0.000000001
 43
0.0000000001
 40
9.0
 40
9.0
 40
9.0
 40
9.0
 40
10.0
 40
10.0
 40
10.0
 40
10.0
 10
14.60710218289733
 20
-17.49874085673641
 30
0.0
 10
14.60710218289733
 20
-17.49874085673641
 30
0.0
 10
14.5265877127292
 20
-17.86606013442239
 30
0.0
 10
14.5265877127292
 20
-17.86606013442239
 30
0.0
  0
SPLINE
  5
195
330
1F
100
AcDbEntity
  8
Livello 1
100
AcDbSpline
210
0.0
220
0.0
230
1.0
 70
    24
 71
     3
 72
     8
 73
     4
 74
     0
 42
0.000000001
 43
0.0000000001
 40
10.0
 40
10.0
 40
10.0
 40
10.0
 40
11.0
 40
11.0
 40
11.0
 40
11.0
 10
14.5265877127292
 20
-17.86606013442239
 30
0.0
 10
14.5265877127292
 20
-17.86606013442239
 30
0.0
 10
14.60920121062156
 20
-17.96372666217575
 30
0.0
 10
14.60920121062156
 20
-17.96372666217575
 30
0.0
  0
SPLINE
  5
196
330
1F
100
AcDbEntity
  8
Livello 1
100
AcDbSpline
210
0.0
220
0.0
230
1.0
 70
    24
 71
     3
 72
     8
 73
     4
 74
     0
 42
0.000000001
 43
0.0000000001
 40
11.0
 40
11.0
 40
11.0
 40
11.0
 40
12.0
 40
12.0
 40
12.0
 40
12.0
 10
14.60920121062156
 20
-17.96372666217575
 30
0.0
 10
14.60920121062156
 20
-17.96372666217575
 30
0.0
 10
14.61891671037369
 20
-18.05412596770871
 30
0.0
 10
14.61891671037369
 20
-18.05412596770871
 30
0.0
  0
SPLINE
  5
197
330
1F
100
AcDbEntity
  8
Livello 1
100
AcDbSpline
210
0.0
220
0.0
230
1.0
 70
    24
 71
     3
 72
     8
 73
     4
 74
     0
 42
0.000000001
 43
0.0000000001
 40
12.0
 40
12.0
 40
12.0
 40
12.0
 40
13.0
 40
13.0
 40
13.0
 40
13.0
 10
14.61891671037369
 20
-18.05412596770871
 30
0.0
 10
14.61891671037369
 20
-18.05412596770871
 30
0.0
 10
14.51639243521153
 20
-18.0906772732551
 30
0.0
 10
14.51639243521153
 20
-18.0906772732551
 30
0.0
  0
SPLINE
  5
198
330
1F
100
AcDbEntity
  8
Livello 1
100
AcDbSpline
210
0.0
220
0.0
230
1.0
 70
    24
 71
     3
 72
     8
 73
     4
 74
     0
 42
0.000000001
 43
0.0000000001
 40
13.0
 40
13.0
 40
13.0
 40
13.0
 40
14.0
 40
14.0
 40
14.0
 40
14.0
 10
14.51639243521153
 20
-18.0906772732551
 30
0.0
 10
14.51639243521153
 20
-18.0906772732551
 30
0.0
 10
14.18049508266987
 20
-18.1127258843607
 30
0.0
 10
14.18049508266987
 20
-18.1127258843607
 30
0.0
  0
SPLINE
  5
199
330
1F
100
AcDbEntity
  8
Livello 1
100
AcDbSpline
210
0.0
220
0.0
230
1.0
 70
    24
 71
     3
 72
     8
 73
     4
 74
     0
 42
0.000000001
 43
0.0000000001
 40
14.0
 40
14.0
 40
14.0
 40
14.0
 40
15.0
 40
15.0
 40
15.0
 40
15.0
 10
14.18049508266987
 20
-18.1127258843607
 30
0.0
 10
14.18049508266987
 20
-18.1127258843607
 30
0.0
 10
14.1815961075657
 20
-18.245638439883
 30
0.0
 10
14.1815961075657
 20
-18.245638439883
 30
0.0
  0
SPLINE
  5
19A
330
1F
100
AcDbEntity
  8
Livello 1
100
AcDbSpline
210
0.0
220
0.0
230
1.0
 70
    24
 71
     3
 72
     8
 73
     4
 74
     0
 42
0.000000001
 43
0.0000000001
 40
15.0
 40
15.0
 40
15.0
 40
15.0
 40
16.0
 40
16.0
 40
16.0
 40
16.0
 10
14.1815961075657
 20
-18.245638439883
 30
0.0
 10
14.1815961075657
 20
-18.245638439883
 30
0.0
 10
14.14631832979674
 20
-18.24591360654964
 30
0.0
 10
14.14631832979674
 20
-18.24591360654964
 30
0.0
  0
SPLINE
  5
19B
330
1F
100
AcDbEntity
  8
Livello 1
100
AcDbSpline
210
0.0
220
0.0
230
1.0
 70
    24
 71
     3
 72
     8
 73
     4
 74
     0
 42
0.000000001
 43
0.0000000001
 40
16.0
 40
16.0
 40
16.0
 40
16.0
 40
17.0
 40
17.0
 40
17.0
 40
17.0
 10
14.14631832979674
 20
-18.24591360654964
 30
0.0
 10
14.14631832979674
 20
-18.24591360654964
 30
0.0
 10
14.14494249646379
 20
-18.07972352325785
 30
0.0
 10
14.14494249646379
 20
-18.07972352325785
 30
0.0
  0
SPLINE
  5
19C
330
1F
100
AcDbEntity
  8
Livello 1
100
AcDbSpline
210
0.0
220
0.0
230
1.0
 70
    24
 71
     3
 72
     8
 73
     4
 74
     0
 42
0.000000001
 43
0.0000000001
 40
17.0
 40
17.0
 40
17.0
 40
17.0
 40
18.0
 40
18.0
 40
18.0
 40
18.0
 10
14.14494249646379
 20
-18.07972352325785
 30
0.0
 10
14.14494249646379
 20
-18.07972352325785
 30
0.0
 10
14.51156996311234
 20
-18.05564291215276
 30
0.0
 10
14.51156996311234
 20
-18.05564291215276
 30
0.0
  0
SPLINE
  5
19D
330
1F
100
AcDbEntity
  8
Livello 1
100
AcDbSpline
210
0.0
220
0.0
230
1.0
 70
    24
 71
     3
 72
     8
 73
     4
 74
     0
 42
0.000000001
 43
0.0000000001
 40
18.0
 40
18.0
 40
18.0
 40
18.0
 40
19.0
 40
19.0
 40
19.0
 40
19.0
 10
14.51156996311234
 20
-18.05564291215276
 30
0.0
 10
14.51156996311234
 20
-18.05564291215276
 30
0.0
 10
14.58088373912177
 20
-18.0304228288257
 30
0.0
 10
14.58088373912177
 20
-18.0304228288257
 30
0.0
  0
SPLINE
  5
19E
330
1F
100
AcDbEntity
  8
Livello 1
100
AcDbSpline
210
0.0
220
0.0
230
1.0
 70
    24
 71
     3
 72
     8
 73
     4
 74
     0
 42
0.000000001
 43
0.0000000001
 40
19.0
 40
19.0
 40
19.0
 40
19.0
 40
20.0
 40
20.0
 40
20.0
 40
20.0
 10
14.58088373912177
 20
-18.0304228288257
 30
0.0
 10
14.58088373912177
 20
-18.0304228288257
 30
0.0
 10
14.57530279481971
 20
-17.97826463439432
 30
0.0
 10
14.57530279481971
 20
-17.97826463439432
 30
0.0
  0
SPLINE
  5
19F
330
1F
100
AcDbEntity
  8
Livello 1
100
AcDbSpline
210
0.0
220
0.0
230
1.0
 70
    24
 71
     3
 72
     8
 73
     4
 74
     0
 42
0.000000001
 43
0.0000000001
 40
20.0
 40
20.0
 40
20.0
 40
20.0
 40
21.0
 40
21.0
 40
21.0
 40
21.0
 10
14.57530279481971
 20
-17.97826463439432
 30
0.0
 10
14.57530279481971
 20
-17.97826463439432
 30
0.0
 10
14.48841715814746
 20
-17.87553221775336
 30
0.0
 10
14.48841715814746
 20
-17.87553221775336
 30
0.0
  0
SPLINE
  5
1A0
330
1F
100
AcDbEntity
  8
Livello 1
100
AcDbSpline
210
0.0
220
0.0
230
1.0
 70
    24
 71
     3
 72
     8
 73
     4
 74
     0
 42
0.000000001
 43
0.0000000001
 40
21.0
 40
21.0
 40
21.0
 40
21.0
 40
22.0
 40
22.0
 40
22.0
 40
22.0
 10
14.48841715814746
 20
-17.87553221775336
 30
0.0
 10
14.48841715814746
 20
-17.87553221775336
 30
0.0
 10
14.57309793376485
 20
-17.48950866229431
 30
0.0
 10
14.57309793376485
 20
-17.48950866229431
 30
0.0
  0
SPLINE
  5
1A1
330
1F
100
AcDbEntity
  8
Livello 1
100
AcDbSpline
210
0.0
220
0.0
230
1.0
 70
     8
 71
     3
 72
     8
 73
     4
 74
     0
 42
0.000000001
 43
0.0000000001
 40
22.0
 40
22.0
 40
22.0
 40
22.0
 40
23.0
 40
23.0
 40
23.0
 40
23.0
 10
14.57309793376485
 20
-17.48950866229431
 30
0.0
 10
14.61044298836766
 20
-17.37423499565643
 30
0.0
 10
14.58636237787089
 20
-17.35635621788315
 30
0.0
 10
14.58608721121124
 20
-17.35625391232763
 30
0.0
  0
SPLINE
  5
1A2
330
1F
100
AcDbEntity
  8
Livello 1
100
AcDbSpline
210
0.0
220
0.0
230
1.0
 70
    24
 71
     3
 72
     8
 73
     4
 74
     0
 42
0.000000001
 43
0.0000000001
 40
23.0
 40
23.0
 40
23.0
 40
23.0
 40
24.0
 40
24.0
 40
24.0
 40
24.0
 10
14.58608721121124
 20
-17.35625391232763
 30
0.0
 10
14.58608721121124
 20
-17.35625391232763
 30
0.0
 10
14.58126121133437
 20
-17.35566830121664
 30
0.0
 10
14.58126121133437
 20
-17.35566830121664
 30
0.0
  0
SPLINE
  5
1A3
330
1F
100
AcDbEntity
  8
Livello 1
100
AcDbSpline
210
0.0
220
0.0
230
1.0
 70
    24
 71
     3
 72
     8
 73
     4
 74
     0
 42
0.000000001
 43
0.0000000001
 40
24.0
 40
24.0
 40
24.0
 40
24.0
 40
25.0
 40
25.0
 40
25.0
 40
25.0
 10
14.58126121133437
 20
-17.35566830121664
 30
0.0
 10
14.58126121133437
 20
-17.35566830121664
 30
0.0
 10
14.57953965582273
 20
-17.35315299566173
 30
0.0
 10
14.57953965582273
 20
-17.35315299566173
 30
0.0
  0
SPLINE
  5
1A4
330
1F
100
AcDbEntity
  8
Livello 1
100
AcDbSpline
210
0.0
220
0.0
230
1.0
 70
     8
 71
     3
 72
     8
 73
     4
 74
     0
 42
0.000000001
 43
0.0000000001
 40
25.0
 40
25.0
 40
25.0
 40
25.0
 40
26.0
 40
26.0
 40
26.0
 40
26.0
 10
14.57953965582273
 20
-17.35315299566173
 30
0.0
 10
14.55011798990667
 20
-17.33041646788962
 30
0.0
 10
14.51559868523178
 20
-17.3637645512146
 30
0.0
 10
14.51415229637978
 20
-17.36517566232538
 30
0.0
  0
SPLINE
  5
1A5
330
1F
100
AcDbEntity
  8
Livello 1
100
AcDbSpline
210
0.0
220
0.0
230
1.0
 70
    24
 71
     3
 72
     8
 73
     4
 74
     0
 42
0.000000001
 43
0.0000000001
 40
26.0
 40
26.0
 40
26.0
 40
26.0
 40
27.0
 40
27.0
 40
27.0
 40
27.0
 10
14.51415229637978
 20
-17.36517566232538
 30
0.0
 10
14.51415229637978
 20
-17.36517566232538
 30
0.0
 10
14.16623227747819
 20
-17.67378919002597
 30
0.0
 10
14.16623227747819
 20
-17.67378919002597
 30
0.0
  0
SPLINE
  5
1A6
330
1F
100
AcDbEntity
  8
Livello 1
100
AcDbSpline
210
0.0
220
0.0
230
1.0
 70
     8
 71
     3
 72
     8
 73
     4
 74
     0
 42
0.000000001
 43
0.0000000001
 40
27.0
 40
27.0
 40
27.0
 40
27.0
 40
28.0
 40
28.0
 40
28.0
 40
28.0
 10
14.16623227747819
 20
-17.67378919002597
 30
0.0
 10
14.09912336252362
 20
-17.69562966224273
 30
0.0
 10
14.09932832980847
 20
-17.73159535667819
 30
0.0
 10
14.09936360758625
 20
-17.73314757890002
 30
0.0
  0
SPLINE
  5
1A7
330
1F
100
AcDbEntity
  8
Livello 1
100
AcDbSpline
210
0.0
220
0.0
230
1.0
 70
    24
 71
     3
 72
     8
 73
     4
 74
     0
 42
0.000000001
 43
0.0000000001
 40
28.0
 40
28.0
 40
28.0
 40
28.0
 40
29.0
 40
29.0
 40
29.0
 40
29.0
 10
14.09936360758625
 20
-17.73314757890002
 30
0.0
 10
14.09936360758625
 20
-17.73314757890002
 30
0.0
 10
14.09939888536403
 20
-17.83553427331886
 30
0.0
 10
14.09939888536403
 20
-17.83553427331886
 30
0.0
  0
SPLINE
  5
1A8
330
1F
100
AcDbEntity
  8
Livello 1
100
AcDbSpline
210
0.0
220
0.0
230
1.0
 70
    24
 71
     3
 72
     8
 73
     4
 74
     0
 42
0.000000001
 43
0.0000000001
 40
29.0
 40
29.0
 40
29.0
 40
29.0
 40
30.0
 40
30.0
 40
30.0
 40
30.0
 10
14.09939888536403
 20
-17.83553427331886
 30
0.0
 10
14.09939888536403
 20
-17.83553427331886
 30
0.0
 10
14.08275800183002
 20
-17.83646560665198
 30
0.0
 10
14.08275800183002
 20
-17.83646560665198
 30
0.0
  0
SPLINE
  5
1A9
330
1F
100
AcDbEntity
  8
Livello 1
100
AcDbSpline
210
0.0
220
0.0
230
1.0
 70
     8
 71
     3
 72
     8
 73
     4
 74
     0
 42
0.000000001
 43
0.0000000001
 40
30.0
 40
30.0
 40
30.0
 40
30.0
 40
31.0
 40
31.0
 40
31.0
 40
31.0
 10
14.08275800183002
 20
-17.83646560665198
 30
0.0
 10
14.04913475268782
 20
-17.83839530109597
 30
0.0
 10
14.03659350300778
 20
-17.84418085665004
 30
0.0
 10
14.0326318086644
 20
-17.84669616220501
 30
0.0
  0
SPLINE
  5
1AA
330
1F
100
AcDbEntity
  8
Livello 1
100
AcDbSpline
210
0.0
220
0.0
230
1.0
 70
    24
 71
     3
 72
     8
 73
     4
 74
     0
 42
0.000000001
 43
0.0000000001
 40
31.0
 40
31.0
 40
31.0
 40
31.0
 40
32.0
 40
32.0
 40
32.0
 40
32.0
 10
14.0326318086644
 20
-17.84669616220501
 30
0.0
 10
14.0326318086644
 20
-17.84669616220501
 30
0.0
 10
14.0326318086644
 20
-18.25094421765947
 30
0.0
 10
14.0326318086644
 20
-18.25094421765947
 30
0.0
  0
LINE
  5
1AB
330
1F
100
AcDbEntity
  8
Livello 1
100
AcDbLine
 10
14.50171688003038
 20
-17.45109821785942
 30
0.0
 11
13.37937204755267
 21
-16.24131738482853
 31
0.0
  0
LINE
  5
1AC
330
1F
100
AcDbEntity
  8
Livello 1
100
AcDbLine
 10
13.37937204755267
 20
-16.24131738482853
 30
0.0
 11
13.44400093479274
 21
-16.18130282928801
 31
0.0
  0
LINE
  5
1AD
330
1F
100
AcDbEntity
  8
Livello 1
100
AcDbLine
 10
13.44400093479274
 20
-16.18130282928801
 30
0.0
 11
14.56634576727045
 21
-17.39108366231888
 31
0.0
  0
LINE
  5
1AE
330
1F
100
AcDbEntity
  8
Livello 1
100
AcDbLine
 10
14.56634576727045
 20
-17.39108366231888
 30
0.0
 11
14.50171688003038
 21
-17.45109821785942
 31
0.0
  0
LINE
  5
1AF
330
1F
100
AcDbEntity
  8
Livello 1
100
AcDbLine
 10
14.06660078002
 20
-17.7430676900087
 30
0.0
 11
11.94001083034834
 21
-14.15825632979377
 31
0.0
  0
LINE
  5
1B0
330
1F
100
AcDbEntity
  8
Livello 1
100
AcDbLine
 10
11.94001083034834
 20
-14.15825632979377
 30
0.0
 11
11.97032825016703
 21
-14.14027524646492
 31
0.0
  0
LINE
  5
1B1
330
1F
100
AcDbEntity
  8
Livello 1
100
AcDbLine
 10
11.97032825016703
 20
-14.14027524646492
 30
0.0
 11
14.09691850146876
 21
-17.72508660667984
 31
0.0
  0
LINE
  5
1B2
330
1F
100
AcDbEntity
  8
Livello 1
100
AcDbLine
 10
14.09691850146876
 20
-17.72508660667984
 30
0.0
 11
14.06660078002
 21
-17.7430676900087
 31
0.0
  0
SPLINE
  5
1B3
330
1F
100
AcDbEntity
  8
Livello 1
100
AcDbSpline
210
0.0
220
0.0
230
1.0
 70
     8
 71
     3
 72
     8
 73
     4
 74
     0
 42
0.000000001
 43
0.0000000001
 40
0.0
 40
0.0
 40
0.0
 40
0.0
 40
1.0
 40
1.0
 40
1.0
 40
1.0
 10
12.29664768628638
 20
-14.41128266306383
 30
0.0
 10
12.22202813263453
 20
-14.41128266306383
 30
0.0
 10
12.18072138368835
 20
-14.36782396863026
 30
0.0
 10
12.17848124485661
 20
-14.36541096863086
 30
0.0
  0
SPLINE
  5
1B4
330
1F
100
AcDbEntity
  8
Livello 1
100
AcDbSpline
210
0.0
220
0.0
230
1.0
 70
    24
 71
     3
 72
     8
 73
     4
 74
     0
 42
0.000000001
 43
0.0000000001
 40
1.0
 40
1.0
 40
1.0
 40
1.0
 40
2.0
 40
2.0
 40
2.0
 40
2.0
 10
12.17848124485661
 20
-14.36541096863086
 30
0.0
 10
12.17848124485661
 20
-14.36541096863086
 30
0.0
 10
11.89205744660834
 20
-14.11107582980556
 30
0.0
 10
11.89205744660834
 20
-14.11107582980556
 30
0.0
  0
SPLINE
  5
1B5
330
1F
100
AcDbEntity
  8
Livello 1
100
AcDbSpline
210
0.0
220
0.0
230
1.0
 70
     8
 71
     3
 72
     8
 73
     4
 74
     0
 42
0.000000001
 43
0.0000000001
 40
2.0
 40
2.0
 40
2.0
 40
2.0
 40
3.0
 40
3.0
 40
3.0
 40
3.0
 10
11.89205744660834
 20
-14.11107582980556
 30
0.0
 10
11.89074511330849
 20
-14.11002455202803
 30
0.0
 10
11.8478543921805
 20
-14.07431638537032
 30
0.0
 10
11.8449968922534
 20
-14.02687835760438
 30
0.0
  0
SPLINE
  5
1B6
330
1F
100
AcDbEntity
  8
Livello 1
100
AcDbSpline
210
0.0
220
0.0
230
1.0
 70
     8
 71
     3
 72
     8
 73
     4
 74
     0
 42
0.000000001
 43
0.0000000001
 40
3.0
 40
3.0
 40
3.0
 40
3.0
 40
4.0
 40
4.0
 40
4.0
 40
4.0
 10
11.8449968922534
 20
-14.02687835760438
 30
0.0
 10
11.84355050340141
 20
-14.00248730205494
 30
0.0
 10
11.85257455872674
 20
-13.979937746505
 30
0.0
 10
11.87179741934744
 20
-13.95985410762116
 30
0.0
  0
SPLINE
  5
1B7
330
1F
100
AcDbEntity
  8
Livello 1
100
AcDbSpline
210
0.0
220
0.0
230
1.0
 70
     8
 71
     3
 72
     8
 73
     4
 74
     0
 42
0.000000001
 43
0.0000000001
 40
4.0
 40
4.0
 40
4.0
 40
4.0
 40
5.0
 40
5.0
 40
5.0
 40
5.0
 10
11.87179741934744
 20
-13.95985410762116
 30
0.0
 10
11.87510647481857
 20
-13.95696132984409
 30
0.0
 10
11.89281239103352
 20
-13.94293841318093
 30
0.0
 10
11.94345716751924
 20
-13.92697169096271
 30
0.0
  0
SPLINE
  5
1B8
330
1F
100
AcDbEntity
  8
Livello 1
100
AcDbSpline
210
0.0
220
0.0
230
1.0
 70
    24
 71
     3
 72
     8
 73
     4
 74
     0
 42
0.000000001
 43
0.0000000001
 40
5.0
 40
5.0
 40
5.0
 40
5.0
 40
6.0
 40
6.0
 40
6.0
 40
6.0
 10
11.94345716751924
 20
-13.92697169096271
 30
0.0
 10
11.94345716751924
 20
-13.92697169096271
 30
0.0
 10
12.4364147104984
 20
-13.76648249655836
 30
0.0
 10
12.4364147104984
 20
-13.76648249655836
 30
0.0
  0
SPLINE
  5
1B9
330
1F
100
AcDbEntity
  8
Livello 1
100
AcDbSpline
210
0.0
220
0.0
230
1.0
 70
     8
 71
     3
 72
     8
 73
     4
 74
     0
 42
0.000000001
 43
0.0000000001
 40
6.0
 40
6.0
 40
6.0
 40
6.0
 40
7.0
 40
7.0
 40
7.0
 40
7.0
 10
12.4364147104984
 20
-13.76648249655836
 30
0.0
 10
12.45546823779009
 20
-13.75795585767163
 30
0.0
 10
12.56088529065623
 20
-13.71421846879366
 30
0.0
 10
12.60202270627339
 20
-13.75536999656116
 30
0.0
  0
SPLINE
  5
1BA
330
1F
100
AcDbEntity
  8
Livello 1
100
AcDbSpline
210
0.0
220
0.0
230
1.0
 70
    24
 71
     3
 72
     8
 73
     4
 74
     0
 42
0.000000001
 43
0.0000000001
 40
7.0
 40
7.0
 40
7.0
 40
7.0
 40
8.0
 40
8.0
 40
8.0
 40
8.0
 10
12.60202270627339
 20
-13.75536999656116
 30
0.0
 10
12.60202270627339
 20
-13.75536999656116
 30
0.0
 10
12.57707779024312
 20
-13.7803113854438
 30
0.0
 10
12.57707779024312
 20
-13.7803113854438
 30
0.0
  0
SPLINE
  5
1BB
330
1F
100
AcDbEntity
  8
Livello 1
100
AcDbSpline
210
0.0
220
0.0
230
1.0
 70
     8
 71
     3
 72
     8
 73
     4
 74
     0
 42
0.000000001
 43
0.0000000001
 40
8.0
 40
8.0
 40
8.0
 40
8.0
 40
9.0
 40
9.0
 40
9.0
 40
9.0
 10
12.57707779024312
 20
-13.7803113854438
 30
0.0
 10
12.55930131847442
 20
-13.76255255211492
 30
0.0
 10
12.49016040357168
 20
-13.78118980211026
 30
0.0
 10
12.44902298795452
 20
-13.7993825521057
 30
0.0
  0
SPLINE
  5
1BC
330
1F
100
AcDbEntity
  8
Livello 1
100
AcDbSpline
210
0.0
220
0.0
230
1.0
 70
    24
 71
     3
 72
     8
 73
     4
 74
     0
 42
0.000000001
 43
0.0000000001
 40
9.0
 40
9.0
 40
9.0
 40
9.0
 40
10.0
 40
10.0
 40
10.0
 40
10.0
 10
12.44902298795452
 20
-13.7993825521057
 30
0.0
 10
12.44902298795452
 20
-13.7993825521057
 30
0.0
 10
11.9542063061339
 20
-13.96057730206541
 30
0.0
 10
11.9542063061339
 20
-13.96057730206541
 30
0.0
  0
SPLINE
  5
1BD
330
1F
100
AcDbEntity
  8
Livello 1
100
AcDbSpline
210
0.0
220
0.0
230
1.0
 70
     8
 71
     3
 72
     8
 73
     4
 74
     0
 42
0.000000001
 43
0.0000000001
 40
10.0
 40
10.0
 40
10.0
 40
10.0
 40
11.0
 40
11.0
 40
11.0
 40
11.0
 10
11.9542063061339
 20
-13.96057730206541
 30
0.0
 10
11.910589163689
 20
-13.97432505206196
 30
0.0
 10
11.89577572429125
 20
-13.98567391317025
 30
0.0
 10
11.89560286318455
 20
-13.98577974650355
 30
0.0
  0
SPLINE
  5
1BE
330
1F
100
AcDbEntity
  8
Livello 1
100
AcDbSpline
210
0.0
220
0.0
230
1.0
 70
     8
 71
     3
 72
     8
 73
     4
 74
     0
 42
0.000000001
 43
0.0000000001
 40
11.0
 40
11.0
 40
11.0
 40
11.0
 40
12.0
 40
12.0
 40
12.0
 40
12.0
 10
11.89560286318455
 20
-13.98577974650355
 30
0.0
 10
11.88499483567741
 20
-13.99709685761184
 30
0.0
 10
11.87941389137534
 20
-14.01030838538632
 30
0.0
 10
11.88020411357741
 20
-14.02462057982719
 30
0.0
  0
SPLINE
  5
1BF
330
1F
100
AcDbEntity
  8
Livello 1
100
AcDbSpline
210
0.0
220
0.0
230
1.0
 70
     8
 71
     3
 72
     8
 73
     4
 74
     0
 42
0.000000001
 43
0.0000000001
 40
12.0
 40
12.0
 40
12.0
 40
12.0
 40
13.0
 40
13.0
 40
13.0
 40
13.0
 10
11.88020411357741
 20
-14.02462057982719
 30
0.0
 10
11.88206678019655
 20
-14.05661046870807
 30
0.0
 10
11.91465639047624
 20
-14.0839966075901
 30
0.0
 10
11.91499888591012
 20
-14.08427530203449
 30
0.0
  0
SPLINE
  5
1C0
330
1F
100
AcDbEntity
  8
Livello 1
100
AcDbSpline
210
0.0
220
0.0
230
1.0
 70
    24
 71
     3
 72
     8
 73
     4
 74
     0
 42
0.000000001
 43
0.0000000001
 40
13.0
 40
13.0
 40
13.0
 40
13.0
 40
14.0
 40
14.0
 40
14.0
 40
14.0
 10
11.91499888591012
 20
-14.08427530203449
 30
0.0
 10
11.91499888591012
 20
-14.08427530203449
 30
0.0
 10
12.20314777472696
 20
-14.3402438019705
 30
0.0
 10
12.20314777472696
 20
-14.3402438019705
 30
0.0
  0
SPLINE
  5
1C1
330
1F
100
AcDbEntity
  8
Livello 1
100
AcDbSpline
210
0.0
220
0.0
230
1.0
 70
     8
 71
     3
 72
     8
 73
     4
 74
     0
 42
0.000000001
 43
0.0000000001
 40
14.0
 40
14.0
 40
14.0
 40
14.0
 40
15.0
 40
15.0
 40
15.0
 40
15.0
 10
12.20314777472696
 20
-14.3402438019705
 30
0.0
 10
12.20659410525051
 20
-14.34381038530293
 30
0.0
 10
12.26160979829138
 20
-14.40008549639997
 30
0.0
 10
12.36138240685708
 20
-14.36382699640904
 30
0.0
  0
SPLINE
  5
1C2
330
1F
100
AcDbEntity
  8
Livello 1
100
AcDbSpline
210
0.0
220
0.0
230
1.0
 70
    24
 71
     3
 72
     8
 73
     4
 74
     0
 42
0.000000001
 43
0.0000000001
 40
15.0
 40
15.0
 40
15.0
 40
15.0
 40
16.0
 40
16.0
 40
16.0
 40
16.0
 10
12.36138240685708
 20
-14.36382699640904
 30
0.0
 10
12.36138240685708
 20
-14.36382699640904
 30
0.0
 10
12.47103984850393
 20
-14.32065757975318
 30
0.0
 10
12.47103984850393
 20
-14.32065757975318
 30
0.0
  0
SPLINE
  5
1C3
330
1F
100
AcDbEntity
  8
Livello 1
100
AcDbSpline
210
0.0
220
0.0
230
1.0
 70
     8
 71
     3
 72
     8
 73
     4
 74
     0
 42
0.000000001
 43
0.0000000001
 40
16.0
 40
16.0
 40
16.0
 40
16.0
 40
17.0
 40
17.0
 40
17.0
 40
17.0
 10
12.47103984850393
 20
-14.32065757975318
 30
0.0
 10
12.47276140401557
 20
-14.32029774641991
 30
0.0
 10
12.51968437504068
 20
-14.30992607975584
 30
0.0
 10
12.53501256909408
 20
-14.22819099644295
 30
0.0
  0
SPLINE
  5
1C4
330
1F
100
AcDbEntity
  8
Livello 1
100
AcDbSpline
210
0.0
220
0.0
230
1.0
 70
    24
 71
     3
 72
     8
 73
     4
 74
     0
 42
0.000000001
 43
0.0000000001
 40
17.0
 40
17.0
 40
17.0
 40
17.0
 40
18.0
 40
18.0
 40
18.0
 40
18.0
 10
12.53501256909408
 20
-14.22819099644295
 30
0.0
 10
12.53501256909408
 20
-14.22819099644295
 30
0.0
 10
12.59623362308775
 20
-13.84990385764863
 30
0.0
 10
12.59623362308775
 20
-13.84990385764863
 30
0.0
  0
SPLINE
  5
1C5
330
1F
100
AcDbEntity
  8
Livello 1
100
AcDbSpline
210
0.0
220
0.0
230
1.0
 70
    24
 71
     3
 72
     8
 73
     4
 74
     0
 42
0.000000001
 43
0.0000000001
 40
18.0
 40
18.0
 40
18.0
 40
18.0
 40
19.0
 40
19.0
 40
19.0
 40
19.0
 10
12.59623362308775
 20
-13.84990385764863
 30
0.0
 10
12.59623362308775
 20
-13.84990385764863
 30
0.0
 10
12.60105609518694
 20
-13.84571991320524
 30
0.0
 10
12.60105609518694
 20
-13.84571991320524
 30
0.0
  0
SPLINE
  5
1C6
330
1F
100
AcDbEntity
  8
Livello 1
100
AcDbSpline
210
0.0
220
0.0
230
1.0
 70
    24
 71
     3
 72
     8
 73
     4
 74
     0
 42
0.000000001
 43
0.0000000001
 40
19.0
 40
19.0
 40
19.0
 40
19.0
 40
20.0
 40
20.0
 40
20.0
 40
20.0
 10
12.60105609518694
 20
-13.84571991320524
 30
0.0
 10
12.60105609518694
 20
-13.84571991320524
 30
0.0
 10
15.54468318675542
 20
-11.2797237194023
 30
0.0
 10
15.54468318675542
 20
-11.2797237194023
 30
0.0
  0
SPLINE
  5
1C7
330
1F
100
AcDbEntity
  8
Livello 1
100
AcDbSpline
210
0.0
220
0.0
230
1.0
 70
    24
 71
     3
 72
     8
 73
     4
 74
     0
 42
0.000000001
 43
0.0000000001
 40
20.0
 40
20.0
 40
20.0
 40
20.0
 40
21.0
 40
21.0
 40
21.0
 40
21.0
 10
15.54468318675542
 20
-11.2797237194023
 30
0.0
 10
15.54468318675542
 20
-11.2797237194023
 30
0.0
 10
15.56783638499692
 20
-11.3063196360623
 30
0.0
 10
15.56783638499692
 20
-11.3063196360623
 30
0.0
  0
SPLINE
  5
1C8
330
1F
100
AcDbEntity
  8
Livello 1
100
AcDbSpline
210
0.0
220
0.0
230
1.0
 70
    24
 71
     3
 72
     8
 73
     4
 74
     0
 42
0.000000001
 43
0.0000000001
 40
21.0
 40
21.0
 40
21.0
 40
21.0
 40
22.0
 40
22.0
 40
22.0
 40
22.0
 10
15.56783638499692
 20
-11.3063196360623
 30
0.0
 10
15.56783638499692
 20
-11.3063196360623
 30
0.0
 10
12.62903137225101
 20
-13.86812835764407
 30
0.0
 10
12.62903137225101
 20
-13.86812835764407
 30
0.0
  0
SPLINE
  5
1C9
330
1F
100
AcDbEntity
  8
Livello 1
100
AcDbSpline
210
0.0
220
0.0
230
1.0
 70
    24
 71
     3
 72
     8
 73
     4
 74
     0
 42
0.000000001
 43
0.0000000001
 40
22.0
 40
22.0
 40
22.0
 40
22.0
 40
23.0
 40
23.0
 40
23.0
 40
23.0
 10
12.62903137225101
 20
-13.86812835764407
 30
0.0
 10
12.62903137225101
 20
-13.86812835764407
 30
0.0
 10
12.56974001265255
 20
-14.23427288533033
 30
0.0
 10
12.56974001265255
 20
-14.23427288533033
 30
0.0
  0
SPLINE
  5
1CA
330
1F
100
AcDbEntity
  8
Livello 1
100
AcDbSpline
210
0.0
220
0.0
230
1.0
 70
     8
 71
     3
 72
     8
 73
     4
 74
     0
 42
0.000000001
 43
0.0000000001
 40
23.0
 40
23.0
 40
23.0
 40
23.0
 40
24.0
 40
24.0
 40
24.0
 40
24.0
 10
12.56974001265255
 20
-14.23427288533033
 30
0.0
 10
12.55137792978767
 20
-14.33237332975024
 30
0.0
 10
12.49181140352956
 20
-14.35188899641203
 30
0.0
 10
12.47923840385033
 20
-14.35493699641128
 30
0.0
  0
SPLINE
  5
1CB
330
1F
100
AcDbEntity
  8
Livello 1
100
AcDbSpline
210
0.0
220
0.0
230
1.0
 70
    24
 71
     3
 72
     8
 73
     4
 74
     0
 42
0.000000001
 43
0.0000000001
 40
24.0
 40
24.0
 40
24.0
 40
24.0
 40
25.0
 40
25.0
 40
25.0
 40
25.0
 10
12.47923840385033
 20
-14.35493699641128
 30
0.0
 10
12.47923840385033
 20
-14.35493699641128
 30
0.0
 10
12.37392012875944
 20
-14.39679407973414
 30
0.0
 10
12.37392012875944
 20
-14.39679407973414
 30
0.0
  0
SPLINE
  5
1CC
330
1F
100
AcDbEntity
  8
Livello 1
100
AcDbSpline
210
0.0
220
0.0
230
1.0
 70
     8
 71
     3
 72
     8
 73
     4
 74
     0
 42
0.000000001
 43
0.0000000001
 40
25.0
 40
25.0
 40
25.0
 40
25.0
 40
26.0
 40
26.0
 40
26.0
 40
26.0
 10
12.37392012875944
 20
-14.39679407973414
 30
0.0
 10
12.34518990727019
 20
-14.40723277417598
 30
0.0
 10
12.31935277469791
 20
-14.41128266306383
 30
0.0
 10
12.29664768628638
 20
-14.41128266306383
 30
0.0
  0
SPLINE
  5
1CD
330
1F
100
AcDbEntity
  8
Livello 1
100
AcDbSpline
210
0.0
220
0.0
230
1.0
 70
    24
 71
     3
 72
     8
 73
     4
 74
     0
 42
0.000000001
 43
0.0000000001
 40
0.0
 40
0.0
 40
0.0
 40
0.0
 40
1.0
 40
1.0
 40
1.0
 40
1.0
 10
12.30264138057791
 20
-14.26796669087744
 30
0.0
 10
12.30264138057791
 20
-14.26796669087744
 30
0.0
 10
12.30260963057872
 20
-14.26796669087744
 30
0.0
 10
12.30260963057872
 20
-14.26796669087744
 30
0.0
  0
SPLINE
  5
1CE
330
1F
100
AcDbEntity
  8
Livello 1
100
AcDbSpline
210
0.0
220
0.0
230
1.0
 70
     8
 71
     3
 72
     8
 73
     4
 74
     0
 42
0.000000001
 43
0.0000000001
 40
1.0
 40
1.0
 40
1.0
 40
1.0
 40
2.0
 40
2.0
 40
2.0
 40
2.0
 10
12.30260963057872
 20
-14.26796669087744
 30
0.0
 10
12.25878757614116
 20
-14.26796669087744
 30
0.0
 10
12.22643785474425
 20
-14.23623785755206
 30
0.0
 10
12.22509377144521
 20
-14.23487613533018
 30
0.0
  0
SPLINE
  5
1CF
330
1F
100
AcDbEntity
  8
Livello 1
100
AcDbSpline
210
0.0
220
0.0
230
1.0
 70
    24
 71
     3
 72
     8
 73
     4
 74
     0
 42
0.000000001
 43
0.0000000001
 40
2.0
 40
2.0
 40
2.0
 40
2.0
 40
3.0
 40
3.0
 40
3.0
 40
3.0
 10
12.22509377144521
 20
-14.23487613533018
 30
0.0
 10
12.22509377144521
 20
-14.23487613533018
 30
0.0
 10
12.09514455253827
 20
-14.12273866313598
 30
0.0
 10
12.09514455253827
 20
-14.12273866313598
 30
0.0
  0
SPLINE
  5
1D0
330
1F
100
AcDbEntity
  8
Livello 1
100
AcDbSpline
210
0.0
220
0.0
230
1.0
 70
     8
 71
     3
 72
     8
 73
     4
 74
     0
 42
0.000000001
 43
0.0000000001
 40
3.0
 40
3.0
 40
3.0
 40
3.0
 40
4.0
 40
4.0
 40
4.0
 40
4.0
 10
12.09514455253827
 20
-14.12273866313598
 30
0.0
 10
12.06710224769813
 20
-14.09850282980871
 30
0.0
 10
12.05552408132684
 20
-14.07499019092569
 30
0.0
 10
12.06076283119319
 20
-14.05285338537568
 30
0.0
  0
SPLINE
  5
1D1
330
1F
100
AcDbEntity
  8
Livello 1
100
AcDbSpline
210
0.0
220
0.0
230
1.0
 70
     8
 71
     3
 72
     8
 73
     4
 74
     0
 42
0.000000001
 43
0.0000000001
 40
4.0
 40
4.0
 40
4.0
 40
4.0
 40
5.0
 40
5.0
 40
5.0
 40
5.0
 10
12.06076283119319
 20
-14.05285338537568
 30
0.0
 10
12.06868621987994
 20
-14.01928305205073
 30
0.0
 10
12.11161221878481
 20
-14.00748263538702
 30
0.0
 10
12.11647027474869
 20
-14.00624085760954
 30
0.0
  0
SPLINE
  5
1D2
330
1F
100
AcDbEntity
  8
Livello 1
100
AcDbSpline
210
0.0
220
0.0
230
1.0
 70
    24
 71
     3
 72
     8
 73
     4
 74
     0
 42
0.000000001
 43
0.0000000001
 40
5.0
 40
5.0
 40
5.0
 40
5.0
 40
6.0
 40
6.0
 40
6.0
 40
6.0
 10
12.11647027474869
 20
-14.00624085760954
 30
0.0
 10
12.11647027474869
 20
-14.00624085760954
 30
0.0
 10
12.40196596137726
 20
-13.9166176631875
 30
0.0
 10
12.40196596137726
 20
-13.9166176631875
 30
0.0
  0
SPLINE
  5
1D3
330
1F
100
AcDbEntity
  8
Livello 1
100
AcDbSpline
210
0.0
220
0.0
230
1.0
 70
     8
 71
     3
 72
     8
 73
     4
 74
     0
 42
0.000000001
 43
0.0000000001
 40
6.0
 40
6.0
 40
6.0
 40
6.0
 40
7.0
 40
7.0
 40
7.0
 40
7.0
 10
12.40196596137726
 20
-13.9166176631875
 30
0.0
 10
12.43686305244631
 20
-13.90586852430131
 30
0.0
 10
12.46015312655945
 20
-13.91754899652062
 30
0.0
 10
12.46955818187507
 20
-13.92810763540686
 30
0.0
  0
SPLINE
  5
1D4
330
1F
100
AcDbEntity
  8
Livello 1
100
AcDbSpline
210
0.0
220
0.0
230
1.0
 70
     8
 71
     3
 72
     8
 73
     4
 74
     0
 42
0.000000001
 43
0.0000000001
 40
7.0
 40
7.0
 40
7.0
 40
7.0
 40
8.0
 40
8.0
 40
8.0
 40
8.0
 10
12.46955818187507
 20
-13.92810763540686
 30
0.0
 10
12.48705948698413
 20
-13.94781380206861
 30
0.0
 10
12.48419845927934
 20
-13.97718255206125
 30
0.0
 10
12.48378570928987
 20
-13.98047396872711
 30
0.0
  0
SPLINE
  5
1D5
330
1F
100
AcDbEntity
  8
Livello 1
100
AcDbSpline
210
0.0
220
0.0
230
1.0
 70
    24
 71
     3
 72
     8
 73
     4
 74
     0
 42
0.000000001
 43
0.0000000001
 40
8.0
 40
8.0
 40
8.0
 40
8.0
 40
9.0
 40
9.0
 40
9.0
 40
9.0
 10
12.48378570928987
 20
-13.98047396872711
 30
0.0
 10
12.48378570928987
 20
-13.98047396872711
 30
0.0
 10
12.45932409880283
 20
-14.14285757979763
 30
0.0
 10
12.45932409880283
 20
-14.14285757979763
 30
0.0
  0
SPLINE
  5
1D6
330
1F
100
AcDbEntity
  8
Livello 1
100
AcDbSpline
210
0.0
220
0.0
230
1.0
 70
     8
 71
     3
 72
     8
 73
     4
 74
     0
 42
0.000000001
 43
0.0000000001
 40
9.0
 40
9.0
 40
9.0
 40
9.0
 40
10.0
 40
10.0
 40
10.0
 40
10.0
 10
12.45932409880283
 20
-14.14285757979763
 30
0.0
 10
12.45198632121225
 20
-14.21680685755692
 30
0.0
 10
12.40675315569958
 20
-14.23215621866417
 30
0.0
 10
12.40485873908124
 20
-14.23277357977514
 30
0.0
  0
SPLINE
  5
1D7
330
1F
100
AcDbEntity
  8
Livello 1
100
AcDbSpline
210
0.0
220
0.0
230
1.0
 70
    24
 71
     3
 72
     8
 73
     4
 74
     0
 42
0.000000001
 43
0.0000000001
 40
10.0
 40
10.0
 40
10.0
 40
10.0
 40
11.0
 40
11.0
 40
11.0
 40
11.0
 10
12.40485873908124
 20
-14.23277357977514
 30
0.0
 10
12.40485873908124
 20
-14.23277357977514
 30
0.0
 10
12.33178787983432
 20
-14.2630736631009
 30
0.0
 10
12.33178787983432
 20
-14.2630736631009
 30
0.0
  0
SPLINE
  5
1D8
330
1F
100
AcDbEntity
  8
Livello 1
100
AcDbSpline
210
0.0
220
0.0
230
1.0
 70
     8
 71
     3
 72
     8
 73
     4
 74
     0
 42
0.000000001
 43
0.0000000001
 40
11.0
 40
11.0
 40
11.0
 40
11.0
 40
12.0
 40
12.0
 40
12.0
 40
12.0
 10
12.33178787983432
 20
-14.2630736631009
 30
0.0
 10
12.32145149120914
 20
-14.26648502421116
 30
0.0
 10
12.3120817136704
 20
-14.26796669087744
 30
0.0
 10
12.30264138057791
 20
-14.26796669087744
 30
0.0
  0
SPLINE
  5
1D9
330
1F
100
AcDbEntity
  8
Livello 1
100
AcDbSpline
210
0.0
220
0.0
230
1.0
 70
     8
 71
     3
 72
     8
 73
     4
 74
     0
 42
0.000000001
 43
0.0000000001
 40
0.0
 40
0.0
 40
0.0
 40
0.0
 40
1.0
 40
1.0
 40
1.0
 40
1.0
 10
12.43049157176063
 20
-13.94710824651322
 30
0.0
 10
12.42542568300098
 20
-13.94710824651322
 30
0.0
 10
12.41932615537881
 20
-13.94817363540185
 30
0.0
 10
12.41243640555459
 20
-13.95031146873464
 30
0.0
  0
SPLINE
  5
1DA
330
1F
100
AcDbEntity
  8
Livello 1
100
AcDbSpline
210
0.0
220
0.0
230
1.0
 70
    24
 71
     3
 72
     8
 73
     4
 74
     0
 42
0.000000001
 43
0.0000000001
 40
1.0
 40
1.0
 40
1.0
 40
1.0
 40
2.0
 40
2.0
 40
2.0
 40
2.0
 10
12.41243640555459
 20
-13.95031146873464
 30
0.0
 10
12.41243640555459
 20
-13.95031146873464
 30
0.0
 10
12.12607963508238
 20
-14.04017807982329
 30
0.0
 10
12.12607963508238
 20
-14.04017807982329
 30
0.0
  0
SPLINE
  5
1DB
330
1F
100
AcDbEntity
  8
Livello 1
100
AcDbSpline
210
0.0
220
0.0
230
1.0
 70
     8
 71
     3
 72
     8
 73
     4
 74
     0
 42
0.000000001
 43
0.0000000001
 40
2.0
 40
2.0
 40
2.0
 40
2.0
 40
3.0
 40
3.0
 40
3.0
 40
3.0
 10
12.12607963508238
 20
-14.04017807982329
 30
0.0
 10
12.11433213538208
 20
-14.04327546871142
 30
0.0
 10
12.0972118302633
 20
-14.05177035759817
 30
0.0
 10
12.09507399698451
 20
-14.06100255204031
 30
0.0
  0
SPLINE
  5
1DC
330
1F
100
AcDbEntity
  8
Livello 1
100
AcDbSpline
210
0.0
220
0.0
230
1.0
 70
     8
 71
     3
 72
     8
 73
     4
 74
     0
 42
0.000000001
 43
0.0000000001
 40
3.0
 40
3.0
 40
3.0
 40
3.0
 40
4.0
 40
4.0
 40
4.0
 40
4.0
 10
12.09507399698451
 20
-14.06100255204031
 30
0.0
 10
12.09325013591993
 20
-14.06885538537168
 30
0.0
 10
12.10189671903267
 20
-14.08194696870175
 30
0.0
 10
12.11822680194939
 20
-14.09604044092043
 30
0.0
  0
SPLINE
  5
1DD
330
1F
100
AcDbEntity
  8
Livello 1
100
AcDbSpline
210
0.0
220
0.0
230
1.0
 70
    24
 71
     3
 72
     8
 73
     4
 74
     0
 42
0.000000001
 43
0.0000000001
 40
4.0
 40
4.0
 40
4.0
 40
4.0
 40
5.0
 40
5.0
 40
5.0
 40
5.0
 10
12.11822680194939
 20
-14.09604044092043
 30
0.0
 10
12.11822680194939
 20
-14.09604044092043
 30
0.0
 10
12.24907207638902
 20
-14.20903869089217
 30
0.0
 10
12.24907207638902
 20
-14.20903869089217
 30
0.0
  0
SPLINE
  5
1DE
330
1F
100
AcDbEntity
  8
Livello 1
100
AcDbSpline
210
0.0
220
0.0
230
1.0
 70
     8
 71
     3
 72
     8
 73
     4
 74
     0
 42
0.000000001
 43
0.0000000001
 40
5.0
 40
5.0
 40
5.0
 40
5.0
 40
6.0
 40
6.0
 40
6.0
 40
6.0
 10
12.24907207638902
 20
-14.20903869089217
 30
0.0
 10
12.250173052493
 20
-14.21007232978081
 30
0.0
 10
12.27360071465213
 20
-14.23268891310848
 30
0.0
 10
12.30260963057872
 20
-14.23268891310848
 30
0.0
  0
SPLINE
  5
1DF
330
1F
100
AcDbEntity
  8
Livello 1
100
AcDbSpline
210
0.0
220
0.0
230
1.0
 70
    24
 71
     3
 72
     8
 73
     4
 74
     0
 42
0.000000001
 43
0.0000000001
 40
6.0
 40
6.0
 40
6.0
 40
6.0
 40
7.0
 40
7.0
 40
7.0
 40
7.0
 10
12.30260963057872
 20
-14.23268891310848
 30
0.0
 10
12.30260963057872
 20
-14.23268891310848
 30
0.0
 10
12.30264138057791
 20
-14.23268891310848
 30
0.0
 10
12.30264138057791
 20
-14.23268891310848
 30
0.0
  0
SPLINE
  5
1E0
330
1F
100
AcDbEntity
  8
Livello 1
100
AcDbSpline
210
0.0
220
0.0
230
1.0
 70
     8
 71
     3
 72
     8
 73
     4
 74
     0
 42
0.000000001
 43
0.0000000001
 40
7.0
 40
7.0
 40
7.0
 40
7.0
 40
8.0
 40
8.0
 40
8.0
 40
8.0
 10
12.30264138057791
 20
-14.23268891310848
 30
0.0
 10
12.3083599082098
 20
-14.23268891310848
 30
0.0
 10
12.31407843584168
 20
-14.23179285755316
 30
0.0
 10
12.31959235236768
 20
-14.2300007464425
 30
0.0
  0
SPLINE
  5
1E1
330
1F
100
AcDbEntity
  8
Livello 1
100
AcDbSpline
210
0.0
220
0.0
230
1.0
 70
    24
 71
     3
 72
     8
 73
     4
 74
     0
 42
0.000000001
 43
0.0000000001
 40
8.0
 40
8.0
 40
8.0
 40
8.0
 40
9.0
 40
9.0
 40
9.0
 40
9.0
 10
12.31959235236768
 20
-14.2300007464425
 30
0.0
 10
12.31959235236768
 20
-14.2300007464425
 30
0.0
 10
12.39269848939148
 20
-14.19968302422785
 30
0.0
 10
12.39269848939148
 20
-14.19968302422785
 30
0.0
  0
SPLINE
  5
1E2
330
1F
100
AcDbEntity
  8
Livello 1
100
AcDbSpline
210
0.0
220
0.0
230
1.0
 70
     8
 71
     3
 72
     8
 73
     4
 74
     0
 42
0.000000001
 43
0.0000000001
 40
9.0
 40
9.0
 40
9.0
 40
9.0
 40
10.0
 40
10.0
 40
10.0
 40
10.0
 10
12.39269848939148
 20
-14.19968302422785
 30
0.0
 10
12.39465993378588
 20
-14.19892807978361
 30
0.0
 10
12.41929471911739
 20
-14.18888449645278
 30
0.0
 10
12.42435676636158
 20
-14.1384654964654
 30
0.0
  0
SPLINE
  5
1E3
330
1F
100
AcDbEntity
  8
Livello 1
100
AcDbSpline
210
0.0
220
0.0
230
1.0
 70
    24
 71
     3
 72
     8
 73
     4
 74
     0
 42
0.000000001
 43
0.0000000001
 40
10.0
 40
10.0
 40
10.0
 40
10.0
 40
11.0
 40
11.0
 40
11.0
 40
11.0
 10
12.42435676636158
 20
-14.1384654964654
 30
0.0
 10
12.42435676636158
 20
-14.1384654964654
 30
0.0
 10
12.44885365462551
 20
-13.9757714409505
 30
0.0
 10
12.44885365462551
 20
-13.9757714409505
 30
0.0
  0
SPLINE
  5
1E4
330
1F
100
AcDbEntity
  8
Livello 1
100
AcDbSpline
210
0.0
220
0.0
230
1.0
 70
     8
 71
     3
 72
     8
 73
     4
 74
     0
 42
0.000000001
 43
0.0000000001
 40
11.0
 40
11.0
 40
11.0
 40
11.0
 40
12.0
 40
12.0
 40
12.0
 40
12.0
 10
12.44885365462551
 20
-13.9757714409505
 30
0.0
 10
12.4492311268381
 20
-13.97210255206255
 30
0.0
 10
12.44916057128434
 20
-13.95819957984378
 30
0.0
 10
12.44313512699362
 20
-13.95150032984545
 30
0.0
  0
SPLINE
  5
1E5
330
1F
100
AcDbEntity
  8
Livello 1
100
AcDbSpline
210
0.0
220
0.0
230
1.0
 70
     8
 71
     3
 72
     8
 73
     4
 74
     0
 42
0.000000001
 43
0.0000000001
 40
12.0
 40
12.0
 40
12.0
 40
12.0
 40
13.0
 40
13.0
 40
13.0
 40
13.0
 10
12.44313512699362
 20
-13.95150032984545
 30
0.0
 10
12.44144532148117
 20
-13.94960591317927
 30
0.0
 10
12.43827737711755
 20
-13.94710824651322
 30
0.0
 10
12.43049157176063
 20
-13.94710824651322
 30
0.0
  0
LINE
  5
1E6
330
1F
100
AcDbEntity
  8
Livello 1
100
AcDbLine
 10
12.57900748463834
 20
-13.87150444097655
 30
0.0
 11
12.52884601369584
 21
-13.79895216321692
 31
0.0
  0
LINE
  5
1E7
330
1F
100
AcDbEntity
  8
Livello 1
100
AcDbLine
 10
12.52884601369584
 20
-13.79895216321692
 30
0.0
 11
13.98109450442367
 21
-12.79508419124568
 31
0.0
  0
LINE
  5
1E8
330
1F
100
AcDbEntity
  8
Livello 1
100
AcDbLine
 10
13.98109450442367
 20
-12.79508419124568
 30
0.0
 11
14.03125244758848
 21
-12.8676399967831
 31
0.0
  0
LINE
  5
1E9
330
1F
100
AcDbEntity
  8
Livello 1
100
AcDbLine
 10
14.03125244758848
 20
-12.8676399967831
 30
0.0
 11
12.57900748463834
 21
-13.87150444097655
 31
0.0
  0
LINE
  5
1EA
330
1F
100
AcDbEntity
  8
Livello 1
100
AcDbLine
 10
14.1692308885128
 20
-17.64502016225543
 30
0.0
 11
12.20676696635721
 21
-14.38441157973725
 31
0.0
  0
LINE
  5
1EB
330
1F
100
AcDbEntity
  8
Livello 1
100
AcDbLine
 10
12.20676696635721
 20
-14.38441157973725
 30
0.0
 11
12.2370144413852
 21
-14.36621882974177
 31
0.0
  0
LINE
  5
1EC
330
1F
100
AcDbEntity
  8
Livello 1
100
AcDbLine
 10
12.2370144413852
 20
-14.36621882974177
 30
0.0
 11
14.1994780544078
 21
-17.62683094003773
 31
0.0
  0
LINE
  5
1ED
330
1F
100
AcDbEntity
  8
Livello 1
100
AcDbLine
 10
14.1994780544078
 20
-17.62683094003773
 30
0.0
 11
14.1692308885128
 21
-17.64502016225543
 31
0.0
  0
LINE
  5
1EE
330
1F
100
AcDbEntity
  8
Livello 1
100
AcDbLine
 10
14.19871958220493
 20
-17.61894282892861
 30
0.0
 11
12.23177538238586
 21
-14.39497021862348
 31
0.0
  0
LINE
  5
1EF
330
1F
100
AcDbEntity
  8
Livello 1
100
AcDbLine
 10
12.23177538238586
 20
-14.39497021862348
 30
0.0
 11
12.26188849272872
 21
-14.37660813529472
 31
0.0
  0
LINE
  5
1F0
330
1F
100
AcDbEntity
  8
Livello 1
100
AcDbLine
 10
12.26188849272872
 20
-14.37660813529472
 30
0.0
 11
14.2288291647701
 21
-17.60054546782208
 31
0.0
  0
LINE
  5
1F1
330
1F
100
AcDbEntity
  8
Livello 1
100
AcDbLine
 10
14.2288291647701
 20
-17.60054546782208
 30
0.0
 11
14.19871958220493
 21
-17.61894282892861
 31
0.0
  0
LINE
  5
1F2
330
1F
100
AcDbEntity
  8
Livello 1
100
AcDbLine
 10
14.30441532950841
 20
-17.5245465511744
 30
0.0
 11
12.37791710087969
 21
-14.37944799640512
 31
0.0
  0
LINE
  5
1F3
330
1F
100
AcDbEntity
  8
Livello 1
100
AcDbLine
 10
12.37791710087969
 20
-14.37944799640512
 30
0.0
 11
12.40802668344486
 21
-14.36101888529863
 31
0.0
  0
LINE
  5
1F4
330
1F
100
AcDbEntity
  8
Livello 1
100
AcDbLine
 10
12.40802668344486
 20
-14.36101888529863
 30
0.0
 11
14.33452527419416
 21
-17.50614919006793
 31
0.0
  0
LINE
  5
1F5
330
1F
100
AcDbEntity
  8
Livello 1
100
AcDbLine
 10
14.33452527419416
 20
-17.50614919006793
 30
0.0
 11
14.30441532950841
 21
-17.5245465511744
 31
0.0
  0
LINE
  5
1F6
330
1F
100
AcDbEntity
  8
Livello 1
100
AcDbLine
 10
12.55323706862913
 20
-14.28328077420696
 30
0.0
 11
12.529262291463
 21
-14.2574080519912
 31
0.0
  0
LINE
  5
1F7
330
1F
100
AcDbEntity
  8
Livello 1
100
AcDbLine
 10
12.529262291463
 20
-14.2574080519912
 30
0.0
 11
15.60696962961081
 21
-11.40679780270386
 31
0.0
  0
LINE
  5
1F8
330
1F
100
AcDbEntity
  8
Livello 1
100
AcDbLine
 10
15.60696962961081
 20
-11.40679780270386
 30
0.0
 11
15.63094832942561
 21
-11.43267052491962
 31
0.0
  0
LINE
  5
1F9
330
1F
100
AcDbEntity
  8
Livello 1
100
AcDbLine
 10
15.63094832942561
 20
-11.43267052491962
 30
0.0
 11
12.55323706862913
 21
-14.28328077420696
 31
0.0
  0
SPLINE
  5
1FA
330
1F
100
AcDbEntity
  8
Livello 1
100
AcDbSpline
210
0.0
220
0.0
230
1.0
 70
    24
 71
     3
 72
     8
 73
     4
 74
     0
 42
0.000000001
 43
0.0000000001
 40
0.0
 40
0.0
 40
0.0
 40
0.0
 40
1.0
 40
1.0
 40
1.0
 40
1.0
 10
15.99840166266705
 20
-11.43737305269621
 30
0.0
 10
15.99840166266705
 20
-11.43737305269621
 30
0.0
 10
15.66512504479381
 20
-11.43737305269621
 30
0.0
 10
15.66512504479381
 20
-11.43737305269621
 30
0.0
  0
SPLINE
  5
1FB
330
1F
100
AcDbEntity
  8
Livello 1
100
AcDbSpline
210
0.0
220
0.0
230
1.0
 70
     8
 71
     3
 72
     8
 73
     4
 74
     0
 42
0.000000001
 43
0.0000000001
 40
1.0
 40
1.0
 40
1.0
 40
1.0
 40
2.0
 40
2.0
 40
2.0
 40
2.0
 10
15.66512504479381
 20
-11.43737305269621
 30
0.0
 10
15.56759257505985
 20
-11.43737305269621
 30
0.0
 10
15.54110249240233
 20
-11.3986662749281
 30
0.0
 10
15.53837944055987
 20
-11.39423891381811
 30
0.0
  0
SPLINE
  5
1FC
330
1F
100
AcDbEntity
  8
Livello 1
100
AcDbSpline
210
0.0
220
0.0
230
1.0
 70
     8
 71
     3
 72
     8
 73
     4
 74
     0
 42
0.000000001
 43
0.0000000001
 40
2.0
 40
2.0
 40
2.0
 40
2.0
 40
3.0
 40
3.0
 40
3.0
 40
3.0
 10
15.53837944055987
 20
-11.39423891381811
 30
0.0
 10
15.49921013235998
 20
-11.34617999716345
 30
0.0
 10
15.54637299226787
 20
-11.27428035829254
 30
0.0
 10
15.54840499221603
 20
-11.2712323582933
 30
0.0
  0
SPLINE
  5
1FD
330
1F
100
AcDbEntity
  8
Livello 1
100
AcDbSpline
210
0.0
220
0.0
230
1.0
 70
    24
 71
     3
 72
     8
 73
     4
 74
     0
 42
0.000000001
 43
0.0000000001
 40
3.0
 40
3.0
 40
3.0
 40
3.0
 40
4.0
 40
4.0
 40
4.0
 40
4.0
 10
15.54840499221603
 20
-11.2712323582933
 30
0.0
 10
15.54840499221603
 20
-11.2712323582933
 30
0.0
 10
15.72300176553947
 20
-10.96032930281546
 30
0.0
 10
15.72300176553947
 20
-10.96032930281546
 30
0.0
  0
SPLINE
  5
1FE
330
1F
100
AcDbEntity
  8
Livello 1
100
AcDbSpline
210
0.0
220
0.0
230
1.0
 70
     8
 71
     3
 72
    11
 73
     7
 74
     0
 42
0.000000001
 43
0.0000000001
 40
4.0
 40
4.0
 40
4.0
 40
4.0
 40
5.0
 40
5.0
 40
5.0
 40
6.0
 40
6.0
 40
6.0
 40
6.0
 10
15.72300176553947
 20
-10.96032930281546
 30
0.0
 10
15.75152777383989
 20
-10.90955046949482
 30
0.0
 10
15.787150875014
 20
-10.90196927505227
 30
0.0
 10
15.80585555160412
 20
-10.90196927505227
 30
0.0
 10
15.81546834651379
 20
-10.90196927505227
 30
0.0
 10
15.82294370743418
 20
-10.9038143028296
 30
0.0
 10
15.82721584621408
 20
-10.90520777505147
 30
0.0
  0
SPLINE
  5
1FF
330
1F
100
AcDbEntity
  8
Livello 1
100
AcDbSpline
210
0.0
220
0.0
230
1.0
 70
     8
 71
     3
 72
     8
 73
     4
 74
     0
 42
0.000000001
 43
0.0000000001
 40
6.0
 40
6.0
 40
6.0
 40
6.0
 40
7.0
 40
7.0
 40
7.0
 40
7.0
 10
15.82721584621408
 20
-10.90520777505147
 30
0.0
 10
15.88785128911159
 20
-10.90820638616183
 30
0.0
 10
15.91716712169701
 20
-10.97851852503316
 30
0.0
 10
15.91840889944311
 20
-10.98157005281016
 30
0.0
  0
SPLINE
  5
200
330
1F
100
AcDbEntity
  8
Livello 1
100
AcDbSpline
210
0.0
220
0.0
230
1.0
 70
    24
 71
     3
 72
     8
 73
     4
 74
     0
 42
0.000000001
 43
0.0000000001
 40
7.0
 40
7.0
 40
7.0
 40
7.0
 40
8.0
 40
8.0
 40
8.0
 40
8.0
 10
15.91840889944311
 20
-10.98157005281016
 30
0.0
 10
15.91840889944311
 20
-10.98157005281016
 30
0.0
 10
16.09996638486391
 20
-11.26578899718354
 30
0.0
 10
16.09996638486391
 20
-11.26578899718354
 30
0.0
  0
SPLINE
  5
201
330
1F
100
AcDbEntity
  8
Livello 1
100
AcDbSpline
210
0.0
220
0.0
230
1.0
 70
     8
 71
     3
 72
     8
 73
     4
 74
     0
 42
0.000000001
 43
0.0000000001
 40
8.0
 40
8.0
 40
8.0
 40
8.0
 40
9.0
 40
9.0
 40
9.0
 40
9.0
 10
16.09996638486391
 20
-11.26578899718354
 30
0.0
 10
16.13841169938593
 20
-11.33291555272231
 30
0.0
 10
16.12139369982009
 20
-11.37060633049067
 30
0.0
 10
16.11443339444211
 20
-11.38157771937684
 30
0.0
  0
SPLINE
  5
202
330
1F
100
AcDbEntity
  8
Livello 1
100
AcDbSpline
210
0.0
220
0.0
230
1.0
 70
     8
 71
     3
 72
     8
 73
     4
 74
     0
 42
0.000000001
 43
0.0000000001
 40
9.0
 40
9.0
 40
9.0
 40
9.0
 40
10.0
 40
10.0
 40
10.0
 40
10.0
 10
16.11443339444211
 20
-11.38157771937684
 30
0.0
 10
16.09376414496942
 20
-11.43578908047438
 30
0.0
 10
16.00822259159622
 20
-11.43737305269621
 30
0.0
 10
15.99840166266705
 20
-11.43737305269621
 30
0.0
  0
SPLINE
  5
203
330
1F
100
AcDbEntity
  8
Livello 1
100
AcDbSpline
210
0.0
220
0.0
230
1.0
 70
     8
 71
     3
 72
     8
 73
     4
 74
     0
 42
0.000000001
 43
0.0000000001
 40
0.0
 40
0.0
 40
0.0
 40
0.0
 40
1.0
 40
1.0
 40
1.0
 40
1.0
 10
15.80585555160412
 20
-10.93724705282123
 30
0.0
 10
15.78659701391702
 20
-10.93724705282123
 30
0.0
 10
15.76858065326555
 20
-10.95119941392887
 30
0.0
 10
15.75373223697769
 20
-10.97760835836671
 30
0.0
  0
SPLINE
  5
204
330
1F
100
AcDbEntity
  8
Livello 1
100
AcDbSpline
210
0.0
220
0.0
230
1.0
 70
    24
 71
     3
 72
     8
 73
     4
 74
     0
 42
0.000000001
 43
0.0000000001
 40
1.0
 40
1.0
 40
1.0
 40
1.0
 40
2.0
 40
2.0
 40
2.0
 40
2.0
 10
15.75373223697769
 20
-10.97760835836671
 30
0.0
 10
15.75373223697769
 20
-10.97760835836671
 30
0.0
 10
15.57844754700514
 20
-11.28966499717758
 30
0.0
 10
15.57844754700514
 20
-11.28966499717758
 30
0.0
  0
SPLINE
  5
205
330
1F
100
AcDbEntity
  8
Livello 1
100
AcDbSpline
210
0.0
220
0.0
230
1.0
 70
     8
 71
     3
 72
     8
 73
     4
 74
     0
 42
0.000000001
 43
0.0000000001
 40
2.0
 40
2.0
 40
2.0
 40
2.0
 40
3.0
 40
3.0
 40
3.0
 40
3.0
 10
15.57844754700514
 20
-11.28966499717758
 30
0.0
 10
15.57741390814262
 20
-11.29133363606606
 30
0.0
 10
15.54337438123326
 20
-11.3446313027194
 30
0.0
 10
15.5671445472935
 20
-11.37392949715652
 30
0.0
  0
SPLINE
  5
206
330
1F
100
AcDbEntity
  8
Livello 1
100
AcDbSpline
210
0.0
220
0.0
230
1.0
 70
     8
 71
     3
 72
     8
 73
     4
 74
     0
 42
0.000000001
 43
0.0000000001
 40
3.0
 40
3.0
 40
3.0
 40
3.0
 40
4.0
 40
4.0
 40
4.0
 40
4.0
 10
15.5671445472935
 20
-11.37392949715652
 30
0.0
 10
15.56835104726272
 20
-11.3755840249339
 30
0.0
 10
15.58823007453334
 20
-11.40209527492725
 30
0.0
 10
15.66512504479381
 20
-11.40209527492725
 30
0.0
  0
SPLINE
  5
207
330
1F
100
AcDbEntity
  8
Livello 1
100
AcDbSpline
210
0.0
220
0.0
230
1.0
 70
    24
 71
     3
 72
     8
 73
     4
 74
     0
 42
0.000000001
 43
0.0000000001
 40
4.0
 40
4.0
 40
4.0
 40
4.0
 40
5.0
 40
5.0
 40
5.0
 40
5.0
 10
15.66512504479381
 20
-11.40209527492725
 30
0.0
 10
15.66512504479381
 20
-11.40209527492725
 30
0.0
 10
15.99836950851425
 20
-11.40209527492725
 30
0.0
 10
15.99836950851425
 20
-11.40209527492725
 30
0.0
  0
SPLINE
  5
208
330
1F
100
AcDbEntity
  8
Livello 1
100
AcDbSpline
210
0.0
220
0.0
230
1.0
 70
     8
 71
     3
 72
     8
 73
     4
 74
     0
 42
0.000000001
 43
0.0000000001
 40
5.0
 40
5.0
 40
5.0
 40
5.0
 40
6.0
 40
6.0
 40
6.0
 40
6.0
 10
15.99836950851425
 20
-11.40209527492725
 30
0.0
 10
16.01707378581485
 20
-11.40204235826062
 30
0.0
 10
16.07257631217664
 20
-11.39565355270663
 30
0.0
 10
16.08184378416243
 20
-11.36790052493581
 30
0.0
  0
SPLINE
  5
209
330
1F
100
AcDbEntity
  8
Livello 1
100
AcDbSpline
210
0.0
220
0.0
230
1.0
 70
    24
 71
     3
 72
     8
 73
     4
 74
     0
 42
0.000000001
 43
0.0000000001
 40
6.0
 40
6.0
 40
6.0
 40
6.0
 40
7.0
 40
7.0
 40
7.0
 40
7.0
 10
16.08184378416243
 20
-11.36790052493581
 30
0.0
 10
16.08184378416243
 20
-11.36790052493581
 30
0.0
 10
16.08490942297311
 20
-11.36235485827054
 30
0.0
 10
16.08490942297311
 20
-11.36235485827054
 30
0.0
  0
SPLINE
  5
20A
330
1F
100
AcDbEntity
  8
Livello 1
100
AcDbSpline
210
0.0
220
0.0
230
1.0
 70
     8
 71
     3
 72
     8
 73
     4
 74
     0
 42
0.000000001
 43
0.0000000001
 40
8.0
 40
8.0
 40
8.0
 40
8.0
 40
9.0
 40
9.0
 40
9.0
 40
9.0
 10
16.08490942297311
 20
-11.36235485827054
 30
0.0
 10
16.08483886741935
 20
-11.36235485827054
 30
0.0
 10
16.10068917257053
 20
-11.33799908049883
 30
0.0
 10
16.06978584002561
 20
-11.28403113606787
 30
0.0
  0
SPLINE
  5
20B
330
1F
100
AcDbEntity
  8
Livello 1
100
AcDbSpline
210
0.0
220
0.0
230
1.0
 70
    24
 71
     3
 72
     8
 73
     4
 74
     0
 42
0.000000001
 43
0.0000000001
 40
9.0
 40
9.0
 40
9.0
 40
9.0
 40
10.0
 40
10.0
 40
10.0
 40
10.0
 10
16.06978584002561
 20
-11.28403113606787
 30
0.0
 10
16.06978584002561
 20
-11.28403113606787
 30
0.0
 10
15.88719512246166
 20
-10.99772727502836
 30
0.0
 10
15.88719512246166
 20
-10.99772727502836
 30
0.0
  0
SPLINE
  5
20C
330
1F
100
AcDbEntity
  8
Livello 1
100
AcDbSpline
210
0.0
220
0.0
230
1.0
 70
     8
 71
     3
 72
     8
 73
     4
 74
     0
 42
0.000000001
 43
0.0000000001
 40
10.0
 40
10.0
 40
10.0
 40
10.0
 40
11.0
 40
11.0
 40
11.0
 40
11.0
 10
15.88719512246166
 20
-10.99772727502836
 30
0.0
 10
15.88554059472609
 20
-10.99438646947362
 30
0.0
 10
15.86218317865533
 20
-10.94034796948714
 30
0.0
 10
15.82594231846879
 20
-10.94034796948714
 30
0.0
  0
SPLINE
  5
20D
330
1F
100
AcDbEntity
  8
Livello 1
100
AcDbSpline
210
0.0
220
0.0
230
1.0
 70
    24
 71
     3
 72
     8
 73
     4
 74
     0
 42
0.000000001
 43
0.0000000001
 40
11.0
 40
11.0
 40
11.0
 40
11.0
 40
12.0
 40
12.0
 40
12.0
 40
12.0
 10
15.82594231846879
 20
-10.94034796948714
 30
0.0
 10
15.82594231846879
 20
-10.94034796948714
 30
0.0
 10
15.81663956870613
 20
-10.93886630282083
 30
0.0
 10
15.81663956870613
 20
-10.93886630282083
 30
0.0
  0
SPLINE
  5
20E
330
1F
100
AcDbEntity
  8
Livello 1
100
AcDbSpline
210
0.0
220
0.0
230
1.0
 70
    24
 71
     3
 72
     8
 73
     4
 74
     0
 42
0.000000001
 43
0.0000000001
 40
12.0
 40
12.0
 40
12.0
 40
12.0
 40
13.0
 40
13.0
 40
13.0
 40
13.0
 10
15.81663956870613
 20
-10.93886630282083
 30
0.0
 10
15.81667484648301
 20
-10.93886630282083
 30
0.0
 10
15.81667484648301
 20
-10.93886630282083
 30
0.0
 10
15.81667484648301
 20
-10.93886630282083
 30
0.0
  0
SPLINE
  5
20F
330
1F
100
AcDbEntity
  8
Livello 1
100
AcDbSpline
210
0.0
220
0.0
230
1.0
 70
     8
 71
     3
 72
     8
 73
     4
 74
     0
 42
0.000000001
 43
0.0000000001
 40
13.0
 40
13.0
 40
13.0
 40
13.0
 40
14.0
 40
14.0
 40
14.0
 40
14.0
 10
15.81667484648301
 20
-10.93886630282083
 30
0.0
 10
15.81663956870613
 20
-10.93886630282083
 30
0.0
 10
15.81230040215016
 20
-10.93724705282123
 30
0.0
 10
15.80585555160412
 20
-10.93724705282123
 30
0.0
  0
LINE
  5
210
330
1F
100
AcDbEntity
  8
Livello 1
100
AcDbLine
 10
12.58696615110196
 20
-14.06100255204031
 30
0.0
 11
12.57504610796737
 21
-14.04801327426578
 31
0.0
  0
LINE
  5
211
330
1F
100
AcDbEntity
  8
Livello 1
100
AcDbLine
 10
12.57504610796737
 20
-14.04801327426578
 30
0.0
 11
15.53651990918591
 21
-11.32590585827962
 31
0.0
  0
LINE
  5
212
330
1F
100
AcDbEntity
  8
Livello 1
100
AcDbLine
 10
15.53651990918591
 20
-11.32590585827962
 30
0.0
 11
15.54844026999291
 21
-11.33889513605415
 31
0.0
  0
LINE
  5
213
330
1F
100
AcDbEntity
  8
Livello 1
100
AcDbLine
 10
15.54844026999291
 20
-11.33889513605415
 30
0.0
 11
12.58696615110196
 21
-14.06100255204031
 31
0.0
  0
LINE
  5
214
330
1F
100
AcDbEntity
  8
Livello 1
100
AcDbLine
 10
12.56553842942641
 20
-13.76901191322442
 30
0.0
 11
12.54231859668546
 21
-13.74241599656441
 31
0.0
  0
LINE
  5
215
330
1F
100
AcDbEntity
  8
Livello 1
100
AcDbLine
 10
12.54231859668546
 20
-13.74241599656441
 30
0.0
 11
15.71800643233358
 21
-10.97131833059049
 31
0.0
  0
LINE
  5
216
330
1F
100
AcDbEntity
  8
Livello 1
100
AcDbLine
 10
15.71800643233358
 20
-10.97131833059049
 30
0.0
 11
15.74122666273138
 21
-10.99791777502831
 31
0.0
  0
LINE
  5
217
330
1F
100
AcDbEntity
  8
Livello 1
100
AcDbLine
 10
15.74122666273138
 20
-10.99791777502831
 30
0.0
 11
12.56553842942641
 21
-13.76901191322442
 31
0.0
  0
LINE
  5
218
330
1F
100
AcDbEntity
  8
Livello 1
100
AcDbLine
 10
16.43014127527662
 20
-11.44445330269445
 30
0.0
 11
16.08894167287023
 21
-11.44445330269445
 31
0.0
  0
LINE
  5
219
330
1F
100
AcDbEntity
  8
Livello 1
100
AcDbLine
 10
16.08894167287023
 20
-11.44445330269445
 30
0.0
 11
16.08894167287023
 21
-11.31476160828242
 31
0.0
  0
LINE
  5
21A
330
1F
100
AcDbEntity
  8
Livello 1
100
AcDbLine
 10
16.08894167287023
 20
-11.31476160828242
 30
0.0
 11
16.44075283056145
 21
-11.31476160828242
 31
0.0
  0
LINE
  5
21B
330
1F
100
AcDbEntity
  8
Livello 1
100
AcDbLine
 10
16.44075283056145
 20
-11.31476160828242
 30
0.0
 11
16.43014127527662
 21
-11.44445330269445
 31
0.0
  0
LINE
  5
21C
330
1F
100
AcDbEntity
  8
Livello 1
100
AcDbLine
 10
16.124219449748
 20
-11.40917552492549
 30
0.0
 11
16.39762222055069
 21
-11.40917552492549
 31
0.0
  0
LINE
  5
21D
330
1F
100
AcDbEntity
  8
Livello 1
100
AcDbLine
 10
16.39762222055069
 20
-11.40917552492549
 30
0.0
 11
16.40244469264988
 21
-11.35003938605138
 31
0.0
  0
LINE
  5
21E
330
1F
100
AcDbEntity
  8
Livello 1
100
AcDbLine
 10
16.40244469264988
 20
-11.35003938605138
 30
0.0
 11
16.124219449748
 21
-11.35003938605138
 31
0.0
  0
LINE
  5
21F
330
1F
100
AcDbEntity
  8
Livello 1
100
AcDbLine
 10
16.124219449748
 20
-11.35003938605138
 30
0.0
 11
16.124219449748
 21
-11.40917552492549
 31
0.0
  0
SPLINE
  5
220
330
1F
100
AcDbEntity
  8
Livello 1
100
AcDbSpline
210
0.0
220
0.0
230
1.0
 70
     8
 71
     3
 72
     8
 73
     4
 74
     0
 42
0.000000001
 43
0.0000000001
 40
0.0
 40
0.0
 40
0.0
 40
0.0
 40
1.0
 40
1.0
 40
1.0
 40
1.0
 10
15.62626304578526
 20
-11.02892341390944
 30
0.0
 10
15.62626304578526
 20
-11.02820021946516
 30
0.0
 10
15.62460851804969
 20
-10.95483655281686
 30
0.0
 10
15.57183296384055
 20
-10.8321898306253
 30
0.0
  0
SPLINE
  5
221
330
1F
100
AcDbEntity
  8
Livello 1
100
AcDbSpline
210
0.0
220
0.0
230
1.0
 70
     8
 71
     3
 72
     8
 73
     4
 74
     0
 42
0.000000001
 43
0.0000000001
 40
1.0
 40
1.0
 40
1.0
 40
1.0
 40
2.0
 40
2.0
 40
2.0
 40
2.0
 10
15.57183296384055
 20
-10.8321898306253
 30
0.0
 10
15.51598471526536
 20
-10.73910235842634
 30
0.0
 10
15.45262935577058
 20
-10.53098463625614
 30
0.0
 10
15.60121935197973
 20
-10.38598238629241
 30
0.0
  0
SPLINE
  5
222
330
1F
100
AcDbEntity
  8
Livello 1
100
AcDbSpline
210
0.0
220
0.0
230
1.0
 70
     8
 71
     3
 72
     8
 73
     4
 74
     0
 42
0.000000001
 43
0.0000000001
 40
2.0
 40
2.0
 40
2.0
 40
2.0
 40
3.0
 40
3.0
 40
3.0
 40
3.0
 10
15.60121935197973
 20
-10.38598238629241
 30
0.0
 10
15.6092803239963
 20
-10.37853877518315
 30
0.0
 10
15.77419687534449
 20
-10.23055555299792
 30
0.0
 10
15.99106388489115
 20
-10.33788819185996
 30
0.0
  0
SPLINE
  5
223
330
1F
100
AcDbEntity
  8
Livello 1
100
AcDbSpline
210
0.0
220
0.0
230
1.0
 70
     8
 71
     3
 72
     8
 73
     4
 74
     0
 42
0.000000001
 43
0.0000000001
 40
3.0
 40
3.0
 40
3.0
 40
3.0
 40
4.0
 40
4.0
 40
4.0
 40
4.0
 10
15.99106388489115
 20
-10.33788819185996
 30
0.0
 10
15.99664442522493
 20
-10.34086916408146
 30
0.0
 10
16.08418622854711
 20
-10.38894219184721
 30
0.0
 10
16.1574969766768
 20
-10.45608991405265
 30
0.0
  0
SPLINE
  5
224
330
1F
100
AcDbEntity
  8
Livello 1
100
AcDbSpline
210
0.0
220
0.0
230
1.0
 70
    24
 71
     3
 72
     8
 73
     4
 74
     0
 42
0.000000001
 43
0.0000000001
 40
4.0
 40
4.0
 40
4.0
 40
4.0
 40
5.0
 40
5.0
 40
5.0
 40
5.0
 10
16.1574969766768
 20
-10.45608991405265
 30
0.0
 10
16.1574969766768
 20
-10.45608991405265
 30
0.0
 10
16.16063317104123
 20
-10.45922258071852
 30
0.0
 10
16.16063317104123
 20
-10.45922258071852
 30
0.0
  0
SPLINE
  5
225
330
1F
100
AcDbEntity
  8
Livello 1
100
AcDbSpline
210
0.0
220
0.0
230
1.0
 70
     8
 71
     3
 72
     8
 73
     4
 74
     0
 42
0.000000001
 43
0.0000000001
 40
5.0
 40
5.0
 40
5.0
 40
5.0
 40
6.0
 40
6.0
 40
6.0
 40
6.0
 10
16.16063317104123
 20
-10.45922258071852
 30
0.0
 10
16.16221714322304
 20
-10.46087710849589
 30
0.0
 10
16.3277902736958
 20
-10.63513169178568
 30
0.0
 10
16.54152380021279
 20
-10.59528896957339
 30
0.0
  0
SPLINE
  5
226
330
1F
100
AcDbEntity
  8
Livello 1
100
AcDbSpline
210
0.0
220
0.0
230
1.0
 70
    24
 71
     3
 72
     8
 73
     4
 74
     0
 42
0.000000001
 43
0.0000000001
 40
6.0
 40
6.0
 40
6.0
 40
6.0
 40
7.0
 40
7.0
 40
7.0
 40
7.0
 10
16.54152380021279
 20
-10.59528896957339
 30
0.0
 10
16.54152380021279
 20
-10.59528896957339
 30
0.0
 10
16.54510449456588
 20
-10.59473510846242
 30
0.0
 10
16.54510449456588
 20
-10.59473510846242
 30
0.0
  0
SPLINE
  5
227
330
1F
100
AcDbEntity
  8
Livello 1
100
AcDbSpline
210
0.0
220
0.0
230
1.0
 70
     8
 71
     3
 72
     8
 73
     4
 74
     0
 42
0.000000001
 43
0.0000000001
 40
7.0
 40
7.0
 40
7.0
 40
7.0
 40
8.0
 40
8.0
 40
8.0
 40
8.0
 10
16.54510449456588
 20
-10.59473510846242
 30
0.0
 10
16.57452616048194
 20
-10.59127435846328
 30
0.0
 10
16.72328549002011
 20
-10.57875074735531
 30
0.0
 10
16.75704632249213
 20
-10.67250849733187
 30
0.0
  0
SPLINE
  5
228
330
1F
100
AcDbEntity
  8
Livello 1
100
AcDbSpline
210
0.0
220
0.0
230
1.0
 70
    24
 71
     3
 72
     8
 73
     4
 74
     0
 42
0.000000001
 43
0.0000000001
 40
8.0
 40
8.0
 40
8.0
 40
8.0
 40
9.0
 40
9.0
 40
9.0
 40
9.0
 10
16.75704632249213
 20
-10.67250849733187
 30
0.0
 10
16.75704632249213
 20
-10.67250849733187
 30
0.0
 10
16.65748538058769
 20
-10.7083401362118
 30
0.0
 10
16.65748538058769
 20
-10.7083401362118
 30
0.0
  0
SPLINE
  5
229
330
1F
100
AcDbEntity
  8
Livello 1
100
AcDbSpline
210
0.0
220
0.0
230
1.0
 70
     8
 71
     3
 72
     8
 73
     4
 74
     0
 42
0.000000001
 43
0.0000000001
 40
9.0
 40
9.0
 40
9.0
 40
9.0
 40
10.0
 40
10.0
 40
10.0
 40
10.0
 10
16.65748538058769
 20
-10.7083401362118
 30
0.0
 10
16.6489411030279
 20
-10.70075894176925
 30
0.0
 10
16.59901952096817
 20
-10.69529794177064
 30
0.0
 10
16.55909213309792
 20
-10.69965827510288
 30
0.0
  0
SPLINE
  5
22A
330
1F
100
AcDbEntity
  8
Livello 1
100
AcDbSpline
210
0.0
220
0.0
230
1.0
 70
     8
 71
     3
 72
     8
 73
     4
 74
     0
 42
0.000000001
 43
0.0000000001
 40
10.0
 40
10.0
 40
10.0
 40
10.0
 40
11.0
 40
11.0
 40
11.0
 40
11.0
 10
16.55909213309792
 20
-10.69965827510288
 30
0.0
 10
16.29784961198499
 20
-10.74738910842428
 30
0.0
 10
16.10613253354277
 20
-10.55544624736114
 30
0.0
 10
16.08459897853658
 20
-10.53284377514457
 30
0.0
  0
SPLINE
  5
22B
330
1F
100
AcDbEntity
  8
Livello 1
100
AcDbSpline
210
0.0
220
0.0
230
1.0
 70
     8
 71
     3
 72
     8
 73
     4
 74
     0
 42
0.000000001
 43
0.0000000001
 40
11.0
 40
11.0
 40
11.0
 40
11.0
 40
12.0
 40
12.0
 40
12.0
 40
12.0
 10
16.08459897853658
 20
-10.53284377514457
 30
0.0
 10
16.02093317460528
 20
-10.47494941404794
 30
0.0
 10
15.94303984325917
 20
-10.43219627516973
 30
0.0
 10
15.9422496210571
 20
-10.43176588628094
 30
0.0
  0
SPLINE
  5
22C
330
1F
100
AcDbEntity
  8
Livello 1
100
AcDbSpline
210
0.0
220
0.0
230
1.0
 70
     8
 71
     3
 72
     8
 73
     4
 74
     0
 42
0.000000001
 43
0.0000000001
 40
12.0
 40
12.0
 40
12.0
 40
12.0
 40
13.0
 40
13.0
 40
13.0
 40
13.0
 10
15.9422496210571
 20
-10.43176588628094
 30
0.0
 10
15.79362787484876
 20
-10.35822935852155
 30
0.0
 10
15.67855882222886
 20
-10.45870752516311
 30
0.0
 10
15.67373635012967
 20
-10.46302905293979
 30
0.0
  0
SPLINE
  5
22D
330
1F
100
AcDbEntity
  8
Livello 1
100
AcDbSpline
210
0.0
220
0.0
230
1.0
 70
     8
 71
     3
 72
     8
 73
     4
 74
     0
 42
0.000000001
 43
0.0000000001
 40
13.0
 40
13.0
 40
13.0
 40
13.0
 40
14.0
 40
14.0
 40
14.0
 40
14.0
 10
15.67373635012967
 20
-10.46302905293979
 30
0.0
 10
15.54802399222575
 20
-10.58577808068689
 30
0.0
 10
15.6592689338321
 20
-10.77228110841803
 30
0.0
 10
15.66409140593129
 20
-10.78015158063829
 30
0.0
  0
SPLINE
  5
22E
330
1F
100
AcDbEntity
  8
Livello 1
100
AcDbSpline
210
0.0
220
0.0
230
1.0
 70
    24
 71
     3
 72
     8
 73
     4
 74
     0
 42
0.000000001
 43
0.0000000001
 40
14.0
 40
14.0
 40
14.0
 40
14.0
 40
15.0
 40
15.0
 40
15.0
 40
15.0
 10
15.66409140593129
 20
-10.78015158063829
 30
0.0
 10
15.66409140593129
 20
-10.78015158063829
 30
0.0
 10
15.66750276695537
 20
-10.78671324730331
 30
0.0
 10
15.66750276695537
 20
-10.78671324730331
 30
0.0
  0
SPLINE
  5
22F
330
1F
100
AcDbEntity
  8
Livello 1
100
AcDbSpline
210
0.0
220
0.0
230
1.0
 70
     8
 71
     3
 72
     8
 73
     4
 74
     0
 42
0.000000001
 43
0.0000000001
 40
15.0
 40
15.0
 40
15.0
 40
15.0
 40
16.0
 40
16.0
 40
16.0
 40
16.0
 10
15.66750276695537
 20
-10.78671324730331
 30
0.0
 10
15.73144373754632
 20
-10.93383569171097
 30
0.0
 10
15.73209637641856
 20
-11.02482060835492
 30
0.0
 10
15.73209637641856
 20
-11.02863060835394
 30
0.0
  0
SPLINE
  5
230
330
1F
100
AcDbEntity
  8
Livello 1
100
AcDbSpline
210
0.0
220
0.0
230
1.0
 70
    24
 71
     3
 72
     8
 73
     4
 74
     0
 42
0.000000001
 43
0.0000000001
 40
16.0
 40
16.0
 40
16.0
 40
16.0
 40
17.0
 40
17.0
 40
17.0
 40
17.0
 10
15.73209637641856
 20
-11.02863060835394
 30
0.0
 10
15.73209637641856
 20
-11.02863060835394
 30
0.0
 10
15.62626304578526
 20
-11.02852477502065
 30
0.0
 10
15.62626304578526
 20
-11.02852477502065
 30
0.0
  0
SPLINE
  5
231
330
1F
100
AcDbEntity
  8
Livello 1
100
AcDbSpline
210
0.0
220
0.0
230
1.0
 70
    24
 71
     3
 72
     8
 73
     4
 74
     0
 42
0.000000001
 43
0.0000000001
 40
17.0
 40
17.0
 40
17.0
 40
17.0
 40
18.0
 40
18.0
 40
18.0
 40
18.0
 10
15.62626304578526
 20
-11.02852477502065
 30
0.0
 10
15.62626304578526
 20
-11.02852477502065
 30
0.0
 10
15.67917971110191
 20
-11.02857769168731
 30
0.0
 10
15.67917971110191
 20
-11.02857769168731
 30
0.0
  0
SPLINE
  5
232
330
1F
100
AcDbEntity
  8
Livello 1
100
AcDbSpline
210
0.0
220
0.0
230
1.0
 70
    24
 71
     3
 72
     8
 73
     4
 74
     0
 42
0.000000001
 43
0.0000000001
 40
18.0
 40
18.0
 40
18.0
 40
18.0
 40
19.0
 40
19.0
 40
19.0
 40
19.0
 10
15.67917971110191
 20
-11.02857769168731
 30
0.0
 10
15.67917971110191
 20
-11.02857769168731
 30
0.0
 10
15.62626304578526
 20
-11.02892341390944
 30
0.0
 10
15.62626304578526
 20
-11.02892341390944
 30
0.0
  0
LINE
  5
233
330
1F
100
AcDbEntity
  8
Livello 1
100
AcDbLine
 10
16.62534027029668
 20
-10.92675896949054
 30
0.0
 11
16.60959579847613
 21
-10.67385258066485
 31
0.0
  0
LINE
  5
234
330
1F
100
AcDbEntity
  8
Livello 1
100
AcDbLine
 10
16.60959579847613
 20
-10.67385258066485
 30
0.0
 11
16.78743459949464
 21
-10.66341388622305
 31
0.0
  0
LINE
  5
235
330
1F
100
AcDbEntity
  8
Livello 1
100
AcDbLine
 10
16.78743459949464
 20
-10.66341388622305
 30
0.0
 11
16.8300148761861
 21
-10.90558877505137
 31
0.0
  0
LINE
  5
236
330
1F
100
AcDbEntity
  8
Livello 1
100
AcDbLine
 10
16.8300148761861
 20
-10.90558877505137
 30
0.0
 11
16.62534027029668
 21
-10.92675896949054
 31
0.0
  0
LINE
  5
237
330
1F
100
AcDbEntity
  8
Livello 1
100
AcDbLine
 10
16.64701140863269
 20
-10.70699605287881
 30
0.0
 11
16.65827560278976
 21
-10.88789696950026
 31
0.0
  0
LINE
  5
238
330
1F
100
AcDbEntity
  8
Livello 1
100
AcDbLine
 10
16.65827560278976
 20
-10.88789696950026
 30
0.0
 11
16.7887434050168
 21
-10.87441027505918
 31
0.0
  0
LINE
  5
239
330
1F
100
AcDbEntity
  8
Livello 1
100
AcDbLine
 10
16.7887434050168
 20
-10.87441027505918
 30
0.0
 11
16.7581505169084
 21
-10.70048377510267
 31
0.0
  0
LINE
  5
23A
330
1F
100
AcDbEntity
  8
Livello 1
100
AcDbLine
 10
16.7581505169084
 20
-10.70048377510267
 30
0.0
 11
16.64701140863269
 21
-10.70699605287881
 31
0.0
  0
SPLINE
  5
23B
330
1F
100
AcDbEntity
  8
Livello 1
100
AcDbSpline
210
0.0
220
0.0
230
1.0
 70
    24
 71
     3
 72
     8
 73
     4
 74
     0
 42
0.000000001
 43
0.0000000001
 40
0.0
 40
0.0
 40
0.0
 40
0.0
 40
1.0
 40
1.0
 40
1.0
 40
1.0
 10
17.8808728215987
 20
-13.06991571895476
 30
0.0
 10
17.88083754382183
 20
-13.06991571895476
 30
0.0
 10
17.88083754382183
 20
-13.06991571895476
 30
0.0
 10
17.88083754382183
 20
-13.06991571895476
 30
0.0
  0
SPLINE
  5
23C
330
1F
100
AcDbEntity
  8
Livello 1
100
AcDbSpline
210
0.0
220
0.0
230
1.0
 70
     8
 71
     3
 72
     8
 73
     4
 74
     0
 42
0.000000001
 43
0.0000000001
 40
1.0
 40
1.0
 40
1.0
 40
1.0
 40
2.0
 40
2.0
 40
2.0
 40
2.0
 10
17.88083754382183
 20
-13.06991571895476
 30
0.0
 10
17.64694941089992
 20
-13.06990160784362
 30
0.0
 10
17.26158203184258
 20
-12.94994305231807
 30
0.0
 10
17.24528722670273
 20
-12.9448242467638
 30
0.0
  0
SPLINE
  5
23D
330
1F
100
AcDbEntity
  8
Livello 1
100
AcDbSpline
210
0.0
220
0.0
230
1.0
 70
     8
 71
     3
 72
     8
 73
     4
 74
     0
 42
0.000000001
 43
0.0000000001
 40
2.0
 40
2.0
 40
2.0
 40
2.0
 40
3.0
 40
3.0
 40
3.0
 40
3.0
 10
17.24528722670273
 20
-12.9448242467638
 30
0.0
 10
16.25802452966768
 20
-12.67213055238752
 30
0.0
 10
16.16435144872415
 20
-12.42583874689354
 30
0.0
 10
16.16083778214712
 20
-12.41548824689612
 30
0.0
  0
SPLINE
  5
23E
330
1F
100
AcDbEntity
  8
Livello 1
100
AcDbSpline
210
0.0
220
0.0
230
1.0
 70
    24
 71
     3
 72
     8
 73
     4
 74
     0
 42
0.000000001
 43
0.0000000001
 40
3.0
 40
3.0
 40
3.0
 40
3.0
 40
4.0
 40
4.0
 40
4.0
 40
4.0
 10
16.16083778214712
 20
-12.41548824689612
 30
0.0
 10
16.16083778214712
 20
-12.41548824689612
 30
0.0
 10
16.15904919885942
 20
-12.41021421911967
 30
0.0
 10
16.15904919885942
 20
-12.41021421911967
 30
0.0
  0
SPLINE
  5
23F
330
1F
100
AcDbEntity
  8
Livello 1
100
AcDbSpline
210
0.0
220
0.0
230
1.0
 70
    24
 71
     3
 72
     8
 73
     4
 74
     0
 42
0.000000001
 43
0.0000000001
 40
4.0
 40
4.0
 40
4.0
 40
4.0
 40
5.0
 40
5.0
 40
5.0
 40
5.0
 10
16.15904919885942
 20
-12.41021421911967
 30
0.0
 10
16.15904919885942
 20
-12.41021421911967
 30
0.0
 10
16.36658130467595
 20
-11.70739974707315
 30
0.0
 10
16.36658130467595
 20
-11.70739974707315
 30
0.0
  0
SPLINE
  5
240
330
1F
100
AcDbEntity
  8
Livello 1
100
AcDbSpline
210
0.0
220
0.0
230
1.0
 70
    24
 71
     3
 72
     8
 73
     4
 74
     0
 42
0.000000001
 43
0.0000000001
 40
5.0
 40
5.0
 40
5.0
 40
5.0
 40
6.0
 40
6.0
 40
6.0
 40
6.0
 10
16.36658130467595
 20
-11.70739974707315
 30
0.0
 10
16.36658130467595
 20
-11.70739974707315
 30
0.0
 10
16.40395810927794
 20
-11.64412905264453
 30
0.0
 10
16.40395810927794
 20
-11.64412905264453
 30
0.0
  0
SPLINE
  5
241
330
1F
100
AcDbEntity
  8
Livello 1
100
AcDbSpline
210
0.0
220
0.0
230
1.0
 70
    24
 71
     3
 72
     8
 73
     4
 74
     0
 42
0.000000001
 43
0.0000000001
 40
6.0
 40
6.0
 40
6.0
 40
6.0
 40
7.0
 40
7.0
 40
7.0
 40
7.0
 10
16.40395810927794
 20
-11.64412905264453
 30
0.0
 10
16.40395810927794
 20
-11.64412905264453
 30
0.0
 10
16.40395810927794
 20
-10.9846180528094
 30
0.0
 10
16.40395810927794
 20
-10.9846180528094
 30
0.0
  0
SPLINE
  5
242
330
1F
100
AcDbEntity
  8
Livello 1
100
AcDbSpline
210
0.0
220
0.0
230
1.0
 70
     8
 71
     3
 72
     8
 73
     4
 74
     0
 42
0.000000001
 43
0.0000000001
 40
7.0
 40
7.0
 40
7.0
 40
7.0
 40
8.0
 40
8.0
 40
8.0
 40
8.0
 10
16.40395810927794
 20
-10.9846180528094
 30
0.0
 10
16.40395810927794
 20
-10.92756683060145
 30
0.0
 10
16.44619619153369
 20
-10.89818044171989
 30
0.0
 10
16.46851996874194
 20
-10.89061688616623
 30
0.0
  0
SPLINE
  5
243
330
1F
100
AcDbEntity
  8
Livello 1
100
AcDbSpline
210
0.0
220
0.0
230
1.0
 70
     8
 71
     3
 72
    11
 73
     7
 74
     0
 42
0.000000001
 43
0.0000000001
 40
8.0
 40
8.0
 40
8.0
 40
8.0
 40
9.0
 40
9.0
 40
9.0
 40
10.0
 40
10.0
 40
10.0
 40
10.0
 10
16.46851996874194
 20
-10.89061688616623
 30
0.0
 10
16.5909585489516
 20
-10.83427474729143
 30
0.0
 10
16.85506209776932
 20
-10.82984738618142
 30
0.0
 10
16.93305773466837
 20
-10.82984738618142
 30
0.0
 10
16.94652721798558
 20
-10.82984738618142
 30
0.0
 10
16.9541750119074
 20
-10.82996733062585
 30
0.0
 10
16.9541750119074
 20
-10.82996733062585
 30
0.0
  0
SPLINE
  5
244
330
1F
100
AcDbEntity
  8
Livello 1
100
AcDbSpline
210
0.0
220
0.0
230
1.0
 70
     8
 71
     3
 72
     8
 73
     4
 74
     0
 42
0.000000001
 43
0.0000000001
 40
10.0
 40
10.0
 40
10.0
 40
10.0
 40
11.0
 40
11.0
 40
11.0
 40
11.0
 10
16.9541750119074
 20
-10.82996733062585
 30
0.0
 10
17.01825356582818
 20
-10.83182646951425
 30
0.0
 10
17.04860656505381
 20
-10.88664108061168
 30
0.0
 10
17.05573620376081
 20
-10.9153713028267
 30
0.0
  0
SPLINE
  5
245
330
1F
100
AcDbEntity
  8
Livello 1
100
AcDbSpline
210
0.0
220
0.0
230
1.0
 70
    24
 71
     3
 72
     8
 73
     4
 74
     0
 42
0.000000001
 43
0.0000000001
 40
11.0
 40
11.0
 40
11.0
 40
11.0
 40
12.0
 40
12.0
 40
12.0
 40
12.0
 10
17.05573620376081
 20
-10.9153713028267
 30
0.0
 10
17.05573620376081
 20
-10.9153713028267
 30
0.0
 10
17.23515897696113
 20
-11.56163549710958
 30
0.0
 10
17.23515897696113
 20
-11.56163549710958
 30
0.0
  0
SPLINE
  5
246
330
1F
100
AcDbEntity
  8
Livello 1
100
AcDbSpline
210
0.0
220
0.0
230
1.0
 70
     8
 71
     3
 72
     8
 73
     4
 74
     0
 42
0.000000001
 43
0.0000000001
 40
12.0
 40
12.0
 40
12.0
 40
12.0
 40
13.0
 40
13.0
 40
13.0
 40
13.0
 10
17.23515897696113
 20
-11.56163549710958
 30
0.0
 10
17.26761100391099
 20
-11.58806208043631
 30
0.0
 10
17.29627419762417
 20
-11.62718160820431
 30
0.0
 10
17.29754772536946
 20
-11.62892080264834
 30
0.0
  0
SPLINE
  5
247
330
1F
100
AcDbEntity
  8
Livello 1
100
AcDbSpline
210
0.0
220
0.0
230
1.0
 70
    24
 71
     3
 72
     8
 73
     4
 74
     0
 42
0.000000001
 43
0.0000000001
 40
13.0
 40
13.0
 40
13.0
 40
13.0
 40
14.0
 40
14.0
 40
14.0
 40
14.0
 10
17.29754772536946
 20
-11.62892080264834
 30
0.0
 10
17.29754772536946
 20
-11.62892080264834
 30
0.0
 10
18.03073281777546
 20
-12.97348744120108
 30
0.0
 10
18.03073281777546
 20
-12.97348744120108
 30
0.0
  0
SPLINE
  5
248
330
1F
100
AcDbEntity
  8
Livello 1
100
AcDbSpline
210
0.0
220
0.0
230
1.0
 70
     8
 71
     3
 72
     8
 73
     4
 74
     0
 42
0.000000001
 43
0.0000000001
 40
14.0
 40
14.0
 40
14.0
 40
14.0
 40
15.0
 40
15.0
 40
15.0
 40
15.0
 10
18.03073281777546
 20
-12.97348744120108
 30
0.0
 10
18.04964876173732
 20
-12.99837944119484
 30
0.0
 10
18.03789773425933
 20
-13.02638999674342
 30
0.0
 10
18.028873678934
 20
-13.03741430229621
 30
0.0
  0
SPLINE
  5
249
330
1F
100
AcDbEntity
  8
Livello 1
100
AcDbSpline
210
0.0
220
0.0
230
1.0
 70
    24
 71
     3
 72
     8
 73
     4
 74
     0
 42
0.000000001
 43
0.0000000001
 40
15.0
 40
15.0
 40
15.0
 40
15.0
 40
16.0
 40
16.0
 40
16.0
 40
16.0
 10
18.028873678934
 20
-13.03741430229621
 30
0.0
 10
18.028873678934
 20
-13.03741430229621
 30
0.0
 10
18.0246015401541
 20
-13.04116785785082
 30
0.0
 10
18.0246015401541
 20
-13.04116785785082
 30
0.0
  0
SPLINE
  5
24A
330
1F
100
AcDbEntity
  8
Livello 1
100
AcDbSpline
210
0.0
220
0.0
230
1.0
 70
     8
 71
     3
 72
     8
 73
     4
 74
     0
 42
0.000000001
 43
0.0000000001
 40
16.0
 40
16.0
 40
16.0
 40
16.0
 40
17.0
 40
17.0
 40
17.0
 40
17.0
 10
18.0246015401541
 20
-13.04116785785082
 30
0.0
 10
17.993835790939
 20
-13.06051066340152
 30
0.0
 10
17.94681051436094
 20
-13.06991571895476
 30
0.0
 10
17.8808728215987
 20
-13.06991571895476
 30
0.0
  0
SPLINE
  5
24B
330
1F
100
AcDbEntity
  8
Livello 1
100
AcDbSpline
210
0.0
220
0.0
230
1.0
 70
     8
 71
     3
 72
     8
 73
     4
 74
     0
 42
0.000000001
 43
0.0000000001
 40
0.0
 40
0.0
 40
0.0
 40
0.0
 40
1.0
 40
1.0
 40
1.0
 40
1.0
 10
16.19635897568535
 20
-12.40844327467565
 30
0.0
 10
16.21437533633682
 20
-12.44175608022288
 30
0.0
 10
16.36516666582315
 20
-12.66511733016705
 30
0.0
 10
17.25524305124175
 20
-12.91099638566113
 30
0.0
  0
SPLINE
  5
24C
330
1F
100
AcDbEntity
  8
Livello 1
100
AcDbSpline
210
0.0
220
0.0
230
1.0
 70
     8
 71
     3
 72
     8
 73
     4
 74
     0
 42
0.000000001
 43
0.0000000001
 40
1.0
 40
1.0
 40
1.0
 40
1.0
 40
2.0
 40
2.0
 40
2.0
 40
2.0
 10
17.25524305124175
 20
-12.91099638566113
 30
0.0
 10
17.25975464300031
 20
-12.91240749677189
 30
0.0
 10
17.65239277187216
 20
-13.03462383007466
 30
0.0
 10
17.88083754382183
 20
-13.0346379411858
 30
0.0
  0
SPLINE
  5
24D
330
1F
100
AcDbEntity
  8
Livello 1
100
AcDbSpline
210
0.0
220
0.0
230
1.0
 70
    24
 71
     3
 72
     8
 73
     4
 74
     0
 42
0.000000001
 43
0.0000000001
 40
2.0
 40
2.0
 40
2.0
 40
2.0
 40
3.0
 40
3.0
 40
3.0
 40
3.0
 10
17.88083754382183
 20
-13.0346379411858
 30
0.0
 10
17.88083754382183
 20
-13.0346379411858
 30
0.0
 10
17.8808728215987
 20
-13.0346379411858
 30
0.0
 10
17.8808728215987
 20
-13.0346379411858
 30
0.0
  0
SPLINE
  5
24E
330
1F
100
AcDbEntity
  8
Livello 1
100
AcDbSpline
210
0.0
220
0.0
230
1.0
 70
     8
 71
     3
 72
     8
 73
     4
 74
     0
 42
0.000000001
 43
0.0000000001
 40
3.0
 40
3.0
 40
3.0
 40
3.0
 40
4.0
 40
4.0
 40
4.0
 40
4.0
 10
17.8808728215987
 20
-13.0346379411858
 30
0.0
 10
17.93689040350291
 20
-13.0346379411858
 30
0.0
 10
17.97788670801256
 20
-13.02738835785428
 30
0.0
 10
18.00286337404202
 20
-13.01307263563562
 30
0.0
  0
SPLINE
  5
24F
330
1F
100
AcDbEntity
  8
Livello 1
100
AcDbSpline
210
0.0
220
0.0
230
1.0
 70
     8
 71
     3
 72
     8
 73
     4
 74
     0
 42
0.000000001
 43
0.0000000001
 40
4.0
 40
4.0
 40
4.0
 40
4.0
 40
5.0
 40
5.0
 40
5.0
 40
5.0
 10
18.00286337404202
 20
-13.01307263563562
 30
0.0
 10
18.00506823509688
 20
-13.00919560785883
 30
0.0
 10
18.00775640169497
 20
-13.00134277452745
 30
0.0
 10
18.00114181853039
 20
-12.99252333008521
 30
0.0
  0
SPLINE
  5
250
330
1F
100
AcDbEntity
  8
Livello 1
100
AcDbSpline
210
0.0
220
0.0
230
1.0
 70
    24
 71
     3
 72
     8
 73
     4
 74
     0
 42
0.000000001
 43
0.0000000001
 40
5.0
 40
5.0
 40
5.0
 40
5.0
 40
6.0
 40
6.0
 40
6.0
 40
6.0
 10
18.00114181853039
 20
-12.99252333008521
 30
0.0
 10
18.00114181853039
 20
-12.99252333008521
 30
0.0
 10
17.26778386501768
 20
-11.64774855264363
 30
0.0
 10
17.26778386501768
 20
-11.64774855264363
 30
0.0
  0
SPLINE
  5
251
330
1F
100
AcDbEntity
  8
Livello 1
100
AcDbSpline
210
0.0
220
0.0
230
1.0
 70
    24
 71
     3
 72
     8
 73
     4
 74
     0
 42
0.000000001
 43
0.0000000001
 40
6.0
 40
6.0
 40
6.0
 40
6.0
 40
7.0
 40
7.0
 40
7.0
 40
7.0
 10
17.26778386501768
 20
-11.64774855264363
 30
0.0
 10
17.26781561501688
 20
-11.64779794153251
 30
0.0
 10
17.26781561501688
 20
-11.64779794153251
 30
0.0
 10
17.26781561501688
 20
-11.64779794153251
 30
0.0
  0
SPLINE
  5
252
330
1F
100
AcDbEntity
  8
Livello 1
100
AcDbSpline
210
0.0
220
0.0
230
1.0
 70
     8
 71
     3
 72
     8
 73
     4
 74
     0
 42
0.000000001
 43
0.0000000001
 40
7.0
 40
7.0
 40
7.0
 40
7.0
 40
8.0
 40
8.0
 40
8.0
 40
8.0
 10
17.26781561501688
 20
-11.64779794153251
 30
0.0
 10
17.26764628168786
 20
-11.64779794153251
 30
0.0
 10
17.23863736576127
 20
-11.60862902487563
 30
0.0
 10
17.20897581096245
 20
-11.58590660821462
 30
0.0
  0
SPLINE
  5
253
330
1F
100
AcDbEntity
  8
Livello 1
100
AcDbSpline
210
0.0
220
0.0
230
1.0
 70
    24
 71
     3
 72
     8
 73
     4
 74
     0
 42
0.000000001
 43
0.0000000001
 40
8.0
 40
8.0
 40
8.0
 40
8.0
 40
9.0
 40
9.0
 40
9.0
 40
9.0
 10
17.20897581096245
 20
-11.58590660821462
 30
0.0
 10
17.20897581096245
 20
-11.58590660821462
 30
0.0
 10
17.20429092219308
 20
-11.58232591377108
 30
0.0
 10
17.20429092219308
 20
-11.58232591377108
 30
0.0
  0
SPLINE
  5
254
330
1F
100
AcDbEntity
  8
Livello 1
100
AcDbSpline
210
0.0
220
0.0
230
1.0
 70
    24
 71
     3
 72
     8
 73
     4
 74
     0
 42
0.000000001
 43
0.0000000001
 40
9.0
 40
9.0
 40
9.0
 40
9.0
 40
10.0
 40
10.0
 40
10.0
 40
10.0
 10
17.20429092219308
 20
-11.58232591377108
 30
0.0
 10
17.20429092219308
 20
-11.58232591377108
 30
0.0
 10
17.02162964907538
 20
-10.92432833060226
 30
0.0
 10
17.02162964907538
 20
-10.92432833060226
 30
0.0
  0
SPLINE
  5
255
330
1F
100
AcDbEntity
  8
Livello 1
100
AcDbSpline
210
0.0
220
0.0
230
1.0
 70
     8
 71
     3
 72
     8
 73
     4
 74
     0
 42
0.000000001
 43
0.0000000001
 40
10.0
 40
10.0
 40
10.0
 40
10.0
 40
11.0
 40
11.0
 40
11.0
 40
11.0
 10
17.02162964907538
 20
-10.92432833060226
 30
0.0
 10
17.02090645464938
 20
-10.92159077504737
 30
0.0
 10
17.00619562169136
 20
-10.86676205283887
 30
0.0
 10
16.95334951192846
 20
-10.86524510839481
 30
0.0
  0
SPLINE
  5
256
330
1F
100
AcDbEntity
  8
Livello 1
100
AcDbSpline
210
0.0
220
0.0
230
1.0
 70
    24
 71
     3
 72
     8
 73
     4
 74
     0
 42
0.000000001
 43
0.0000000001
 40
11.0
 40
11.0
 40
11.0
 40
11.0
 40
12.0
 40
12.0
 40
12.0
 40
12.0
 10
16.95334951192846
 20
-10.86524510839481
 30
0.0
 10
16.95334951192846
 20
-10.86524510839481
 30
0.0
 10
16.93305773466837
 20
-10.86512516395038
 30
0.0
 10
16.93305773466837
 20
-10.86512516395038
 30
0.0
  0
SPLINE
  5
257
330
1F
100
AcDbEntity
  8
Livello 1
100
AcDbSpline
210
0.0
220
0.0
230
1.0
 70
     8
 71
     3
 72
     8
 73
     4
 74
     0
 42
0.000000001
 43
0.0000000001
 40
12.0
 40
12.0
 40
12.0
 40
12.0
 40
13.0
 40
13.0
 40
13.0
 40
13.0
 10
16.93305773466837
 20
-10.86512516395038
 30
0.0
 10
16.85688638467468
 20
-10.86512516395038
 30
0.0
 10
16.59919238207488
 20
-10.86930910839377
 30
0.0
 10
16.48154452396521
 20
-10.92336524726917
 30
0.0
  0
SPLINE
  5
258
330
1F
100
AcDbEntity
  8
Livello 1
100
AcDbSpline
210
0.0
220
0.0
230
1.0
 70
     8
 71
     3
 72
     8
 73
     4
 74
     0
 42
0.000000001
 43
0.0000000001
 40
13.0
 40
13.0
 40
13.0
 40
13.0
 40
14.0
 40
14.0
 40
14.0
 40
14.0
 10
16.48154452396521
 20
-10.92336524726917
 30
0.0
 10
16.47830602404783
 20
-10.92458585837998
 30
0.0
 10
16.43923588615571
 20
-10.93898624726526
 30
0.0
 10
16.43923588615571
 20
-10.9846180528094
 30
0.0
  0
SPLINE
  5
259
330
1F
100
AcDbEntity
  8
Livello 1
100
AcDbSpline
210
0.0
220
0.0
230
1.0
 70
    24
 71
     3
 72
     8
 73
     4
 74
     0
 42
0.000000001
 43
0.0000000001
 40
14.0
 40
14.0
 40
14.0
 40
14.0
 40
15.0
 40
15.0
 40
15.0
 40
15.0
 10
16.43923588615571
 20
-10.9846180528094
 30
0.0
 10
16.43923588615571
 20
-10.9846180528094
 30
0.0
 10
16.43923588615571
 20
-11.65377752486435
 30
0.0
 10
16.43923588615571
 20
-11.65377752486435
 30
0.0
  0
SPLINE
  5
25A
330
1F
100
AcDbEntity
  8
Livello 1
100
AcDbSpline
210
0.0
220
0.0
230
1.0
 70
    24
 71
     3
 72
     8
 73
     4
 74
     0
 42
0.000000001
 43
0.0000000001
 40
15.0
 40
15.0
 40
15.0
 40
15.0
 40
16.0
 40
16.0
 40
16.0
 40
16.0
 10
16.43923588615571
 20
-11.65377752486435
 30
0.0
 10
16.43923588615571
 20
-11.65377752486435
 30
0.0
 10
16.39806672053935
 20
-11.72345466373581
 30
0.0
 10
16.39806672053935
 20
-11.72345466373581
 30
0.0
  0
SPLINE
  5
25B
330
1F
100
AcDbEntity
  8
Livello 1
100
AcDbSpline
210
0.0
220
0.0
230
1.0
 70
    24
 71
     3
 72
     8
 73
     4
 74
     0
 42
0.000000001
 43
0.0000000001
 40
16.0
 40
16.0
 40
16.0
 40
16.0
 40
17.0
 40
17.0
 40
17.0
 40
17.0
 10
16.39806672053935
 20
-11.72345466373581
 30
0.0
 10
16.39806672053935
 20
-11.72345466373581
 30
0.0
 10
16.19635897568535
 20
-12.40844327467565
 30
0.0
 10
16.19635897568535
 20
-12.40844327467565
 30
0.0
  0
LINE
  5
25C
330
1F
100
AcDbEntity
  8
Livello 1
100
AcDbLine
 10
15.62206146255912
 20
-11.10182141389119
 30
0.0
 11
15.62206146255912
 21
-11.01469235835744
 31
0.0
  0
LINE
  5
25D
330
1F
100
AcDbEntity
  8
Livello 1
100
AcDbLine
 10
15.62206146255912
 20
-11.01469235835744
 30
0.0
 11
15.76010693125951
 21
-10.98139719169909
 31
0.0
  0
LINE
  5
25E
330
1F
100
AcDbEntity
  8
Livello 1
100
AcDbLine
 10
15.76010693125951
 20
-10.98139719169909
 30
0.0
 11
15.62206146255912
 21
-11.10182141389119
 31
0.0
  0
LINE
  5
25F
330
1F
100
AcDbEntity
  8
Livello 1
100
AcDbLine
 10
16.77034604437505
 20
-10.72782052509582
 30
0.0
 11
16.68962696310103
 21
-10.71478185843241
 31
0.0
  0
LINE
  5
260
330
1F
100
AcDbEntity
  8
Livello 1
100
AcDbLine
 10
16.68962696310103
 20
-10.71478185843241
 30
0.0
 11
16.68962696310103
 21
-10.67216630288752
 31
0.0
  0
LINE
  5
261
330
1F
100
AcDbEntity
  8
Livello 1
100
AcDbLine
 10
16.68962696310103
 20
-10.67216630288752
 30
0.0
 11
16.75666885027954
 21
-10.65464735844744
 31
0.0
  0
LINE
  5
262
330
1F
100
AcDbEntity
  8
Livello 1
100
AcDbLine
 10
16.75666885027954
 20
-10.65464735844744
 30
0.0
 11
16.77034604437505
 21
-10.72782052509582
 31
0.0
  0
LINE
  5
263
330
1F
100
AcDbEntity
  8
Livello 1
100
AcDbLine
 10
16.15904919885942
 20
-13.44475308305857
 30
0.0
 11
18.04085226743874
 21
-13.44475308305857
 31
0.0
  0
LINE
  5
264
330
1F
100
AcDbEntity
  8
Livello 1
100
AcDbLine
 10
18.43459876082342
 20
-13.0346379411858
 30
0.0
 11
17.33706789690027
 21
-10.79508642785678
 31
0.0
  0
LINE
  5
265
330
1F
100
AcDbEntity
  8
Livello 1
100
AcDbLine
 10
11.47205588778763
 20
-13.49832851227227
 30
0.0
 11
15.30709992428223
 21
-10.11426407441707
 31
0.0
  0
POLYLINE
  5
266
330
1F
100
AcDbEntity
  8
Livello 1
100
AcDb2dPolyline
 66
     1
 10
0.0
 20
0.0
 30
0.0
  0
VERTEX
  5
267
330
266
100
AcDbEntity
  8
Livello 1
100
AcDbVertex
100
AcDb2dVertex
 10
16.80476236559047
 20
-13.69001708642124
 30
0.0
  0
VERTEX
  5
268
330
266
100
AcDbEntity
  8
Livello 1
100
AcDbVertex
100
AcDb2dVertex
 10
16.80221299493139
 20
-13.69001708642124
 30
0.0
  0
VERTEX
  5
269
330
266
100
AcDbEntity
  8
Livello 1
100
AcDbVertex
100
AcDb2dVertex
 10
16.65869031701588
 20
-13.76748005840709
 30
0.0
  0
VERTEX
  5
26A
330
266
100
AcDbEntity
  8
Livello 1
100
AcDbVertex
100
AcDb2dVertex
 10
16.63712401927822
 20
-13.68238619992142
 30
0.0
  0
VERTEX
  5
26B
330
266
100
AcDbEntity
  8
Livello 1
100
AcDbVertex
100
AcDb2dVertex
 10
16.8174403169762
 20
-13.58588907537957
 30
0.0
  0
VERTEX
  5
26C
330
266
100
AcDbEntity
  8
Livello 1
100
AcDbVertex
100
AcDb2dVertex
 10
16.9126627561885
 20
-13.58588907537957
 30
0.0
  0
VERTEX
  5
26D
330
266
100
AcDbEntity
  8
Livello 1
100
AcDbVertex
100
AcDb2dVertex
 10
16.9126627561885
 20
-14.41128227721315
 30
0.0
  0
VERTEX
  5
26E
330
266
100
AcDbEntity
  8
Livello 1
100
AcDbVertex
100
AcDb2dVertex
 10
16.80476236559047
 20
-14.41128227721315
 30
0.0
  0
VERTEX
  5
26F
330
266
100
AcDbEntity
  8
Livello 1
100
AcDbVertex
100
AcDb2dVertex
 10
16.80476236559047
 20
-13.69001708642124
 30
0.0
  0
SEQEND
  5
270
330
266
100
AcDbEntity
  8
Livello 1
  0
HATCH
  5
271
330
1F
100
AcDbEntity
  8
Livello 1
100
AcDbHatch
 10
0.0
 20
0.0
 30
0.0
210
0.0
220
0.0
230
1.0
  2
SOLID
 70
     1
 71
     0
 91
        1
 92
        1
 93
        8
 72
     1
 10
16.80476236559047
 20
-13.69001708642124
 11
16.80221299493139
 21
-13.69001708642124
 72
     1
 10
16.80221299493139
 20
-13.69001708642124
 11
16.65869031701588
 21
-13.76748005840709
 72
     1
 10
16.65869031701588
 20
-13.76748005840709
 11
16.63712401927822
 21
-13.68238619992142
 72
     1
 10
16.63712401927822
 20
-13.68238619992142
 11
16.8174403169762
 21
-13.58588907537957
 72
     1
 10
16.8174403169762
 20
-13.58588907537957
 11
16.9126627561885
 21
-13.58588907537957
 72
     1
 10
16.9126627561885
 20
-13.58588907537957
 11
16.9126627561885
 21
-14.41128227721315
 72
     1
 10
16.9126627561885
 20
-14.41128227721315
 11
16.80476236559047
 21
-14.41128227721315
 72
     1
 10
16.80476236559047
 20
-14.41128227721315
 11
16.80476236559047
 21
-13.69001708642124
 97
        0
 75
     2
 76
     1
 98
        0
450
        0
451
        0
460
0.0
461
0.0
452
        0
462
0.0
453
        0
470

  0
SPLINE
  5
272
330
1F
100
AcDbEntity
  8
Livello 1
100
AcDbSpline
210
0.0
220
0.0
230
1.0
 70
    11
 71
     3
 72
    50
 73
    46
 74
     0
 42
0.000000001
 43
0.0000000001
 40
0.0
 40
0.0
 40
0.0
 40
0.0
 40
1.0
 40
1.0
 40
1.0
 40
2.0
 40
2.0
 40
2.0
 40
3.0
 40
3.0
 40
3.0
 40
4.0
 40
4.0
 40
4.0
 40
5.0
 40
5.0
 40
5.0
 40
6.0
 40
6.0
 40
6.0
 40
7.0
 40
7.0
 40
7.0
 40
8.0
 40
8.0
 40
8.0
 40
9.0
 40
9.0
 40
9.0
 40
10.0
 40
10.0
 40
10.0
 40
11.0
 40
11.0
 40
11.0
 40
12.0
 40
12.0
 40
12.0
 40
13.0
 40
13.0
 40
13.0
 40
14.0
 40
14.0
 40
14.0
 40
15.0
 40
15.0
 40
15.0
 40
15.0
 10
17.70637830503521
 20
-13.67985405473976
 30
0.0
 10
17.70637830503521
 20
-13.67985405473976
 30
0.0
 10
17.39146212672852
 20
-13.67985405473976
 30
0.0
 10
17.39146212672852
 20
-13.67985405473976
 30
0.0
 10
17.39146212672852
 20
-13.67985405473976
 30
0.0
 10
17.35969834635452
 20
-13.89191690733431
 30
0.0
 10
17.35969834635452
 20
-13.89191690733431
 30
0.0
 10
17.3787841753428
 20
-13.88938476215265
 30
0.0
 10
17.39656086804669
 20
-13.88683539149357
 30
0.0
 10
17.4270155121363
 20
-13.88683539149357
 30
0.0
 10
17.49050862192945
 20
-13.88683539149357
 30
0.0
 10
17.55400173172261
 20
-13.90080525368626
 30
0.0
 10
17.60478243917519
 20
-13.93127712325329
 30
0.0
 10
17.66955023429789
 20
-13.96810519399061
 30
0.0
 10
17.72288031240956
 20
-14.03921196480617
 30
0.0
 10
17.72288031240956
 20
-14.14333997584784
 30
0.0
 10
17.72288031240956
 20
-14.30462212098982
 30
0.0
 10
17.59465385844856
 20
-14.42525213940584
 30
0.0
 10
17.41557779512527
 20
-14.42525213940584
 30
0.0
 10
17.32545409723113
 20
-14.42525213940584
 30
0.0
 10
17.24924858509741
 20
-14.39986178567955
 30
0.0
 10
17.209871143701
 20
-14.37445420647583
 30
0.0
 10
17.209871143701
 20
-14.37445420647583
 30
0.0
 10
17.23781086808638
 20
-14.28937757346758
 30
0.0
 10
17.23781086808638
 20
-14.28937757346758
 30
0.0
 10
17.27208956816461
 20
-14.30970363683056
 30
0.0
 10
17.33937228299154
 20
-14.33509399055685
 30
0.0
 10
17.41433756075058
 20
-14.33509399055685
 30
0.0
 10
17.51972303164438
 20
-14.33509399055685
 30
0.0
 10
17.60988118049336
 20
-14.26651936492295
 30
0.0
 10
17.60988118049336
 20
-14.15605237818842
 30
0.0
 10
17.60860649516382
 20
-14.04937499648766
 30
0.0
 10
17.53749972434826
 20
-13.97318670983135
 30
0.0
 10
17.37241074869509
 20
-13.97318670983135
 30
0.0
 10
17.32545409723113
 20
-13.97318670983135
 30
0.0
 10
17.28859157553896
 20
-13.9782682256721
 30
0.0
 10
17.25813693144935
 20
-13.9820750561833
 30
0.0
 10
17.25813693144935
 20
-13.9820750561833
 30
0.0
 10
17.31146700956102
 20
-13.58588907537957
 30
0.0
 10
17.31146700956102
 20
-13.58588907537957
 30
0.0
 10
17.31146700956102
 20
-13.58588907537957
 30
0.0
 10
17.70637830503521
 20
-13.58588907537957
 30
0.0
 10
17.70637830503521
 20
-13.58588907537957
 30
0.0
 10
17.70637830503521
 20
-13.58588907537957
 30
0.0
 10
17.70637830503521
 20
-13.67985405473976
 30
0.0
 10
17.70637830503521
 20
-13.67985405473976
 30
0.0
  0
HATCH
  5
273
330
1F
100
AcDbEntity
  8
Livello 1
100
AcDbHatch
 10
0.0
 20
0.0
 30
0.0
210
0.0
220
0.0
230
1.0
  2
SOLID
 70
     1
 71
     0
 91
        1
 92
        1
 93
        1
 72
     4
 94
        3
 73
     0
 74
     0
 95
       50
 96
       46
 40
0.0
 40
0.0
 40
0.0
 40
0.0
 40
1.0
 40
1.0
 40
1.0
 40
2.0
 40
2.0
 40
2.0
 40
3.0
 40
3.0
 40
3.0
 40
4.0
 40
4.0
 40
4.0
 40
5.0
 40
5.0
 40
5.0
 40
6.0
 40
6.0
 40
6.0
 40
7.0
 40
7.0
 40
7.0
 40
8.0
 40
8.0
 40
8.0
 40
9.0
 40
9.0
 40
9.0
 40
10.0
 40
10.0
 40
10.0
 40
11.0
 40
11.0
 40
11.0
 40
12.0
 40
12.0
 40
12.0
 40
13.0
 40
13.0
 40
13.0
 40
14.0
 40
14.0
 40
14.0
 40
15.0
 40
15.0
 40
15.0
 40
15.0
 10
17.70637830503521
 20
-13.67985405473976
 10
17.70637830503521
 20
-13.67985405473976
 10
17.39146212672852
 20
-13.67985405473976
 10
17.39146212672852
 20
-13.67985405473976
 10
17.39146212672852
 20
-13.67985405473976
 10
17.35969834635452
 20
-13.89191690733431
 10
17.35969834635452
 20
-13.89191690733431
 10
17.3787841753428
 20
-13.88938476215265
 10
17.39656086804669
 20
-13.88683539149357
 10
17.4270155121363
 20
-13.88683539149357
 10
17.49050862192945
 20
-13.88683539149357
 10
17.55400173172261
 20
-13.90080525368626
 10
17.60478243917519
 20
-13.93127712325329
 10
17.66955023429789
 20
-13.96810519399061
 10
17.72288031240956
 20
-14.03921196480617
 10
17.72288031240956
 20
-14.14333997584784
 10
17.72288031240956
 20
-14.30462212098982
 10
17.59465385844856
 20
-14.42525213940584
 10
17.41557779512527
 20
-14.42525213940584
 10
17.32545409723113
 20
-14.42525213940584
 10
17.24924858509741
 20
-14.39986178567955
 10
17.209871143701
 20
-14.37445420647583
 10
17.209871143701
 20
-14.37445420647583
 10
17.23781086808638
 20
-14.28937757346758
 10
17.23781086808638
 20
-14.28937757346758
 10
17.27208956816461
 20
-14.30970363683056
 10
17.33937228299154
 20
-14.33509399055685
 10
17.41433756075058
 20
-14.33509399055685
 10
17.51972303164438
 20
-14.33509399055685
 10
17.60988118049336
 20
-14.26651936492295
 10
17.60988118049336
 20
-14.15605237818842
 10
17.60860649516382
 20
-14.04937499648766
 10
17.53749972434826
 20
-13.97318670983135
 10
17.37241074869509
 20
-13.97318670983135
 10
17.32545409723113
 20
-13.97318670983135
 10
17.28859157553896
 20
-13.9782682256721
 10
17.25813693144935
 20
-13.9820750561833
 10
17.25813693144935
 20
-13.9820750561833
 10
17.31146700956102
 20
-13.58588907537957
 10
17.31146700956102
 20
-13.58588907537957
 10
17.31146700956102
 20
-13.58588907537957
 10
17.70637830503521
 20
-13.58588907537957
 10
17.70637830503521
 20
-13.58588907537957
 10
17.70637830503521
 20
-13.58588907537957
 10
17.70637830503521
 20
-13.67985405473976
 10
17.70637830503521
 20
-13.67985405473976
 97
        0
 97
        0
 75
     2
 76
     1
 98
        0
450
        0
451
        0
460
0.0
461
0.0
452
        0
462
0.0
453
        0
470

  0
POLYLINE
  5
274
330
1F
100
AcDbEntity
  8
Livello 1
100
AcDb2dPolyline
 66
     1
 10
0.0
 20
0.0
 30
0.0
  0
VERTEX
  5
275
330
274
100
AcDbEntity
  8
Livello 1
100
AcDbVertex
100
AcDb2dVertex
 10
18.6653206333545
 20
-11.22632595205453
 30
0.0
  0
VERTEX
  5
276
330
274
100
AcDbEntity
  8
Livello 1
100
AcDbVertex
100
AcDb2dVertex
 10
18.66421820279922
 20
-11.22401773807941
 30
0.0
  0
VERTEX
  5
277
330
274
100
AcDbEntity
  8
Livello 1
100
AcDbVertex
100
AcDb2dVertex
 10
18.53140977184284
 20
-11.12941541605445
 30
0.0
  0
VERTEX
  5
278
330
274
100
AcDbEntity
  8
Livello 1
100
AcDbVertex
100
AcDb2dVertex
 10
18.59827907521154
 20
-11.07250243863812
 30
0.0
  0
VERTEX
  5
279
330
274
100
AcDbEntity
  8
Livello 1
100
AcDbVertex
100
AcDb2dVertex
 10
18.76440157951028
 20
-11.19177164433747
 30
0.0
  0
VERTEX
  5
27A
330
274
100
AcDbEntity
  8
Livello 1
100
AcDbVertex
100
AcDb2dVertex
 10
18.80639729347548
 20
-11.27727891428137
 30
0.0
  0
VERTEX
  5
27B
330
274
100
AcDbEntity
  8
Livello 1
100
AcDbVertex
100
AcDb2dVertex
 10
18.06559841128221
 20
-11.64125325229802
 30
0.0
  0
VERTEX
  5
27C
330
274
100
AcDbEntity
  8
Livello 1
100
AcDbVertex
100
AcDb2dVertex
 10
18.01798719167606
 20
-11.54437716725279
 30
0.0
  0
VERTEX
  5
27D
330
274
100
AcDbEntity
  8
Livello 1
100
AcDbVertex
100
AcDb2dVertex
 10
18.6653206333545
 20
-11.22632595205453
 30
0.0
  0
SEQEND
  5
27E
330
274
100
AcDbEntity
  8
Livello 1
  0
HATCH
  5
27F
330
1F
100
AcDbEntity
  8
Livello 1
100
AcDbHatch
 10
0.0
 20
0.0
 30
0.0
210
0.0
220
0.0
230
1.0
  2
SOLID
 70
     1
 71
     0
 91
        1
 92
        1
 93
        8
 72
     1
 10
18.6653206333545
 20
-11.22632595205453
 11
18.66421820279922
 21
-11.22401773807941
 72
     1
 10
18.66421820279922
 20
-11.22401773807941
 11
18.53140977184284
 21
-11.12941541605445
 72
     1
 10
18.53140977184284
 20
-11.12941541605445
 11
18.59827907521154
 21
-11.07250243863812
 72
     1
 10
18.59827907521154
 20
-11.07250243863812
 11
18.76440157951028
 21
-11.19177164433747
 72
     1
 10
18.76440157951028
 20
-11.19177164433747
 11
18.80639729347548
 21
-11.27727891428137
 72
     1
 10
18.80639729347548
 20
-11.27727891428137
 11
18.06559841128221
 21
-11.64125325229802
 72
     1
 10
18.06559841128221
 20
-11.64125325229802
 11
18.01798719167606
 21
-11.54437716725279
 72
     1
 10
18.01798719167606
 20
-11.54437716725279
 11
18.6653206333545
 21
-11.22632595205453
 97
        0
 75
     2
 76
     1
 98
        0
450
        0
451
        0
460
0.0
461
0.0
452
        0
462
0.0
453
        0
470

  0
SPLINE
  5
280
330
1F
100
AcDbEntity
  8
Livello 1
100
AcDbSpline
210
0.0
220
0.0
230
1.0
 70
     9
 71
     3
 72
    41
 73
    37
 74
     0
 42
0.000000001
 43
0.0000000001
 40
0.0
 40
0.0
 40
0.0
 40
0.0
 40
1.0
 40
1.0
 40
1.0
 40
2.0
 40
2.0
 40
2.0
 40
3.0
 40
3.0
 40
3.0
 40
4.0
 40
4.0
 40
4.0
 40
5.0
 40
5.0
 40
5.0
 40
6.0
 40
6.0
 40
6.0
 40
7.0
 40
7.0
 40
7.0
 40
8.0
 40
8.0
 40
8.0
 40
9.0
 40
9.0
 40
9.0
 40
10.0
 40
10.0
 40
10.0
 40
11.0
 40
11.0
 40
11.0
 40
12.0
 40
12.0
 40
12.0
 40
12.0
 10
18.29752223934923
 20
-11.93480983859616
 30
0.0
 10
18.30589382137839
 20
-11.95758191975366
 30
0.0
 10
18.32050102623585
 20
-11.98152533337615
 30
0.0
 10
18.34072373673426
 20
-12.0140470347569
 30
0.0
 10
18.37724174887791
 20
-12.06823838673988
 30
0.0
 10
18.42805690728535
 20
-12.11119872744095
 30
0.0
 10
18.48869058782574
 20
-12.13376410286934
 30
0.0
 10
18.55721353702736
 20
-12.16094590624796
 30
0.0
 10
18.63951686816998
 20
-12.16435655077835
 30
0.0
 10
18.73401583733038
 20
-12.13493543533432
 30
0.0
 10
18.73401583733038
 20
-12.13493543533432
 30
0.0
 10
18.73229328958776
 20
-12.13149033984907
 30
0.0
 10
18.73229328958776
 20
-12.13149033984907
 30
0.0
 10
18.66201334168866
 20
-12.11509168533928
 30
0.0
 10
18.60327446366515
 20
-12.07040879689559
 30
0.0
 10
18.56685980438606
 20
-11.99630479300787
 30
0.0
 10
18.50133408825661
 20
-11.86297959772869
 30
0.0
 10
18.55962510386704
 20
-11.72820746234573
 30
0.0
 10
18.68612901008541
 20
-11.66605793979182
 30
0.0
 10
18.82634439633507
 20
-11.59715603008682
 30
0.0
 10
18.99925373873977
 20
-11.63815266636129
 30
0.0
 10
19.07373670313087
 20
-11.78973686771229
 30
0.0
 10
19.14821966752197
 20
-11.94132106906328
 30
0.0
 10
19.07104952865237
 20
-12.09524793534424
 30
0.0
 10
18.88184488460245
 20
-12.18819661153628
 30
0.0
 10
18.71885741719528
 20
-12.26826063061349
 30
0.0
 10
18.57802191375826
 20
-12.26956976689788
 30
0.0
 10
18.47149956135435
 20
-12.23132920701161
 30
0.0
 10
18.38768038819822
 20
-12.20177028774817
 30
0.0
 10
18.31485106964004
 20
-12.13996527474279
 30
0.0
 10
18.26651637998198
 20
-12.06465548743522
 30
0.0
 10
18.24291747590802
 20
-12.03096245358948
 30
0.0
 10
18.22610540994
 20
-11.99961208467371
 30
0.0
 10
18.21546006489058
 20
-11.97515190672843
 30
0.0
 10
18.21546006489058
 20
-11.97515190672843
 30
0.0
 10
18.29752223934923
 20
-11.93480983859616
 30
0.0
 10
18.29752223934923
 20
-11.93480983859616
 30
0.0
  0
SPLINE
  5
281
330
1F
100
AcDbEntity
  8
Livello 1
100
AcDbSpline
210
0.0
220
0.0
230
1.0
 70
     9
 71
     3
 72
    20
 73
    16
 74
     0
 42
0.000000001
 43
0.0000000001
 40
0.0
 40
0.0
 40
0.0
 40
0.0
 40
1.0
 40
1.0
 40
1.0
 40
2.0
 40
2.0
 40
2.0
 40
3.0
 40
3.0
 40
3.0
 40
4.0
 40
4.0
 40
4.0
 40
5.0
 40
5.0
 40
5.0
 40
5.0
 10
18.74169840026249
 20
-11.76186604523662
 30
0.0
 10
18.64940429221265
 20
-11.8072035018225
 30
0.0
 10
18.61185275142342
 20
-11.89498453478667
 30
0.0
 10
18.65443413162111
 20
-11.98159423528585
 30
0.0
 10
18.68743814636981
 20
-12.04884249915793
 30
0.0
 10
18.74628037725787
 20
-12.08501600175305
 30
0.0
 10
18.80360676613243
 20
-12.08939127301932
 30
0.0
 10
18.81552679651139
 20
-12.09063150739401
 30
0.0
 10
18.82861815935534
 20
-12.08842664628345
 30
0.0
 10
18.8445345004972
 20
-12.08060627953193
 30
0.0
 10
18.97103840671556
 20
-12.01842230602317
 30
0.0
 10
19.04497015582903
 20
-11.92409559163703
 30
0.0
 10
18.99346597832455
 20
-11.81926133602088
 30
0.0
 10
18.95147026435935
 20
-11.73378851703183
 30
0.0
 10
18.8465671068335
 20
-11.71036186773213
 30
0.0
 10
18.74169840026249
 20
-11.76186604523662
 30
0.0
  0
HATCH
  5
282
330
1F
100
AcDbEntity
  8
Livello 1
100
AcDbHatch
 10
0.0
 20
0.0
 30
0.0
210
0.0
220
0.0
230
1.0
  2
SOLID
 70
     1
 71
     0
 91
        2
 92
        1
 93
        1
 72
     4
 94
        3
 73
     0
 74
     0
 95
       41
 96
       37
 40
0.0
 40
0.0
 40
0.0
 40
0.0
 40
1.0
 40
1.0
 40
1.0
 40
2.0
 40
2.0
 40
2.0
 40
3.0
 40
3.0
 40
3.0
 40
4.0
 40
4.0
 40
4.0
 40
5.0
 40
5.0
 40
5.0
 40
6.0
 40
6.0
 40
6.0
 40
7.0
 40
7.0
 40
7.0
 40
8.0
 40
8.0
 40
8.0
 40
9.0
 40
9.0
 40
9.0
 40
10.0
 40
10.0
 40
10.0
 40
11.0
 40
11.0
 40
11.0
 40
12.0
 40
12.0
 40
12.0
 40
12.0
 10
18.29752223934923
 20
-11.93480983859616
 10
18.30589382137839
 20
-11.95758191975366
 10
18.32050102623585
 20
-11.98152533337615
 10
18.34072373673426
 20
-12.0140470347569
 10
18.37724174887791
 20
-12.06823838673988
 10
18.42805690728535
 20
-12.11119872744095
 10
18.48869058782574
 20
-12.13376410286934
 10
18.55721353702736
 20
-12.16094590624796
 10
18.63951686816998
 20
-12.16435655077835
 10
18.73401583733038
 20
-12.13493543533432
 10
18.73401583733038
 20
-12.13493543533432
 10
18.73229328958776
 20
-12.13149033984907
 10
18.73229328958776
 20
-12.13149033984907
 10
18.66201334168866
 20
-12.11509168533928
 10
18.60327446366515
 20
-12.07040879689559
 10
18.56685980438606
 20
-11.99630479300787
 10
18.50133408825661
 20
-11.86297959772869
 10
18.55962510386704
 20
-11.72820746234573
 10
18.68612901008541
 20
-11.66605793979182
 10
18.82634439633507
 20
-11.59715603008682
 10
18.99925373873977
 20
-11.63815266636129
 10
19.07373670313087
 20
-11.78973686771229
 10
19.14821966752197
 20
-11.94132106906328
 10
19.07104952865237
 20
-12.09524793534424
 10
18.88184488460245
 20
-12.18819661153628
 10
18.71885741719528
 20
-12.26826063061349
 10
18.57802191375826
 20
-12.26956976689788
 10
18.47149956135435
 20
-12.23132920701161
 10
18.38768038819822
 20
-12.20177028774817
 10
18.31485106964004
 20
-12.13996527474279
 10
18.26651637998198
 20
-12.06465548743522
 10
18.24291747590802
 20
-12.03096245358948
 10
18.22610540994
 20
-11.99961208467371
 10
18.21546006489058
 20
-11.97515190672843
 10
18.21546006489058
 20
-11.97515190672843
 10
18.29752223934923
 20
-11.93480983859616
 10
18.29752223934923
 20
-11.93480983859616
 97
        0
 97
        0
 92
        1
 93
        1
 72
     4
 94
        3
 73
     0
 74
     0
 95
       20
 96
       16
 40
0.0
 40
0.0
 40
0.0
 40
0.0
 40
1.0
 40
1.0
 40
1.0
 40
2.0
 40
2.0
 40
2.0
 40
3.0
 40
3.0
 40
3.0
 40
4.0
 40
4.0
 40
4.0
 40
5.0
 40
5.0
 40
5.0
 40
5.0
 10
18.74169840026249
 20
-11.76186604523662
 10
18.64940429221265
 20
-11.8072035018225
 10
18.61185275142342
 20
-11.89498453478667
 10
18.65443413162111
 20
-11.98159423528585
 10
18.68743814636981
 20
-12.04884249915793
 10
18.74628037725787
 20
-12.08501600175305
 10
18.80360676613243
 20
-12.08939127301932
 10
18.81552679651139
 20
-12.09063150739401
 10
18.82861815935534
 20
-12.08842664628345
 10
18.8445345004972
 20
-12.08060627953193
 10
18.97103840671556
 20
-12.01842230602317
 10
19.04497015582903
 20
-11.92409559163703
 10
18.99346597832455
 20
-11.81926133602088
 10
18.95147026435935
 20
-11.73378851703183
 10
18.8465671068335
 20
-11.71036186773213
 10
18.74169840026249
 20
-11.76186604523662
 97
        0
 97
        0
 75
     2
 76
     1
 98
        0
450
        0
451
        0
460
0.0
461
0.0
452
        0
462
0.0
453
        0
470

  0
POLYLINE
  5
283
330
1F
100
AcDbEntity
  8
Livello 1
100
AcDb2dPolyline
 66
     1
 10
0.0
 20
0.0
 30
0.0
  0
VERTEX
  5
284
330
283
100
AcDbEntity
  8
Livello 1
100
AcDbVertex
100
AcDb2dVertex
 10
12.96857964085508
 20
-11.91158989502557
 30
0.0
  0
VERTEX
  5
285
330
283
100
AcDbEntity
  8
Livello 1
100
AcDbVertex
100
AcDb2dVertex
 10
12.82085394644756
 20
-11.74216009906099
 30
0.0
  0
VERTEX
  5
286
330
283
100
AcDbEntity
  8
Livello 1
100
AcDbVertex
100
AcDb2dVertex
 10
12.50859049166452
 20
-12.01432264239572
 30
0.0
  0
VERTEX
  5
287
330
283
100
AcDbEntity
  8
Livello 1
100
AcDbVertex
100
AcDb2dVertex
 10
12.46022135105161
 20
-11.95880492865092
 30
0.0
  0
VERTEX
  5
288
330
283
100
AcDbEntity
  8
Livello 1
100
AcDbVertex
100
AcDb2dVertex
 10
12.4138159148653
 20
-11.30018879925828
 30
0.0
  0
VERTEX
  5
289
330
283
100
AcDbEntity
  8
Livello 1
100
AcDbVertex
100
AcDb2dVertex
 10
12.51203558714977
 20
-11.21457817644983
 30
0.0
  0
VERTEX
  5
28A
330
283
100
AcDbEntity
  8
Livello 1
100
AcDbVertex
100
AcDb2dVertex
 10
12.84913818038146
 20
-11.60132459562397
 30
0.0
  0
VERTEX
  5
28B
330
283
100
AcDbEntity
  8
Livello 1
100
AcDbVertex
100
AcDb2dVertex
 10
12.94322373808364
 20
-11.5193140975976
 30
0.0
  0
VERTEX
  5
28C
330
283
100
AcDbEntity
  8
Livello 1
100
AcDbVertex
100
AcDb2dVertex
 10
13.00075683268731
 20
-11.58535657804984
 30
0.0
  0
VERTEX
  5
28D
330
283
100
AcDbEntity
  8
Livello 1
100
AcDbVertex
100
AcDb2dVertex
 10
12.90670572593999
 20
-11.66736707607621
 30
0.0
  0
VERTEX
  5
28E
330
283
100
AcDbEntity
  8
Livello 1
100
AcDbVertex
100
AcDb2dVertex
 10
13.0543625184378
 20
-11.8367968720408
 30
0.0
  0
VERTEX
  5
28F
330
283
100
AcDbEntity
  8
Livello 1
100
AcDbVertex
100
AcDb2dVertex
 10
12.96857964085508
 20
-11.91158989502557
 30
0.0
  0
SEQEND
  5
290
330
283
100
AcDbEntity
  8
Livello 1
  0
SPLINE
  5
291
330
1F
100
AcDbEntity
  8
Livello 1
100
AcDbSpline
210
0.0
220
0.0
230
1.0
 70
    11
 71
     3
 72
    26
 73
    22
 74
     0
 42
0.000000001
 43
0.0000000001
 40
0.0
 40
0.0
 40
0.0
 40
0.0
 40
1.0
 40
1.0
 40
1.0
 40
2.0
 40
2.0
 40
2.0
 40
3.0
 40
3.0
 40
3.0
 40
4.0
 40
4.0
 40
4.0
 40
5.0
 40
5.0
 40
5.0
 40
6.0
 40
6.0
 40
6.0
 40
7.0
 40
7.0
 40
7.0
 40
7.0
 10
12.76332085184389
 20
-11.67611761860875
 30
0.0
 10
12.76332085184389
 20
-11.67611761860875
 30
0.0
 10
12.58224663313916
 20
-11.46837836084818
 30
0.0
 10
12.58224663313916
 20
-11.46837836084818
 30
0.0
 10
12.5538590463407
 20
-11.43583943399
 30
0.0
 10
12.52653943914267
 20
-11.40240478230565
 30
0.0
 10
12.50025336059021
 20
-11.36803995484028
 30
0.0
 10
12.50025336059021
 20
-11.36803995484028
 30
0.0
 10
12.49715277465349
 20
-11.3707443547962
 30
0.0
 10
12.49715277465349
 20
-11.3707443547962
 30
0.0
 10
12.50817708020629
 20
-11.4251424125083
 30
0.0
 10
12.51496391831223
 20
-11.46636297998931
 30
0.0
 10
12.52140624686965
 20
-11.5113042505944
 30
0.0
 10
12.52140624686965
 20
-11.5113042505944
 30
0.0
 10
12.5413878006841
 20
-11.86614908557513
 30
0.0
 10
12.5413878006841
 20
-11.86614908557513
 30
0.0
 10
12.5413878006841
 20
-11.86614908557513
 30
0.0
 10
12.54311034842672
 20
-11.86806111356944
 30
0.0
 10
12.54311034842672
 20
-11.86806111356944
 30
0.0
 10
12.54311034842672
 20
-11.86806111356944
 30
0.0
 10
12.76332085184389
 20
-11.67611761860875
 30
0.0
 10
12.76332085184389
 20
-11.67611761860875
 30
0.0
  0
HATCH
  5
292
330
1F
100
AcDbEntity
  8
Livello 1
100
AcDbHatch
 10
0.0
 20
0.0
 30
0.0
210
0.0
220
0.0
230
1.0
  2
SOLID
 70
     1
 71
     0
 91
        2
 92
        1
 93
       11
 72
     1
 10
12.96857964085508
 20
-11.91158989502557
 11
12.82085394644756
 21
-11.74216009906099
 72
     1
 10
12.82085394644756
 20
-11.74216009906099
 11
12.50859049166452
 21
-12.01432264239572
 72
     1
 10
12.50859049166452
 20
-12.01432264239572
 11
12.46022135105161
 21
-11.95880492865092
 72
     1
 10
12.46022135105161
 20
-11.95880492865092
 11
12.4138159148653
 21
-11.30018879925828
 72
     1
 10
12.4138159148653
 20
-11.30018879925828
 11
12.51203558714977
 21
-11.21457817644983
 72
     1
 10
12.51203558714977
 20
-11.21457817644983
 11
12.84913818038146
 21
-11.60132459562397
 72
     1
 10
12.84913818038146
 20
-11.60132459562397
 11
12.94322373808364
 21
-11.5193140975976
 72
     1
 10
12.94322373808364
 20
-11.5193140975976
 11
13.00075683268731
 21
-11.58535657804984
 72
     1
 10
13.00075683268731
 20
-11.58535657804984
 11
12.90670572593999
 21
-11.66736707607621
 72
     1
 10
12.90670572593999
 20
-11.66736707607621
 11
13.0543625184378
 21
-11.8367968720408
 72
     1
 10
13.0543625184378
 20
-11.8367968720408
 11
12.96857964085508
 21
-11.91158989502557
 97
        0
 92
        1
 93
        1
 72
     4
 94
        3
 73
     0
 74
     0
 95
       26
 96
       22
 40
0.0
 40
0.0
 40
0.0
 40
0.0
 40
1.0
 40
1.0
 40
1.0
 40
2.0
 40
2.0
 40
2.0
 40
3.0
 40
3.0
 40
3.0
 40
4.0
 40
4.0
 40
4.0
 40
5.0
 40
5.0
 40
5.0
 40
6.0
 40
6.0
 40
6.0
 40
7.0
 40
7.0
 40
7.0
 40
7.0
 10
12.76332085184389
 20
-11.67611761860875
 10
12.76332085184389
 20
-11.67611761860875
 10
12.58224663313916
 20
-11.46837836084818
 10
12.58224663313916
 20
-11.46837836084818
 10
12.5538590463407
 20
-11.43583943399
 10
12.52653943914267
 20
-11.40240478230565
 10
12.50025336059021
 20
-11.36803995484028
 10
12.50025336059021
 20
-11.36803995484028
 10
12.49715277465349
 20
-11.3707443547962
 10
12.49715277465349
 20
-11.3707443547962
 10
12.50817708020629
 20
-11.4251424125083
 10
12.51496391831223
 20
-11.46636297998931
 10
12.52140624686965
 20
-11.5113042505944
 10
12.52140624686965
 20
-11.5113042505944
 10
12.5413878006841
 20
-11.86614908557513
 10
12.5413878006841
 20
-11.86614908557513
 10
12.5413878006841
 20
-11.86614908557513
 10
12.54311034842672
 20
-11.86806111356944
 10
12.54311034842672
 20
-11.86806111356944
 10
12.54311034842672
 20
-11.86806111356944
 10
12.76332085184389
 20
-11.67611761860875
 10
12.76332085184389
 20
-11.67611761860875
 97
        0
 97
        0
 75
     2
 76
     1
 98
        0
450
        0
451
        0
460
0.0
461
0.0
452
        0
462
0.0
453
        0
470

  0
SPLINE
  5
293
330
1F
100
AcDbEntity
  8
Livello 1
100
AcDbSpline
210
0.0
220
0.0
230
1.0
 70
    11
 71
     3
 72
    47
 73
    43
 74
     0
 42
0.000000001
 43
0.0000000001
 40
0.0
 40
0.0
 40
0.0
 40
0.0
 40
1.0
 40
1.0
 40
1.0
 40
2.0
 40
2.0
 40
2.0
 40
3.0
 40
3.0
 40
3.0
 40
4.0
 40
4.0
 40
4.0
 40
5.0
 40
5.0
 40
5.0
 40
6.0
 40
6.0
 40
6.0
 40
7.0
 40
7.0
 40
7.0
 40
8.0
 40
8.0
 40
8.0
 40
9.0
 40
9.0
 40
9.0
 40
10.0
 40
10.0
 40
10.0
 40
11.0
 40
11.0
 40
11.0
 40
12.0
 40
12.0
 40
12.0
 40
13.0
 40
13.0
 40
13.0
 40
14.0
 40
14.0
 40
14.0
 40
14.0
 10
13.21779784825805
 20
-11.69435939920315
 30
0.0
 10
13.21779784825805
 20
-11.69435939920315
 30
0.0
 10
13.17273599931098
 20
-11.6426829669244
 30
0.0
 10
13.17273599931098
 20
-11.6426829669244
 30
0.0
 10
13.17273599931098
 20
-11.6426829669244
 30
0.0
 10
13.1881700270849
 20
-11.51635131548029
 30
0.0
 10
13.1881700270849
 20
-11.51635131548029
 30
0.0
 10
13.22796087993954
 20
-11.21550835223085
 30
0.0
 10
13.23540228618768
 20
-11.06752427566194
 30
0.0
 10
13.15468369896827
 20
-10.97281860077242
 30
0.0
 10
13.09963107311398
 20
-10.90961832409551
 30
0.0
 10
13.01563964518359
 20
-10.88007663030949
 30
0.0
 10
12.91531846465311
 20
-10.96749592824771
 30
0.0
 10
12.85434027456419
 20
-11.02065375158511
 30
0.0
 10
12.82870876415393
 20
-11.09353474657557
 30
0.0
 10
12.81854573247245
 20
-11.14450493427985
 30
0.0
 10
12.81854573247245
 20
-11.14450493427985
 30
0.0
 10
12.73786159620789
 20
-11.11036403802102
 30
0.0
 10
12.73786159620789
 20
-11.11036403802102
 30
0.0
 10
12.75270995774932
 20
-11.03346950679024
 30
0.0
 10
12.79549804367612
 20
-10.94897854001449
 30
0.0
 10
12.8730471430491
 20
-10.88138576659389
 30
0.0
 10
13.0178100553393
 20
-10.75522636992404
 30
0.0
 10
13.15892116641513
 20
-10.79394924317825
 30
0.0
 10
13.23650471674296
 20
-10.8829705105171
 30
0.0
 10
13.33661919154432
 20
-10.99782999399533
 30
0.0
 10
13.32759304137296
 20
-11.16912014152195
 30
0.0
 10
13.29607041768293
 20
-11.41890678967999
 30
0.0
 10
13.29607041768293
 20
-11.41890678967999
 30
0.0
 10
13.28235893765163
 20
-11.51175211300748
 30
0.0
 10
13.28235893765163
 20
-11.51175211300748
 30
0.0
 10
13.28235893765163
 20
-11.51175211300748
 30
0.0
 10
13.28401258348455
 20
-11.51364691552437
 30
0.0
 10
13.28401258348455
 20
-11.51364691552437
 30
0.0
 10
13.28401258348455
 20
-11.51364691552437
 30
0.0
 10
13.58594075181185
 20
-11.25049329688356
 30
0.0
 10
13.58594075181185
 20
-11.25049329688356
 30
0.0
 10
13.58594075181185
 20
-11.25049329688356
 30
0.0
 10
13.64685003999106
 20
-11.32037705880185
 30
0.0
 10
13.64685003999106
 20
-11.32037705880185
 30
0.0
 10
13.64685003999106
 20
-11.32037705880185
 30
0.0
 10
13.21779784825805
 20
-11.69435939920315
 30
0.0
 10
13.21779784825805
 20
-11.69435939920315
 30
0.0
  0
HATCH
  5
294
330
1F
100
AcDbEntity
  8
Livello 1
100
AcDbHatch
 10
0.0
 20
0.0
 30
0.0
210
0.0
220
0.0
230
1.0
  2
SOLID
 70
     1
 71
     0
 91
        1
 92
        1
 93
        1
 72
     4
 94
        3
 73
     0
 74
     0
 95
       47
 96
       43
 40
0.0
 40
0.0
 40
0.0
 40
0.0
 40
1.0
 40
1.0
 40
1.0
 40
2.0
 40
2.0
 40
2.0
 40
3.0
 40
3.0
 40
3.0
 40
4.0
 40
4.0
 40
4.0
 40
5.0
 40
5.0
 40
5.0
 40
6.0
 40
6.0
 40
6.0
 40
7.0
 40
7.0
 40
7.0
 40
8.0
 40
8.0
 40
8.0
 40
9.0
 40
9.0
 40
9.0
 40
10.0
 40
10.0
 40
10.0
 40
11.0
 40
11.0
 40
11.0
 40
12.0
 40
12.0
 40
12.0
 40
13.0
 40
13.0
 40
13.0
 40
14.0
 40
14.0
 40
14.0
 40
14.0
 10
13.21779784825805
 20
-11.69435939920315
 10
13.21779784825805
 20
-11.69435939920315
 10
13.17273599931098
 20
-11.6426829669244
 10
13.17273599931098
 20
-11.6426829669244
 10
13.17273599931098
 20
-11.6426829669244
 10
13.1881700270849
 20
-11.51635131548029
 10
13.1881700270849
 20
-11.51635131548029
 10
13.22796087993954
 20
-11.21550835223085
 10
13.23540228618768
 20
-11.06752427566194
 10
13.15468369896827
 20
-10.97281860077242
 10
13.09963107311398
 20
-10.90961832409551
 10
13.01563964518359
 20
-10.88007663030949
 10
12.91531846465311
 20
-10.96749592824771
 10
12.85434027456419
 20
-11.02065375158511
 10
12.82870876415393
 20
-11.09353474657557
 10
12.81854573247245
 20
-11.14450493427985
 10
12.81854573247245
 20
-11.14450493427985
 10
12.73786159620789
 20
-11.11036403802102
 10
12.73786159620789
 20
-11.11036403802102
 10
12.75270995774932
 20
-11.03346950679024
 10
12.79549804367612
 20
-10.94897854001449
 10
12.8730471430491
 20
-10.88138576659389
 10
13.0178100553393
 20
-10.75522636992404
 10
13.15892116641513
 20
-10.79394924317825
 10
13.23650471674296
 20
-10.8829705105171
 10
13.33661919154432
 20
-10.99782999399533
 10
13.32759304137296
 20
-11.16912014152195
 10
13.29607041768293
 20
-11.41890678967999
 10
13.29607041768293
 20
-11.41890678967999
 10
13.28235893765163
 20
-11.51175211300748
 10
13.28235893765163
 20
-11.51175211300748
 10
13.28235893765163
 20
-11.51175211300748
 10
13.28401258348455
 20
-11.51364691552437
 10
13.28401258348455
 20
-11.51364691552437
 10
13.28401258348455
 20
-11.51364691552437
 10
13.58594075181185
 20
-11.25049329688356
 10
13.58594075181185
 20
-11.25049329688356
 10
13.58594075181185
 20
-11.25049329688356
 10
13.64685003999106
 20
-11.32037705880185
 10
13.64685003999106
 20
-11.32037705880185
 10
13.64685003999106
 20
-11.32037705880185
 10
13.21779784825805
 20
-11.69435939920315
 10
13.21779784825805
 20
-11.69435939920315
 97
        0
 97
        0
 75
     2
 76
     1
 98
        0
450
        0
451
        0
460
0.0
461
0.0
452
        0
462
0.0
453
        0
470

  0
ENDSEC
  0
SECTION
  2
OBJECTS
  0
DICTIONARY
  5
C
330
0
100
AcDbDictionary
281
     1
  3
ACAD_CIP_PREVIOUS_PRODUCT_INFO
350
163
  3
ACAD_COLOR
350
144
  3
ACAD_DETAILVIEWSTYLE
350
15F
  3
ACAD_GROUP
350
D
  3
ACAD_LAYOUT
350
1A
  3
ACAD_MATERIAL
350
3B
  3
ACAD_MLEADERSTYLE
350
137
  3
ACAD_MLINESTYLE
350
17
  3
ACAD_PLOTSETTINGS
350
19
  3
ACAD_PLOTSTYLENAME
350
E
  3
ACAD_SCALELIST
350
146
  3
ACAD_SECTIONVIEWSTYLE
350
15D
  3
ACAD_TABLESTYLE
350
136
  3
ACAD_VISUALSTYLE
350
2A
  3
ACDB_RECOMPOSE_DATA
350
29E
  3
AcDbVariableDictionary
350
295
  0
SUN
  5
3F
330
29
100
AcDbSun
 90
        1
290
     1
 63
     7
421
 16777215
 40
1.0
291
     1
 91
  2455826
 92
 54000000
292
     0
 70
     0
 71
   256
280
     1
1001
ACAD
1000
AcDbSavedByObjectVersion
1070
     0
  0
DICTIONARY
  5
164
330
1F
100
AcDbDictionary
280
     1
281
     1
  3
ACAD_SORTENTS
360
165
  0
XRECORD
  5
163
102
{ACAD_REACTORS
330
C
102
}
330
C
100
AcDbXrecord
280
     1
300
ACD
300
2019
300
ACD_F_S
  0
DICTIONARY
  5
144
102
{ACAD_REACTORS
330
C
102
}
330
C
100
AcDbDictionary
281
     1
  0
DICTIONARY
  5
15F
102
{ACAD_REACTORS
330
C
102
}
330
C
100
AcDbDictionary
281
     1
  3
Imperial24
350
160
  0
DICTIONARY
  5
D
102
{ACAD_REACTORS
330
C
102
}
330
C
100
AcDbDictionary
281
     1
  0
DICTIONARY
  5
1A
102
{ACAD_REACTORS
330
C
102
}
330
C
100
AcDbDictionary
281
     1
  3
Layout1
350
1E
  3
Layout2
350
26
  3
Model
350
22
  0
DICTIONARY
  5
3B
102
{ACAD_REACTORS
330
C
102
}
330
C
100
AcDbDictionary
281
     1
  3
ByBlock
350
3D
  3
ByLayer
350
3C
  3
Global
350
3E
  0
DICTIONARY
  5
137
102
{ACAD_REACTORS
330
C
102
}
330
C
100
AcDbDictionary
281
     1
  3
Standard
350
15C
  0
DICTIONARY
  5
17
102
{ACAD_REACTORS
330
C
102
}
330
C
100
AcDbDictionary
281
     1
  3
Standard
350
18
  0
DICTIONARY
  5
19
102
{ACAD_REACTORS
330
C
102
}
330
C
100
AcDbDictionary
281
     1
  0
ACDBDICTIONARYWDFLT
  5
E
102
{ACAD_REACTORS
330
C
102
}
330
C
100
AcDbDictionary
281
     1
  3
Normal
350
F
100
AcDbDictionaryWithDefault
340
F
  0
DICTIONARY
  5
146
102
{ACAD_REACTORS
330
C
102
}
330
C
100
AcDbDictionary
281
     1
  3
A0
350
147
  3
A1
350
148
  3
A2
350
149
  3
A3
350
14A
  3
A4
350
14B
  3
A5
350
14C
  3
A6
350
14D
  3
A7
350
14E
  3
A8
350
14F
  3
A9
350
150
  3
B0
350
151
  3
B1
350
152
  3
B2
350
153
  3
B3
350
154
  3
B4
350
155
  3
B5
350
156
  3
B6
350
157
  3
B7
350
158
  3
B8
350
159
  3
B9
350
15A
  3
C0
350
15B
  0
DICTIONARY
  5
15D
102
{ACAD_REACTORS
330
C
102
}
330
C
100
AcDbDictionary
281
     1
  3
Imperial24
350
15E
  0
DICTIONARY
  5
136
102
{ACAD_REACTORS
330
C
102
}
330
C
100
AcDbDictionary
281
     1
  3
Standard
350
145
  0
DICTIONARY
  5
2A
102
{ACAD_REACTORS
330
C
102
}
330
C
100
AcDbDictionary
281
     1
  3
2dWireframe
350
2F
  3
3D Hidden
350
31
  3
3dWireframe
350
30
  3
Basic
350
32
  3
Brighten
350
36
  3
ColorChange
350
3A
  3
Conceptual
350
34
  3
Dim
350
35
  3
EdgeColorOff
350
143
  3
Facepattern
350
39
  3
Flat
350
2B
  3
FlatWithEdges
350
2C
  3
Gouraud
350
2D
  3
GouraudWithEdges
350
2E
  3
Hidden
350
13B
  3
JitterOff
350
141
  3
Linepattern
350
38
  3
OverhangOff
350
142
  3
Realistic
350
33
  3
Shaded
350
140
  3
Shaded with edges
350
13F
  3
Shades of Gray
350
13C
  3
Sketchy
350
13D
  3
Thicken
350
37
  3
Wireframe
350
13A
  3
X-Ray
350
13E
  0
XRECORD
  5
29E
102
{ACAD_REACTORS
330
C
102
}
330
C
100
AcDbXrecord
280
     1
 90
        1
330
145
  0
DICTIONARY
  5
295
102
{ACAD_REACTORS
330
C
102
}
330
C
100
AcDbDictionary
281
     1
  3
CANNOSCALE
350
29A
  3
CMLEADERSTYLE
350
297
  3
CTABLESTYLE
350
296
  3
CVIEWDETAILSTYLE
350
298
  3
CVIEWSECTIONSTYLE
350
299
  0
SORTENTSTABLE
  5
165
102
{ACAD_REACTORS
330
164
102
}
330
164
100
AcDbSortentsTable
330
1F
  0
ACDBDETAILVIEWSTYLE
  5
160
102
{ACAD_XDICTIONARY
360
2A1
102
}
102
{ACAD_REACTORS
330
15F
102
}
330
15F
100
AcDbModelDocViewStyle
 70
     0
  3
Imperial24
290
     0
100
AcDbDetailViewStyle
 70
     0
 71
     0
 90
        3
 71
     1
340
11
 62
   256
 40
0.24
340
0
 62
   256
 40
0.24
300

 40
0.36
280
     3
 71
     2
340
16
 90
       25
 62
   256
 71
     3
340
11
 62
   256
 40
0.24
 90
        1
 40
0.75
 90
        1
300
%<\AcVar ViewType \f "%tc1">% %<\AcVar ViewDetailId>%\PSCALA %<\AcVar ViewScale \f "%sn">%
 71
     4
340
16
 90
       25
 62
   256
340
16
 90
       25
 62
   256
280
     0
  0
LAYOUT
  5
1E
102
{ACAD_REACTORS
330
1A
102
}
330
1A
100
AcDbPlotSettings
  1

  2
none_device
  4

  6

 40
0.0
 41
0.0
 42
0.0
 43
0.0
 44
0.0
 45
0.0
 46
0.0
 47
0.0
 48
0.0
 49
0.0
140
0.0
141
0.0
142
1.0
143
1.0
 70
   688
 72
     0
 73
     0
 74
     5
  7

 75
    16
147
1.0
 76
     0
 77
     2
 78
   300
148
0.0
149
0.0
100
AcDbLayout
  1
Layout1
 70
     1
 71
     1
 10
0.0
 20
0.0
 11
12.0
 21
9.0
 12
0.0
 22
0.0
 32
0.0
 14
1.000000000000000E+20
 24
1.000000000000000E+20
 34
1.000000000000000E+20
 15
-1.000000000000000E+20
 25
-1.000000000000000E+20
 35
-1.000000000000000E+20
146
0.0
 13
0.0
 23
0.0
 33
0.0
 16
1.0
 26
0.0
 36
0.0
 17
0.0
 27
1.0
 37
0.0
 76
     0
330
1B
  0
LAYOUT
  5
26
102
{ACAD_REACTORS
330
1A
102
}
330
1A
100
AcDbPlotSettings
  1

  2
none_device
  4

  6

 40
0.0
 41
0.0
 42
0.0
 43
0.0
 44
0.0
 45
0.0
 46
0.0
 47
0.0
 48
0.0
 49
0.0
140
0.0
141
0.0
142
1.0
143
1.0
 70
   688
 72
     0
 73
     0
 74
     5
  7

 75
    16
147
1.0
 76
     0
 77
     2
 78
   300
148
0.0
149
0.0
100
AcDbLayout
  1
Layout2
 70
     1
 71
     2
 10
0.0
 20
0.0
 11
0.0
 21
0.0
 12
0.0
 22
0.0
 32
0.0
 14
0.0
 24
0.0
 34
0.0
 15
0.0
 25
0.0
 35
0.0
146
0.0
 13
0.0
 23
0.0
 33
0.0
 16
1.0
 26
0.0
 36
0.0
 17
0.0
 27
1.0
 37
0.0
 76
     0
330
23
  0
LAYOUT
  5
22
102
{ACAD_REACTORS
330
1A
102
}
330
1A
100
AcDbPlotSettings
  1

  2
none_device
  4

  6

 40
0.0
 41
0.0
 42
0.0
 43
0.0
 44
0.0
 45
0.0
 46
0.0
 47
0.0
 48
0.0
 49
0.0
140
0.0
141
0.0
142
1.0
143
1.0
 70
  1712
 72
     0
 73
     0
 74
     0
  7

 75
     0
147
1.0
 76
     0
 77
     2
 78
   300
148
0.0
149
0.0
100
AcDbLayout
  1
Model
 70
     1
 71
     0
 10
0.0
 20
0.0
 11
12.0
 21
9.0
 12
0.0
 22
0.0
 32
0.0
 14
1.000000000000000E+20
 24
1.000000000000000E+20
 34
1.000000000000000E+20
 15
-1.000000000000000E+20
 25
-1.000000000000000E+20
 35
-1.000000000000000E+20
146
0.0
 13
0.0
 23
0.0
 33
0.0
 16
1.0
 26
0.0
 36
0.0
 17
0.0
 27
1.0
 37
0.0
 76
     0
330
1F
331
29
  0
MATERIAL
  5
3D
102
{ACAD_REACTORS
330
3B
102
}
330
3B
100
AcDbMaterial
  1
ByBlock
  0
MATERIAL
  5
3C
102
{ACAD_REACTORS
330
3B
102
}
330
3B
100
AcDbMaterial
  1
ByLayer
  0
MATERIAL
  5
3E
102
{ACAD_REACTORS
330
3B
102
}
330
3B
100
AcDbMaterial
  1
Global
  0
MLEADERSTYLE
  5
15C
102
{ACAD_REACTORS
330
137
102
}
330
137
100
AcDbMLeaderStyle
179
     2
170
     2
171
     1
172
     0
 90
        2
 40
0.0
 41
0.0
173
     1
 91
-1056964608
340
14
 92
       -2
290
     1
 42
0.09
291
     1
 43
0.36
  3
Standard
 44
0.18
300

342
11
174
     1
178
     6
175
     1
176
     0
 93
-1056964608
 45
0.18
292
     0
297
     0
 46
0.18
 94
-1056964608
 47
1.0
 49
1.0
140
1.0
293
     1
141
0.0
294
     1
177
     0
142
1.0
295
     0
296
     0
143
0.125
271
     0
272
     9
273
     9
298
     0
  0
MLINESTYLE
  5
18
102
{ACAD_REACTORS
330
17
102
}
330
17
100
AcDbMlineStyle
  2
STANDARD
 70
     0
  3

 62
   256
 51
90.0
 52
90.0
 71
     2
 49
0.5
 62
   256
  6
BYLAYER
 49
-0.5
 62
   256
  6
BYLAYER
  0
ACDBPLACEHOLDER
  5
F
102
{ACAD_REACTORS
330
E
102
}
330
E
  0
SCALE
  5
147
102
{ACAD_REACTORS
330
146
102
}
330
146
100
AcDbScale
 70
     0
300
1:1
140
1.0
141
1.0
290
     1
  0
SCALE
  5
148
102
{ACAD_REACTORS
330
146
102
}
330
146
100
AcDbScale
 70
     0
300
1.10
140
1.0
141
10.0
290
     0
  0
SCALE
  5
149
102
{ACAD_REACTORS
330
146
102
}
330
146
100
AcDbScale
 70
     0
300
1.50
140
1.0
141
50.0
290
     0
  0
SCALE
  5
14A
102
{ACAD_REACTORS
330
146
102
}
330
146
100
AcDbScale
 70
     0
300
1:100
140
1.0
141
100.0
290
     0
  0
SCALE
  5
14B
102
{ACAD_REACTORS
330
146
102
}
330
146
100
AcDbScale
 70
     0
300
1.200
140
1.0
141
200.0
290
     0
  0
SCALE
  5
14C
102
{ACAD_REACTORS
330
146
102
}
330
146
100
AcDbScale
 70
     0
300
1/128" = 1'-0"
140
0.0078125
141
12.0
290
     0
  0
SCALE
  5
14D
102
{ACAD_REACTORS
330
146
102
}
330
146
100
AcDbScale
 70
     0
300
1/64" = 1'-0"
140
0.015625
141
12.0
290
     0
  0
SCALE
  5
14E
102
{ACAD_REACTORS
330
146
102
}
330
146
100
AcDbScale
 70
     0
300
1/32" = 1'-0"
140
0.03125
141
12.0
290
     0
  0
SCALE
  5
14F
102
{ACAD_REACTORS
330
146
102
}
330
146
100
AcDbScale
 70
     0
300
1/16" = 1'-0"
140
0.0625
141
12.0
290
     0
  0
SCALE
  5
150
102
{ACAD_REACTORS
330
146
102
}
330
146
100
AcDbScale
 70
     0
300
3/32" = 1'-0"
140
0.09375
141
12.0
290
     0
  0
SCALE
  5
151
102
{ACAD_REACTORS
330
146
102
}
330
146
100
AcDbScale
 70
     0
300
1/8" = 1'-0"
140
0.125
141
12.0
290
     0
  0
SCALE
  5
152
102
{ACAD_REACTORS
330
146
102
}
330
146
100
AcDbScale
 70
     0
300
3/16" = 1'-0"
140
0.1875
141
12.0
290
     0
  0
SCALE
  5
153
102
{ACAD_REACTORS
330
146
102
}
330
146
100
AcDbScale
 70
     0
300
1/4" = 1'-0"
140
0.25
141
12.0
290
     0
  0
SCALE
  5
154
102
{ACAD_REACTORS
330
146
102
}
330
146
100
AcDbScale
 70
     0
300
3/8" = 1'-0"
140
0.375
141
12.0
290
     0
  0
SCALE
  5
155
102
{ACAD_REACTORS
330
146
102
}
330
146
100
AcDbScale
 70
     0
300
1/2" = 1'-0"
140
0.5
141
12.0
290
     0
  0
SCALE
  5
156
102
{ACAD_REACTORS
330
146
102
}
330
146
100
AcDbScale
 70
     0
300
3/4" = 1'-0"
140
0.75
141
12.0
290
     0
  0
SCALE
  5
157
102
{ACAD_REACTORS
330
146
102
}
330
146
100
AcDbScale
 70
     0
300
1" = 1'-0"
140
1.0
141
12.0
290
     0
  0
SCALE
  5
158
102
{ACAD_REACTORS
330
146
102
}
330
146
100
AcDbScale
 70
     0
300
1-1/2" = 1'-0"
140
1.5
141
12.0
290
     0
  0
SCALE
  5
159
102
{ACAD_REACTORS
330
146
102
}
330
146
100
AcDbScale
 70
     0
300
3" = 1'-0"
140
3.0
141
12.0
290
     0
  0
SCALE
  5
15A
102
{ACAD_REACTORS
330
146
102
}
330
146
100
AcDbScale
 70
     0
300
6" = 1'-0"
140
6.0
141
12.0
290
     0
  0
SCALE
  5
15B
102
{ACAD_REACTORS
330
146
102
}
330
146
100
AcDbScale
 70
     0
300
1'-0" = 1'-0"
140
12.0
141
12.0
290
     0
  0
ACDBSECTIONVIEWSTYLE
  5
15E
102
{ACAD_XDICTIONARY
360
29F
102
}
102
{ACAD_REACTORS
330
15D
102
}
330
15D
100
AcDbModelDocViewStyle
 70
     0
  3
Imperial24
290
     0
100
AcDbSectionViewStyle
 70
     0
 71
     0
 90
       78
 71
     1
340
11
 62
   256
 40
0.24
340
0
340
0
 62
   256
 40
0.24
300
I, O, Q, S, X, Z
 40
0.48
 90
        3
 40
0.18
 90
        1
 71
     2
340
16
 90
       25
 62
   256
340
16
 90
       50
 62
   256
 40
0.24
 40
0.0
 40
0.24
 71
     3
340
11
 62
   256
 40
0.24
 90
        1
 40
0.75
 90
        1
300
%<\AcVar ViewType \f "%tc1">% %<\AcVar ViewSectionStartId>%-%<\AcVar ViewSectionEndId>%\PSCALA %<\AcVar ViewScale \f "%sn">%
 71
     4
 62
   256
 62
   257
300
ANSI31
 40
1.0
 90
        0
290
     0
290
     0
 90
        6
 40
0.0
 40
1.570796326794896
 40
0.2617993877991494
 40
1.308996938995747
 40
-0.2617993877991494
 40
1.832595714594046
  0
TABLESTYLE
  5
145
102
{ACAD_XDICTIONARY
360
29C
102
}
102
{ACAD_REACTORS
330
136
102
}
330
136
100
AcDbTableStyle
280
     0
  3
Standard
 70
     0
 71
     0
 40
0.06
 41
0.06
280
     0
281
     0
  7
Standard
140
0.18
170
     2
 62
     0
 63
     7
283
     0
 90
      512
 91
        0
  1

274
    -2
284
     1
 64
     0
275
    -2
285
     1
 65
     0
276
    -2
286
     1
 66
     0
277
    -2
287
     1
 67
     0
278
    -2
288
     1
 68
     0
279
    -2
289
     1
 69
     0
  7
Standard
140
0.25
170
     5
 62
     0
 63
     7
283
     0
 90
      512
 91
        0
  1

274
    -2
284
     1
 64
     0
275
    -2
285
     1
 65
     0
276
    -2
286
     1
 66
     0
277
    -2
287
     1
 67
     0
278
    -2
288
     1
 68
     0
279
    -2
289
     1
 69
     0
  7
Standard
140
0.18
170
     5
 62
     0
 63
     7
283
     0
 90
      512
 91
        0
  1

274
    -2
284
     1
 64
     0
275
    -2
285
     1
 65
     0
276
    -2
286
     1
 66
     0
277
    -2
287
     1
 67
     0
278
    -2
288
     1
 68
     0
279
    -2
289
     1
 69
     0
  0
VISUALSTYLE
  5
2F
102
{ACAD_REACTORS
330
2A
102
}
330
2A
100
AcDbVisualStyle
  2
2dWireframe
 70
     4
177
     3
291
     0
 70
    58
 90
        0
176
     1
 90
        2
176
     1
 90
        0
176
     1
 90
        0
176
     1
 40
0.6
176
     1
 40
30.0
176
     1
 62
     7
420
 16777215
176
     1
 90
        1
176
     1
 90
        4
176
     1
 62
     7
176
     1
 62
   257
176
     1
 90
        1
176
     1
 90
        1
176
     1
 40
1.0
176
     1
 90
        0
176
     1
 62
   257
176
     1
 40
1.0
176
     1
 90
        1
176
     1
 90
        6
176
     1
 90
        2
176
     1
 62
     7
176
     1
 90
        5
176
     1
 90
        0
176
     1
 90
        0
176
     1
290
     0
176
     1
 90
        1
176
     1
 40
0.0
176
     1
 90
        0
176
     1
290
     1
176
     1
290
     1
176
     1
290
     0
176
     1
290
     0
176
     1
290
     0
176
     1
290
     0
176
     1
290
     0
176
     1
290
     0
176
     1
290
     0
176
     1
 90
       50
176
     1
 40
0.0
176
     1
 40
1.0
176
     1
 90
        0
176
     1
 62
    18
420
        0
176
     1
 90
       50
176
     1
 90
        3
176
     1
 62
     5
420
      255
176
     1
290
     0
176
     1
 90
       50
176
     1
 90
       50
176
     1
 90
       50
176
     1
290
     0
176
     1
 90
       50
176
     1
 62
   256
176
     0
 40
1.0
176
     0
 90
        2
176
     1
  1
strokes_ogs.tif
176
     1
290
     0
176
     1
 40
1.0
176
     1
 40
1.0
176
     1
1001
ACAD
1000
AcDbSavedByObjectVersion
1070
     0
  0
VISUALSTYLE
  5
31
102
{ACAD_REACTORS
330
2A
102
}
330
2A
100
AcDbVisualStyle
  2
3D Hidden
 70
     6
177
     3
291
     0
 70
    58
 90
        1
176
     1
 90
        2
176
     1
 90
        2
176
     1
 90
        0
176
     1
 40
0.6
176
     1
 40
30.0
176
     1
 62
     7
420
 16777215
176
     1
 90
        2
176
     1
 90
        2
176
     1
 62
     7
176
     1
 62
   257
176
     1
 90
        2
176
     1
 90
        1
176
     1
 40
40.0
176
     1
 90
        0
176
     1
 62
   257
176
     1
 40
1.0
176
     1
 90
        1
176
     1
 90
        6
176
     1
 90
        2
176
     1
 62
     7
176
     1
 90
        3
176
     1
 90
        0
176
     1
 90
        0
176
     1
290
     0
176
     1
 90
        1
176
     1
 40
0.0
176
     1
 90
        0
176
     1
290
     0
176
     1
290
     1
176
     1
290
     1
176
     1
290
     0
176
     1
290
     0
176
     1
290
     0
176
     1
290
     0
176
     1
290
     0
176
     1
290
     0
176
     1
 90
       50
176
     1
 40
0.0
176
     1
 40
1.0
176
     1
 90
        0
176
     1
 62
    18
420
        0
176
     1
 90
       50
176
     1
 90
        3
176
     1
 62
     5
420
      255
176
     1
290
     0
176
     1
 90
       50
176
     1
 90
       50
176
     1
 90
       50
176
     1
290
     0
176
     1
 90
       50
176
     1
 62
   256
176
     0
 40
1.0
176
     0
 90
        2
176
     1
  1
strokes_ogs.tif
176
     1
290
     0
176
     1
 40
1.0
176
     1
 40
1.0
176
     1
1001
ACAD
1000
AcDbSavedByObjectVersion
1070
     0
  0
VISUALSTYLE
  5
30
102
{ACAD_REACTORS
330
2A
102
}
330
2A
100
AcDbVisualStyle
  2
3dWireframe
 70
     5
177
     3
291
     0
 70
    58
 90
        0
176
     1
 90
        2
176
     1
 90
        0
176
     1
 90
        0
176
     1
 40
0.6
176
     1
 40
30.0
176
     1
 62
     7
420
 16777215
176
     1
 90
        1
176
     1
 90
        4
176
     1
 62
     7
176
     1
 62
   257
176
     1
 90
        1
176
     1
 90
        1
176
     1
 40
1.0
176
     1
 90
        0
176
     1
 62
   257
176
     1
 40
1.0
176
     1
 90
        1
176
     1
 90
        6
176
     1
 90
        2
176
     1
 62
     7
176
     1
 90
        5
176
     1
 90
        0
176
     1
 90
        0
176
     1
290
     0
176
     1
 90
        1
176
     1
 40
0.0
176
     1
 90
        0
176
     1
290
     0
176
     1
290
     1
176
     1
290
     1
176
     1
290
     0
176
     1
290
     0
176
     1
290
     0
176
     1
290
     0
176
     1
290
     0
176
     1
290
     0
176
     1
 90
       50
176
     1
 40
0.0
176
     1
 40
1.0
176
     1
 90
        0
176
     1
 62
    18
420
        0
176
     1
 90
       50
176
     1
 90
        3
176
     1
 62
     5
420
      255
176
     1
290
     0
176
     1
 90
       50
176
     1
 90
       50
176
     1
 90
       50
176
     1
290
     0
176
     1
 90
       50
176
     1
 62
   256
176
     0
 40
1.0
176
     0
 90
        2
176
     1
  1
strokes_ogs.tif
176
     1
290
     0
176
     1
 40
1.0
176
     1
 40
1.0
176
     1
1001
ACAD
1000
AcDbSavedByObjectVersion
1070
     0
  0
VISUALSTYLE
  5
32
102
{ACAD_REACTORS
330
2A
102
}
330
2A
100
AcDbVisualStyle
  2
Basic
 70
     7
177
     3
291
     1
 70
    58
 90
        1
176
     1
 90
        0
176
     1
 90
        1
176
     1
 90
        0
176
     1
 40
0.6
176
     1
 40
30.0
176
     1
 62
     7
420
 16777215
176
     1
 90
        0
176
     1
 90
        4
176
     1
 62
     7
176
     1
 62
   257
176
     1
 90
        1
176
     1
 90
        1
176
     1
 40
1.0
176
     1
 90
        8
176
     1
 62
     7
176
     1
 40
1.0
176
     1
 90
        1
176
     1
 90
        6
176
     1
 90
        2
176
     1
 62
     7
176
     1
 90
        5
176
     1
 90
        0
176
     1
 90
        0
176
     1
290
     0
176
     1
 90
        1
176
     1
 40
0.0
176
     1
 90
        0
176
     1
290
     0
176
     1
290
     1
176
     1
290
     1
176
     1
290
     0
176
     1
290
     0
176
     1
290
     0
176
     1
290
     0
176
     1
290
     0
176
     1
290
     0
176
     1
 90
       50
176
     1
 40
0.0
176
     1
 40
1.0
176
     1
 90
        0
176
     1
 62
    18
420
        0
176
     1
 90
       50
176
     1
 90
        3
176
     1
 62
     5
420
      255
176
     1
290
     0
176
     1
 90
       50
176
     1
 90
       50
176
     1
 90
       50
176
     1
290
     0
176
     1
 90
       50
176
     1
 62
   256
176
     0
 40
1.0
176
     0
 90
        2
176
     1
  1
strokes_ogs.tif
176
     1
290
     0
176
     1
 40
1.0
176
     1
 40
1.0
176
     1
1001
ACAD
1000
AcDbSavedByObjectVersion
1070
     0
  0
VISUALSTYLE
  5
36
102
{ACAD_REACTORS
330
2A
102
}
330
2A
100
AcDbVisualStyle
  2
Brighten
 70
    12
177
     3
291
     1
 70
    58
 90
        2
176
     1
 90
        2
176
     1
 90
        0
176
     1
 90
        0
176
     1
 40
0.6
176
     1
 40
30.0
176
     1
 62
     7
420
 16777215
176
     1
 90
        1
176
     1
 90
        4
176
     1
 62
     7
176
     1
 62
   257
176
     1
 90
        1
176
     1
 90
        1
176
     1
 40
1.0
176
     1
 90
        8
176
     1
 62
     7
176
     1
 40
1.0
176
     1
 90
        1
176
     1
 90
        6
176
     1
 90
        2
176
     1
 62
     7
176
     1
 90
        5
176
     1
 90
        0
176
     1
 90
        0
176
     1
290
     0
176
     1
 90
        1
176
     1
 40
50.0
176
     1
 90
        0
176
     1
290
     0
176
     1
290
     1
176
     1
290
     1
176
     1
290
     0
176
     1
290
     0
176
     1
290
     0
176
     1
290
     0
176
     1
290
     0
176
     1
290
     0
176
     1
 90
       50
176
     1
 40
0.0
176
     1
 40
1.0
176
     1
 90
        0
176
     1
 62
    18
420
        0
176
     1
 90
       50
176
     1
 90
        3
176
     1
 62
     5
420
      255
176
     1
290
     0
176
     1
 90
       50
176
     1
 90
       50
176
     1
 90
       50
176
     1
290
     0
176
     1
 90
       50
176
     1
 62
   256
176
     0
 40
1.0
176
     0
 90
        2
176
     1
  1
strokes_ogs.tif
176
     1
290
     0
176
     1
 40
1.0
176
     1
 40
1.0
176
     1
1001
ACAD
1000
AcDbSavedByObjectVersion
1070
     0
  0
VISUALSTYLE
  5
3A
102
{ACAD_REACTORS
330
2A
102
}
330
2A
100
AcDbVisualStyle
  2
ColorChange
 70
    16
177
     3
291
     1
 70
    58
 90
        2
176
     1
 90
        2
176
     1
 90
        3
176
     1
 90
        0
176
     1
 40
0.6
176
     1
 40
30.0
176
     1
 62
     8
420
  8421504
176
     1
 90
        1
176
     1
 90
        4
176
     1
 62
     7
176
     1
 62
   257
176
     1
 90
        1
176
     1
 90
        1
176
     1
 40
1.0
176
     1
 90
        8
176
     1
 62
     8
420
  8421504
176
     1
 40
1.0
176
     1
 90
        1
176
     1
 90
        6
176
     1
 90
        2
176
     1
 62
     7
176
     1
 90
        5
176
     1
 90
        0
176
     1
 90
        0
176
     1
290
     0
176
     1
 90
        1
176
     1
 40
0.0
176
     1
 90
        0
176
     1
290
     0
176
     1
290
     1
176
     1
290
     1
176
     1
290
     0
176
     1
290
     0
176
     1
290
     0
176
     1
290
     0
176
     1
290
     0
176
     1
290
     0
176
     1
 90
       50
176
     1
 40
0.0
176
     1
 40
1.0
176
     1
 90
        0
176
     1
 62
    18
420
        0
176
     1
 90
       50
176
     1
 90
        3
176
     1
 62
     5
420
      255
176
     1
290
     0
176
     1
 90
       50
176
     1
 90
       50
176
     1
 90
       50
176
     1
290
     0
176
     1
 90
       50
176
     1
 62
   256
176
     0
 40
1.0
176
     0
 90
        2
176
     1
  1
strokes_ogs.tif
176
     1
290
     0
176
     1
 40
1.0
176
     1
 40
1.0
176
     1
1001
ACAD
1000
AcDbSavedByObjectVersion
1070
     0
  0
VISUALSTYLE
  5
34
102
{ACAD_REACTORS
330
2A
102
}
330
2A
100
AcDbVisualStyle
  2
Conceptual
 70
     9
177
     3
291
     0
 70
    58
 90
        3
176
     1
 90
        2
176
     1
 90
        0
176
     1
 90
        0
176
     1
 40
0.6
176
     1
 40
30.0
176
     1
 62
     7
420
 16777215
176
     1
 90
        2
176
     1
 90
        2
176
     1
 62
     7
176
     1
 62
   257
176
     1
 90
        1
176
     1
 90
        1
176
     1
 40
40.0
176
     1
 90
        8
176
     1
 62
     7
176
     1
 40
1.0
176
     1
 90
        1
176
     1
 90
        6
176
     1
 90
        2
176
     1
 62
     7
176
     1
 90
        3
176
     1
 90
        0
176
     1
 90
        0
176
     1
290
     0
176
     1
 90
        1
176
     1
 40
0.0
176
     1
 90
        0
176
     1
290
     0
176
     1
290
     1
176
     1
290
     1
176
     1
290
     0
176
     1
290
     0
176
     1
290
     0
176
     1
290
     0
176
     1
290
     0
176
     1
290
     0
176
     1
 90
       50
176
     1
 40
0.0
176
     1
 40
1.0
176
     1
 90
        0
176
     1
 62
    18
420
        0
176
     1
 90
       50
176
     1
 90
        3
176
     1
 62
     5
420
      255
176
     1
290
     0
176
     1
 90
       50
176
     1
 90
       50
176
     1
 90
       50
176
     1
290
     0
176
     1
 90
       50
176
     1
 62
   256
176
     0
 40
1.0
176
     0
 90
        2
176
     1
  1
strokes_ogs.tif
176
     1
290
     0
176
     1
 40
1.0
176
     1
 40
1.0
176
     1
1001
ACAD
1000
AcDbSavedByObjectVersion
1070
     0
  0
VISUALSTYLE
  5
35
102
{ACAD_REACTORS
330
2A
102
}
330
2A
100
AcDbVisualStyle
  2
Dim
 70
    11
177
     3
291
     1
 70
    58
 90
        2
176
     1
 90
        2
176
     1
 90
        0
176
     1
 90
        0
176
     1
 40
0.6
176
     1
 40
30.0
176
     1
 62
     7
420
 16777215
176
     1
 90
        1
176
     1
 90
        4
176
     1
 62
     7
176
     1
 62
   257
176
     1
 90
        1
176
     1
 90
        1
176
     1
 40
1.0
176
     1
 90
        8
176
     1
 62
     7
176
     1
 40
1.0
176
     1
 90
        1
176
     1
 90
        6
176
     1
 90
        2
176
     1
 62
     7
176
     1
 90
        5
176
     1
 90
        0
176
     1
 90
        0
176
     1
290
     0
176
     1
 90
        1
176
     1
 40
-50.0
176
     1
 90
        0
176
     1
290
     0
176
     1
290
     1
176
     1
290
     1
176
     1
290
     0
176
     1
290
     0
176
     1
290
     0
176
     1
290
     0
176
     1
290
     0
176
     1
290
     0
176
     1
 90
       50
176
     1
 40
0.0
176
     1
 40
1.0
176
     1
 90
        0
176
     1
 62
    18
420
        0
176
     1
 90
       50
176
     1
 90
        3
176
     1
 62
     5
420
      255
176
     1
290
     0
176
     1
 90
       50
176
     1
 90
       50
176
     1
 90
       50
176
     1
290
     0
176
     1
 90
       50
176
     1
 62
   256
176
     0
 40
1.0
176
     0
 90
        2
176
     1
  1
strokes_ogs.tif
176
     1
290
     0
176
     1
 40
1.0
176
     1
 40
1.0
176
     1
1001
ACAD
1000
AcDbSavedByObjectVersion
1070
     0
  0
VISUALSTYLE
  5
143
102
{ACAD_REACTORS
330
2A
102
}
330
2A
100
AcDbVisualStyle
  2
EdgeColorOff
 70
    22
177
     3
291
     1
 70
    58
 90
        2
176
     0
 90
        2
176
     0
 90
        0
176
     0
 90
        0
176
     0
 40
0.6
176
     0
 40
30.0
176
     0
 62
     7
420
 16777215
176
     0
 90
        1
176
     0
 90
        4
176
     0
 62
     7
176
     0
 62
   257
176
     0
 90
        1
176
     0
 90
        1
176
     0
 40
1.0
176
     0
 90
        8
176
     2
 62
     7
176
     0
 40
1.0
176
     0
 90
        1
176
     0
 90
        6
176
     0
 90
        2
176
     0
 62
     7
176
     0
 90
        5
176
     0
 90
        0
176
     0
 90
        0
176
     0
290
     0
176
     0
 90
        1
176
     0
 40
0.0
176
     0
 90
        0
176
     0
290
     0
176
     1
290
     1
176
     1
290
     1
176
     1
290
     0
176
     1
290
     0
176
     1
290
     0
176
     1
290
     0
176
     1
290
     0
176
     1
290
     0
176
     1
 90
       50
176
     0
 40
0.0
176
     0
 40
1.0
176
     0
 90
        0
176
     0
 62
    18
420
        0
176
     0
 90
       50
176
     0
 90
        3
176
     0
 62
     5
420
      255
176
     0
290
     0
176
     1
 90
       50
176
     0
 90
       50
176
     0
 90
       50
176
     0
290
     0
176
     1
 90
       50
176
     0
 62
   256
176
     0
 40
1.0
176
     0
 90
        2
176
     0
  1
strokes_ogs.tif
176
     0
290
     0
176
     1
 40
1.0
176
     0
 40
1.0
176
     0
1001
ACAD
1000
AcDbSavedByObjectVersion
1070
     0
  0
VISUALSTYLE
  5
39
102
{ACAD_REACTORS
330
2A
102
}
330
2A
100
AcDbVisualStyle
  2
Facepattern
 70
    15
177
     3
291
     1
 70
    58
 90
        2
176
     1
 90
        2
176
     1
 90
        0
176
     1
 90
        0
176
     1
 40
0.6
176
     1
 40
30.0
176
     1
 62
     7
420
 16777215
176
     1
 90
        1
176
     1
 90
        4
176
     1
 62
     7
176
     1
 62
   257
176
     1
 90
        1
176
     1
 90
        1
176
     1
 40
1.0
176
     1
 90
        8
176
     1
 62
     7
176
     1
 40
1.0
176
     1
 90
        1
176
     1
 90
        6
176
     1
 90
        2
176
     1
 62
     7
176
     1
 90
        5
176
     1
 90
        0
176
     1
 90
        0
176
     1
290
     0
176
     1
 90
        1
176
     1
 40
0.0
176
     1
 90
        0
176
     1
290
     0
176
     1
290
     1
176
     1
290
     1
176
     1
290
     0
176
     1
290
     0
176
     1
290
     0
176
     1
290
     0
176
     1
290
     0
176
     1
290
     0
176
     1
 90
       50
176
     1
 40
0.0
176
     1
 40
1.0
176
     1
 90
        0
176
     1
 62
    18
420
        0
176
     1
 90
       50
176
     1
 90
        3
176
     1
 62
     5
420
      255
176
     1
290
     0
176
     1
 90
       50
176
     1
 90
       50
176
     1
 90
       50
176
     1
290
     0
176
     1
 90
       50
176
     1
 62
   256
176
     0
 40
1.0
176
     0
 90
        2
176
     1
  1
strokes_ogs.tif
176
     1
290
     0
176
     1
 40
1.0
176
     1
 40
1.0
176
     1
1001
ACAD
1000
AcDbSavedByObjectVersion
1070
     0
  0
VISUALSTYLE
  5
2B
102
{ACAD_REACTORS
330
2A
102
}
330
2A
100
AcDbVisualStyle
  2
Flat
 70
     0
177
     3
291
     1
 70
    58
 90
        2
176
     1
 90
        1
176
     1
 90
        1
176
     1
 90
        2
176
     1
 40
0.6
176
     1
 40
30.0
176
     1
 62
     7
420
 16777215
176
     1
 90
        0
176
     1
 90
        4
176
     1
 62
     7
176
     1
 62
   257
176
     1
 90
        1
176
     1
 90
        1
176
     1
 40
1.0
176
     1
 90
        8
176
     1
 62
     7
176
     1
 40
1.0
176
     1
 90
        1
176
     1
 90
        6
176
     1
 90
        2
176
     1
 62
     7
176
     1
 90
        5
176
     1
 90
        0
176
     1
 90
        0
176
     1
290
     0
176
     1
 90
       13
176
     1
 40
0.0
176
     1
 90
        0
176
     1
290
     0
176
     1
290
     1
176
     1
290
     1
176
     1
290
     0
176
     1
290
     0
176
     1
290
     0
176
     1
290
     0
176
     1
290
     0
176
     1
290
     0
176
     1
 90
       50
176
     1
 40
0.0
176
     1
 40
1.0
176
     1
 90
        0
176
     1
 62
    18
420
        0
176
     1
 90
       50
176
     1
 90
        3
176
     1
 62
     5
420
      255
176
     1
290
     0
176
     1
 90
       50
176
     1
 90
       50
176
     1
 90
       50
176
     1
290
     0
176
     1
 90
       50
176
     1
 62
   256
176
     0
 40
1.0
176
     0
 90
        2
176
     1
  1
strokes_ogs.tif
176
     1
290
     0
176
     1
 40
1.0
176
     1
 40
1.0
176
     1
1001
ACAD
1000
AcDbSavedByObjectVersion
1070
     0
  0
VISUALSTYLE
  5
2C
102
{ACAD_REACTORS
330
2A
102
}
330
2A
100
AcDbVisualStyle
  2
FlatWithEdges
 70
     1
177
     3
291
     1
 70
    58
 90
        2
176
     1
 90
        1
176
     1
 90
        1
176
     1
 90
        2
176
     1
 40
0.6
176
     1
 40
30.0
176
     1
 62
     7
420
 16777215
176
     1
 90
        1
176
     1
 90
        4
176
     1
 62
     7
176
     1
 62
   257
176
     1
 90
        1
176
     1
 90
        1
176
     1
 40
1.0
176
     1
 90
        0
176
     1
 62
   257
176
     1
 40
1.0
176
     1
 90
        1
176
     1
 90
        6
176
     1
 90
        2
176
     1
 62
     7
176
     1
 90
        5
176
     1
 90
        0
176
     1
 90
        0
176
     1
290
     0
176
     1
 90
       13
176
     1
 40
0.0
176
     1
 90
        0
176
     1
290
     0
176
     1
290
     1
176
     1
290
     1
176
     1
290
     0
176
     1
290
     0
176
     1
290
     0
176
     1
290
     0
176
     1
290
     0
176
     1
290
     0
176
     1
 90
       50
176
     1
 40
0.0
176
     1
 40
1.0
176
     1
 90
        0
176
     1
 62
    18
420
        0
176
     1
 90
       50
176
     1
 90
        3
176
     1
 62
     5
420
      255
176
     1
290
     0
176
     1
 90
       50
176
     1
 90
       50
176
     1
 90
       50
176
     1
290
     0
176
     1
 90
       50
176
     1
 62
   256
176
     0
 40
1.0
176
     0
 90
        2
176
     1
  1
strokes_ogs.tif
176
     1
290
     0
176
     1
 40
1.0
176
     1
 40
1.0
176
     1
1001
ACAD
1000
AcDbSavedByObjectVersion
1070
     0
  0
VISUALSTYLE
  5
2D
102
{ACAD_REACTORS
330
2A
102
}
330
2A
100
AcDbVisualStyle
  2
Gouraud
 70
     2
177
     3
291
     1
 70
    58
 90
        2
176
     1
 90
        2
176
     1
 90
        1
176
     1
 90
        2
176
     1
 40
0.6
176
     1
 40
30.0
176
     1
 62
     7
420
 16777215
176
     1
 90
        0
176
     1
 90
        4
176
     1
 62
     7
176
     1
 62
   257
176
     1
 90
        1
176
     1
 90
        1
176
     1
 40
1.0
176
     1
 90
        0
176
     1
 62
     7
176
     1
 40
1.0
176
     1
 90
        1
176
     1
 90
        6
176
     1
 90
        2
176
     1
 62
     7
176
     1
 90
        5
176
     1
 90
        0
176
     1
 90
        0
176
     1
290
     0
176
     1
 90
       13
176
     1
 40
0.0
176
     1
 90
        0
176
     1
290
     0
176
     1
290
     1
176
     1
290
     1
176
     1
290
     0
176
     1
290
     0
176
     1
290
     0
176
     1
290
     0
176
     1
290
     0
176
     1
290
     0
176
     1
 90
       50
176
     1
 40
0.0
176
     1
 40
1.0
176
     1
 90
        0
176
     1
 62
    18
420
        0
176
     1
 90
       50
176
     1
 90
        3
176
     1
 62
     5
420
      255
176
     1
290
     0
176
     1
 90
       50
176
     1
 90
       50
176
     1
 90
       50
176
     1
290
     0
176
     1
 90
       50
176
     1
 62
   256
176
     0
 40
1.0
176
     0
 90
        2
176
     1
  1
strokes_ogs.tif
176
     1
290
     0
176
     1
 40
1.0
176
     1
 40
1.0
176
     1
1001
ACAD
1000
AcDbSavedByObjectVersion
1070
     0
  0
VISUALSTYLE
  5
2E
102
{ACAD_REACTORS
330
2A
102
}
330
2A
100
AcDbVisualStyle
  2
GouraudWithEdges
 70
     3
177
     3
291
     1
 70
    58
 90
        2
176
     1
 90
        2
176
     1
 90
        1
176
     1
 90
        2
176
     1
 40
0.6
176
     1
 40
30.0
176
     1
 62
     7
420
 16777215
176
     1
 90
        1
176
     1
 90
        4
176
     1
 62
     7
176
     1
 62
   257
176
     1
 90
        1
176
     1
 90
        1
176
     1
 40
1.0
176
     1
 90
        0
176
     1
 62
   257
176
     1
 40
1.0
176
     1
 90
        1
176
     1
 90
        6
176
     1
 90
        2
176
     1
 62
     7
176
     1
 90
        5
176
     1
 90
        0
176
     1
 90
        0
176
     1
290
     0
176
     1
 90
       13
176
     1
 40
0.0
176
     1
 90
        0
176
     1
290
     0
176
     1
290
     1
176
     1
290
     1
176
     1
290
     0
176
     1
290
     0
176
     1
290
     0
176
     1
290
     0
176
     1
290
     0
176
     1
290
     0
176
     1
 90
       50
176
     1
 40
0.0
176
     1
 40
1.0
176
     1
 90
        0
176
     1
 62
    18
420
        0
176
     1
 90
       50
176
     1
 90
        3
176
     1
 62
     5
420
      255
176
     1
290
     0
176
     1
 90
       50
176
     1
 90
       50
176
     1
 90
       50
176
     1
290
     0
176
     1
 90
       50
176
     1
 62
   256
176
     0
 40
1.0
176
     0
 90
        2
176
     1
  1
strokes_ogs.tif
176
     1
290
     0
176
     1
 40
1.0
176
     1
 40
1.0
176
     1
1001
ACAD
1000
AcDbSavedByObjectVersion
1070
     0
  0
VISUALSTYLE
  5
13B
102
{ACAD_REACTORS
330
2A
102
}
330
2A
100
AcDbVisualStyle
  2
Hidden
 70
     6
177
     3
291
     0
 70
    58
 90
        1
176
     1
 90
        2
176
     1
 90
        2
176
     1
 90
        0
176
     1
 40
0.6
176
     1
 40
30.0
176
     1
 62
     7
420
 16777215
176
     1
 90
        2
176
     1
 90
        2
176
     1
 62
     7
176
     1
 62
   257
176
     1
 90
        2
176
     1
 90
        1
176
     1
 40
40.0
176
     1
 90
        0
176
     1
 62
   257
176
     1
 40
1.0
176
     1
 90
        1
176
     1
 90
        6
176
     1
 90
        2
176
     1
 62
     7
176
     1
 90
        3
176
     1
 90
        0
176
     1
 90
        0
176
     1
290
     0
176
     1
 90
        1
176
     1
 40
0.0
176
     1
 90
        0
176
     1
290
     0
176
     1
290
     1
176
     1
290
     1
176
     1
290
     0
176
     1
290
     0
176
     1
290
     0
176
     1
290
     0
176
     1
290
     0
176
     1
290
     0
176
     1
 90
       50
176
     1
 40
0.0
176
     1
 40
1.0
176
     1
 90
        0
176
     1
 62
    18
420
        0
176
     1
 90
       50
176
     1
 90
        3
176
     1
 62
     5
420
      255
176
     1
290
     0
176
     1
 90
       50
176
     1
 90
       50
176
     1
 90
       50
176
     1
290
     0
176
     1
 90
       50
176
     1
 62
   256
176
     0
 40
1.0
176
     0
 90
        2
176
     1
  1
strokes_ogs.tif
176
     1
290
     0
176
     1
 40
1.0
176
     1
 40
1.0
176
     1
1001
ACAD
1000
AcDbSavedByObjectVersion
1070
     0
  0
VISUALSTYLE
  5
141
102
{ACAD_REACTORS
330
2A
102
}
330
2A
100
AcDbVisualStyle
  2
JitterOff
 70
    20
177
     3
291
     1
 70
    58
 90
        2
176
     0
 90
        2
176
     0
 90
        0
176
     0
 90
        0
176
     0
 40
0.6
176
     0
 40
30.0
176
     0
 62
     7
420
 16777215
176
     0
 90
        1
176
     0
 90
        4
176
     0
 62
     7
176
     0
 62
   257
176
     0
 90
        1
176
     0
 90
        1
176
     0
 40
1.0
176
     0
 90
       10
176
     2
 62
     7
176
     0
 40
1.0
176
     0
 90
        1
176
     0
 90
        6
176
     0
 90
        2
176
     0
 62
     7
176
     0
 90
        5
176
     0
 90
        0
176
     0
 90
        0
176
     0
290
     0
176
     0
 90
        1
176
     0
 40
0.0
176
     0
 90
        0
176
     0
290
     0
176
     1
290
     1
176
     1
290
     1
176
     1
290
     0
176
     1
290
     0
176
     1
290
     0
176
     1
290
     0
176
     1
290
     0
176
     1
290
     0
176
     1
 90
       50
176
     0
 40
0.0
176
     0
 40
1.0
176
     0
 90
        0
176
     0
 62
    18
420
        0
176
     0
 90
       50
176
     0
 90
        3
176
     0
 62
     5
420
      255
176
     0
290
     0
176
     1
 90
       50
176
     0
 90
       50
176
     0
 90
       50
176
     0
290
     0
176
     1
 90
       50
176
     0
 62
   256
176
     0
 40
1.0
176
     0
 90
        2
176
     0
  1
strokes_ogs.tif
176
     0
290
     0
176
     1
 40
1.0
176
     0
 40
1.0
176
     0
1001
ACAD
1000
AcDbSavedByObjectVersion
1070
     0
  0
VISUALSTYLE
  5
38
102
{ACAD_REACTORS
330
2A
102
}
330
2A
100
AcDbVisualStyle
  2
Linepattern
 70
    14
177
     3
291
     1
 70
    58
 90
        2
176
     1
 90
        2
176
     1
 90
        0
176
     1
 90
        0
176
     1
 40
0.6
176
     1
 40
30.0
176
     1
 62
     7
420
 16777215
176
     1
 90
        1
176
     1
 90
        4
176
     1
 62
     7
176
     1
 62
   257
176
     1
 90
        7
176
     1
 90
        7
176
     1
 40
1.0
176
     1
 90
        8
176
     1
 62
     7
176
     1
 40
1.0
176
     1
 90
        1
176
     1
 90
        6
176
     1
 90
        2
176
     1
 62
     7
176
     1
 90
        5
176
     1
 90
        0
176
     1
 90
        0
176
     1
290
     0
176
     1
 90
        1
176
     1
 40
0.0
176
     1
 90
        0
176
     1
290
     0
176
     1
290
     1
176
     1
290
     1
176
     1
290
     0
176
     1
290
     0
176
     1
290
     0
176
     1
290
     0
176
     1
290
     0
176
     1
290
     0
176
     1
 90
       50
176
     1
 40
0.0
176
     1
 40
1.0
176
     1
 90
        0
176
     1
 62
    18
420
        0
176
     1
 90
       50
176
     1
 90
        3
176
     1
 62
     5
420
      255
176
     1
290
     0
176
     1
 90
       50
176
     1
 90
       50
176
     1
 90
       50
176
     1
290
     0
176
     1
 90
       50
176
     1
 62
   256
176
     0
 40
1.0
176
     0
 90
        2
176
     1
  1
strokes_ogs.tif
176
     1
290
     0
176
     1
 40
1.0
176
     1
 40
1.0
176
     1
1001
ACAD
1000
AcDbSavedByObjectVersion
1070
     0
  0
VISUALSTYLE
  5
142
102
{ACAD_REACTORS
330
2A
102
}
330
2A
100
AcDbVisualStyle
  2
OverhangOff
 70
    21
177
     3
291
     1
 70
    58
 90
        2
176
     0
 90
        2
176
     0
 90
        0
176
     0
 90
        0
176
     0
 40
0.6
176
     0
 40
30.0
176
     0
 62
     7
420
 16777215
176
     0
 90
        1
176
     0
 90
        4
176
     0
 62
     7
176
     0
 62
   257
176
     0
 90
        1
176
     0
 90
        1
176
     0
 40
1.0
176
     0
 90
        9
176
     2
 62
     7
176
     0
 40
1.0
176
     0
 90
        1
176
     0
 90
        6
176
     0
 90
        2
176
     0
 62
     7
176
     0
 90
        5
176
     0
 90
        0
176
     0
 90
        0
176
     0
290
     0
176
     0
 90
        1
176
     0
 40
0.0
176
     0
 90
        0
176
     0
290
     0
176
     1
290
     1
176
     1
290
     1
176
     1
290
     0
176
     1
290
     0
176
     1
290
     0
176
     1
290
     0
176
     1
290
     0
176
     1
290
     0
176
     1
 90
       50
176
     0
 40
0.0
176
     0
 40
1.0
176
     0
 90
        0
176
     0
 62
    18
420
        0
176
     0
 90
       50
176
     0
 90
        3
176
     0
 62
     5
420
      255
176
     0
290
     0
176
     1
 90
       50
176
     0
 90
       50
176
     0
 90
       50
176
     0
290
     0
176
     1
 90
       50
176
     0
 62
   256
176
     0
 40
1.0
176
     0
 90
        2
176
     0
  1
strokes_ogs.tif
176
     0
290
     0
176
     1
 40
1.0
176
     0
 40
1.0
176
     0
1001
ACAD
1000
AcDbSavedByObjectVersion
1070
     0
  0
VISUALSTYLE
  5
33
102
{ACAD_REACTORS
330
2A
102
}
330
2A
100
AcDbVisualStyle
  2
Realistic
 70
     8
177
     3
291
     0
 70
    58
 90
        2
176
     1
 90
        2
176
     1
 90
        0
176
     1
 90
        0
176
     1
 40
0.6
176
     1
 40
30.0
176
     1
 62
     7
420
 16777215
176
     1
 90
        1
176
     1
 90
        0
176
     1
 62
     7
176
     1
 62
   257
176
     1
 90
        1
176
     1
 90
        1
176
     1
 40
1.0
176
     1
 90
        8
176
     1
 62
     8
420
  7895160
176
     1
 40
1.0
176
     1
 90
        1
176
     1
 90
        6
176
     1
 90
        2
176
     1
 62
     7
176
     1
 90
        5
176
     1
 90
        0
176
     1
 90
        0
176
     1
290
     0
176
     1
 90
       13
176
     1
 40
0.0
176
     1
 90
        0
176
     1
290
     0
176
     1
290
     1
176
     1
290
     1
176
     1
290
     0
176
     1
290
     0
176
     1
290
     0
176
     1
290
     0
176
     1
290
     0
176
     1
290
     0
176
     1
 90
       50
176
     1
 40
0.0
176
     1
 40
1.0
176
     1
 90
        0
176
     1
 62
    18
420
        0
176
     1
 90
       50
176
     1
 90
        3
176
     1
 62
     5
420
      255
176
     1
290
     0
176
     1
 90
       50
176
     1
 90
       50
176
     1
 90
       50
176
     1
290
     0
176
     1
 90
       50
176
     1
 62
   256
176
     0
 40
1.0
176
     0
 90
        2
176
     1
  1
strokes_ogs.tif
176
     1
290
     0
176
     1
 40
1.0
176
     1
 40
1.0
176
     1
1001
ACAD
1000
AcDbSavedByObjectVersion
1070
     0
  0
VISUALSTYLE
  5
140
102
{ACAD_REACTORS
330
2A
102
}
330
2A
100
AcDbVisualStyle
  2
Shaded
 70
    27
177
     3
291
     0
 70
    58
 90
        2
176
     1
 90
        2
176
     1
 90
        1
176
     1
 90
        2
176
     1
 40
0.6
176
     1
 40
30.0
176
     1
 62
     7
420
 16777215
176
     1
 90
        0
176
     1
 90
        4
176
     1
 62
     7
176
     1
 62
   257
176
     1
 90
        1
176
     1
 90
        1
176
     1
 40
1.0
176
     1
 90
        8
176
     1
 62
   257
176
     1
 40
1.0
176
     1
 90
        1
176
     1
 90
        6
176
     1
 90
        2
176
     1
 62
     8
420
  7895160
176
     1
 90
        3
176
     1
 90
        0
176
     1
 90
        0
176
     1
290
     0
176
     1
 90
        5
176
     1
 40
0.0
176
     1
 90
        0
176
     1
290
     0
176
     1
290
     1
176
     1
290
     1
176
     1
290
     0
176
     1
290
     0
176
     1
290
     0
176
     1
290
     0
176
     1
290
     0
176
     1
290
     0
176
     1
 90
       50
176
     1
 40
0.0
176
     1
 40
1.0
176
     1
 90
        0
176
     1
 62
    18
420
        0
176
     1
 90
       50
176
     1
 90
        3
176
     1
 62
     5
420
      255
176
     1
290
     0
176
     1
 90
       50
176
     1
 90
       50
176
     1
 90
       50
176
     1
290
     0
176
     1
 90
       50
176
     1
 62
   256
176
     0
 40
1.0
176
     0
 90
        2
176
     1
  1
strokes_ogs.tif
176
     1
290
     0
176
     1
 40
1.0
176
     1
 40
1.0
176
     1
1001
ACAD
1000
AcDbSavedByObjectVersion
1070
     0
  0
VISUALSTYLE
  5
13F
102
{ACAD_REACTORS
330
2A
102
}
330
2A
100
AcDbVisualStyle
  2
Shaded with edges
 70
    26
177
     3
291
     0
 70
    58
 90
        2
176
     1
 90
        2
176
     1
 90
        1
176
     1
 90
        2
176
     1
 40
0.6
176
     1
 40
30.0
176
     1
 62
     7
420
 16777215
176
     1
 90
        1
176
     1
 90
        2
176
     1
 62
     7
176
     1
 62
   257
176
     1
 90
        2
176
     1
 90
        1
176
     1
 40
1.0
176
     1
 90
        8
176
     1
 62
   257
176
     1
 40
1.0
176
     1
 90
        1
176
     1
 90
        6
176
     1
 90
        2
176
     1
 62
     7
176
     1
 90
        3
176
     1
 90
        0
176
     1
 90
        0
176
     1
290
     0
176
     1
 90
        5
176
     1
 40
0.0
176
     1
 90
        0
176
     1
290
     0
176
     1
290
     1
176
     1
290
     1
176
     1
290
     0
176
     1
290
     0
176
     1
290
     0
176
     1
290
     0
176
     1
290
     0
176
     1
290
     0
176
     1
 90
       50
176
     1
 40
0.0
176
     1
 40
1.0
176
     1
 90
        0
176
     1
 62
    18
420
        0
176
     1
 90
       50
176
     1
 90
        3
176
     1
 62
     5
420
      255
176
     1
290
     0
176
     1
 90
       50
176
     1
 90
       50
176
     1
 90
       50
176
     1
290
     0
176
     1
 90
       50
176
     1
 62
   256
176
     0
 40
1.0
176
     0
 90
        2
176
     1
  1
strokes_ogs.tif
176
     1
290
     0
176
     1
 40
1.0
176
     1
 40
1.0
176
     1
1001
ACAD
1000
AcDbSavedByObjectVersion
1070
     0
  0
VISUALSTYLE
  5
13C
102
{ACAD_REACTORS
330
2A
102
}
330
2A
100
AcDbVisualStyle
  2
Shades of Gray
 70
    23
177
     3
291
     0
 70
    58
 90
        2
176
     1
 90
        2
176
     1
 90
        3
176
     1
 90
        0
176
     1
 40
0.6
176
     1
 40
30.0
176
     1
 62
     7
420
 16777215
176
     1
 90
        2
176
     1
 90
        2
176
     1
 62
     7
176
     1
 62
     7
176
     1
 90
        1
176
     1
 90
        1
176
     1
 40
40.0
176
     1
 90
        8
176
     1
 62
     7
176
     1
 40
1.0
176
     1
 90
        1
176
     1
 90
        6
176
     1
 90
        2
176
     1
 62
     7
176
     1
 90
        3
176
     1
 90
        0
176
     1
 90
        0
176
     1
290
     0
176
     1
 90
        1
176
     1
 40
0.0
176
     1
 90
        0
176
     1
290
     0
176
     1
290
     1
176
     1
290
     1
176
     1
290
     0
176
     1
290
     0
176
     1
290
     0
176
     1
290
     0
176
     1
290
     0
176
     1
290
     0
176
     1
 90
       50
176
     1
 40
0.0
176
     1
 40
1.0
176
     1
 90
        0
176
     1
 62
    18
420
        0
176
     1
 90
       50
176
     1
 90
        3
176
     1
 62
     5
420
      255
176
     1
290
     0
176
     1
 90
       50
176
     1
 90
       50
176
     1
 90
       50
176
     1
290
     0
176
     1
 90
       50
176
     1
 62
   256
176
     0
 40
1.0
176
     0
 90
        2
176
     1
  1
strokes_ogs.tif
176
     1
290
     0
176
     1
 40
1.0
176
     1
 40
1.0
176
     1
1001
ACAD
1000
AcDbSavedByObjectVersion
1070
     0
  0
VISUALSTYLE
  5
13D
102
{ACAD_REACTORS
330
2A
102
}
330
2A
100
AcDbVisualStyle
  2
Sketchy
 70
    24
177
     3
291
     0
 70
    58
 90
        1
176
     1
 90
        2
176
     1
 90
        2
176
     1
 90
        0
176
     1
 40
0.6
176
     1
 40
30.0
176
     1
 62
     7
420
 16777215
176
     1
 90
        2
176
     1
 90
        2
176
     1
 62
     7
176
     1
 62
     7
176
     1
 90
        1
176
     1
 90
        1
176
     1
 40
40.0
176
     1
 90
       11
176
     1
 62
     7
176
     1
 40
1.0
176
     1
 90
        1
176
     1
 90
        6
176
     1
 90
        2
176
     1
 62
     7
176
     1
 90
        6
176
     1
 90
        0
176
     1
 90
        0
176
     1
290
     0
176
     1
 90
        1
176
     1
 40
0.0
176
     1
 90
        0
176
     1
290
     0
176
     1
290
     1
176
     1
290
     1
176
     1
290
     0
176
     1
290
     0
176
     1
290
     0
176
     1
290
     0
176
     1
290
     0
176
     1
290
     0
176
     1
 90
       50
176
     1
 40
0.0
176
     1
 40
1.0
176
     1
 90
        0
176
     1
 62
    18
420
        0
176
     1
 90
       50
176
     1
 90
        3
176
     1
 62
     5
420
      255
176
     1
290
     0
176
     1
 90
       50
176
     1
 90
       50
176
     1
 90
       50
176
     1
290
     0
176
     1
 90
       50
176
     1
 62
   256
176
     0
 40
1.0
176
     0
 90
        2
176
     1
  1
strokes_ogs.tif
176
     1
290
     0
176
     1
 40
1.0
176
     1
 40
1.0
176
     1
1001
ACAD
1000
AcDbSavedByObjectVersion
1070
     0
  0
VISUALSTYLE
  5
37
102
{ACAD_REACTORS
330
2A
102
}
330
2A
100
AcDbVisualStyle
  2
Thicken
 70
    13
177
     3
291
     1
 70
    58
 90
        2
176
     1
 90
        2
176
     1
 90
        0
176
     1
 90
        0
176
     1
 40
0.6
176
     1
 40
30.0
176
     1
 62
     7
420
 16777215
176
     1
 90
        1
176
     1
 90
        4
176
     1
 62
     7
176
     1
 62
   257
176
     1
 90
        1
176
     1
 90
        1
176
     1
 40
1.0
176
     1
 90
       12
176
     1
 62
     7
176
     1
 40
1.0
176
     1
 90
        1
176
     1
 90
        6
176
     1
 90
        2
176
     1
 62
     7
176
     1
 90
        5
176
     1
 90
        0
176
     1
 90
        0
176
     1
290
     0
176
     1
 90
        1
176
     1
 40
0.0
176
     1
 90
        0
176
     1
290
     0
176
     1
290
     1
176
     1
290
     1
176
     1
290
     0
176
     1
290
     0
176
     1
290
     0
176
     1
290
     0
176
     1
290
     0
176
     1
290
     0
176
     1
 90
       50
176
     1
 40
0.0
176
     1
 40
1.0
176
     1
 90
        0
176
     1
 62
    18
420
        0
176
     1
 90
       50
176
     1
 90
        3
176
     1
 62
     5
420
      255
176
     1
290
     0
176
     1
 90
       50
176
     1
 90
       50
176
     1
 90
       50
176
     1
290
     0
176
     1
 90
       50
176
     1
 62
   256
176
     0
 40
1.0
176
     0
 90
        2
176
     1
  1
strokes_ogs.tif
176
     1
290
     0
176
     1
 40
1.0
176
     1
 40
1.0
176
     1
1001
ACAD
1000
AcDbSavedByObjectVersion
1070
     0
  0
VISUALSTYLE
  5
13A
102
{ACAD_REACTORS
330
2A
102
}
330
2A
100
AcDbVisualStyle
  2
Wireframe
 70
     5
177
     3
291
     0
 70
    58
 90
        0
176
     1
 90
        2
176
     1
 90
        0
176
     1
 90
        0
176
     1
 40
0.6
176
     1
 40
30.0
176
     1
 62
     7
420
 16777215
176
     1
 90
        1
176
     1
 90
        4
176
     1
 62
     7
176
     1
 62
   257
176
     1
 90
        1
176
     1
 90
        1
176
     1
 40
1.0
176
     1
 90
        0
176
     1
 62
   257
176
     1
 40
1.0
176
     1
 90
        1
176
     1
 90
        6
176
     1
 90
        2
176
     1
 62
     7
176
     1
 90
        3
176
     1
 90
        0
176
     1
 90
        0
176
     1
290
     0
176
     1
 90
        1
176
     1
 40
0.0
176
     1
 90
        0
176
     1
290
     0
176
     1
290
     1
176
     1
290
     1
176
     1
290
     0
176
     1
290
     0
176
     1
290
     0
176
     1
290
     0
176
     1
290
     0
176
     1
290
     0
176
     1
 90
       50
176
     1
 40
0.0
176
     1
 40
1.0
176
     1
 90
        0
176
     1
 62
    18
420
        0
176
     1
 90
       50
176
     1
 90
        3
176
     1
 62
     5
420
      255
176
     1
290
     0
176
     1
 90
       50
176
     1
 90
       50
176
     1
 90
       50
176
     1
290
     0
176
     1
 90
       50
176
     1
 62
   256
176
     0
 40
1.0
176
     0
 90
        2
176
     1
  1
strokes_ogs.tif
176
     1
290
     0
176
     1
 40
1.0
176
     1
 40
1.0
176
     1
1001
ACAD
1000
AcDbSavedByObjectVersion
1070
     0
  0
VISUALSTYLE
  5
13E
102
{ACAD_REACTORS
330
2A
102
}
330
2A
100
AcDbVisualStyle
  2
X-Ray
 70
    25
177
     3
291
     0
 70
    58
 90
        2
176
     1
 90
        2
176
     1
 90
        1
176
     1
 90
        1
176
     1
 40
0.5
176
     1
 40
30.0
176
     1
 62
     7
420
 16777215
176
     1
 90
        1
176
     1
 90
        0
176
     1
 62
     7
176
     1
 62
   257
176
     1
 90
        1
176
     1
 90
        1
176
     1
 40
1.0
176
     1
 90
        8
176
     1
 62
     7
176
     1
 40
1.0
176
     1
 90
        1
176
     1
 90
        6
176
     1
 90
        2
176
     1
 62
     7
176
     1
 90
        3
176
     1
 90
        0
176
     1
 90
        0
176
     1
290
     0
176
     1
 90
       13
176
     1
 40
0.0
176
     1
 90
        0
176
     1
290
     0
176
     1
290
     1
176
     1
290
     1
176
     1
290
     0
176
     1
290
     0
176
     1
290
     0
176
     1
290
     0
176
     1
290
     0
176
     1
290
     0
176
     1
 90
       50
176
     1
 40
0.0
176
     1
 40
1.0
176
     1
 90
        0
176
     1
 62
    18
420
        0
176
     1
 90
       50
176
     1
 90
        3
176
     1
 62
     5
420
      255
176
     1
290
     0
176
     1
 90
       50
176
     1
 90
       50
176
     1
 90
       50
176
     1
290
     0
176
     1
 90
       50
176
     1
 62
   256
176
     0
 40
1.0
176
     0
 90
        2
176
     1
  1
strokes_ogs.tif
176
     1
290
     0
176
     1
 40
1.0
176
     1
 40
1.0
176
     1
1001
ACAD
1000
AcDbSavedByObjectVersion
1070
     0
  0
DICTIONARYVAR
  5
29A
102
{ACAD_REACTORS
330
295
102
}
330
295
100
DictionaryVariables
280
     0
  1
1:1
  0
DICTIONARYVAR
  5
297
102
{ACAD_REACTORS
330
295
102
}
330
295
100
DictionaryVariables
280
     0
  1
STANDARD
  0
DICTIONARYVAR
  5
296
102
{ACAD_REACTORS
330
295
102
}
330
295
100
DictionaryVariables
280
     0
  1
STANDARD
  0
DICTIONARYVAR
  5
298
102
{ACAD_REACTORS
330
295
102
}
330
295
100
DictionaryVariables
280
     0
  1
Imperial24
  0
DICTIONARYVAR
  5
299
102
{ACAD_REACTORS
330
295
102
}
330
295
100
DictionaryVariables
280
     0
  1
Imperial24
  0
DICTIONARY
  5
2A1
330
160
100
AcDbDictionary
280
     1
281
     1
  3
ACAD_XREC_ROUNDTRIP
360
2A2
  0
DICTIONARY
  5
29F
330
15E
100
AcDbDictionary
280
     1
281
     1
  3
ACAD_XREC_ROUNDTRIP
360
2A0
  0
DICTIONARY
  5
29C
330
145
100
AcDbDictionary
280
     1
281
     1
  3
ACAD_ROUNDTRIP_2008_TABLESTYLE_CELLSTYLEMAP
360
29D
  0
XRECORD
  5
2A2
102
{ACAD_REACTORS
330
2A1
102
}
330
2A1
100
AcDbXrecord
280
     1
102
DISPLAYNAME
  1
Imperial24
102
FLAGS
 90
        0
  0
XRECORD
  5
2A0
102
{ACAD_REACTORS
330
29F
102
}
330
29F
100
AcDbXrecord
280
     1
102
DISPLAYNAME
  1
Imperial24
102
FLAGS
 90
        0
  0
CELLSTYLEMAP
  5
29D
102
{ACAD_REACTORS
330
29C
102
}
330
29C
100
AcDbCellStyleMap
 90
        3
300
CELLSTYLE
  1
TABLEFORMAT_BEGIN
 90
        5
170
     1
 91
        0
 92
    32768
 62
   257
 93
        1
300
CONTENTFORMAT
  1
CONTENTFORMAT_BEGIN
 90
        0
 91
        0
 92
      512
 93
        0
300

 40
0.0
140
1.0
 94
        5
 62
     0
340
11
144
0.25
309
CONTENTFORMAT_END
171
     0
 94
        0
309
TABLEFORMAT_END
  1
CELLSTYLE_BEGIN
 90
        1
 91
        1
300
_TITLE
309
CELLSTYLE_END
300
CELLSTYLE
  1
TABLEFORMAT_BEGIN
 90
        5
170
     1
 91
        0
 92
        0
 62
   257
 93
        1
300
CONTENTFORMAT
  1
CONTENTFORMAT_BEGIN
 90
        0
 91
        0
 92
      512
 93
        0
300

 40
0.0
140
1.0
 94
        5
 62
     0
340
11
144
0.18
309
CONTENTFORMAT_END
171
     0
 94
        0
309
TABLEFORMAT_END
  1
CELLSTYLE_BEGIN
 90
        2
 91
        1
300
_HEADER
309
CELLSTYLE_END
300
CELLSTYLE
  1
TABLEFORMAT_BEGIN
 90
        5
170
     1
 91
        0
 92
        0
 62
   257
 93
        1
300
CONTENTFORMAT
  1
CONTENTFORMAT_BEGIN
 90
        0
 91
        0
 92
      512
 93
        0
300

 40
0.0
140
1.0
 94
        2
 62
     0
340
11
144
0.18
309
CONTENTFORMAT_END
171
     0
 94
        0
309
TABLEFORMAT_END
  1
CELLSTYLE_BEGIN
 90
        3
 91
        2
300
_DATA
309
CELLSTYLE_END
  0
ENDSEC
  0
EOF
