  0
SECTION
  2
HEADER
  9
$ACADVER
  1
AC1027
  9
$ACADMAINTVER
 70
   125
  9
$DWGCODEPAGE
  3
ANSI_1252
  9
$LASTSAVEDBY
  1
ufficio.tecnico
  9
$REQUIREDVERSIONS
160
                 0
  9
$INSBASE
 10
0.0
 20
0.0
 30
0.0
  9
$EXTMIN
 10
309.8064097760078
 20
-179.447100107048
 30
0.0
  9
$EXTMAX
 10
479.9903400492732
 20
-136.3161313192802
 30
0.0
  9
$LIMMIN
 10
0.0
 20
0.0
  9
$LIMMAX
 10
12.0
 20
9.0
  9
$ORTHOMODE
 70
     0
  9
$REGENMODE
 70
     1
  9
$FILLMODE
 70
     1
  9
$QTEXTMODE
 70
     0
  9
$MIRRTEXT
 70
     1
  9
$LTSCALE
 40
1.0
  9
$ATTMODE
 70
     1
  9
$TEXTSIZE
 40
0.2
  9
$TRACEWID
 40
0.05
  9
$TEXTSTYLE
  7
Standard
  9
$CLAYER
  8
0
  9
$CELTYPE
  6
ByLayer
  9
$CECOLOR
 62
   256
  9
$CELTSCALE
 40
1.0
  9
$DISPSILH
 70
     0
  9
$DIMSCALE
 40
1.0
  9
$DIMASZ
 40
0.18
  9
$DIMEXO
 40
0.0625
  9
$DIMDLI
 40
0.38
  9
$DIMRND
 40
0.0
  9
$DIMDLE
 40
0.0
  9
$DIMEXE
 40
0.18
  9
$DIMTP
 40
0.0
  9
$DIMTM
 40
0.0
  9
$DIMTXT
 40
0.18
  9
$DIMCEN
 40
0.09
  9
$DIMTSZ
 40
0.0
  9
$DIMTOL
 70
     0
  9
$DIMLIM
 70
     0
  9
$DIMTIH
 70
     1
  9
$DIMTOH
 70
     1
  9
$DIMSE1
 70
     0
  9
$DIMSE2
 70
     0
  9
$DIMTAD
 70
     0
  9
$DIMZIN
 70
     0
  9
$DIMBLK
  1

  9
$DIMASO
 70
     1
  9
$DIMSHO
 70
     1
  9
$DIMPOST
  1

  9
$DIMAPOST
  1

  9
$DIMALT
 70
     0
  9
$DIMALTD
 70
     2
  9
$DIMALTF
 40
25.4
  9
$DIMLFAC
 40
1.0
  9
$DIMTOFL
 70
     0
  9
$DIMTVP
 40
0.0
  9
$DIMTIX
 70
     0
  9
$DIMSOXD
 70
     0
  9
$DIMSAH
 70
     0
  9
$DIMBLK1
  1

  9
$DIMBLK2
  1

  9
$DIMSTYLE
  2
Standard
  9
$DIMCLRD
 70
     0
  9
$DIMCLRE
 70
     0
  9
$DIMCLRT
 70
     0
  9
$DIMTFAC
 40
1.0
  9
$DIMGAP
 40
0.09
  9
$DIMJUST
 70
     0
  9
$DIMSD1
 70
     0
  9
$DIMSD2
 70
     0
  9
$DIMTOLJ
 70
     1
  9
$DIMTZIN
 70
     0
  9
$DIMALTZ
 70
     0
  9
$DIMALTTZ
 70
     0
  9
$DIMUPT
 70
     0
  9
$DIMDEC
 70
     4
  9
$DIMTDEC
 70
     4
  9
$DIMALTU
 70
     2
  9
$DIMALTTD
 70
     2
  9
$DIMTXSTY
  7
Standard
  9
$DIMAUNIT
 70
     0
  9
$DIMADEC
 70
     0
  9
$DIMALTRND
 40
0.0
  9
$DIMAZIN
 70
     0
  9
$DIMDSEP
 70
    46
  9
$DIMATFIT
 70
     3
  9
$DIMFRAC
 70
     0
  9
$DIMLDRBLK
  1

  9
$DIMLUNIT
 70
     2
  9
$DIMLWD
 70
    -2
  9
$DIMLWE
 70
    -2
  9
$DIMTMOVE
 70
     0
  9
$DIMFXL
 40
1.0
  9
$DIMFXLON
 70
     0
  9
$DIMJOGANG
 40
0.7853981633974483
  9
$DIMTFILL
 70
     0
  9
$DIMTFILLCLR
 70
     0
  9
$DIMARCSYM
 70
     0
  9
$DIMLTYPE
  6

  9
$DIMLTEX1
  6

  9
$DIMLTEX2
  6

  9
$DIMTXTDIRECTION
 70
     0
  9
$LUNITS
 70
     2
  9
$LUPREC
 70
     4
  9
$SKETCHINC
 40
0.1
  9
$FILLETRAD
 40
0.5
  9
$AUNITS
 70
     0
  9
$AUPREC
 70
     0
  9
$MENU
  1
.
  9
$ELEVATION
 40
0.0
  9
$PELEVATION
 40
0.0
  9
$THICKNESS
 40
0.0
  9
$LIMCHECK
 70
     0
  9
$CHAMFERA
 40
0.5
  9
$CHAMFERB
 40
0.5
  9
$CHAMFERC
 40
1.0
  9
$CHAMFERD
 40
0.0
  9
$SKPOLY
 70
     0
  9
$TDCREATE
 40
2459325.492962963
  9
$TDUCREATE
 40
2459325.409633391
  9
$TDUPDATE
 40
2459328.464895834
  9
$TDUUPDATE
 40
2459328.381562500
  9
$TDINDWG
 40
0.0028240856
  9
$TDUSRTIMER
 40
0.0028240856
  9
$USRTIMER
 70
     1
  9
$ANGBASE
 50
0.0
  9
$ANGDIR
 70
     0
  9
$PDMODE
 70
     0
  9
$PDSIZE
 40
0.0
  9
$PLINEWID
 40
0.0
  9
$SPLFRAME
 70
     0
  9
$SPLINETYPE
 70
     6
  9
$SPLINESEGS
 70
     8
  9
$HANDSEED
  5
12C
  9
$SURFTAB1
 70
     6
  9
$SURFTAB2
 70
     6
  9
$SURFTYPE
 70
     6
  9
$SURFU
 70
     6
  9
$SURFV
 70
     6
  9
$UCSBASE
  2

  9
$UCSNAME
  2

  9
$UCSORG
 10
0.0
 20
0.0
 30
0.0
  9
$UCSXDIR
 10
1.0
 20
0.0
 30
0.0
  9
$UCSYDIR
 10
0.0
 20
1.0
 30
0.0
  9
$UCSORTHOREF
  2

  9
$UCSORTHOVIEW
 70
     0
  9
$UCSORGTOP
 10
0.0
 20
0.0
 30
0.0
  9
$UCSORGBOTTOM
 10
0.0
 20
0.0
 30
0.0
  9
$UCSORGLEFT
 10
0.0
 20
0.0
 30
0.0
  9
$UCSORGRIGHT
 10
0.0
 20
0.0
 30
0.0
  9
$UCSORGFRONT
 10
0.0
 20
0.0
 30
0.0
  9
$UCSORGBACK
 10
0.0
 20
0.0
 30
0.0
  9
$PUCSBASE
  2

  9
$PUCSNAME
  2

  9
$PUCSORG
 10
0.0
 20
0.0
 30
0.0
  9
$PUCSXDIR
 10
1.0
 20
0.0
 30
0.0
  9
$PUCSYDIR
 10
0.0
 20
1.0
 30
0.0
  9
$PUCSORTHOREF
  2

  9
$PUCSORTHOVIEW
 70
     0
  9
$PUCSORGTOP
 10
0.0
 20
0.0
 30
0.0
  9
$PUCSORGBOTTOM
 10
0.0
 20
0.0
 30
0.0
  9
$PUCSORGLEFT
 10
0.0
 20
0.0
 30
0.0
  9
$PUCSORGRIGHT
 10
0.0
 20
0.0
 30
0.0
  9
$PUCSORGFRONT
 10
0.0
 20
0.0
 30
0.0
  9
$PUCSORGBACK
 10
0.0
 20
0.0
 30
0.0
  9
$USERI1
 70
     0
  9
$USERI2
 70
     0
  9
$USERI3
 70
     0
  9
$USERI4
 70
     0
  9
$USERI5
 70
     0
  9
$USERR1
 40
0.0
  9
$USERR2
 40
0.0
  9
$USERR3
 40
0.0
  9
$USERR4
 40
0.0
  9
$USERR5
 40
0.0
  9
$WORLDVIEW
 70
     1
  9
$SHADEDGE
 70
     3
  9
$SHADEDIF
 70
    70
  9
$TILEMODE
 70
     1
  9
$MAXACTVP
 70
    64
  9
$PINSBASE
 10
0.0
 20
0.0
 30
0.0
  9
$PLIMCHECK
 70
     0
  9
$PEXTMIN
 10
1.000000000000000E+20
 20
1.000000000000000E+20
 30
1.000000000000000E+20
  9
$PEXTMAX
 10
-1.000000000000000E+20
 20
-1.000000000000000E+20
 30
-1.000000000000000E+20
  9
$PLIMMIN
 10
0.0
 20
0.0
  9
$PLIMMAX
 10
12.0
 20
9.0
  9
$UNITMODE
 70
     0
  9
$VISRETAIN
 70
     1
  9
$PLINEGEN
 70
     0
  9
$PSLTSCALE
 70
     1
  9
$TREEDEPTH
 70
  3020
  9
$CMLSTYLE
  2
Standard
  9
$CMLJUST
 70
     0
  9
$CMLSCALE
 40
1.0
  9
$PROXYGRAPHICS
 70
     1
  9
$MEASUREMENT
 70
     0
  9
$CELWEIGHT
370
    -1
  9
$ENDCAPS
280
     0
  9
$JOINSTYLE
280
     0
  9
$LWDISPLAY
290
     1
  9
$INSUNITS
 70
     4
  9
$HYPERLINKBASE
  1

  9
$STYLESHEET
  1

  9
$XEDIT
290
     1
  9
$CEPSNTYPE
380
     0
  9
$PSTYLEMODE
290
     1
  9
$FINGERPRINTGUID
  2
{8A46DAFF-A1B6-4A36-A5E4-3FDF5F29A691}
  9
$VERSIONGUID
  2
{FFD92D13-7135-2B4A-AB63-8C8617FDFE99}
  9
$EXTNAMES
290
     1
  9
$PSVPSCALE
 40
0.0
  9
$OLESTARTUP
290
     0
  9
$SORTENTS
280
   127
  9
$INDEXCTL
280
     0
  9
$HIDETEXT
280
     1
  9
$XCLIPFRAME
280
     2
  9
$HALOGAP
280
     0
  9
$OBSCOLOR
 70
   257
  9
$OBSLTYPE
280
     0
  9
$INTERSECTIONDISPLAY
280
     0
  9
$INTERSECTIONCOLOR
 70
   257
  9
$DIMASSOC
280
     2
  9
$PROJECTNAME
  1

  9
$CAMERADISPLAY
290
     0
  9
$LENSLENGTH
 40
50.0
  9
$CAMERAHEIGHT
 40
0.0
  9
$STEPSPERSEC
 40
2.0
  9
$STEPSIZE
 40
6.0
  9
$3DDWFPREC
 40
2.0
  9
$PSOLWIDTH
 40
0.25
  9
$PSOLHEIGHT
 40
4.0
  9
$LOFTANG1
 40
1.570796326794897
  9
$LOFTANG2
 40
1.570796326794897
  9
$LOFTMAG1
 40
0.0
  9
$LOFTMAG2
 40
0.0
  9
$LOFTPARAM
 70
     7
  9
$LOFTNORMALS
280
     1
  9
$LATITUDE
 40
37.795
  9
$LONGITUDE
 40
-122.394
  9
$NORTHDIRECTION
 40
0.0
  9
$TIMEZONE
 70
 -8000
  9
$LIGHTGLYPHDISPLAY
280
     1
  9
$TILEMODELIGHTSYNCH
280
     1
  9
$CMATERIAL
347
3C
  9
$SOLIDHIST
280
     1
  9
$SHOWHIST
280
     1
  9
$DWFFRAME
280
     2
  9
$DGNFRAME
280
     2
  9
$REALWORLDSCALE
290
     1
  9
$INTERFERECOLOR
 62
   256
  9
$INTERFEREOBJVS
345
33
  9
$INTERFEREVPVS
346
A0
  9
$CSHADOW
280
     0
  9
$SHADOWPLANELOCATION
 40
0.0
  0
ENDSEC
  0
SECTION
  2
CLASSES
  0
CLASS
  1
ACDBDICTIONARYWDFLT
  2
AcDbDictionaryWithDefault
  3
ObjectDBX Classes
 90
        0
 91
        1
280
     0
281
     0
  0
CLASS
  1
VISUALSTYLE
  2
AcDbVisualStyle
  3
ObjectDBX Classes
 90
     4095
 91
       26
280
     0
281
     0
  0
CLASS
  1
MATERIAL
  2
AcDbMaterial
  3
ObjectDBX Classes
 90
     1153
 91
        3
280
     0
281
     0
  0
CLASS
  1
SUN
  2
AcDbSun
  3
SCENEOE
 90
     1153
 91
        1
280
     0
281
     0
  0
CLASS
  1
TABLESTYLE
  2
AcDbTableStyle
  3
ObjectDBX Classes
 90
     4095
 91
        1
280
     0
281
     0
  0
CLASS
  1
SCALE
  2
AcDbScale
  3
ObjectDBX Classes
 90
     1153
 91
       21
280
     0
281
     0
  0
CLASS
  1
MLEADERSTYLE
  2
AcDbMLeaderStyle
  3
ACDB_MLEADERSTYLE_CLASS
 90
     4095
 91
        1
280
     0
281
     0
  0
CLASS
  1
ACDBSECTIONVIEWSTYLE
  2
AcDbSectionViewStyle
  3
ObjectDBX Classes
 90
     1025
 91
        1
280
     0
281
     0
  0
CLASS
  1
ACDBDETAILVIEWSTYLE
  2
AcDbDetailViewStyle
  3
ObjectDBX Classes
 90
     1025
 91
        1
280
     0
281
     0
  0
CLASS
  1
SORTENTSTABLE
  2
AcDbSortentsTable
  3
ObjectDBX Classes
 90
        0
 91
        1
280
     0
281
     0
  0
CLASS
  1
DICTIONARYVAR
  2
AcDbDictionaryVar
  3
ObjectDBX Classes
 90
        0
 91
        5
280
     0
281
     0
  0
CLASS
  1
CELLSTYLEMAP
  2
AcDbCellStyleMap
  3
ObjectDBX Classes
 90
     1152
 91
        5
280
     0
281
     0
  0
ENDSEC
  0
SECTION
  2
TABLES
  0
TABLE
  2
VPORT
  5
8
330
0
100
AcDbSymbolTable
 70
     1
1001
ACAD
1000
DbSaveVer
1071
      105
  0
VPORT
  5
29
330
8
100
AcDbSymbolTableRecord
100
AcDbViewportTableRecord
  2
*Active
 70
     0
 10
0.0
 20
0.0
 11
1.0
 21
1.0
 12
-113.677661075344
 22
87.37351204916274
 13
0.0
 23
0.0
 14
0.5
 24
0.5
 15
0.5
 25
0.5
 16
0.0
 26
0.0
 36
1.0
 17
319.9999999200078
 27
-148.4999999628701
 37
0.0
 40
845.2926302960557
 41
1.932867132867133
 42
50.0
 43
0.0
 44
0.0
 50
0.0
 51
0.0
 71
     0
 72
   100
 73
     1
 74
     3
 75
     0
 76
     0
 77
     0
 78
     0
281
     0
 65
     1
110
0.0
120
0.0
130
0.0
111
1.0
121
0.0
131
0.0
112
0.0
122
1.0
132
0.0
 79
     0
146
0.0
348
2F
 60
     3
 61
     5
292
     1
282
     1
141
0.0
142
0.0
 63
   250
361
3F
1001
ACAD_NAV_VCDISPLAY
1070
     3
  0
ENDTAB
  0
TABLE
  2
LTYPE
  5
5
330
0
100
AcDbSymbolTable
 70
     1
  0
LTYPE
  5
14
330
5
100
AcDbSymbolTableRecord
100
AcDbLinetypeTableRecord
  2
ByBlock
 70
     0
  3

 72
    65
 73
     0
 40
0.0
  0
LTYPE
  5
15
330
5
100
AcDbSymbolTableRecord
100
AcDbLinetypeTableRecord
  2
ByLayer
 70
     0
  3

 72
    65
 73
     0
 40
0.0
  0
LTYPE
  5
16
330
5
100
AcDbSymbolTableRecord
100
AcDbLinetypeTableRecord
  2
Continuous
 70
     0
  3
Solid line
 72
    65
 73
     0
 40
0.0
  0
ENDTAB
  0
TABLE
  2
LAYER
  5
2
330
0
100
AcDbSymbolTable
 70
     2
  0
LAYER
  5
10
330
2
100
AcDbSymbolTableRecord
100
AcDbLayerTableRecord
  2
0
 70
     0
 62
     7
  6
Continuous
370
    -3
390
F
347
3E
348
0
  0
LAYER
  5
40
330
2
100
AcDbSymbolTableRecord
100
AcDbLayerTableRecord
  2
Livello 1
 70
     0
 62
     7
  6
Continuous
370
    -3
390
F
347
3E
348
0
  0
ENDTAB
  0
TABLE
  2
STYLE
  5
3
330
0
100
AcDbSymbolTable
 70
     1
  0
STYLE
  5
11
330
3
100
AcDbSymbolTableRecord
100
AcDbTextStyleTableRecord
  2
Standard
 70
     0
 40
0.0
 41
1.0
 50
0.0
 71
     0
 42
0.2
  3
txt
  4

  0
ENDTAB
  0
TABLE
  2
VIEW
  5
6
330
0
100
AcDbSymbolTable
 70
     0
  0
ENDTAB
  0
TABLE
  2
UCS
  5
7
330
0
100
AcDbSymbolTable
 70
     0
  0
ENDTAB
  0
TABLE
  2
APPID
  5
9
330
0
100
AcDbSymbolTable
 70
     2
  0
APPID
  5
12
330
9
100
AcDbSymbolTableRecord
100
AcDbRegAppTableRecord
  2
ACAD
 70
     0
  0
APPID
  5
108
330
9
100
AcDbSymbolTableRecord
100
AcDbRegAppTableRecord
  2
ACAD_NAV_VCDISPLAY
 70
     0
  0
ENDTAB
  0
TABLE
  2
DIMSTYLE
  5
A
330
0
100
AcDbSymbolTable
 70
     1
100
AcDbDimStyleTable
 71
     0
  0
DIMSTYLE
105
27
330
A
100
AcDbSymbolTableRecord
100
AcDbDimStyleTableRecord
  2
Standard
 70
     0
340
11
  0
ENDTAB
  0
TABLE
  2
BLOCK_RECORD
  5
1
330
0
100
AcDbSymbolTable
 70
     8
  0
BLOCK_RECORD
  5
1F
102
{ACAD_XDICTIONARY
360
CA
102
}
330
1
100
AcDbSymbolTableRecord
100
AcDbBlockTableRecord
  2
*Model_Space
340
22
 70
     0
280
     1
281
     0
  0
BLOCK_RECORD
  5
1B
330
1
100
AcDbSymbolTableRecord
100
AcDbBlockTableRecord
  2
*Paper_Space
340
1E
 70
     0
280
     1
281
     0
  0
BLOCK_RECORD
  5
23
330
1
100
AcDbSymbolTableRecord
100
AcDbBlockTableRecord
  2
*Paper_Space0
340
26
 70
     0
280
     1
281
     0
  0
BLOCK_RECORD
  5
41
330
1
100
AcDbSymbolTableRecord
100
AcDbBlockTableRecord
  2
block 2
340
0
 70
     0
280
     1
281
     0
  0
BLOCK_RECORD
  5
4C
330
1
100
AcDbSymbolTableRecord
100
AcDbBlockTableRecord
  2
block 3
340
0
 70
     0
280
     1
281
     0
  0
BLOCK_RECORD
  5
57
330
1
100
AcDbSymbolTableRecord
100
AcDbBlockTableRecord
  2
block 4
340
0
 70
     0
280
     1
281
     0
  0
BLOCK_RECORD
  5
62
330
1
100
AcDbSymbolTableRecord
100
AcDbBlockTableRecord
  2
block 5
340
0
 70
     0
280
     1
281
     0
  0
BLOCK_RECORD
  5
76
330
1
100
AcDbSymbolTableRecord
100
AcDbBlockTableRecord
  2
block 6
340
0
 70
     0
280
     1
281
     0
  0
BLOCK_RECORD
  5
7E
330
1
100
AcDbSymbolTableRecord
100
AcDbBlockTableRecord
  2
block 7
340
0
 70
     0
280
     1
281
     0
  0
BLOCK_RECORD
  5
8A
330
1
100
AcDbSymbolTableRecord
100
AcDbBlockTableRecord
  2
block 8
340
0
 70
     0
280
     1
281
     0
  0
ENDTAB
  0
ENDSEC
  0
SECTION
  2
BLOCKS
  0
BLOCK
  5
20
330
1F
100
AcDbEntity
  8
0
100
AcDbBlockBegin
  2
*Model_Space
 70
     0
 10
0.0
 20
0.0
 30
0.0
  3
*Model_Space
  1

  0
ENDBLK
  5
21
330
1F
100
AcDbEntity
  8
0
100
AcDbBlockEnd
  0
BLOCK
  5
1C
330
1B
100
AcDbEntity
 67
     1
  8
0
100
AcDbBlockBegin
  2
*Paper_Space
 70
     0
 10
0.0
 20
0.0
 30
0.0
  3
*Paper_Space
  1

  0
ENDBLK
  5
1D
330
1B
100
AcDbEntity
 67
     1
  8
0
100
AcDbBlockEnd
  0
BLOCK
  5
24
330
23
100
AcDbEntity
 67
     1
  8
0
100
AcDbBlockBegin
  2
*Paper_Space0
 70
     0
 10
0.0
 20
0.0
 30
0.0
  3
*Paper_Space0
  1

  0
ENDBLK
  5
25
330
23
100
AcDbEntity
 67
     1
  8
0
100
AcDbBlockEnd
  0
BLOCK
  5
43
330
41
100
AcDbEntity
  8
0
100
AcDbBlockBegin
  2
block 2
 70
     0
 10
0.0
 20
0.0
 30
0.0
  3
block 2
  1

  0
POLYLINE
  5
45
330
41
100
AcDbEntity
  8
Livello 1
 62
   250
420
  1842203
370
    70
100
AcDb2dPolyline
 66
     1
 10
0.0
 20
0.0
 30
0.0
  0
VERTEX
  5
46
330
45
100
AcDbEntity
  8
Livello 1
 62
   250
420
  1842203
370
    70
100
AcDbVertex
100
AcDb2dVertex
 10
309.8064097760078
 20
-136.3161313192802
 30
0.0
  0
VERTEX
  5
47
330
45
100
AcDbEntity
  8
Livello 1
 62
   250
420
  1842203
370
    70
100
AcDbVertex
100
AcDb2dVertex
 10
373.5710659918781
 20
-136.3161313192802
 30
0.0
  0
VERTEX
  5
48
330
45
100
AcDbEntity
  8
Livello 1
 62
   250
420
  1842203
370
    70
100
AcDbVertex
100
AcDb2dVertex
 10
373.5710659918781
 20
-160.9524732575661
 30
0.0
  0
VERTEX
  5
49
330
45
100
AcDbEntity
  8
Livello 1
 62
   250
420
  1842203
370
    70
100
AcDbVertex
100
AcDb2dVertex
 10
309.8064097760078
 20
-160.9524732575661
 30
0.0
  0
VERTEX
  5
4A
330
45
100
AcDbEntity
  8
Livello 1
 62
   250
420
  1842203
370
    70
100
AcDbVertex
100
AcDb2dVertex
 10
309.8064097760078
 20
-136.3161313192802
 30
0.0
  0
SEQEND
  5
4B
330
45
100
AcDbEntity
  8
Livello 1
 62
   250
420
  1842203
370
    70
  0
ENDBLK
  5
44
330
41
100
AcDbEntity
  8
0
100
AcDbBlockEnd
  0
BLOCK
  5
4E
330
4C
100
AcDbEntity
  8
0
100
AcDbBlockBegin
  2
block 3
 70
     0
 10
0.0
 20
0.0
 30
0.0
  3
block 3
  1

  0
POLYLINE
  5
50
330
4C
100
AcDbEntity
  8
Livello 1
 62
   250
420
  1842203
370
    70
100
AcDb2dPolyline
 66
     1
 10
0.0
 20
0.0
 30
0.0
  0
VERTEX
  5
51
330
50
100
AcDbEntity
  8
Livello 1
 62
   250
420
  1842203
370
    70
100
AcDbVertex
100
AcDb2dVertex
 10
431.7161839433498
 20
-137.0023193746638
 30
0.0
  0
VERTEX
  5
52
330
50
100
AcDbEntity
  8
Livello 1
 62
   250
420
  1842203
370
    70
100
AcDbVertex
100
AcDb2dVertex
 10
456.3525273909371
 20
-137.0023193746638
 30
0.0
  0
VERTEX
  5
53
330
50
100
AcDbEntity
  8
Livello 1
 62
   250
420
  1842203
370
    70
100
AcDbVertex
100
AcDb2dVertex
 10
456.3525273909371
 20
-161.6386613129497
 30
0.0
  0
VERTEX
  5
54
330
50
100
AcDbEntity
  8
Livello 1
 62
   250
420
  1842203
370
    70
100
AcDbVertex
100
AcDb2dVertex
 10
431.7161839433498
 20
-161.6386613129497
 30
0.0
  0
VERTEX
  5
55
330
50
100
AcDbEntity
  8
Livello 1
 62
   250
420
  1842203
370
    70
100
AcDbVertex
100
AcDb2dVertex
 10
431.7161839433498
 20
-137.0023193746638
 30
0.0
  0
SEQEND
  5
56
330
50
100
AcDbEntity
  8
Livello 1
 62
   250
420
  1842203
370
    70
  0
ENDBLK
  5
4F
330
4C
100
AcDbEntity
  8
0
100
AcDbBlockEnd
  0
BLOCK
  5
59
330
57
100
AcDbEntity
  8
0
100
AcDbBlockBegin
  2
block 4
 70
     0
 10
0.0
 20
0.0
 30
0.0
  3
block 4
  1

  0
POLYLINE
  5
5B
330
57
100
AcDbEntity
  8
Livello 1
 62
   250
420
  1842203
370
    70
100
AcDb2dPolyline
 66
     1
 10
0.0
 20
0.0
 30
0.0
  0
VERTEX
  5
5C
330
5B
100
AcDbEntity
  8
Livello 1
 62
   250
420
  1842203
370
    70
100
AcDbVertex
100
AcDb2dVertex
 10
421.5718135107434
 20
-141.2745288180402
 30
0.0
  0
VERTEX
  5
5D
330
5B
100
AcDbEntity
  8
Livello 1
 62
   250
420
  1842203
370
    70
100
AcDbVertex
100
AcDb2dVertex
 10
431.7161839433498
 20
-141.2745288180402
 30
0.0
  0
VERTEX
  5
5E
330
5B
100
AcDbEntity
  8
Livello 1
 62
   250
420
  1842203
370
    70
100
AcDbVertex
100
AcDb2dVertex
 10
431.7161839433498
 20
-158.7388279803409
 30
0.0
  0
VERTEX
  5
5F
330
5B
100
AcDbEntity
  8
Livello 1
 62
   250
420
  1842203
370
    70
100
AcDbVertex
100
AcDb2dVertex
 10
421.5718135107434
 20
-158.7388279803409
 30
0.0
  0
VERTEX
  5
60
330
5B
100
AcDbEntity
  8
Livello 1
 62
   250
420
  1842203
370
    70
100
AcDbVertex
100
AcDb2dVertex
 10
421.5718135107434
 20
-141.2745288180402
 30
0.0
  0
SEQEND
  5
61
330
5B
100
AcDbEntity
  8
Livello 1
 62
   250
420
  1842203
370
    70
  0
ENDBLK
  5
5A
330
57
100
AcDbEntity
  8
0
100
AcDbBlockEnd
  0
BLOCK
  5
64
330
62
100
AcDbEntity
  8
0
100
AcDbBlockBegin
  2
block 5
 70
     0
 10
0.0
 20
0.0
 30
0.0
  3
block 5
  1

  0
POLYLINE
  5
66
330
62
100
AcDbEntity
  8
Livello 1
 62
   250
420
  1842203
370
    70
100
AcDb2dPolyline
 66
     1
 10
0.0
 20
0.0
 30
0.0
  0
VERTEX
  5
67
330
66
100
AcDbEntity
  8
Livello 1
 62
   250
420
  1842203
370
    70
100
AcDbVertex
100
AcDb2dVertex
 10
456.3525273909371
 20
-161.6386613129497
 30
0.0
  0
VERTEX
  5
68
330
66
100
AcDbEntity
  8
Livello 1
 62
   250
420
  1842203
370
    70
100
AcDbVertex
100
AcDb2dVertex
 10
456.3525273909371
 20
-137.0023193746638
 30
0.0
  0
SEQEND
  5
69
330
66
100
AcDbEntity
  8
Livello 1
 62
   250
420
  1842203
370
    70
  0
ENDBLK
  5
65
330
62
100
AcDbEntity
  8
0
100
AcDbBlockEnd
  0
BLOCK
  5
78
330
76
100
AcDbEntity
  8
0
100
AcDbBlockBegin
  2
block 6
 70
     0
 10
0.0
 20
0.0
 30
0.0
  3
block 6
  1

  0
SPLINE
  5
7A
330
76
100
AcDbEntity
  8
Livello 1
370
     0
100
AcDbSpline
210
0.0
220
0.0
230
1.0
 70
    11
 71
     3
 72
    47
 73
    43
 74
     0
 42
0.000000001
 43
0.0000000001
 40
0.0
 40
0.0
 40
0.0
 40
0.0
 40
1.0
 40
1.0
 40
1.0
 40
2.0
 40
2.0
 40
2.0
 40
3.0
 40
3.0
 40
3.0
 40
4.0
 40
4.0
 40
4.0
 40
5.0
 40
5.0
 40
5.0
 40
6.0
 40
6.0
 40
6.0
 40
7.0
 40
7.0
 40
7.0
 40
8.0
 40
8.0
 40
8.0
 40
9.0
 40
9.0
 40
9.0
 40
10.0
 40
10.0
 40
10.0
 40
11.0
 40
11.0
 40
11.0
 40
12.0
 40
12.0
 40
12.0
 40
13.0
 40
13.0
 40
13.0
 40
14.0
 40
14.0
 40
14.0
 40
14.0
 10
339.5179496764052
 20
-179.447100107048
 30
0.0
 10
339.5179496764052
 20
-179.447100107048
 30
0.0
 10
339.5179496764052
 20
-178.9899359361553
 30
0.0
 10
339.5179496764052
 20
-178.9899359361553
 30
0.0
 10
339.5179496764052
 20
-178.9899359361553
 30
0.0
 10
340.1022378707036
 20
-178.4225287097346
 30
0.0
 10
340.1022378707036
 20
-178.4225287097346
 30
0.0
 10
341.5078368286856
 20
-177.0847981328122
 30
0.0
 10
342.1427679266171
 20
-176.3733859151081
 30
0.0
 10
342.1513806653302
 20
-175.5434624127114
 30
0.0
 10
342.1513806653302
 20
-174.9846679250038
 30
0.0
 10
341.8805961601896
 20
-174.4682481117649
 30
0.0
 10
341.0589408869575
 20
-174.4682481117649
 30
0.0
 10
340.5594020415963
 20
-174.4682481117649
 30
0.0
 10
340.1446125451722
 20
-174.7221516490278
 30
0.0
 10
339.8907090079093
 20
-174.9340250213707
 30
0.0
 10
339.8907090079093
 20
-174.9340250213707
 30
0.0
 10
339.6536864385241
 20
-174.4089924694186
 30
0.0
 10
339.6536864385241
 20
-174.4089924694186
 30
0.0
 10
340.0347139991927
 20
-174.0872205510963
 30
0.0
 10
340.5766275190225
 20
-173.8501979817111
 30
0.0
 10
341.2115586169541
 20
-173.8501979817111
 30
0.0
 10
342.3970159734286
 20
-173.8501979817111
 30
0.0
 10
342.8965548187898
 20
-174.6628960066815
 30
0.0
 10
342.8965548187898
 20
-175.4504448346096
 30
0.0
 10
342.8965548187898
 20
-176.4667480027583
 30
0.0
 10
342.1599934040433
 20
-177.2880587664419
 30
0.0
 10
340.9996852446112
 20
-178.4056477418569
 30
0.0
 10
340.9996852446112
 20
-178.4056477418569
 30
0.0
 10
340.5594020415963
 20
-178.8121690091164
 30
0.0
 10
340.5594020415963
 20
-178.8121690091164
 30
0.0
 10
340.5594020415963
 20
-178.8121690091164
 30
0.0
 10
340.5594020415963
 20
-178.8290499769941
 30
0.0
 10
340.5594020415963
 20
-178.8290499769941
 30
0.0
 10
340.5594020415963
 20
-178.8290499769941
 30
0.0
 10
343.0319470713602
 20
-178.8290499769941
 30
0.0
 10
343.0319470713602
 20
-178.8290499769941
 30
0.0
 10
343.0319470713602
 20
-178.8290499769941
 30
0.0
 10
343.0319470713602
 20
-179.447100107048
 30
0.0
 10
343.0319470713602
 20
-179.447100107048
 30
0.0
 10
343.0319470713602
 20
-179.447100107048
 30
0.0
 10
339.5179496764052
 20
-179.447100107048
 30
0.0
 10
339.5179496764052
 20
-179.447100107048
 30
0.0
  0
HATCH
  5
7B
330
76
100
AcDbEntity
  8
Livello 1
 62
   250
420
  1842203
100
AcDbHatch
 10
0.0
 20
0.0
 30
0.0
210
0.0
220
0.0
230
1.0
  2
SOLID
 70
     1
 71
     0
 91
        1
 92
        1
 93
        1
 72
     4
 94
        3
 73
     0
 74
     0
 95
       47
 96
       43
 40
0.0
 40
0.0
 40
0.0
 40
0.0
 40
1.0
 40
1.0
 40
1.0
 40
2.0
 40
2.0
 40
2.0
 40
3.0
 40
3.0
 40
3.0
 40
4.0
 40
4.0
 40
4.0
 40
5.0
 40
5.0
 40
5.0
 40
6.0
 40
6.0
 40
6.0
 40
7.0
 40
7.0
 40
7.0
 40
8.0
 40
8.0
 40
8.0
 40
9.0
 40
9.0
 40
9.0
 40
10.0
 40
10.0
 40
10.0
 40
11.0
 40
11.0
 40
11.0
 40
12.0
 40
12.0
 40
12.0
 40
13.0
 40
13.0
 40
13.0
 40
14.0
 40
14.0
 40
14.0
 40
14.0
 10
339.5179496764052
 20
-179.447100107048
 10
339.5179496764052
 20
-179.447100107048
 10
339.5179496764052
 20
-178.9899359361553
 10
339.5179496764052
 20
-178.9899359361553
 10
339.5179496764052
 20
-178.9899359361553
 10
340.1022378707036
 20
-178.4225287097346
 10
340.1022378707036
 20
-178.4225287097346
 10
341.5078368286856
 20
-177.0847981328122
 10
342.1427679266171
 20
-176.3733859151081
 10
342.1513806653302
 20
-175.5434624127114
 10
342.1513806653302
 20
-174.9846679250038
 10
341.8805961601896
 20
-174.4682481117649
 10
341.0589408869575
 20
-174.4682481117649
 10
340.5594020415963
 20
-174.4682481117649
 10
340.1446125451722
 20
-174.7221516490278
 10
339.8907090079093
 20
-174.9340250213707
 10
339.8907090079093
 20
-174.9340250213707
 10
339.6536864385241
 20
-174.4089924694186
 10
339.6536864385241
 20
-174.4089924694186
 10
340.0347139991927
 20
-174.0872205510963
 10
340.5766275190225
 20
-173.8501979817111
 10
341.2115586169541
 20
-173.8501979817111
 10
342.3970159734286
 20
-173.8501979817111
 10
342.8965548187898
 20
-174.6628960066815
 10
342.8965548187898
 20
-175.4504448346096
 10
342.8965548187898
 20
-176.4667480027583
 10
342.1599934040433
 20
-177.2880587664419
 10
340.9996852446112
 20
-178.4056477418569
 10
340.9996852446112
 20
-178.4056477418569
 10
340.5594020415963
 20
-178.8121690091164
 10
340.5594020415963
 20
-178.8121690091164
 10
340.5594020415963
 20
-178.8121690091164
 10
340.5594020415963
 20
-178.8290499769941
 10
340.5594020415963
 20
-178.8290499769941
 10
340.5594020415963
 20
-178.8290499769941
 10
343.0319470713602
 20
-178.8290499769941
 10
343.0319470713602
 20
-178.8290499769941
 10
343.0319470713602
 20
-178.8290499769941
 10
343.0319470713602
 20
-179.447100107048
 10
343.0319470713602
 20
-179.447100107048
 10
343.0319470713602
 20
-179.447100107048
 10
339.5179496764052
 20
-179.447100107048
 10
339.5179496764052
 20
-179.447100107048
 97
        0
 97
        0
 75
     2
 76
     1
 98
        0
450
        0
451
        0
460
0.0
461
0.0
452
        0
462
0.0
453
        0
470

  0
SPLINE
  5
7C
330
76
100
AcDbEntity
  8
Livello 1
370
     0
100
AcDbSpline
210
0.0
220
0.0
230
1.0
 70
    11
 71
     3
 72
    47
 73
    43
 74
     0
 42
0.000000001
 43
0.0000000001
 40
0.0
 40
0.0
 40
0.0
 40
0.0
 40
1.0
 40
1.0
 40
1.0
 40
2.0
 40
2.0
 40
2.0
 40
3.0
 40
3.0
 40
3.0
 40
4.0
 40
4.0
 40
4.0
 40
5.0
 40
5.0
 40
5.0
 40
6.0
 40
6.0
 40
6.0
 40
7.0
 40
7.0
 40
7.0
 40
8.0
 40
8.0
 40
8.0
 40
9.0
 40
9.0
 40
9.0
 40
10.0
 40
10.0
 40
10.0
 40
11.0
 40
11.0
 40
11.0
 40
12.0
 40
12.0
 40
12.0
 40
13.0
 40
13.0
 40
13.0
 40
14.0
 40
14.0
 40
14.0
 40
14.0
 10
343.8611815546597
 20
-179.447100107048
 30
0.0
 10
343.8611815546597
 20
-179.447100107048
 30
0.0
 10
343.8611815546597
 20
-178.9899359361553
 30
0.0
 10
343.8611815546597
 20
-178.9899359361553
 30
0.0
 10
343.8611815546597
 20
-178.9899359361553
 30
0.0
 10
344.4454697489581
 20
-178.4225287097346
 30
0.0
 10
344.4454697489581
 20
-178.4225287097346
 30
0.0
 10
345.8510687069402
 20
-177.0847981328122
 30
0.0
 10
346.4859998048716
 20
-176.3733859151081
 30
0.0
 10
346.4946125435846
 20
-175.5434624127114
 30
0.0
 10
346.4946125435846
 20
-174.9846679250038
 30
0.0
 10
346.2238280384442
 20
-174.4682481117649
 30
0.0
 10
345.402172765212
 20
-174.4682481117649
 30
0.0
 10
344.9026339198509
 20
-174.4682481117649
 30
0.0
 10
344.4878444234267
 20
-174.7221516490278
 30
0.0
 10
344.2339408861637
 20
-174.9340250213707
 30
0.0
 10
344.2339408861637
 20
-174.9340250213707
 30
0.0
 10
343.9969183167786
 20
-174.4089924694186
 30
0.0
 10
343.9969183167786
 20
-174.4089924694186
 30
0.0
 10
344.3779458774472
 20
-174.0872205510963
 30
0.0
 10
344.919859397277
 20
-173.8501979817111
 30
0.0
 10
345.5547904952085
 20
-173.8501979817111
 30
0.0
 10
346.740247851683
 20
-173.8501979817111
 30
0.0
 10
347.2397866970442
 20
-174.6628960066815
 30
0.0
 10
347.2397866970442
 20
-175.4504448346096
 30
0.0
 10
347.2397866970442
 20
-176.4667480027583
 30
0.0
 10
346.5032252822978
 20
-177.2880587664419
 30
0.0
 10
345.3429171228657
 20
-178.4056477418569
 30
0.0
 10
345.3429171228657
 20
-178.4056477418569
 30
0.0
 10
344.9026339198509
 20
-178.8121690091164
 30
0.0
 10
344.9026339198509
 20
-178.8121690091164
 30
0.0
 10
344.9026339198509
 20
-178.8121690091164
 30
0.0
 10
344.9026339198509
 20
-178.8290499769941
 30
0.0
 10
344.9026339198509
 20
-178.8290499769941
 30
0.0
 10
344.9026339198509
 20
-178.8290499769941
 30
0.0
 10
347.3751789496146
 20
-178.8290499769941
 30
0.0
 10
347.3751789496146
 20
-178.8290499769941
 30
0.0
 10
347.3751789496146
 20
-178.8290499769941
 30
0.0
 10
347.3751789496146
 20
-179.447100107048
 30
0.0
 10
347.3751789496146
 20
-179.447100107048
 30
0.0
 10
347.3751789496146
 20
-179.447100107048
 30
0.0
 10
343.8611815546597
 20
-179.447100107048
 30
0.0
 10
343.8611815546597
 20
-179.447100107048
 30
0.0
  0
HATCH
  5
7D
330
76
100
AcDbEntity
  8
Livello 1
 62
   250
420
  1842203
100
AcDbHatch
 10
0.0
 20
0.0
 30
0.0
210
0.0
220
0.0
230
1.0
  2
SOLID
 70
     1
 71
     0
 91
        1
 92
        1
 93
        1
 72
     4
 94
        3
 73
     0
 74
     0
 95
       47
 96
       43
 40
0.0
 40
0.0
 40
0.0
 40
0.0
 40
1.0
 40
1.0
 40
1.0
 40
2.0
 40
2.0
 40
2.0
 40
3.0
 40
3.0
 40
3.0
 40
4.0
 40
4.0
 40
4.0
 40
5.0
 40
5.0
 40
5.0
 40
6.0
 40
6.0
 40
6.0
 40
7.0
 40
7.0
 40
7.0
 40
8.0
 40
8.0
 40
8.0
 40
9.0
 40
9.0
 40
9.0
 40
10.0
 40
10.0
 40
10.0
 40
11.0
 40
11.0
 40
11.0
 40
12.0
 40
12.0
 40
12.0
 40
13.0
 40
13.0
 40
13.0
 40
14.0
 40
14.0
 40
14.0
 40
14.0
 10
343.8611815546597
 20
-179.447100107048
 10
343.8611815546597
 20
-179.447100107048
 10
343.8611815546597
 20
-178.9899359361553
 10
343.8611815546597
 20
-178.9899359361553
 10
343.8611815546597
 20
-178.9899359361553
 10
344.4454697489581
 20
-178.4225287097346
 10
344.4454697489581
 20
-178.4225287097346
 10
345.8510687069402
 20
-177.0847981328122
 10
346.4859998048716
 20
-176.3733859151081
 10
346.4946125435846
 20
-175.5434624127114
 10
346.4946125435846
 20
-174.9846679250038
 10
346.2238280384442
 20
-174.4682481117649
 10
345.402172765212
 20
-174.4682481117649
 10
344.9026339198509
 20
-174.4682481117649
 10
344.4878444234267
 20
-174.7221516490278
 10
344.2339408861637
 20
-174.9340250213707
 10
344.2339408861637
 20
-174.9340250213707
 10
343.9969183167786
 20
-174.4089924694186
 10
343.9969183167786
 20
-174.4089924694186
 10
344.3779458774472
 20
-174.0872205510963
 10
344.919859397277
 20
-173.8501979817111
 10
345.5547904952085
 20
-173.8501979817111
 10
346.740247851683
 20
-173.8501979817111
 10
347.2397866970442
 20
-174.6628960066815
 10
347.2397866970442
 20
-175.4504448346096
 10
347.2397866970442
 20
-176.4667480027583
 10
346.5032252822978
 20
-177.2880587664419
 10
345.3429171228657
 20
-178.4056477418569
 10
345.3429171228657
 20
-178.4056477418569
 10
344.9026339198509
 20
-178.8121690091164
 10
344.9026339198509
 20
-178.8121690091164
 10
344.9026339198509
 20
-178.8121690091164
 10
344.9026339198509
 20
-178.8290499769941
 10
344.9026339198509
 20
-178.8290499769941
 10
344.9026339198509
 20
-178.8290499769941
 10
347.3751789496146
 20
-178.8290499769941
 10
347.3751789496146
 20
-178.8290499769941
 10
347.3751789496146
 20
-178.8290499769941
 10
347.3751789496146
 20
-179.447100107048
 10
347.3751789496146
 20
-179.447100107048
 10
347.3751789496146
 20
-179.447100107048
 10
343.8611815546597
 20
-179.447100107048
 10
343.8611815546597
 20
-179.447100107048
 97
        0
 97
        0
 75
     2
 76
     1
 98
        0
450
        0
451
        0
460
0.0
461
0.0
452
        0
462
0.0
453
        0
470

  0
ENDBLK
  5
79
330
76
100
AcDbEntity
  8
0
100
AcDbBlockEnd
  0
BLOCK
  5
80
330
7E
100
AcDbEntity
  8
0
100
AcDbBlockBegin
  2
block 7
 70
     0
 10
0.0
 20
0.0
 30
0.0
  3
block 7
  1

  0
SPLINE
  5
82
330
7E
100
AcDbEntity
  8
Livello 1
370
     0
100
AcDbSpline
210
0.0
220
0.0
230
1.0
 70
     9
 71
     3
 72
    35
 73
    31
 74
     0
 42
0.000000001
 43
0.0000000001
 40
0.0
 40
0.0
 40
0.0
 40
0.0
 40
1.0
 40
1.0
 40
1.0
 40
2.0
 40
2.0
 40
2.0
 40
3.0
 40
3.0
 40
3.0
 40
4.0
 40
4.0
 40
4.0
 40
5.0
 40
5.0
 40
5.0
 40
6.0
 40
6.0
 40
6.0
 40
7.0
 40
7.0
 40
7.0
 40
8.0
 40
8.0
 40
8.0
 40
9.0
 40
9.0
 40
9.0
 40
10.0
 40
10.0
 40
10.0
 40
10.0
 10
477.5519014648135
 20
-154.1700900222214
 30
0.0
 10
476.857370214987
 20
-154.1700900222214
 30
0.0
 10
476.366444108339
 20
-153.7553005257973
 30
0.0
 10
476.078434125772
 20
-153.0776502438486
 30
0.0
 10
476.078434125772
 20
-153.0776502438486
 30
0.0
 10
476.0529404191813
 20
-153.0862629825618
 30
0.0
 10
476.0529404191813
 20
-153.0862629825618
 30
0.0
 10
475.7652749461628
 20
-153.6957003739025
 30
0.0
 10
475.2908852978438
 20
-153.9582166498785
 30
0.0
 10
474.8168401590736
 20
-153.9582166498785
 30
0.0
 10
473.9445419822082
 20
-153.9582166498785
 30
0.0
 10
473.3519855587453
 20
-153.2216552351321
 30
0.0
 10
473.3519855587453
 20
-152.2563394801651
 30
0.0
 10
473.3519855587453
 20
-151.1893934083832
 30
0.0
 10
474.0210231019808
 20
-150.6560926272665
 30
0.0
 10
474.7065971035456
 20
-150.6560926272665
 30
0.0
 10
475.1723740131514
 20
-150.6560926272665
 30
0.0
 10
475.6719128585126
 20
-150.884846967487
 30
0.0
 10
475.9936847768348
 20
-151.5621527398872
 30
0.0
 10
475.9936847768348
 20
-151.5621527398872
 30
0.0
 10
476.0191784834258
 20
-151.5621527398872
 30
0.0
 10
476.0191784834258
 20
-151.5621527398872
 30
0.0
 10
476.2899629885663
 20
-150.8758897192255
 30
0.0
 10
476.7726208660498
 20
-150.4528319936368
 30
0.0
 10
477.4416584092853
 20
-150.4528319936368
 30
0.0
 10
478.3983614255393
 20
-150.4528319936368
 30
0.0
 10
479.041905262184
 20
-151.2741427573204
 30
0.0
 10
479.041905262184
 20
-152.3242078612245
 30
0.0
 10
479.041905262184
 20
-153.475558772395
 30
0.0
 10
478.3563312606193
 20
-154.1700900222214
 30
0.0
 10
477.5519014648135
 20
-154.1700900222214
 30
0.0
  0
SPLINE
  5
83
330
7E
100
AcDbEntity
  8
Livello 1
370
     0
100
AcDbSpline
210
0.0
220
0.0
230
1.0
 70
     9
 71
     3
 72
    17
 73
    13
 74
     0
 42
0.000000001
 43
0.0000000001
 40
0.0
 40
0.0
 40
0.0
 40
0.0
 40
1.0
 40
1.0
 40
1.0
 40
2.0
 40
2.0
 40
2.0
 40
3.0
 40
3.0
 40
3.0
 40
4.0
 40
4.0
 40
4.0
 40
4.0
 10
474.7658527458918
 20
-153.2554171708875
 30
0.0
 10
475.3163790044347
 20
-153.2554171708875
 30
0.0
 10
475.6126572161663
 20
-152.8406276744635
 30
0.0
 10
475.7821559140406
 20
-152.2056965765319
 30
0.0
 10
475.6212699548793
 20
-151.731306928213
 30
0.0
 10
475.2826170686794
 20
-151.3671603354221
 30
0.0
 10
474.783078223318
 20
-151.3671603354221
 30
0.0
 10
474.3424505107546
 20
-151.3671603354221
 30
0.0
 10
473.8852863398619
 20
-151.629676611398
 30
0.0
 10
473.8852863398619
 20
-152.2987141546337
 30
0.0
 10
473.8852863398619
 20
-152.9167642846875
 30
0.0
 10
474.2918076071214
 20
-153.2554171708875
 30
0.0
 10
474.7658527458918
 20
-153.2554171708875
 30
0.0
  0
SPLINE
  5
84
330
7E
100
AcDbEntity
  8
Livello 1
370
     0
100
AcDbSpline
210
0.0
220
0.0
230
1.0
 70
     9
 71
     3
 72
    17
 73
    13
 74
     0
 42
0.000000001
 43
0.0000000001
 40
0.0
 40
0.0
 40
0.0
 40
0.0
 40
1.0
 40
1.0
 40
1.0
 40
2.0
 40
2.0
 40
2.0
 40
3.0
 40
3.0
 40
3.0
 40
4.0
 40
4.0
 40
4.0
 40
4.0
 10
477.5177950195093
 20
-151.2066188858095
 30
0.0
 10
476.8491019858225
 20
-151.2066188858095
 30
0.0
 10
476.5273300675001
 20
-151.6720512858666
 30
0.0
 10
476.3154566951572
 20
-152.4172254393262
 30
0.0
 10
476.5018363609093
 20
-153.0607692759709
 30
0.0
 10
476.9252385960465
 20
-153.4080349008841
 30
0.0
 10
477.4502711479986
 20
-153.4080349008841
 30
0.0
 10
478.0090656357061
 20
-153.433528607475
 30
0.0
 10
478.4999917423542
 20
-153.0097818627892
 30
0.0
 10
478.4999917423542
 20
-152.3069823837983
 30
0.0
 10
478.4999917423542
 20
-151.6382893501113
 30
0.0
 10
478.08520224593
 20
-151.2066188858095
 30
0.0
 10
477.5177950195093
 20
-151.2066188858095
 30
0.0
  0
HATCH
  5
85
330
7E
100
AcDbEntity
  8
Livello 1
 62
   250
420
  1842203
100
AcDbHatch
 10
0.0
 20
0.0
 30
0.0
210
0.0
220
0.0
230
1.0
  2
SOLID
 70
     1
 71
     0
 91
        3
 92
        1
 93
        1
 72
     4
 94
        3
 73
     0
 74
     0
 95
       35
 96
       31
 40
0.0
 40
0.0
 40
0.0
 40
0.0
 40
1.0
 40
1.0
 40
1.0
 40
2.0
 40
2.0
 40
2.0
 40
3.0
 40
3.0
 40
3.0
 40
4.0
 40
4.0
 40
4.0
 40
5.0
 40
5.0
 40
5.0
 40
6.0
 40
6.0
 40
6.0
 40
7.0
 40
7.0
 40
7.0
 40
8.0
 40
8.0
 40
8.0
 40
9.0
 40
9.0
 40
9.0
 40
10.0
 40
10.0
 40
10.0
 40
10.0
 10
477.5519014648135
 20
-154.1700900222214
 10
476.857370214987
 20
-154.1700900222214
 10
476.366444108339
 20
-153.7553005257973
 10
476.078434125772
 20
-153.0776502438486
 10
476.078434125772
 20
-153.0776502438486
 10
476.0529404191813
 20
-153.0862629825618
 10
476.0529404191813
 20
-153.0862629825618
 10
475.7652749461628
 20
-153.6957003739025
 10
475.2908852978438
 20
-153.9582166498785
 10
474.8168401590736
 20
-153.9582166498785
 10
473.9445419822082
 20
-153.9582166498785
 10
473.3519855587453
 20
-153.2216552351321
 10
473.3519855587453
 20
-152.2563394801651
 10
473.3519855587453
 20
-151.1893934083832
 10
474.0210231019808
 20
-150.6560926272665
 10
474.7065971035456
 20
-150.6560926272665
 10
475.1723740131514
 20
-150.6560926272665
 10
475.6719128585126
 20
-150.884846967487
 10
475.9936847768348
 20
-151.5621527398872
 10
475.9936847768348
 20
-151.5621527398872
 10
476.0191784834258
 20
-151.5621527398872
 10
476.0191784834258
 20
-151.5621527398872
 10
476.2899629885663
 20
-150.8758897192255
 10
476.7726208660498
 20
-150.4528319936368
 10
477.4416584092853
 20
-150.4528319936368
 10
478.3983614255393
 20
-150.4528319936368
 10
479.041905262184
 20
-151.2741427573204
 10
479.041905262184
 20
-152.3242078612245
 10
479.041905262184
 20
-153.475558772395
 10
478.3563312606193
 20
-154.1700900222214
 10
477.5519014648135
 20
-154.1700900222214
 97
        0
 97
        0
 92
        1
 93
        1
 72
     4
 94
        3
 73
     0
 74
     0
 95
       17
 96
       13
 40
0.0
 40
0.0
 40
0.0
 40
0.0
 40
1.0
 40
1.0
 40
1.0
 40
2.0
 40
2.0
 40
2.0
 40
3.0
 40
3.0
 40
3.0
 40
4.0
 40
4.0
 40
4.0
 40
4.0
 10
474.7658527458918
 20
-153.2554171708875
 10
475.3163790044347
 20
-153.2554171708875
 10
475.6126572161663
 20
-152.8406276744635
 10
475.7821559140406
 20
-152.2056965765319
 10
475.6212699548793
 20
-151.731306928213
 10
475.2826170686794
 20
-151.3671603354221
 10
474.783078223318
 20
-151.3671603354221
 10
474.3424505107546
 20
-151.3671603354221
 10
473.8852863398619
 20
-151.629676611398
 10
473.8852863398619
 20
-152.2987141546337
 10
473.8852863398619
 20
-152.9167642846875
 10
474.2918076071214
 20
-153.2554171708875
 10
474.7658527458918
 20
-153.2554171708875
 97
        0
 97
        0
 92
        1
 93
        1
 72
     4
 94
        3
 73
     0
 74
     0
 95
       17
 96
       13
 40
0.0
 40
0.0
 40
0.0
 40
0.0
 40
1.0
 40
1.0
 40
1.0
 40
2.0
 40
2.0
 40
2.0
 40
3.0
 40
3.0
 40
3.0
 40
4.0
 40
4.0
 40
4.0
 40
4.0
 10
477.5177950195093
 20
-151.2066188858095
 10
476.8491019858225
 20
-151.2066188858095
 10
476.5273300675001
 20
-151.6720512858666
 10
476.3154566951572
 20
-152.4172254393262
 10
476.5018363609093
 20
-153.0607692759709
 10
476.9252385960465
 20
-153.4080349008841
 10
477.4502711479986
 20
-153.4080349008841
 10
478.0090656357061
 20
-153.433528607475
 10
478.4999917423542
 20
-153.0097818627892
 10
478.4999917423542
 20
-152.3069823837983
 10
478.4999917423542
 20
-151.6382893501113
 10
478.08520224593
 20
-151.2066188858095
 10
477.5177950195093
 20
-151.2066188858095
 97
        0
 97
        0
 75
     2
 76
     1
 98
        0
450
        0
451
        0
460
0.0
461
0.0
452
        0
462
0.0
453
        0
470

  0
SPLINE
  5
86
330
7E
100
AcDbEntity
  8
Livello 1
370
     0
100
AcDbSpline
210
0.0
220
0.0
230
1.0
 70
     9
 71
     3
 72
    17
 73
    13
 74
     0
 42
0.000000001
 43
0.0000000001
 40
0.0
 40
0.0
 40
0.0
 40
0.0
 40
1.0
 40
1.0
 40
1.0
 40
2.0
 40
2.0
 40
2.0
 40
3.0
 40
3.0
 40
3.0
 40
4.0
 40
4.0
 40
4.0
 40
4.0
 10
479.9903400492732
 20
-150.0046250710058
 30
0.0
 10
479.490801203912
 20
-149.8182454052538
 30
0.0
 10
478.5847410912912
 20
-149.5894910650332
 30
0.0
 10
477.9666909612374
 20
-149.4964734869314
 30
0.0
 10
477.9666909612374
 20
-149.4964734869314
 30
0.0
 10
477.8819416123003
 20
-148.666722239309
 30
0.0
 10
477.8819416123003
 20
-148.666722239309
 30
0.0
 10
478.6016220591691
 20
-148.8613701342256
 30
0.0
 10
479.5414441075451
 20
-149.2339572109554
 30
0.0
 10
479.9396971456401
 20
-149.4709797803406
 30
0.0
 10
479.9396971456401
 20
-149.4709797803406
 30
0.0
 10
479.9903400492732
 20
-150.0046250710058
 30
0.0
 10
479.9903400492732
 20
-150.0046250710058
 30
0.0
  0
HATCH
  5
87
330
7E
100
AcDbEntity
  8
Livello 1
 62
   250
420
  1842203
100
AcDbHatch
 10
0.0
 20
0.0
 30
0.0
210
0.0
220
0.0
230
1.0
  2
SOLID
 70
     1
 71
     0
 91
        1
 92
        1
 93
        1
 72
     4
 94
        3
 73
     0
 74
     0
 95
       17
 96
       13
 40
0.0
 40
0.0
 40
0.0
 40
0.0
 40
1.0
 40
1.0
 40
1.0
 40
2.0
 40
2.0
 40
2.0
 40
3.0
 40
3.0
 40
3.0
 40
4.0
 40
4.0
 40
4.0
 40
4.0
 10
479.9903400492732
 20
-150.0046250710058
 10
479.490801203912
 20
-149.8182454052538
 10
478.5847410912912
 20
-149.5894910650332
 10
477.9666909612374
 20
-149.4964734869314
 10
477.9666909612374
 20
-149.4964734869314
 10
477.8819416123003
 20
-148.666722239309
 10
477.8819416123003
 20
-148.666722239309
 10
478.6016220591691
 20
-148.8613701342256
 10
479.5414441075451
 20
-149.2339572109554
 10
479.9396971456401
 20
-149.4709797803406
 10
479.9396971456401
 20
-149.4709797803406
 10
479.9903400492732
 20
-150.0046250710058
 10
479.9903400492732
 20
-150.0046250710058
 97
        0
 97
        0
 75
     2
 76
     1
 98
        0
450
        0
451
        0
460
0.0
461
0.0
452
        0
462
0.0
453
        0
470

  0
SPLINE
  5
88
330
7E
100
AcDbEntity
  8
Livello 1
370
     0
100
AcDbSpline
210
0.0
220
0.0
230
1.0
 70
    11
 71
     3
 72
    50
 73
    46
 74
     0
 42
0.000000001
 43
0.0000000001
 40
0.0
 40
0.0
 40
0.0
 40
0.0
 40
1.0
 40
1.0
 40
1.0
 40
2.0
 40
2.0
 40
2.0
 40
3.0
 40
3.0
 40
3.0
 40
4.0
 40
4.0
 40
4.0
 40
5.0
 40
5.0
 40
5.0
 40
6.0
 40
6.0
 40
6.0
 40
7.0
 40
7.0
 40
7.0
 40
8.0
 40
8.0
 40
8.0
 40
9.0
 40
9.0
 40
9.0
 40
10.0
 40
10.0
 40
10.0
 40
11.0
 40
11.0
 40
11.0
 40
12.0
 40
12.0
 40
12.0
 40
13.0
 40
13.0
 40
13.0
 40
14.0
 40
14.0
 40
14.0
 40
15.0
 40
15.0
 40
15.0
 40
15.0
 10
474.0716660056141
 20
-144.7210543800524
 30
0.0
 10
474.0716660056141
 20
-144.7210543800524
 30
0.0
 10
474.0716660056141
 20
-146.8210123330864
 30
0.0
 10
474.0716660056141
 20
-146.8210123330864
 30
0.0
 10
474.0716660056141
 20
-146.8210123330864
 30
0.0
 10
475.485877702309
 20
-147.032713450655
 30
0.0
 10
475.485877702309
 20
-147.032713450655
 30
0.0
 10
475.4686522248828
 20
-146.9057616820236
 30
0.0
 10
475.4517712570051
 20
-146.7870781425567
 30
0.0
 10
475.4517712570051
 20
-146.5839897637012
 30
0.0
 10
475.4517712570051
 20
-146.160587528564
 30
0.0
 10
475.5451333446553
 20
-145.7371852934268
 30
0.0
 10
475.7480494687366
 20
-145.3985324072268
 30
0.0
 10
475.9936847768348
 20
-144.9666896881507
 30
0.0
 10
476.4680744251537
 20
-144.6109835792986
 30
0.0
 10
477.1622611654317
 20
-144.6109835792986
 30
0.0
 10
478.2374754663782
 20
-144.6109835792986
 30
0.0
 10
479.041905262184
 20
-145.4662285335119
 30
0.0
 10
479.041905262184
 20
-146.6601263739253
 30
0.0
 10
479.041905262184
 20
-147.2612955361014
 30
0.0
 10
478.8727510738581
 20
-147.7694471201757
 30
0.0
 10
478.7032523759839
 20
-148.0317911413775
 30
0.0
 10
478.7032523759839
 20
-148.0317911413775
 30
0.0
 10
478.1361896591118
 20
-147.8455837303997
 30
0.0
 10
478.1361896591118
 20
-147.8455837303997
 30
0.0
 10
478.2715819116821
 20
-147.6170016449534
 30
0.0
 10
478.4407361000078
 20
-147.1682779579996
 30
0.0
 10
478.4407361000078
 20
-146.6685668578641
 30
0.0
 10
478.4407361000078
 20
-145.9657673788732
 30
0.0
 10
477.9835719291152
 20
-145.3645982166971
 30
0.0
 10
477.2470105143688
 20
-145.3645982166971
 30
0.0
 10
476.5355982966646
 20
-145.3730387006359
 30
0.0
 10
476.0277912221389
 20
-145.8472560941806
 30
0.0
 10
476.0277912221389
 20
-146.9479641017179
 30
0.0
 10
476.0277912221389
 20
-147.2612955361014
 30
0.0
 10
476.0615531578944
 20
-147.5069308441997
 30
0.0
 10
476.0870468644851
 20
-147.7101914778294
 30
0.0
 10
476.0870468644851
 20
-147.7101914778294
 30
0.0
 10
473.4450031368472
 20
-147.3544853689774
 30
0.0
 10
473.4450031368472
 20
-147.3544853689774
 30
0.0
 10
473.4450031368472
 20
-147.3544853689774
 30
0.0
 10
473.4450031368472
 20
-144.7210543800524
 30
0.0
 10
473.4450031368472
 20
-144.7210543800524
 30
0.0
 10
473.4450031368472
 20
-144.7210543800524
 30
0.0
 10
474.0716660056141
 20
-144.7210543800524
 30
0.0
 10
474.0716660056141
 20
-144.7210543800524
 30
0.0
  0
HATCH
  5
89
330
7E
100
AcDbEntity
  8
Livello 1
 62
   250
420
  1842203
100
AcDbHatch
 10
0.0
 20
0.0
 30
0.0
210
0.0
220
0.0
230
1.0
  2
SOLID
 70
     1
 71
     0
 91
        1
 92
        1
 93
        1
 72
     4
 94
        3
 73
     0
 74
     0
 95
       50
 96
       46
 40
0.0
 40
0.0
 40
0.0
 40
0.0
 40
1.0
 40
1.0
 40
1.0
 40
2.0
 40
2.0
 40
2.0
 40
3.0
 40
3.0
 40
3.0
 40
4.0
 40
4.0
 40
4.0
 40
5.0
 40
5.0
 40
5.0
 40
6.0
 40
6.0
 40
6.0
 40
7.0
 40
7.0
 40
7.0
 40
8.0
 40
8.0
 40
8.0
 40
9.0
 40
9.0
 40
9.0
 40
10.0
 40
10.0
 40
10.0
 40
11.0
 40
11.0
 40
11.0
 40
12.0
 40
12.0
 40
12.0
 40
13.0
 40
13.0
 40
13.0
 40
14.0
 40
14.0
 40
14.0
 40
15.0
 40
15.0
 40
15.0
 40
15.0
 10
474.0716660056141
 20
-144.7210543800524
 10
474.0716660056141
 20
-144.7210543800524
 10
474.0716660056141
 20
-146.8210123330864
 10
474.0716660056141
 20
-146.8210123330864
 10
474.0716660056141
 20
-146.8210123330864
 10
475.485877702309
 20
-147.032713450655
 10
475.485877702309
 20
-147.032713450655
 10
475.4686522248828
 20
-146.9057616820236
 10
475.4517712570051
 20
-146.7870781425567
 10
475.4517712570051
 20
-146.5839897637012
 10
475.4517712570051
 20
-146.160587528564
 10
475.5451333446553
 20
-145.7371852934268
 10
475.7480494687366
 20
-145.3985324072268
 10
475.9936847768348
 20
-144.9666896881507
 10
476.4680744251537
 20
-144.6109835792986
 10
477.1622611654317
 20
-144.6109835792986
 10
478.2374754663782
 20
-144.6109835792986
 10
479.041905262184
 20
-145.4662285335119
 10
479.041905262184
 20
-146.6601263739253
 10
479.041905262184
 20
-147.2612955361014
 10
478.8727510738581
 20
-147.7694471201757
 10
478.7032523759839
 20
-148.0317911413775
 10
478.7032523759839
 20
-148.0317911413775
 10
478.1361896591118
 20
-147.8455837303997
 10
478.1361896591118
 20
-147.8455837303997
 10
478.2715819116821
 20
-147.6170016449534
 10
478.4407361000078
 20
-147.1682779579996
 10
478.4407361000078
 20
-146.6685668578641
 10
478.4407361000078
 20
-145.9657673788732
 10
477.9835719291152
 20
-145.3645982166971
 10
477.2470105143688
 20
-145.3645982166971
 10
476.5355982966646
 20
-145.3730387006359
 10
476.0277912221389
 20
-145.8472560941806
 10
476.0277912221389
 20
-146.9479641017179
 10
476.0277912221389
 20
-147.2612955361014
 10
476.0615531578944
 20
-147.5069308441997
 10
476.0870468644851
 20
-147.7101914778294
 10
476.0870468644851
 20
-147.7101914778294
 10
473.4450031368472
 20
-147.3544853689774
 10
473.4450031368472
 20
-147.3544853689774
 10
473.4450031368472
 20
-147.3544853689774
 10
473.4450031368472
 20
-144.7210543800524
 10
473.4450031368472
 20
-144.7210543800524
 10
473.4450031368472
 20
-144.7210543800524
 10
474.0716660056141
 20
-144.7210543800524
 10
474.0716660056141
 20
-144.7210543800524
 97
        0
 97
        0
 75
     2
 76
     1
 98
        0
450
        0
451
        0
460
0.0
461
0.0
452
        0
462
0.0
453
        0
470

  0
ENDBLK
  5
81
330
7E
100
AcDbEntity
  8
0
100
AcDbBlockEnd
  0
BLOCK
  5
8C
330
8A
100
AcDbEntity
  8
0
100
AcDbBlockBegin
  2
block 8
 70
     0
 10
0.0
 20
0.0
 30
0.0
  3
block 8
  1

  0
POLYLINE
  5
8E
330
8A
100
AcDbEntity
  8
Livello 1
370
     0
100
AcDb2dPolyline
 66
     1
 10
0.0
 20
0.0
 30
0.0
  0
VERTEX
  5
8F
330
8E
100
AcDbEntity
  8
Livello 1
370
     0
100
AcDbVertex
100
AcDb2dVertex
 10
436.2238470046593
 20
-174.6377468096392
 30
0.0
  0
VERTEX
  5
90
330
8E
100
AcDbEntity
  8
Livello 1
370
     0
100
AcDbVertex
100
AcDb2dVertex
 10
436.2069660367816
 20
-174.6377468096392
 30
0.0
  0
VERTEX
  5
91
330
8E
100
AcDbEntity
  8
Livello 1
370
     0
100
AcDbVertex
100
AcDb2dVertex
 10
435.2502630205277
 20
-175.1541666228781
 30
0.0
  0
VERTEX
  5
92
330
8E
100
AcDbEntity
  8
Livello 1
370
     0
100
AcDbVertex
100
AcDb2dVertex
 10
435.1062580292443
 20
-174.5867593964575
 30
0.0
  0
VERTEX
  5
93
330
8E
100
AcDbEntity
  8
Livello 1
370
     0
100
AcDbVertex
100
AcDb2dVertex
 10
436.3085963535964
 20
-173.9432155598128
 30
0.0
  0
VERTEX
  5
94
330
8E
100
AcDbEntity
  8
Livello 1
370
     0
100
AcDbVertex
100
AcDb2dVertex
 10
436.943527451528
 20
-173.9432155598128
 30
0.0
  0
VERTEX
  5
95
330
8E
100
AcDbEntity
  8
Livello 1
370
     0
100
AcDbVertex
100
AcDb2dVertex
 10
436.943527451528
 20
-179.447100107048
 30
0.0
  0
VERTEX
  5
96
330
8E
100
AcDbEntity
  8
Livello 1
370
     0
100
AcDbVertex
100
AcDb2dVertex
 10
436.2238470046593
 20
-179.447100107048
 30
0.0
  0
VERTEX
  5
97
330
8E
100
AcDbEntity
  8
Livello 1
370
     0
100
AcDbVertex
100
AcDb2dVertex
 10
436.2238470046593
 20
-174.6377468096392
 30
0.0
  0
SEQEND
  5
98
330
8E
100
AcDbEntity
  8
Livello 1
370
     0
  0
HATCH
  5
99
330
8A
100
AcDbEntity
  8
Livello 1
 62
   250
420
  1842203
100
AcDbHatch
 10
0.0
 20
0.0
 30
0.0
210
0.0
220
0.0
230
1.0
  2
SOLID
 70
     1
 71
     0
 91
        1
 92
        1
 93
        8
 72
     1
 10
436.2238470046593
 20
-174.6377468096392
 11
436.2069660367816
 21
-174.6377468096392
 72
     1
 10
436.2069660367816
 20
-174.6377468096392
 11
435.2502630205277
 21
-175.1541666228781
 72
     1
 10
435.2502630205277
 20
-175.1541666228781
 11
435.1062580292443
 21
-174.5867593964575
 72
     1
 10
435.1062580292443
 20
-174.5867593964575
 11
436.3085963535964
 21
-173.9432155598128
 72
     1
 10
436.3085963535964
 20
-173.9432155598128
 11
436.943527451528
 21
-173.9432155598128
 72
     1
 10
436.943527451528
 20
-173.9432155598128
 11
436.943527451528
 21
-179.447100107048
 72
     1
 10
436.943527451528
 20
-179.447100107048
 11
436.2238470046593
 21
-179.447100107048
 72
     1
 10
436.2238470046593
 20
-179.447100107048
 11
436.2238470046593
 21
-174.6377468096392
 97
        0
 75
     2
 76
     1
 98
        0
450
        0
451
        0
460
0.0
461
0.0
452
        0
462
0.0
453
        0
470

  0
SPLINE
  5
9A
330
8A
100
AcDbEntity
  8
Livello 1
370
     0
100
AcDbSpline
210
0.0
220
0.0
230
1.0
 70
    11
 71
     3
 72
    47
 73
    43
 74
     0
 42
0.000000001
 43
0.0000000001
 40
0.0
 40
0.0
 40
0.0
 40
0.0
 40
1.0
 40
1.0
 40
1.0
 40
2.0
 40
2.0
 40
2.0
 40
3.0
 40
3.0
 40
3.0
 40
4.0
 40
4.0
 40
4.0
 40
5.0
 40
5.0
 40
5.0
 40
6.0
 40
6.0
 40
6.0
 40
7.0
 40
7.0
 40
7.0
 40
8.0
 40
8.0
 40
8.0
 40
9.0
 40
9.0
 40
9.0
 40
10.0
 40
10.0
 40
10.0
 40
11.0
 40
11.0
 40
11.0
 40
12.0
 40
12.0
 40
12.0
 40
13.0
 40
13.0
 40
13.0
 40
14.0
 40
14.0
 40
14.0
 40
14.0
 10
438.9499510621375
 20
-179.447100107048
 30
0.0
 10
438.9499510621375
 20
-179.447100107048
 30
0.0
 10
438.9499510621375
 20
-178.9899359361553
 30
0.0
 10
438.9499510621375
 20
-178.9899359361553
 30
0.0
 10
438.9499510621375
 20
-178.9899359361553
 30
0.0
 10
439.5342392564358
 20
-178.4225287097346
 30
0.0
 10
439.5342392564358
 20
-178.4225287097346
 30
0.0
 10
440.9398382144178
 20
-177.0847981328122
 30
0.0
 10
441.5747693123494
 20
-176.3733859151081
 30
0.0
 10
441.5833820510624
 20
-175.5434624127114
 30
0.0
 10
441.5833820510624
 20
-174.9846679250038
 30
0.0
 10
441.3122530363733
 20
-174.4682481117649
 30
0.0
 10
440.4909422726898
 20
-174.4682481117649
 30
0.0
 10
439.9914034273286
 20
-174.4682481117649
 30
0.0
 10
439.5766139309044
 20
-174.7221516490278
 30
0.0
 10
439.322365884093
 20
-174.9340250213707
 30
0.0
 10
439.322365884093
 20
-174.9340250213707
 30
0.0
 10
439.0853433147078
 20
-174.4089924694186
 30
0.0
 10
439.0853433147078
 20
-174.4089924694186
 30
0.0
 10
439.4663708753765
 20
-174.0872205510963
 30
0.0
 10
440.0082843952063
 20
-173.8501979817111
 30
0.0
 10
440.6432154931378
 20
-173.8501979817111
 30
0.0
 10
441.8286728496124
 20
-173.8501979817111
 30
0.0
 10
442.3282116949734
 20
-174.6628960066815
 30
0.0
 10
442.3282116949734
 20
-175.4504448346096
 30
0.0
 10
442.3282116949734
 20
-176.4667480027583
 30
0.0
 10
441.5916502802271
 20
-177.2880587664419
 30
0.0
 10
440.4316866303434
 20
-178.4056477418569
 30
0.0
 10
440.4316866303434
 20
-178.4056477418569
 30
0.0
 10
439.9914034273286
 20
-178.8121690091164
 30
0.0
 10
439.9914034273286
 20
-178.8121690091164
 30
0.0
 10
439.9914034273286
 20
-178.8121690091164
 30
0.0
 10
439.9914034273286
 20
-178.8290499769941
 30
0.0
 10
439.9914034273286
 20
-178.8290499769941
 30
0.0
 10
439.9914034273286
 20
-178.8290499769941
 30
0.0
 10
442.4639484570923
 20
-178.8290499769941
 30
0.0
 10
442.4639484570923
 20
-178.8290499769941
 30
0.0
 10
442.4639484570923
 20
-178.8290499769941
 30
0.0
 10
442.4639484570923
 20
-179.447100107048
 30
0.0
 10
442.4639484570923
 20
-179.447100107048
 30
0.0
 10
442.4639484570923
 20
-179.447100107048
 30
0.0
 10
438.9499510621375
 20
-179.447100107048
 30
0.0
 10
438.9499510621375
 20
-179.447100107048
 30
0.0
  0
HATCH
  5
9B
330
8A
100
AcDbEntity
  8
Livello 1
 62
   250
420
  1842203
100
AcDbHatch
 10
0.0
 20
0.0
 30
0.0
210
0.0
220
0.0
230
1.0
  2
SOLID
 70
     1
 71
     0
 91
        1
 92
        1
 93
        1
 72
     4
 94
        3
 73
     0
 74
     0
 95
       47
 96
       43
 40
0.0
 40
0.0
 40
0.0
 40
0.0
 40
1.0
 40
1.0
 40
1.0
 40
2.0
 40
2.0
 40
2.0
 40
3.0
 40
3.0
 40
3.0
 40
4.0
 40
4.0
 40
4.0
 40
5.0
 40
5.0
 40
5.0
 40
6.0
 40
6.0
 40
6.0
 40
7.0
 40
7.0
 40
7.0
 40
8.0
 40
8.0
 40
8.0
 40
9.0
 40
9.0
 40
9.0
 40
10.0
 40
10.0
 40
10.0
 40
11.0
 40
11.0
 40
11.0
 40
12.0
 40
12.0
 40
12.0
 40
13.0
 40
13.0
 40
13.0
 40
14.0
 40
14.0
 40
14.0
 40
14.0
 10
438.9499510621375
 20
-179.447100107048
 10
438.9499510621375
 20
-179.447100107048
 10
438.9499510621375
 20
-178.9899359361553
 10
438.9499510621375
 20
-178.9899359361553
 10
438.9499510621375
 20
-178.9899359361553
 10
439.5342392564358
 20
-178.4225287097346
 10
439.5342392564358
 20
-178.4225287097346
 10
440.9398382144178
 20
-177.0847981328122
 10
441.5747693123494
 20
-176.3733859151081
 10
441.5833820510624
 20
-175.5434624127114
 10
441.5833820510624
 20
-174.9846679250038
 10
441.3122530363733
 20
-174.4682481117649
 10
440.4909422726898
 20
-174.4682481117649
 10
439.9914034273286
 20
-174.4682481117649
 10
439.5766139309044
 20
-174.7221516490278
 10
439.322365884093
 20
-174.9340250213707
 10
439.322365884093
 20
-174.9340250213707
 10
439.0853433147078
 20
-174.4089924694186
 10
439.0853433147078
 20
-174.4089924694186
 10
439.4663708753765
 20
-174.0872205510963
 10
440.0082843952063
 20
-173.8501979817111
 10
440.6432154931378
 20
-173.8501979817111
 10
441.8286728496124
 20
-173.8501979817111
 10
442.3282116949734
 20
-174.6628960066815
 10
442.3282116949734
 20
-175.4504448346096
 10
442.3282116949734
 20
-176.4667480027583
 10
441.5916502802271
 20
-177.2880587664419
 10
440.4316866303434
 20
-178.4056477418569
 10
440.4316866303434
 20
-178.4056477418569
 10
439.9914034273286
 20
-178.8121690091164
 10
439.9914034273286
 20
-178.8121690091164
 10
439.9914034273286
 20
-178.8121690091164
 10
439.9914034273286
 20
-178.8290499769941
 10
439.9914034273286
 20
-178.8290499769941
 10
439.9914034273286
 20
-178.8290499769941
 10
442.4639484570923
 20
-178.8290499769941
 10
442.4639484570923
 20
-178.8290499769941
 10
442.4639484570923
 20
-178.8290499769941
 10
442.4639484570923
 20
-179.447100107048
 10
442.4639484570923
 20
-179.447100107048
 10
442.4639484570923
 20
-179.447100107048
 10
438.9499510621375
 20
-179.447100107048
 10
438.9499510621375
 20
-179.447100107048
 97
        0
 97
        0
 75
     2
 76
     1
 98
        0
450
        0
451
        0
460
0.0
461
0.0
452
        0
462
0.0
453
        0
470

  0
ENDBLK
  5
8D
330
8A
100
AcDbEntity
  8
0
100
AcDbBlockEnd
  0
ENDSEC
  0
SECTION
  2
ENTITIES
  0
POLYLINE
  5
CC
330
1F
100
AcDbEntity
  8
Livello 1
100
AcDb2dPolyline
 66
     1
 10
0.0
 20
0.0
 30
0.0
  0
VERTEX
  5
CD
330
CC
100
AcDbEntity
  8
Livello 1
100
AcDbVertex
100
AcDb2dVertex
 10
309.8064097760078
 20
-136.3161313192802
 30
0.0
  0
VERTEX
  5
CE
330
CC
100
AcDbEntity
  8
Livello 1
100
AcDbVertex
100
AcDb2dVertex
 10
373.5710659918781
 20
-136.3161313192802
 30
0.0
  0
VERTEX
  5
CF
330
CC
100
AcDbEntity
  8
Livello 1
100
AcDbVertex
100
AcDb2dVertex
 10
373.5710659918781
 20
-160.9524732575661
 30
0.0
  0
VERTEX
  5
D0
330
CC
100
AcDbEntity
  8
Livello 1
100
AcDbVertex
100
AcDb2dVertex
 10
309.8064097760078
 20
-160.9524732575661
 30
0.0
  0
VERTEX
  5
D1
330
CC
100
AcDbEntity
  8
Livello 1
100
AcDbVertex
100
AcDb2dVertex
 10
309.8064097760078
 20
-136.3161313192802
 30
0.0
  0
SEQEND
  5
D2
330
CC
100
AcDbEntity
  8
Livello 1
  0
POLYLINE
  5
D3
330
1F
100
AcDbEntity
  8
Livello 1
100
AcDb2dPolyline
 66
     1
 10
0.0
 20
0.0
 30
0.0
  0
VERTEX
  5
D4
330
D3
100
AcDbEntity
  8
Livello 1
100
AcDbVertex
100
AcDb2dVertex
 10
431.7161839433498
 20
-137.0023193746638
 30
0.0
  0
VERTEX
  5
D5
330
D3
100
AcDbEntity
  8
Livello 1
100
AcDbVertex
100
AcDb2dVertex
 10
456.3525273909371
 20
-137.0023193746638
 30
0.0
  0
VERTEX
  5
D6
330
D3
100
AcDbEntity
  8
Livello 1
100
AcDbVertex
100
AcDb2dVertex
 10
456.3525273909371
 20
-161.6386613129497
 30
0.0
  0
VERTEX
  5
D7
330
D3
100
AcDbEntity
  8
Livello 1
100
AcDbVertex
100
AcDb2dVertex
 10
431.7161839433498
 20
-161.6386613129497
 30
0.0
  0
VERTEX
  5
D8
330
D3
100
AcDbEntity
  8
Livello 1
100
AcDbVertex
100
AcDb2dVertex
 10
431.7161839433498
 20
-137.0023193746638
 30
0.0
  0
SEQEND
  5
D9
330
D3
100
AcDbEntity
  8
Livello 1
  0
POLYLINE
  5
DA
330
1F
100
AcDbEntity
  8
Livello 1
100
AcDb2dPolyline
 66
     1
 10
0.0
 20
0.0
 30
0.0
  0
VERTEX
  5
DB
330
DA
100
AcDbEntity
  8
Livello 1
100
AcDbVertex
100
AcDb2dVertex
 10
421.5718135107434
 20
-141.2745288180402
 30
0.0
  0
VERTEX
  5
DC
330
DA
100
AcDbEntity
  8
Livello 1
100
AcDbVertex
100
AcDb2dVertex
 10
431.7161839433498
 20
-141.2745288180402
 30
0.0
  0
VERTEX
  5
DD
330
DA
100
AcDbEntity
  8
Livello 1
100
AcDbVertex
100
AcDb2dVertex
 10
431.7161839433498
 20
-158.7388279803409
 30
0.0
  0
VERTEX
  5
DE
330
DA
100
AcDbEntity
  8
Livello 1
100
AcDbVertex
100
AcDb2dVertex
 10
421.5718135107434
 20
-158.7388279803409
 30
0.0
  0
VERTEX
  5
DF
330
DA
100
AcDbEntity
  8
Livello 1
100
AcDbVertex
100
AcDb2dVertex
 10
421.5718135107434
 20
-141.2745288180402
 30
0.0
  0
SEQEND
  5
E0
330
DA
100
AcDbEntity
  8
Livello 1
  0
POLYLINE
  5
E1
330
1F
100
AcDbEntity
  8
Livello 1
100
AcDb2dPolyline
 66
     1
 10
0.0
 20
0.0
 30
0.0
  0
VERTEX
  5
E2
330
E1
100
AcDbEntity
  8
Livello 1
100
AcDbVertex
100
AcDb2dVertex
 10
456.3525273909371
 20
-161.6386613129497
 30
0.0
  0
VERTEX
  5
E3
330
E1
100
AcDbEntity
  8
Livello 1
100
AcDbVertex
100
AcDb2dVertex
 10
456.3525273909371
 20
-137.0023193746638
 30
0.0
  0
SEQEND
  5
E4
330
E1
100
AcDbEntity
  8
Livello 1
  0
LINE
  5
E5
330
1F
100
AcDbEntity
  8
Livello 1
100
AcDbLine
 10
309.8064097760078
 20
-170.5092592166315
 30
0.0
 11
373.5710659918781
 21
-170.5092592166315
 31
0.0
  0
LINE
  5
E6
330
1F
100
AcDbEntity
  8
Livello 1
100
AcDbLine
 10
421.5718135107434
 20
-170.5092592166315
 30
0.0
 11
456.3525273909371
 21
-170.5092592166315
 31
0.0
  0
LINE
  5
E7
330
1F
100
AcDbEntity
  8
Livello 1
100
AcDbLine
 10
468.9592591420196
 20
-136.3161313192802
 30
0.0
 11
468.9592591420196
 21
-161.6386613129497
 31
0.0
  0
SPLINE
  5
E8
330
1F
100
AcDbEntity
  8
Livello 1
100
AcDbSpline
210
0.0
220
0.0
230
1.0
 70
    11
 71
     3
 72
    47
 73
    43
 74
     0
 42
0.000000001
 43
0.0000000001
 40
0.0
 40
0.0
 40
0.0
 40
0.0
 40
1.0
 40
1.0
 40
1.0
 40
2.0
 40
2.0
 40
2.0
 40
3.0
 40
3.0
 40
3.0
 40
4.0
 40
4.0
 40
4.0
 40
5.0
 40
5.0
 40
5.0
 40
6.0
 40
6.0
 40
6.0
 40
7.0
 40
7.0
 40
7.0
 40
8.0
 40
8.0
 40
8.0
 40
9.0
 40
9.0
 40
9.0
 40
10.0
 40
10.0
 40
10.0
 40
11.0
 40
11.0
 40
11.0
 40
12.0
 40
12.0
 40
12.0
 40
13.0
 40
13.0
 40
13.0
 40
14.0
 40
14.0
 40
14.0
 40
14.0
 10
339.5179496764052
 20
-179.447100107048
 30
0.0
 10
339.5179496764052
 20
-179.447100107048
 30
0.0
 10
339.5179496764052
 20
-178.9899359361553
 30
0.0
 10
339.5179496764052
 20
-178.9899359361553
 30
0.0
 10
339.5179496764052
 20
-178.9899359361553
 30
0.0
 10
340.1022378707036
 20
-178.4225287097346
 30
0.0
 10
340.1022378707036
 20
-178.4225287097346
 30
0.0
 10
341.5078368286856
 20
-177.0847981328122
 30
0.0
 10
342.1427679266171
 20
-176.3733859151081
 30
0.0
 10
342.1513806653302
 20
-175.5434624127114
 30
0.0
 10
342.1513806653302
 20
-174.9846679250038
 30
0.0
 10
341.8805961601896
 20
-174.4682481117649
 30
0.0
 10
341.0589408869575
 20
-174.4682481117649
 30
0.0
 10
340.5594020415963
 20
-174.4682481117649
 30
0.0
 10
340.1446125451722
 20
-174.7221516490278
 30
0.0
 10
339.8907090079093
 20
-174.9340250213707
 30
0.0
 10
339.8907090079093
 20
-174.9340250213707
 30
0.0
 10
339.6536864385241
 20
-174.4089924694186
 30
0.0
 10
339.6536864385241
 20
-174.4089924694186
 30
0.0
 10
340.0347139991927
 20
-174.0872205510963
 30
0.0
 10
340.5766275190225
 20
-173.8501979817111
 30
0.0
 10
341.2115586169541
 20
-173.8501979817111
 30
0.0
 10
342.3970159734286
 20
-173.8501979817111
 30
0.0
 10
342.8965548187898
 20
-174.6628960066815
 30
0.0
 10
342.8965548187898
 20
-175.4504448346096
 30
0.0
 10
342.8965548187898
 20
-176.4667480027583
 30
0.0
 10
342.1599934040433
 20
-177.2880587664419
 30
0.0
 10
340.9996852446112
 20
-178.4056477418569
 30
0.0
 10
340.9996852446112
 20
-178.4056477418569
 30
0.0
 10
340.5594020415963
 20
-178.8121690091164
 30
0.0
 10
340.5594020415963
 20
-178.8121690091164
 30
0.0
 10
340.5594020415963
 20
-178.8121690091164
 30
0.0
 10
340.5594020415963
 20
-178.8290499769941
 30
0.0
 10
340.5594020415963
 20
-178.8290499769941
 30
0.0
 10
340.5594020415963
 20
-178.8290499769941
 30
0.0
 10
343.0319470713602
 20
-178.8290499769941
 30
0.0
 10
343.0319470713602
 20
-178.8290499769941
 30
0.0
 10
343.0319470713602
 20
-178.8290499769941
 30
0.0
 10
343.0319470713602
 20
-179.447100107048
 30
0.0
 10
343.0319470713602
 20
-179.447100107048
 30
0.0
 10
343.0319470713602
 20
-179.447100107048
 30
0.0
 10
339.5179496764052
 20
-179.447100107048
 30
0.0
 10
339.5179496764052
 20
-179.447100107048
 30
0.0
  0
HATCH
  5
E9
330
1F
100
AcDbEntity
  8
Livello 1
100
AcDbHatch
 10
0.0
 20
0.0
 30
0.0
210
0.0
220
0.0
230
1.0
  2
SOLID
 70
     1
 71
     0
 91
        1
 92
        1
 93
        1
 72
     4
 94
        3
 73
     0
 74
     0
 95
       47
 96
       43
 40
0.0
 40
0.0
 40
0.0
 40
0.0
 40
1.0
 40
1.0
 40
1.0
 40
2.0
 40
2.0
 40
2.0
 40
3.0
 40
3.0
 40
3.0
 40
4.0
 40
4.0
 40
4.0
 40
5.0
 40
5.0
 40
5.0
 40
6.0
 40
6.0
 40
6.0
 40
7.0
 40
7.0
 40
7.0
 40
8.0
 40
8.0
 40
8.0
 40
9.0
 40
9.0
 40
9.0
 40
10.0
 40
10.0
 40
10.0
 40
11.0
 40
11.0
 40
11.0
 40
12.0
 40
12.0
 40
12.0
 40
13.0
 40
13.0
 40
13.0
 40
14.0
 40
14.0
 40
14.0
 40
14.0
 10
339.5179496764052
 20
-179.447100107048
 10
339.5179496764052
 20
-179.447100107048
 10
339.5179496764052
 20
-178.9899359361553
 10
339.5179496764052
 20
-178.9899359361553
 10
339.5179496764052
 20
-178.9899359361553
 10
340.1022378707036
 20
-178.4225287097346
 10
340.1022378707036
 20
-178.4225287097346
 10
341.5078368286856
 20
-177.0847981328122
 10
342.1427679266171
 20
-176.3733859151081
 10
342.1513806653302
 20
-175.5434624127114
 10
342.1513806653302
 20
-174.9846679250038
 10
341.8805961601896
 20
-174.4682481117649
 10
341.0589408869575
 20
-174.4682481117649
 10
340.5594020415963
 20
-174.4682481117649
 10
340.1446125451722
 20
-174.7221516490278
 10
339.8907090079093
 20
-174.9340250213707
 10
339.8907090079093
 20
-174.9340250213707
 10
339.6536864385241
 20
-174.4089924694186
 10
339.6536864385241
 20
-174.4089924694186
 10
340.0347139991927
 20
-174.0872205510963
 10
340.5766275190225
 20
-173.8501979817111
 10
341.2115586169541
 20
-173.8501979817111
 10
342.3970159734286
 20
-173.8501979817111
 10
342.8965548187898
 20
-174.6628960066815
 10
342.8965548187898
 20
-175.4504448346096
 10
342.8965548187898
 20
-176.4667480027583
 10
342.1599934040433
 20
-177.2880587664419
 10
340.9996852446112
 20
-178.4056477418569
 10
340.9996852446112
 20
-178.4056477418569
 10
340.5594020415963
 20
-178.8121690091164
 10
340.5594020415963
 20
-178.8121690091164
 10
340.5594020415963
 20
-178.8121690091164
 10
340.5594020415963
 20
-178.8290499769941
 10
340.5594020415963
 20
-178.8290499769941
 10
340.5594020415963
 20
-178.8290499769941
 10
343.0319470713602
 20
-178.8290499769941
 10
343.0319470713602
 20
-178.8290499769941
 10
343.0319470713602
 20
-178.8290499769941
 10
343.0319470713602
 20
-179.447100107048
 10
343.0319470713602
 20
-179.447100107048
 10
343.0319470713602
 20
-179.447100107048
 10
339.5179496764052
 20
-179.447100107048
 10
339.5179496764052
 20
-179.447100107048
 97
        0
 97
        0
 75
     2
 76
     1
 98
        0
450
        0
451
        0
460
0.0
461
0.0
452
        0
462
0.0
453
        0
470

  0
SPLINE
  5
EA
330
1F
100
AcDbEntity
  8
Livello 1
100
AcDbSpline
210
0.0
220
0.0
230
1.0
 70
    11
 71
     3
 72
    47
 73
    43
 74
     0
 42
0.000000001
 43
0.0000000001
 40
0.0
 40
0.0
 40
0.0
 40
0.0
 40
1.0
 40
1.0
 40
1.0
 40
2.0
 40
2.0
 40
2.0
 40
3.0
 40
3.0
 40
3.0
 40
4.0
 40
4.0
 40
4.0
 40
5.0
 40
5.0
 40
5.0
 40
6.0
 40
6.0
 40
6.0
 40
7.0
 40
7.0
 40
7.0
 40
8.0
 40
8.0
 40
8.0
 40
9.0
 40
9.0
 40
9.0
 40
10.0
 40
10.0
 40
10.0
 40
11.0
 40
11.0
 40
11.0
 40
12.0
 40
12.0
 40
12.0
 40
13.0
 40
13.0
 40
13.0
 40
14.0
 40
14.0
 40
14.0
 40
14.0
 10
343.8611815546597
 20
-179.447100107048
 30
0.0
 10
343.8611815546597
 20
-179.447100107048
 30
0.0
 10
343.8611815546597
 20
-178.9899359361553
 30
0.0
 10
343.8611815546597
 20
-178.9899359361553
 30
0.0
 10
343.8611815546597
 20
-178.9899359361553
 30
0.0
 10
344.4454697489581
 20
-178.4225287097346
 30
0.0
 10
344.4454697489581
 20
-178.4225287097346
 30
0.0
 10
345.8510687069402
 20
-177.0847981328122
 30
0.0
 10
346.4859998048716
 20
-176.3733859151081
 30
0.0
 10
346.4946125435846
 20
-175.5434624127114
 30
0.0
 10
346.4946125435846
 20
-174.9846679250038
 30
0.0
 10
346.2238280384442
 20
-174.4682481117649
 30
0.0
 10
345.402172765212
 20
-174.4682481117649
 30
0.0
 10
344.9026339198509
 20
-174.4682481117649
 30
0.0
 10
344.4878444234267
 20
-174.7221516490278
 30
0.0
 10
344.2339408861637
 20
-174.9340250213707
 30
0.0
 10
344.2339408861637
 20
-174.9340250213707
 30
0.0
 10
343.9969183167786
 20
-174.4089924694186
 30
0.0
 10
343.9969183167786
 20
-174.4089924694186
 30
0.0
 10
344.3779458774472
 20
-174.0872205510963
 30
0.0
 10
344.919859397277
 20
-173.8501979817111
 30
0.0
 10
345.5547904952085
 20
-173.8501979817111
 30
0.0
 10
346.740247851683
 20
-173.8501979817111
 30
0.0
 10
347.2397866970442
 20
-174.6628960066815
 30
0.0
 10
347.2397866970442
 20
-175.4504448346096
 30
0.0
 10
347.2397866970442
 20
-176.4667480027583
 30
0.0
 10
346.5032252822978
 20
-177.2880587664419
 30
0.0
 10
345.3429171228657
 20
-178.4056477418569
 30
0.0
 10
345.3429171228657
 20
-178.4056477418569
 30
0.0
 10
344.9026339198509
 20
-178.8121690091164
 30
0.0
 10
344.9026339198509
 20
-178.8121690091164
 30
0.0
 10
344.9026339198509
 20
-178.8121690091164
 30
0.0
 10
344.9026339198509
 20
-178.8290499769941
 30
0.0
 10
344.9026339198509
 20
-178.8290499769941
 30
0.0
 10
344.9026339198509
 20
-178.8290499769941
 30
0.0
 10
347.3751789496146
 20
-178.8290499769941
 30
0.0
 10
347.3751789496146
 20
-178.8290499769941
 30
0.0
 10
347.3751789496146
 20
-178.8290499769941
 30
0.0
 10
347.3751789496146
 20
-179.447100107048
 30
0.0
 10
347.3751789496146
 20
-179.447100107048
 30
0.0
 10
347.3751789496146
 20
-179.447100107048
 30
0.0
 10
343.8611815546597
 20
-179.447100107048
 30
0.0
 10
343.8611815546597
 20
-179.447100107048
 30
0.0
  0
HATCH
  5
EB
330
1F
100
AcDbEntity
  8
Livello 1
100
AcDbHatch
 10
0.0
 20
0.0
 30
0.0
210
0.0
220
0.0
230
1.0
  2
SOLID
 70
     1
 71
     0
 91
        1
 92
        1
 93
        1
 72
     4
 94
        3
 73
     0
 74
     0
 95
       47
 96
       43
 40
0.0
 40
0.0
 40
0.0
 40
0.0
 40
1.0
 40
1.0
 40
1.0
 40
2.0
 40
2.0
 40
2.0
 40
3.0
 40
3.0
 40
3.0
 40
4.0
 40
4.0
 40
4.0
 40
5.0
 40
5.0
 40
5.0
 40
6.0
 40
6.0
 40
6.0
 40
7.0
 40
7.0
 40
7.0
 40
8.0
 40
8.0
 40
8.0
 40
9.0
 40
9.0
 40
9.0
 40
10.0
 40
10.0
 40
10.0
 40
11.0
 40
11.0
 40
11.0
 40
12.0
 40
12.0
 40
12.0
 40
13.0
 40
13.0
 40
13.0
 40
14.0
 40
14.0
 40
14.0
 40
14.0
 10
343.8611815546597
 20
-179.447100107048
 10
343.8611815546597
 20
-179.447100107048
 10
343.8611815546597
 20
-178.9899359361553
 10
343.8611815546597
 20
-178.9899359361553
 10
343.8611815546597
 20
-178.9899359361553
 10
344.4454697489581
 20
-178.4225287097346
 10
344.4454697489581
 20
-178.4225287097346
 10
345.8510687069402
 20
-177.0847981328122
 10
346.4859998048716
 20
-176.3733859151081
 10
346.4946125435846
 20
-175.5434624127114
 10
346.4946125435846
 20
-174.9846679250038
 10
346.2238280384442
 20
-174.4682481117649
 10
345.402172765212
 20
-174.4682481117649
 10
344.9026339198509
 20
-174.4682481117649
 10
344.4878444234267
 20
-174.7221516490278
 10
344.2339408861637
 20
-174.9340250213707
 10
344.2339408861637
 20
-174.9340250213707
 10
343.9969183167786
 20
-174.4089924694186
 10
343.9969183167786
 20
-174.4089924694186
 10
344.3779458774472
 20
-174.0872205510963
 10
344.919859397277
 20
-173.8501979817111
 10
345.5547904952085
 20
-173.8501979817111
 10
346.740247851683
 20
-173.8501979817111
 10
347.2397866970442
 20
-174.6628960066815
 10
347.2397866970442
 20
-175.4504448346096
 10
347.2397866970442
 20
-176.4667480027583
 10
346.5032252822978
 20
-177.2880587664419
 10
345.3429171228657
 20
-178.4056477418569
 10
345.3429171228657
 20
-178.4056477418569
 10
344.9026339198509
 20
-178.8121690091164
 10
344.9026339198509
 20
-178.8121690091164
 10
344.9026339198509
 20
-178.8121690091164
 10
344.9026339198509
 20
-178.8290499769941
 10
344.9026339198509
 20
-178.8290499769941
 10
344.9026339198509
 20
-178.8290499769941
 10
347.3751789496146
 20
-178.8290499769941
 10
347.3751789496146
 20
-178.8290499769941
 10
347.3751789496146
 20
-178.8290499769941
 10
347.3751789496146
 20
-179.447100107048
 10
347.3751789496146
 20
-179.447100107048
 10
347.3751789496146
 20
-179.447100107048
 10
343.8611815546597
 20
-179.447100107048
 10
343.8611815546597
 20
-179.447100107048
 97
        0
 97
        0
 75
     2
 76
     1
 98
        0
450
        0
451
        0
460
0.0
461
0.0
452
        0
462
0.0
453
        0
470

  0
SPLINE
  5
EC
330
1F
100
AcDbEntity
  8
Livello 1
100
AcDbSpline
210
0.0
220
0.0
230
1.0
 70
     9
 71
     3
 72
    35
 73
    31
 74
     0
 42
0.000000001
 43
0.0000000001
 40
0.0
 40
0.0
 40
0.0
 40
0.0
 40
1.0
 40
1.0
 40
1.0
 40
2.0
 40
2.0
 40
2.0
 40
3.0
 40
3.0
 40
3.0
 40
4.0
 40
4.0
 40
4.0
 40
5.0
 40
5.0
 40
5.0
 40
6.0
 40
6.0
 40
6.0
 40
7.0
 40
7.0
 40
7.0
 40
8.0
 40
8.0
 40
8.0
 40
9.0
 40
9.0
 40
9.0
 40
10.0
 40
10.0
 40
10.0
 40
10.0
 10
477.5519014648135
 20
-154.1700900222214
 30
0.0
 10
476.857370214987
 20
-154.1700900222214
 30
0.0
 10
476.366444108339
 20
-153.7553005257973
 30
0.0
 10
476.078434125772
 20
-153.0776502438486
 30
0.0
 10
476.078434125772
 20
-153.0776502438486
 30
0.0
 10
476.0529404191813
 20
-153.0862629825618
 30
0.0
 10
476.0529404191813
 20
-153.0862629825618
 30
0.0
 10
475.7652749461628
 20
-153.6957003739025
 30
0.0
 10
475.2908852978438
 20
-153.9582166498785
 30
0.0
 10
474.8168401590736
 20
-153.9582166498785
 30
0.0
 10
473.9445419822082
 20
-153.9582166498785
 30
0.0
 10
473.3519855587453
 20
-153.2216552351321
 30
0.0
 10
473.3519855587453
 20
-152.2563394801651
 30
0.0
 10
473.3519855587453
 20
-151.1893934083832
 30
0.0
 10
474.0210231019808
 20
-150.6560926272665
 30
0.0
 10
474.7065971035456
 20
-150.6560926272665
 30
0.0
 10
475.1723740131514
 20
-150.6560926272665
 30
0.0
 10
475.6719128585126
 20
-150.884846967487
 30
0.0
 10
475.9936847768348
 20
-151.5621527398872
 30
0.0
 10
475.9936847768348
 20
-151.5621527398872
 30
0.0
 10
476.0191784834258
 20
-151.5621527398872
 30
0.0
 10
476.0191784834258
 20
-151.5621527398872
 30
0.0
 10
476.2899629885663
 20
-150.8758897192255
 30
0.0
 10
476.7726208660498
 20
-150.4528319936368
 30
0.0
 10
477.4416584092853
 20
-150.4528319936368
 30
0.0
 10
478.3983614255393
 20
-150.4528319936368
 30
0.0
 10
479.041905262184
 20
-151.2741427573204
 30
0.0
 10
479.041905262184
 20
-152.3242078612245
 30
0.0
 10
479.041905262184
 20
-153.475558772395
 30
0.0
 10
478.3563312606193
 20
-154.1700900222214
 30
0.0
 10
477.5519014648135
 20
-154.1700900222214
 30
0.0
  0
SPLINE
  5
ED
330
1F
100
AcDbEntity
  8
Livello 1
100
AcDbSpline
210
0.0
220
0.0
230
1.0
 70
     9
 71
     3
 72
    17
 73
    13
 74
     0
 42
0.000000001
 43
0.0000000001
 40
0.0
 40
0.0
 40
0.0
 40
0.0
 40
1.0
 40
1.0
 40
1.0
 40
2.0
 40
2.0
 40
2.0
 40
3.0
 40
3.0
 40
3.0
 40
4.0
 40
4.0
 40
4.0
 40
4.0
 10
474.7658527458918
 20
-153.2554171708875
 30
0.0
 10
475.3163790044347
 20
-153.2554171708875
 30
0.0
 10
475.6126572161663
 20
-152.8406276744635
 30
0.0
 10
475.7821559140406
 20
-152.2056965765319
 30
0.0
 10
475.6212699548793
 20
-151.731306928213
 30
0.0
 10
475.2826170686794
 20
-151.3671603354221
 30
0.0
 10
474.783078223318
 20
-151.3671603354221
 30
0.0
 10
474.3424505107546
 20
-151.3671603354221
 30
0.0
 10
473.8852863398619
 20
-151.629676611398
 30
0.0
 10
473.8852863398619
 20
-152.2987141546337
 30
0.0
 10
473.8852863398619
 20
-152.9167642846875
 30
0.0
 10
474.2918076071214
 20
-153.2554171708875
 30
0.0
 10
474.7658527458918
 20
-153.2554171708875
 30
0.0
  0
SPLINE
  5
EE
330
1F
100
AcDbEntity
  8
Livello 1
100
AcDbSpline
210
0.0
220
0.0
230
1.0
 70
     9
 71
     3
 72
    17
 73
    13
 74
     0
 42
0.000000001
 43
0.0000000001
 40
0.0
 40
0.0
 40
0.0
 40
0.0
 40
1.0
 40
1.0
 40
1.0
 40
2.0
 40
2.0
 40
2.0
 40
3.0
 40
3.0
 40
3.0
 40
4.0
 40
4.0
 40
4.0
 40
4.0
 10
477.5177950195093
 20
-151.2066188858095
 30
0.0
 10
476.8491019858225
 20
-151.2066188858095
 30
0.0
 10
476.5273300675001
 20
-151.6720512858666
 30
0.0
 10
476.3154566951572
 20
-152.4172254393262
 30
0.0
 10
476.5018363609093
 20
-153.0607692759709
 30
0.0
 10
476.9252385960465
 20
-153.4080349008841
 30
0.0
 10
477.4502711479986
 20
-153.4080349008841
 30
0.0
 10
478.0090656357061
 20
-153.433528607475
 30
0.0
 10
478.4999917423542
 20
-153.0097818627892
 30
0.0
 10
478.4999917423542
 20
-152.3069823837983
 30
0.0
 10
478.4999917423542
 20
-151.6382893501113
 30
0.0
 10
478.08520224593
 20
-151.2066188858095
 30
0.0
 10
477.5177950195093
 20
-151.2066188858095
 30
0.0
  0
HATCH
  5
EF
330
1F
100
AcDbEntity
  8
Livello 1
100
AcDbHatch
 10
0.0
 20
0.0
 30
0.0
210
0.0
220
0.0
230
1.0
  2
SOLID
 70
     1
 71
     0
 91
        3
 92
        1
 93
        1
 72
     4
 94
        3
 73
     0
 74
     0
 95
       35
 96
       31
 40
0.0
 40
0.0
 40
0.0
 40
0.0
 40
1.0
 40
1.0
 40
1.0
 40
2.0
 40
2.0
 40
2.0
 40
3.0
 40
3.0
 40
3.0
 40
4.0
 40
4.0
 40
4.0
 40
5.0
 40
5.0
 40
5.0
 40
6.0
 40
6.0
 40
6.0
 40
7.0
 40
7.0
 40
7.0
 40
8.0
 40
8.0
 40
8.0
 40
9.0
 40
9.0
 40
9.0
 40
10.0
 40
10.0
 40
10.0
 40
10.0
 10
477.5519014648135
 20
-154.1700900222214
 10
476.857370214987
 20
-154.1700900222214
 10
476.366444108339
 20
-153.7553005257973
 10
476.078434125772
 20
-153.0776502438486
 10
476.078434125772
 20
-153.0776502438486
 10
476.0529404191813
 20
-153.0862629825618
 10
476.0529404191813
 20
-153.0862629825618
 10
475.7652749461628
 20
-153.6957003739025
 10
475.2908852978438
 20
-153.9582166498785
 10
474.8168401590736
 20
-153.9582166498785
 10
473.9445419822082
 20
-153.9582166498785
 10
473.3519855587453
 20
-153.2216552351321
 10
473.3519855587453
 20
-152.2563394801651
 10
473.3519855587453
 20
-151.1893934083832
 10
474.0210231019808
 20
-150.6560926272665
 10
474.7065971035456
 20
-150.6560926272665
 10
475.1723740131514
 20
-150.6560926272665
 10
475.6719128585126
 20
-150.884846967487
 10
475.9936847768348
 20
-151.5621527398872
 10
475.9936847768348
 20
-151.5621527398872
 10
476.0191784834258
 20
-151.5621527398872
 10
476.0191784834258
 20
-151.5621527398872
 10
476.2899629885663
 20
-150.8758897192255
 10
476.7726208660498
 20
-150.4528319936368
 10
477.4416584092853
 20
-150.4528319936368
 10
478.3983614255393
 20
-150.4528319936368
 10
479.041905262184
 20
-151.2741427573204
 10
479.041905262184
 20
-152.3242078612245
 10
479.041905262184
 20
-153.475558772395
 10
478.3563312606193
 20
-154.1700900222214
 10
477.5519014648135
 20
-154.1700900222214
 97
        0
 97
        0
 92
        1
 93
        1
 72
     4
 94
        3
 73
     0
 74
     0
 95
       17
 96
       13
 40
0.0
 40
0.0
 40
0.0
 40
0.0
 40
1.0
 40
1.0
 40
1.0
 40
2.0
 40
2.0
 40
2.0
 40
3.0
 40
3.0
 40
3.0
 40
4.0
 40
4.0
 40
4.0
 40
4.0
 10
474.7658527458918
 20
-153.2554171708875
 10
475.3163790044347
 20
-153.2554171708875
 10
475.6126572161663
 20
-152.8406276744635
 10
475.7821559140406
 20
-152.2056965765319
 10
475.6212699548793
 20
-151.731306928213
 10
475.2826170686794
 20
-151.3671603354221
 10
474.783078223318
 20
-151.3671603354221
 10
474.3424505107546
 20
-151.3671603354221
 10
473.8852863398619
 20
-151.629676611398
 10
473.8852863398619
 20
-152.2987141546337
 10
473.8852863398619
 20
-152.9167642846875
 10
474.2918076071214
 20
-153.2554171708875
 10
474.7658527458918
 20
-153.2554171708875
 97
        0
 97
        0
 92
        1
 93
        1
 72
     4
 94
        3
 73
     0
 74
     0
 95
       17
 96
       13
 40
0.0
 40
0.0
 40
0.0
 40
0.0
 40
1.0
 40
1.0
 40
1.0
 40
2.0
 40
2.0
 40
2.0
 40
3.0
 40
3.0
 40
3.0
 40
4.0
 40
4.0
 40
4.0
 40
4.0
 10
477.5177950195093
 20
-151.2066188858095
 10
476.8491019858225
 20
-151.2066188858095
 10
476.5273300675001
 20
-151.6720512858666
 10
476.3154566951572
 20
-152.4172254393262
 10
476.5018363609093
 20
-153.0607692759709
 10
476.9252385960465
 20
-153.4080349008841
 10
477.4502711479986
 20
-153.4080349008841
 10
478.0090656357061
 20
-153.433528607475
 10
478.4999917423542
 20
-153.0097818627892
 10
478.4999917423542
 20
-152.3069823837983
 10
478.4999917423542
 20
-151.6382893501113
 10
478.08520224593
 20
-151.2066188858095
 10
477.5177950195093
 20
-151.2066188858095
 97
        0
 97
        0
 75
     2
 76
     1
 98
        0
450
        0
451
        0
460
0.0
461
0.0
452
        0
462
0.0
453
        0
470

  0
SPLINE
  5
F0
330
1F
100
AcDbEntity
  8
Livello 1
100
AcDbSpline
210
0.0
220
0.0
230
1.0
 70
     9
 71
     3
 72
    17
 73
    13
 74
     0
 42
0.000000001
 43
0.0000000001
 40
0.0
 40
0.0
 40
0.0
 40
0.0
 40
1.0
 40
1.0
 40
1.0
 40
2.0
 40
2.0
 40
2.0
 40
3.0
 40
3.0
 40
3.0
 40
4.0
 40
4.0
 40
4.0
 40
4.0
 10
479.9903400492732
 20
-150.0046250710058
 30
0.0
 10
479.490801203912
 20
-149.8182454052538
 30
0.0
 10
478.5847410912912
 20
-149.5894910650332
 30
0.0
 10
477.9666909612374
 20
-149.4964734869314
 30
0.0
 10
477.9666909612374
 20
-149.4964734869314
 30
0.0
 10
477.8819416123003
 20
-148.666722239309
 30
0.0
 10
477.8819416123003
 20
-148.666722239309
 30
0.0
 10
478.6016220591691
 20
-148.8613701342256
 30
0.0
 10
479.5414441075451
 20
-149.2339572109554
 30
0.0
 10
479.9396971456401
 20
-149.4709797803406
 30
0.0
 10
479.9396971456401
 20
-149.4709797803406
 30
0.0
 10
479.9903400492732
 20
-150.0046250710058
 30
0.0
 10
479.9903400492732
 20
-150.0046250710058
 30
0.0
  0
HATCH
  5
F1
330
1F
100
AcDbEntity
  8
Livello 1
100
AcDbHatch
 10
0.0
 20
0.0
 30
0.0
210
0.0
220
0.0
230
1.0
  2
SOLID
 70
     1
 71
     0
 91
        1
 92
        1
 93
        1
 72
     4
 94
        3
 73
     0
 74
     0
 95
       17
 96
       13
 40
0.0
 40
0.0
 40
0.0
 40
0.0
 40
1.0
 40
1.0
 40
1.0
 40
2.0
 40
2.0
 40
2.0
 40
3.0
 40
3.0
 40
3.0
 40
4.0
 40
4.0
 40
4.0
 40
4.0
 10
479.9903400492732
 20
-150.0046250710058
 10
479.490801203912
 20
-149.8182454052538
 10
478.5847410912912
 20
-149.5894910650332
 10
477.9666909612374
 20
-149.4964734869314
 10
477.9666909612374
 20
-149.4964734869314
 10
477.8819416123003
 20
-148.666722239309
 10
477.8819416123003
 20
-148.666722239309
 10
478.6016220591691
 20
-148.8613701342256
 10
479.5414441075451
 20
-149.2339572109554
 10
479.9396971456401
 20
-149.4709797803406
 10
479.9396971456401
 20
-149.4709797803406
 10
479.9903400492732
 20
-150.0046250710058
 10
479.9903400492732
 20
-150.0046250710058
 97
        0
 97
        0
 75
     2
 76
     1
 98
        0
450
        0
451
        0
460
0.0
461
0.0
452
        0
462
0.0
453
        0
470

  0
SPLINE
  5
F2
330
1F
100
AcDbEntity
  8
Livello 1
100
AcDbSpline
210
0.0
220
0.0
230
1.0
 70
    11
 71
     3
 72
    50
 73
    46
 74
     0
 42
0.000000001
 43
0.0000000001
 40
0.0
 40
0.0
 40
0.0
 40
0.0
 40
1.0
 40
1.0
 40
1.0
 40
2.0
 40
2.0
 40
2.0
 40
3.0
 40
3.0
 40
3.0
 40
4.0
 40
4.0
 40
4.0
 40
5.0
 40
5.0
 40
5.0
 40
6.0
 40
6.0
 40
6.0
 40
7.0
 40
7.0
 40
7.0
 40
8.0
 40
8.0
 40
8.0
 40
9.0
 40
9.0
 40
9.0
 40
10.0
 40
10.0
 40
10.0
 40
11.0
 40
11.0
 40
11.0
 40
12.0
 40
12.0
 40
12.0
 40
13.0
 40
13.0
 40
13.0
 40
14.0
 40
14.0
 40
14.0
 40
15.0
 40
15.0
 40
15.0
 40
15.0
 10
474.0716660056141
 20
-144.7210543800524
 30
0.0
 10
474.0716660056141
 20
-144.7210543800524
 30
0.0
 10
474.0716660056141
 20
-146.8210123330864
 30
0.0
 10
474.0716660056141
 20
-146.8210123330864
 30
0.0
 10
474.0716660056141
 20
-146.8210123330864
 30
0.0
 10
475.485877702309
 20
-147.032713450655
 30
0.0
 10
475.485877702309
 20
-147.032713450655
 30
0.0
 10
475.4686522248828
 20
-146.9057616820236
 30
0.0
 10
475.4517712570051
 20
-146.7870781425567
 30
0.0
 10
475.4517712570051
 20
-146.5839897637012
 30
0.0
 10
475.4517712570051
 20
-146.160587528564
 30
0.0
 10
475.5451333446553
 20
-145.7371852934268
 30
0.0
 10
475.7480494687366
 20
-145.3985324072268
 30
0.0
 10
475.9936847768348
 20
-144.9666896881507
 30
0.0
 10
476.4680744251537
 20
-144.6109835792986
 30
0.0
 10
477.1622611654317
 20
-144.6109835792986
 30
0.0
 10
478.2374754663782
 20
-144.6109835792986
 30
0.0
 10
479.041905262184
 20
-145.4662285335119
 30
0.0
 10
479.041905262184
 20
-146.6601263739253
 30
0.0
 10
479.041905262184
 20
-147.2612955361014
 30
0.0
 10
478.8727510738581
 20
-147.7694471201757
 30
0.0
 10
478.7032523759839
 20
-148.0317911413775
 30
0.0
 10
478.7032523759839
 20
-148.0317911413775
 30
0.0
 10
478.1361896591118
 20
-147.8455837303997
 30
0.0
 10
478.1361896591118
 20
-147.8455837303997
 30
0.0
 10
478.2715819116821
 20
-147.6170016449534
 30
0.0
 10
478.4407361000078
 20
-147.1682779579996
 30
0.0
 10
478.4407361000078
 20
-146.6685668578641
 30
0.0
 10
478.4407361000078
 20
-145.9657673788732
 30
0.0
 10
477.9835719291152
 20
-145.3645982166971
 30
0.0
 10
477.2470105143688
 20
-145.3645982166971
 30
0.0
 10
476.5355982966646
 20
-145.3730387006359
 30
0.0
 10
476.0277912221389
 20
-145.8472560941806
 30
0.0
 10
476.0277912221389
 20
-146.9479641017179
 30
0.0
 10
476.0277912221389
 20
-147.2612955361014
 30
0.0
 10
476.0615531578944
 20
-147.5069308441997
 30
0.0
 10
476.0870468644851
 20
-147.7101914778294
 30
0.0
 10
476.0870468644851
 20
-147.7101914778294
 30
0.0
 10
473.4450031368472
 20
-147.3544853689774
 30
0.0
 10
473.4450031368472
 20
-147.3544853689774
 30
0.0
 10
473.4450031368472
 20
-147.3544853689774
 30
0.0
 10
473.4450031368472
 20
-144.7210543800524
 30
0.0
 10
473.4450031368472
 20
-144.7210543800524
 30
0.0
 10
473.4450031368472
 20
-144.7210543800524
 30
0.0
 10
474.0716660056141
 20
-144.7210543800524
 30
0.0
 10
474.0716660056141
 20
-144.7210543800524
 30
0.0
  0
HATCH
  5
F3
330
1F
100
AcDbEntity
  8
Livello 1
100
AcDbHatch
 10
0.0
 20
0.0
 30
0.0
210
0.0
220
0.0
230
1.0
  2
SOLID
 70
     1
 71
     0
 91
        1
 92
        1
 93
        1
 72
     4
 94
        3
 73
     0
 74
     0
 95
       50
 96
       46
 40
0.0
 40
0.0
 40
0.0
 40
0.0
 40
1.0
 40
1.0
 40
1.0
 40
2.0
 40
2.0
 40
2.0
 40
3.0
 40
3.0
 40
3.0
 40
4.0
 40
4.0
 40
4.0
 40
5.0
 40
5.0
 40
5.0
 40
6.0
 40
6.0
 40
6.0
 40
7.0
 40
7.0
 40
7.0
 40
8.0
 40
8.0
 40
8.0
 40
9.0
 40
9.0
 40
9.0
 40
10.0
 40
10.0
 40
10.0
 40
11.0
 40
11.0
 40
11.0
 40
12.0
 40
12.0
 40
12.0
 40
13.0
 40
13.0
 40
13.0
 40
14.0
 40
14.0
 40
14.0
 40
15.0
 40
15.0
 40
15.0
 40
15.0
 10
474.0716660056141
 20
-144.7210543800524
 10
474.0716660056141
 20
-144.7210543800524
 10
474.0716660056141
 20
-146.8210123330864
 10
474.0716660056141
 20
-146.8210123330864
 10
474.0716660056141
 20
-146.8210123330864
 10
475.485877702309
 20
-147.032713450655
 10
475.485877702309
 20
-147.032713450655
 10
475.4686522248828
 20
-146.9057616820236
 10
475.4517712570051
 20
-146.7870781425567
 10
475.4517712570051
 20
-146.5839897637012
 10
475.4517712570051
 20
-146.160587528564
 10
475.5451333446553
 20
-145.7371852934268
 10
475.7480494687366
 20
-145.3985324072268
 10
475.9936847768348
 20
-144.9666896881507
 10
476.4680744251537
 20
-144.6109835792986
 10
477.1622611654317
 20
-144.6109835792986
 10
478.2374754663782
 20
-144.6109835792986
 10
479.041905262184
 20
-145.4662285335119
 10
479.041905262184
 20
-146.6601263739253
 10
479.041905262184
 20
-147.2612955361014
 10
478.8727510738581
 20
-147.7694471201757
 10
478.7032523759839
 20
-148.0317911413775
 10
478.7032523759839
 20
-148.0317911413775
 10
478.1361896591118
 20
-147.8455837303997
 10
478.1361896591118
 20
-147.8455837303997
 10
478.2715819116821
 20
-147.6170016449534
 10
478.4407361000078
 20
-147.1682779579996
 10
478.4407361000078
 20
-146.6685668578641
 10
478.4407361000078
 20
-145.9657673788732
 10
477.9835719291152
 20
-145.3645982166971
 10
477.2470105143688
 20
-145.3645982166971
 10
476.5355982966646
 20
-145.3730387006359
 10
476.0277912221389
 20
-145.8472560941806
 10
476.0277912221389
 20
-146.9479641017179
 10
476.0277912221389
 20
-147.2612955361014
 10
476.0615531578944
 20
-147.5069308441997
 10
476.0870468644851
 20
-147.7101914778294
 10
476.0870468644851
 20
-147.7101914778294
 10
473.4450031368472
 20
-147.3544853689774
 10
473.4450031368472
 20
-147.3544853689774
 10
473.4450031368472
 20
-147.3544853689774
 10
473.4450031368472
 20
-144.7210543800524
 10
473.4450031368472
 20
-144.7210543800524
 10
473.4450031368472
 20
-144.7210543800524
 10
474.0716660056141
 20
-144.7210543800524
 10
474.0716660056141
 20
-144.7210543800524
 97
        0
 97
        0
 75
     2
 76
     1
 98
        0
450
        0
451
        0
460
0.0
461
0.0
452
        0
462
0.0
453
        0
470

  0
POLYLINE
  5
F4
330
1F
100
AcDbEntity
  8
Livello 1
100
AcDb2dPolyline
 66
     1
 10
0.0
 20
0.0
 30
0.0
  0
VERTEX
  5
F5
330
F4
100
AcDbEntity
  8
Livello 1
100
AcDbVertex
100
AcDb2dVertex
 10
436.2238470046593
 20
-174.6377468096392
 30
0.0
  0
VERTEX
  5
F6
330
F4
100
AcDbEntity
  8
Livello 1
100
AcDbVertex
100
AcDb2dVertex
 10
436.2069660367816
 20
-174.6377468096392
 30
0.0
  0
VERTEX
  5
F7
330
F4
100
AcDbEntity
  8
Livello 1
100
AcDbVertex
100
AcDb2dVertex
 10
435.2502630205277
 20
-175.1541666228781
 30
0.0
  0
VERTEX
  5
F8
330
F4
100
AcDbEntity
  8
Livello 1
100
AcDbVertex
100
AcDb2dVertex
 10
435.1062580292443
 20
-174.5867593964575
 30
0.0
  0
VERTEX
  5
F9
330
F4
100
AcDbEntity
  8
Livello 1
100
AcDbVertex
100
AcDb2dVertex
 10
436.3085963535964
 20
-173.9432155598128
 30
0.0
  0
VERTEX
  5
FA
330
F4
100
AcDbEntity
  8
Livello 1
100
AcDbVertex
100
AcDb2dVertex
 10
436.943527451528
 20
-173.9432155598128
 30
0.0
  0
VERTEX
  5
FB
330
F4
100
AcDbEntity
  8
Livello 1
100
AcDbVertex
100
AcDb2dVertex
 10
436.943527451528
 20
-179.447100107048
 30
0.0
  0
VERTEX
  5
FC
330
F4
100
AcDbEntity
  8
Livello 1
100
AcDbVertex
100
AcDb2dVertex
 10
436.2238470046593
 20
-179.447100107048
 30
0.0
  0
VERTEX
  5
FD
330
F4
100
AcDbEntity
  8
Livello 1
100
AcDbVertex
100
AcDb2dVertex
 10
436.2238470046593
 20
-174.6377468096392
 30
0.0
  0
SEQEND
  5
FE
330
F4
100
AcDbEntity
  8
Livello 1
  0
HATCH
  5
FF
330
1F
100
AcDbEntity
  8
Livello 1
100
AcDbHatch
 10
0.0
 20
0.0
 30
0.0
210
0.0
220
0.0
230
1.0
  2
SOLID
 70
     1
 71
     0
 91
        1
 92
        1
 93
        8
 72
     1
 10
436.2238470046593
 20
-174.6377468096392
 11
436.2069660367816
 21
-174.6377468096392
 72
     1
 10
436.2069660367816
 20
-174.6377468096392
 11
435.2502630205277
 21
-175.1541666228781
 72
     1
 10
435.2502630205277
 20
-175.1541666228781
 11
435.1062580292443
 21
-174.5867593964575
 72
     1
 10
435.1062580292443
 20
-174.5867593964575
 11
436.3085963535964
 21
-173.9432155598128
 72
     1
 10
436.3085963535964
 20
-173.9432155598128
 11
436.943527451528
 21
-173.9432155598128
 72
     1
 10
436.943527451528
 20
-173.9432155598128
 11
436.943527451528
 21
-179.447100107048
 72
     1
 10
436.943527451528
 20
-179.447100107048
 11
436.2238470046593
 21
-179.447100107048
 72
     1
 10
436.2238470046593
 20
-179.447100107048
 11
436.2238470046593
 21
-174.6377468096392
 97
        0
 75
     2
 76
     1
 98
        0
450
        0
451
        0
460
0.0
461
0.0
452
        0
462
0.0
453
        0
470

  0
SPLINE
  5
100
330
1F
100
AcDbEntity
  8
Livello 1
100
AcDbSpline
210
0.0
220
0.0
230
1.0
 70
    11
 71
     3
 72
    47
 73
    43
 74
     0
 42
0.000000001
 43
0.0000000001
 40
0.0
 40
0.0
 40
0.0
 40
0.0
 40
1.0
 40
1.0
 40
1.0
 40
2.0
 40
2.0
 40
2.0
 40
3.0
 40
3.0
 40
3.0
 40
4.0
 40
4.0
 40
4.0
 40
5.0
 40
5.0
 40
5.0
 40
6.0
 40
6.0
 40
6.0
 40
7.0
 40
7.0
 40
7.0
 40
8.0
 40
8.0
 40
8.0
 40
9.0
 40
9.0
 40
9.0
 40
10.0
 40
10.0
 40
10.0
 40
11.0
 40
11.0
 40
11.0
 40
12.0
 40
12.0
 40
12.0
 40
13.0
 40
13.0
 40
13.0
 40
14.0
 40
14.0
 40
14.0
 40
14.0
 10
438.9499510621375
 20
-179.447100107048
 30
0.0
 10
438.9499510621375
 20
-179.447100107048
 30
0.0
 10
438.9499510621375
 20
-178.9899359361553
 30
0.0
 10
438.9499510621375
 20
-178.9899359361553
 30
0.0
 10
438.9499510621375
 20
-178.9899359361553
 30
0.0
 10
439.5342392564358
 20
-178.4225287097346
 30
0.0
 10
439.5342392564358
 20
-178.4225287097346
 30
0.0
 10
440.9398382144178
 20
-177.0847981328122
 30
0.0
 10
441.5747693123494
 20
-176.3733859151081
 30
0.0
 10
441.5833820510624
 20
-175.5434624127114
 30
0.0
 10
441.5833820510624
 20
-174.9846679250038
 30
0.0
 10
441.3122530363733
 20
-174.4682481117649
 30
0.0
 10
440.4909422726898
 20
-174.4682481117649
 30
0.0
 10
439.9914034273286
 20
-174.4682481117649
 30
0.0
 10
439.5766139309044
 20
-174.7221516490278
 30
0.0
 10
439.322365884093
 20
-174.9340250213707
 30
0.0
 10
439.322365884093
 20
-174.9340250213707
 30
0.0
 10
439.0853433147078
 20
-174.4089924694186
 30
0.0
 10
439.0853433147078
 20
-174.4089924694186
 30
0.0
 10
439.4663708753765
 20
-174.0872205510963
 30
0.0
 10
440.0082843952063
 20
-173.8501979817111
 30
0.0
 10
440.6432154931378
 20
-173.8501979817111
 30
0.0
 10
441.8286728496124
 20
-173.8501979817111
 30
0.0
 10
442.3282116949734
 20
-174.6628960066815
 30
0.0
 10
442.3282116949734
 20
-175.4504448346096
 30
0.0
 10
442.3282116949734
 20
-176.4667480027583
 30
0.0
 10
441.5916502802271
 20
-177.2880587664419
 30
0.0
 10
440.4316866303434
 20
-178.4056477418569
 30
0.0
 10
440.4316866303434
 20
-178.4056477418569
 30
0.0
 10
439.9914034273286
 20
-178.8121690091164
 30
0.0
 10
439.9914034273286
 20
-178.8121690091164
 30
0.0
 10
439.9914034273286
 20
-178.8121690091164
 30
0.0
 10
439.9914034273286
 20
-178.8290499769941
 30
0.0
 10
439.9914034273286
 20
-178.8290499769941
 30
0.0
 10
439.9914034273286
 20
-178.8290499769941
 30
0.0
 10
442.4639484570923
 20
-178.8290499769941
 30
0.0
 10
442.4639484570923
 20
-178.8290499769941
 30
0.0
 10
442.4639484570923
 20
-178.8290499769941
 30
0.0
 10
442.4639484570923
 20
-179.447100107048
 30
0.0
 10
442.4639484570923
 20
-179.447100107048
 30
0.0
 10
442.4639484570923
 20
-179.447100107048
 30
0.0
 10
438.9499510621375
 20
-179.447100107048
 30
0.0
 10
438.9499510621375
 20
-179.447100107048
 30
0.0
  0
HATCH
  5
101
330
1F
100
AcDbEntity
  8
Livello 1
100
AcDbHatch
 10
0.0
 20
0.0
 30
0.0
210
0.0
220
0.0
230
1.0
  2
SOLID
 70
     1
 71
     0
 91
        1
 92
        1
 93
        1
 72
     4
 94
        3
 73
     0
 74
     0
 95
       47
 96
       43
 40
0.0
 40
0.0
 40
0.0
 40
0.0
 40
1.0
 40
1.0
 40
1.0
 40
2.0
 40
2.0
 40
2.0
 40
3.0
 40
3.0
 40
3.0
 40
4.0
 40
4.0
 40
4.0
 40
5.0
 40
5.0
 40
5.0
 40
6.0
 40
6.0
 40
6.0
 40
7.0
 40
7.0
 40
7.0
 40
8.0
 40
8.0
 40
8.0
 40
9.0
 40
9.0
 40
9.0
 40
10.0
 40
10.0
 40
10.0
 40
11.0
 40
11.0
 40
11.0
 40
12.0
 40
12.0
 40
12.0
 40
13.0
 40
13.0
 40
13.0
 40
14.0
 40
14.0
 40
14.0
 40
14.0
 10
438.9499510621375
 20
-179.447100107048
 10
438.9499510621375
 20
-179.447100107048
 10
438.9499510621375
 20
-178.9899359361553
 10
438.9499510621375
 20
-178.9899359361553
 10
438.9499510621375
 20
-178.9899359361553
 10
439.5342392564358
 20
-178.4225287097346
 10
439.5342392564358
 20
-178.4225287097346
 10
440.9398382144178
 20
-177.0847981328122
 10
441.5747693123494
 20
-176.3733859151081
 10
441.5833820510624
 20
-175.5434624127114
 10
441.5833820510624
 20
-174.9846679250038
 10
441.3122530363733
 20
-174.4682481117649
 10
440.4909422726898
 20
-174.4682481117649
 10
439.9914034273286
 20
-174.4682481117649
 10
439.5766139309044
 20
-174.7221516490278
 10
439.322365884093
 20
-174.9340250213707
 10
439.322365884093
 20
-174.9340250213707
 10
439.0853433147078
 20
-174.4089924694186
 10
439.0853433147078
 20
-174.4089924694186
 10
439.4663708753765
 20
-174.0872205510963
 10
440.0082843952063
 20
-173.8501979817111
 10
440.6432154931378
 20
-173.8501979817111
 10
441.8286728496124
 20
-173.8501979817111
 10
442.3282116949734
 20
-174.6628960066815
 10
442.3282116949734
 20
-175.4504448346096
 10
442.3282116949734
 20
-176.4667480027583
 10
441.5916502802271
 20
-177.2880587664419
 10
440.4316866303434
 20
-178.4056477418569
 10
440.4316866303434
 20
-178.4056477418569
 10
439.9914034273286
 20
-178.8121690091164
 10
439.9914034273286
 20
-178.8121690091164
 10
439.9914034273286
 20
-178.8121690091164
 10
439.9914034273286
 20
-178.8290499769941
 10
439.9914034273286
 20
-178.8290499769941
 10
439.9914034273286
 20
-178.8290499769941
 10
442.4639484570923
 20
-178.8290499769941
 10
442.4639484570923
 20
-178.8290499769941
 10
442.4639484570923
 20
-178.8290499769941
 10
442.4639484570923
 20
-179.447100107048
 10
442.4639484570923
 20
-179.447100107048
 10
442.4639484570923
 20
-179.447100107048
 10
438.9499510621375
 20
-179.447100107048
 10
438.9499510621375
 20
-179.447100107048
 97
        0
 97
        0
 75
     2
 76
     1
 98
        0
450
        0
451
        0
460
0.0
461
0.0
452
        0
462
0.0
453
        0
470

  0
ENDSEC
  0
SECTION
  2
OBJECTS
  0
DICTIONARY
  5
C
330
0
100
AcDbDictionary
281
     1
  3
ACAD_CIP_PREVIOUS_PRODUCT_INFO
350
C9
  3
ACAD_COLOR
350
AA
  3
ACAD_DETAILVIEWSTYLE
350
C5
  3
ACAD_GROUP
350
D
  3
ACAD_LAYOUT
350
1A
  3
ACAD_MATERIAL
350
3B
  3
ACAD_MLEADERSTYLE
350
9D
  3
ACAD_MLINESTYLE
350
17
  3
ACAD_PLOTSETTINGS
350
19
  3
ACAD_PLOTSTYLENAME
350
E
  3
ACAD_SCALELIST
350
AC
  3
ACAD_SECTIONVIEWSTYLE
350
C3
  3
ACAD_TABLESTYLE
350
9C
  3
ACAD_VISUALSTYLE
350
2A
  3
ACDB_RECOMPOSE_DATA
350
127
  3
AcDbVariableDictionary
350
102
  0
SUN
  5
3F
330
29
100
AcDbSun
 90
        1
290
     1
 63
     7
421
 16777215
 40
1.0
291
     1
 91
  2455826
 92
 54000000
292
     0
 70
     0
 71
   256
280
     1
1001
ACAD
1000
AcDbSavedByObjectVersion
1070
     0
  0
DICTIONARY
  5
CA
330
1F
100
AcDbDictionary
280
     1
281
     1
  3
ACAD_SORTENTS
360
CB
  0
XRECORD
  5
C9
102
{ACAD_REACTORS
330
C
102
}
330
C
100
AcDbXrecord
280
     1
300
ACD
300
2019
300
ACD_F_S
  0
DICTIONARY
  5
AA
102
{ACAD_REACTORS
330
C
102
}
330
C
100
AcDbDictionary
281
     1
  0
DICTIONARY
  5
C5
102
{ACAD_REACTORS
330
C
102
}
330
C
100
AcDbDictionary
281
     1
  3
Imperial24
350
C6
  0
DICTIONARY
  5
D
102
{ACAD_REACTORS
330
C
102
}
330
C
100
AcDbDictionary
281
     1
  0
DICTIONARY
  5
1A
102
{ACAD_REACTORS
330
C
102
}
330
C
100
AcDbDictionary
281
     1
  3
Layout1
350
1E
  3
Layout2
350
26
  3
Model
350
22
  0
DICTIONARY
  5
3B
102
{ACAD_REACTORS
330
C
102
}
330
C
100
AcDbDictionary
281
     1
  3
ByBlock
350
3D
  3
ByLayer
350
3C
  3
Global
350
3E
  0
DICTIONARY
  5
9D
102
{ACAD_REACTORS
330
C
102
}
330
C
100
AcDbDictionary
281
     1
  3
Standard
350
C2
  0
DICTIONARY
  5
17
102
{ACAD_REACTORS
330
C
102
}
330
C
100
AcDbDictionary
281
     1
  3
Standard
350
18
  0
DICTIONARY
  5
19
102
{ACAD_REACTORS
330
C
102
}
330
C
100
AcDbDictionary
281
     1
  0
ACDBDICTIONARYWDFLT
  5
E
102
{ACAD_REACTORS
330
C
102
}
330
C
100
AcDbDictionary
281
     1
  3
Normal
350
F
100
AcDbDictionaryWithDefault
340
F
  0
DICTIONARY
  5
AC
102
{ACAD_REACTORS
330
C
102
}
330
C
100
AcDbDictionary
281
     1
  3
A0
350
AD
  3
A1
350
AE
  3
A2
350
AF
  3
A3
350
B0
  3
A4
350
B1
  3
A5
350
B2
  3
A6
350
B3
  3
A7
350
B4
  3
A8
350
B5
  3
A9
350
B6
  3
B0
350
B7
  3
B1
350
B8
  3
B2
350
B9
  3
B3
350
BA
  3
B4
350
BB
  3
B5
350
BC
  3
B6
350
BD
  3
B7
350
BE
  3
B8
350
BF
  3
B9
350
C0
  3
C0
350
C1
  0
DICTIONARY
  5
C3
102
{ACAD_REACTORS
330
C
102
}
330
C
100
AcDbDictionary
281
     1
  3
Imperial24
350
C4
  0
DICTIONARY
  5
9C
102
{ACAD_REACTORS
330
C
102
}
330
C
100
AcDbDictionary
281
     1
  3
Standard
350
AB
  0
DICTIONARY
  5
2A
102
{ACAD_REACTORS
330
C
102
}
330
C
100
AcDbDictionary
281
     1
  3
2dWireframe
350
2F
  3
3D Hidden
350
31
  3
3dWireframe
350
30
  3
Basic
350
32
  3
Brighten
350
36
  3
ColorChange
350
3A
  3
Conceptual
350
34
  3
Dim
350
35
  3
EdgeColorOff
350
A9
  3
Facepattern
350
39
  3
Flat
350
2B
  3
FlatWithEdges
350
2C
  3
Gouraud
350
2D
  3
GouraudWithEdges
350
2E
  3
Hidden
350
A1
  3
JitterOff
350
A7
  3
Linepattern
350
38
  3
OverhangOff
350
A8
  3
Realistic
350
33
  3
Shaded
350
A6
  3
Shaded with edges
350
A5
  3
Shades of Gray
350
A2
  3
Sketchy
350
A3
  3
Thicken
350
37
  3
Wireframe
350
A0
  3
X-Ray
350
A4
  0
XRECORD
  5
127
102
{ACAD_REACTORS
330
C
102
}
330
C
100
AcDbXrecord
280
     1
 90
        1
330
AB
  0
DICTIONARY
  5
102
102
{ACAD_REACTORS
330
C
102
}
330
C
100
AcDbDictionary
281
     1
  3
CANNOSCALE
350
107
  3
CMLEADERSTYLE
350
104
  3
CTABLESTYLE
350
103
  3
CVIEWDETAILSTYLE
350
105
  3
CVIEWSECTIONSTYLE
350
106
  0
SORTENTSTABLE
  5
CB
102
{ACAD_REACTORS
330
CA
102
}
330
CA
100
AcDbSortentsTable
330
1F
  0
ACDBDETAILVIEWSTYLE
  5
C6
102
{ACAD_XDICTIONARY
360
12A
102
}
102
{ACAD_REACTORS
330
C5
102
}
330
C5
100
AcDbModelDocViewStyle
 70
     0
  3
Imperial24
290
     0
100
AcDbDetailViewStyle
 70
     0
 71
     0
 90
        3
 71
     1
340
11
 62
   256
 40
0.24
340
0
 62
   256
 40
0.24
300

 40
0.36
280
     3
 71
     2
340
16
 90
       25
 62
   256
 71
     3
340
11
 62
   256
 40
0.24
 90
        1
 40
0.75
 90
        1
300
%<\AcVar ViewType \f "%tc1">% %<\AcVar ViewDetailId>%\PSCALA %<\AcVar ViewScale \f "%sn">%
 71
     4
340
16
 90
       25
 62
   256
340
16
 90
       25
 62
   256
280
     0
  0
LAYOUT
  5
1E
102
{ACAD_REACTORS
330
1A
102
}
330
1A
100
AcDbPlotSettings
  1

  2
none_device
  4

  6

 40
0.0
 41
0.0
 42
0.0
 43
0.0
 44
0.0
 45
0.0
 46
0.0
 47
0.0
 48
0.0
 49
0.0
140
0.0
141
0.0
142
1.0
143
1.0
 70
   688
 72
     0
 73
     0
 74
     5
  7

 75
    16
147
1.0
 76
     0
 77
     2
 78
   300
148
0.0
149
0.0
100
AcDbLayout
  1
Layout1
 70
     1
 71
     1
 10
0.0
 20
0.0
 11
12.0
 21
9.0
 12
0.0
 22
0.0
 32
0.0
 14
1.000000000000000E+20
 24
1.000000000000000E+20
 34
1.000000000000000E+20
 15
-1.000000000000000E+20
 25
-1.000000000000000E+20
 35
-1.000000000000000E+20
146
0.0
 13
0.0
 23
0.0
 33
0.0
 16
1.0
 26
0.0
 36
0.0
 17
0.0
 27
1.0
 37
0.0
 76
     0
330
1B
  0
LAYOUT
  5
26
102
{ACAD_REACTORS
330
1A
102
}
330
1A
100
AcDbPlotSettings
  1

  2
none_device
  4

  6

 40
0.0
 41
0.0
 42
0.0
 43
0.0
 44
0.0
 45
0.0
 46
0.0
 47
0.0
 48
0.0
 49
0.0
140
0.0
141
0.0
142
1.0
143
1.0
 70
   688
 72
     0
 73
     0
 74
     5
  7

 75
    16
147
1.0
 76
     0
 77
     2
 78
   300
148
0.0
149
0.0
100
AcDbLayout
  1
Layout2
 70
     1
 71
     2
 10
0.0
 20
0.0
 11
0.0
 21
0.0
 12
0.0
 22
0.0
 32
0.0
 14
0.0
 24
0.0
 34
0.0
 15
0.0
 25
0.0
 35
0.0
146
0.0
 13
0.0
 23
0.0
 33
0.0
 16
1.0
 26
0.0
 36
0.0
 17
0.0
 27
1.0
 37
0.0
 76
     0
330
23
  0
LAYOUT
  5
22
102
{ACAD_REACTORS
330
1A
102
}
330
1A
100
AcDbPlotSettings
  1

  2
none_device
  4

  6

 40
0.0
 41
0.0
 42
0.0
 43
0.0
 44
0.0
 45
0.0
 46
0.0
 47
0.0
 48
0.0
 49
0.0
140
0.0
141
0.0
142
1.0
143
1.0
 70
  1712
 72
     0
 73
     0
 74
     0
  7

 75
     0
147
1.0
 76
     0
 77
     2
 78
   300
148
0.0
149
0.0
100
AcDbLayout
  1
Model
 70
     1
 71
     0
 10
0.0
 20
0.0
 11
12.0
 21
9.0
 12
0.0
 22
0.0
 32
0.0
 14
1.000000000000000E+20
 24
1.000000000000000E+20
 34
1.000000000000000E+20
 15
-1.000000000000000E+20
 25
-1.000000000000000E+20
 35
-1.000000000000000E+20
146
0.0
 13
0.0
 23
0.0
 33
0.0
 16
1.0
 26
0.0
 36
0.0
 17
0.0
 27
1.0
 37
0.0
 76
     0
330
1F
331
29
  0
MATERIAL
  5
3D
102
{ACAD_REACTORS
330
3B
102
}
330
3B
100
AcDbMaterial
  1
ByBlock
  0
MATERIAL
  5
3C
102
{ACAD_REACTORS
330
3B
102
}
330
3B
100
AcDbMaterial
  1
ByLayer
  0
MATERIAL
  5
3E
102
{ACAD_REACTORS
330
3B
102
}
330
3B
100
AcDbMaterial
  1
Global
  0
MLEADERSTYLE
  5
C2
102
{ACAD_REACTORS
330
9D
102
}
330
9D
100
AcDbMLeaderStyle
179
     2
170
     2
171
     1
172
     0
 90
        2
 40
0.0
 41
0.0
173
     1
 91
-1056964608
340
14
 92
       -2
290
     1
 42
0.09
291
     1
 43
0.36
  3
Standard
 44
0.18
300

342
11
174
     1
178
     6
175
     1
176
     0
 93
-1056964608
 45
0.18
292
     0
297
     0
 46
0.18
 94
-1056964608
 47
1.0
 49
1.0
140
1.0
293
     1
141
0.0
294
     1
177
     0
142
1.0
295
     0
296
     0
143
0.125
271
     0
272
     9
273
     9
298
     0
  0
MLINESTYLE
  5
18
102
{ACAD_REACTORS
330
17
102
}
330
17
100
AcDbMlineStyle
  2
STANDARD
 70
     0
  3

 62
   256
 51
90.0
 52
90.0
 71
     2
 49
0.5
 62
   256
  6
BYLAYER
 49
-0.5
 62
   256
  6
BYLAYER
  0
ACDBPLACEHOLDER
  5
F
102
{ACAD_REACTORS
330
E
102
}
330
E
  0
SCALE
  5
AD
102
{ACAD_REACTORS
330
AC
102
}
330
AC
100
AcDbScale
 70
     0
300
1:1
140
1.0
141
1.0
290
     1
  0
SCALE
  5
AE
102
{ACAD_REACTORS
330
AC
102
}
330
AC
100
AcDbScale
 70
     0
300
1.10
140
1.0
141
10.0
290
     0
  0
SCALE
  5
AF
102
{ACAD_REACTORS
330
AC
102
}
330
AC
100
AcDbScale
 70
     0
300
1.50
140
1.0
141
50.0
290
     0
  0
SCALE
  5
B0
102
{ACAD_REACTORS
330
AC
102
}
330
AC
100
AcDbScale
 70
     0
300
1:100
140
1.0
141
100.0
290
     0
  0
SCALE
  5
B1
102
{ACAD_REACTORS
330
AC
102
}
330
AC
100
AcDbScale
 70
     0
300
1.200
140
1.0
141
200.0
290
     0
  0
SCALE
  5
B2
102
{ACAD_REACTORS
330
AC
102
}
330
AC
100
AcDbScale
 70
     0
300
1/128" = 1'-0"
140
0.0078125
141
12.0
290
     0
  0
SCALE
  5
B3
102
{ACAD_REACTORS
330
AC
102
}
330
AC
100
AcDbScale
 70
     0
300
1/64" = 1'-0"
140
0.015625
141
12.0
290
     0
  0
SCALE
  5
B4
102
{ACAD_REACTORS
330
AC
102
}
330
AC
100
AcDbScale
 70
     0
300
1/32" = 1'-0"
140
0.03125
141
12.0
290
     0
  0
SCALE
  5
B5
102
{ACAD_REACTORS
330
AC
102
}
330
AC
100
AcDbScale
 70
     0
300
1/16" = 1'-0"
140
0.0625
141
12.0
290
     0
  0
SCALE
  5
B6
102
{ACAD_REACTORS
330
AC
102
}
330
AC
100
AcDbScale
 70
     0
300
3/32" = 1'-0"
140
0.09375
141
12.0
290
     0
  0
SCALE
  5
B7
102
{ACAD_REACTORS
330
AC
102
}
330
AC
100
AcDbScale
 70
     0
300
1/8" = 1'-0"
140
0.125
141
12.0
290
     0
  0
SCALE
  5
B8
102
{ACAD_REACTORS
330
AC
102
}
330
AC
100
AcDbScale
 70
     0
300
3/16" = 1'-0"
140
0.1875
141
12.0
290
     0
  0
SCALE
  5
B9
102
{ACAD_REACTORS
330
AC
102
}
330
AC
100
AcDbScale
 70
     0
300
1/4" = 1'-0"
140
0.25
141
12.0
290
     0
  0
SCALE
  5
BA
102
{ACAD_REACTORS
330
AC
102
}
330
AC
100
AcDbScale
 70
     0
300
3/8" = 1'-0"
140
0.375
141
12.0
290
     0
  0
SCALE
  5
BB
102
{ACAD_REACTORS
330
AC
102
}
330
AC
100
AcDbScale
 70
     0
300
1/2" = 1'-0"
140
0.5
141
12.0
290
     0
  0
SCALE
  5
BC
102
{ACAD_REACTORS
330
AC
102
}
330
AC
100
AcDbScale
 70
     0
300
3/4" = 1'-0"
140
0.75
141
12.0
290
     0
  0
SCALE
  5
BD
102
{ACAD_REACTORS
330
AC
102
}
330
AC
100
AcDbScale
 70
     0
300
1" = 1'-0"
140
1.0
141
12.0
290
     0
  0
SCALE
  5
BE
102
{ACAD_REACTORS
330
AC
102
}
330
AC
100
AcDbScale
 70
     0
300
1-1/2" = 1'-0"
140
1.5
141
12.0
290
     0
  0
SCALE
  5
BF
102
{ACAD_REACTORS
330
AC
102
}
330
AC
100
AcDbScale
 70
     0
300
3" = 1'-0"
140
3.0
141
12.0
290
     0
  0
SCALE
  5
C0
102
{ACAD_REACTORS
330
AC
102
}
330
AC
100
AcDbScale
 70
     0
300
6" = 1'-0"
140
6.0
141
12.0
290
     0
  0
SCALE
  5
C1
102
{ACAD_REACTORS
330
AC
102
}
330
AC
100
AcDbScale
 70
     0
300
1'-0" = 1'-0"
140
12.0
141
12.0
290
     0
  0
ACDBSECTIONVIEWSTYLE
  5
C4
102
{ACAD_XDICTIONARY
360
128
102
}
102
{ACAD_REACTORS
330
C3
102
}
330
C3
100
AcDbModelDocViewStyle
 70
     0
  3
Imperial24
290
     0
100
AcDbSectionViewStyle
 70
     0
 71
     0
 90
       78
 71
     1
340
11
 62
   256
 40
0.24
340
0
340
0
 62
   256
 40
0.24
300
I, O, Q, S, X, Z
 40
0.48
 90
        3
 40
0.18
 90
        1
 71
     2
340
16
 90
       25
 62
   256
340
16
 90
       50
 62
   256
 40
0.24
 40
0.0
 40
0.24
 71
     3
340
11
 62
   256
 40
0.24
 90
        1
 40
0.75
 90
        1
300
%<\AcVar ViewType \f "%tc1">% %<\AcVar ViewSectionStartId>%-%<\AcVar ViewSectionEndId>%\PSCALA %<\AcVar ViewScale \f "%sn">%
 71
     4
 62
   256
 62
   257
300
ANSI31
 40
1.0
 90
        0
290
     0
290
     0
 90
        6
 40
0.0
 40
1.570796326794896
 40
0.2617993877991494
 40
1.308996938995747
 40
-0.2617993877991494
 40
1.832595714594046
  0
TABLESTYLE
  5
AB
102
{ACAD_XDICTIONARY
360
125
102
}
102
{ACAD_REACTORS
330
9C
102
}
330
9C
100
AcDbTableStyle
280
     0
  3
Standard
 70
     0
 71
     0
 40
0.06
 41
0.06
280
     0
281
     0
  7
Standard
140
0.18
170
     2
 62
     0
 63
     7
283
     0
 90
      512
 91
        0
  1

274
    -2
284
     1
 64
     0
275
    -2
285
     1
 65
     0
276
    -2
286
     1
 66
     0
277
    -2
287
     1
 67
     0
278
    -2
288
     1
 68
     0
279
    -2
289
     1
 69
     0
  7
Standard
140
0.25
170
     5
 62
     0
 63
     7
283
     0
 90
      512
 91
        0
  1

274
    -2
284
     1
 64
     0
275
    -2
285
     1
 65
     0
276
    -2
286
     1
 66
     0
277
    -2
287
     1
 67
     0
278
    -2
288
     1
 68
     0
279
    -2
289
     1
 69
     0
  7
Standard
140
0.18
170
     5
 62
     0
 63
     7
283
     0
 90
      512
 91
        0
  1

274
    -2
284
     1
 64
     0
275
    -2
285
     1
 65
     0
276
    -2
286
     1
 66
     0
277
    -2
287
     1
 67
     0
278
    -2
288
     1
 68
     0
279
    -2
289
     1
 69
     0
  0
VISUALSTYLE
  5
2F
102
{ACAD_REACTORS
330
2A
102
}
330
2A
100
AcDbVisualStyle
  2
2dWireframe
 70
     4
177
     3
291
     0
 70
    58
 90
        0
176
     1
 90
        2
176
     1
 90
        0
176
     1
 90
        0
176
     1
 40
0.6
176
     1
 40
30.0
176
     1
 62
     7
420
 16777215
176
     1
 90
        1
176
     1
 90
        4
176
     1
 62
     7
176
     1
 62
   257
176
     1
 90
        1
176
     1
 90
        1
176
     1
 40
1.0
176
     1
 90
        0
176
     1
 62
   257
176
     1
 40
1.0
176
     1
 90
        1
176
     1
 90
        6
176
     1
 90
        2
176
     1
 62
     7
176
     1
 90
        5
176
     1
 90
        0
176
     1
 90
        0
176
     1
290
     0
176
     1
 90
        1
176
     1
 40
0.0
176
     1
 90
        0
176
     1
290
     1
176
     1
290
     1
176
     1
290
     0
176
     1
290
     0
176
     1
290
     0
176
     1
290
     0
176
     1
290
     0
176
     1
290
     0
176
     1
290
     0
176
     1
 90
       50
176
     1
 40
0.0
176
     1
 40
1.0
176
     1
 90
        0
176
     1
 62
    18
420
        0
176
     1
 90
       50
176
     1
 90
        3
176
     1
 62
     5
420
      255
176
     1
290
     0
176
     1
 90
       50
176
     1
 90
       50
176
     1
 90
       50
176
     1
290
     0
176
     1
 90
       50
176
     1
 62
   256
176
     0
 40
1.0
176
     0
 90
        2
176
     1
  1
strokes_ogs.tif
176
     1
290
     0
176
     1
 40
1.0
176
     1
 40
1.0
176
     1
1001
ACAD
1000
AcDbSavedByObjectVersion
1070
     0
  0
VISUALSTYLE
  5
31
102
{ACAD_REACTORS
330
2A
102
}
330
2A
100
AcDbVisualStyle
  2
3D Hidden
 70
     6
177
     3
291
     0
 70
    58
 90
        1
176
     1
 90
        2
176
     1
 90
        2
176
     1
 90
        0
176
     1
 40
0.6
176
     1
 40
30.0
176
     1
 62
     7
420
 16777215
176
     1
 90
        2
176
     1
 90
        2
176
     1
 62
     7
176
     1
 62
   257
176
     1
 90
        2
176
     1
 90
        1
176
     1
 40
40.0
176
     1
 90
        0
176
     1
 62
   257
176
     1
 40
1.0
176
     1
 90
        1
176
     1
 90
        6
176
     1
 90
        2
176
     1
 62
     7
176
     1
 90
        3
176
     1
 90
        0
176
     1
 90
        0
176
     1
290
     0
176
     1
 90
        1
176
     1
 40
0.0
176
     1
 90
        0
176
     1
290
     0
176
     1
290
     1
176
     1
290
     1
176
     1
290
     0
176
     1
290
     0
176
     1
290
     0
176
     1
290
     0
176
     1
290
     0
176
     1
290
     0
176
     1
 90
       50
176
     1
 40
0.0
176
     1
 40
1.0
176
     1
 90
        0
176
     1
 62
    18
420
        0
176
     1
 90
       50
176
     1
 90
        3
176
     1
 62
     5
420
      255
176
     1
290
     0
176
     1
 90
       50
176
     1
 90
       50
176
     1
 90
       50
176
     1
290
     0
176
     1
 90
       50
176
     1
 62
   256
176
     0
 40
1.0
176
     0
 90
        2
176
     1
  1
strokes_ogs.tif
176
     1
290
     0
176
     1
 40
1.0
176
     1
 40
1.0
176
     1
1001
ACAD
1000
AcDbSavedByObjectVersion
1070
     0
  0
VISUALSTYLE
  5
30
102
{ACAD_REACTORS
330
2A
102
}
330
2A
100
AcDbVisualStyle
  2
3dWireframe
 70
     5
177
     3
291
     0
 70
    58
 90
        0
176
     1
 90
        2
176
     1
 90
        0
176
     1
 90
        0
176
     1
 40
0.6
176
     1
 40
30.0
176
     1
 62
     7
420
 16777215
176
     1
 90
        1
176
     1
 90
        4
176
     1
 62
     7
176
     1
 62
   257
176
     1
 90
        1
176
     1
 90
        1
176
     1
 40
1.0
176
     1
 90
        0
176
     1
 62
   257
176
     1
 40
1.0
176
     1
 90
        1
176
     1
 90
        6
176
     1
 90
        2
176
     1
 62
     7
176
     1
 90
        5
176
     1
 90
        0
176
     1
 90
        0
176
     1
290
     0
176
     1
 90
        1
176
     1
 40
0.0
176
     1
 90
        0
176
     1
290
     0
176
     1
290
     1
176
     1
290
     1
176
     1
290
     0
176
     1
290
     0
176
     1
290
     0
176
     1
290
     0
176
     1
290
     0
176
     1
290
     0
176
     1
 90
       50
176
     1
 40
0.0
176
     1
 40
1.0
176
     1
 90
        0
176
     1
 62
    18
420
        0
176
     1
 90
       50
176
     1
 90
        3
176
     1
 62
     5
420
      255
176
     1
290
     0
176
     1
 90
       50
176
     1
 90
       50
176
     1
 90
       50
176
     1
290
     0
176
     1
 90
       50
176
     1
 62
   256
176
     0
 40
1.0
176
     0
 90
        2
176
     1
  1
strokes_ogs.tif
176
     1
290
     0
176
     1
 40
1.0
176
     1
 40
1.0
176
     1
1001
ACAD
1000
AcDbSavedByObjectVersion
1070
     0
  0
VISUALSTYLE
  5
32
102
{ACAD_REACTORS
330
2A
102
}
330
2A
100
AcDbVisualStyle
  2
Basic
 70
     7
177
     3
291
     1
 70
    58
 90
        1
176
     1
 90
        0
176
     1
 90
        1
176
     1
 90
        0
176
     1
 40
0.6
176
     1
 40
30.0
176
     1
 62
     7
420
 16777215
176
     1
 90
        0
176
     1
 90
        4
176
     1
 62
     7
176
     1
 62
   257
176
     1
 90
        1
176
     1
 90
        1
176
     1
 40
1.0
176
     1
 90
        8
176
     1
 62
     7
176
     1
 40
1.0
176
     1
 90
        1
176
     1
 90
        6
176
     1
 90
        2
176
     1
 62
     7
176
     1
 90
        5
176
     1
 90
        0
176
     1
 90
        0
176
     1
290
     0
176
     1
 90
        1
176
     1
 40
0.0
176
     1
 90
        0
176
     1
290
     0
176
     1
290
     1
176
     1
290
     1
176
     1
290
     0
176
     1
290
     0
176
     1
290
     0
176
     1
290
     0
176
     1
290
     0
176
     1
290
     0
176
     1
 90
       50
176
     1
 40
0.0
176
     1
 40
1.0
176
     1
 90
        0
176
     1
 62
    18
420
        0
176
     1
 90
       50
176
     1
 90
        3
176
     1
 62
     5
420
      255
176
     1
290
     0
176
     1
 90
       50
176
     1
 90
       50
176
     1
 90
       50
176
     1
290
     0
176
     1
 90
       50
176
     1
 62
   256
176
     0
 40
1.0
176
     0
 90
        2
176
     1
  1
strokes_ogs.tif
176
     1
290
     0
176
     1
 40
1.0
176
     1
 40
1.0
176
     1
1001
ACAD
1000
AcDbSavedByObjectVersion
1070
     0
  0
VISUALSTYLE
  5
36
102
{ACAD_REACTORS
330
2A
102
}
330
2A
100
AcDbVisualStyle
  2
Brighten
 70
    12
177
     3
291
     1
 70
    58
 90
        2
176
     1
 90
        2
176
     1
 90
        0
176
     1
 90
        0
176
     1
 40
0.6
176
     1
 40
30.0
176
     1
 62
     7
420
 16777215
176
     1
 90
        1
176
     1
 90
        4
176
     1
 62
     7
176
     1
 62
   257
176
     1
 90
        1
176
     1
 90
        1
176
     1
 40
1.0
176
     1
 90
        8
176
     1
 62
     7
176
     1
 40
1.0
176
     1
 90
        1
176
     1
 90
        6
176
     1
 90
        2
176
     1
 62
     7
176
     1
 90
        5
176
     1
 90
        0
176
     1
 90
        0
176
     1
290
     0
176
     1
 90
        1
176
     1
 40
50.0
176
     1
 90
        0
176
     1
290
     0
176
     1
290
     1
176
     1
290
     1
176
     1
290
     0
176
     1
290
     0
176
     1
290
     0
176
     1
290
     0
176
     1
290
     0
176
     1
290
     0
176
     1
 90
       50
176
     1
 40
0.0
176
     1
 40
1.0
176
     1
 90
        0
176
     1
 62
    18
420
        0
176
     1
 90
       50
176
     1
 90
        3
176
     1
 62
     5
420
      255
176
     1
290
     0
176
     1
 90
       50
176
     1
 90
       50
176
     1
 90
       50
176
     1
290
     0
176
     1
 90
       50
176
     1
 62
   256
176
     0
 40
1.0
176
     0
 90
        2
176
     1
  1
strokes_ogs.tif
176
     1
290
     0
176
     1
 40
1.0
176
     1
 40
1.0
176
     1
1001
ACAD
1000
AcDbSavedByObjectVersion
1070
     0
  0
VISUALSTYLE
  5
3A
102
{ACAD_REACTORS
330
2A
102
}
330
2A
100
AcDbVisualStyle
  2
ColorChange
 70
    16
177
     3
291
     1
 70
    58
 90
        2
176
     1
 90
        2
176
     1
 90
        3
176
     1
 90
        0
176
     1
 40
0.6
176
     1
 40
30.0
176
     1
 62
     8
420
  8421504
176
     1
 90
        1
176
     1
 90
        4
176
     1
 62
     7
176
     1
 62
   257
176
     1
 90
        1
176
     1
 90
        1
176
     1
 40
1.0
176
     1
 90
        8
176
     1
 62
     8
420
  8421504
176
     1
 40
1.0
176
     1
 90
        1
176
     1
 90
        6
176
     1
 90
        2
176
     1
 62
     7
176
     1
 90
        5
176
     1
 90
        0
176
     1
 90
        0
176
     1
290
     0
176
     1
 90
        1
176
     1
 40
0.0
176
     1
 90
        0
176
     1
290
     0
176
     1
290
     1
176
     1
290
     1
176
     1
290
     0
176
     1
290
     0
176
     1
290
     0
176
     1
290
     0
176
     1
290
     0
176
     1
290
     0
176
     1
 90
       50
176
     1
 40
0.0
176
     1
 40
1.0
176
     1
 90
        0
176
     1
 62
    18
420
        0
176
     1
 90
       50
176
     1
 90
        3
176
     1
 62
     5
420
      255
176
     1
290
     0
176
     1
 90
       50
176
     1
 90
       50
176
     1
 90
       50
176
     1
290
     0
176
     1
 90
       50
176
     1
 62
   256
176
     0
 40
1.0
176
     0
 90
        2
176
     1
  1
strokes_ogs.tif
176
     1
290
     0
176
     1
 40
1.0
176
     1
 40
1.0
176
     1
1001
ACAD
1000
AcDbSavedByObjectVersion
1070
     0
  0
VISUALSTYLE
  5
34
102
{ACAD_REACTORS
330
2A
102
}
330
2A
100
AcDbVisualStyle
  2
Conceptual
 70
     9
177
     3
291
     0
 70
    58
 90
        3
176
     1
 90
        2
176
     1
 90
        0
176
     1
 90
        0
176
     1
 40
0.6
176
     1
 40
30.0
176
     1
 62
     7
420
 16777215
176
     1
 90
        2
176
     1
 90
        2
176
     1
 62
     7
176
     1
 62
   257
176
     1
 90
        1
176
     1
 90
        1
176
     1
 40
40.0
176
     1
 90
        8
176
     1
 62
     7
176
     1
 40
1.0
176
     1
 90
        1
176
     1
 90
        6
176
     1
 90
        2
176
     1
 62
     7
176
     1
 90
        3
176
     1
 90
        0
176
     1
 90
        0
176
     1
290
     0
176
     1
 90
        1
176
     1
 40
0.0
176
     1
 90
        0
176
     1
290
     0
176
     1
290
     1
176
     1
290
     1
176
     1
290
     0
176
     1
290
     0
176
     1
290
     0
176
     1
290
     0
176
     1
290
     0
176
     1
290
     0
176
     1
 90
       50
176
     1
 40
0.0
176
     1
 40
1.0
176
     1
 90
        0
176
     1
 62
    18
420
        0
176
     1
 90
       50
176
     1
 90
        3
176
     1
 62
     5
420
      255
176
     1
290
     0
176
     1
 90
       50
176
     1
 90
       50
176
     1
 90
       50
176
     1
290
     0
176
     1
 90
       50
176
     1
 62
   256
176
     0
 40
1.0
176
     0
 90
        2
176
     1
  1
strokes_ogs.tif
176
     1
290
     0
176
     1
 40
1.0
176
     1
 40
1.0
176
     1
1001
ACAD
1000
AcDbSavedByObjectVersion
1070
     0
  0
VISUALSTYLE
  5
35
102
{ACAD_REACTORS
330
2A
102
}
330
2A
100
AcDbVisualStyle
  2
Dim
 70
    11
177
     3
291
     1
 70
    58
 90
        2
176
     1
 90
        2
176
     1
 90
        0
176
     1
 90
        0
176
     1
 40
0.6
176
     1
 40
30.0
176
     1
 62
     7
420
 16777215
176
     1
 90
        1
176
     1
 90
        4
176
     1
 62
     7
176
     1
 62
   257
176
     1
 90
        1
176
     1
 90
        1
176
     1
 40
1.0
176
     1
 90
        8
176
     1
 62
     7
176
     1
 40
1.0
176
     1
 90
        1
176
     1
 90
        6
176
     1
 90
        2
176
     1
 62
     7
176
     1
 90
        5
176
     1
 90
        0
176
     1
 90
        0
176
     1
290
     0
176
     1
 90
        1
176
     1
 40
-50.0
176
     1
 90
        0
176
     1
290
     0
176
     1
290
     1
176
     1
290
     1
176
     1
290
     0
176
     1
290
     0
176
     1
290
     0
176
     1
290
     0
176
     1
290
     0
176
     1
290
     0
176
     1
 90
       50
176
     1
 40
0.0
176
     1
 40
1.0
176
     1
 90
        0
176
     1
 62
    18
420
        0
176
     1
 90
       50
176
     1
 90
        3
176
     1
 62
     5
420
      255
176
     1
290
     0
176
     1
 90
       50
176
     1
 90
       50
176
     1
 90
       50
176
     1
290
     0
176
     1
 90
       50
176
     1
 62
   256
176
     0
 40
1.0
176
     0
 90
        2
176
     1
  1
strokes_ogs.tif
176
     1
290
     0
176
     1
 40
1.0
176
     1
 40
1.0
176
     1
1001
ACAD
1000
AcDbSavedByObjectVersion
1070
     0
  0
VISUALSTYLE
  5
A9
102
{ACAD_REACTORS
330
2A
102
}
330
2A
100
AcDbVisualStyle
  2
EdgeColorOff
 70
    22
177
     3
291
     1
 70
    58
 90
        2
176
     0
 90
        2
176
     0
 90
        0
176
     0
 90
        0
176
     0
 40
0.6
176
     0
 40
30.0
176
     0
 62
     7
420
 16777215
176
     0
 90
        1
176
     0
 90
        4
176
     0
 62
     7
176
     0
 62
   257
176
     0
 90
        1
176
     0
 90
        1
176
     0
 40
1.0
176
     0
 90
        8
176
     2
 62
     7
176
     0
 40
1.0
176
     0
 90
        1
176
     0
 90
        6
176
     0
 90
        2
176
     0
 62
     7
176
     0
 90
        5
176
     0
 90
        0
176
     0
 90
        0
176
     0
290
     0
176
     0
 90
        1
176
     0
 40
0.0
176
     0
 90
        0
176
     0
290
     0
176
     1
290
     1
176
     1
290
     1
176
     1
290
     0
176
     1
290
     0
176
     1
290
     0
176
     1
290
     0
176
     1
290
     0
176
     1
290
     0
176
     1
 90
       50
176
     0
 40
0.0
176
     0
 40
1.0
176
     0
 90
        0
176
     0
 62
    18
420
        0
176
     0
 90
       50
176
     0
 90
        3
176
     0
 62
     5
420
      255
176
     0
290
     0
176
     1
 90
       50
176
     0
 90
       50
176
     0
 90
       50
176
     0
290
     0
176
     1
 90
       50
176
     0
 62
   256
176
     0
 40
1.0
176
     0
 90
        2
176
     0
  1
strokes_ogs.tif
176
     0
290
     0
176
     1
 40
1.0
176
     0
 40
1.0
176
     0
1001
ACAD
1000
AcDbSavedByObjectVersion
1070
     0
  0
VISUALSTYLE
  5
39
102
{ACAD_REACTORS
330
2A
102
}
330
2A
100
AcDbVisualStyle
  2
Facepattern
 70
    15
177
     3
291
     1
 70
    58
 90
        2
176
     1
 90
        2
176
     1
 90
        0
176
     1
 90
        0
176
     1
 40
0.6
176
     1
 40
30.0
176
     1
 62
     7
420
 16777215
176
     1
 90
        1
176
     1
 90
        4
176
     1
 62
     7
176
     1
 62
   257
176
     1
 90
        1
176
     1
 90
        1
176
     1
 40
1.0
176
     1
 90
        8
176
     1
 62
     7
176
     1
 40
1.0
176
     1
 90
        1
176
     1
 90
        6
176
     1
 90
        2
176
     1
 62
     7
176
     1
 90
        5
176
     1
 90
        0
176
     1
 90
        0
176
     1
290
     0
176
     1
 90
        1
176
     1
 40
0.0
176
     1
 90
        0
176
     1
290
     0
176
     1
290
     1
176
     1
290
     1
176
     1
290
     0
176
     1
290
     0
176
     1
290
     0
176
     1
290
     0
176
     1
290
     0
176
     1
290
     0
176
     1
 90
       50
176
     1
 40
0.0
176
     1
 40
1.0
176
     1
 90
        0
176
     1
 62
    18
420
        0
176
     1
 90
       50
176
     1
 90
        3
176
     1
 62
     5
420
      255
176
     1
290
     0
176
     1
 90
       50
176
     1
 90
       50
176
     1
 90
       50
176
     1
290
     0
176
     1
 90
       50
176
     1
 62
   256
176
     0
 40
1.0
176
     0
 90
        2
176
     1
  1
strokes_ogs.tif
176
     1
290
     0
176
     1
 40
1.0
176
     1
 40
1.0
176
     1
1001
ACAD
1000
AcDbSavedByObjectVersion
1070
     0
  0
VISUALSTYLE
  5
2B
102
{ACAD_REACTORS
330
2A
102
}
330
2A
100
AcDbVisualStyle
  2
Flat
 70
     0
177
     3
291
     1
 70
    58
 90
        2
176
     1
 90
        1
176
     1
 90
        1
176
     1
 90
        2
176
     1
 40
0.6
176
     1
 40
30.0
176
     1
 62
     7
420
 16777215
176
     1
 90
        0
176
     1
 90
        4
176
     1
 62
     7
176
     1
 62
   257
176
     1
 90
        1
176
     1
 90
        1
176
     1
 40
1.0
176
     1
 90
        8
176
     1
 62
     7
176
     1
 40
1.0
176
     1
 90
        1
176
     1
 90
        6
176
     1
 90
        2
176
     1
 62
     7
176
     1
 90
        5
176
     1
 90
        0
176
     1
 90
        0
176
     1
290
     0
176
     1
 90
       13
176
     1
 40
0.0
176
     1
 90
        0
176
     1
290
     0
176
     1
290
     1
176
     1
290
     1
176
     1
290
     0
176
     1
290
     0
176
     1
290
     0
176
     1
290
     0
176
     1
290
     0
176
     1
290
     0
176
     1
 90
       50
176
     1
 40
0.0
176
     1
 40
1.0
176
     1
 90
        0
176
     1
 62
    18
420
        0
176
     1
 90
       50
176
     1
 90
        3
176
     1
 62
     5
420
      255
176
     1
290
     0
176
     1
 90
       50
176
     1
 90
       50
176
     1
 90
       50
176
     1
290
     0
176
     1
 90
       50
176
     1
 62
   256
176
     0
 40
1.0
176
     0
 90
        2
176
     1
  1
strokes_ogs.tif
176
     1
290
     0
176
     1
 40
1.0
176
     1
 40
1.0
176
     1
1001
ACAD
1000
AcDbSavedByObjectVersion
1070
     0
  0
VISUALSTYLE
  5
2C
102
{ACAD_REACTORS
330
2A
102
}
330
2A
100
AcDbVisualStyle
  2
FlatWithEdges
 70
     1
177
     3
291
     1
 70
    58
 90
        2
176
     1
 90
        1
176
     1
 90
        1
176
     1
 90
        2
176
     1
 40
0.6
176
     1
 40
30.0
176
     1
 62
     7
420
 16777215
176
     1
 90
        1
176
     1
 90
        4
176
     1
 62
     7
176
     1
 62
   257
176
     1
 90
        1
176
     1
 90
        1
176
     1
 40
1.0
176
     1
 90
        0
176
     1
 62
   257
176
     1
 40
1.0
176
     1
 90
        1
176
     1
 90
        6
176
     1
 90
        2
176
     1
 62
     7
176
     1
 90
        5
176
     1
 90
        0
176
     1
 90
        0
176
     1
290
     0
176
     1
 90
       13
176
     1
 40
0.0
176
     1
 90
        0
176
     1
290
     0
176
     1
290
     1
176
     1
290
     1
176
     1
290
     0
176
     1
290
     0
176
     1
290
     0
176
     1
290
     0
176
     1
290
     0
176
     1
290
     0
176
     1
 90
       50
176
     1
 40
0.0
176
     1
 40
1.0
176
     1
 90
        0
176
     1
 62
    18
420
        0
176
     1
 90
       50
176
     1
 90
        3
176
     1
 62
     5
420
      255
176
     1
290
     0
176
     1
 90
       50
176
     1
 90
       50
176
     1
 90
       50
176
     1
290
     0
176
     1
 90
       50
176
     1
 62
   256
176
     0
 40
1.0
176
     0
 90
        2
176
     1
  1
strokes_ogs.tif
176
     1
290
     0
176
     1
 40
1.0
176
     1
 40
1.0
176
     1
1001
ACAD
1000
AcDbSavedByObjectVersion
1070
     0
  0
VISUALSTYLE
  5
2D
102
{ACAD_REACTORS
330
2A
102
}
330
2A
100
AcDbVisualStyle
  2
Gouraud
 70
     2
177
     3
291
     1
 70
    58
 90
        2
176
     1
 90
        2
176
     1
 90
        1
176
     1
 90
        2
176
     1
 40
0.6
176
     1
 40
30.0
176
     1
 62
     7
420
 16777215
176
     1
 90
        0
176
     1
 90
        4
176
     1
 62
     7
176
     1
 62
   257
176
     1
 90
        1
176
     1
 90
        1
176
     1
 40
1.0
176
     1
 90
        0
176
     1
 62
     7
176
     1
 40
1.0
176
     1
 90
        1
176
     1
 90
        6
176
     1
 90
        2
176
     1
 62
     7
176
     1
 90
        5
176
     1
 90
        0
176
     1
 90
        0
176
     1
290
     0
176
     1
 90
       13
176
     1
 40
0.0
176
     1
 90
        0
176
     1
290
     0
176
     1
290
     1
176
     1
290
     1
176
     1
290
     0
176
     1
290
     0
176
     1
290
     0
176
     1
290
     0
176
     1
290
     0
176
     1
290
     0
176
     1
 90
       50
176
     1
 40
0.0
176
     1
 40
1.0
176
     1
 90
        0
176
     1
 62
    18
420
        0
176
     1
 90
       50
176
     1
 90
        3
176
     1
 62
     5
420
      255
176
     1
290
     0
176
     1
 90
       50
176
     1
 90
       50
176
     1
 90
       50
176
     1
290
     0
176
     1
 90
       50
176
     1
 62
   256
176
     0
 40
1.0
176
     0
 90
        2
176
     1
  1
strokes_ogs.tif
176
     1
290
     0
176
     1
 40
1.0
176
     1
 40
1.0
176
     1
1001
ACAD
1000
AcDbSavedByObjectVersion
1070
     0
  0
VISUALSTYLE
  5
2E
102
{ACAD_REACTORS
330
2A
102
}
330
2A
100
AcDbVisualStyle
  2
GouraudWithEdges
 70
     3
177
     3
291
     1
 70
    58
 90
        2
176
     1
 90
        2
176
     1
 90
        1
176
     1
 90
        2
176
     1
 40
0.6
176
     1
 40
30.0
176
     1
 62
     7
420
 16777215
176
     1
 90
        1
176
     1
 90
        4
176
     1
 62
     7
176
     1
 62
   257
176
     1
 90
        1
176
     1
 90
        1
176
     1
 40
1.0
176
     1
 90
        0
176
     1
 62
   257
176
     1
 40
1.0
176
     1
 90
        1
176
     1
 90
        6
176
     1
 90
        2
176
     1
 62
     7
176
     1
 90
        5
176
     1
 90
        0
176
     1
 90
        0
176
     1
290
     0
176
     1
 90
       13
176
     1
 40
0.0
176
     1
 90
        0
176
     1
290
     0
176
     1
290
     1
176
     1
290
     1
176
     1
290
     0
176
     1
290
     0
176
     1
290
     0
176
     1
290
     0
176
     1
290
     0
176
     1
290
     0
176
     1
 90
       50
176
     1
 40
0.0
176
     1
 40
1.0
176
     1
 90
        0
176
     1
 62
    18
420
        0
176
     1
 90
       50
176
     1
 90
        3
176
     1
 62
     5
420
      255
176
     1
290
     0
176
     1
 90
       50
176
     1
 90
       50
176
     1
 90
       50
176
     1
290
     0
176
     1
 90
       50
176
     1
 62
   256
176
     0
 40
1.0
176
     0
 90
        2
176
     1
  1
strokes_ogs.tif
176
     1
290
     0
176
     1
 40
1.0
176
     1
 40
1.0
176
     1
1001
ACAD
1000
AcDbSavedByObjectVersion
1070
     0
  0
VISUALSTYLE
  5
A1
102
{ACAD_REACTORS
330
2A
102
}
330
2A
100
AcDbVisualStyle
  2
Hidden
 70
     6
177
     3
291
     0
 70
    58
 90
        1
176
     1
 90
        2
176
     1
 90
        2
176
     1
 90
        0
176
     1
 40
0.6
176
     1
 40
30.0
176
     1
 62
     7
420
 16777215
176
     1
 90
        2
176
     1
 90
        2
176
     1
 62
     7
176
     1
 62
   257
176
     1
 90
        2
176
     1
 90
        1
176
     1
 40
40.0
176
     1
 90
        0
176
     1
 62
   257
176
     1
 40
1.0
176
     1
 90
        1
176
     1
 90
        6
176
     1
 90
        2
176
     1
 62
     7
176
     1
 90
        3
176
     1
 90
        0
176
     1
 90
        0
176
     1
290
     0
176
     1
 90
        1
176
     1
 40
0.0
176
     1
 90
        0
176
     1
290
     0
176
     1
290
     1
176
     1
290
     1
176
     1
290
     0
176
     1
290
     0
176
     1
290
     0
176
     1
290
     0
176
     1
290
     0
176
     1
290
     0
176
     1
 90
       50
176
     1
 40
0.0
176
     1
 40
1.0
176
     1
 90
        0
176
     1
 62
    18
420
        0
176
     1
 90
       50
176
     1
 90
        3
176
     1
 62
     5
420
      255
176
     1
290
     0
176
     1
 90
       50
176
     1
 90
       50
176
     1
 90
       50
176
     1
290
     0
176
     1
 90
       50
176
     1
 62
   256
176
     0
 40
1.0
176
     0
 90
        2
176
     1
  1
strokes_ogs.tif
176
     1
290
     0
176
     1
 40
1.0
176
     1
 40
1.0
176
     1
1001
ACAD
1000
AcDbSavedByObjectVersion
1070
     0
  0
VISUALSTYLE
  5
A7
102
{ACAD_REACTORS
330
2A
102
}
330
2A
100
AcDbVisualStyle
  2
JitterOff
 70
    20
177
     3
291
     1
 70
    58
 90
        2
176
     0
 90
        2
176
     0
 90
        0
176
     0
 90
        0
176
     0
 40
0.6
176
     0
 40
30.0
176
     0
 62
     7
420
 16777215
176
     0
 90
        1
176
     0
 90
        4
176
     0
 62
     7
176
     0
 62
   257
176
     0
 90
        1
176
     0
 90
        1
176
     0
 40
1.0
176
     0
 90
       10
176
     2
 62
     7
176
     0
 40
1.0
176
     0
 90
        1
176
     0
 90
        6
176
     0
 90
        2
176
     0
 62
     7
176
     0
 90
        5
176
     0
 90
        0
176
     0
 90
        0
176
     0
290
     0
176
     0
 90
        1
176
     0
 40
0.0
176
     0
 90
        0
176
     0
290
     0
176
     1
290
     1
176
     1
290
     1
176
     1
290
     0
176
     1
290
     0
176
     1
290
     0
176
     1
290
     0
176
     1
290
     0
176
     1
290
     0
176
     1
 90
       50
176
     0
 40
0.0
176
     0
 40
1.0
176
     0
 90
        0
176
     0
 62
    18
420
        0
176
     0
 90
       50
176
     0
 90
        3
176
     0
 62
     5
420
      255
176
     0
290
     0
176
     1
 90
       50
176
     0
 90
       50
176
     0
 90
       50
176
     0
290
     0
176
     1
 90
       50
176
     0
 62
   256
176
     0
 40
1.0
176
     0
 90
        2
176
     0
  1
strokes_ogs.tif
176
     0
290
     0
176
     1
 40
1.0
176
     0
 40
1.0
176
     0
1001
ACAD
1000
AcDbSavedByObjectVersion
1070
     0
  0
VISUALSTYLE
  5
38
102
{ACAD_REACTORS
330
2A
102
}
330
2A
100
AcDbVisualStyle
  2
Linepattern
 70
    14
177
     3
291
     1
 70
    58
 90
        2
176
     1
 90
        2
176
     1
 90
        0
176
     1
 90
        0
176
     1
 40
0.6
176
     1
 40
30.0
176
     1
 62
     7
420
 16777215
176
     1
 90
        1
176
     1
 90
        4
176
     1
 62
     7
176
     1
 62
   257
176
     1
 90
        7
176
     1
 90
        7
176
     1
 40
1.0
176
     1
 90
        8
176
     1
 62
     7
176
     1
 40
1.0
176
     1
 90
        1
176
     1
 90
        6
176
     1
 90
        2
176
     1
 62
     7
176
     1
 90
        5
176
     1
 90
        0
176
     1
 90
        0
176
     1
290
     0
176
     1
 90
        1
176
     1
 40
0.0
176
     1
 90
        0
176
     1
290
     0
176
     1
290
     1
176
     1
290
     1
176
     1
290
     0
176
     1
290
     0
176
     1
290
     0
176
     1
290
     0
176
     1
290
     0
176
     1
290
     0
176
     1
 90
       50
176
     1
 40
0.0
176
     1
 40
1.0
176
     1
 90
        0
176
     1
 62
    18
420
        0
176
     1
 90
       50
176
     1
 90
        3
176
     1
 62
     5
420
      255
176
     1
290
     0
176
     1
 90
       50
176
     1
 90
       50
176
     1
 90
       50
176
     1
290
     0
176
     1
 90
       50
176
     1
 62
   256
176
     0
 40
1.0
176
     0
 90
        2
176
     1
  1
strokes_ogs.tif
176
     1
290
     0
176
     1
 40
1.0
176
     1
 40
1.0
176
     1
1001
ACAD
1000
AcDbSavedByObjectVersion
1070
     0
  0
VISUALSTYLE
  5
A8
102
{ACAD_REACTORS
330
2A
102
}
330
2A
100
AcDbVisualStyle
  2
OverhangOff
 70
    21
177
     3
291
     1
 70
    58
 90
        2
176
     0
 90
        2
176
     0
 90
        0
176
     0
 90
        0
176
     0
 40
0.6
176
     0
 40
30.0
176
     0
 62
     7
420
 16777215
176
     0
 90
        1
176
     0
 90
        4
176
     0
 62
     7
176
     0
 62
   257
176
     0
 90
        1
176
     0
 90
        1
176
     0
 40
1.0
176
     0
 90
        9
176
     2
 62
     7
176
     0
 40
1.0
176
     0
 90
        1
176
     0
 90
        6
176
     0
 90
        2
176
     0
 62
     7
176
     0
 90
        5
176
     0
 90
        0
176
     0
 90
        0
176
     0
290
     0
176
     0
 90
        1
176
     0
 40
0.0
176
     0
 90
        0
176
     0
290
     0
176
     1
290
     1
176
     1
290
     1
176
     1
290
     0
176
     1
290
     0
176
     1
290
     0
176
     1
290
     0
176
     1
290
     0
176
     1
290
     0
176
     1
 90
       50
176
     0
 40
0.0
176
     0
 40
1.0
176
     0
 90
        0
176
     0
 62
    18
420
        0
176
     0
 90
       50
176
     0
 90
        3
176
     0
 62
     5
420
      255
176
     0
290
     0
176
     1
 90
       50
176
     0
 90
       50
176
     0
 90
       50
176
     0
290
     0
176
     1
 90
       50
176
     0
 62
   256
176
     0
 40
1.0
176
     0
 90
        2
176
     0
  1
strokes_ogs.tif
176
     0
290
     0
176
     1
 40
1.0
176
     0
 40
1.0
176
     0
1001
ACAD
1000
AcDbSavedByObjectVersion
1070
     0
  0
VISUALSTYLE
  5
33
102
{ACAD_REACTORS
330
2A
102
}
330
2A
100
AcDbVisualStyle
  2
Realistic
 70
     8
177
     3
291
     0
 70
    58
 90
        2
176
     1
 90
        2
176
     1
 90
        0
176
     1
 90
        0
176
     1
 40
0.6
176
     1
 40
30.0
176
     1
 62
     7
420
 16777215
176
     1
 90
        1
176
     1
 90
        0
176
     1
 62
     7
176
     1
 62
   257
176
     1
 90
        1
176
     1
 90
        1
176
     1
 40
1.0
176
     1
 90
        8
176
     1
 62
     8
420
  7895160
176
     1
 40
1.0
176
     1
 90
        1
176
     1
 90
        6
176
     1
 90
        2
176
     1
 62
     7
176
     1
 90
        5
176
     1
 90
        0
176
     1
 90
        0
176
     1
290
     0
176
     1
 90
       13
176
     1
 40
0.0
176
     1
 90
        0
176
     1
290
     0
176
     1
290
     1
176
     1
290
     1
176
     1
290
     0
176
     1
290
     0
176
     1
290
     0
176
     1
290
     0
176
     1
290
     0
176
     1
290
     0
176
     1
 90
       50
176
     1
 40
0.0
176
     1
 40
1.0
176
     1
 90
        0
176
     1
 62
    18
420
        0
176
     1
 90
       50
176
     1
 90
        3
176
     1
 62
     5
420
      255
176
     1
290
     0
176
     1
 90
       50
176
     1
 90
       50
176
     1
 90
       50
176
     1
290
     0
176
     1
 90
       50
176
     1
 62
   256
176
     0
 40
1.0
176
     0
 90
        2
176
     1
  1
strokes_ogs.tif
176
     1
290
     0
176
     1
 40
1.0
176
     1
 40
1.0
176
     1
1001
ACAD
1000
AcDbSavedByObjectVersion
1070
     0
  0
VISUALSTYLE
  5
A6
102
{ACAD_REACTORS
330
2A
102
}
330
2A
100
AcDbVisualStyle
  2
Shaded
 70
    27
177
     3
291
     0
 70
    58
 90
        2
176
     1
 90
        2
176
     1
 90
        1
176
     1
 90
        2
176
     1
 40
0.6
176
     1
 40
30.0
176
     1
 62
     7
420
 16777215
176
     1
 90
        0
176
     1
 90
        4
176
     1
 62
     7
176
     1
 62
   257
176
     1
 90
        1
176
     1
 90
        1
176
     1
 40
1.0
176
     1
 90
        8
176
     1
 62
   257
176
     1
 40
1.0
176
     1
 90
        1
176
     1
 90
        6
176
     1
 90
        2
176
     1
 62
     8
420
  7895160
176
     1
 90
        3
176
     1
 90
        0
176
     1
 90
        0
176
     1
290
     0
176
     1
 90
        5
176
     1
 40
0.0
176
     1
 90
        0
176
     1
290
     0
176
     1
290
     1
176
     1
290
     1
176
     1
290
     0
176
     1
290
     0
176
     1
290
     0
176
     1
290
     0
176
     1
290
     0
176
     1
290
     0
176
     1
 90
       50
176
     1
 40
0.0
176
     1
 40
1.0
176
     1
 90
        0
176
     1
 62
    18
420
        0
176
     1
 90
       50
176
     1
 90
        3
176
     1
 62
     5
420
      255
176
     1
290
     0
176
     1
 90
       50
176
     1
 90
       50
176
     1
 90
       50
176
     1
290
     0
176
     1
 90
       50
176
     1
 62
   256
176
     0
 40
1.0
176
     0
 90
        2
176
     1
  1
strokes_ogs.tif
176
     1
290
     0
176
     1
 40
1.0
176
     1
 40
1.0
176
     1
1001
ACAD
1000
AcDbSavedByObjectVersion
1070
     0
  0
VISUALSTYLE
  5
A5
102
{ACAD_REACTORS
330
2A
102
}
330
2A
100
AcDbVisualStyle
  2
Shaded with edges
 70
    26
177
     3
291
     0
 70
    58
 90
        2
176
     1
 90
        2
176
     1
 90
        1
176
     1
 90
        2
176
     1
 40
0.6
176
     1
 40
30.0
176
     1
 62
     7
420
 16777215
176
     1
 90
        1
176
     1
 90
        2
176
     1
 62
     7
176
     1
 62
   257
176
     1
 90
        2
176
     1
 90
        1
176
     1
 40
1.0
176
     1
 90
        8
176
     1
 62
   257
176
     1
 40
1.0
176
     1
 90
        1
176
     1
 90
        6
176
     1
 90
        2
176
     1
 62
     7
176
     1
 90
        3
176
     1
 90
        0
176
     1
 90
        0
176
     1
290
     0
176
     1
 90
        5
176
     1
 40
0.0
176
     1
 90
        0
176
     1
290
     0
176
     1
290
     1
176
     1
290
     1
176
     1
290
     0
176
     1
290
     0
176
     1
290
     0
176
     1
290
     0
176
     1
290
     0
176
     1
290
     0
176
     1
 90
       50
176
     1
 40
0.0
176
     1
 40
1.0
176
     1
 90
        0
176
     1
 62
    18
420
        0
176
     1
 90
       50
176
     1
 90
        3
176
     1
 62
     5
420
      255
176
     1
290
     0
176
     1
 90
       50
176
     1
 90
       50
176
     1
 90
       50
176
     1
290
     0
176
     1
 90
       50
176
     1
 62
   256
176
     0
 40
1.0
176
     0
 90
        2
176
     1
  1
strokes_ogs.tif
176
     1
290
     0
176
     1
 40
1.0
176
     1
 40
1.0
176
     1
1001
ACAD
1000
AcDbSavedByObjectVersion
1070
     0
  0
VISUALSTYLE
  5
A2
102
{ACAD_REACTORS
330
2A
102
}
330
2A
100
AcDbVisualStyle
  2
Shades of Gray
 70
    23
177
     3
291
     0
 70
    58
 90
        2
176
     1
 90
        2
176
     1
 90
        3
176
     1
 90
        0
176
     1
 40
0.6
176
     1
 40
30.0
176
     1
 62
     7
420
 16777215
176
     1
 90
        2
176
     1
 90
        2
176
     1
 62
     7
176
     1
 62
     7
176
     1
 90
        1
176
     1
 90
        1
176
     1
 40
40.0
176
     1
 90
        8
176
     1
 62
     7
176
     1
 40
1.0
176
     1
 90
        1
176
     1
 90
        6
176
     1
 90
        2
176
     1
 62
     7
176
     1
 90
        3
176
     1
 90
        0
176
     1
 90
        0
176
     1
290
     0
176
     1
 90
        1
176
     1
 40
0.0
176
     1
 90
        0
176
     1
290
     0
176
     1
290
     1
176
     1
290
     1
176
     1
290
     0
176
     1
290
     0
176
     1
290
     0
176
     1
290
     0
176
     1
290
     0
176
     1
290
     0
176
     1
 90
       50
176
     1
 40
0.0
176
     1
 40
1.0
176
     1
 90
        0
176
     1
 62
    18
420
        0
176
     1
 90
       50
176
     1
 90
        3
176
     1
 62
     5
420
      255
176
     1
290
     0
176
     1
 90
       50
176
     1
 90
       50
176
     1
 90
       50
176
     1
290
     0
176
     1
 90
       50
176
     1
 62
   256
176
     0
 40
1.0
176
     0
 90
        2
176
     1
  1
strokes_ogs.tif
176
     1
290
     0
176
     1
 40
1.0
176
     1
 40
1.0
176
     1
1001
ACAD
1000
AcDbSavedByObjectVersion
1070
     0
  0
VISUALSTYLE
  5
A3
102
{ACAD_REACTORS
330
2A
102
}
330
2A
100
AcDbVisualStyle
  2
Sketchy
 70
    24
177
     3
291
     0
 70
    58
 90
        1
176
     1
 90
        2
176
     1
 90
        2
176
     1
 90
        0
176
     1
 40
0.6
176
     1
 40
30.0
176
     1
 62
     7
420
 16777215
176
     1
 90
        2
176
     1
 90
        2
176
     1
 62
     7
176
     1
 62
     7
176
     1
 90
        1
176
     1
 90
        1
176
     1
 40
40.0
176
     1
 90
       11
176
     1
 62
     7
176
     1
 40
1.0
176
     1
 90
        1
176
     1
 90
        6
176
     1
 90
        2
176
     1
 62
     7
176
     1
 90
        6
176
     1
 90
        0
176
     1
 90
        0
176
     1
290
     0
176
     1
 90
        1
176
     1
 40
0.0
176
     1
 90
        0
176
     1
290
     0
176
     1
290
     1
176
     1
290
     1
176
     1
290
     0
176
     1
290
     0
176
     1
290
     0
176
     1
290
     0
176
     1
290
     0
176
     1
290
     0
176
     1
 90
       50
176
     1
 40
0.0
176
     1
 40
1.0
176
     1
 90
        0
176
     1
 62
    18
420
        0
176
     1
 90
       50
176
     1
 90
        3
176
     1
 62
     5
420
      255
176
     1
290
     0
176
     1
 90
       50
176
     1
 90
       50
176
     1
 90
       50
176
     1
290
     0
176
     1
 90
       50
176
     1
 62
   256
176
     0
 40
1.0
176
     0
 90
        2
176
     1
  1
strokes_ogs.tif
176
     1
290
     0
176
     1
 40
1.0
176
     1
 40
1.0
176
     1
1001
ACAD
1000
AcDbSavedByObjectVersion
1070
     0
  0
VISUALSTYLE
  5
37
102
{ACAD_REACTORS
330
2A
102
}
330
2A
100
AcDbVisualStyle
  2
Thicken
 70
    13
177
     3
291
     1
 70
    58
 90
        2
176
     1
 90
        2
176
     1
 90
        0
176
     1
 90
        0
176
     1
 40
0.6
176
     1
 40
30.0
176
     1
 62
     7
420
 16777215
176
     1
 90
        1
176
     1
 90
        4
176
     1
 62
     7
176
     1
 62
   257
176
     1
 90
        1
176
     1
 90
        1
176
     1
 40
1.0
176
     1
 90
       12
176
     1
 62
     7
176
     1
 40
1.0
176
     1
 90
        1
176
     1
 90
        6
176
     1
 90
        2
176
     1
 62
     7
176
     1
 90
        5
176
     1
 90
        0
176
     1
 90
        0
176
     1
290
     0
176
     1
 90
        1
176
     1
 40
0.0
176
     1
 90
        0
176
     1
290
     0
176
     1
290
     1
176
     1
290
     1
176
     1
290
     0
176
     1
290
     0
176
     1
290
     0
176
     1
290
     0
176
     1
290
     0
176
     1
290
     0
176
     1
 90
       50
176
     1
 40
0.0
176
     1
 40
1.0
176
     1
 90
        0
176
     1
 62
    18
420
        0
176
     1
 90
       50
176
     1
 90
        3
176
     1
 62
     5
420
      255
176
     1
290
     0
176
     1
 90
       50
176
     1
 90
       50
176
     1
 90
       50
176
     1
290
     0
176
     1
 90
       50
176
     1
 62
   256
176
     0
 40
1.0
176
     0
 90
        2
176
     1
  1
strokes_ogs.tif
176
     1
290
     0
176
     1
 40
1.0
176
     1
 40
1.0
176
     1
1001
ACAD
1000
AcDbSavedByObjectVersion
1070
     0
  0
VISUALSTYLE
  5
A0
102
{ACAD_REACTORS
330
2A
102
}
330
2A
100
AcDbVisualStyle
  2
Wireframe
 70
     5
177
     3
291
     0
 70
    58
 90
        0
176
     1
 90
        2
176
     1
 90
        0
176
     1
 90
        0
176
     1
 40
0.6
176
     1
 40
30.0
176
     1
 62
     7
420
 16777215
176
     1
 90
        1
176
     1
 90
        4
176
     1
 62
     7
176
     1
 62
   257
176
     1
 90
        1
176
     1
 90
        1
176
     1
 40
1.0
176
     1
 90
        0
176
     1
 62
   257
176
     1
 40
1.0
176
     1
 90
        1
176
     1
 90
        6
176
     1
 90
        2
176
     1
 62
     7
176
     1
 90
        3
176
     1
 90
        0
176
     1
 90
        0
176
     1
290
     0
176
     1
 90
        1
176
     1
 40
0.0
176
     1
 90
        0
176
     1
290
     0
176
     1
290
     1
176
     1
290
     1
176
     1
290
     0
176
     1
290
     0
176
     1
290
     0
176
     1
290
     0
176
     1
290
     0
176
     1
290
     0
176
     1
 90
       50
176
     1
 40
0.0
176
     1
 40
1.0
176
     1
 90
        0
176
     1
 62
    18
420
        0
176
     1
 90
       50
176
     1
 90
        3
176
     1
 62
     5
420
      255
176
     1
290
     0
176
     1
 90
       50
176
     1
 90
       50
176
     1
 90
       50
176
     1
290
     0
176
     1
 90
       50
176
     1
 62
   256
176
     0
 40
1.0
176
     0
 90
        2
176
     1
  1
strokes_ogs.tif
176
     1
290
     0
176
     1
 40
1.0
176
     1
 40
1.0
176
     1
1001
ACAD
1000
AcDbSavedByObjectVersion
1070
     0
  0
VISUALSTYLE
  5
A4
102
{ACAD_REACTORS
330
2A
102
}
330
2A
100
AcDbVisualStyle
  2
X-Ray
 70
    25
177
     3
291
     0
 70
    58
 90
        2
176
     1
 90
        2
176
     1
 90
        1
176
     1
 90
        1
176
     1
 40
0.5
176
     1
 40
30.0
176
     1
 62
     7
420
 16777215
176
     1
 90
        1
176
     1
 90
        0
176
     1
 62
     7
176
     1
 62
   257
176
     1
 90
        1
176
     1
 90
        1
176
     1
 40
1.0
176
     1
 90
        8
176
     1
 62
     7
176
     1
 40
1.0
176
     1
 90
        1
176
     1
 90
        6
176
     1
 90
        2
176
     1
 62
     7
176
     1
 90
        3
176
     1
 90
        0
176
     1
 90
        0
176
     1
290
     0
176
     1
 90
       13
176
     1
 40
0.0
176
     1
 90
        0
176
     1
290
     0
176
     1
290
     1
176
     1
290
     1
176
     1
290
     0
176
     1
290
     0
176
     1
290
     0
176
     1
290
     0
176
     1
290
     0
176
     1
290
     0
176
     1
 90
       50
176
     1
 40
0.0
176
     1
 40
1.0
176
     1
 90
        0
176
     1
 62
    18
420
        0
176
     1
 90
       50
176
     1
 90
        3
176
     1
 62
     5
420
      255
176
     1
290
     0
176
     1
 90
       50
176
     1
 90
       50
176
     1
 90
       50
176
     1
290
     0
176
     1
 90
       50
176
     1
 62
   256
176
     0
 40
1.0
176
     0
 90
        2
176
     1
  1
strokes_ogs.tif
176
     1
290
     0
176
     1
 40
1.0
176
     1
 40
1.0
176
     1
1001
ACAD
1000
AcDbSavedByObjectVersion
1070
     0
  0
DICTIONARYVAR
  5
107
102
{ACAD_REACTORS
330
102
102
}
330
102
100
DictionaryVariables
280
     0
  1
1:1
  0
DICTIONARYVAR
  5
104
102
{ACAD_REACTORS
330
102
102
}
330
102
100
DictionaryVariables
280
     0
  1
STANDARD
  0
DICTIONARYVAR
  5
103
102
{ACAD_REACTORS
330
102
102
}
330
102
100
DictionaryVariables
280
     0
  1
STANDARD
  0
DICTIONARYVAR
  5
105
102
{ACAD_REACTORS
330
102
102
}
330
102
100
DictionaryVariables
280
     0
  1
Imperial24
  0
DICTIONARYVAR
  5
106
102
{ACAD_REACTORS
330
102
102
}
330
102
100
DictionaryVariables
280
     0
  1
Imperial24
  0
DICTIONARY
  5
12A
330
C6
100
AcDbDictionary
280
     1
281
     1
  3
ACAD_XREC_ROUNDTRIP
360
12B
  0
DICTIONARY
  5
128
330
C4
100
AcDbDictionary
280
     1
281
     1
  3
ACAD_XREC_ROUNDTRIP
360
129
  0
DICTIONARY
  5
125
330
AB
100
AcDbDictionary
280
     1
281
     1
  3
ACAD_ROUNDTRIP_2008_TABLESTYLE_CELLSTYLEMAP
360
126
  0
XRECORD
  5
12B
102
{ACAD_REACTORS
330
12A
102
}
330
12A
100
AcDbXrecord
280
     1
102
DISPLAYNAME
  1
Imperial24
102
FLAGS
 90
        0
  0
XRECORD
  5
129
102
{ACAD_REACTORS
330
128
102
}
330
128
100
AcDbXrecord
280
     1
102
DISPLAYNAME
  1
Imperial24
102
FLAGS
 90
        0
  0
CELLSTYLEMAP
  5
126
102
{ACAD_REACTORS
330
125
102
}
330
125
100
AcDbCellStyleMap
 90
        3
300
CELLSTYLE
  1
TABLEFORMAT_BEGIN
 90
        5
170
     1
 91
        0
 92
    32768
 62
   257
 93
        1
300
CONTENTFORMAT
  1
CONTENTFORMAT_BEGIN
 90
        0
 91
        0
 92
      512
 93
        0
300

 40
0.0
140
1.0
 94
        5
 62
     0
340
11
144
0.25
309
CONTENTFORMAT_END
171
     0
 94
        0
309
TABLEFORMAT_END
  1
CELLSTYLE_BEGIN
 90
        1
 91
        1
300
_TITLE
309
CELLSTYLE_END
300
CELLSTYLE
  1
TABLEFORMAT_BEGIN
 90
        5
170
     1
 91
        0
 92
        0
 62
   257
 93
        1
300
CONTENTFORMAT
  1
CONTENTFORMAT_BEGIN
 90
        0
 91
        0
 92
      512
 93
        0
300

 40
0.0
140
1.0
 94
        5
 62
     0
340
11
144
0.18
309
CONTENTFORMAT_END
171
     0
 94
        0
309
TABLEFORMAT_END
  1
CELLSTYLE_BEGIN
 90
        2
 91
        1
300
_HEADER
309
CELLSTYLE_END
300
CELLSTYLE
  1
TABLEFORMAT_BEGIN
 90
        5
170
     1
 91
        0
 92
        0
 62
   257
 93
        1
300
CONTENTFORMAT
  1
CONTENTFORMAT_BEGIN
 90
        0
 91
        0
 92
      512
 93
        0
300

 40
0.0
140
1.0
 94
        2
 62
     0
340
11
144
0.18
309
CONTENTFORMAT_END
171
     0
 94
        0
309
TABLEFORMAT_END
  1
CELLSTYLE_BEGIN
 90
        3
 91
        2
300
_DATA
309
CELLSTYLE_END
  0
ENDSEC
  0
EOF
