  0
SECTION
  2
HEADER
  9
$ACADVER
  1
AC1027
  9
$ACADMAINTVER
 70
   125
  9
$DWGCODEPAGE
  3
ANSI_1252
  9
$LASTSAVEDBY
  1
ufficio.tecnico
  9
$REQUIREDVERSIONS
160
                 0
  9
$INSBASE
 10
0.0
 20
0.0
 30
0.0
  9
$EXTMIN
 10
12.86608355384507
 20
-19.16658202645835
 30
0.0
  9
$EXTMAX
 10
18.16109645813334
 20
-2.184350610565021
 30
0.0
  9
$LIMMIN
 10
0.0
 20
0.0
  9
$LIMMAX
 10
12.0
 20
9.0
  9
$ORTHOMODE
 70
     0
  9
$REGENMODE
 70
     1
  9
$FILLMODE
 70
     1
  9
$QTEXTMODE
 70
     0
  9
$MIRRTEXT
 70
     1
  9
$LTSCALE
 40
1.0
  9
$ATTMODE
 70
     1
  9
$TEXTSIZE
 40
0.2
  9
$TRACEWID
 40
0.05
  9
$TEXTSTYLE
  7
Standard
  9
$CLAYER
  8
0
  9
$CELTYPE
  6
ByLayer
  9
$CECOLOR
 62
   256
  9
$CELTSCALE
 40
1.0
  9
$DISPSILH
 70
     0
  9
$DIMSCALE
 40
1.0
  9
$DIMASZ
 40
0.18
  9
$DIMEXO
 40
0.0625
  9
$DIMDLI
 40
0.38
  9
$DIMRND
 40
0.0
  9
$DIMDLE
 40
0.0
  9
$DIMEXE
 40
0.18
  9
$DIMTP
 40
0.0
  9
$DIMTM
 40
0.0
  9
$DIMTXT
 40
0.18
  9
$DIMCEN
 40
0.09
  9
$DIMTSZ
 40
0.0
  9
$DIMTOL
 70
     0
  9
$DIMLIM
 70
     0
  9
$DIMTIH
 70
     1
  9
$DIMTOH
 70
     1
  9
$DIMSE1
 70
     0
  9
$DIMSE2
 70
     0
  9
$DIMTAD
 70
     0
  9
$DIMZIN
 70
     0
  9
$DIMBLK
  1

  9
$DIMASO
 70
     1
  9
$DIMSHO
 70
     1
  9
$DIMPOST
  1

  9
$DIMAPOST
  1

  9
$DIMALT
 70
     0
  9
$DIMALTD
 70
     2
  9
$DIMALTF
 40
25.4
  9
$DIMLFAC
 40
1.0
  9
$DIMTOFL
 70
     0
  9
$DIMTVP
 40
0.0
  9
$DIMTIX
 70
     0
  9
$DIMSOXD
 70
     0
  9
$DIMSAH
 70
     0
  9
$DIMBLK1
  1

  9
$DIMBLK2
  1

  9
$DIMSTYLE
  2
Standard
  9
$DIMCLRD
 70
     0
  9
$DIMCLRE
 70
     0
  9
$DIMCLRT
 70
     0
  9
$DIMTFAC
 40
1.0
  9
$DIMGAP
 40
0.09
  9
$DIMJUST
 70
     0
  9
$DIMSD1
 70
     0
  9
$DIMSD2
 70
     0
  9
$DIMTOLJ
 70
     1
  9
$DIMTZIN
 70
     0
  9
$DIMALTZ
 70
     0
  9
$DIMALTTZ
 70
     0
  9
$DIMUPT
 70
     0
  9
$DIMDEC
 70
     4
  9
$DIMTDEC
 70
     4
  9
$DIMALTU
 70
     2
  9
$DIMALTTD
 70
     2
  9
$DIMTXSTY
  7
Standard
  9
$DIMAUNIT
 70
     0
  9
$DIMADEC
 70
     0
  9
$DIMALTRND
 40
0.0
  9
$DIMAZIN
 70
     0
  9
$DIMDSEP
 70
    46
  9
$DIMATFIT
 70
     3
  9
$DIMFRAC
 70
     0
  9
$DIMLDRBLK
  1

  9
$DIMLUNIT
 70
     2
  9
$DIMLWD
 70
    -2
  9
$DIMLWE
 70
    -2
  9
$DIMTMOVE
 70
     0
  9
$DIMFXL
 40
1.0
  9
$DIMFXLON
 70
     0
  9
$DIMJOGANG
 40
0.7853981633974483
  9
$DIMTFILL
 70
     0
  9
$DIMTFILLCLR
 70
     0
  9
$DIMARCSYM
 70
     0
  9
$DIMLTYPE
  6

  9
$DIMLTEX1
  6

  9
$DIMLTEX2
  6

  9
$DIMTXTDIRECTION
 70
     0
  9
$LUNITS
 70
     2
  9
$LUPREC
 70
     4
  9
$SKETCHINC
 40
0.1
  9
$FILLETRAD
 40
0.5
  9
$AUNITS
 70
     0
  9
$AUPREC
 70
     0
  9
$MENU
  1
.
  9
$ELEVATION
 40
0.0
  9
$PELEVATION
 40
0.0
  9
$THICKNESS
 40
0.0
  9
$LIMCHECK
 70
     0
  9
$CHAMFERA
 40
0.5
  9
$CHAMFERB
 40
0.5
  9
$CHAMFERC
 40
1.0
  9
$CHAMFERD
 40
0.0
  9
$SKPOLY
 70
     0
  9
$TDCREATE
 40
2459325.716620370
  9
$TDUCREATE
 40
2459325.633290949
  9
$TDUPDATE
 40
2459341.406886574
  9
$TDUUPDATE
 40
2459341.323553241
  9
$TDINDWG
 40
0.0022338079
  9
$TDUSRTIMER
 40
0.0022338079
  9
$USRTIMER
 70
     1
  9
$ANGBASE
 50
0.0
  9
$ANGDIR
 70
     0
  9
$PDMODE
 70
     0
  9
$PDSIZE
 40
0.0
  9
$PLINEWID
 40
0.0
  9
$SPLFRAME
 70
     0
  9
$SPLINETYPE
 70
     6
  9
$SPLINESEGS
 70
     8
  9
$HANDSEED
  5
1B8
  9
$SURFTAB1
 70
     6
  9
$SURFTAB2
 70
     6
  9
$SURFTYPE
 70
     6
  9
$SURFU
 70
     6
  9
$SURFV
 70
     6
  9
$UCSBASE
  2

  9
$UCSNAME
  2

  9
$UCSORG
 10
0.0
 20
0.0
 30
0.0
  9
$UCSXDIR
 10
1.0
 20
0.0
 30
0.0
  9
$UCSYDIR
 10
0.0
 20
1.0
 30
0.0
  9
$UCSORTHOREF
  2

  9
$UCSORTHOVIEW
 70
     0
  9
$UCSORGTOP
 10
0.0
 20
0.0
 30
0.0
  9
$UCSORGBOTTOM
 10
0.0
 20
0.0
 30
0.0
  9
$UCSORGLEFT
 10
0.0
 20
0.0
 30
0.0
  9
$UCSORGRIGHT
 10
0.0
 20
0.0
 30
0.0
  9
$UCSORGFRONT
 10
0.0
 20
0.0
 30
0.0
  9
$UCSORGBACK
 10
0.0
 20
0.0
 30
0.0
  9
$PUCSBASE
  2

  9
$PUCSNAME
  2

  9
$PUCSORG
 10
0.0
 20
0.0
 30
0.0
  9
$PUCSXDIR
 10
1.0
 20
0.0
 30
0.0
  9
$PUCSYDIR
 10
0.0
 20
1.0
 30
0.0
  9
$PUCSORTHOREF
  2

  9
$PUCSORTHOVIEW
 70
     0
  9
$PUCSORGTOP
 10
0.0
 20
0.0
 30
0.0
  9
$PUCSORGBOTTOM
 10
0.0
 20
0.0
 30
0.0
  9
$PUCSORGLEFT
 10
0.0
 20
0.0
 30
0.0
  9
$PUCSORGRIGHT
 10
0.0
 20
0.0
 30
0.0
  9
$PUCSORGFRONT
 10
0.0
 20
0.0
 30
0.0
  9
$PUCSORGBACK
 10
0.0
 20
0.0
 30
0.0
  9
$USERI1
 70
     0
  9
$USERI2
 70
     0
  9
$USERI3
 70
     0
  9
$USERI4
 70
     0
  9
$USERI5
 70
     0
  9
$USERR1
 40
0.0
  9
$USERR2
 40
0.0
  9
$USERR3
 40
0.0
  9
$USERR4
 40
0.0
  9
$USERR5
 40
0.0
  9
$WORLDVIEW
 70
     1
  9
$SHADEDGE
 70
     3
  9
$SHADEDIF
 70
    70
  9
$TILEMODE
 70
     1
  9
$MAXACTVP
 70
    64
  9
$PINSBASE
 10
0.0
 20
0.0
 30
0.0
  9
$PLIMCHECK
 70
     0
  9
$PEXTMIN
 10
1.000000000000000E+20
 20
1.000000000000000E+20
 30
1.000000000000000E+20
  9
$PEXTMAX
 10
-1.000000000000000E+20
 20
-1.000000000000000E+20
 30
-1.000000000000000E+20
  9
$PLIMMIN
 10
0.0
 20
0.0
  9
$PLIMMAX
 10
12.0
 20
9.0
  9
$UNITMODE
 70
     0
  9
$VISRETAIN
 70
     1
  9
$PLINEGEN
 70
     0
  9
$PSLTSCALE
 70
     1
  9
$TREEDEPTH
 70
  3020
  9
$CMLSTYLE
  2
Standard
  9
$CMLJUST
 70
     0
  9
$CMLSCALE
 40
1.0
  9
$PROXYGRAPHICS
 70
     1
  9
$MEASUREMENT
 70
     0
  9
$CELWEIGHT
370
    -1
  9
$ENDCAPS
280
     0
  9
$JOINSTYLE
280
     0
  9
$LWDISPLAY
290
     1
  9
$INSUNITS
 70
     5
  9
$HYPERLINKBASE
  1

  9
$STYLESHEET
  1

  9
$XEDIT
290
     1
  9
$CEPSNTYPE
380
     0
  9
$PSTYLEMODE
290
     1
  9
$FINGERPRINTGUID
  2
{7EDEAAE6-96DE-46BA-B804-EA00CD698EEE}
  9
$VERSIONGUID
  2
{4EB87C8C-26E3-824F-BDFC-5CF408F9231E}
  9
$EXTNAMES
290
     1
  9
$PSVPSCALE
 40
0.0
  9
$OLESTARTUP
290
     0
  9
$SORTENTS
280
   127
  9
$INDEXCTL
280
     0
  9
$HIDETEXT
280
     1
  9
$XCLIPFRAME
280
     2
  9
$HALOGAP
280
     0
  9
$OBSCOLOR
 70
   257
  9
$OBSLTYPE
280
     0
  9
$INTERSECTIONDISPLAY
280
     0
  9
$INTERSECTIONCOLOR
 70
   257
  9
$DIMASSOC
280
     2
  9
$PROJECTNAME
  1

  9
$CAMERADISPLAY
290
     0
  9
$LENSLENGTH
 40
50.0
  9
$CAMERAHEIGHT
 40
0.0
  9
$STEPSPERSEC
 40
2.0
  9
$STEPSIZE
 40
6.0
  9
$3DDWFPREC
 40
2.0
  9
$PSOLWIDTH
 40
0.25
  9
$PSOLHEIGHT
 40
4.0
  9
$LOFTANG1
 40
1.570796326794897
  9
$LOFTANG2
 40
1.570796326794897
  9
$LOFTMAG1
 40
0.0
  9
$LOFTMAG2
 40
0.0
  9
$LOFTPARAM
 70
     7
  9
$LOFTNORMALS
280
     1
  9
$LATITUDE
 40
37.795
  9
$LONGITUDE
 40
-122.394
  9
$NORTHDIRECTION
 40
0.0
  9
$TIMEZONE
 70
 -8000
  9
$LIGHTGLYPHDISPLAY
280
     1
  9
$TILEMODELIGHTSYNCH
280
     1
  9
$CMATERIAL
347
3C
  9
$SOLIDHIST
280
     1
  9
$SHOWHIST
280
     1
  9
$DWFFRAME
280
     2
  9
$DGNFRAME
280
     2
  9
$REALWORLDSCALE
290
     1
  9
$INTERFERECOLOR
 62
   256
  9
$INTERFEREOBJVS
345
33
  9
$INTERFEREVPVS
346
BA
  9
$CSHADOW
280
     0
  9
$SHADOWPLANELOCATION
 40
0.0
  0
ENDSEC
  0
SECTION
  2
CLASSES
  0
CLASS
  1
ACDBDICTIONARYWDFLT
  2
AcDbDictionaryWithDefault
  3
ObjectDBX Classes
 90
        0
 91
        1
280
     0
281
     0
  0
CLASS
  1
VISUALSTYLE
  2
AcDbVisualStyle
  3
ObjectDBX Classes
 90
     4095
 91
       26
280
     0
281
     0
  0
CLASS
  1
MATERIAL
  2
AcDbMaterial
  3
ObjectDBX Classes
 90
     1153
 91
        3
280
     0
281
     0
  0
CLASS
  1
SUN
  2
AcDbSun
  3
SCENEOE
 90
     1153
 91
        1
280
     0
281
     0
  0
CLASS
  1
TABLESTYLE
  2
AcDbTableStyle
  3
ObjectDBX Classes
 90
     4095
 91
        1
280
     0
281
     0
  0
CLASS
  1
SCALE
  2
AcDbScale
  3
ObjectDBX Classes
 90
     1153
 91
       21
280
     0
281
     0
  0
CLASS
  1
MLEADERSTYLE
  2
AcDbMLeaderStyle
  3
ACDB_MLEADERSTYLE_CLASS
 90
     4095
 91
        1
280
     0
281
     0
  0
CLASS
  1
ACDBSECTIONVIEWSTYLE
  2
AcDbSectionViewStyle
  3
ObjectDBX Classes
 90
     1025
 91
        1
280
     0
281
     0
  0
CLASS
  1
ACDBDETAILVIEWSTYLE
  2
AcDbDetailViewStyle
  3
ObjectDBX Classes
 90
     1025
 91
        1
280
     0
281
     0
  0
CLASS
  1
SORTENTSTABLE
  2
AcDbSortentsTable
  3
ObjectDBX Classes
 90
        0
 91
        1
280
     0
281
     0
  0
CLASS
  1
DICTIONARYVAR
  2
AcDbDictionaryVar
  3
ObjectDBX Classes
 90
        0
 91
        5
280
     0
281
     0
  0
CLASS
  1
CELLSTYLEMAP
  2
AcDbCellStyleMap
  3
ObjectDBX Classes
 90
     1152
 91
        1
280
     0
281
     0
  0
ENDSEC
  0
SECTION
  2
TABLES
  0
TABLE
  2
VPORT
  5
8
330
0
100
AcDbSymbolTable
 70
     1
1001
ACAD
1000
DbSaveVer
1071
      105
  0
VPORT
  5
29
330
8
100
AcDbSymbolTableRecord
100
AcDbViewportTableRecord
  2
*Active
 70
     0
 10
0.0
 20
0.0
 11
1.0
 21
1.0
 12
2.435074516014068
 22
-3.507893256298341
 13
0.0
 23
0.0
 14
0.5
 24
0.5
 15
0.5
 25
0.5
 16
0.0
 26
0.0
 36
1.0
 17
14.84999673225613
 27
-10.50008306681943
 37
0.0
 40
33.59114175718767
 41
1.931468531468531
 42
50.0
 43
0.0
 44
0.0
 50
0.0
 51
0.0
 71
     0
 72
   100
 73
     1
 74
     3
 75
     0
 76
     0
 77
     0
 78
     0
281
     0
 65
     1
110
0.0
120
0.0
130
0.0
111
1.0
121
0.0
131
0.0
112
0.0
122
1.0
132
0.0
 79
     0
146
0.0
348
2F
 60
     3
 61
     5
292
     1
282
     1
141
0.0
142
0.0
 63
   250
361
3F
1001
ACAD_NAV_VCDISPLAY
1070
     3
  0
ENDTAB
  0
TABLE
  2
LTYPE
  5
5
330
0
100
AcDbSymbolTable
 70
     1
  0
LTYPE
  5
14
330
5
100
AcDbSymbolTableRecord
100
AcDbLinetypeTableRecord
  2
ByBlock
 70
     0
  3

 72
    65
 73
     0
 40
0.0
  0
LTYPE
  5
15
330
5
100
AcDbSymbolTableRecord
100
AcDbLinetypeTableRecord
  2
ByLayer
 70
     0
  3

 72
    65
 73
     0
 40
0.0
  0
LTYPE
  5
16
330
5
100
AcDbSymbolTableRecord
100
AcDbLinetypeTableRecord
  2
Continuous
 70
     0
  3
Solid line
 72
    65
 73
     0
 40
0.0
  0
ENDTAB
  0
TABLE
  2
LAYER
  5
2
330
0
100
AcDbSymbolTable
 70
     2
  0
LAYER
  5
10
330
2
100
AcDbSymbolTableRecord
100
AcDbLayerTableRecord
  2
0
 70
     0
 62
     7
  6
Continuous
370
    -3
390
F
347
3E
348
0
  0
LAYER
  5
40
330
2
100
AcDbSymbolTableRecord
100
AcDbLayerTableRecord
  2
Livello 3
 70
     0
 62
     7
  6
Continuous
370
    -3
390
F
347
3E
348
0
  0
ENDTAB
  0
TABLE
  2
STYLE
  5
3
330
0
100
AcDbSymbolTable
 70
     1
  0
STYLE
  5
11
330
3
100
AcDbSymbolTableRecord
100
AcDbTextStyleTableRecord
  2
Standard
 70
     0
 40
0.0
 41
1.0
 50
0.0
 71
     0
 42
0.2
  3
txt
  4

  0
ENDTAB
  0
TABLE
  2
VIEW
  5
6
330
0
100
AcDbSymbolTable
 70
     0
  0
ENDTAB
  0
TABLE
  2
UCS
  5
7
330
0
100
AcDbSymbolTable
 70
     0
  0
ENDTAB
  0
TABLE
  2
APPID
  5
9
330
0
100
AcDbSymbolTable
 70
     2
  0
APPID
  5
12
330
9
100
AcDbSymbolTableRecord
100
AcDbRegAppTableRecord
  2
ACAD
 70
     0
  0
APPID
  5
1AA
330
9
100
AcDbSymbolTableRecord
100
AcDbRegAppTableRecord
  2
ACAD_NAV_VCDISPLAY
 70
     0
  0
ENDTAB
  0
TABLE
  2
DIMSTYLE
  5
A
330
0
100
AcDbSymbolTable
 70
     1
100
AcDbDimStyleTable
 71
     0
  0
DIMSTYLE
105
27
330
A
100
AcDbSymbolTableRecord
100
AcDbDimStyleTableRecord
  2
Standard
 70
     0
340
11
  0
ENDTAB
  0
TABLE
  2
BLOCK_RECORD
  5
1
330
0
100
AcDbSymbolTable
 70
     9
  0
BLOCK_RECORD
  5
1F
102
{ACAD_XDICTIONARY
360
E4
102
}
330
1
100
AcDbSymbolTableRecord
100
AcDbBlockTableRecord
  2
*Model_Space
340
22
 70
     0
280
     1
281
     0
  0
BLOCK_RECORD
  5
1B
330
1
100
AcDbSymbolTableRecord
100
AcDbBlockTableRecord
  2
*Paper_Space
340
1E
 70
     0
280
     1
281
     0
  0
BLOCK_RECORD
  5
23
330
1
100
AcDbSymbolTableRecord
100
AcDbBlockTableRecord
  2
*Paper_Space0
340
26
 70
     0
280
     1
281
     0
  0
BLOCK_RECORD
  5
41
330
1
100
AcDbSymbolTableRecord
100
AcDbBlockTableRecord
  2
block 2
340
0
 70
     0
280
     1
281
     0
  0
BLOCK_RECORD
  5
48
330
1
100
AcDbSymbolTableRecord
100
AcDbBlockTableRecord
  2
block 3
340
0
 70
     0
280
     1
281
     0
  0
BLOCK_RECORD
  5
53
330
1
100
AcDbSymbolTableRecord
100
AcDbBlockTableRecord
  2
block 4
340
0
 70
     0
280
     1
281
     0
  0
BLOCK_RECORD
  5
5E
330
1
100
AcDbSymbolTableRecord
100
AcDbBlockTableRecord
  2
block 5
340
0
 70
     0
280
     1
281
     0
  0
BLOCK_RECORD
  5
73
330
1
100
AcDbSymbolTableRecord
100
AcDbBlockTableRecord
  2
block 6
340
0
 70
     0
280
     1
281
     0
  0
BLOCK_RECORD
  5
89
330
1
100
AcDbSymbolTableRecord
100
AcDbBlockTableRecord
  2
block 7
340
0
 70
     0
280
     1
281
     0
  0
BLOCK_RECORD
  5
93
330
1
100
AcDbSymbolTableRecord
100
AcDbBlockTableRecord
  2
block 8
340
0
 70
     0
280
     1
281
     0
  0
BLOCK_RECORD
  5
9B
330
1
100
AcDbSymbolTableRecord
100
AcDbBlockTableRecord
  2
block 9
340
0
 70
     0
280
     1
281
     0
  0
ENDTAB
  0
ENDSEC
  0
SECTION
  2
BLOCKS
  0
BLOCK
  5
20
330
1F
100
AcDbEntity
  8
0
100
AcDbBlockBegin
  2
*Model_Space
 70
     0
 10
0.0
 20
0.0
 30
0.0
  3
*Model_Space
  1

  0
ENDBLK
  5
21
330
1F
100
AcDbEntity
  8
0
100
AcDbBlockEnd
  0
BLOCK
  5
1C
330
1B
100
AcDbEntity
 67
     1
  8
0
100
AcDbBlockBegin
  2
*Paper_Space
 70
     0
 10
0.0
 20
0.0
 30
0.0
  3
*Paper_Space
  1

  0
ENDBLK
  5
1D
330
1B
100
AcDbEntity
 67
     1
  8
0
100
AcDbBlockEnd
  0
BLOCK
  5
24
330
23
100
AcDbEntity
 67
     1
  8
0
100
AcDbBlockBegin
  2
*Paper_Space0
 70
     0
 10
0.0
 20
0.0
 30
0.0
  3
*Paper_Space0
  1

  0
ENDBLK
  5
25
330
23
100
AcDbEntity
 67
     1
  8
0
100
AcDbBlockEnd
  0
BLOCK
  5
43
330
41
100
AcDbEntity
  8
0
100
AcDbBlockBegin
  2
block 2
 70
     0
 10
0.0
 20
0.0
 30
0.0
  3
block 2
  1

  0
POLYLINE
  5
45
330
41
100
AcDbEntity
  8
Livello 3
 62
   250
420
  1842203
370
    70
100
AcDb2dPolyline
 66
     1
 10
0.0
 20
0.0
 30
0.0
  0
VERTEX
  5
46
330
45
100
AcDbEntity
  8
Livello 3
 62
   250
420
  1842203
370
    70
100
AcDbVertex
100
AcDb2dVertex
 10
16.64252407541384
 20
-2.184350610565021
 30
0.0
  0
VERTEX
  5
B5
330
45
100
AcDbEntity
  8
0
100
AcDbVertex
100
AcDb2dVertex
 10
16.64252407541384
 20
-2.184350610565021
 30
0.0
  0
SEQEND
  5
47
330
45
100
AcDbEntity
  8
Livello 3
 62
   250
420
  1842203
370
    70
  0
ENDBLK
  5
44
330
41
100
AcDbEntity
  8
0
100
AcDbBlockEnd
  0
BLOCK
  5
4A
330
48
100
AcDbEntity
  8
0
100
AcDbBlockBegin
  2
block 3
 70
     0
 10
0.0
 20
0.0
 30
0.0
  3
block 3
  1

  0
POLYLINE
  5
4C
330
48
100
AcDbEntity
  8
Livello 3
 62
   250
420
  1842203
370
    70
100
AcDb2dPolyline
 66
     1
 10
0.0
 20
0.0
 30
0.0
  0
VERTEX
  5
4D
330
4C
100
AcDbEntity
  8
Livello 3
 62
   250
420
  1842203
370
    70
100
AcDbVertex
100
AcDb2dVertex
 10
13.96040019259339
 20
-8.994884946825427
 30
0.0
  0
VERTEX
  5
4E
330
4C
100
AcDbEntity
  8
Livello 3
 62
   250
420
  1842203
370
    70
100
AcDbVertex
100
AcDb2dVertex
 10
15.13733032923407
 20
-8.994884946825427
 30
0.0
  0
VERTEX
  5
4F
330
4C
100
AcDbEntity
  8
Livello 3
 62
   250
420
  1842203
370
    70
100
AcDbVertex
100
AcDb2dVertex
 10
15.13733032923407
 20
-17.27888327808773
 30
0.0
  0
VERTEX
  5
50
330
4C
100
AcDbEntity
  8
Livello 3
 62
   250
420
  1842203
370
    70
100
AcDbVertex
100
AcDb2dVertex
 10
13.96040019259339
 20
-17.27888327808773
 30
0.0
  0
VERTEX
  5
51
330
4C
100
AcDbEntity
  8
Livello 3
 62
   250
420
  1842203
370
    70
100
AcDbVertex
100
AcDb2dVertex
 10
13.96040019259339
 20
-8.994884946825427
 30
0.0
  0
SEQEND
  5
52
330
4C
100
AcDbEntity
  8
Livello 3
 62
   250
420
  1842203
370
    70
  0
ENDBLK
  5
4B
330
48
100
AcDbEntity
  8
0
100
AcDbBlockEnd
  0
BLOCK
  5
55
330
53
100
AcDbEntity
  8
0
100
AcDbBlockBegin
  2
block 4
 70
     0
 10
0.0
 20
0.0
 30
0.0
  3
block 4
  1

  0
POLYLINE
  5
57
330
53
100
AcDbEntity
  8
Livello 3
 62
   250
420
  1842203
370
    70
100
AcDb2dPolyline
 66
     1
 10
0.0
 20
0.0
 30
0.0
  0
VERTEX
  5
58
330
57
100
AcDbEntity
  8
Livello 3
 62
   250
420
  1842203
370
    70
100
AcDbVertex
100
AcDb2dVertex
 10
13.77936910124208
 20
-17.47114011137308
 30
0.0
  0
VERTEX
  5
59
330
57
100
AcDbEntity
  8
Livello 3
 62
   250
420
  1842203
370
    70
100
AcDbVertex
100
AcDb2dVertex
 10
15.31836215641292
 20
-17.47114011137308
 30
0.0
  0
VERTEX
  5
5A
330
57
100
AcDbEntity
  8
Livello 3
 62
   250
420
  1842203
370
    70
100
AcDbVertex
100
AcDb2dVertex
 10
15.31836215641292
 20
-17.27888327808773
 30
0.0
  0
VERTEX
  5
5B
330
57
100
AcDbEntity
  8
Livello 3
 62
   250
420
  1842203
370
    70
100
AcDbVertex
100
AcDb2dVertex
 10
13.77936910124208
 20
-17.27888327808773
 30
0.0
  0
VERTEX
  5
5C
330
57
100
AcDbEntity
  8
Livello 3
 62
   250
420
  1842203
370
    70
100
AcDbVertex
100
AcDb2dVertex
 10
13.77936910124208
 20
-17.47114011137308
 30
0.0
  0
SEQEND
  5
5D
330
57
100
AcDbEntity
  8
Livello 3
 62
   250
420
  1842203
370
    70
  0
ENDBLK
  5
56
330
53
100
AcDbEntity
  8
0
100
AcDbBlockEnd
  0
BLOCK
  5
60
330
5E
100
AcDbEntity
  8
0
100
AcDbBlockBegin
  2
block 5
 70
     0
 10
0.0
 20
0.0
 30
0.0
  3
block 5
  1

  0
SPLINE
  5
62
330
5E
100
AcDbEntity
  8
Livello 3
 62
   250
420
  1842203
370
    70
100
AcDbSpline
210
0.0
220
0.0
230
1.0
 70
     9
 71
     3
 72
    29
 73
    25
 74
     0
 42
0.000000001
 43
0.0000000001
 40
0.0
 40
0.0
 40
0.0
 40
0.0
 40
1.0
 40
1.0
 40
1.0
 40
2.0
 40
2.0
 40
2.0
 40
3.0
 40
3.0
 40
3.0
 40
4.0
 40
4.0
 40
4.0
 40
5.0
 40
5.0
 40
5.0
 40
6.0
 40
6.0
 40
6.0
 40
7.0
 40
7.0
 40
7.0
 40
8.0
 40
8.0
 40
8.0
 40
8.0
 10
15.89427853214494
 20
-5.758227623560464
 30
0.0
 10
16.12242344299114
 20
-5.388093179208547
 30
0.0
 10
16.2316469679824
 20
-4.969374179313223
 30
0.0
 10
16.2316469679824
 20
-4.459885457218358
 30
0.0
 10
16.2316469679824
 20
-3.261873290851204
 30
0.0
 10
15.47821595942624
 20
-2.290693707760679
 30
0.0
 10
14.54887268400454
 20
-2.290693707760679
 30
0.0
 10
13.61952867351197
 20
-2.290693707760679
 30
0.0
 10
12.86608355384507
 20
-3.261873290851204
 30
0.0
 10
12.86608355384507
 20
-4.459885457218358
 30
0.0
 10
12.86608355384507
 20
-4.977114123755731
 30
0.0
 10
13.00653143915084
 20
-5.452072956970311
 30
0.0
 10
13.24097696094741
 20
-5.824867345765999
 30
0.0
 10
13.24097696094741
 20
-5.824867345765999
 30
0.0
 10
13.29368195960279
 20
-5.89187748463815
 30
0.0
 10
13.30148893162584
 20
-5.900485262413766
 30
0.0
 10
13.38124879540756
 20
-5.989177123502714
 30
0.0
 10
13.86009136181915
 20
-6.119147512359101
 30
0.0
 10
14.53711776121344
 20
-6.119147512359101
 30
0.0
 10
15.28013477003527
 20
-6.119147512359101
 30
0.0
 10
15.63544195541507
 20
-6.017127706829062
 30
0.0
 10
15.79398381248144
 20
-5.868079095755201
 30
0.0
 10
15.79398381248144
 20
-5.868079095755201
 30
0.0
 10
15.89427853214494
 20
-5.758227623560464
 30
0.0
 10
15.89427853214494
 20
-5.758227623560464
 30
0.0
  0
ENDBLK
  5
61
330
5E
100
AcDbEntity
  8
0
100
AcDbBlockEnd
  0
BLOCK
  5
75
330
73
100
AcDbEntity
  8
0
100
AcDbBlockBegin
  2
block 6
 70
     0
 10
0.0
 20
0.0
 30
0.0
  3
block 6
  1

  0
POLYLINE
  5
77
330
73
100
AcDbEntity
  8
Livello 3
370
     0
100
AcDb2dPolyline
 66
     1
 10
0.0
 20
0.0
 30
0.0
  0
VERTEX
  5
78
330
77
100
AcDbEntity
  8
Livello 3
370
     0
100
AcDbVertex
100
AcDb2dVertex
 10
13.80876952779781
 20
-18.58150146019837
 30
0.0
  0
VERTEX
  5
79
330
77
100
AcDbEntity
  8
Livello 3
370
     0
100
AcDbVertex
100
AcDb2dVertex
 10
13.80708143101003
 20
-18.58150146019837
 30
0.0
  0
VERTEX
  5
7A
330
77
100
AcDbEntity
  8
Livello 3
370
     0
100
AcDbVertex
100
AcDb2dVertex
 10
13.71139390390722
 20
-18.63314344152227
 30
0.0
  0
VERTEX
  5
7B
330
77
100
AcDbEntity
  8
Livello 3
370
     0
100
AcDbVertex
100
AcDb2dVertex
 10
13.69699340477888
 20
-18.5764027188802
 30
0.0
  0
VERTEX
  5
7C
330
77
100
AcDbEntity
  8
Livello 3
370
     0
100
AcDbVertex
100
AcDb2dVertex
 10
13.81722723721409
 20
-18.51204833521574
 30
0.0
  0
VERTEX
  5
7D
330
77
100
AcDbEntity
  8
Livello 3
370
     0
100
AcDbVertex
100
AcDb2dVertex
 10
13.88073757248468
 20
-18.51204833521574
 30
0.0
  0
VERTEX
  5
7E
330
77
100
AcDbEntity
  8
Livello 3
370
     0
100
AcDbVertex
100
AcDb2dVertex
 10
13.88073757248468
 20
-19.06243678993925
 30
0.0
  0
VERTEX
  5
7F
330
77
100
AcDbEntity
  8
Livello 3
370
     0
100
AcDbVertex
100
AcDb2dVertex
 10
13.80876952779781
 20
-19.06243678993925
 30
0.0
  0
VERTEX
  5
80
330
77
100
AcDbEntity
  8
Livello 3
370
     0
100
AcDbVertex
100
AcDb2dVertex
 10
13.80876952779781
 20
-18.58150146019837
 30
0.0
  0
SEQEND
  5
81
330
77
100
AcDbEntity
  8
Livello 3
370
     0
  0
HATCH
  5
82
330
73
100
AcDbEntity
  8
Livello 3
 62
   250
420
  1842203
100
AcDbHatch
 10
0.0
 20
0.0
 30
0.0
210
0.0
220
0.0
230
1.0
  2
SOLID
 70
     1
 71
     0
 91
        1
 92
        1
 93
        8
 72
     1
 10
13.80876952779781
 20
-18.58150146019837
 11
13.80708143101003
 21
-18.58150146019837
 72
     1
 10
13.80708143101003
 20
-18.58150146019837
 11
13.71139390390722
 21
-18.63314344152227
 72
     1
 10
13.71139390390722
 20
-18.63314344152227
 11
13.69699340477888
 21
-18.5764027188802
 72
     1
 10
13.69699340477888
 20
-18.5764027188802
 11
13.81722723721409
 21
-18.51204833521574
 72
     1
 10
13.81722723721409
 20
-18.51204833521574
 11
13.88073757248468
 21
-18.51204833521574
 72
     1
 10
13.88073757248468
 20
-18.51204833521574
 11
13.88073757248468
 21
-19.06243678993925
 72
     1
 10
13.88073757248468
 20
-19.06243678993925
 11
13.80876952779781
 21
-19.06243678993925
 72
     1
 10
13.80876952779781
 20
-19.06243678993925
 11
13.80876952779781
 21
-18.58150146019837
 97
        0
 75
     2
 76
     1
 98
        0
450
        0
451
        0
460
0.0
461
0.0
452
        0
462
0.0
453
        0
470

  0
SPLINE
  5
83
330
73
100
AcDbEntity
  8
Livello 3
370
     0
100
AcDbSpline
210
0.0
220
0.0
230
1.0
 70
     9
 71
     3
 72
    59
 73
    55
 74
     0
 42
0.000000001
 43
0.0000000001
 40
0.0
 40
0.0
 40
0.0
 40
0.0
 40
1.0
 40
1.0
 40
1.0
 40
2.0
 40
2.0
 40
2.0
 40
3.0
 40
3.0
 40
3.0
 40
4.0
 40
4.0
 40
4.0
 40
5.0
 40
5.0
 40
5.0
 40
6.0
 40
6.0
 40
6.0
 40
7.0
 40
7.0
 40
7.0
 40
8.0
 40
8.0
 40
8.0
 40
9.0
 40
9.0
 40
9.0
 40
10.0
 40
10.0
 40
10.0
 40
11.0
 40
11.0
 40
11.0
 40
12.0
 40
12.0
 40
12.0
 40
13.0
 40
13.0
 40
13.0
 40
14.0
 40
14.0
 40
14.0
 40
15.0
 40
15.0
 40
15.0
 40
16.0
 40
16.0
 40
16.0
 40
17.0
 40
17.0
 40
17.0
 40
18.0
 40
18.0
 40
18.0
 40
18.0
 10
14.09913940077209
 20
-18.97692951999535
 30
0.0
 10
14.12030951252894
 20
-18.99046874525238
 30
0.0
 10
14.16941934867119
 20
-19.01165608248667
 30
0.0
 10
14.22107855547251
 20
-19.01165608248667
 30
0.0
 10
14.3167488570979
 20
-19.01165608248667
 30
0.0
 10
14.34639390374847
 20
-18.95067789239775
 30
0.0
 10
14.34554985535458
 20
-18.90496147530848
 30
0.0
 10
14.3447058069607
 20
-18.82789468930344
 30
0.0
 10
14.27526990745549
 20
-18.79489067455475
 30
0.0
 10
14.20330186276862
 20
-18.79489067455475
 30
0.0
 10
14.20330186276862
 20
-18.79489067455475
 30
0.0
 10
14.16180568764878
 20
-18.79489067455475
 30
0.0
 10
14.16180568764878
 20
-18.79489067455475
 30
0.0
 10
14.16180568764878
 20
-18.79489067455475
 30
0.0
 10
14.16180568764878
 20
-18.73897677482914
 30
0.0
 10
14.16180568764878
 20
-18.73897677482914
 30
0.0
 10
14.16180568764878
 20
-18.73897677482914
 30
0.0
 10
14.20330186276862
 20
-18.73897677482914
 30
0.0
 10
14.20330186276862
 20
-18.73897677482914
 30
0.0
 10
14.2574932147516
 20
-18.73897677482914
 30
0.0
 10
14.3260678403855
 20
-18.71103705044377
 30
0.0
 10
14.3260678403855
 20
-18.64585584386284
 30
0.0
 10
14.3260678403855
 20
-18.60182752356135
 30
0.0
 10
14.29812811600012
 20
-18.56286349362317
 30
0.0
 10
14.22953626488879
 20
-18.56286349362317
 30
0.0
 10
14.1855079445873
 20
-18.56286349362317
 30
0.0
 10
14.14316772107358
 20
-18.58232828311483
 30
0.0
 10
14.11946546413506
 20
-18.59927815290226
 30
0.0
 10
14.11946546413506
 20
-18.59927815290226
 30
0.0
 10
14.09998344916598
 20
-18.54508680091928
 30
0.0
 10
14.09998344916598
 20
-18.54508680091928
 30
0.0
 10
14.12878444742266
 20
-18.52393391463985
 30
0.0
 10
14.18466389619342
 20
-18.50274657740555
 30
0.0
 10
14.24393676401714
 20
-18.50274657740555
 30
0.0
 10
14.3523194679831
 20
-18.50274657740555
 30
0.0
 10
14.40142930412534
 20
-18.56710096107003
 30
0.0
 10
14.40142930412534
 20
-18.63400471539358
 30
0.0
 10
14.40142930412534
 20
-18.69071098708079
 30
0.0
 10
14.36756401550533
 20
-18.73897677482914
 30
0.0
 10
14.29981621278789
 20
-18.76354030563898
 30
0.0
 10
14.29981621278789
 20
-18.76354030563898
 30
0.0
 10
14.29981621278789
 20
-18.76522840242675
 30
0.0
 10
14.29981621278789
 20
-18.76522840242675
 30
0.0
 10
14.36756401550533
 20
-18.77880207863863
 30
0.0
 10
14.42259941588219
 20
-18.82958278609122
 30
0.0
 10
14.42259941588219
 20
-18.90664957209625
 30
0.0
 10
14.42259941588219
 20
-18.99470621269924
 30
0.0
 10
14.35400756477087
 20
-19.07177299870428
 30
0.0
 10
14.22192260386639
 20
-19.07177299870428
 30
0.0
 10
14.16011759086101
 20
-19.07177299870428
 30
0.0
 10
14.10592623887803
 20
-19.05227375825776
 30
0.0
 10
14.07883056288654
 20
-19.03449706555388
 30
0.0
 10
14.07883056288654
 20
-19.03449706555388
 30
0.0
 10
14.09913940077209
 20
-18.97692951999535
 30
0.0
 10
14.09913940077209
 20
-18.97692951999535
 30
0.0
  0
HATCH
  5
84
330
73
100
AcDbEntity
  8
Livello 3
 62
   250
420
  1842203
100
AcDbHatch
 10
0.0
 20
0.0
 30
0.0
210
0.0
220
0.0
230
1.0
  2
SOLID
 70
     1
 71
     0
 91
        1
 92
        1
 93
        1
 72
     4
 94
        3
 73
     0
 74
     0
 95
       59
 96
       55
 40
0.0
 40
0.0
 40
0.0
 40
0.0
 40
1.0
 40
1.0
 40
1.0
 40
2.0
 40
2.0
 40
2.0
 40
3.0
 40
3.0
 40
3.0
 40
4.0
 40
4.0
 40
4.0
 40
5.0
 40
5.0
 40
5.0
 40
6.0
 40
6.0
 40
6.0
 40
7.0
 40
7.0
 40
7.0
 40
8.0
 40
8.0
 40
8.0
 40
9.0
 40
9.0
 40
9.0
 40
10.0
 40
10.0
 40
10.0
 40
11.0
 40
11.0
 40
11.0
 40
12.0
 40
12.0
 40
12.0
 40
13.0
 40
13.0
 40
13.0
 40
14.0
 40
14.0
 40
14.0
 40
15.0
 40
15.0
 40
15.0
 40
16.0
 40
16.0
 40
16.0
 40
17.0
 40
17.0
 40
17.0
 40
18.0
 40
18.0
 40
18.0
 40
18.0
 10
14.09913940077209
 20
-18.97692951999535
 10
14.12030951252894
 20
-18.99046874525238
 10
14.16941934867119
 20
-19.01165608248667
 10
14.22107855547251
 20
-19.01165608248667
 10
14.3167488570979
 20
-19.01165608248667
 10
14.34639390374847
 20
-18.95067789239775
 10
14.34554985535458
 20
-18.90496147530848
 10
14.3447058069607
 20
-18.82789468930344
 10
14.27526990745549
 20
-18.79489067455475
 10
14.20330186276862
 20
-18.79489067455475
 10
14.20330186276862
 20
-18.79489067455475
 10
14.16180568764878
 20
-18.79489067455475
 10
14.16180568764878
 20
-18.79489067455475
 10
14.16180568764878
 20
-18.79489067455475
 10
14.16180568764878
 20
-18.73897677482914
 10
14.16180568764878
 20
-18.73897677482914
 10
14.16180568764878
 20
-18.73897677482914
 10
14.20330186276862
 20
-18.73897677482914
 10
14.20330186276862
 20
-18.73897677482914
 10
14.2574932147516
 20
-18.73897677482914
 10
14.3260678403855
 20
-18.71103705044377
 10
14.3260678403855
 20
-18.64585584386284
 10
14.3260678403855
 20
-18.60182752356135
 10
14.29812811600012
 20
-18.56286349362317
 10
14.22953626488879
 20
-18.56286349362317
 10
14.1855079445873
 20
-18.56286349362317
 10
14.14316772107358
 20
-18.58232828311483
 10
14.11946546413506
 20
-18.59927815290226
 10
14.11946546413506
 20
-18.59927815290226
 10
14.09998344916598
 20
-18.54508680091928
 10
14.09998344916598
 20
-18.54508680091928
 10
14.12878444742266
 20
-18.52393391463985
 10
14.18466389619342
 20
-18.50274657740555
 10
14.24393676401714
 20
-18.50274657740555
 10
14.3523194679831
 20
-18.50274657740555
 10
14.40142930412534
 20
-18.56710096107003
 10
14.40142930412534
 20
-18.63400471539358
 10
14.40142930412534
 20
-18.69071098708079
 10
14.36756401550533
 20
-18.73897677482914
 10
14.29981621278789
 20
-18.76354030563898
 10
14.29981621278789
 20
-18.76354030563898
 10
14.29981621278789
 20
-18.76522840242675
 10
14.29981621278789
 20
-18.76522840242675
 10
14.36756401550533
 20
-18.77880207863863
 10
14.42259941588219
 20
-18.82958278609122
 10
14.42259941588219
 20
-18.90664957209625
 10
14.42259941588219
 20
-18.99470621269924
 10
14.35400756477087
 20
-19.07177299870428
 10
14.22192260386639
 20
-19.07177299870428
 10
14.16011759086101
 20
-19.07177299870428
 10
14.10592623887803
 20
-19.05227375825776
 10
14.07883056288654
 20
-19.03449706555388
 10
14.07883056288654
 20
-19.03449706555388
 10
14.09913940077209
 20
-18.97692951999535
 10
14.09913940077209
 20
-18.97692951999535
 97
        0
 97
        0
 75
     2
 76
     1
 98
        0
450
        0
451
        0
460
0.0
461
0.0
452
        0
462
0.0
453
        0
470

  0
SPLINE
  5
85
330
73
100
AcDbEntity
  8
Livello 3
370
     0
100
AcDbSpline
210
0.0
220
0.0
230
1.0
 70
     9
 71
     3
 72
    17
 73
    13
 74
     0
 42
0.000000001
 43
0.0000000001
 40
0.0
 40
0.0
 40
0.0
 40
0.0
 40
1.0
 40
1.0
 40
1.0
 40
2.0
 40
2.0
 40
2.0
 40
3.0
 40
3.0
 40
3.0
 40
4.0
 40
4.0
 40
4.0
 40
4.0
 10
14.49113959056124
 20
-19.16658202645835
 30
0.0
 10
14.50976033165902
 20
-19.11662814192223
 30
0.0
 10
14.53261854020365
 20
-19.02602213066016
 30
0.0
 10
14.54193752349125
 20
-18.96421711765478
 30
0.0
 10
14.54193752349125
 20
-18.96421711765478
 30
0.0
 10
14.62491264825349
 20
-18.95574218276106
 30
0.0
 10
14.62491264825349
 20
-18.95574218276106
 30
0.0
 10
14.60544785876183
 20
-19.02774467840278
 30
0.0
 10
14.56818915108885
 20
-19.1217268832404
 30
0.0
 10
14.54446966867291
 20
-19.16151773609504
 30
0.0
 10
14.54446966867291
 20
-19.16151773609504
 30
0.0
 10
14.49113959056124
 20
-19.16658202645835
 30
0.0
 10
14.49113959056124
 20
-19.16658202645835
 30
0.0
  0
HATCH
  5
86
330
73
100
AcDbEntity
  8
Livello 3
 62
   250
420
  1842203
100
AcDbHatch
 10
0.0
 20
0.0
 30
0.0
210
0.0
220
0.0
230
1.0
  2
SOLID
 70
     1
 71
     0
 91
        1
 92
        1
 93
        1
 72
     4
 94
        3
 73
     0
 74
     0
 95
       17
 96
       13
 40
0.0
 40
0.0
 40
0.0
 40
0.0
 40
1.0
 40
1.0
 40
1.0
 40
2.0
 40
2.0
 40
2.0
 40
3.0
 40
3.0
 40
3.0
 40
4.0
 40
4.0
 40
4.0
 40
4.0
 10
14.49113959056124
 20
-19.16658202645835
 10
14.50976033165902
 20
-19.11662814192223
 10
14.53261854020365
 20
-19.02602213066016
 10
14.54193752349125
 20
-18.96421711765478
 10
14.54193752349125
 20
-18.96421711765478
 10
14.62491264825349
 20
-18.95574218276106
 10
14.62491264825349
 20
-18.95574218276106
 10
14.60544785876183
 20
-19.02774467840278
 10
14.56818915108885
 20
-19.1217268832404
 10
14.54446966867291
 20
-19.16151773609504
 10
14.54446966867291
 20
-19.16151773609504
 10
14.49113959056124
 20
-19.16658202645835
 10
14.49113959056124
 20
-19.16658202645835
 97
        0
 97
        0
 75
     2
 76
     1
 98
        0
450
        0
451
        0
460
0.0
461
0.0
452
        0
462
0.0
453
        0
470

  0
SPLINE
  5
87
330
73
100
AcDbEntity
  8
Livello 3
370
     0
100
AcDbSpline
210
0.0
220
0.0
230
1.0
 70
    11
 71
     3
 72
    50
 73
    46
 74
     0
 42
0.000000001
 43
0.0000000001
 40
0.0
 40
0.0
 40
0.0
 40
0.0
 40
1.0
 40
1.0
 40
1.0
 40
2.0
 40
2.0
 40
2.0
 40
3.0
 40
3.0
 40
3.0
 40
4.0
 40
4.0
 40
4.0
 40
5.0
 40
5.0
 40
5.0
 40
6.0
 40
6.0
 40
6.0
 40
7.0
 40
7.0
 40
7.0
 40
8.0
 40
8.0
 40
8.0
 40
9.0
 40
9.0
 40
9.0
 40
10.0
 40
10.0
 40
10.0
 40
11.0
 40
11.0
 40
11.0
 40
12.0
 40
12.0
 40
12.0
 40
13.0
 40
13.0
 40
13.0
 40
14.0
 40
14.0
 40
14.0
 40
15.0
 40
15.0
 40
15.0
 40
15.0
 10
15.01947943417916
 20
-18.57471462209243
 30
0.0
 10
15.01947943417916
 20
-18.57471462209243
 30
0.0
 10
14.80948363887575
 20
-18.57471462209243
 30
0.0
 10
14.80948363887575
 20
-18.57471462209243
 30
0.0
 10
14.80948363887575
 20
-18.57471462209243
 30
0.0
 10
14.78831352711889
 20
-18.71613579176194
 30
0.0
 10
14.78831352711889
 20
-18.71613579176194
 30
0.0
 10
14.80100870398204
 20
-18.71444769497417
 30
0.0
 10
14.81287705792872
 20
-18.71272514723154
 30
0.0
 10
14.83318589581427
 20
-18.71272514723154
 30
0.0
 10
14.87552611932799
 20
-18.71272514723154
 30
0.0
 10
14.91788356831914
 20
-18.72206135599657
 30
0.0
 10
14.95174885693915
 20
-18.74238741935954
 30
0.0
 10
14.99491590336932
 20
-18.76691649921452
 30
0.0
 10
15.03050373973196
 20
-18.81435546404641
 30
0.0
 10
15.03050373973196
 20
-18.88377413807419
 30
0.0
 10
15.03050373973196
 20
-18.99133001912369
 30
0.0
 10
14.9449620188332
 20
-19.07177299870428
 30
0.0
 10
14.82557223479187
 20
-19.07177299870428
 30
0.0
 10
14.76545531857426
 20
-19.07177299870428
 30
0.0
 10
14.71464016016682
 20
-19.05482312891685
 30
0.0
 10
14.68840575804665
 20
-19.03787325912942
 30
0.0
 10
14.68840575804665
 20
-19.03787325912942
 30
0.0
 10
14.70702649914442
 20
-18.98116698744221
 30
0.0
 10
14.70702649914442
 20
-18.98116698744221
 30
0.0
 10
14.72988470768906
 20
-18.99470621269924
 30
0.0
 10
14.77477430186186
 20
-19.01165608248667
 30
0.0
 10
14.82472818639798
 20
-19.01165608248667
 30
0.0
 10
14.89500813429708
 20
-19.01165608248667
 30
0.0
 10
14.95512505051468
 20
-18.96590521444255
 30
0.0
 10
14.95512505051468
 20
-18.89224907296791
 30
0.0
 10
14.95429822759823
 20
-18.8211078511975
 30
0.0
 10
14.90685926276634
 20
-18.77032714374492
 30
0.0
 10
14.79678846201261
 20
-18.77032714374492
 30
0.0
 10
14.76545531857426
 20
-18.77032714374492
 30
0.0
 10
14.74089178776443
 20
-18.77370333732046
 30
0.0
 10
14.72058294987888
 20
-18.77625270797955
 30
0.0
 10
14.72058294987888
 20
-18.77625270797955
 30
0.0
 10
14.75613633528666
 20
-18.51204833521574
 30
0.0
 10
14.75613633528666
 20
-18.51204833521574
 30
0.0
 10
14.75613633528666
 20
-18.51204833521574
 30
0.0
 10
15.01947943417916
 20
-18.51204833521574
 30
0.0
 10
15.01947943417916
 20
-18.51204833521574
 30
0.0
 10
15.01947943417916
 20
-18.51204833521574
 30
0.0
 10
15.01947943417916
 20
-18.57471462209243
 30
0.0
 10
15.01947943417916
 20
-18.57471462209243
 30
0.0
  0
HATCH
  5
88
330
73
100
AcDbEntity
  8
Livello 3
 62
   250
420
  1842203
100
AcDbHatch
 10
0.0
 20
0.0
 30
0.0
210
0.0
220
0.0
230
1.0
  2
SOLID
 70
     1
 71
     0
 91
        1
 92
        1
 93
        1
 72
     4
 94
        3
 73
     0
 74
     0
 95
       50
 96
       46
 40
0.0
 40
0.0
 40
0.0
 40
0.0
 40
1.0
 40
1.0
 40
1.0
 40
2.0
 40
2.0
 40
2.0
 40
3.0
 40
3.0
 40
3.0
 40
4.0
 40
4.0
 40
4.0
 40
5.0
 40
5.0
 40
5.0
 40
6.0
 40
6.0
 40
6.0
 40
7.0
 40
7.0
 40
7.0
 40
8.0
 40
8.0
 40
8.0
 40
9.0
 40
9.0
 40
9.0
 40
10.0
 40
10.0
 40
10.0
 40
11.0
 40
11.0
 40
11.0
 40
12.0
 40
12.0
 40
12.0
 40
13.0
 40
13.0
 40
13.0
 40
14.0
 40
14.0
 40
14.0
 40
15.0
 40
15.0
 40
15.0
 40
15.0
 10
15.01947943417916
 20
-18.57471462209243
 10
15.01947943417916
 20
-18.57471462209243
 10
14.80948363887575
 20
-18.57471462209243
 10
14.80948363887575
 20
-18.57471462209243
 10
14.80948363887575
 20
-18.57471462209243
 10
14.78831352711889
 20
-18.71613579176194
 10
14.78831352711889
 20
-18.71613579176194
 10
14.80100870398204
 20
-18.71444769497417
 10
14.81287705792872
 20
-18.71272514723154
 10
14.83318589581427
 20
-18.71272514723154
 10
14.87552611932799
 20
-18.71272514723154
 10
14.91788356831914
 20
-18.72206135599657
 10
14.95174885693915
 20
-18.74238741935954
 10
14.99491590336932
 20
-18.76691649921452
 10
15.03050373973196
 20
-18.81435546404641
 10
15.03050373973196
 20
-18.88377413807419
 10
15.03050373973196
 20
-18.99133001912369
 10
14.9449620188332
 20
-19.07177299870428
 10
14.82557223479187
 20
-19.07177299870428
 10
14.76545531857426
 20
-19.07177299870428
 10
14.71464016016682
 20
-19.05482312891685
 10
14.68840575804665
 20
-19.03787325912942
 10
14.68840575804665
 20
-19.03787325912942
 10
14.70702649914442
 20
-18.98116698744221
 10
14.70702649914442
 20
-18.98116698744221
 10
14.72988470768906
 20
-18.99470621269924
 10
14.77477430186186
 20
-19.01165608248667
 10
14.82472818639798
 20
-19.01165608248667
 10
14.89500813429708
 20
-19.01165608248667
 10
14.95512505051468
 20
-18.96590521444255
 10
14.95512505051468
 20
-18.89224907296791
 10
14.95429822759823
 20
-18.8211078511975
 10
14.90685926276634
 20
-18.77032714374492
 10
14.79678846201261
 20
-18.77032714374492
 10
14.76545531857426
 20
-18.77032714374492
 10
14.74089178776443
 20
-18.77370333732046
 10
14.72058294987888
 20
-18.77625270797955
 10
14.72058294987888
 20
-18.77625270797955
 10
14.75613633528666
 20
-18.51204833521574
 10
14.75613633528666
 20
-18.51204833521574
 10
14.75613633528666
 20
-18.51204833521574
 10
15.01947943417916
 20
-18.51204833521574
 10
15.01947943417916
 20
-18.51204833521574
 10
15.01947943417916
 20
-18.51204833521574
 10
15.01947943417916
 20
-18.57471462209243
 10
15.01947943417916
 20
-18.57471462209243
 97
        0
 97
        0
 75
     2
 76
     1
 98
        0
450
        0
451
        0
460
0.0
461
0.0
452
        0
462
0.0
453
        0
470

  0
ENDBLK
  5
76
330
73
100
AcDbEntity
  8
0
100
AcDbBlockEnd
  0
BLOCK
  5
8B
330
89
100
AcDbEntity
  8
0
100
AcDbBlockBegin
  2
block 7
 70
     0
 10
0.0
 20
0.0
 30
0.0
  3
block 7
  1

  0
SPLINE
  5
8D
330
89
100
AcDbEntity
  8
Livello 3
370
     0
100
AcDbSpline
210
0.0
220
0.0
230
1.0
 70
     9
 71
     3
 72
    38
 73
    34
 74
     0
 42
0.000000001
 43
0.0000000001
 40
0.0
 40
0.0
 40
0.0
 40
0.0
 40
1.0
 40
1.0
 40
1.0
 40
2.0
 40
2.0
 40
2.0
 40
3.0
 40
3.0
 40
3.0
 40
4.0
 40
4.0
 40
4.0
 40
5.0
 40
5.0
 40
5.0
 40
6.0
 40
6.0
 40
6.0
 40
7.0
 40
7.0
 40
7.0
 40
8.0
 40
8.0
 40
8.0
 40
9.0
 40
9.0
 40
9.0
 40
10.0
 40
10.0
 40
10.0
 40
11.0
 40
11.0
 40
11.0
 40
11.0
 10
16.0088419556332
 20
-13.48758327570796
 30
0.0
 10
16.00798068176189
 20
-13.50284504870762
 30
0.0
 10
16.0088419556332
 20
-13.52227538724443
 30
0.0
 10
16.01221814920875
 20
-13.54346272447872
 30
0.0
 10
16.03168293870041
 20
-13.66032036333839
 30
0.0
 10
16.11722465959917
 20
-13.72212537634377
 30
0.0
 10
16.20783067086123
 20
-13.73483777868434
 30
0.0
 10
16.20783067086123
 20
-13.73483777868434
 30
0.0
 10
16.20783067086123
 20
-13.73228840802526
 30
0.0
 10
16.20783067086123
 20
-13.73228840802526
 30
0.0
 10
16.17310410836992
 20
-13.70603678042766
 30
0.0
 10
16.14430311011323
 20
-13.66032036333839
 30
0.0
 10
16.14430311011323
 20
-13.59937662420432
 30
0.0
 10
16.14430311011323
 20
-13.50198377483631
 30
0.0
 10
16.21458305801233
 20
-13.43339192372498
 30
0.0
 10
16.32213893906183
 20
-13.43339192372498
 30
0.0
 10
16.42290798200538
 20
-13.43339192372498
 30
0.0
 10
16.51602891297168
 20
-13.50198377483631
 30
0.0
 10
16.51602891297168
 20
-13.6162920430369
 30
0.0
 10
16.51602891297168
 20
-13.73397650481303
 30
0.0
 10
16.42459607879315
 20
-13.81104329081807
 30
0.0
 10
16.28148681233588
 20
-13.81104329081807
 30
0.0
 10
16.17310410836992
 20
-13.81104329081807
 30
0.0
 10
16.08759683842602
 20
-13.7720792608799
 30
0.0
 10
16.03340548644303
 20
-13.71788790889692
 30
0.0
 10
15.98851589227023
 20
-13.67217149180765
 30
0.0
 10
15.96057616788485
 20
-13.61122775267358
 30
0.0
 10
15.95210123299114
 20
-13.54177462769094
 30
0.0
 10
15.9487250394156
 20
-13.5197604675402
 30
0.0
 10
15.94786376554428
 20
-13.501122500965
 30
0.0
 10
15.94786376554428
 20
-13.48758327570796
 30
0.0
 10
15.94786376554428
 20
-13.48758327570796
 30
0.0
 10
16.0088419556332
 20
-13.48758327570796
 30
0.0
 10
16.0088419556332
 20
-13.48758327570796
 30
0.0
  0
SPLINE
  5
8E
330
89
100
AcDbEntity
  8
Livello 3
370
     0
100
AcDbSpline
210
0.0
220
0.0
230
1.0
 70
     9
 71
     3
 72
    20
 73
    16
 74
     0
 42
0.000000001
 43
0.0000000001
 40
0.0
 40
0.0
 40
0.0
 40
0.0
 40
1.0
 40
1.0
 40
1.0
 40
2.0
 40
2.0
 40
2.0
 40
3.0
 40
3.0
 40
3.0
 40
4.0
 40
4.0
 40
4.0
 40
5.0
 40
5.0
 40
5.0
 40
5.0
 10
16.32637640650868
 20
-13.50877061294225
 30
0.0
 10
16.24762152371587
 20
-13.50877061294225
 30
0.0
 10
16.20018255888398
 20
-13.5536257561602
 30
0.0
 10
16.20018255888398
 20
-13.62221760727153
 30
0.0
 10
16.20018255888398
 20
-13.66710720144433
 30
0.0
 10
16.22815673422421
 20
-13.70858615108674
 30
0.0
 10
16.26794758707884
 20
-13.72891221444972
 30
0.0
 10
16.27642252197256
 20
-13.73397650481303
 30
0.0
 10
16.28741237657051
 20
-13.73738714934343
 30
0.0
 10
16.30095160182754
 20
-13.73738714934343
 30
0.0
 10
16.39155761308961
 20
-13.7356646016008
 30
0.0
 10
16.45846136741316
 20
-13.6941856519584
 30
0.0
 10
16.45846136741316
 20
-13.6162920430369
 30
0.0
 10
16.45846136741316
 20
-13.55193765937243
 30
0.0
 10
16.40509683834664
 20
-13.50877061294225
 30
0.0
 10
16.32637640650868
 20
-13.50877061294225
 30
0.0
  0
HATCH
  5
8F
330
89
100
AcDbEntity
  8
Livello 3
 62
   250
420
  1842203
100
AcDbHatch
 10
0.0
 20
0.0
 30
0.0
210
0.0
220
0.0
230
1.0
  2
SOLID
 70
     1
 71
     0
 91
        2
 92
        1
 93
        1
 72
     4
 94
        3
 73
     0
 74
     0
 95
       38
 96
       34
 40
0.0
 40
0.0
 40
0.0
 40
0.0
 40
1.0
 40
1.0
 40
1.0
 40
2.0
 40
2.0
 40
2.0
 40
3.0
 40
3.0
 40
3.0
 40
4.0
 40
4.0
 40
4.0
 40
5.0
 40
5.0
 40
5.0
 40
6.0
 40
6.0
 40
6.0
 40
7.0
 40
7.0
 40
7.0
 40
8.0
 40
8.0
 40
8.0
 40
9.0
 40
9.0
 40
9.0
 40
10.0
 40
10.0
 40
10.0
 40
11.0
 40
11.0
 40
11.0
 40
11.0
 10
16.0088419556332
 20
-13.48758327570796
 10
16.00798068176189
 20
-13.50284504870762
 10
16.0088419556332
 20
-13.52227538724443
 10
16.01221814920875
 20
-13.54346272447872
 10
16.03168293870041
 20
-13.66032036333839
 10
16.11722465959917
 20
-13.72212537634377
 10
16.20783067086123
 20
-13.73483777868434
 10
16.20783067086123
 20
-13.73483777868434
 10
16.20783067086123
 20
-13.73228840802526
 10
16.20783067086123
 20
-13.73228840802526
 10
16.17310410836992
 20
-13.70603678042766
 10
16.14430311011323
 20
-13.66032036333839
 10
16.14430311011323
 20
-13.59937662420432
 10
16.14430311011323
 20
-13.50198377483631
 10
16.21458305801233
 20
-13.43339192372498
 10
16.32213893906183
 20
-13.43339192372498
 10
16.42290798200538
 20
-13.43339192372498
 10
16.51602891297168
 20
-13.50198377483631
 10
16.51602891297168
 20
-13.6162920430369
 10
16.51602891297168
 20
-13.73397650481303
 10
16.42459607879315
 20
-13.81104329081807
 10
16.28148681233588
 20
-13.81104329081807
 10
16.17310410836992
 20
-13.81104329081807
 10
16.08759683842602
 20
-13.7720792608799
 10
16.03340548644303
 20
-13.71788790889692
 10
15.98851589227023
 20
-13.67217149180765
 10
15.96057616788485
 20
-13.61122775267358
 10
15.95210123299114
 20
-13.54177462769094
 10
15.9487250394156
 20
-13.5197604675402
 10
15.94786376554428
 20
-13.501122500965
 10
15.94786376554428
 20
-13.48758327570796
 10
15.94786376554428
 20
-13.48758327570796
 10
16.0088419556332
 20
-13.48758327570796
 10
16.0088419556332
 20
-13.48758327570796
 97
        0
 97
        0
 92
        1
 93
        1
 72
     4
 94
        3
 73
     0
 74
     0
 95
       20
 96
       16
 40
0.0
 40
0.0
 40
0.0
 40
0.0
 40
1.0
 40
1.0
 40
1.0
 40
2.0
 40
2.0
 40
2.0
 40
3.0
 40
3.0
 40
3.0
 40
4.0
 40
4.0
 40
4.0
 40
5.0
 40
5.0
 40
5.0
 40
5.0
 10
16.32637640650868
 20
-13.50877061294225
 10
16.24762152371587
 20
-13.50877061294225
 10
16.20018255888398
 20
-13.5536257561602
 10
16.20018255888398
 20
-13.62221760727153
 10
16.20018255888398
 20
-13.66710720144433
 10
16.22815673422421
 20
-13.70858615108674
 10
16.26794758707884
 20
-13.72891221444972
 10
16.27642252197256
 20
-13.73397650481303
 10
16.28741237657051
 20
-13.73738714934343
 10
16.30095160182754
 20
-13.73738714934343
 10
16.39155761308961
 20
-13.7356646016008
 10
16.45846136741316
 20
-13.6941856519584
 10
16.45846136741316
 20
-13.6162920430369
 10
16.45846136741316
 20
-13.55193765937243
 10
16.40509683834664
 20
-13.50877061294225
 10
16.32637640650868
 20
-13.50877061294225
 97
        0
 97
        0
 75
     2
 76
     1
 98
        0
450
        0
451
        0
460
0.0
461
0.0
452
        0
462
0.0
453
        0
470

  0
SPLINE
  5
90
330
89
100
AcDbEntity
  8
Livello 3
370
     0
100
AcDbSpline
210
0.0
220
0.0
230
1.0
 70
     9
 71
     3
 72
    17
 73
    13
 74
     0
 42
0.000000001
 43
0.0000000001
 40
0.0
 40
0.0
 40
0.0
 40
0.0
 40
1.0
 40
1.0
 40
1.0
 40
2.0
 40
2.0
 40
2.0
 40
3.0
 40
3.0
 40
3.0
 40
4.0
 40
4.0
 40
4.0
 40
4.0
 10
16.22560736356511
 20
-13.00158365560377
 30
0.0
 10
16.41274495032389
 20
-13.00158365560377
 30
0.0
 10
16.51602891297168
 20
-13.07103678058641
 30
0.0
 10
16.51602891297168
 20
-13.19299316076425
 30
0.0
 10
16.51602891297168
 20
-13.3005145908589
 30
0.0
 10
16.41525987002813
 20
-13.37330945846223
 30
0.0
 10
16.23322102458753
 20
-13.37503200620485
 30
0.0
 10
16.04863280848784
 20
-13.37503200620485
 30
0.0
 10
15.94703694262782
 20
-13.29545030049558
 30
0.0
 10
15.94703694262782
 20
-13.18365695199922
 30
0.0
 10
15.94703694262782
 20
-13.06766058701086
 30
0.0
 10
16.05032090527561
 20
-13.00158365560377
 30
0.0
 10
16.22560736356511
 20
-13.00158365560377
 30
0.0
  0
SPLINE
  5
91
330
89
100
AcDbEntity
  8
Livello 3
370
     0
100
AcDbSpline
210
0.0
220
0.0
230
1.0
 70
     9
 71
     3
 72
    17
 73
    13
 74
     0
 42
0.000000001
 43
0.0000000001
 40
0.0
 40
0.0
 40
0.0
 40
0.0
 40
1.0
 40
1.0
 40
1.0
 40
2.0
 40
2.0
 40
2.0
 40
3.0
 40
3.0
 40
3.0
 40
4.0
 40
4.0
 40
4.0
 40
4.0
 10
16.23408229845884
 20
-13.3005145908589
 30
0.0
 10
16.37715711396126
 20
-13.3005145908589
 30
0.0
 10
16.45846136741316
 20
-13.2564862705574
 30
0.0
 10
16.45846136741316
 20
-13.18872124236254
 30
0.0
 10
16.45846136741316
 20
-13.11251573022881
 30
0.0
 10
16.36954345293886
 20
-13.07613552190458
 30
0.0
 10
16.22898355714067
 20
-13.07613552190458
 30
0.0
 10
16.09352240266065
 20
-13.07613552190458
 30
0.0
 10
16.00460448818635
 20
-13.11086208439589
 30
0.0
 10
16.00460448818635
 20
-13.18789441944608
 30
0.0
 10
16.00460448818635
 20
-13.25307562602701
 30
0.0
 10
16.08418619389562
 20
-13.3005145908589
 30
0.0
 10
16.23408229845884
 20
-13.3005145908589
 30
0.0
  0
HATCH
  5
92
330
89
100
AcDbEntity
  8
Livello 3
 62
   250
420
  1842203
100
AcDbHatch
 10
0.0
 20
0.0
 30
0.0
210
0.0
220
0.0
230
1.0
  2
SOLID
 70
     1
 71
     0
 91
        2
 92
        1
 93
        1
 72
     4
 94
        3
 73
     0
 74
     0
 95
       17
 96
       13
 40
0.0
 40
0.0
 40
0.0
 40
0.0
 40
1.0
 40
1.0
 40
1.0
 40
2.0
 40
2.0
 40
2.0
 40
3.0
 40
3.0
 40
3.0
 40
4.0
 40
4.0
 40
4.0
 40
4.0
 10
16.22560736356511
 20
-13.00158365560377
 10
16.41274495032389
 20
-13.00158365560377
 10
16.51602891297168
 20
-13.07103678058641
 10
16.51602891297168
 20
-13.19299316076425
 10
16.51602891297168
 20
-13.3005145908589
 10
16.41525987002813
 20
-13.37330945846223
 10
16.23322102458753
 20
-13.37503200620485
 10
16.04863280848784
 20
-13.37503200620485
 10
15.94703694262782
 20
-13.29545030049558
 10
15.94703694262782
 20
-13.18365695199922
 10
15.94703694262782
 20
-13.06766058701086
 10
16.05032090527561
 20
-13.00158365560377
 10
16.22560736356511
 20
-13.00158365560377
 97
        0
 97
        0
 92
        1
 93
        1
 72
     4
 94
        3
 73
     0
 74
     0
 95
       17
 96
       13
 40
0.0
 40
0.0
 40
0.0
 40
0.0
 40
1.0
 40
1.0
 40
1.0
 40
2.0
 40
2.0
 40
2.0
 40
3.0
 40
3.0
 40
3.0
 40
4.0
 40
4.0
 40
4.0
 40
4.0
 10
16.23408229845884
 20
-13.3005145908589
 10
16.37715711396126
 20
-13.3005145908589
 10
16.45846136741316
 20
-13.2564862705574
 10
16.45846136741316
 20
-13.18872124236254
 10
16.45846136741316
 20
-13.11251573022881
 10
16.36954345293886
 20
-13.07613552190458
 10
16.22898355714067
 20
-13.07613552190458
 10
16.09352240266065
 20
-13.07613552190458
 10
16.00460448818635
 20
-13.11086208439589
 10
16.00460448818635
 20
-13.18789441944608
 10
16.00460448818635
 20
-13.25307562602701
 10
16.08418619389562
 20
-13.3005145908589
 10
16.23408229845884
 20
-13.3005145908589
 97
        0
 97
        0
 75
     2
 76
     1
 98
        0
450
        0
451
        0
460
0.0
461
0.0
452
        0
462
0.0
453
        0
470

  0
ENDBLK
  5
8C
330
89
100
AcDbEntity
  8
0
100
AcDbBlockEnd
  0
BLOCK
  5
95
330
93
100
AcDbEntity
  8
0
100
AcDbBlockBegin
  2
block 8
 70
     0
 10
0.0
 20
0.0
 30
0.0
  3
block 8
  1

  0
SPLINE
  5
97
330
93
100
AcDbEntity
  8
Livello 3
370
     0
100
AcDbSpline
210
0.0
220
0.0
230
1.0
 70
    11
 71
     3
 72
    47
 73
    43
 74
     0
 42
0.000000001
 43
0.0000000001
 40
0.0
 40
0.0
 40
0.0
 40
0.0
 40
1.0
 40
1.0
 40
1.0
 40
2.0
 40
2.0
 40
2.0
 40
3.0
 40
3.0
 40
3.0
 40
4.0
 40
4.0
 40
4.0
 40
5.0
 40
5.0
 40
5.0
 40
6.0
 40
6.0
 40
6.0
 40
7.0
 40
7.0
 40
7.0
 40
8.0
 40
8.0
 40
8.0
 40
9.0
 40
9.0
 40
9.0
 40
10.0
 40
10.0
 40
10.0
 40
11.0
 40
11.0
 40
11.0
 40
12.0
 40
12.0
 40
12.0
 40
13.0
 40
13.0
 40
13.0
 40
14.0
 40
14.0
 40
14.0
 40
14.0
 10
13.94817531660844
 20
-7.468656953427974
 30
0.0
 10
13.94817531660844
 20
-7.468656953427974
 30
0.0
 10
13.94817531660844
 20
-7.422940536338708
 30
0.0
 10
13.94817531660844
 20
-7.422940536338708
 30
0.0
 10
13.94817531660844
 20
-7.422940536338708
 30
0.0
 10
14.00660413603828
 20
-7.366199813696643
 30
0.0
 10
14.00660413603828
 20
-7.366199813696643
 30
0.0
 10
14.14716403183647
 20
-7.232409530526968
 30
0.0
 10
14.21065714162963
 20
-7.161285534233983
 30
0.0
 10
14.21151841550094
 20
-7.078310409471741
 30
0.0
 10
14.21151841550094
 20
-7.022430960700988
 30
0.0
 10
14.18442273950945
 20
-6.970771753899668
 30
0.0
 10
14.10227443766367
 20
-6.970771753899668
 30
0.0
 10
14.05232055312754
 20
-6.970771753899668
 30
0.0
 10
14.01084160348514
 20
-6.996179333103384
 30
0.0
 10
13.98543402428142
 20
-7.017349444860245
 30
0.0
 10
13.98543402428142
 20
-7.017349444860245
 30
0.0
 10
13.9617317673429
 20
-6.964846189665037
 30
0.0
 10
13.9617317673429
 20
-6.964846189665037
 30
0.0
 10
13.99983452340976
 20
-6.932668997832803
 30
0.0
 10
14.05402587539274
 20
-6.908966740894286
 30
0.0
 10
14.1175189851859
 20
-6.908966740894286
 30
0.0
 10
14.23606472083334
 20
-6.908966740894286
 30
0.0
 10
14.28601860536947
 20
-6.990253768868755
 30
0.0
 10
14.28601860536947
 20
-7.068991426184141
 30
0.0
 10
14.28601860536947
 20
-7.170604517521585
 30
0.0
 10
14.21236246389483
 20
-7.252735593889941
 30
0.0
 10
14.09634887342904
 20
-7.364511716908871
 30
0.0
 10
14.09634887342904
 20
-7.364511716908871
 30
0.0
 10
14.05232055312754
 20
-7.405146618157393
 30
0.0
 10
14.05232055312754
 20
-7.405146618157393
 30
0.0
 10
14.05232055312754
 20
-7.405146618157393
 30
0.0
 10
14.05232055312754
 20
-7.406851940422593
 30
0.0
 10
14.05232055312754
 20
-7.406851940422593
 30
0.0
 10
14.05232055312754
 20
-7.406851940422593
 30
0.0
 10
14.29957505610392
 20
-7.406851940422593
 30
0.0
 10
14.29957505610392
 20
-7.406851940422593
 30
0.0
 10
14.29957505610392
 20
-7.406851940422593
 30
0.0
 10
14.29957505610392
 20
-7.468656953427974
 30
0.0
 10
14.29957505610392
 20
-7.468656953427974
 30
0.0
 10
14.29957505610392
 20
-7.468656953427974
 30
0.0
 10
13.94817531660844
 20
-7.468656953427974
 30
0.0
 10
13.94817531660844
 20
-7.468656953427974
 30
0.0
  0
HATCH
  5
98
330
93
100
AcDbEntity
  8
Livello 3
 62
   250
420
  1842203
100
AcDbHatch
 10
0.0
 20
0.0
 30
0.0
210
0.0
220
0.0
230
1.0
  2
SOLID
 70
     1
 71
     0
 91
        1
 92
        1
 93
        1
 72
     4
 94
        3
 73
     0
 74
     0
 95
       47
 96
       43
 40
0.0
 40
0.0
 40
0.0
 40
0.0
 40
1.0
 40
1.0
 40
1.0
 40
2.0
 40
2.0
 40
2.0
 40
3.0
 40
3.0
 40
3.0
 40
4.0
 40
4.0
 40
4.0
 40
5.0
 40
5.0
 40
5.0
 40
6.0
 40
6.0
 40
6.0
 40
7.0
 40
7.0
 40
7.0
 40
8.0
 40
8.0
 40
8.0
 40
9.0
 40
9.0
 40
9.0
 40
10.0
 40
10.0
 40
10.0
 40
11.0
 40
11.0
 40
11.0
 40
12.0
 40
12.0
 40
12.0
 40
13.0
 40
13.0
 40
13.0
 40
14.0
 40
14.0
 40
14.0
 40
14.0
 10
13.94817531660844
 20
-7.468656953427974
 10
13.94817531660844
 20
-7.468656953427974
 10
13.94817531660844
 20
-7.422940536338708
 10
13.94817531660844
 20
-7.422940536338708
 10
13.94817531660844
 20
-7.422940536338708
 10
14.00660413603828
 20
-7.366199813696643
 10
14.00660413603828
 20
-7.366199813696643
 10
14.14716403183647
 20
-7.232409530526968
 10
14.21065714162963
 20
-7.161285534233983
 10
14.21151841550094
 20
-7.078310409471741
 10
14.21151841550094
 20
-7.022430960700988
 10
14.18442273950945
 20
-6.970771753899668
 10
14.10227443766367
 20
-6.970771753899668
 10
14.05232055312754
 20
-6.970771753899668
 10
14.01084160348514
 20
-6.996179333103384
 10
13.98543402428142
 20
-7.017349444860245
 10
13.98543402428142
 20
-7.017349444860245
 10
13.9617317673429
 20
-6.964846189665037
 10
13.9617317673429
 20
-6.964846189665037
 10
13.99983452340976
 20
-6.932668997832803
 10
14.05402587539274
 20
-6.908966740894286
 10
14.1175189851859
 20
-6.908966740894286
 10
14.23606472083334
 20
-6.908966740894286
 10
14.28601860536947
 20
-6.990253768868755
 10
14.28601860536947
 20
-7.068991426184141
 10
14.28601860536947
 20
-7.170604517521585
 10
14.21236246389483
 20
-7.252735593889941
 10
14.09634887342904
 20
-7.364511716908871
 10
14.09634887342904
 20
-7.364511716908871
 10
14.05232055312754
 20
-7.405146618157393
 10
14.05232055312754
 20
-7.405146618157393
 10
14.05232055312754
 20
-7.405146618157393
 10
14.05232055312754
 20
-7.406851940422593
 10
14.05232055312754
 20
-7.406851940422593
 10
14.05232055312754
 20
-7.406851940422593
 10
14.29957505610392
 20
-7.406851940422593
 10
14.29957505610392
 20
-7.406851940422593
 10
14.29957505610392
 20
-7.406851940422593
 10
14.29957505610392
 20
-7.468656953427974
 10
14.29957505610392
 20
-7.468656953427974
 10
14.29957505610392
 20
-7.468656953427974
 10
13.94817531660844
 20
-7.468656953427974
 10
13.94817531660844
 20
-7.468656953427974
 97
        0
 97
        0
 75
     2
 76
     1
 98
        0
450
        0
451
        0
460
0.0
461
0.0
452
        0
462
0.0
453
        0
470

  0
SPLINE
  5
99
330
93
100
AcDbEntity
  8
Livello 3
370
     0
100
AcDbSpline
210
0.0
220
0.0
230
1.0
 70
     9
 71
     3
 72
    59
 73
    55
 74
     0
 42
0.000000001
 43
0.0000000001
 40
0.0
 40
0.0
 40
0.0
 40
0.0
 40
1.0
 40
1.0
 40
1.0
 40
2.0
 40
2.0
 40
2.0
 40
3.0
 40
3.0
 40
3.0
 40
4.0
 40
4.0
 40
4.0
 40
5.0
 40
5.0
 40
5.0
 40
6.0
 40
6.0
 40
6.0
 40
7.0
 40
7.0
 40
7.0
 40
8.0
 40
8.0
 40
8.0
 40
9.0
 40
9.0
 40
9.0
 40
10.0
 40
10.0
 40
10.0
 40
11.0
 40
11.0
 40
11.0
 40
12.0
 40
12.0
 40
12.0
 40
13.0
 40
13.0
 40
13.0
 40
14.0
 40
14.0
 40
14.0
 40
15.0
 40
15.0
 40
15.0
 40
16.0
 40
16.0
 40
16.0
 40
17.0
 40
17.0
 40
17.0
 40
18.0
 40
18.0
 40
18.0
 40
18.0
 10
14.40027519713778
 20
-7.383132458006647
 30
0.0
 10
14.42144530889464
 20
-7.396688908741105
 30
0.0
 10
14.47055514503687
 20
-7.417859020497964
 30
0.0
 10
14.5222143518382
 20
-7.417859020497964
 30
0.0
 10
14.61788465346358
 20
-7.417859020497964
 30
0.0
 10
14.64752970011416
 20
-7.356880830409043
 30
0.0
 10
14.64668565172027
 20
-7.311164413319777
 30
0.0
 10
14.64584160332639
 20
-7.234114852792165
 30
0.0
 10
14.57640570382117
 20
-7.201093612566044
 30
0.0
 10
14.50443765913431
 20
-7.201093612566044
 30
0.0
 10
14.50443765913431
 20
-7.201093612566044
 30
0.0
 10
14.46294148401447
 20
-7.201093612566044
 30
0.0
 10
14.46294148401447
 20
-7.201093612566044
 30
0.0
 10
14.46294148401447
 20
-7.201093612566044
 30
0.0
 10
14.46294148401447
 20
-7.145196938317867
 30
0.0
 10
14.46294148401447
 20
-7.145196938317867
 30
0.0
 10
14.46294148401447
 20
-7.145196938317867
 30
0.0
 10
14.50443765913431
 20
-7.145196938317867
 30
0.0
 10
14.50443765913431
 20
-7.145196938317867
 30
0.0
 10
14.55862901111729
 20
-7.145196938317867
 30
0.0
 10
14.62720363675118
 20
-7.117257213932491
 30
0.0
 10
14.62720363675118
 20
-7.052058781874138
 30
0.0
 10
14.62720363675118
 20
-7.008030461572644
 30
0.0
 10
14.59926391236581
 20
-6.969083657111895
 30
0.0
 10
14.53067206125448
 20
-6.969083657111895
 30
0.0
 10
14.48664374095299
 20
-6.969083657111895
 30
0.0
 10
14.44430351743927
 20
-6.988548446603558
 30
0.0
 10
14.42060126050075
 20
-7.005498316390986
 30
0.0
 10
14.42060126050075
 20
-7.005498316390986
 30
0.0
 10
14.40111924553166
 20
-6.951306964408005
 30
0.0
 10
14.40111924553166
 20
-6.951306964408005
 30
0.0
 10
14.42992024378835
 20
-6.930136852651146
 30
0.0
 10
14.48579969255911
 20
-6.908966740894286
 30
0.0
 10
14.54507256038283
 20
-6.908966740894286
 30
0.0
 10
14.65345526434879
 20
-6.908966740894286
 30
0.0
 10
14.70256510049103
 20
-6.973321124558752
 30
0.0
 10
14.70256510049103
 20
-7.040207653404878
 30
0.0
 10
14.70256510049103
 20
-7.096931150569517
 30
0.0
 10
14.66869981187102
 20
-7.145196938317867
 30
0.0
 10
14.60095200915358
 20
-7.169760469127699
 30
0.0
 10
14.60095200915358
 20
-7.169760469127699
 30
0.0
 10
14.60095200915358
 20
-7.171448565915471
 30
0.0
 10
14.60095200915358
 20
-7.171448565915471
 30
0.0
 10
14.66869981187102
 20
-7.185005016649928
 30
0.0
 10
14.72373521224788
 20
-7.235802949579937
 30
0.0
 10
14.72373521224788
 20
-7.312852510107549
 30
0.0
 10
14.72373521224788
 20
-7.400926376187963
 30
0.0
 10
14.65514336113656
 20
-7.477975936715575
 30
0.0
 10
14.52305840023208
 20
-7.477975936715575
 30
0.0
 10
14.46125338722669
 20
-7.477975936715575
 30
0.0
 10
14.40706203524372
 20
-7.458493921746487
 30
0.0
 10
14.37996635925223
 20
-7.440717229042597
 30
0.0
 10
14.37996635925223
 20
-7.440717229042597
 30
0.0
 10
14.40027519713778
 20
-7.383132458006647
 30
0.0
 10
14.40027519713778
 20
-7.383132458006647
 30
0.0
  0
HATCH
  5
9A
330
93
100
AcDbEntity
  8
Livello 3
 62
   250
420
  1842203
100
AcDbHatch
 10
0.0
 20
0.0
 30
0.0
210
0.0
220
0.0
230
1.0
  2
SOLID
 70
     1
 71
     0
 91
        1
 92
        1
 93
        1
 72
     4
 94
        3
 73
     0
 74
     0
 95
       59
 96
       55
 40
0.0
 40
0.0
 40
0.0
 40
0.0
 40
1.0
 40
1.0
 40
1.0
 40
2.0
 40
2.0
 40
2.0
 40
3.0
 40
3.0
 40
3.0
 40
4.0
 40
4.0
 40
4.0
 40
5.0
 40
5.0
 40
5.0
 40
6.0
 40
6.0
 40
6.0
 40
7.0
 40
7.0
 40
7.0
 40
8.0
 40
8.0
 40
8.0
 40
9.0
 40
9.0
 40
9.0
 40
10.0
 40
10.0
 40
10.0
 40
11.0
 40
11.0
 40
11.0
 40
12.0
 40
12.0
 40
12.0
 40
13.0
 40
13.0
 40
13.0
 40
14.0
 40
14.0
 40
14.0
 40
15.0
 40
15.0
 40
15.0
 40
16.0
 40
16.0
 40
16.0
 40
17.0
 40
17.0
 40
17.0
 40
18.0
 40
18.0
 40
18.0
 40
18.0
 10
14.40027519713778
 20
-7.383132458006647
 10
14.42144530889464
 20
-7.396688908741105
 10
14.47055514503687
 20
-7.417859020497964
 10
14.5222143518382
 20
-7.417859020497964
 10
14.61788465346358
 20
-7.417859020497964
 10
14.64752970011416
 20
-7.356880830409043
 10
14.64668565172027
 20
-7.311164413319777
 10
14.64584160332639
 20
-7.234114852792165
 10
14.57640570382117
 20
-7.201093612566044
 10
14.50443765913431
 20
-7.201093612566044
 10
14.50443765913431
 20
-7.201093612566044
 10
14.46294148401447
 20
-7.201093612566044
 10
14.46294148401447
 20
-7.201093612566044
 10
14.46294148401447
 20
-7.201093612566044
 10
14.46294148401447
 20
-7.145196938317867
 10
14.46294148401447
 20
-7.145196938317867
 10
14.46294148401447
 20
-7.145196938317867
 10
14.50443765913431
 20
-7.145196938317867
 10
14.50443765913431
 20
-7.145196938317867
 10
14.55862901111729
 20
-7.145196938317867
 10
14.62720363675118
 20
-7.117257213932491
 10
14.62720363675118
 20
-7.052058781874138
 10
14.62720363675118
 20
-7.008030461572644
 10
14.59926391236581
 20
-6.969083657111895
 10
14.53067206125448
 20
-6.969083657111895
 10
14.48664374095299
 20
-6.969083657111895
 10
14.44430351743927
 20
-6.988548446603558
 10
14.42060126050075
 20
-7.005498316390986
 10
14.42060126050075
 20
-7.005498316390986
 10
14.40111924553166
 20
-6.951306964408005
 10
14.40111924553166
 20
-6.951306964408005
 10
14.42992024378835
 20
-6.930136852651146
 10
14.48579969255911
 20
-6.908966740894286
 10
14.54507256038283
 20
-6.908966740894286
 10
14.65345526434879
 20
-6.908966740894286
 10
14.70256510049103
 20
-6.973321124558752
 10
14.70256510049103
 20
-7.040207653404878
 10
14.70256510049103
 20
-7.096931150569517
 10
14.66869981187102
 20
-7.145196938317867
 10
14.60095200915358
 20
-7.169760469127699
 10
14.60095200915358
 20
-7.169760469127699
 10
14.60095200915358
 20
-7.171448565915471
 10
14.60095200915358
 20
-7.171448565915471
 10
14.66869981187102
 20
-7.185005016649928
 10
14.72373521224788
 20
-7.235802949579937
 10
14.72373521224788
 20
-7.312852510107549
 10
14.72373521224788
 20
-7.400926376187963
 10
14.65514336113656
 20
-7.477975936715575
 10
14.52305840023208
 20
-7.477975936715575
 10
14.46125338722669
 20
-7.477975936715575
 10
14.40706203524372
 20
-7.458493921746487
 10
14.37996635925223
 20
-7.440717229042597
 10
14.37996635925223
 20
-7.440717229042597
 10
14.40027519713778
 20
-7.383132458006647
 10
14.40027519713778
 20
-7.383132458006647
 97
        0
 97
        0
 75
     2
 76
     1
 98
        0
450
        0
451
        0
460
0.0
461
0.0
452
        0
462
0.0
453
        0
470

  0
ENDBLK
  5
96
330
93
100
AcDbEntity
  8
0
100
AcDbBlockEnd
  0
BLOCK
  5
9D
330
9B
100
AcDbEntity
  8
0
100
AcDbBlockBegin
  2
block 9
 70
     0
 10
0.0
 20
0.0
 30
0.0
  3
block 9
  1

  0
SPLINE
  5
9F
330
9B
100
AcDbEntity
  8
Livello 3
370
     0
100
AcDbSpline
210
0.0
220
0.0
230
1.0
 70
    11
 71
     3
 72
    47
 73
    43
 74
     0
 42
0.000000001
 43
0.0000000001
 40
0.0
 40
0.0
 40
0.0
 40
0.0
 40
1.0
 40
1.0
 40
1.0
 40
2.0
 40
2.0
 40
2.0
 40
3.0
 40
3.0
 40
3.0
 40
4.0
 40
4.0
 40
4.0
 40
5.0
 40
5.0
 40
5.0
 40
6.0
 40
6.0
 40
6.0
 40
7.0
 40
7.0
 40
7.0
 40
8.0
 40
8.0
 40
8.0
 40
9.0
 40
9.0
 40
9.0
 40
10.0
 40
10.0
 40
10.0
 40
11.0
 40
11.0
 40
11.0
 40
12.0
 40
12.0
 40
12.0
 40
13.0
 40
13.0
 40
13.0
 40
14.0
 40
14.0
 40
14.0
 40
14.0
 10
18.05695122161423
 20
-4.873380397002141
 30
0.0
 10
18.05695122161423
 20
-4.873380397002141
 30
0.0
 10
18.01123480452497
 20
-4.873380397002141
 30
0.0
 10
18.01123480452497
 20
-4.873380397002141
 30
0.0
 10
18.01123480452497
 20
-4.873380397002141
 30
0.0
 10
17.9544940818829
 20
-4.814951577572303
 30
0.0
 10
17.9544940818829
 20
-4.814951577572303
 30
0.0
 10
17.8206865732358
 20
-4.67439168177411
 30
0.0
 10
17.74957980242024
 20
-4.610898571980956
 30
0.0
 10
17.66658745218058
 20
-4.610037298109643
 30
0.0
 10
17.61070800340982
 20
-4.610037298109643
 30
0.0
 10
17.55906602208593
 20
-4.637132974101132
 30
0.0
 10
17.55906602208593
 20
-4.719281275946915
 30
0.0
 10
17.55906602208593
 20
-4.769235160483039
 30
0.0
 10
17.58445637581222
 20
-4.810714110125446
 30
0.0
 10
17.6056437130465
 20
-4.836121689329163
 30
0.0
 10
17.6056437130465
 20
-4.836121689329163
 30
0.0
 10
17.5531404578513
 20
-4.859823946267681
 30
0.0
 10
17.5531404578513
 20
-4.859823946267681
 30
0.0
 10
17.52096326601906
 20
-4.82172119020082
 30
0.0
 10
17.49726100908055
 20
-4.767529838217839
 30
0.0
 10
17.49726100908055
 20
-4.704036728424684
 30
0.0
 10
17.49726100908055
 20
-4.585490992777238
 30
0.0
 10
17.57853081157759
 20
-4.535537108241115
 30
0.0
 10
17.6572856943704
 20
-4.535537108241115
 30
0.0
 10
17.75888156023042
 20
-4.535537108241115
 30
0.0
 10
17.84101263659877
 20
-4.609193249715756
 30
0.0
 10
17.95280598509513
 20
-4.725206840181544
 30
0.0
 10
17.95280598509513
 20
-4.725206840181544
 30
0.0
 10
17.99342366086623
 20
-4.769235160483039
 30
0.0
 10
17.99342366086623
 20
-4.769235160483039
 30
0.0
 10
17.99342366086623
 20
-4.769235160483039
 30
0.0
 10
17.99514620860885
 20
-4.769235160483039
 30
0.0
 10
17.99514620860885
 20
-4.769235160483039
 30
0.0
 10
17.99514620860885
 20
-4.769235160483039
 30
0.0
 10
17.99514620860885
 20
-4.521980657506657
 30
0.0
 10
17.99514620860885
 20
-4.521980657506657
 30
0.0
 10
17.99514620860885
 20
-4.521980657506657
 30
0.0
 10
18.05695122161423
 20
-4.521980657506657
 30
0.0
 10
18.05695122161423
 20
-4.521980657506657
 30
0.0
 10
18.05695122161423
 20
-4.521980657506657
 30
0.0
 10
18.05695122161423
 20
-4.873380397002141
 30
0.0
 10
18.05695122161423
 20
-4.873380397002141
 30
0.0
  0
HATCH
  5
A0
330
9B
100
AcDbEntity
  8
Livello 3
 62
   250
420
  1842203
100
AcDbHatch
 10
0.0
 20
0.0
 30
0.0
210
0.0
220
0.0
230
1.0
  2
SOLID
 70
     1
 71
     0
 91
        1
 92
        1
 93
        1
 72
     4
 94
        3
 73
     0
 74
     0
 95
       47
 96
       43
 40
0.0
 40
0.0
 40
0.0
 40
0.0
 40
1.0
 40
1.0
 40
1.0
 40
2.0
 40
2.0
 40
2.0
 40
3.0
 40
3.0
 40
3.0
 40
4.0
 40
4.0
 40
4.0
 40
5.0
 40
5.0
 40
5.0
 40
6.0
 40
6.0
 40
6.0
 40
7.0
 40
7.0
 40
7.0
 40
8.0
 40
8.0
 40
8.0
 40
9.0
 40
9.0
 40
9.0
 40
10.0
 40
10.0
 40
10.0
 40
11.0
 40
11.0
 40
11.0
 40
12.0
 40
12.0
 40
12.0
 40
13.0
 40
13.0
 40
13.0
 40
14.0
 40
14.0
 40
14.0
 40
14.0
 10
18.05695122161423
 20
-4.873380397002141
 10
18.05695122161423
 20
-4.873380397002141
 10
18.01123480452497
 20
-4.873380397002141
 10
18.01123480452497
 20
-4.873380397002141
 10
18.01123480452497
 20
-4.873380397002141
 10
17.9544940818829
 20
-4.814951577572303
 10
17.9544940818829
 20
-4.814951577572303
 10
17.8206865732358
 20
-4.67439168177411
 10
17.74957980242024
 20
-4.610898571980956
 10
17.66658745218058
 20
-4.610037298109643
 10
17.61070800340982
 20
-4.610037298109643
 10
17.55906602208593
 20
-4.637132974101132
 10
17.55906602208593
 20
-4.719281275946915
 10
17.55906602208593
 20
-4.769235160483039
 10
17.58445637581222
 20
-4.810714110125446
 10
17.6056437130465
 20
-4.836121689329163
 10
17.6056437130465
 20
-4.836121689329163
 10
17.5531404578513
 20
-4.859823946267681
 10
17.5531404578513
 20
-4.859823946267681
 10
17.52096326601906
 20
-4.82172119020082
 10
17.49726100908055
 20
-4.767529838217839
 10
17.49726100908055
 20
-4.704036728424684
 10
17.49726100908055
 20
-4.585490992777238
 10
17.57853081157759
 20
-4.535537108241115
 10
17.6572856943704
 20
-4.535537108241115
 10
17.75888156023042
 20
-4.535537108241115
 10
17.84101263659877
 20
-4.609193249715756
 10
17.95280598509513
 20
-4.725206840181544
 10
17.95280598509513
 20
-4.725206840181544
 10
17.99342366086623
 20
-4.769235160483039
 10
17.99342366086623
 20
-4.769235160483039
 10
17.99342366086623
 20
-4.769235160483039
 10
17.99514620860885
 20
-4.769235160483039
 10
17.99514620860885
 20
-4.769235160483039
 10
17.99514620860885
 20
-4.769235160483039
 10
17.99514620860885
 20
-4.521980657506657
 10
17.99514620860885
 20
-4.521980657506657
 10
17.99514620860885
 20
-4.521980657506657
 10
18.05695122161423
 20
-4.521980657506657
 10
18.05695122161423
 20
-4.521980657506657
 10
18.05695122161423
 20
-4.521980657506657
 10
18.05695122161423
 20
-4.873380397002141
 10
18.05695122161423
 20
-4.873380397002141
 97
        0
 97
        0
 75
     2
 76
     1
 98
        0
450
        0
451
        0
460
0.0
461
0.0
452
        0
462
0.0
453
        0
470

  0
POLYLINE
  5
A1
330
9B
100
AcDbEntity
  8
Livello 3
370
     0
100
AcDb2dPolyline
 66
     1
 10
0.0
 20
0.0
 30
0.0
  0
VERTEX
  5
A2
330
A1
100
AcDbEntity
  8
Livello 3
370
     0
100
AcDbVertex
100
AcDb2dVertex
 10
18.05695122161423
 20
-4.208735350510316
 30
0.0
  0
VERTEX
  5
A3
330
A1
100
AcDbEntity
  8
Livello 3
370
     0
100
AcDbVertex
100
AcDb2dVertex
 10
17.90705511705101
 20
-4.208735350510316
 30
0.0
  0
VERTEX
  5
A4
330
A1
100
AcDbEntity
  8
Livello 3
370
     0
100
AcDbVertex
100
AcDb2dVertex
 10
17.90705511705101
 20
-4.464464788380411
 30
0.0
  0
VERTEX
  5
A5
330
A1
100
AcDbEntity
  8
Livello 3
370
     0
100
AcDbVertex
100
AcDb2dVertex
 10
17.8579625063862
 20
-4.464464788380411
 30
0.0
  0
VERTEX
  5
A6
330
A1
100
AcDbEntity
  8
Livello 3
370
     0
100
AcDbVertex
100
AcDb2dVertex
 10
17.50656276689072
 20
-4.218898382191803
 30
0.0
  0
VERTEX
  5
A7
330
A1
100
AcDbEntity
  8
Livello 3
370
     0
100
AcDbVertex
100
AcDb2dVertex
 10
17.50656276689072
 20
-4.138455402611218
 30
0.0
  0
VERTEX
  5
A8
330
A1
100
AcDbEntity
  8
Livello 3
370
     0
100
AcDbVertex
100
AcDb2dVertex
 10
17.84866074857603
 20
-4.138455402611218
 30
0.0
  0
VERTEX
  5
A9
330
A1
100
AcDbEntity
  8
Livello 3
370
     0
100
AcDbVertex
100
AcDb2dVertex
 10
17.84866074857603
 20
-4.061405842083606
 30
0.0
  0
VERTEX
  5
AA
330
A1
100
AcDbEntity
  8
Livello 3
370
     0
100
AcDbVertex
100
AcDb2dVertex
 10
17.90705511705101
 20
-4.061405842083606
 30
0.0
  0
VERTEX
  5
AB
330
A1
100
AcDbEntity
  8
Livello 3
370
     0
100
AcDbVertex
100
AcDb2dVertex
 10
17.90705511705101
 20
-4.138455402611218
 30
0.0
  0
VERTEX
  5
AC
330
A1
100
AcDbEntity
  8
Livello 3
370
     0
100
AcDbVertex
100
AcDb2dVertex
 10
18.05695122161423
 20
-4.138455402611218
 30
0.0
  0
VERTEX
  5
AD
330
A1
100
AcDbEntity
  8
Livello 3
370
     0
100
AcDbVertex
100
AcDb2dVertex
 10
18.05695122161423
 20
-4.208735350510316
 30
0.0
  0
SEQEND
  5
AE
330
A1
100
AcDbEntity
  8
Livello 3
370
     0
  0
SPLINE
  5
AF
330
9B
100
AcDbEntity
  8
Livello 3
370
     0
100
AcDbSpline
210
0.0
220
0.0
230
1.0
 70
    11
 71
     3
 72
    26
 73
    22
 74
     0
 42
0.000000001
 43
0.0000000001
 40
0.0
 40
0.0
 40
0.0
 40
0.0
 40
1.0
 40
1.0
 40
1.0
 40
2.0
 40
2.0
 40
2.0
 40
3.0
 40
3.0
 40
3.0
 40
4.0
 40
4.0
 40
4.0
 40
5.0
 40
5.0
 40
5.0
 40
6.0
 40
6.0
 40
6.0
 40
7.0
 40
7.0
 40
7.0
 40
7.0
 10
17.84866074857603
 20
-4.208735350510316
 30
0.0
 10
17.84866074857603
 20
-4.208735350510316
 30
0.0
 10
17.6648993553928
 20
-4.208735350510316
 30
0.0
 10
17.6648993553928
 20
-4.208735350510316
 30
0.0
 10
17.63609835713611
 20
-4.208735350510316
 30
0.0
 10
17.60733180983428
 20
-4.20789130211643
 30
0.0
 10
17.57853081157759
 20
-4.206203205328658
 30
0.0
 10
17.57853081157759
 20
-4.206203205328658
 30
0.0
 10
17.57853081157759
 20
-4.208735350510316
 30
0.0
 10
17.57853081157759
 20
-4.208735350510316
 30
0.0
 10
17.61070800340982
 20
-4.225685220297744
 30
0.0
 10
17.63441026034834
 20
-4.239224445554777
 30
0.0
 10
17.65983506502948
 20
-4.254468993077006
 30
0.0
 10
17.65983506502948
 20
-4.254468993077006
 30
0.0
 10
17.8469382008334
 20
-4.389103324640571
 30
0.0
 10
17.8469382008334
 20
-4.389103324640571
 30
0.0
 10
17.8469382008334
 20
-4.389103324640571
 30
0.0
 10
17.84866074857603
 20
-4.389103324640571
 30
0.0
 10
17.84866074857603
 20
-4.389103324640571
 30
0.0
 10
17.84866074857603
 20
-4.389103324640571
 30
0.0
 10
17.84866074857603
 20
-4.208735350510316
 30
0.0
 10
17.84866074857603
 20
-4.208735350510316
 30
0.0
  0
HATCH
  5
B0
330
9B
100
AcDbEntity
  8
Livello 3
 62
   250
420
  1842203
100
AcDbHatch
 10
0.0
 20
0.0
 30
0.0
210
0.0
220
0.0
230
1.0
  2
SOLID
 70
     1
 71
     0
 91
        2
 92
        1
 93
       11
 72
     1
 10
18.05695122161423
 20
-4.208735350510316
 11
17.90705511705101
 21
-4.208735350510316
 72
     1
 10
17.90705511705101
 20
-4.208735350510316
 11
17.90705511705101
 21
-4.464464788380411
 72
     1
 10
17.90705511705101
 20
-4.464464788380411
 11
17.8579625063862
 21
-4.464464788380411
 72
     1
 10
17.8579625063862
 20
-4.464464788380411
 11
17.50656276689072
 21
-4.218898382191803
 72
     1
 10
17.50656276689072
 20
-4.218898382191803
 11
17.50656276689072
 21
-4.138455402611218
 72
     1
 10
17.50656276689072
 20
-4.138455402611218
 11
17.84866074857603
 21
-4.138455402611218
 72
     1
 10
17.84866074857603
 20
-4.138455402611218
 11
17.84866074857603
 21
-4.061405842083606
 72
     1
 10
17.84866074857603
 20
-4.061405842083606
 11
17.90705511705101
 21
-4.061405842083606
 72
     1
 10
17.90705511705101
 20
-4.061405842083606
 11
17.90705511705101
 21
-4.138455402611218
 72
     1
 10
17.90705511705101
 20
-4.138455402611218
 11
18.05695122161423
 21
-4.138455402611218
 72
     1
 10
18.05695122161423
 20
-4.138455402611218
 11
18.05695122161423
 21
-4.208735350510316
 97
        0
 92
        1
 93
        1
 72
     4
 94
        3
 73
     0
 74
     0
 95
       26
 96
       22
 40
0.0
 40
0.0
 40
0.0
 40
0.0
 40
1.0
 40
1.0
 40
1.0
 40
2.0
 40
2.0
 40
2.0
 40
3.0
 40
3.0
 40
3.0
 40
4.0
 40
4.0
 40
4.0
 40
5.0
 40
5.0
 40
5.0
 40
6.0
 40
6.0
 40
6.0
 40
7.0
 40
7.0
 40
7.0
 40
7.0
 10
17.84866074857603
 20
-4.208735350510316
 10
17.84866074857603
 20
-4.208735350510316
 10
17.6648993553928
 20
-4.208735350510316
 10
17.6648993553928
 20
-4.208735350510316
 10
17.63609835713611
 20
-4.208735350510316
 10
17.60733180983428
 20
-4.20789130211643
 10
17.57853081157759
 20
-4.206203205328658
 10
17.57853081157759
 20
-4.206203205328658
 10
17.57853081157759
 20
-4.208735350510316
 10
17.57853081157759
 20
-4.208735350510316
 10
17.61070800340982
 20
-4.225685220297744
 10
17.63441026034834
 20
-4.239224445554777
 10
17.65983506502948
 20
-4.254468993077006
 10
17.65983506502948
 20
-4.254468993077006
 10
17.8469382008334
 20
-4.389103324640571
 10
17.8469382008334
 20
-4.389103324640571
 10
17.8469382008334
 20
-4.389103324640571
 10
17.84866074857603
 20
-4.389103324640571
 10
17.84866074857603
 20
-4.389103324640571
 10
17.84866074857603
 20
-4.389103324640571
 10
17.84866074857603
 20
-4.208735350510316
 10
17.84866074857603
 20
-4.208735350510316
 97
        0
 97
        0
 75
     2
 76
     1
 98
        0
450
        0
451
        0
460
0.0
461
0.0
452
        0
462
0.0
453
        0
470

  0
SPLINE
  5
B1
330
9B
100
AcDbEntity
  8
Livello 3
370
     0
100
AcDbSpline
210
0.0
220
0.0
230
1.0
 70
     9
 71
     3
 72
    17
 73
    13
 74
     0
 42
0.000000001
 43
0.0000000001
 40
0.0
 40
0.0
 40
0.0
 40
0.0
 40
1.0
 40
1.0
 40
1.0
 40
2.0
 40
2.0
 40
2.0
 40
3.0
 40
3.0
 40
3.0
 40
4.0
 40
4.0
 40
4.0
 40
4.0
 10
18.16109645813334
 20
-4.029280326683651
 30
0.0
 10
18.11114257359721
 20
-4.010659585585877
 30
0.0
 10
18.02053656233514
 20
-3.987801377041243
 30
0.0
 10
17.95873154932976
 20
-3.978482393753643
 30
0.0
 10
17.95873154932976
 20
-3.978482393753643
 30
0.0
 10
17.95025661443605
 20
-3.8955072689914
 30
0.0
 10
17.95025661443605
 20
-3.8955072689914
 30
0.0
 10
18.02222465912292
 20
-3.914972058483061
 30
0.0
 10
18.11620686396053
 20
-3.952230766156038
 30
0.0
 10
18.15599771681515
 20
-3.975950248571983
 30
0.0
 10
18.15599771681515
 20
-3.975950248571983
 30
0.0
 10
18.16109645813334
 20
-4.029280326683651
 30
0.0
 10
18.16109645813334
 20
-4.029280326683651
 30
0.0
  0
HATCH
  5
B2
330
9B
100
AcDbEntity
  8
Livello 3
 62
   250
420
  1842203
100
AcDbHatch
 10
0.0
 20
0.0
 30
0.0
210
0.0
220
0.0
230
1.0
  2
SOLID
 70
     1
 71
     0
 91
        1
 92
        1
 93
        1
 72
     4
 94
        3
 73
     0
 74
     0
 95
       17
 96
       13
 40
0.0
 40
0.0
 40
0.0
 40
0.0
 40
1.0
 40
1.0
 40
1.0
 40
2.0
 40
2.0
 40
2.0
 40
3.0
 40
3.0
 40
3.0
 40
4.0
 40
4.0
 40
4.0
 40
4.0
 10
18.16109645813334
 20
-4.029280326683651
 10
18.11114257359721
 20
-4.010659585585877
 10
18.02053656233514
 20
-3.987801377041243
 10
17.95873154932976
 20
-3.978482393753643
 10
17.95873154932976
 20
-3.978482393753643
 10
17.95025661443605
 20
-3.8955072689914
 10
17.95025661443605
 20
-3.8955072689914
 10
18.02222465912292
 20
-3.914972058483061
 10
18.11620686396053
 20
-3.952230766156038
 10
18.15599771681515
 20
-3.975950248571983
 10
18.15599771681515
 20
-3.975950248571983
 10
18.16109645813334
 20
-4.029280326683651
 10
18.16109645813334
 20
-4.029280326683651
 97
        0
 97
        0
 75
     2
 76
     1
 98
        0
450
        0
451
        0
460
0.0
461
0.0
452
        0
462
0.0
453
        0
470

  0
SPLINE
  5
B3
330
9B
100
AcDbEntity
  8
Livello 3
370
     0
100
AcDbSpline
210
0.0
220
0.0
230
1.0
 70
    11
 71
     3
 72
    50
 73
    46
 74
     0
 42
0.000000001
 43
0.0000000001
 40
0.0
 40
0.0
 40
0.0
 40
0.0
 40
1.0
 40
1.0
 40
1.0
 40
2.0
 40
2.0
 40
2.0
 40
3.0
 40
3.0
 40
3.0
 40
4.0
 40
4.0
 40
4.0
 40
5.0
 40
5.0
 40
5.0
 40
6.0
 40
6.0
 40
6.0
 40
7.0
 40
7.0
 40
7.0
 40
8.0
 40
8.0
 40
8.0
 40
9.0
 40
9.0
 40
9.0
 40
10.0
 40
10.0
 40
10.0
 40
11.0
 40
11.0
 40
11.0
 40
12.0
 40
12.0
 40
12.0
 40
13.0
 40
13.0
 40
13.0
 40
14.0
 40
14.0
 40
14.0
 40
15.0
 40
15.0
 40
15.0
 40
15.0
 10
17.56922905376742
 20
-3.500940483065736
 30
0.0
 10
17.56922905376742
 20
-3.500940483065736
 30
0.0
 10
17.56922905376742
 20
-3.710936278369141
 30
0.0
 10
17.56922905376742
 20
-3.710936278369141
 30
0.0
 10
17.56922905376742
 20
-3.710936278369141
 30
0.0
 10
17.71061577248207
 20
-3.732106390126001
 30
0.0
 10
17.71061577248207
 20
-3.732106390126001
 30
0.0
 10
17.70892767569429
 20
-3.719411213262854
 30
0.0
 10
17.70723957890652
 20
-3.707542859316169
 30
0.0
 10
17.70723957890652
 20
-3.687234021430622
 30
0.0
 10
17.70723957890652
 20
-3.644893797916901
 30
0.0
 10
17.7165413367167
 20
-3.60255357440318
 30
0.0
 10
17.73686740007967
 20
-3.568688285783174
 30
0.0
 10
17.7614309308895
 20
-3.525504013875568
 30
0.0
 10
17.80883544476654
 20
-3.489933402990363
 30
0.0
 10
17.87828856974918
 20
-3.489933402990363
 30
0.0
 10
17.98580999984382
 20
-3.489933402990363
 30
0.0
 10
18.06625297942441
 20
-3.575457898411691
 30
0.0
 10
18.06625297942441
 20
-3.694847682453023
 30
0.0
 10
18.06625297942441
 20
-3.754964598670634
 30
0.0
 10
18.04933756059183
 20
-3.805779757078068
 30
0.0
 10
18.0323876908044
 20
-3.832014159198246
 30
0.0
 10
18.0323876908044
 20
-3.832014159198246
 30
0.0
 10
17.97564696816233
 20
-3.81339341810047
 30
0.0
 10
17.97564696816233
 20
-3.81339341810047
 30
0.0
 10
17.98922064437421
 20
-3.790535209555838
 30
0.0
 10
18.0061360632068
 20
-3.745645615383033
 30
0.0
 10
18.0061360632068
 20
-3.695691730846909
 30
0.0
 10
18.0061360632068
 20
-3.625411782947813
 30
0.0
 10
17.96041964611753
 20
-3.565294866730203
 30
0.0
 10
17.88676350464289
 20
-3.565294866730203
 30
0.0
 10
17.81562228287248
 20
-3.566138915124089
 30
0.0
 10
17.76480712446505
 20
-3.613560654478553
 30
0.0
 10
17.76480712446505
 20
-3.723631455232285
 30
0.0
 10
17.76480712446505
 20
-3.754964598670634
 30
0.0
 10
17.76821776899545
 20
-3.779528129480465
 30
0.0
 10
17.77073268869968
 20
-3.799836967366013
 30
0.0
 10
17.77073268869968
 20
-3.799836967366013
 30
0.0
 10
17.50656276689072
 20
-3.764283581958233
 30
0.0
 10
17.50656276689072
 20
-3.764283581958233
 30
0.0
 10
17.50656276689072
 20
-3.764283581958233
 30
0.0
 10
17.50656276689072
 20
-3.500940483065736
 30
0.0
 10
17.50656276689072
 20
-3.500940483065736
 30
0.0
 10
17.50656276689072
 20
-3.500940483065736
 30
0.0
 10
17.56922905376742
 20
-3.500940483065736
 30
0.0
 10
17.56922905376742
 20
-3.500940483065736
 30
0.0
  0
HATCH
  5
B4
330
9B
100
AcDbEntity
  8
Livello 3
 62
   250
420
  1842203
100
AcDbHatch
 10
0.0
 20
0.0
 30
0.0
210
0.0
220
0.0
230
1.0
  2
SOLID
 70
     1
 71
     0
 91
        1
 92
        1
 93
        1
 72
     4
 94
        3
 73
     0
 74
     0
 95
       50
 96
       46
 40
0.0
 40
0.0
 40
0.0
 40
0.0
 40
1.0
 40
1.0
 40
1.0
 40
2.0
 40
2.0
 40
2.0
 40
3.0
 40
3.0
 40
3.0
 40
4.0
 40
4.0
 40
4.0
 40
5.0
 40
5.0
 40
5.0
 40
6.0
 40
6.0
 40
6.0
 40
7.0
 40
7.0
 40
7.0
 40
8.0
 40
8.0
 40
8.0
 40
9.0
 40
9.0
 40
9.0
 40
10.0
 40
10.0
 40
10.0
 40
11.0
 40
11.0
 40
11.0
 40
12.0
 40
12.0
 40
12.0
 40
13.0
 40
13.0
 40
13.0
 40
14.0
 40
14.0
 40
14.0
 40
15.0
 40
15.0
 40
15.0
 40
15.0
 10
17.56922905376742
 20
-3.500940483065736
 10
17.56922905376742
 20
-3.500940483065736
 10
17.56922905376742
 20
-3.710936278369141
 10
17.56922905376742
 20
-3.710936278369141
 10
17.56922905376742
 20
-3.710936278369141
 10
17.71061577248207
 20
-3.732106390126001
 10
17.71061577248207
 20
-3.732106390126001
 10
17.70892767569429
 20
-3.719411213262854
 10
17.70723957890652
 20
-3.707542859316169
 10
17.70723957890652
 20
-3.687234021430622
 10
17.70723957890652
 20
-3.644893797916901
 10
17.7165413367167
 20
-3.60255357440318
 10
17.73686740007967
 20
-3.568688285783174
 10
17.7614309308895
 20
-3.525504013875568
 10
17.80883544476654
 20
-3.489933402990363
 10
17.87828856974918
 20
-3.489933402990363
 10
17.98580999984382
 20
-3.489933402990363
 10
18.06625297942441
 20
-3.575457898411691
 10
18.06625297942441
 20
-3.694847682453023
 10
18.06625297942441
 20
-3.754964598670634
 10
18.04933756059183
 20
-3.805779757078068
 10
18.0323876908044
 20
-3.832014159198246
 10
18.0323876908044
 20
-3.832014159198246
 10
17.97564696816233
 20
-3.81339341810047
 10
17.97564696816233
 20
-3.81339341810047
 10
17.98922064437421
 20
-3.790535209555838
 10
18.0061360632068
 20
-3.745645615383033
 10
18.0061360632068
 20
-3.695691730846909
 10
18.0061360632068
 20
-3.625411782947813
 10
17.96041964611753
 20
-3.565294866730203
 10
17.88676350464289
 20
-3.565294866730203
 10
17.81562228287248
 20
-3.566138915124089
 10
17.76480712446505
 20
-3.613560654478553
 10
17.76480712446505
 20
-3.723631455232285
 10
17.76480712446505
 20
-3.754964598670634
 10
17.76821776899545
 20
-3.779528129480465
 10
17.77073268869968
 20
-3.799836967366013
 10
17.77073268869968
 20
-3.799836967366013
 10
17.50656276689072
 20
-3.764283581958233
 10
17.50656276689072
 20
-3.764283581958233
 10
17.50656276689072
 20
-3.764283581958233
 10
17.50656276689072
 20
-3.500940483065736
 10
17.50656276689072
 20
-3.500940483065736
 10
17.50656276689072
 20
-3.500940483065736
 10
17.56922905376742
 20
-3.500940483065736
 10
17.56922905376742
 20
-3.500940483065736
 97
        0
 97
        0
 75
     2
 76
     1
 98
        0
450
        0
451
        0
460
0.0
461
0.0
452
        0
462
0.0
453
        0
470

  0
ENDBLK
  5
9E
330
9B
100
AcDbEntity
  8
0
100
AcDbBlockEnd
  0
ENDSEC
  0
SECTION
  2
ENTITIES
  0
LINE
  5
FB
330
1F
100
AcDbEntity
  8
Livello 3
100
AcDbLine
 10
12.86608355384507
 20
-6.628302467478718
 30
0.0
 11
16.2316469679824
 21
-6.628302467478718
 31
0.0
  0
LINE
  5
FC
330
1F
100
AcDbEntity
  8
Livello 3
100
AcDbLine
 10
17.11364197103024
 20
-2.290693707760679
 30
0.0
 11
17.11364197103024
 21
-6.119147512359101
 31
0.0
  0
HATCH
  5
116
330
1F
100
AcDbEntity
  8
Livello 3
100
AcDbHatch
 10
0.0
 20
0.0
 30
0.0
210
0.0
220
0.0
230
1.0
  2
SOLID
 70
     1
 71
     0
 91
        1
 92
        1
 93
        1
 72
     4
 94
        3
 73
     0
 74
     0
 95
       47
 96
       43
 40
0.0
 40
0.0
 40
0.0
 40
0.0
 40
1.0
 40
1.0
 40
1.0
 40
2.0
 40
2.0
 40
2.0
 40
3.0
 40
3.0
 40
3.0
 40
4.0
 40
4.0
 40
4.0
 40
5.0
 40
5.0
 40
5.0
 40
6.0
 40
6.0
 40
6.0
 40
7.0
 40
7.0
 40
7.0
 40
8.0
 40
8.0
 40
8.0
 40
9.0
 40
9.0
 40
9.0
 40
10.0
 40
10.0
 40
10.0
 40
11.0
 40
11.0
 40
11.0
 40
12.0
 40
12.0
 40
12.0
 40
13.0
 40
13.0
 40
13.0
 40
14.0
 40
14.0
 40
14.0
 40
14.0
 10
13.94817531660844
 20
-7.468656953427974
 10
13.94817531660844
 20
-7.468656953427974
 10
13.94817531660844
 20
-7.422940536338708
 10
13.94817531660844
 20
-7.422940536338708
 10
13.94817531660844
 20
-7.422940536338708
 10
14.00660413603828
 20
-7.366199813696643
 10
14.00660413603828
 20
-7.366199813696643
 10
14.14716403183647
 20
-7.232409530526968
 10
14.21065714162963
 20
-7.161285534233983
 10
14.21151841550094
 20
-7.078310409471741
 10
14.21151841550094
 20
-7.022430960700988
 10
14.18442273950945
 20
-6.970771753899668
 10
14.10227443766367
 20
-6.970771753899668
 10
14.05232055312754
 20
-6.970771753899668
 10
14.01084160348514
 20
-6.996179333103384
 10
13.98543402428142
 20
-7.017349444860245
 10
13.98543402428142
 20
-7.017349444860245
 10
13.9617317673429
 20
-6.964846189665037
 10
13.9617317673429
 20
-6.964846189665037
 10
13.99983452340976
 20
-6.932668997832803
 10
14.05402587539274
 20
-6.908966740894286
 10
14.1175189851859
 20
-6.908966740894286
 10
14.23606472083334
 20
-6.908966740894286
 10
14.28601860536947
 20
-6.990253768868755
 10
14.28601860536947
 20
-7.068991426184141
 10
14.28601860536947
 20
-7.170604517521585
 10
14.21236246389483
 20
-7.252735593889941
 10
14.09634887342904
 20
-7.364511716908871
 10
14.09634887342904
 20
-7.364511716908871
 10
14.05232055312754
 20
-7.405146618157393
 10
14.05232055312754
 20
-7.405146618157393
 10
14.05232055312754
 20
-7.405146618157393
 10
14.05232055312754
 20
-7.406851940422593
 10
14.05232055312754
 20
-7.406851940422593
 10
14.05232055312754
 20
-7.406851940422593
 10
14.29957505610392
 20
-7.406851940422593
 10
14.29957505610392
 20
-7.406851940422593
 10
14.29957505610392
 20
-7.406851940422593
 10
14.29957505610392
 20
-7.468656953427974
 10
14.29957505610392
 20
-7.468656953427974
 10
14.29957505610392
 20
-7.468656953427974
 10
13.94817531660844
 20
-7.468656953427974
 10
13.94817531660844
 20
-7.468656953427974
 97
        0
 97
        0
 75
     2
 76
     1
 98
        0
450
        0
451
        0
460
0.0
461
0.0
452
        0
462
0.0
453
        0
470

  0
HATCH
  5
118
330
1F
100
AcDbEntity
  8
Livello 3
100
AcDbHatch
 10
0.0
 20
0.0
 30
0.0
210
0.0
220
0.0
230
1.0
  2
SOLID
 70
     1
 71
     0
 91
        1
 92
        1
 93
        1
 72
     4
 94
        3
 73
     0
 74
     0
 95
       59
 96
       55
 40
0.0
 40
0.0
 40
0.0
 40
0.0
 40
1.0
 40
1.0
 40
1.0
 40
2.0
 40
2.0
 40
2.0
 40
3.0
 40
3.0
 40
3.0
 40
4.0
 40
4.0
 40
4.0
 40
5.0
 40
5.0
 40
5.0
 40
6.0
 40
6.0
 40
6.0
 40
7.0
 40
7.0
 40
7.0
 40
8.0
 40
8.0
 40
8.0
 40
9.0
 40
9.0
 40
9.0
 40
10.0
 40
10.0
 40
10.0
 40
11.0
 40
11.0
 40
11.0
 40
12.0
 40
12.0
 40
12.0
 40
13.0
 40
13.0
 40
13.0
 40
14.0
 40
14.0
 40
14.0
 40
15.0
 40
15.0
 40
15.0
 40
16.0
 40
16.0
 40
16.0
 40
17.0
 40
17.0
 40
17.0
 40
18.0
 40
18.0
 40
18.0
 40
18.0
 10
14.40027519713778
 20
-7.383132458006647
 10
14.42144530889464
 20
-7.396688908741105
 10
14.47055514503687
 20
-7.417859020497964
 10
14.5222143518382
 20
-7.417859020497964
 10
14.61788465346358
 20
-7.417859020497964
 10
14.64752970011416
 20
-7.356880830409043
 10
14.64668565172027
 20
-7.311164413319777
 10
14.64584160332639
 20
-7.234114852792165
 10
14.57640570382117
 20
-7.201093612566044
 10
14.50443765913431
 20
-7.201093612566044
 10
14.50443765913431
 20
-7.201093612566044
 10
14.46294148401447
 20
-7.201093612566044
 10
14.46294148401447
 20
-7.201093612566044
 10
14.46294148401447
 20
-7.201093612566044
 10
14.46294148401447
 20
-7.145196938317867
 10
14.46294148401447
 20
-7.145196938317867
 10
14.46294148401447
 20
-7.145196938317867
 10
14.50443765913431
 20
-7.145196938317867
 10
14.50443765913431
 20
-7.145196938317867
 10
14.55862901111729
 20
-7.145196938317867
 10
14.62720363675118
 20
-7.117257213932491
 10
14.62720363675118
 20
-7.052058781874138
 10
14.62720363675118
 20
-7.008030461572644
 10
14.59926391236581
 20
-6.969083657111895
 10
14.53067206125448
 20
-6.969083657111895
 10
14.48664374095299
 20
-6.969083657111895
 10
14.44430351743927
 20
-6.988548446603558
 10
14.42060126050075
 20
-7.005498316390986
 10
14.42060126050075
 20
-7.005498316390986
 10
14.40111924553166
 20
-6.951306964408005
 10
14.40111924553166
 20
-6.951306964408005
 10
14.42992024378835
 20
-6.930136852651146
 10
14.48579969255911
 20
-6.908966740894286
 10
14.54507256038283
 20
-6.908966740894286
 10
14.65345526434879
 20
-6.908966740894286
 10
14.70256510049103
 20
-6.973321124558752
 10
14.70256510049103
 20
-7.040207653404878
 10
14.70256510049103
 20
-7.096931150569517
 10
14.66869981187102
 20
-7.145196938317867
 10
14.60095200915358
 20
-7.169760469127699
 10
14.60095200915358
 20
-7.169760469127699
 10
14.60095200915358
 20
-7.171448565915471
 10
14.60095200915358
 20
-7.171448565915471
 10
14.66869981187102
 20
-7.185005016649928
 10
14.72373521224788
 20
-7.235802949579937
 10
14.72373521224788
 20
-7.312852510107549
 10
14.72373521224788
 20
-7.400926376187963
 10
14.65514336113656
 20
-7.477975936715575
 10
14.52305840023208
 20
-7.477975936715575
 10
14.46125338722669
 20
-7.477975936715575
 10
14.40706203524372
 20
-7.458493921746487
 10
14.37996635925223
 20
-7.440717229042597
 10
14.37996635925223
 20
-7.440717229042597
 10
14.40027519713778
 20
-7.383132458006647
 10
14.40027519713778
 20
-7.383132458006647
 97
        0
 97
        0
 75
     2
 76
     1
 98
        0
450
        0
451
        0
460
0.0
461
0.0
452
        0
462
0.0
453
        0
470

  0
HATCH
  5
11A
330
1F
100
AcDbEntity
  8
Livello 3
100
AcDbHatch
 10
0.0
 20
0.0
 30
0.0
210
0.0
220
0.0
230
1.0
  2
SOLID
 70
     1
 71
     0
 91
        1
 92
        1
 93
        1
 72
     4
 94
        3
 73
     0
 74
     0
 95
       47
 96
       43
 40
0.0
 40
0.0
 40
0.0
 40
0.0
 40
1.0
 40
1.0
 40
1.0
 40
2.0
 40
2.0
 40
2.0
 40
3.0
 40
3.0
 40
3.0
 40
4.0
 40
4.0
 40
4.0
 40
5.0
 40
5.0
 40
5.0
 40
6.0
 40
6.0
 40
6.0
 40
7.0
 40
7.0
 40
7.0
 40
8.0
 40
8.0
 40
8.0
 40
9.0
 40
9.0
 40
9.0
 40
10.0
 40
10.0
 40
10.0
 40
11.0
 40
11.0
 40
11.0
 40
12.0
 40
12.0
 40
12.0
 40
13.0
 40
13.0
 40
13.0
 40
14.0
 40
14.0
 40
14.0
 40
14.0
 10
18.05695122161423
 20
-4.873380397002141
 10
18.05695122161423
 20
-4.873380397002141
 10
18.01123480452497
 20
-4.873380397002141
 10
18.01123480452497
 20
-4.873380397002141
 10
18.01123480452497
 20
-4.873380397002141
 10
17.9544940818829
 20
-4.814951577572303
 10
17.9544940818829
 20
-4.814951577572303
 10
17.8206865732358
 20
-4.67439168177411
 10
17.74957980242024
 20
-4.610898571980956
 10
17.66658745218058
 20
-4.610037298109643
 10
17.61070800340982
 20
-4.610037298109643
 10
17.55906602208593
 20
-4.637132974101132
 10
17.55906602208593
 20
-4.719281275946915
 10
17.55906602208593
 20
-4.769235160483039
 10
17.58445637581222
 20
-4.810714110125446
 10
17.6056437130465
 20
-4.836121689329163
 10
17.6056437130465
 20
-4.836121689329163
 10
17.5531404578513
 20
-4.859823946267681
 10
17.5531404578513
 20
-4.859823946267681
 10
17.52096326601906
 20
-4.82172119020082
 10
17.49726100908055
 20
-4.767529838217839
 10
17.49726100908055
 20
-4.704036728424684
 10
17.49726100908055
 20
-4.585490992777238
 10
17.57853081157759
 20
-4.535537108241115
 10
17.6572856943704
 20
-4.535537108241115
 10
17.75888156023042
 20
-4.535537108241115
 10
17.84101263659877
 20
-4.609193249715756
 10
17.95280598509513
 20
-4.725206840181544
 10
17.95280598509513
 20
-4.725206840181544
 10
17.99342366086623
 20
-4.769235160483039
 10
17.99342366086623
 20
-4.769235160483039
 10
17.99342366086623
 20
-4.769235160483039
 10
17.99514620860885
 20
-4.769235160483039
 10
17.99514620860885
 20
-4.769235160483039
 10
17.99514620860885
 20
-4.769235160483039
 10
17.99514620860885
 20
-4.521980657506657
 10
17.99514620860885
 20
-4.521980657506657
 10
17.99514620860885
 20
-4.521980657506657
 10
18.05695122161423
 20
-4.521980657506657
 10
18.05695122161423
 20
-4.521980657506657
 10
18.05695122161423
 20
-4.521980657506657
 10
18.05695122161423
 20
-4.873380397002141
 10
18.05695122161423
 20
-4.873380397002141
 97
        0
 97
        0
 75
     2
 76
     1
 98
        0
450
        0
451
        0
460
0.0
461
0.0
452
        0
462
0.0
453
        0
470

  0
HATCH
  5
12A
330
1F
100
AcDbEntity
  8
Livello 3
100
AcDbHatch
 10
0.0
 20
0.0
 30
0.0
210
0.0
220
0.0
230
1.0
  2
SOLID
 70
     1
 71
     0
 91
        2
 92
        1
 93
       11
 72
     1
 10
18.05695122161423
 20
-4.208735350510316
 11
17.90705511705101
 21
-4.208735350510316
 72
     1
 10
17.90705511705101
 20
-4.208735350510316
 11
17.90705511705101
 21
-4.464464788380411
 72
     1
 10
17.90705511705101
 20
-4.464464788380411
 11
17.8579625063862
 21
-4.464464788380411
 72
     1
 10
17.8579625063862
 20
-4.464464788380411
 11
17.50656276689072
 21
-4.218898382191803
 72
     1
 10
17.50656276689072
 20
-4.218898382191803
 11
17.50656276689072
 21
-4.138455402611218
 72
     1
 10
17.50656276689072
 20
-4.138455402611218
 11
17.84866074857603
 21
-4.138455402611218
 72
     1
 10
17.84866074857603
 20
-4.138455402611218
 11
17.84866074857603
 21
-4.061405842083606
 72
     1
 10
17.84866074857603
 20
-4.061405842083606
 11
17.90705511705101
 21
-4.061405842083606
 72
     1
 10
17.90705511705101
 20
-4.061405842083606
 11
17.90705511705101
 21
-4.138455402611218
 72
     1
 10
17.90705511705101
 20
-4.138455402611218
 11
18.05695122161423
 21
-4.138455402611218
 72
     1
 10
18.05695122161423
 20
-4.138455402611218
 11
18.05695122161423
 21
-4.208735350510316
 97
        0
 92
        1
 93
        1
 72
     4
 94
        3
 73
     0
 74
     0
 95
       26
 96
       22
 40
0.0
 40
0.0
 40
0.0
 40
0.0
 40
1.0
 40
1.0
 40
1.0
 40
2.0
 40
2.0
 40
2.0
 40
3.0
 40
3.0
 40
3.0
 40
4.0
 40
4.0
 40
4.0
 40
5.0
 40
5.0
 40
5.0
 40
6.0
 40
6.0
 40
6.0
 40
7.0
 40
7.0
 40
7.0
 40
7.0
 10
17.84866074857603
 20
-4.208735350510316
 10
17.84866074857603
 20
-4.208735350510316
 10
17.6648993553928
 20
-4.208735350510316
 10
17.6648993553928
 20
-4.208735350510316
 10
17.63609835713611
 20
-4.208735350510316
 10
17.60733180983428
 20
-4.20789130211643
 10
17.57853081157759
 20
-4.206203205328658
 10
17.57853081157759
 20
-4.206203205328658
 10
17.57853081157759
 20
-4.208735350510316
 10
17.57853081157759
 20
-4.208735350510316
 10
17.61070800340982
 20
-4.225685220297744
 10
17.63441026034834
 20
-4.239224445554777
 10
17.65983506502948
 20
-4.254468993077006
 10
17.65983506502948
 20
-4.254468993077006
 10
17.8469382008334
 20
-4.389103324640571
 10
17.8469382008334
 20
-4.389103324640571
 10
17.8469382008334
 20
-4.389103324640571
 10
17.84866074857603
 20
-4.389103324640571
 10
17.84866074857603
 20
-4.389103324640571
 10
17.84866074857603
 20
-4.389103324640571
 10
17.84866074857603
 20
-4.208735350510316
 10
17.84866074857603
 20
-4.208735350510316
 97
        0
 97
        0
 75
     2
 76
     1
 98
        0
450
        0
451
        0
460
0.0
461
0.0
452
        0
462
0.0
453
        0
470

  0
HATCH
  5
12C
330
1F
100
AcDbEntity
  8
Livello 3
100
AcDbHatch
 10
0.0
 20
0.0
 30
0.0
210
0.0
220
0.0
230
1.0
  2
SOLID
 70
     1
 71
     0
 91
        1
 92
        1
 93
        1
 72
     4
 94
        3
 73
     0
 74
     0
 95
       17
 96
       13
 40
0.0
 40
0.0
 40
0.0
 40
0.0
 40
1.0
 40
1.0
 40
1.0
 40
2.0
 40
2.0
 40
2.0
 40
3.0
 40
3.0
 40
3.0
 40
4.0
 40
4.0
 40
4.0
 40
4.0
 10
18.16109645813334
 20
-4.029280326683651
 10
18.11114257359721
 20
-4.010659585585877
 10
18.02053656233514
 20
-3.987801377041243
 10
17.95873154932976
 20
-3.978482393753643
 10
17.95873154932976
 20
-3.978482393753643
 10
17.95025661443605
 20
-3.8955072689914
 10
17.95025661443605
 20
-3.8955072689914
 10
18.02222465912292
 20
-3.914972058483061
 10
18.11620686396053
 20
-3.952230766156038
 10
18.15599771681515
 20
-3.975950248571983
 10
18.15599771681515
 20
-3.975950248571983
 10
18.16109645813334
 20
-4.029280326683651
 10
18.16109645813334
 20
-4.029280326683651
 97
        0
 97
        0
 75
     2
 76
     1
 98
        0
450
        0
451
        0
460
0.0
461
0.0
452
        0
462
0.0
453
        0
470

  0
HATCH
  5
12E
330
1F
100
AcDbEntity
  8
Livello 3
100
AcDbHatch
 10
0.0
 20
0.0
 30
0.0
210
0.0
220
0.0
230
1.0
  2
SOLID
 70
     1
 71
     0
 91
        1
 92
        1
 93
        1
 72
     4
 94
        3
 73
     0
 74
     0
 95
       50
 96
       46
 40
0.0
 40
0.0
 40
0.0
 40
0.0
 40
1.0
 40
1.0
 40
1.0
 40
2.0
 40
2.0
 40
2.0
 40
3.0
 40
3.0
 40
3.0
 40
4.0
 40
4.0
 40
4.0
 40
5.0
 40
5.0
 40
5.0
 40
6.0
 40
6.0
 40
6.0
 40
7.0
 40
7.0
 40
7.0
 40
8.0
 40
8.0
 40
8.0
 40
9.0
 40
9.0
 40
9.0
 40
10.0
 40
10.0
 40
10.0
 40
11.0
 40
11.0
 40
11.0
 40
12.0
 40
12.0
 40
12.0
 40
13.0
 40
13.0
 40
13.0
 40
14.0
 40
14.0
 40
14.0
 40
15.0
 40
15.0
 40
15.0
 40
15.0
 10
17.56922905376742
 20
-3.500940483065736
 10
17.56922905376742
 20
-3.500940483065736
 10
17.56922905376742
 20
-3.710936278369141
 10
17.56922905376742
 20
-3.710936278369141
 10
17.56922905376742
 20
-3.710936278369141
 10
17.71061577248207
 20
-3.732106390126001
 10
17.71061577248207
 20
-3.732106390126001
 10
17.70892767569429
 20
-3.719411213262854
 10
17.70723957890652
 20
-3.707542859316169
 10
17.70723957890652
 20
-3.687234021430622
 10
17.70723957890652
 20
-3.644893797916901
 10
17.7165413367167
 20
-3.60255357440318
 10
17.73686740007967
 20
-3.568688285783174
 10
17.7614309308895
 20
-3.525504013875568
 10
17.80883544476654
 20
-3.489933402990363
 10
17.87828856974918
 20
-3.489933402990363
 10
17.98580999984382
 20
-3.489933402990363
 10
18.06625297942441
 20
-3.575457898411691
 10
18.06625297942441
 20
-3.694847682453023
 10
18.06625297942441
 20
-3.754964598670634
 10
18.04933756059183
 20
-3.805779757078068
 10
18.0323876908044
 20
-3.832014159198246
 10
18.0323876908044
 20
-3.832014159198246
 10
17.97564696816233
 20
-3.81339341810047
 10
17.97564696816233
 20
-3.81339341810047
 10
17.98922064437421
 20
-3.790535209555838
 10
18.0061360632068
 20
-3.745645615383033
 10
18.0061360632068
 20
-3.695691730846909
 10
18.0061360632068
 20
-3.625411782947813
 10
17.96041964611753
 20
-3.565294866730203
 10
17.88676350464289
 20
-3.565294866730203
 10
17.81562228287248
 20
-3.566138915124089
 10
17.76480712446505
 20
-3.613560654478553
 10
17.76480712446505
 20
-3.723631455232285
 10
17.76480712446505
 20
-3.754964598670634
 10
17.76821776899545
 20
-3.779528129480465
 10
17.77073268869968
 20
-3.799836967366013
 10
17.77073268869968
 20
-3.799836967366013
 10
17.50656276689072
 20
-3.764283581958233
 10
17.50656276689072
 20
-3.764283581958233
 10
17.50656276689072
 20
-3.764283581958233
 10
17.50656276689072
 20
-3.500940483065736
 10
17.50656276689072
 20
-3.500940483065736
 10
17.50656276689072
 20
-3.500940483065736
 10
17.56922905376742
 20
-3.500940483065736
 10
17.56922905376742
 20
-3.500940483065736
 97
        0
 97
        0
 75
     2
 76
     1
 98
        0
450
        0
451
        0
460
0.0
461
0.0
452
        0
462
0.0
453
        0
470

  0
LINE
  5
12F
330
1F
100
AcDbEntity
  8
Livello 3
100
AcDbLine
 10
16.64252407541384
 20
-2.184350610565021
 30
0.0
 11
16.64252407541384
 21
-2.184350610565021
 31
0.0
  0
SPLINE
  5
138
330
1F
100
AcDbEntity
  8
Livello 3
100
AcDbSpline
210
0.0
220
0.0
230
1.0
 70
     8
 71
     3
 72
    17
 73
    13
 74
     0
 42
0.000000001
 43
0.0000000001
 40
0.0
 40
0.0
 40
0.0
 40
0.0
 40
1.0
 40
1.0
 40
1.0
 40
2.0
 40
2.0
 40
2.0
 40
3.0
 40
3.0
 40
3.0
 40
4.0
 40
4.0
 40
4.0
 40
4.0
 10
15.89427853214494
 20
-5.758227623560464
 30
0.0
 10
16.12242344299114
 20
-5.388093179208547
 30
0.0
 10
16.2316469679824
 20
-4.969374179313223
 30
0.0
 10
16.2316469679824
 20
-4.459885457218358
 30
0.0
 10
16.2316469679824
 20
-3.261873290851204
 30
0.0
 10
15.47821595942624
 20
-2.290693707760679
 30
0.0
 10
14.54887268400454
 20
-2.290693707760679
 30
0.0
 10
13.61952867351197
 20
-2.290693707760679
 30
0.0
 10
12.86608355384507
 20
-3.261873290851204
 30
0.0
 10
12.86608355384507
 20
-4.459885457218358
 30
0.0
 10
12.86608355384507
 20
-4.977114123755731
 30
0.0
 10
13.00653143915084
 20
-5.452072956970311
 30
0.0
 10
13.24097696094741
 20
-5.824867345765999
 30
0.0
  0
SPLINE
  5
139
330
1F
100
AcDbEntity
  8
Livello 3
100
AcDbSpline
210
0.0
220
0.0
230
1.0
 70
     8
 71
     3
 72
     8
 73
     4
 74
     0
 42
0.000000001
 43
0.0000000001
 40
4.0
 40
4.0
 40
4.0
 40
4.0
 40
5.0
 40
5.0
 40
5.0
 40
5.0
 10
13.24097696094741
 20
-5.824867345765999
 30
0.0
 10
13.24097696094741
 20
-5.824867345765999
 30
0.0
 10
13.29368195960279
 20
-5.89187748463815
 30
0.0
 10
13.30148893162584
 20
-5.900485262413766
 30
0.0
  0
SPLINE
  5
13A
330
1F
100
AcDbEntity
  8
Livello 3
100
AcDbSpline
210
0.0
220
0.0
230
1.0
 70
     8
 71
     3
 72
    11
 73
     7
 74
     0
 42
0.000000001
 43
0.0000000001
 40
5.0
 40
5.0
 40
5.0
 40
5.0
 40
6.0
 40
6.0
 40
6.0
 40
7.0
 40
7.0
 40
7.0
 40
7.0
 10
13.30148893162584
 20
-5.900485262413766
 30
0.0
 10
13.38124879540756
 20
-5.989177123502714
 30
0.0
 10
13.86009136181915
 20
-6.119147512359101
 30
0.0
 10
14.53711776121344
 20
-6.119147512359101
 30
0.0
 10
15.28013477003527
 20
-6.119147512359101
 30
0.0
 10
15.63544195541507
 20
-6.017127706829062
 30
0.0
 10
15.79398381248144
 20
-5.868079095755201
 30
0.0
  0
SPLINE
  5
13B
330
1F
100
AcDbEntity
  8
Livello 3
100
AcDbSpline
210
0.0
220
0.0
230
1.0
 70
    24
 71
     3
 72
     8
 73
     4
 74
     0
 42
0.000000001
 43
0.0000000001
 40
7.0
 40
7.0
 40
7.0
 40
7.0
 40
8.0
 40
8.0
 40
8.0
 40
8.0
 10
15.79398381248144
 20
-5.868079095755201
 30
0.0
 10
15.79398381248144
 20
-5.868079095755201
 30
0.0
 10
15.89427853214494
 20
-5.758227623560464
 30
0.0
 10
15.89427853214494
 20
-5.758227623560464
 30
0.0
  0
SPLINE
  5
16B
330
1F
100
AcDbEntity
  8
Livello 3
100
AcDbSpline
210
0.0
220
0.0
230
1.0
 70
     8
 71
     3
 72
     8
 73
     4
 74
     0
 42
0.000000001
 43
0.0000000001
 40
2.0
 40
2.0
 40
2.0
 40
2.0
 40
3.0
 40
3.0
 40
3.0
 40
3.0
 10
14.00660413603828
 20
-7.366199813696643
 30
0.0
 10
14.14716403183647
 20
-7.232409530526968
 30
0.0
 10
14.21065714162963
 20
-7.161285534233983
 30
0.0
 10
14.21151841550094
 20
-7.078310409471741
 30
0.0
  0
SPLINE
  5
16C
330
1F
100
AcDbEntity
  8
Livello 3
100
AcDbSpline
210
0.0
220
0.0
230
1.0
 70
     8
 71
     3
 72
    11
 73
     7
 74
     0
 42
0.000000001
 43
0.0000000001
 40
3.0
 40
3.0
 40
3.0
 40
3.0
 40
4.0
 40
4.0
 40
4.0
 40
5.0
 40
5.0
 40
5.0
 40
5.0
 10
14.21151841550094
 20
-7.078310409471741
 30
0.0
 10
14.21151841550094
 20
-7.022430960700988
 30
0.0
 10
14.18442273950945
 20
-6.970771753899668
 30
0.0
 10
14.10227443766367
 20
-6.970771753899668
 30
0.0
 10
14.05232055312754
 20
-6.970771753899668
 30
0.0
 10
14.01084160348514
 20
-6.996179333103384
 30
0.0
 10
13.98543402428142
 20
-7.017349444860245
 30
0.0
  0
SPLINE
  5
16D
330
1F
100
AcDbEntity
  8
Livello 3
100
AcDbSpline
210
0.0
220
0.0
230
1.0
 70
    24
 71
     3
 72
     8
 73
     4
 74
     0
 42
0.000000001
 43
0.0000000001
 40
5.0
 40
5.0
 40
5.0
 40
5.0
 40
6.0
 40
6.0
 40
6.0
 40
6.0
 10
13.98543402428142
 20
-7.017349444860245
 30
0.0
 10
13.98543402428142
 20
-7.017349444860245
 30
0.0
 10
13.9617317673429
 20
-6.964846189665037
 30
0.0
 10
13.9617317673429
 20
-6.964846189665037
 30
0.0
  0
SPLINE
  5
16E
330
1F
100
AcDbEntity
  8
Livello 3
100
AcDbSpline
210
0.0
220
0.0
230
1.0
 70
     8
 71
     3
 72
    14
 73
    10
 74
     0
 42
0.000000001
 43
0.0000000001
 40
6.0
 40
6.0
 40
6.0
 40
6.0
 40
7.0
 40
7.0
 40
7.0
 40
8.0
 40
8.0
 40
8.0
 40
9.0
 40
9.0
 40
9.0
 40
9.0
 10
13.9617317673429
 20
-6.964846189665037
 30
0.0
 10
13.99983452340976
 20
-6.932668997832803
 30
0.0
 10
14.05402587539274
 20
-6.908966740894286
 30
0.0
 10
14.1175189851859
 20
-6.908966740894286
 30
0.0
 10
14.23606472083334
 20
-6.908966740894286
 30
0.0
 10
14.28601860536947
 20
-6.990253768868755
 30
0.0
 10
14.28601860536947
 20
-7.068991426184141
 30
0.0
 10
14.28601860536947
 20
-7.170604517521585
 30
0.0
 10
14.21236246389483
 20
-7.252735593889941
 30
0.0
 10
14.09634887342904
 20
-7.364511716908871
 30
0.0
  0
SPLINE
  5
177
330
1F
100
AcDbEntity
  8
Livello 3
100
AcDbSpline
210
0.0
220
0.0
230
1.0
 70
    24
 71
     3
 72
     8
 73
     4
 74
     0
 42
0.000000001
 43
0.0000000001
 40
4.0
 40
4.0
 40
4.0
 40
4.0
 40
5.0
 40
5.0
 40
5.0
 40
5.0
 10
14.46294148401447
 20
-7.201093612566044
 30
0.0
 10
14.46294148401447
 20
-7.201093612566044
 30
0.0
 10
14.46294148401447
 20
-7.145196938317867
 30
0.0
 10
14.46294148401447
 20
-7.145196938317867
 30
0.0
  0
SPLINE
  5
178
330
1F
100
AcDbEntity
  8
Livello 3
100
AcDbSpline
210
0.0
220
0.0
230
1.0
 70
    24
 71
     3
 72
     8
 73
     4
 74
     0
 42
0.000000001
 43
0.0000000001
 40
5.0
 40
5.0
 40
5.0
 40
5.0
 40
6.0
 40
6.0
 40
6.0
 40
6.0
 10
14.46294148401447
 20
-7.145196938317867
 30
0.0
 10
14.46294148401447
 20
-7.145196938317867
 30
0.0
 10
14.50443765913431
 20
-7.145196938317867
 30
0.0
 10
14.50443765913431
 20
-7.145196938317867
 30
0.0
  0
SPLINE
  5
179
330
1F
100
AcDbEntity
  8
Livello 3
100
AcDbSpline
210
0.0
220
0.0
230
1.0
 70
     8
 71
     3
 72
    14
 73
    10
 74
     0
 42
0.000000001
 43
0.0000000001
 40
6.0
 40
6.0
 40
6.0
 40
6.0
 40
7.0
 40
7.0
 40
7.0
 40
8.0
 40
8.0
 40
8.0
 40
9.0
 40
9.0
 40
9.0
 40
9.0
 10
14.50443765913431
 20
-7.145196938317867
 30
0.0
 10
14.55862901111729
 20
-7.145196938317867
 30
0.0
 10
14.62720363675118
 20
-7.117257213932491
 30
0.0
 10
14.62720363675118
 20
-7.052058781874138
 30
0.0
 10
14.62720363675118
 20
-7.008030461572644
 30
0.0
 10
14.59926391236581
 20
-6.969083657111895
 30
0.0
 10
14.53067206125448
 20
-6.969083657111895
 30
0.0
 10
14.48664374095299
 20
-6.969083657111895
 30
0.0
 10
14.44430351743927
 20
-6.988548446603558
 30
0.0
 10
14.42060126050075
 20
-7.005498316390986
 30
0.0
  0
SPLINE
  5
17A
330
1F
100
AcDbEntity
  8
Livello 3
100
AcDbSpline
210
0.0
220
0.0
230
1.0
 70
    24
 71
     3
 72
     8
 73
     4
 74
     0
 42
0.000000001
 43
0.0000000001
 40
9.0
 40
9.0
 40
9.0
 40
9.0
 40
10.0
 40
10.0
 40
10.0
 40
10.0
 10
14.42060126050075
 20
-7.005498316390986
 30
0.0
 10
14.42060126050075
 20
-7.005498316390986
 30
0.0
 10
14.40111924553166
 20
-6.951306964408005
 30
0.0
 10
14.40111924553166
 20
-6.951306964408005
 30
0.0
  0
SPLINE
  5
17B
330
1F
100
AcDbEntity
  8
Livello 3
100
AcDbSpline
210
0.0
220
0.0
230
1.0
 70
     8
 71
     3
 72
    14
 73
    10
 74
     0
 42
0.000000001
 43
0.0000000001
 40
10.0
 40
10.0
 40
10.0
 40
10.0
 40
11.0
 40
11.0
 40
11.0
 40
12.0
 40
12.0
 40
12.0
 40
13.0
 40
13.0
 40
13.0
 40
13.0
 10
14.40111924553166
 20
-6.951306964408005
 30
0.0
 10
14.42992024378835
 20
-6.930136852651146
 30
0.0
 10
14.48579969255911
 20
-6.908966740894286
 30
0.0
 10
14.54507256038283
 20
-6.908966740894286
 30
0.0
 10
14.65345526434879
 20
-6.908966740894286
 30
0.0
 10
14.70256510049103
 20
-6.973321124558752
 30
0.0
 10
14.70256510049103
 20
-7.040207653404878
 30
0.0
 10
14.70256510049103
 20
-7.096931150569517
 30
0.0
 10
14.66869981187102
 20
-7.145196938317867
 30
0.0
 10
14.60095200915358
 20
-7.169760469127699
 30
0.0
  0
SPLINE
  5
17F
330
1F
100
AcDbEntity
  8
Livello 3
100
AcDbSpline
210
0.0
220
0.0
230
1.0
 70
    24
 71
     3
 72
     8
 73
     4
 74
     0
 42
0.000000001
 43
0.0000000001
 40
0.0
 40
0.0
 40
0.0
 40
0.0
 40
1.0
 40
1.0
 40
1.0
 40
1.0
 10
18.05695122161423
 20
-4.873380397002141
 30
0.0
 10
18.05695122161423
 20
-4.873380397002141
 30
0.0
 10
18.01123480452497
 20
-4.873380397002141
 30
0.0
 10
18.01123480452497
 20
-4.873380397002141
 30
0.0
  0
SPLINE
  5
180
330
1F
100
AcDbEntity
  8
Livello 3
100
AcDbSpline
210
0.0
220
0.0
230
1.0
 70
    24
 71
     3
 72
     8
 73
     4
 74
     0
 42
0.000000001
 43
0.0000000001
 40
1.0
 40
1.0
 40
1.0
 40
1.0
 40
2.0
 40
2.0
 40
2.0
 40
2.0
 10
18.01123480452497
 20
-4.873380397002141
 30
0.0
 10
18.01123480452497
 20
-4.873380397002141
 30
0.0
 10
17.9544940818829
 20
-4.814951577572303
 30
0.0
 10
17.9544940818829
 20
-4.814951577572303
 30
0.0
  0
SPLINE
  5
181
330
1F
100
AcDbEntity
  8
Livello 3
100
AcDbSpline
210
0.0
220
0.0
230
1.0
 70
     8
 71
     3
 72
     8
 73
     4
 74
     0
 42
0.000000001
 43
0.0000000001
 40
2.0
 40
2.0
 40
2.0
 40
2.0
 40
3.0
 40
3.0
 40
3.0
 40
3.0
 10
17.9544940818829
 20
-4.814951577572303
 30
0.0
 10
17.8206865732358
 20
-4.67439168177411
 30
0.0
 10
17.74957980242024
 20
-4.610898571980956
 30
0.0
 10
17.66658745218058
 20
-4.610037298109643
 30
0.0
  0
SPLINE
  5
182
330
1F
100
AcDbEntity
  8
Livello 3
100
AcDbSpline
210
0.0
220
0.0
230
1.0
 70
     8
 71
     3
 72
    11
 73
     7
 74
     0
 42
0.000000001
 43
0.0000000001
 40
3.0
 40
3.0
 40
3.0
 40
3.0
 40
4.0
 40
4.0
 40
4.0
 40
5.0
 40
5.0
 40
5.0
 40
5.0
 10
17.66658745218058
 20
-4.610037298109643
 30
0.0
 10
17.61070800340982
 20
-4.610037298109643
 30
0.0
 10
17.55906602208593
 20
-4.637132974101132
 30
0.0
 10
17.55906602208593
 20
-4.719281275946915
 30
0.0
 10
17.55906602208593
 20
-4.769235160483039
 30
0.0
 10
17.58445637581222
 20
-4.810714110125446
 30
0.0
 10
17.6056437130465
 20
-4.836121689329163
 30
0.0
  0
SPLINE
  5
183
330
1F
100
AcDbEntity
  8
Livello 3
100
AcDbSpline
210
0.0
220
0.0
230
1.0
 70
    24
 71
     3
 72
     8
 73
     4
 74
     0
 42
0.000000001
 43
0.0000000001
 40
5.0
 40
5.0
 40
5.0
 40
5.0
 40
6.0
 40
6.0
 40
6.0
 40
6.0
 10
17.6056437130465
 20
-4.836121689329163
 30
0.0
 10
17.6056437130465
 20
-4.836121689329163
 30
0.0
 10
17.5531404578513
 20
-4.859823946267681
 30
0.0
 10
17.5531404578513
 20
-4.859823946267681
 30
0.0
  0
SPLINE
  5
184
330
1F
100
AcDbEntity
  8
Livello 3
100
AcDbSpline
210
0.0
220
0.0
230
1.0
 70
     8
 71
     3
 72
    14
 73
    10
 74
     0
 42
0.000000001
 43
0.0000000001
 40
6.0
 40
6.0
 40
6.0
 40
6.0
 40
7.0
 40
7.0
 40
7.0
 40
8.0
 40
8.0
 40
8.0
 40
9.0
 40
9.0
 40
9.0
 40
9.0
 10
17.5531404578513
 20
-4.859823946267681
 30
0.0
 10
17.52096326601906
 20
-4.82172119020082
 30
0.0
 10
17.49726100908055
 20
-4.767529838217839
 30
0.0
 10
17.49726100908055
 20
-4.704036728424684
 30
0.0
 10
17.49726100908055
 20
-4.585490992777238
 30
0.0
 10
17.57853081157759
 20
-4.535537108241115
 30
0.0
 10
17.6572856943704
 20
-4.535537108241115
 30
0.0
 10
17.75888156023042
 20
-4.535537108241115
 30
0.0
 10
17.84101263659877
 20
-4.609193249715756
 30
0.0
 10
17.95280598509513
 20
-4.725206840181544
 30
0.0
  0
SPLINE
  5
185
330
1F
100
AcDbEntity
  8
Livello 3
100
AcDbSpline
210
0.0
220
0.0
230
1.0
 70
    24
 71
     3
 72
     8
 73
     4
 74
     0
 42
0.000000001
 43
0.0000000001
 40
9.0
 40
9.0
 40
9.0
 40
9.0
 40
10.0
 40
10.0
 40
10.0
 40
10.0
 10
17.95280598509513
 20
-4.725206840181544
 30
0.0
 10
17.95280598509513
 20
-4.725206840181544
 30
0.0
 10
17.99342366086623
 20
-4.769235160483039
 30
0.0
 10
17.99342366086623
 20
-4.769235160483039
 30
0.0
  0
SPLINE
  5
186
330
1F
100
AcDbEntity
  8
Livello 3
100
AcDbSpline
210
0.0
220
0.0
230
1.0
 70
    24
 71
     3
 72
     8
 73
     4
 74
     0
 42
0.000000001
 43
0.0000000001
 40
10.0
 40
10.0
 40
10.0
 40
10.0
 40
11.0
 40
11.0
 40
11.0
 40
11.0
 10
17.99342366086623
 20
-4.769235160483039
 30
0.0
 10
17.99342366086623
 20
-4.769235160483039
 30
0.0
 10
17.99514620860885
 20
-4.769235160483039
 30
0.0
 10
17.99514620860885
 20
-4.769235160483039
 30
0.0
  0
SPLINE
  5
187
330
1F
100
AcDbEntity
  8
Livello 3
100
AcDbSpline
210
0.0
220
0.0
230
1.0
 70
    24
 71
     3
 72
     8
 73
     4
 74
     0
 42
0.000000001
 43
0.0000000001
 40
11.0
 40
11.0
 40
11.0
 40
11.0
 40
12.0
 40
12.0
 40
12.0
 40
12.0
 10
17.99514620860885
 20
-4.769235160483039
 30
0.0
 10
17.99514620860885
 20
-4.769235160483039
 30
0.0
 10
17.99514620860885
 20
-4.521980657506657
 30
0.0
 10
17.99514620860885
 20
-4.521980657506657
 30
0.0
  0
SPLINE
  5
188
330
1F
100
AcDbEntity
  8
Livello 3
100
AcDbSpline
210
0.0
220
0.0
230
1.0
 70
    24
 71
     3
 72
     8
 73
     4
 74
     0
 42
0.000000001
 43
0.0000000001
 40
12.0
 40
12.0
 40
12.0
 40
12.0
 40
13.0
 40
13.0
 40
13.0
 40
13.0
 10
17.99514620860885
 20
-4.521980657506657
 30
0.0
 10
17.99514620860885
 20
-4.521980657506657
 30
0.0
 10
18.05695122161423
 20
-4.521980657506657
 30
0.0
 10
18.05695122161423
 20
-4.521980657506657
 30
0.0
  0
SPLINE
  5
189
330
1F
100
AcDbEntity
  8
Livello 3
100
AcDbSpline
210
0.0
220
0.0
230
1.0
 70
    24
 71
     3
 72
     8
 73
     4
 74
     0
 42
0.000000001
 43
0.0000000001
 40
13.0
 40
13.0
 40
13.0
 40
13.0
 40
14.0
 40
14.0
 40
14.0
 40
14.0
 10
18.05695122161423
 20
-4.521980657506657
 30
0.0
 10
18.05695122161423
 20
-4.521980657506657
 30
0.0
 10
18.05695122161423
 20
-4.873380397002141
 30
0.0
 10
18.05695122161423
 20
-4.873380397002141
 30
0.0
  0
LINE
  5
18A
330
1F
100
AcDbEntity
  8
Livello 3
100
AcDbLine
 10
18.05695122161423
 20
-4.208735350510316
 30
0.0
 11
17.90705511705101
 21
-4.208735350510316
 31
0.0
  0
LINE
  5
18B
330
1F
100
AcDbEntity
  8
Livello 3
100
AcDbLine
 10
17.90705511705101
 20
-4.208735350510316
 30
0.0
 11
17.90705511705101
 21
-4.464464788380411
 31
0.0
  0
LINE
  5
18C
330
1F
100
AcDbEntity
  8
Livello 3
100
AcDbLine
 10
17.90705511705101
 20
-4.464464788380411
 30
0.0
 11
17.8579625063862
 21
-4.464464788380411
 31
0.0
  0
LINE
  5
18D
330
1F
100
AcDbEntity
  8
Livello 3
100
AcDbLine
 10
17.8579625063862
 20
-4.464464788380411
 30
0.0
 11
17.50656276689072
 21
-4.218898382191803
 31
0.0
  0
LINE
  5
18E
330
1F
100
AcDbEntity
  8
Livello 3
100
AcDbLine
 10
17.50656276689072
 20
-4.218898382191803
 30
0.0
 11
17.50656276689072
 21
-4.138455402611218
 31
0.0
  0
LINE
  5
18F
330
1F
100
AcDbEntity
  8
Livello 3
100
AcDbLine
 10
17.50656276689072
 20
-4.138455402611218
 30
0.0
 11
17.84866074857603
 21
-4.138455402611218
 31
0.0
  0
LINE
  5
190
330
1F
100
AcDbEntity
  8
Livello 3
100
AcDbLine
 10
17.84866074857603
 20
-4.138455402611218
 30
0.0
 11
17.84866074857603
 21
-4.061405842083606
 31
0.0
  0
LINE
  5
191
330
1F
100
AcDbEntity
  8
Livello 3
100
AcDbLine
 10
17.84866074857603
 20
-4.061405842083606
 30
0.0
 11
17.90705511705101
 21
-4.061405842083606
 31
0.0
  0
LINE
  5
192
330
1F
100
AcDbEntity
  8
Livello 3
100
AcDbLine
 10
17.90705511705101
 20
-4.061405842083606
 30
0.0
 11
17.90705511705101
 21
-4.138455402611218
 31
0.0
  0
LINE
  5
193
330
1F
100
AcDbEntity
  8
Livello 3
100
AcDbLine
 10
17.90705511705101
 20
-4.138455402611218
 30
0.0
 11
18.05695122161423
 21
-4.138455402611218
 31
0.0
  0
LINE
  5
194
330
1F
100
AcDbEntity
  8
Livello 3
100
AcDbLine
 10
18.05695122161423
 20
-4.138455402611218
 30
0.0
 11
18.05695122161423
 21
-4.208735350510316
 31
0.0
  0
SPLINE
  5
195
330
1F
100
AcDbEntity
  8
Livello 3
100
AcDbSpline
210
0.0
220
0.0
230
1.0
 70
    24
 71
     3
 72
     8
 73
     4
 74
     0
 42
0.000000001
 43
0.0000000001
 40
0.0
 40
0.0
 40
0.0
 40
0.0
 40
1.0
 40
1.0
 40
1.0
 40
1.0
 10
17.84866074857603
 20
-4.208735350510316
 30
0.0
 10
17.84866074857603
 20
-4.208735350510316
 30
0.0
 10
17.6648993553928
 20
-4.208735350510316
 30
0.0
 10
17.6648993553928
 20
-4.208735350510316
 30
0.0
  0
SPLINE
  5
196
330
1F
100
AcDbEntity
  8
Livello 3
100
AcDbSpline
210
0.0
220
0.0
230
1.0
 70
     8
 71
     3
 72
     8
 73
     4
 74
     0
 42
0.000000001
 43
0.0000000001
 40
1.0
 40
1.0
 40
1.0
 40
1.0
 40
2.0
 40
2.0
 40
2.0
 40
2.0
 10
17.6648993553928
 20
-4.208735350510316
 30
0.0
 10
17.63609835713611
 20
-4.208735350510316
 30
0.0
 10
17.60733180983428
 20
-4.20789130211643
 30
0.0
 10
17.57853081157759
 20
-4.206203205328658
 30
0.0
  0
SPLINE
  5
197
330
1F
100
AcDbEntity
  8
Livello 3
100
AcDbSpline
210
0.0
220
0.0
230
1.0
 70
    24
 71
     3
 72
     8
 73
     4
 74
     0
 42
0.000000001
 43
0.0000000001
 40
2.0
 40
2.0
 40
2.0
 40
2.0
 40
3.0
 40
3.0
 40
3.0
 40
3.0
 10
17.57853081157759
 20
-4.206203205328658
 30
0.0
 10
17.57853081157759
 20
-4.206203205328658
 30
0.0
 10
17.57853081157759
 20
-4.208735350510316
 30
0.0
 10
17.57853081157759
 20
-4.208735350510316
 30
0.0
  0
SPLINE
  5
198
330
1F
100
AcDbEntity
  8
Livello 3
100
AcDbSpline
210
0.0
220
0.0
230
1.0
 70
     8
 71
     3
 72
     8
 73
     4
 74
     0
 42
0.000000001
 43
0.0000000001
 40
3.0
 40
3.0
 40
3.0
 40
3.0
 40
4.0
 40
4.0
 40
4.0
 40
4.0
 10
17.57853081157759
 20
-4.208735350510316
 30
0.0
 10
17.61070800340982
 20
-4.225685220297744
 30
0.0
 10
17.63441026034834
 20
-4.239224445554777
 30
0.0
 10
17.65983506502948
 20
-4.254468993077006
 30
0.0
  0
SPLINE
  5
199
330
1F
100
AcDbEntity
  8
Livello 3
100
AcDbSpline
210
0.0
220
0.0
230
1.0
 70
    24
 71
     3
 72
     8
 73
     4
 74
     0
 42
0.000000001
 43
0.0000000001
 40
4.0
 40
4.0
 40
4.0
 40
4.0
 40
5.0
 40
5.0
 40
5.0
 40
5.0
 10
17.65983506502948
 20
-4.254468993077006
 30
0.0
 10
17.65983506502948
 20
-4.254468993077006
 30
0.0
 10
17.8469382008334
 20
-4.389103324640571
 30
0.0
 10
17.8469382008334
 20
-4.389103324640571
 30
0.0
  0
SPLINE
  5
19A
330
1F
100
AcDbEntity
  8
Livello 3
100
AcDbSpline
210
0.0
220
0.0
230
1.0
 70
    24
 71
     3
 72
     8
 73
     4
 74
     0
 42
0.000000001
 43
0.0000000001
 40
5.0
 40
5.0
 40
5.0
 40
5.0
 40
6.0
 40
6.0
 40
6.0
 40
6.0
 10
17.8469382008334
 20
-4.389103324640571
 30
0.0
 10
17.8469382008334
 20
-4.389103324640571
 30
0.0
 10
17.84866074857603
 20
-4.389103324640571
 30
0.0
 10
17.84866074857603
 20
-4.389103324640571
 30
0.0
  0
SPLINE
  5
19B
330
1F
100
AcDbEntity
  8
Livello 3
100
AcDbSpline
210
0.0
220
0.0
230
1.0
 70
    24
 71
     3
 72
     8
 73
     4
 74
     0
 42
0.000000001
 43
0.0000000001
 40
6.0
 40
6.0
 40
6.0
 40
6.0
 40
7.0
 40
7.0
 40
7.0
 40
7.0
 10
17.84866074857603
 20
-4.389103324640571
 30
0.0
 10
17.84866074857603
 20
-4.389103324640571
 30
0.0
 10
17.84866074857603
 20
-4.208735350510316
 30
0.0
 10
17.84866074857603
 20
-4.208735350510316
 30
0.0
  0
SPLINE
  5
19C
330
1F
100
AcDbEntity
  8
Livello 3
100
AcDbSpline
210
0.0
220
0.0
230
1.0
 70
     8
 71
     3
 72
     8
 73
     4
 74
     0
 42
0.000000001
 43
0.0000000001
 40
0.0
 40
0.0
 40
0.0
 40
0.0
 40
1.0
 40
1.0
 40
1.0
 40
1.0
 10
18.16109645813334
 20
-4.029280326683651
 30
0.0
 10
18.11114257359721
 20
-4.010659585585877
 30
0.0
 10
18.02053656233514
 20
-3.987801377041243
 30
0.0
 10
17.95873154932976
 20
-3.978482393753643
 30
0.0
  0
SPLINE
  5
19D
330
1F
100
AcDbEntity
  8
Livello 3
100
AcDbSpline
210
0.0
220
0.0
230
1.0
 70
    24
 71
     3
 72
     8
 73
     4
 74
     0
 42
0.000000001
 43
0.0000000001
 40
1.0
 40
1.0
 40
1.0
 40
1.0
 40
2.0
 40
2.0
 40
2.0
 40
2.0
 10
17.95873154932976
 20
-3.978482393753643
 30
0.0
 10
17.95873154932976
 20
-3.978482393753643
 30
0.0
 10
17.95025661443605
 20
-3.8955072689914
 30
0.0
 10
17.95025661443605
 20
-3.8955072689914
 30
0.0
  0
SPLINE
  5
19E
330
1F
100
AcDbEntity
  8
Livello 3
100
AcDbSpline
210
0.0
220
0.0
230
1.0
 70
     8
 71
     3
 72
     8
 73
     4
 74
     0
 42
0.000000001
 43
0.0000000001
 40
2.0
 40
2.0
 40
2.0
 40
2.0
 40
3.0
 40
3.0
 40
3.0
 40
3.0
 10
17.95025661443605
 20
-3.8955072689914
 30
0.0
 10
18.02222465912292
 20
-3.914972058483061
 30
0.0
 10
18.11620686396053
 20
-3.952230766156038
 30
0.0
 10
18.15599771681515
 20
-3.975950248571983
 30
0.0
  0
SPLINE
  5
19F
330
1F
100
AcDbEntity
  8
Livello 3
100
AcDbSpline
210
0.0
220
0.0
230
1.0
 70
    24
 71
     3
 72
     8
 73
     4
 74
     0
 42
0.000000001
 43
0.0000000001
 40
3.0
 40
3.0
 40
3.0
 40
3.0
 40
4.0
 40
4.0
 40
4.0
 40
4.0
 10
18.15599771681515
 20
-3.975950248571983
 30
0.0
 10
18.15599771681515
 20
-3.975950248571983
 30
0.0
 10
18.16109645813334
 20
-4.029280326683651
 30
0.0
 10
18.16109645813334
 20
-4.029280326683651
 30
0.0
  0
SPLINE
  5
1A0
330
1F
100
AcDbEntity
  8
Livello 3
100
AcDbSpline
210
0.0
220
0.0
230
1.0
 70
    24
 71
     3
 72
     8
 73
     4
 74
     0
 42
0.000000001
 43
0.0000000001
 40
0.0
 40
0.0
 40
0.0
 40
0.0
 40
1.0
 40
1.0
 40
1.0
 40
1.0
 10
17.56922905376742
 20
-3.500940483065736
 30
0.0
 10
17.56922905376742
 20
-3.500940483065736
 30
0.0
 10
17.56922905376742
 20
-3.710936278369141
 30
0.0
 10
17.56922905376742
 20
-3.710936278369141
 30
0.0
  0
SPLINE
  5
1A1
330
1F
100
AcDbEntity
  8
Livello 3
100
AcDbSpline
210
0.0
220
0.0
230
1.0
 70
    24
 71
     3
 72
     8
 73
     4
 74
     0
 42
0.000000001
 43
0.0000000001
 40
1.0
 40
1.0
 40
1.0
 40
1.0
 40
2.0
 40
2.0
 40
2.0
 40
2.0
 10
17.56922905376742
 20
-3.710936278369141
 30
0.0
 10
17.56922905376742
 20
-3.710936278369141
 30
0.0
 10
17.71061577248207
 20
-3.732106390126001
 30
0.0
 10
17.71061577248207
 20
-3.732106390126001
 30
0.0
  0
SPLINE
  5
1A2
330
1F
100
AcDbEntity
  8
Livello 3
100
AcDbSpline
210
0.0
220
0.0
230
1.0
 70
     8
 71
     3
 72
    11
 73
     7
 74
     0
 42
0.000000001
 43
0.0000000001
 40
2.0
 40
2.0
 40
2.0
 40
2.0
 40
3.0
 40
3.0
 40
3.0
 40
4.0
 40
4.0
 40
4.0
 40
4.0
 10
17.71061577248207
 20
-3.732106390126001
 30
0.0
 10
17.70892767569429
 20
-3.719411213262854
 30
0.0
 10
17.70723957890652
 20
-3.707542859316169
 30
0.0
 10
17.70723957890652
 20
-3.687234021430622
 30
0.0
 10
17.70723957890652
 20
-3.644893797916901
 30
0.0
 10
17.7165413367167
 20
-3.60255357440318
 30
0.0
 10
17.73686740007967
 20
-3.568688285783174
 30
0.0
  0
SPLINE
  5
1A3
330
1F
100
AcDbEntity
  8
Livello 3
100
AcDbSpline
210
0.0
220
0.0
230
1.0
 70
     8
 71
     3
 72
    14
 73
    10
 74
     0
 42
0.000000001
 43
0.0000000001
 40
4.0
 40
4.0
 40
4.0
 40
4.0
 40
5.0
 40
5.0
 40
5.0
 40
6.0
 40
6.0
 40
6.0
 40
7.0
 40
7.0
 40
7.0
 40
7.0
 10
17.73686740007967
 20
-3.568688285783174
 30
0.0
 10
17.7614309308895
 20
-3.525504013875568
 30
0.0
 10
17.80883544476654
 20
-3.489933402990363
 30
0.0
 10
17.87828856974918
 20
-3.489933402990363
 30
0.0
 10
17.98580999984382
 20
-3.489933402990363
 30
0.0
 10
18.06625297942441
 20
-3.575457898411691
 30
0.0
 10
18.06625297942441
 20
-3.694847682453023
 30
0.0
 10
18.06625297942441
 20
-3.754964598670634
 30
0.0
 10
18.04933756059183
 20
-3.805779757078068
 30
0.0
 10
18.0323876908044
 20
-3.832014159198246
 30
0.0
  0
SPLINE
  5
1A4
330
1F
100
AcDbEntity
  8
Livello 3
100
AcDbSpline
210
0.0
220
0.0
230
1.0
 70
    24
 71
     3
 72
     8
 73
     4
 74
     0
 42
0.000000001
 43
0.0000000001
 40
7.0
 40
7.0
 40
7.0
 40
7.0
 40
8.0
 40
8.0
 40
8.0
 40
8.0
 10
18.0323876908044
 20
-3.832014159198246
 30
0.0
 10
18.0323876908044
 20
-3.832014159198246
 30
0.0
 10
17.97564696816233
 20
-3.81339341810047
 30
0.0
 10
17.97564696816233
 20
-3.81339341810047
 30
0.0
  0
SPLINE
  5
1A5
330
1F
100
AcDbEntity
  8
Livello 3
100
AcDbSpline
210
0.0
220
0.0
230
1.0
 70
     8
 71
     3
 72
    11
 73
     7
 74
     0
 42
0.000000001
 43
0.0000000001
 40
8.0
 40
8.0
 40
8.0
 40
8.0
 40
9.0
 40
9.0
 40
9.0
 40
10.0
 40
10.0
 40
10.0
 40
10.0
 10
17.97564696816233
 20
-3.81339341810047
 30
0.0
 10
17.98922064437421
 20
-3.790535209555838
 30
0.0
 10
18.0061360632068
 20
-3.745645615383033
 30
0.0
 10
18.0061360632068
 20
-3.695691730846909
 30
0.0
 10
18.0061360632068
 20
-3.625411782947813
 30
0.0
 10
17.96041964611753
 20
-3.565294866730203
 30
0.0
 10
17.88676350464289
 20
-3.565294866730203
 30
0.0
  0
SPLINE
  5
1A6
330
1F
100
AcDbEntity
  8
Livello 3
100
AcDbSpline
210
0.0
220
0.0
230
1.0
 70
     8
 71
     3
 72
    11
 73
     7
 74
     0
 42
0.000000001
 43
0.0000000001
 40
10.0
 40
10.0
 40
10.0
 40
10.0
 40
11.0
 40
11.0
 40
11.0
 40
12.0
 40
12.0
 40
12.0
 40
12.0
 10
17.88676350464289
 20
-3.565294866730203
 30
0.0
 10
17.81562228287248
 20
-3.566138915124089
 30
0.0
 10
17.76480712446505
 20
-3.613560654478553
 30
0.0
 10
17.76480712446505
 20
-3.723631455232285
 30
0.0
 10
17.76480712446505
 20
-3.754964598670634
 30
0.0
 10
17.76821776899545
 20
-3.779528129480465
 30
0.0
 10
17.77073268869968
 20
-3.799836967366013
 30
0.0
  0
SPLINE
  5
1A7
330
1F
100
AcDbEntity
  8
Livello 3
100
AcDbSpline
210
0.0
220
0.0
230
1.0
 70
    24
 71
     3
 72
     8
 73
     4
 74
     0
 42
0.000000001
 43
0.0000000001
 40
12.0
 40
12.0
 40
12.0
 40
12.0
 40
13.0
 40
13.0
 40
13.0
 40
13.0
 10
17.77073268869968
 20
-3.799836967366013
 30
0.0
 10
17.77073268869968
 20
-3.799836967366013
 30
0.0
 10
17.50656276689072
 20
-3.764283581958233
 30
0.0
 10
17.50656276689072
 20
-3.764283581958233
 30
0.0
  0
SPLINE
  5
1A8
330
1F
100
AcDbEntity
  8
Livello 3
100
AcDbSpline
210
0.0
220
0.0
230
1.0
 70
    24
 71
     3
 72
     8
 73
     4
 74
     0
 42
0.000000001
 43
0.0000000001
 40
13.0
 40
13.0
 40
13.0
 40
13.0
 40
14.0
 40
14.0
 40
14.0
 40
14.0
 10
17.50656276689072
 20
-3.764283581958233
 30
0.0
 10
17.50656276689072
 20
-3.764283581958233
 30
0.0
 10
17.50656276689072
 20
-3.500940483065736
 30
0.0
 10
17.50656276689072
 20
-3.500940483065736
 30
0.0
  0
SPLINE
  5
1A9
330
1F
100
AcDbEntity
  8
Livello 3
100
AcDbSpline
210
0.0
220
0.0
230
1.0
 70
    24
 71
     3
 72
     8
 73
     4
 74
     0
 42
0.000000001
 43
0.0000000001
 40
14.0
 40
14.0
 40
14.0
 40
14.0
 40
15.0
 40
15.0
 40
15.0
 40
15.0
 10
17.50656276689072
 20
-3.500940483065736
 30
0.0
 10
17.50656276689072
 20
-3.500940483065736
 30
0.0
 10
17.56922905376742
 20
-3.500940483065736
 30
0.0
 10
17.56922905376742
 20
-3.500940483065736
 30
0.0
  0
ENDSEC
  0
SECTION
  2
OBJECTS
  0
DICTIONARY
  5
C
330
0
100
AcDbDictionary
281
     1
  3
ACAD_CIP_PREVIOUS_PRODUCT_INFO
350
E3
  3
ACAD_COLOR
350
C4
  3
ACAD_DETAILVIEWSTYLE
350
DF
  3
ACAD_GROUP
350
D
  3
ACAD_LAYOUT
350
1A
  3
ACAD_MATERIAL
350
3B
  3
ACAD_MLEADERSTYLE
350
B7
  3
ACAD_MLINESTYLE
350
17
  3
ACAD_PLOTSETTINGS
350
19
  3
ACAD_PLOTSTYLENAME
350
E
  3
ACAD_SCALELIST
350
C6
  3
ACAD_SECTIONVIEWSTYLE
350
DD
  3
ACAD_TABLESTYLE
350
B6
  3
ACAD_VISUALSTYLE
350
2A
  3
ACDB_RECOMPOSE_DATA
350
1B3
  3
AcDbVariableDictionary
350
1AB
  0
SUN
  5
3F
330
29
100
AcDbSun
 90
        1
290
     1
 63
     7
421
 16777215
 40
1.0
291
     1
 91
  2455826
 92
 54000000
292
     0
 70
     0
 71
   256
280
     1
1001
ACAD
1000
AcDbSavedByObjectVersion
1070
     0
  0
DICTIONARY
  5
E4
330
1F
100
AcDbDictionary
280
     1
281
     1
  3
ACAD_SORTENTS
360
E5
  0
XRECORD
  5
E3
102
{ACAD_REACTORS
330
C
102
}
330
C
100
AcDbXrecord
280
     1
300
ACD
300
2019
300
ACD_F_S
  0
DICTIONARY
  5
C4
102
{ACAD_REACTORS
330
C
102
}
330
C
100
AcDbDictionary
281
     1
  0
DICTIONARY
  5
DF
102
{ACAD_REACTORS
330
C
102
}
330
C
100
AcDbDictionary
281
     1
  3
Imperial24
350
E0
  0
DICTIONARY
  5
D
102
{ACAD_REACTORS
330
C
102
}
330
C
100
AcDbDictionary
281
     1
  0
DICTIONARY
  5
1A
102
{ACAD_REACTORS
330
C
102
}
330
C
100
AcDbDictionary
281
     1
  3
Layout1
350
1E
  3
Layout2
350
26
  3
Model
350
22
  0
DICTIONARY
  5
3B
102
{ACAD_REACTORS
330
C
102
}
330
C
100
AcDbDictionary
281
     1
  3
ByBlock
350
3D
  3
ByLayer
350
3C
  3
Global
350
3E
  0
DICTIONARY
  5
B7
102
{ACAD_REACTORS
330
C
102
}
330
C
100
AcDbDictionary
281
     1
  3
Standard
350
DC
  0
DICTIONARY
  5
17
102
{ACAD_REACTORS
330
C
102
}
330
C
100
AcDbDictionary
281
     1
  3
Standard
350
18
  0
DICTIONARY
  5
19
102
{ACAD_REACTORS
330
C
102
}
330
C
100
AcDbDictionary
281
     1
  0
ACDBDICTIONARYWDFLT
  5
E
102
{ACAD_REACTORS
330
C
102
}
330
C
100
AcDbDictionary
281
     1
  3
Normal
350
F
100
AcDbDictionaryWithDefault
340
F
  0
DICTIONARY
  5
C6
102
{ACAD_REACTORS
330
C
102
}
330
C
100
AcDbDictionary
281
     1
  3
A0
350
C7
  3
A1
350
C8
  3
A2
350
C9
  3
A3
350
CA
  3
A4
350
CB
  3
A5
350
CC
  3
A6
350
CD
  3
A7
350
CE
  3
A8
350
CF
  3
A9
350
D0
  3
B0
350
D1
  3
B1
350
D2
  3
B2
350
D3
  3
B3
350
D4
  3
B4
350
D5
  3
B5
350
D6
  3
B6
350
D7
  3
B7
350
D8
  3
B8
350
D9
  3
B9
350
DA
  3
C0
350
DB
  0
DICTIONARY
  5
DD
102
{ACAD_REACTORS
330
C
102
}
330
C
100
AcDbDictionary
281
     1
  3
Imperial24
350
DE
  0
DICTIONARY
  5
B6
102
{ACAD_REACTORS
330
C
102
}
330
C
100
AcDbDictionary
281
     1
  3
Standard
350
C5
  0
DICTIONARY
  5
2A
102
{ACAD_REACTORS
330
C
102
}
330
C
100
AcDbDictionary
281
     1
  3
2dWireframe
350
2F
  3
3D Hidden
350
31
  3
3dWireframe
350
30
  3
Basic
350
32
  3
Brighten
350
36
  3
ColorChange
350
3A
  3
Conceptual
350
34
  3
Dim
350
35
  3
EdgeColorOff
350
C3
  3
Facepattern
350
39
  3
Flat
350
2B
  3
FlatWithEdges
350
2C
  3
Gouraud
350
2D
  3
GouraudWithEdges
350
2E
  3
Hidden
350
BB
  3
JitterOff
350
C1
  3
Linepattern
350
38
  3
OverhangOff
350
C2
  3
Realistic
350
33
  3
Shaded
350
C0
  3
Shaded with edges
350
BF
  3
Shades of Gray
350
BC
  3
Sketchy
350
BD
  3
Thicken
350
37
  3
Wireframe
350
BA
  3
X-Ray
350
BE
  0
XRECORD
  5
1B3
102
{ACAD_REACTORS
330
C
102
}
330
C
100
AcDbXrecord
280
     1
 90
        1
330
C5
  0
DICTIONARY
  5
1AB
102
{ACAD_REACTORS
330
C
102
}
330
C
100
AcDbDictionary
281
     1
  3
CANNOSCALE
350
1B0
  3
CMLEADERSTYLE
350
1AD
  3
CTABLESTYLE
350
1AC
  3
CVIEWDETAILSTYLE
350
1AE
  3
CVIEWSECTIONSTYLE
350
1AF
  0
SORTENTSTABLE
  5
E5
102
{ACAD_REACTORS
330
E4
102
}
330
E4
100
AcDbSortentsTable
330
1F
331
FB
  5
13A
331
FC
  5
13B
331
12F
  5
F9
331
138
  5
134
331
139
  5
135
331
13A
  5
136
331
13B
  5
137
  0
ACDBDETAILVIEWSTYLE
  5
E0
102
{ACAD_XDICTIONARY
360
1B6
102
}
102
{ACAD_REACTORS
330
DF
102
}
330
DF
100
AcDbModelDocViewStyle
 70
     0
  3
Imperial24
290
     0
100
AcDbDetailViewStyle
 70
     0
 71
     0
 90
        3
 71
     1
340
11
 62
   256
 40
0.24
340
0
 62
   256
 40
0.24
300

 40
0.36
280
     3
 71
     2
340
16
 90
       25
 62
   256
 71
     3
340
11
 62
   256
 40
0.24
 90
        1
 40
0.75
 90
        1
300
%<\AcVar ViewType \f "%tc1">% %<\AcVar ViewDetailId>%\PSCALA %<\AcVar ViewScale \f "%sn">%
 71
     4
340
16
 90
       25
 62
   256
340
16
 90
       25
 62
   256
280
     0
  0
LAYOUT
  5
1E
102
{ACAD_REACTORS
330
1A
102
}
330
1A
100
AcDbPlotSettings
  1

  2
none_device
  4

  6

 40
0.0
 41
0.0
 42
0.0
 43
0.0
 44
0.0
 45
0.0
 46
0.0
 47
0.0
 48
0.0
 49
0.0
140
0.0
141
0.0
142
1.0
143
1.0
 70
   688
 72
     0
 73
     0
 74
     5
  7

 75
    16
147
1.0
 76
     0
 77
     2
 78
   300
148
0.0
149
0.0
100
AcDbLayout
  1
Layout1
 70
     1
 71
     1
 10
0.0
 20
0.0
 11
12.0
 21
9.0
 12
0.0
 22
0.0
 32
0.0
 14
1.000000000000000E+20
 24
1.000000000000000E+20
 34
1.000000000000000E+20
 15
-1.000000000000000E+20
 25
-1.000000000000000E+20
 35
-1.000000000000000E+20
146
0.0
 13
0.0
 23
0.0
 33
0.0
 16
1.0
 26
0.0
 36
0.0
 17
0.0
 27
1.0
 37
0.0
 76
     0
330
1B
  0
LAYOUT
  5
26
102
{ACAD_REACTORS
330
1A
102
}
330
1A
100
AcDbPlotSettings
  1

  2
none_device
  4

  6

 40
0.0
 41
0.0
 42
0.0
 43
0.0
 44
0.0
 45
0.0
 46
0.0
 47
0.0
 48
0.0
 49
0.0
140
0.0
141
0.0
142
1.0
143
1.0
 70
   688
 72
     0
 73
     0
 74
     5
  7

 75
    16
147
1.0
 76
     0
 77
     2
 78
   300
148
0.0
149
0.0
100
AcDbLayout
  1
Layout2
 70
     1
 71
     2
 10
0.0
 20
0.0
 11
0.0
 21
0.0
 12
0.0
 22
0.0
 32
0.0
 14
0.0
 24
0.0
 34
0.0
 15
0.0
 25
0.0
 35
0.0
146
0.0
 13
0.0
 23
0.0
 33
0.0
 16
1.0
 26
0.0
 36
0.0
 17
0.0
 27
1.0
 37
0.0
 76
     0
330
23
  0
LAYOUT
  5
22
102
{ACAD_REACTORS
330
1A
102
}
330
1A
100
AcDbPlotSettings
  1

  2
none_device
  4

  6

 40
0.0
 41
0.0
 42
0.0
 43
0.0
 44
0.0
 45
0.0
 46
0.0
 47
0.0
 48
0.0
 49
0.0
140
0.0
141
0.0
142
1.0
143
1.0
 70
  1712
 72
     0
 73
     0
 74
     0
  7

 75
     0
147
1.0
 76
     0
 77
     2
 78
   300
148
0.0
149
0.0
100
AcDbLayout
  1
Model
 70
     1
 71
     0
 10
0.0
 20
0.0
 11
12.0
 21
9.0
 12
0.0
 22
0.0
 32
0.0
 14
1.000000000000000E+20
 24
1.000000000000000E+20
 34
1.000000000000000E+20
 15
-1.000000000000000E+20
 25
-1.000000000000000E+20
 35
-1.000000000000000E+20
146
0.0
 13
0.0
 23
0.0
 33
0.0
 16
1.0
 26
0.0
 36
0.0
 17
0.0
 27
1.0
 37
0.0
 76
     0
330
1F
331
29
  0
MATERIAL
  5
3D
102
{ACAD_REACTORS
330
3B
102
}
330
3B
100
AcDbMaterial
  1
ByBlock
  0
MATERIAL
  5
3C
102
{ACAD_REACTORS
330
3B
102
}
330
3B
100
AcDbMaterial
  1
ByLayer
  0
MATERIAL
  5
3E
102
{ACAD_REACTORS
330
3B
102
}
330
3B
100
AcDbMaterial
  1
Global
  0
MLEADERSTYLE
  5
DC
102
{ACAD_REACTORS
330
B7
102
}
330
B7
100
AcDbMLeaderStyle
179
     2
170
     2
171
     1
172
     0
 90
        2
 40
0.0
 41
0.0
173
     1
 91
-1056964608
340
14
 92
       -2
290
     1
 42
0.09
291
     1
 43
0.36
  3
Standard
 44
0.18
300

342
11
174
     1
178
     6
175
     1
176
     0
 93
-1056964608
 45
0.18
292
     0
297
     0
 46
0.18
 94
-1056964608
 47
1.0
 49
1.0
140
1.0
293
     1
141
0.0
294
     1
177
     0
142
1.0
295
     0
296
     0
143
0.125
271
     0
272
     9
273
     9
298
     0
  0
MLINESTYLE
  5
18
102
{ACAD_REACTORS
330
17
102
}
330
17
100
AcDbMlineStyle
  2
STANDARD
 70
     0
  3

 62
   256
 51
90.0
 52
90.0
 71
     2
 49
0.5
 62
   256
  6
BYLAYER
 49
-0.5
 62
   256
  6
BYLAYER
  0
ACDBPLACEHOLDER
  5
F
102
{ACAD_REACTORS
330
E
102
}
330
E
  0
SCALE
  5
C7
102
{ACAD_REACTORS
330
C6
102
}
330
C6
100
AcDbScale
 70
     0
300
1:1
140
1.0
141
1.0
290
     1
  0
SCALE
  5
C8
102
{ACAD_REACTORS
330
C6
102
}
330
C6
100
AcDbScale
 70
     0
300
1.10
140
1.0
141
10.0
290
     0
  0
SCALE
  5
C9
102
{ACAD_REACTORS
330
C6
102
}
330
C6
100
AcDbScale
 70
     0
300
1.50
140
1.0
141
50.0
290
     0
  0
SCALE
  5
CA
102
{ACAD_REACTORS
330
C6
102
}
330
C6
100
AcDbScale
 70
     0
300
1:100
140
1.0
141
100.0
290
     0
  0
SCALE
  5
CB
102
{ACAD_REACTORS
330
C6
102
}
330
C6
100
AcDbScale
 70
     0
300
1.200
140
1.0
141
200.0
290
     0
  0
SCALE
  5
CC
102
{ACAD_REACTORS
330
C6
102
}
330
C6
100
AcDbScale
 70
     0
300
1/128" = 1'-0"
140
0.0078125
141
12.0
290
     0
  0
SCALE
  5
CD
102
{ACAD_REACTORS
330
C6
102
}
330
C6
100
AcDbScale
 70
     0
300
1/64" = 1'-0"
140
0.015625
141
12.0
290
     0
  0
SCALE
  5
CE
102
{ACAD_REACTORS
330
C6
102
}
330
C6
100
AcDbScale
 70
     0
300
1/32" = 1'-0"
140
0.03125
141
12.0
290
     0
  0
SCALE
  5
CF
102
{ACAD_REACTORS
330
C6
102
}
330
C6
100
AcDbScale
 70
     0
300
1/16" = 1'-0"
140
0.0625
141
12.0
290
     0
  0
SCALE
  5
D0
102
{ACAD_REACTORS
330
C6
102
}
330
C6
100
AcDbScale
 70
     0
300
3/32" = 1'-0"
140
0.09375
141
12.0
290
     0
  0
SCALE
  5
D1
102
{ACAD_REACTORS
330
C6
102
}
330
C6
100
AcDbScale
 70
     0
300
1/8" = 1'-0"
140
0.125
141
12.0
290
     0
  0
SCALE
  5
D2
102
{ACAD_REACTORS
330
C6
102
}
330
C6
100
AcDbScale
 70
     0
300
3/16" = 1'-0"
140
0.1875
141
12.0
290
     0
  0
SCALE
  5
D3
102
{ACAD_REACTORS
330
C6
102
}
330
C6
100
AcDbScale
 70
     0
300
1/4" = 1'-0"
140
0.25
141
12.0
290
     0
  0
SCALE
  5
D4
102
{ACAD_REACTORS
330
C6
102
}
330
C6
100
AcDbScale
 70
     0
300
3/8" = 1'-0"
140
0.375
141
12.0
290
     0
  0
SCALE
  5
D5
102
{ACAD_REACTORS
330
C6
102
}
330
C6
100
AcDbScale
 70
     0
300
1/2" = 1'-0"
140
0.5
141
12.0
290
     0
  0
SCALE
  5
D6
102
{ACAD_REACTORS
330
C6
102
}
330
C6
100
AcDbScale
 70
     0
300
3/4" = 1'-0"
140
0.75
141
12.0
290
     0
  0
SCALE
  5
D7
102
{ACAD_REACTORS
330
C6
102
}
330
C6
100
AcDbScale
 70
     0
300
1" = 1'-0"
140
1.0
141
12.0
290
     0
  0
SCALE
  5
D8
102
{ACAD_REACTORS
330
C6
102
}
330
C6
100
AcDbScale
 70
     0
300
1-1/2" = 1'-0"
140
1.5
141
12.0
290
     0
  0
SCALE
  5
D9
102
{ACAD_REACTORS
330
C6
102
}
330
C6
100
AcDbScale
 70
     0
300
3" = 1'-0"
140
3.0
141
12.0
290
     0
  0
SCALE
  5
DA
102
{ACAD_REACTORS
330
C6
102
}
330
C6
100
AcDbScale
 70
     0
300
6" = 1'-0"
140
6.0
141
12.0
290
     0
  0
SCALE
  5
DB
102
{ACAD_REACTORS
330
C6
102
}
330
C6
100
AcDbScale
 70
     0
300
1'-0" = 1'-0"
140
12.0
141
12.0
290
     0
  0
ACDBSECTIONVIEWSTYLE
  5
DE
102
{ACAD_XDICTIONARY
360
1B4
102
}
102
{ACAD_REACTORS
330
DD
102
}
330
DD
100
AcDbModelDocViewStyle
 70
     0
  3
Imperial24
290
     0
100
AcDbSectionViewStyle
 70
     0
 71
     0
 90
       78
 71
     1
340
11
 62
   256
 40
0.24
340
0
340
0
 62
   256
 40
0.24
300
I, O, Q, S, X, Z
 40
0.48
 90
        3
 40
0.18
 90
        1
 71
     2
340
16
 90
       25
 62
   256
340
16
 90
       50
 62
   256
 40
0.24
 40
0.0
 40
0.24
 71
     3
340
11
 62
   256
 40
0.24
 90
        1
 40
0.75
 90
        1
300
%<\AcVar ViewType \f "%tc1">% %<\AcVar ViewSectionStartId>%-%<\AcVar ViewSectionEndId>%\PSCALA %<\AcVar ViewScale \f "%sn">%
 71
     4
 62
   256
 62
   257
300
ANSI31
 40
1.0
 90
        0
290
     0
290
     0
 90
        6
 40
0.0
 40
1.570796326794896
 40
0.2617993877991494
 40
1.308996938995747
 40
-0.2617993877991494
 40
1.832595714594046
  0
TABLESTYLE
  5
C5
102
{ACAD_XDICTIONARY
360
1B1
102
}
102
{ACAD_REACTORS
330
B6
102
}
330
B6
100
AcDbTableStyle
280
     0
  3
Standard
 70
     0
 71
     0
 40
0.06
 41
0.06
280
     0
281
     0
  7
Standard
140
0.18
170
     2
 62
     0
 63
     7
283
     0
 90
      512
 91
        0
  1

274
    -2
284
     1
 64
     0
275
    -2
285
     1
 65
     0
276
    -2
286
     1
 66
     0
277
    -2
287
     1
 67
     0
278
    -2
288
     1
 68
     0
279
    -2
289
     1
 69
     0
  7
Standard
140
0.25
170
     5
 62
     0
 63
     7
283
     0
 90
      512
 91
        0
  1

274
    -2
284
     1
 64
     0
275
    -2
285
     1
 65
     0
276
    -2
286
     1
 66
     0
277
    -2
287
     1
 67
     0
278
    -2
288
     1
 68
     0
279
    -2
289
     1
 69
     0
  7
Standard
140
0.18
170
     5
 62
     0
 63
     7
283
     0
 90
      512
 91
        0
  1

274
    -2
284
     1
 64
     0
275
    -2
285
     1
 65
     0
276
    -2
286
     1
 66
     0
277
    -2
287
     1
 67
     0
278
    -2
288
     1
 68
     0
279
    -2
289
     1
 69
     0
  0
VISUALSTYLE
  5
2F
102
{ACAD_REACTORS
330
2A
102
}
330
2A
100
AcDbVisualStyle
  2
2dWireframe
 70
     4
177
     3
291
     0
 70
    58
 90
        0
176
     1
 90
        2
176
     1
 90
        0
176
     1
 90
        0
176
     1
 40
0.6
176
     1
 40
30.0
176
     1
 62
     7
420
 16777215
176
     1
 90
        1
176
     1
 90
        4
176
     1
 62
     7
176
     1
 62
   257
176
     1
 90
        1
176
     1
 90
        1
176
     1
 40
1.0
176
     1
 90
        0
176
     1
 62
   257
176
     1
 40
1.0
176
     1
 90
        1
176
     1
 90
        6
176
     1
 90
        2
176
     1
 62
     7
176
     1
 90
        5
176
     1
 90
        0
176
     1
 90
        0
176
     1
290
     0
176
     1
 90
        1
176
     1
 40
0.0
176
     1
 90
        0
176
     1
290
     1
176
     1
290
     1
176
     1
290
     0
176
     1
290
     0
176
     1
290
     0
176
     1
290
     0
176
     1
290
     0
176
     1
290
     0
176
     1
290
     0
176
     1
 90
       50
176
     1
 40
0.0
176
     1
 40
1.0
176
     1
 90
        0
176
     1
 62
    18
420
        0
176
     1
 90
       50
176
     1
 90
        3
176
     1
 62
     5
420
      255
176
     1
290
     0
176
     1
 90
       50
176
     1
 90
       50
176
     1
 90
       50
176
     1
290
     0
176
     1
 90
       50
176
     1
 62
   256
176
     0
 40
1.0
176
     0
 90
        2
176
     1
  1
strokes_ogs.tif
176
     1
290
     0
176
     1
 40
1.0
176
     1
 40
1.0
176
     1
1001
ACAD
1000
AcDbSavedByObjectVersion
1070
     0
  0
VISUALSTYLE
  5
31
102
{ACAD_REACTORS
330
2A
102
}
330
2A
100
AcDbVisualStyle
  2
3D Hidden
 70
     6
177
     3
291
     0
 70
    58
 90
        1
176
     1
 90
        2
176
     1
 90
        2
176
     1
 90
        0
176
     1
 40
0.6
176
     1
 40
30.0
176
     1
 62
     7
420
 16777215
176
     1
 90
        2
176
     1
 90
        2
176
     1
 62
     7
176
     1
 62
   257
176
     1
 90
        2
176
     1
 90
        1
176
     1
 40
40.0
176
     1
 90
        0
176
     1
 62
   257
176
     1
 40
1.0
176
     1
 90
        1
176
     1
 90
        6
176
     1
 90
        2
176
     1
 62
     7
176
     1
 90
        3
176
     1
 90
        0
176
     1
 90
        0
176
     1
290
     0
176
     1
 90
        1
176
     1
 40
0.0
176
     1
 90
        0
176
     1
290
     0
176
     1
290
     1
176
     1
290
     1
176
     1
290
     0
176
     1
290
     0
176
     1
290
     0
176
     1
290
     0
176
     1
290
     0
176
     1
290
     0
176
     1
 90
       50
176
     1
 40
0.0
176
     1
 40
1.0
176
     1
 90
        0
176
     1
 62
    18
420
        0
176
     1
 90
       50
176
     1
 90
        3
176
     1
 62
     5
420
      255
176
     1
290
     0
176
     1
 90
       50
176
     1
 90
       50
176
     1
 90
       50
176
     1
290
     0
176
     1
 90
       50
176
     1
 62
   256
176
     0
 40
1.0
176
     0
 90
        2
176
     1
  1
strokes_ogs.tif
176
     1
290
     0
176
     1
 40
1.0
176
     1
 40
1.0
176
     1
1001
ACAD
1000
AcDbSavedByObjectVersion
1070
     0
  0
VISUALSTYLE
  5
30
102
{ACAD_REACTORS
330
2A
102
}
330
2A
100
AcDbVisualStyle
  2
3dWireframe
 70
     5
177
     3
291
     0
 70
    58
 90
        0
176
     1
 90
        2
176
     1
 90
        0
176
     1
 90
        0
176
     1
 40
0.6
176
     1
 40
30.0
176
     1
 62
     7
420
 16777215
176
     1
 90
        1
176
     1
 90
        4
176
     1
 62
     7
176
     1
 62
   257
176
     1
 90
        1
176
     1
 90
        1
176
     1
 40
1.0
176
     1
 90
        0
176
     1
 62
   257
176
     1
 40
1.0
176
     1
 90
        1
176
     1
 90
        6
176
     1
 90
        2
176
     1
 62
     7
176
     1
 90
        5
176
     1
 90
        0
176
     1
 90
        0
176
     1
290
     0
176
     1
 90
        1
176
     1
 40
0.0
176
     1
 90
        0
176
     1
290
     0
176
     1
290
     1
176
     1
290
     1
176
     1
290
     0
176
     1
290
     0
176
     1
290
     0
176
     1
290
     0
176
     1
290
     0
176
     1
290
     0
176
     1
 90
       50
176
     1
 40
0.0
176
     1
 40
1.0
176
     1
 90
        0
176
     1
 62
    18
420
        0
176
     1
 90
       50
176
     1
 90
        3
176
     1
 62
     5
420
      255
176
     1
290
     0
176
     1
 90
       50
176
     1
 90
       50
176
     1
 90
       50
176
     1
290
     0
176
     1
 90
       50
176
     1
 62
   256
176
     0
 40
1.0
176
     0
 90
        2
176
     1
  1
strokes_ogs.tif
176
     1
290
     0
176
     1
 40
1.0
176
     1
 40
1.0
176
     1
1001
ACAD
1000
AcDbSavedByObjectVersion
1070
     0
  0
VISUALSTYLE
  5
32
102
{ACAD_REACTORS
330
2A
102
}
330
2A
100
AcDbVisualStyle
  2
Basic
 70
     7
177
     3
291
     1
 70
    58
 90
        1
176
     1
 90
        0
176
     1
 90
        1
176
     1
 90
        0
176
     1
 40
0.6
176
     1
 40
30.0
176
     1
 62
     7
420
 16777215
176
     1
 90
        0
176
     1
 90
        4
176
     1
 62
     7
176
     1
 62
   257
176
     1
 90
        1
176
     1
 90
        1
176
     1
 40
1.0
176
     1
 90
        8
176
     1
 62
     7
176
     1
 40
1.0
176
     1
 90
        1
176
     1
 90
        6
176
     1
 90
        2
176
     1
 62
     7
176
     1
 90
        5
176
     1
 90
        0
176
     1
 90
        0
176
     1
290
     0
176
     1
 90
        1
176
     1
 40
0.0
176
     1
 90
        0
176
     1
290
     0
176
     1
290
     1
176
     1
290
     1
176
     1
290
     0
176
     1
290
     0
176
     1
290
     0
176
     1
290
     0
176
     1
290
     0
176
     1
290
     0
176
     1
 90
       50
176
     1
 40
0.0
176
     1
 40
1.0
176
     1
 90
        0
176
     1
 62
    18
420
        0
176
     1
 90
       50
176
     1
 90
        3
176
     1
 62
     5
420
      255
176
     1
290
     0
176
     1
 90
       50
176
     1
 90
       50
176
     1
 90
       50
176
     1
290
     0
176
     1
 90
       50
176
     1
 62
   256
176
     0
 40
1.0
176
     0
 90
        2
176
     1
  1
strokes_ogs.tif
176
     1
290
     0
176
     1
 40
1.0
176
     1
 40
1.0
176
     1
1001
ACAD
1000
AcDbSavedByObjectVersion
1070
     0
  0
VISUALSTYLE
  5
36
102
{ACAD_REACTORS
330
2A
102
}
330
2A
100
AcDbVisualStyle
  2
Brighten
 70
    12
177
     3
291
     1
 70
    58
 90
        2
176
     1
 90
        2
176
     1
 90
        0
176
     1
 90
        0
176
     1
 40
0.6
176
     1
 40
30.0
176
     1
 62
     7
420
 16777215
176
     1
 90
        1
176
     1
 90
        4
176
     1
 62
     7
176
     1
 62
   257
176
     1
 90
        1
176
     1
 90
        1
176
     1
 40
1.0
176
     1
 90
        8
176
     1
 62
     7
176
     1
 40
1.0
176
     1
 90
        1
176
     1
 90
        6
176
     1
 90
        2
176
     1
 62
     7
176
     1
 90
        5
176
     1
 90
        0
176
     1
 90
        0
176
     1
290
     0
176
     1
 90
        1
176
     1
 40
50.0
176
     1
 90
        0
176
     1
290
     0
176
     1
290
     1
176
     1
290
     1
176
     1
290
     0
176
     1
290
     0
176
     1
290
     0
176
     1
290
     0
176
     1
290
     0
176
     1
290
     0
176
     1
 90
       50
176
     1
 40
0.0
176
     1
 40
1.0
176
     1
 90
        0
176
     1
 62
    18
420
        0
176
     1
 90
       50
176
     1
 90
        3
176
     1
 62
     5
420
      255
176
     1
290
     0
176
     1
 90
       50
176
     1
 90
       50
176
     1
 90
       50
176
     1
290
     0
176
     1
 90
       50
176
     1
 62
   256
176
     0
 40
1.0
176
     0
 90
        2
176
     1
  1
strokes_ogs.tif
176
     1
290
     0
176
     1
 40
1.0
176
     1
 40
1.0
176
     1
1001
ACAD
1000
AcDbSavedByObjectVersion
1070
     0
  0
VISUALSTYLE
  5
3A
102
{ACAD_REACTORS
330
2A
102
}
330
2A
100
AcDbVisualStyle
  2
ColorChange
 70
    16
177
     3
291
     1
 70
    58
 90
        2
176
     1
 90
        2
176
     1
 90
        3
176
     1
 90
        0
176
     1
 40
0.6
176
     1
 40
30.0
176
     1
 62
     8
420
  8421504
176
     1
 90
        1
176
     1
 90
        4
176
     1
 62
     7
176
     1
 62
   257
176
     1
 90
        1
176
     1
 90
        1
176
     1
 40
1.0
176
     1
 90
        8
176
     1
 62
     8
420
  8421504
176
     1
 40
1.0
176
     1
 90
        1
176
     1
 90
        6
176
     1
 90
        2
176
     1
 62
     7
176
     1
 90
        5
176
     1
 90
        0
176
     1
 90
        0
176
     1
290
     0
176
     1
 90
        1
176
     1
 40
0.0
176
     1
 90
        0
176
     1
290
     0
176
     1
290
     1
176
     1
290
     1
176
     1
290
     0
176
     1
290
     0
176
     1
290
     0
176
     1
290
     0
176
     1
290
     0
176
     1
290
     0
176
     1
 90
       50
176
     1
 40
0.0
176
     1
 40
1.0
176
     1
 90
        0
176
     1
 62
    18
420
        0
176
     1
 90
       50
176
     1
 90
        3
176
     1
 62
     5
420
      255
176
     1
290
     0
176
     1
 90
       50
176
     1
 90
       50
176
     1
 90
       50
176
     1
290
     0
176
     1
 90
       50
176
     1
 62
   256
176
     0
 40
1.0
176
     0
 90
        2
176
     1
  1
strokes_ogs.tif
176
     1
290
     0
176
     1
 40
1.0
176
     1
 40
1.0
176
     1
1001
ACAD
1000
AcDbSavedByObjectVersion
1070
     0
  0
VISUALSTYLE
  5
34
102
{ACAD_REACTORS
330
2A
102
}
330
2A
100
AcDbVisualStyle
  2
Conceptual
 70
     9
177
     3
291
     0
 70
    58
 90
        3
176
     1
 90
        2
176
     1
 90
        0
176
     1
 90
        0
176
     1
 40
0.6
176
     1
 40
30.0
176
     1
 62
     7
420
 16777215
176
     1
 90
        2
176
     1
 90
        2
176
     1
 62
     7
176
     1
 62
   257
176
     1
 90
        1
176
     1
 90
        1
176
     1
 40
40.0
176
     1
 90
        8
176
     1
 62
     7
176
     1
 40
1.0
176
     1
 90
        1
176
     1
 90
        6
176
     1
 90
        2
176
     1
 62
     7
176
     1
 90
        3
176
     1
 90
        0
176
     1
 90
        0
176
     1
290
     0
176
     1
 90
        1
176
     1
 40
0.0
176
     1
 90
        0
176
     1
290
     0
176
     1
290
     1
176
     1
290
     1
176
     1
290
     0
176
     1
290
     0
176
     1
290
     0
176
     1
290
     0
176
     1
290
     0
176
     1
290
     0
176
     1
 90
       50
176
     1
 40
0.0
176
     1
 40
1.0
176
     1
 90
        0
176
     1
 62
    18
420
        0
176
     1
 90
       50
176
     1
 90
        3
176
     1
 62
     5
420
      255
176
     1
290
     0
176
     1
 90
       50
176
     1
 90
       50
176
     1
 90
       50
176
     1
290
     0
176
     1
 90
       50
176
     1
 62
   256
176
     0
 40
1.0
176
     0
 90
        2
176
     1
  1
strokes_ogs.tif
176
     1
290
     0
176
     1
 40
1.0
176
     1
 40
1.0
176
     1
1001
ACAD
1000
AcDbSavedByObjectVersion
1070
     0
  0
VISUALSTYLE
  5
35
102
{ACAD_REACTORS
330
2A
102
}
330
2A
100
AcDbVisualStyle
  2
Dim
 70
    11
177
     3
291
     1
 70
    58
 90
        2
176
     1
 90
        2
176
     1
 90
        0
176
     1
 90
        0
176
     1
 40
0.6
176
     1
 40
30.0
176
     1
 62
     7
420
 16777215
176
     1
 90
        1
176
     1
 90
        4
176
     1
 62
     7
176
     1
 62
   257
176
     1
 90
        1
176
     1
 90
        1
176
     1
 40
1.0
176
     1
 90
        8
176
     1
 62
     7
176
     1
 40
1.0
176
     1
 90
        1
176
     1
 90
        6
176
     1
 90
        2
176
     1
 62
     7
176
     1
 90
        5
176
     1
 90
        0
176
     1
 90
        0
176
     1
290
     0
176
     1
 90
        1
176
     1
 40
-50.0
176
     1
 90
        0
176
     1
290
     0
176
     1
290
     1
176
     1
290
     1
176
     1
290
     0
176
     1
290
     0
176
     1
290
     0
176
     1
290
     0
176
     1
290
     0
176
     1
290
     0
176
     1
 90
       50
176
     1
 40
0.0
176
     1
 40
1.0
176
     1
 90
        0
176
     1
 62
    18
420
        0
176
     1
 90
       50
176
     1
 90
        3
176
     1
 62
     5
420
      255
176
     1
290
     0
176
     1
 90
       50
176
     1
 90
       50
176
     1
 90
       50
176
     1
290
     0
176
     1
 90
       50
176
     1
 62
   256
176
     0
 40
1.0
176
     0
 90
        2
176
     1
  1
strokes_ogs.tif
176
     1
290
     0
176
     1
 40
1.0
176
     1
 40
1.0
176
     1
1001
ACAD
1000
AcDbSavedByObjectVersion
1070
     0
  0
VISUALSTYLE
  5
C3
102
{ACAD_REACTORS
330
2A
102
}
330
2A
100
AcDbVisualStyle
  2
EdgeColorOff
 70
    22
177
     3
291
     1
 70
    58
 90
        2
176
     0
 90
        2
176
     0
 90
        0
176
     0
 90
        0
176
     0
 40
0.6
176
     0
 40
30.0
176
     0
 62
     7
420
 16777215
176
     0
 90
        1
176
     0
 90
        4
176
     0
 62
     7
176
     0
 62
   257
176
     0
 90
        1
176
     0
 90
        1
176
     0
 40
1.0
176
     0
 90
        8
176
     2
 62
     7
176
     0
 40
1.0
176
     0
 90
        1
176
     0
 90
        6
176
     0
 90
        2
176
     0
 62
     7
176
     0
 90
        5
176
     0
 90
        0
176
     0
 90
        0
176
     0
290
     0
176
     0
 90
        1
176
     0
 40
0.0
176
     0
 90
        0
176
     0
290
     0
176
     1
290
     1
176
     1
290
     1
176
     1
290
     0
176
     1
290
     0
176
     1
290
     0
176
     1
290
     0
176
     1
290
     0
176
     1
290
     0
176
     1
 90
       50
176
     0
 40
0.0
176
     0
 40
1.0
176
     0
 90
        0
176
     0
 62
    18
420
        0
176
     0
 90
       50
176
     0
 90
        3
176
     0
 62
     5
420
      255
176
     0
290
     0
176
     1
 90
       50
176
     0
 90
       50
176
     0
 90
       50
176
     0
290
     0
176
     1
 90
       50
176
     0
 62
   256
176
     0
 40
1.0
176
     0
 90
        2
176
     0
  1
strokes_ogs.tif
176
     0
290
     0
176
     1
 40
1.0
176
     0
 40
1.0
176
     0
1001
ACAD
1000
AcDbSavedByObjectVersion
1070
     0
  0
VISUALSTYLE
  5
39
102
{ACAD_REACTORS
330
2A
102
}
330
2A
100
AcDbVisualStyle
  2
Facepattern
 70
    15
177
     3
291
     1
 70
    58
 90
        2
176
     1
 90
        2
176
     1
 90
        0
176
     1
 90
        0
176
     1
 40
0.6
176
     1
 40
30.0
176
     1
 62
     7
420
 16777215
176
     1
 90
        1
176
     1
 90
        4
176
     1
 62
     7
176
     1
 62
   257
176
     1
 90
        1
176
     1
 90
        1
176
     1
 40
1.0
176
     1
 90
        8
176
     1
 62
     7
176
     1
 40
1.0
176
     1
 90
        1
176
     1
 90
        6
176
     1
 90
        2
176
     1
 62
     7
176
     1
 90
        5
176
     1
 90
        0
176
     1
 90
        0
176
     1
290
     0
176
     1
 90
        1
176
     1
 40
0.0
176
     1
 90
        0
176
     1
290
     0
176
     1
290
     1
176
     1
290
     1
176
     1
290
     0
176
     1
290
     0
176
     1
290
     0
176
     1
290
     0
176
     1
290
     0
176
     1
290
     0
176
     1
 90
       50
176
     1
 40
0.0
176
     1
 40
1.0
176
     1
 90
        0
176
     1
 62
    18
420
        0
176
     1
 90
       50
176
     1
 90
        3
176
     1
 62
     5
420
      255
176
     1
290
     0
176
     1
 90
       50
176
     1
 90
       50
176
     1
 90
       50
176
     1
290
     0
176
     1
 90
       50
176
     1
 62
   256
176
     0
 40
1.0
176
     0
 90
        2
176
     1
  1
strokes_ogs.tif
176
     1
290
     0
176
     1
 40
1.0
176
     1
 40
1.0
176
     1
1001
ACAD
1000
AcDbSavedByObjectVersion
1070
     0
  0
VISUALSTYLE
  5
2B
102
{ACAD_REACTORS
330
2A
102
}
330
2A
100
AcDbVisualStyle
  2
Flat
 70
     0
177
     3
291
     1
 70
    58
 90
        2
176
     1
 90
        1
176
     1
 90
        1
176
     1
 90
        2
176
     1
 40
0.6
176
     1
 40
30.0
176
     1
 62
     7
420
 16777215
176
     1
 90
        0
176
     1
 90
        4
176
     1
 62
     7
176
     1
 62
   257
176
     1
 90
        1
176
     1
 90
        1
176
     1
 40
1.0
176
     1
 90
        8
176
     1
 62
     7
176
     1
 40
1.0
176
     1
 90
        1
176
     1
 90
        6
176
     1
 90
        2
176
     1
 62
     7
176
     1
 90
        5
176
     1
 90
        0
176
     1
 90
        0
176
     1
290
     0
176
     1
 90
       13
176
     1
 40
0.0
176
     1
 90
        0
176
     1
290
     0
176
     1
290
     1
176
     1
290
     1
176
     1
290
     0
176
     1
290
     0
176
     1
290
     0
176
     1
290
     0
176
     1
290
     0
176
     1
290
     0
176
     1
 90
       50
176
     1
 40
0.0
176
     1
 40
1.0
176
     1
 90
        0
176
     1
 62
    18
420
        0
176
     1
 90
       50
176
     1
 90
        3
176
     1
 62
     5
420
      255
176
     1
290
     0
176
     1
 90
       50
176
     1
 90
       50
176
     1
 90
       50
176
     1
290
     0
176
     1
 90
       50
176
     1
 62
   256
176
     0
 40
1.0
176
     0
 90
        2
176
     1
  1
strokes_ogs.tif
176
     1
290
     0
176
     1
 40
1.0
176
     1
 40
1.0
176
     1
1001
ACAD
1000
AcDbSavedByObjectVersion
1070
     0
  0
VISUALSTYLE
  5
2C
102
{ACAD_REACTORS
330
2A
102
}
330
2A
100
AcDbVisualStyle
  2
FlatWithEdges
 70
     1
177
     3
291
     1
 70
    58
 90
        2
176
     1
 90
        1
176
     1
 90
        1
176
     1
 90
        2
176
     1
 40
0.6
176
     1
 40
30.0
176
     1
 62
     7
420
 16777215
176
     1
 90
        1
176
     1
 90
        4
176
     1
 62
     7
176
     1
 62
   257
176
     1
 90
        1
176
     1
 90
        1
176
     1
 40
1.0
176
     1
 90
        0
176
     1
 62
   257
176
     1
 40
1.0
176
     1
 90
        1
176
     1
 90
        6
176
     1
 90
        2
176
     1
 62
     7
176
     1
 90
        5
176
     1
 90
        0
176
     1
 90
        0
176
     1
290
     0
176
     1
 90
       13
176
     1
 40
0.0
176
     1
 90
        0
176
     1
290
     0
176
     1
290
     1
176
     1
290
     1
176
     1
290
     0
176
     1
290
     0
176
     1
290
     0
176
     1
290
     0
176
     1
290
     0
176
     1
290
     0
176
     1
 90
       50
176
     1
 40
0.0
176
     1
 40
1.0
176
     1
 90
        0
176
     1
 62
    18
420
        0
176
     1
 90
       50
176
     1
 90
        3
176
     1
 62
     5
420
      255
176
     1
290
     0
176
     1
 90
       50
176
     1
 90
       50
176
     1
 90
       50
176
     1
290
     0
176
     1
 90
       50
176
     1
 62
   256
176
     0
 40
1.0
176
     0
 90
        2
176
     1
  1
strokes_ogs.tif
176
     1
290
     0
176
     1
 40
1.0
176
     1
 40
1.0
176
     1
1001
ACAD
1000
AcDbSavedByObjectVersion
1070
     0
  0
VISUALSTYLE
  5
2D
102
{ACAD_REACTORS
330
2A
102
}
330
2A
100
AcDbVisualStyle
  2
Gouraud
 70
     2
177
     3
291
     1
 70
    58
 90
        2
176
     1
 90
        2
176
     1
 90
        1
176
     1
 90
        2
176
     1
 40
0.6
176
     1
 40
30.0
176
     1
 62
     7
420
 16777215
176
     1
 90
        0
176
     1
 90
        4
176
     1
 62
     7
176
     1
 62
   257
176
     1
 90
        1
176
     1
 90
        1
176
     1
 40
1.0
176
     1
 90
        0
176
     1
 62
     7
176
     1
 40
1.0
176
     1
 90
        1
176
     1
 90
        6
176
     1
 90
        2
176
     1
 62
     7
176
     1
 90
        5
176
     1
 90
        0
176
     1
 90
        0
176
     1
290
     0
176
     1
 90
       13
176
     1
 40
0.0
176
     1
 90
        0
176
     1
290
     0
176
     1
290
     1
176
     1
290
     1
176
     1
290
     0
176
     1
290
     0
176
     1
290
     0
176
     1
290
     0
176
     1
290
     0
176
     1
290
     0
176
     1
 90
       50
176
     1
 40
0.0
176
     1
 40
1.0
176
     1
 90
        0
176
     1
 62
    18
420
        0
176
     1
 90
       50
176
     1
 90
        3
176
     1
 62
     5
420
      255
176
     1
290
     0
176
     1
 90
       50
176
     1
 90
       50
176
     1
 90
       50
176
     1
290
     0
176
     1
 90
       50
176
     1
 62
   256
176
     0
 40
1.0
176
     0
 90
        2
176
     1
  1
strokes_ogs.tif
176
     1
290
     0
176
     1
 40
1.0
176
     1
 40
1.0
176
     1
1001
ACAD
1000
AcDbSavedByObjectVersion
1070
     0
  0
VISUALSTYLE
  5
2E
102
{ACAD_REACTORS
330
2A
102
}
330
2A
100
AcDbVisualStyle
  2
GouraudWithEdges
 70
     3
177
     3
291
     1
 70
    58
 90
        2
176
     1
 90
        2
176
     1
 90
        1
176
     1
 90
        2
176
     1
 40
0.6
176
     1
 40
30.0
176
     1
 62
     7
420
 16777215
176
     1
 90
        1
176
     1
 90
        4
176
     1
 62
     7
176
     1
 62
   257
176
     1
 90
        1
176
     1
 90
        1
176
     1
 40
1.0
176
     1
 90
        0
176
     1
 62
   257
176
     1
 40
1.0
176
     1
 90
        1
176
     1
 90
        6
176
     1
 90
        2
176
     1
 62
     7
176
     1
 90
        5
176
     1
 90
        0
176
     1
 90
        0
176
     1
290
     0
176
     1
 90
       13
176
     1
 40
0.0
176
     1
 90
        0
176
     1
290
     0
176
     1
290
     1
176
     1
290
     1
176
     1
290
     0
176
     1
290
     0
176
     1
290
     0
176
     1
290
     0
176
     1
290
     0
176
     1
290
     0
176
     1
 90
       50
176
     1
 40
0.0
176
     1
 40
1.0
176
     1
 90
        0
176
     1
 62
    18
420
        0
176
     1
 90
       50
176
     1
 90
        3
176
     1
 62
     5
420
      255
176
     1
290
     0
176
     1
 90
       50
176
     1
 90
       50
176
     1
 90
       50
176
     1
290
     0
176
     1
 90
       50
176
     1
 62
   256
176
     0
 40
1.0
176
     0
 90
        2
176
     1
  1
strokes_ogs.tif
176
     1
290
     0
176
     1
 40
1.0
176
     1
 40
1.0
176
     1
1001
ACAD
1000
AcDbSavedByObjectVersion
1070
     0
  0
VISUALSTYLE
  5
BB
102
{ACAD_REACTORS
330
2A
102
}
330
2A
100
AcDbVisualStyle
  2
Hidden
 70
     6
177
     3
291
     0
 70
    58
 90
        1
176
     1
 90
        2
176
     1
 90
        2
176
     1
 90
        0
176
     1
 40
0.6
176
     1
 40
30.0
176
     1
 62
     7
420
 16777215
176
     1
 90
        2
176
     1
 90
        2
176
     1
 62
     7
176
     1
 62
   257
176
     1
 90
        2
176
     1
 90
        1
176
     1
 40
40.0
176
     1
 90
        0
176
     1
 62
   257
176
     1
 40
1.0
176
     1
 90
        1
176
     1
 90
        6
176
     1
 90
        2
176
     1
 62
     7
176
     1
 90
        3
176
     1
 90
        0
176
     1
 90
        0
176
     1
290
     0
176
     1
 90
        1
176
     1
 40
0.0
176
     1
 90
        0
176
     1
290
     0
176
     1
290
     1
176
     1
290
     1
176
     1
290
     0
176
     1
290
     0
176
     1
290
     0
176
     1
290
     0
176
     1
290
     0
176
     1
290
     0
176
     1
 90
       50
176
     1
 40
0.0
176
     1
 40
1.0
176
     1
 90
        0
176
     1
 62
    18
420
        0
176
     1
 90
       50
176
     1
 90
        3
176
     1
 62
     5
420
      255
176
     1
290
     0
176
     1
 90
       50
176
     1
 90
       50
176
     1
 90
       50
176
     1
290
     0
176
     1
 90
       50
176
     1
 62
   256
176
     0
 40
1.0
176
     0
 90
        2
176
     1
  1
strokes_ogs.tif
176
     1
290
     0
176
     1
 40
1.0
176
     1
 40
1.0
176
     1
1001
ACAD
1000
AcDbSavedByObjectVersion
1070
     0
  0
VISUALSTYLE
  5
C1
102
{ACAD_REACTORS
330
2A
102
}
330
2A
100
AcDbVisualStyle
  2
JitterOff
 70
    20
177
     3
291
     1
 70
    58
 90
        2
176
     0
 90
        2
176
     0
 90
        0
176
     0
 90
        0
176
     0
 40
0.6
176
     0
 40
30.0
176
     0
 62
     7
420
 16777215
176
     0
 90
        1
176
     0
 90
        4
176
     0
 62
     7
176
     0
 62
   257
176
     0
 90
        1
176
     0
 90
        1
176
     0
 40
1.0
176
     0
 90
       10
176
     2
 62
     7
176
     0
 40
1.0
176
     0
 90
        1
176
     0
 90
        6
176
     0
 90
        2
176
     0
 62
     7
176
     0
 90
        5
176
     0
 90
        0
176
     0
 90
        0
176
     0
290
     0
176
     0
 90
        1
176
     0
 40
0.0
176
     0
 90
        0
176
     0
290
     0
176
     1
290
     1
176
     1
290
     1
176
     1
290
     0
176
     1
290
     0
176
     1
290
     0
176
     1
290
     0
176
     1
290
     0
176
     1
290
     0
176
     1
 90
       50
176
     0
 40
0.0
176
     0
 40
1.0
176
     0
 90
        0
176
     0
 62
    18
420
        0
176
     0
 90
       50
176
     0
 90
        3
176
     0
 62
     5
420
      255
176
     0
290
     0
176
     1
 90
       50
176
     0
 90
       50
176
     0
 90
       50
176
     0
290
     0
176
     1
 90
       50
176
     0
 62
   256
176
     0
 40
1.0
176
     0
 90
        2
176
     0
  1
strokes_ogs.tif
176
     0
290
     0
176
     1
 40
1.0
176
     0
 40
1.0
176
     0
1001
ACAD
1000
AcDbSavedByObjectVersion
1070
     0
  0
VISUALSTYLE
  5
38
102
{ACAD_REACTORS
330
2A
102
}
330
2A
100
AcDbVisualStyle
  2
Linepattern
 70
    14
177
     3
291
     1
 70
    58
 90
        2
176
     1
 90
        2
176
     1
 90
        0
176
     1
 90
        0
176
     1
 40
0.6
176
     1
 40
30.0
176
     1
 62
     7
420
 16777215
176
     1
 90
        1
176
     1
 90
        4
176
     1
 62
     7
176
     1
 62
   257
176
     1
 90
        7
176
     1
 90
        7
176
     1
 40
1.0
176
     1
 90
        8
176
     1
 62
     7
176
     1
 40
1.0
176
     1
 90
        1
176
     1
 90
        6
176
     1
 90
        2
176
     1
 62
     7
176
     1
 90
        5
176
     1
 90
        0
176
     1
 90
        0
176
     1
290
     0
176
     1
 90
        1
176
     1
 40
0.0
176
     1
 90
        0
176
     1
290
     0
176
     1
290
     1
176
     1
290
     1
176
     1
290
     0
176
     1
290
     0
176
     1
290
     0
176
     1
290
     0
176
     1
290
     0
176
     1
290
     0
176
     1
 90
       50
176
     1
 40
0.0
176
     1
 40
1.0
176
     1
 90
        0
176
     1
 62
    18
420
        0
176
     1
 90
       50
176
     1
 90
        3
176
     1
 62
     5
420
      255
176
     1
290
     0
176
     1
 90
       50
176
     1
 90
       50
176
     1
 90
       50
176
     1
290
     0
176
     1
 90
       50
176
     1
 62
   256
176
     0
 40
1.0
176
     0
 90
        2
176
     1
  1
strokes_ogs.tif
176
     1
290
     0
176
     1
 40
1.0
176
     1
 40
1.0
176
     1
1001
ACAD
1000
AcDbSavedByObjectVersion
1070
     0
  0
VISUALSTYLE
  5
C2
102
{ACAD_REACTORS
330
2A
102
}
330
2A
100
AcDbVisualStyle
  2
OverhangOff
 70
    21
177
     3
291
     1
 70
    58
 90
        2
176
     0
 90
        2
176
     0
 90
        0
176
     0
 90
        0
176
     0
 40
0.6
176
     0
 40
30.0
176
     0
 62
     7
420
 16777215
176
     0
 90
        1
176
     0
 90
        4
176
     0
 62
     7
176
     0
 62
   257
176
     0
 90
        1
176
     0
 90
        1
176
     0
 40
1.0
176
     0
 90
        9
176
     2
 62
     7
176
     0
 40
1.0
176
     0
 90
        1
176
     0
 90
        6
176
     0
 90
        2
176
     0
 62
     7
176
     0
 90
        5
176
     0
 90
        0
176
     0
 90
        0
176
     0
290
     0
176
     0
 90
        1
176
     0
 40
0.0
176
     0
 90
        0
176
     0
290
     0
176
     1
290
     1
176
     1
290
     1
176
     1
290
     0
176
     1
290
     0
176
     1
290
     0
176
     1
290
     0
176
     1
290
     0
176
     1
290
     0
176
     1
 90
       50
176
     0
 40
0.0
176
     0
 40
1.0
176
     0
 90
        0
176
     0
 62
    18
420
        0
176
     0
 90
       50
176
     0
 90
        3
176
     0
 62
     5
420
      255
176
     0
290
     0
176
     1
 90
       50
176
     0
 90
       50
176
     0
 90
       50
176
     0
290
     0
176
     1
 90
       50
176
     0
 62
   256
176
     0
 40
1.0
176
     0
 90
        2
176
     0
  1
strokes_ogs.tif
176
     0
290
     0
176
     1
 40
1.0
176
     0
 40
1.0
176
     0
1001
ACAD
1000
AcDbSavedByObjectVersion
1070
     0
  0
VISUALSTYLE
  5
33
102
{ACAD_REACTORS
330
2A
102
}
330
2A
100
AcDbVisualStyle
  2
Realistic
 70
     8
177
     3
291
     0
 70
    58
 90
        2
176
     1
 90
        2
176
     1
 90
        0
176
     1
 90
        0
176
     1
 40
0.6
176
     1
 40
30.0
176
     1
 62
     7
420
 16777215
176
     1
 90
        1
176
     1
 90
        0
176
     1
 62
     7
176
     1
 62
   257
176
     1
 90
        1
176
     1
 90
        1
176
     1
 40
1.0
176
     1
 90
        8
176
     1
 62
     8
420
  7895160
176
     1
 40
1.0
176
     1
 90
        1
176
     1
 90
        6
176
     1
 90
        2
176
     1
 62
     7
176
     1
 90
        5
176
     1
 90
        0
176
     1
 90
        0
176
     1
290
     0
176
     1
 90
       13
176
     1
 40
0.0
176
     1
 90
        0
176
     1
290
     0
176
     1
290
     1
176
     1
290
     1
176
     1
290
     0
176
     1
290
     0
176
     1
290
     0
176
     1
290
     0
176
     1
290
     0
176
     1
290
     0
176
     1
 90
       50
176
     1
 40
0.0
176
     1
 40
1.0
176
     1
 90
        0
176
     1
 62
    18
420
        0
176
     1
 90
       50
176
     1
 90
        3
176
     1
 62
     5
420
      255
176
     1
290
     0
176
     1
 90
       50
176
     1
 90
       50
176
     1
 90
       50
176
     1
290
     0
176
     1
 90
       50
176
     1
 62
   256
176
     0
 40
1.0
176
     0
 90
        2
176
     1
  1
strokes_ogs.tif
176
     1
290
     0
176
     1
 40
1.0
176
     1
 40
1.0
176
     1
1001
ACAD
1000
AcDbSavedByObjectVersion
1070
     0
  0
VISUALSTYLE
  5
C0
102
{ACAD_REACTORS
330
2A
102
}
330
2A
100
AcDbVisualStyle
  2
Shaded
 70
    27
177
     3
291
     0
 70
    58
 90
        2
176
     1
 90
        2
176
     1
 90
        1
176
     1
 90
        2
176
     1
 40
0.6
176
     1
 40
30.0
176
     1
 62
     7
420
 16777215
176
     1
 90
        0
176
     1
 90
        4
176
     1
 62
     7
176
     1
 62
   257
176
     1
 90
        1
176
     1
 90
        1
176
     1
 40
1.0
176
     1
 90
        8
176
     1
 62
   257
176
     1
 40
1.0
176
     1
 90
        1
176
     1
 90
        6
176
     1
 90
        2
176
     1
 62
     8
420
  7895160
176
     1
 90
        3
176
     1
 90
        0
176
     1
 90
        0
176
     1
290
     0
176
     1
 90
        5
176
     1
 40
0.0
176
     1
 90
        0
176
     1
290
     0
176
     1
290
     1
176
     1
290
     1
176
     1
290
     0
176
     1
290
     0
176
     1
290
     0
176
     1
290
     0
176
     1
290
     0
176
     1
290
     0
176
     1
 90
       50
176
     1
 40
0.0
176
     1
 40
1.0
176
     1
 90
        0
176
     1
 62
    18
420
        0
176
     1
 90
       50
176
     1
 90
        3
176
     1
 62
     5
420
      255
176
     1
290
     0
176
     1
 90
       50
176
     1
 90
       50
176
     1
 90
       50
176
     1
290
     0
176
     1
 90
       50
176
     1
 62
   256
176
     0
 40
1.0
176
     0
 90
        2
176
     1
  1
strokes_ogs.tif
176
     1
290
     0
176
     1
 40
1.0
176
     1
 40
1.0
176
     1
1001
ACAD
1000
AcDbSavedByObjectVersion
1070
     0
  0
VISUALSTYLE
  5
BF
102
{ACAD_REACTORS
330
2A
102
}
330
2A
100
AcDbVisualStyle
  2
Shaded with edges
 70
    26
177
     3
291
     0
 70
    58
 90
        2
176
     1
 90
        2
176
     1
 90
        1
176
     1
 90
        2
176
     1
 40
0.6
176
     1
 40
30.0
176
     1
 62
     7
420
 16777215
176
     1
 90
        1
176
     1
 90
        2
176
     1
 62
     7
176
     1
 62
   257
176
     1
 90
        2
176
     1
 90
        1
176
     1
 40
1.0
176
     1
 90
        8
176
     1
 62
   257
176
     1
 40
1.0
176
     1
 90
        1
176
     1
 90
        6
176
     1
 90
        2
176
     1
 62
     7
176
     1
 90
        3
176
     1
 90
        0
176
     1
 90
        0
176
     1
290
     0
176
     1
 90
        5
176
     1
 40
0.0
176
     1
 90
        0
176
     1
290
     0
176
     1
290
     1
176
     1
290
     1
176
     1
290
     0
176
     1
290
     0
176
     1
290
     0
176
     1
290
     0
176
     1
290
     0
176
     1
290
     0
176
     1
 90
       50
176
     1
 40
0.0
176
     1
 40
1.0
176
     1
 90
        0
176
     1
 62
    18
420
        0
176
     1
 90
       50
176
     1
 90
        3
176
     1
 62
     5
420
      255
176
     1
290
     0
176
     1
 90
       50
176
     1
 90
       50
176
     1
 90
       50
176
     1
290
     0
176
     1
 90
       50
176
     1
 62
   256
176
     0
 40
1.0
176
     0
 90
        2
176
     1
  1
strokes_ogs.tif
176
     1
290
     0
176
     1
 40
1.0
176
     1
 40
1.0
176
     1
1001
ACAD
1000
AcDbSavedByObjectVersion
1070
     0
  0
VISUALSTYLE
  5
BC
102
{ACAD_REACTORS
330
2A
102
}
330
2A
100
AcDbVisualStyle
  2
Shades of Gray
 70
    23
177
     3
291
     0
 70
    58
 90
        2
176
     1
 90
        2
176
     1
 90
        3
176
     1
 90
        0
176
     1
 40
0.6
176
     1
 40
30.0
176
     1
 62
     7
420
 16777215
176
     1
 90
        2
176
     1
 90
        2
176
     1
 62
     7
176
     1
 62
     7
176
     1
 90
        1
176
     1
 90
        1
176
     1
 40
40.0
176
     1
 90
        8
176
     1
 62
     7
176
     1
 40
1.0
176
     1
 90
        1
176
     1
 90
        6
176
     1
 90
        2
176
     1
 62
     7
176
     1
 90
        3
176
     1
 90
        0
176
     1
 90
        0
176
     1
290
     0
176
     1
 90
        1
176
     1
 40
0.0
176
     1
 90
        0
176
     1
290
     0
176
     1
290
     1
176
     1
290
     1
176
     1
290
     0
176
     1
290
     0
176
     1
290
     0
176
     1
290
     0
176
     1
290
     0
176
     1
290
     0
176
     1
 90
       50
176
     1
 40
0.0
176
     1
 40
1.0
176
     1
 90
        0
176
     1
 62
    18
420
        0
176
     1
 90
       50
176
     1
 90
        3
176
     1
 62
     5
420
      255
176
     1
290
     0
176
     1
 90
       50
176
     1
 90
       50
176
     1
 90
       50
176
     1
290
     0
176
     1
 90
       50
176
     1
 62
   256
176
     0
 40
1.0
176
     0
 90
        2
176
     1
  1
strokes_ogs.tif
176
     1
290
     0
176
     1
 40
1.0
176
     1
 40
1.0
176
     1
1001
ACAD
1000
AcDbSavedByObjectVersion
1070
     0
  0
VISUALSTYLE
  5
BD
102
{ACAD_REACTORS
330
2A
102
}
330
2A
100
AcDbVisualStyle
  2
Sketchy
 70
    24
177
     3
291
     0
 70
    58
 90
        1
176
     1
 90
        2
176
     1
 90
        2
176
     1
 90
        0
176
     1
 40
0.6
176
     1
 40
30.0
176
     1
 62
     7
420
 16777215
176
     1
 90
        2
176
     1
 90
        2
176
     1
 62
     7
176
     1
 62
     7
176
     1
 90
        1
176
     1
 90
        1
176
     1
 40
40.0
176
     1
 90
       11
176
     1
 62
     7
176
     1
 40
1.0
176
     1
 90
        1
176
     1
 90
        6
176
     1
 90
        2
176
     1
 62
     7
176
     1
 90
        6
176
     1
 90
        0
176
     1
 90
        0
176
     1
290
     0
176
     1
 90
        1
176
     1
 40
0.0
176
     1
 90
        0
176
     1
290
     0
176
     1
290
     1
176
     1
290
     1
176
     1
290
     0
176
     1
290
     0
176
     1
290
     0
176
     1
290
     0
176
     1
290
     0
176
     1
290
     0
176
     1
 90
       50
176
     1
 40
0.0
176
     1
 40
1.0
176
     1
 90
        0
176
     1
 62
    18
420
        0
176
     1
 90
       50
176
     1
 90
        3
176
     1
 62
     5
420
      255
176
     1
290
     0
176
     1
 90
       50
176
     1
 90
       50
176
     1
 90
       50
176
     1
290
     0
176
     1
 90
       50
176
     1
 62
   256
176
     0
 40
1.0
176
     0
 90
        2
176
     1
  1
strokes_ogs.tif
176
     1
290
     0
176
     1
 40
1.0
176
     1
 40
1.0
176
     1
1001
ACAD
1000
AcDbSavedByObjectVersion
1070
     0
  0
VISUALSTYLE
  5
37
102
{ACAD_REACTORS
330
2A
102
}
330
2A
100
AcDbVisualStyle
  2
Thicken
 70
    13
177
     3
291
     1
 70
    58
 90
        2
176
     1
 90
        2
176
     1
 90
        0
176
     1
 90
        0
176
     1
 40
0.6
176
     1
 40
30.0
176
     1
 62
     7
420
 16777215
176
     1
 90
        1
176
     1
 90
        4
176
     1
 62
     7
176
     1
 62
   257
176
     1
 90
        1
176
     1
 90
        1
176
     1
 40
1.0
176
     1
 90
       12
176
     1
 62
     7
176
     1
 40
1.0
176
     1
 90
        1
176
     1
 90
        6
176
     1
 90
        2
176
     1
 62
     7
176
     1
 90
        5
176
     1
 90
        0
176
     1
 90
        0
176
     1
290
     0
176
     1
 90
        1
176
     1
 40
0.0
176
     1
 90
        0
176
     1
290
     0
176
     1
290
     1
176
     1
290
     1
176
     1
290
     0
176
     1
290
     0
176
     1
290
     0
176
     1
290
     0
176
     1
290
     0
176
     1
290
     0
176
     1
 90
       50
176
     1
 40
0.0
176
     1
 40
1.0
176
     1
 90
        0
176
     1
 62
    18
420
        0
176
     1
 90
       50
176
     1
 90
        3
176
     1
 62
     5
420
      255
176
     1
290
     0
176
     1
 90
       50
176
     1
 90
       50
176
     1
 90
       50
176
     1
290
     0
176
     1
 90
       50
176
     1
 62
   256
176
     0
 40
1.0
176
     0
 90
        2
176
     1
  1
strokes_ogs.tif
176
     1
290
     0
176
     1
 40
1.0
176
     1
 40
1.0
176
     1
1001
ACAD
1000
AcDbSavedByObjectVersion
1070
     0
  0
VISUALSTYLE
  5
BA
102
{ACAD_REACTORS
330
2A
102
}
330
2A
100
AcDbVisualStyle
  2
Wireframe
 70
     5
177
     3
291
     0
 70
    58
 90
        0
176
     1
 90
        2
176
     1
 90
        0
176
     1
 90
        0
176
     1
 40
0.6
176
     1
 40
30.0
176
     1
 62
     7
420
 16777215
176
     1
 90
        1
176
     1
 90
        4
176
     1
 62
     7
176
     1
 62
   257
176
     1
 90
        1
176
     1
 90
        1
176
     1
 40
1.0
176
     1
 90
        0
176
     1
 62
   257
176
     1
 40
1.0
176
     1
 90
        1
176
     1
 90
        6
176
     1
 90
        2
176
     1
 62
     7
176
     1
 90
        3
176
     1
 90
        0
176
     1
 90
        0
176
     1
290
     0
176
     1
 90
        1
176
     1
 40
0.0
176
     1
 90
        0
176
     1
290
     0
176
     1
290
     1
176
     1
290
     1
176
     1
290
     0
176
     1
290
     0
176
     1
290
     0
176
     1
290
     0
176
     1
290
     0
176
     1
290
     0
176
     1
 90
       50
176
     1
 40
0.0
176
     1
 40
1.0
176
     1
 90
        0
176
     1
 62
    18
420
        0
176
     1
 90
       50
176
     1
 90
        3
176
     1
 62
     5
420
      255
176
     1
290
     0
176
     1
 90
       50
176
     1
 90
       50
176
     1
 90
       50
176
     1
290
     0
176
     1
 90
       50
176
     1
 62
   256
176
     0
 40
1.0
176
     0
 90
        2
176
     1
  1
strokes_ogs.tif
176
     1
290
     0
176
     1
 40
1.0
176
     1
 40
1.0
176
     1
1001
ACAD
1000
AcDbSavedByObjectVersion
1070
     0
  0
VISUALSTYLE
  5
BE
102
{ACAD_REACTORS
330
2A
102
}
330
2A
100
AcDbVisualStyle
  2
X-Ray
 70
    25
177
     3
291
     0
 70
    58
 90
        2
176
     1
 90
        2
176
     1
 90
        1
176
     1
 90
        1
176
     1
 40
0.5
176
     1
 40
30.0
176
     1
 62
     7
420
 16777215
176
     1
 90
        1
176
     1
 90
        0
176
     1
 62
     7
176
     1
 62
   257
176
     1
 90
        1
176
     1
 90
        1
176
     1
 40
1.0
176
     1
 90
        8
176
     1
 62
     7
176
     1
 40
1.0
176
     1
 90
        1
176
     1
 90
        6
176
     1
 90
        2
176
     1
 62
     7
176
     1
 90
        3
176
     1
 90
        0
176
     1
 90
        0
176
     1
290
     0
176
     1
 90
       13
176
     1
 40
0.0
176
     1
 90
        0
176
     1
290
     0
176
     1
290
     1
176
     1
290
     1
176
     1
290
     0
176
     1
290
     0
176
     1
290
     0
176
     1
290
     0
176
     1
290
     0
176
     1
290
     0
176
     1
 90
       50
176
     1
 40
0.0
176
     1
 40
1.0
176
     1
 90
        0
176
     1
 62
    18
420
        0
176
     1
 90
       50
176
     1
 90
        3
176
     1
 62
     5
420
      255
176
     1
290
     0
176
     1
 90
       50
176
     1
 90
       50
176
     1
 90
       50
176
     1
290
     0
176
     1
 90
       50
176
     1
 62
   256
176
     0
 40
1.0
176
     0
 90
        2
176
     1
  1
strokes_ogs.tif
176
     1
290
     0
176
     1
 40
1.0
176
     1
 40
1.0
176
     1
1001
ACAD
1000
AcDbSavedByObjectVersion
1070
     0
  0
DICTIONARYVAR
  5
1B0
102
{ACAD_REACTORS
330
1AB
102
}
330
1AB
100
DictionaryVariables
280
     0
  1
1:1
  0
DICTIONARYVAR
  5
1AD
102
{ACAD_REACTORS
330
1AB
102
}
330
1AB
100
DictionaryVariables
280
     0
  1
STANDARD
  0
DICTIONARYVAR
  5
1AC
102
{ACAD_REACTORS
330
1AB
102
}
330
1AB
100
DictionaryVariables
280
     0
  1
STANDARD
  0
DICTIONARYVAR
  5
1AE
102
{ACAD_REACTORS
330
1AB
102
}
330
1AB
100
DictionaryVariables
280
     0
  1
Imperial24
  0
DICTIONARYVAR
  5
1AF
102
{ACAD_REACTORS
330
1AB
102
}
330
1AB
100
DictionaryVariables
280
     0
  1
Imperial24
  0
DICTIONARY
  5
1B6
330
E0
100
AcDbDictionary
280
     1
281
     1
  3
ACAD_XREC_ROUNDTRIP
360
1B7
  0
DICTIONARY
  5
1B4
330
DE
100
AcDbDictionary
280
     1
281
     1
  3
ACAD_XREC_ROUNDTRIP
360
1B5
  0
DICTIONARY
  5
1B1
330
C5
100
AcDbDictionary
280
     1
281
     1
  3
ACAD_ROUNDTRIP_2008_TABLESTYLE_CELLSTYLEMAP
360
1B2
  0
XRECORD
  5
1B7
102
{ACAD_REACTORS
330
1B6
102
}
330
1B6
100
AcDbXrecord
280
     1
102
DISPLAYNAME
  1
Imperial24
102
FLAGS
 90
        0
  0
XRECORD
  5
1B5
102
{ACAD_REACTORS
330
1B4
102
}
330
1B4
100
AcDbXrecord
280
     1
102
DISPLAYNAME
  1
Imperial24
102
FLAGS
 90
        0
  0
CELLSTYLEMAP
  5
1B2
102
{ACAD_REACTORS
330
1B1
102
}
330
1B1
100
AcDbCellStyleMap
 90
        3
300
CELLSTYLE
  1
TABLEFORMAT_BEGIN
 90
        5
170
     1
 91
        0
 92
    32768
 62
   257
 93
        1
300
CONTENTFORMAT
  1
CONTENTFORMAT_BEGIN
 90
        0
 91
        0
 92
      512
 93
        0
300

 40
0.0
140
1.0
 94
        5
 62
     0
340
11
144
0.25
309
CONTENTFORMAT_END
171
     0
 94
        0
309
TABLEFORMAT_END
  1
CELLSTYLE_BEGIN
 90
        1
 91
        1
300
_TITLE
309
CELLSTYLE_END
300
CELLSTYLE
  1
TABLEFORMAT_BEGIN
 90
        5
170
     1
 91
        0
 92
        0
 62
   257
 93
        1
300
CONTENTFORMAT
  1
CONTENTFORMAT_BEGIN
 90
        0
 91
        0
 92
      512
 93
        0
300

 40
0.0
140
1.0
 94
        5
 62
     0
340
11
144
0.18
309
CONTENTFORMAT_END
171
     0
 94
        0
309
TABLEFORMAT_END
  1
CELLSTYLE_BEGIN
 90
        2
 91
        1
300
_HEADER
309
CELLSTYLE_END
300
CELLSTYLE
  1
TABLEFORMAT_BEGIN
 90
        5
170
     1
 91
        0
 92
        0
 62
   257
 93
        1
300
CONTENTFORMAT
  1
CONTENTFORMAT_BEGIN
 90
        0
 91
        0
 92
      512
 93
        0
300

 40
0.0
140
1.0
 94
        2
 62
     0
340
11
144
0.18
309
CONTENTFORMAT_END
171
     0
 94
        0
309
TABLEFORMAT_END
  1
CELLSTYLE_BEGIN
 90
        3
 91
        2
300
_DATA
309
CELLSTYLE_END
  0
ENDSEC
  0
EOF
