  0
SECTION
  2
HEADER
  9
$ACADVER
  1
AC1027
  9
$ACADMAINTVER
 70
   125
  9
$DWGCODEPAGE
  3
ANSI_1252
  9
$LASTSAVEDBY
  1
ufficio.tecnico
  9
$REQUIREDVERSIONS
160
                 0
  9
$INSBASE
 10
0.0
 20
0.0
 30
0.0
  9
$EXTMIN
 10
117.8647312491252
 20
-185.3568169024455
 30
0.0
  9
$EXTMAX
 10
484.388348945743
 20
-127.0937345241338
 30
0.0
  9
$LIMMIN
 10
0.0
 20
0.0
  9
$LIMMAX
 10
12.0
 20
9.0
  9
$ORTHOMODE
 70
     0
  9
$REGENMODE
 70
     1
  9
$FILLMODE
 70
     1
  9
$QTEXTMODE
 70
     0
  9
$MIRRTEXT
 70
     0
  9
$LTSCALE
 40
1.0
  9
$ATTMODE
 70
     1
  9
$TEXTSIZE
 40
0.2
  9
$TRACEWID
 40
0.05
  9
$TEXTSTYLE
  7
Standard
  9
$CLAYER
  8
0
  9
$CELTYPE
  6
ByLayer
  9
$CECOLOR
 62
   256
  9
$CELTSCALE
 40
1.0
  9
$DISPSILH
 70
     0
  9
$DIMSCALE
 40
1.0
  9
$DIMASZ
 40
0.18
  9
$DIMEXO
 40
0.0625
  9
$DIMDLI
 40
0.38
  9
$DIMRND
 40
0.0
  9
$DIMDLE
 40
0.0
  9
$DIMEXE
 40
0.18
  9
$DIMTP
 40
0.0
  9
$DIMTM
 40
0.0
  9
$DIMTXT
 40
0.18
  9
$DIMCEN
 40
0.09
  9
$DIMTSZ
 40
0.0
  9
$DIMTOL
 70
     0
  9
$DIMLIM
 70
     0
  9
$DIMTIH
 70
     1
  9
$DIMTOH
 70
     1
  9
$DIMSE1
 70
     0
  9
$DIMSE2
 70
     0
  9
$DIMTAD
 70
     0
  9
$DIMZIN
 70
     0
  9
$DIMBLK
  1

  9
$DIMASO
 70
     1
  9
$DIMSHO
 70
     1
  9
$DIMPOST
  1

  9
$DIMAPOST
  1

  9
$DIMALT
 70
     0
  9
$DIMALTD
 70
     2
  9
$DIMALTF
 40
25.4
  9
$DIMLFAC
 40
1.0
  9
$DIMTOFL
 70
     0
  9
$DIMTVP
 40
0.0
  9
$DIMTIX
 70
     0
  9
$DIMSOXD
 70
     0
  9
$DIMSAH
 70
     0
  9
$DIMBLK1
  1

  9
$DIMBLK2
  1

  9
$DIMSTYLE
  2
Standard
  9
$DIMCLRD
 70
     0
  9
$DIMCLRE
 70
     0
  9
$DIMCLRT
 70
     0
  9
$DIMTFAC
 40
1.0
  9
$DIMGAP
 40
0.09
  9
$DIMJUST
 70
     0
  9
$DIMSD1
 70
     0
  9
$DIMSD2
 70
     0
  9
$DIMTOLJ
 70
     1
  9
$DIMTZIN
 70
     0
  9
$DIMALTZ
 70
     0
  9
$DIMALTTZ
 70
     0
  9
$DIMUPT
 70
     0
  9
$DIMDEC
 70
     4
  9
$DIMTDEC
 70
     4
  9
$DIMALTU
 70
     2
  9
$DIMALTTD
 70
     2
  9
$DIMTXSTY
  7
Standard
  9
$DIMAUNIT
 70
     0
  9
$DIMADEC
 70
     0
  9
$DIMALTRND
 40
0.0
  9
$DIMAZIN
 70
     0
  9
$DIMDSEP
 70
    46
  9
$DIMATFIT
 70
     3
  9
$DIMFRAC
 70
     0
  9
$DIMLDRBLK
  1

  9
$DIMLUNIT
 70
     2
  9
$DIMLWD
 70
    -2
  9
$DIMLWE
 70
    -2
  9
$DIMTMOVE
 70
     0
  9
$DIMFXL
 40
1.0
  9
$DIMFXLON
 70
     0
  9
$DIMJOGANG
 40
0.7853981633974483
  9
$DIMTFILL
 70
     0
  9
$DIMTFILLCLR
 70
     0
  9
$DIMARCSYM
 70
     0
  9
$DIMLTYPE
  6

  9
$DIMLTEX1
  6

  9
$DIMLTEX2
  6

  9
$DIMTXTDIRECTION
 70
     0
  9
$LUNITS
 70
     2
  9
$LUPREC
 70
     4
  9
$SKETCHINC
 40
0.1
  9
$FILLETRAD
 40
0.0
  9
$AUNITS
 70
     0
  9
$AUPREC
 70
     0
  9
$MENU
  1
.
  9
$ELEVATION
 40
0.0
  9
$PELEVATION
 40
0.0
  9
$THICKNESS
 40
0.0
  9
$LIMCHECK
 70
     0
  9
$CHAMFERA
 40
0.0
  9
$CHAMFERB
 40
0.0
  9
$CHAMFERC
 40
0.0
  9
$CHAMFERD
 40
0.0
  9
$SKPOLY
 70
     0
  9
$TDCREATE
 40
2459328.440856482
  9
$TDUCREATE
 40
2459328.357523148
  9
$TDUPDATE
 40
2459341.404456019
  9
$TDUUPDATE
 40
2459341.321122685
  9
$TDINDWG
 40
0.0022916667
  9
$TDUSRTIMER
 40
0.0022916667
  9
$USRTIMER
 70
     1
  9
$ANGBASE
 50
0.0
  9
$ANGDIR
 70
     0
  9
$PDMODE
 70
     0
  9
$PDSIZE
 40
0.0
  9
$PLINEWID
 40
0.0
  9
$SPLFRAME
 70
     0
  9
$SPLINETYPE
 70
     6
  9
$SPLINESEGS
 70
     8
  9
$HANDSEED
  5
374
  9
$SURFTAB1
 70
     6
  9
$SURFTAB2
 70
     6
  9
$SURFTYPE
 70
     6
  9
$SURFU
 70
     6
  9
$SURFV
 70
     6
  9
$UCSBASE
  2

  9
$UCSNAME
  2

  9
$UCSORG
 10
0.0
 20
0.0
 30
0.0
  9
$UCSXDIR
 10
1.0
 20
0.0
 30
0.0
  9
$UCSYDIR
 10
0.0
 20
1.0
 30
0.0
  9
$UCSORTHOREF
  2

  9
$UCSORTHOVIEW
 70
     0
  9
$UCSORGTOP
 10
0.0
 20
0.0
 30
0.0
  9
$UCSORGBOTTOM
 10
0.0
 20
0.0
 30
0.0
  9
$UCSORGLEFT
 10
0.0
 20
0.0
 30
0.0
  9
$UCSORGRIGHT
 10
0.0
 20
0.0
 30
0.0
  9
$UCSORGFRONT
 10
0.0
 20
0.0
 30
0.0
  9
$UCSORGBACK
 10
0.0
 20
0.0
 30
0.0
  9
$PUCSBASE
  2

  9
$PUCSNAME
  2

  9
$PUCSORG
 10
0.0
 20
0.0
 30
0.0
  9
$PUCSXDIR
 10
1.0
 20
0.0
 30
0.0
  9
$PUCSYDIR
 10
0.0
 20
1.0
 30
0.0
  9
$PUCSORTHOREF
  2

  9
$PUCSORTHOVIEW
 70
     0
  9
$PUCSORGTOP
 10
0.0
 20
0.0
 30
0.0
  9
$PUCSORGBOTTOM
 10
0.0
 20
0.0
 30
0.0
  9
$PUCSORGLEFT
 10
0.0
 20
0.0
 30
0.0
  9
$PUCSORGRIGHT
 10
0.0
 20
0.0
 30
0.0
  9
$PUCSORGFRONT
 10
0.0
 20
0.0
 30
0.0
  9
$PUCSORGBACK
 10
0.0
 20
0.0
 30
0.0
  9
$USERI1
 70
     0
  9
$USERI2
 70
     0
  9
$USERI3
 70
     0
  9
$USERI4
 70
     0
  9
$USERI5
 70
     0
  9
$USERR1
 40
0.0
  9
$USERR2
 40
0.0
  9
$USERR3
 40
0.0
  9
$USERR4
 40
0.0
  9
$USERR5
 40
0.0
  9
$WORLDVIEW
 70
     1
  9
$SHADEDGE
 70
     3
  9
$SHADEDIF
 70
    70
  9
$TILEMODE
 70
     1
  9
$MAXACTVP
 70
    64
  9
$PINSBASE
 10
0.0
 20
0.0
 30
0.0
  9
$PLIMCHECK
 70
     0
  9
$PEXTMIN
 10
1.000000000000000E+20
 20
1.000000000000000E+20
 30
1.000000000000000E+20
  9
$PEXTMAX
 10
-1.000000000000000E+20
 20
-1.000000000000000E+20
 30
-1.000000000000000E+20
  9
$PLIMMIN
 10
0.0
 20
0.0
  9
$PLIMMAX
 10
12.0
 20
9.0
  9
$UNITMODE
 70
     0
  9
$VISRETAIN
 70
     1
  9
$PLINEGEN
 70
     0
  9
$PSLTSCALE
 70
     1
  9
$TREEDEPTH
 70
  3020
  9
$CMLSTYLE
  2
Standard
  9
$CMLJUST
 70
     0
  9
$CMLSCALE
 40
1.0
  9
$PROXYGRAPHICS
 70
     1
  9
$MEASUREMENT
 70
     0
  9
$CELWEIGHT
370
    -1
  9
$ENDCAPS
280
     0
  9
$JOINSTYLE
280
     0
  9
$LWDISPLAY
290
     1
  9
$INSUNITS
 70
     4
  9
$HYPERLINKBASE
  1

  9
$STYLESHEET
  1

  9
$XEDIT
290
     1
  9
$CEPSNTYPE
380
     0
  9
$PSTYLEMODE
290
     1
  9
$FINGERPRINTGUID
  2
{AEE1DADE-BA67-2C45-A557-A82358CF0F89}
  9
$VERSIONGUID
  2
{1FF1596E-F94E-7846-969C-30041283403E}
  9
$EXTNAMES
290
     1
  9
$PSVPSCALE
 40
0.0
  9
$OLESTARTUP
290
     0
  9
$SORTENTS
280
   127
  9
$INDEXCTL
280
     0
  9
$HIDETEXT
280
     1
  9
$XCLIPFRAME
280
     2
  9
$HALOGAP
280
     0
  9
$OBSCOLOR
 70
   257
  9
$OBSLTYPE
280
     0
  9
$INTERSECTIONDISPLAY
280
     0
  9
$INTERSECTIONCOLOR
 70
   257
  9
$DIMASSOC
280
     2
  9
$PROJECTNAME
  1

  9
$CAMERADISPLAY
290
     0
  9
$LENSLENGTH
 40
50.0
  9
$CAMERAHEIGHT
 40
0.0
  9
$STEPSPERSEC
 40
2.0
  9
$STEPSIZE
 40
6.0
  9
$3DDWFPREC
 40
2.0
  9
$PSOLWIDTH
 40
0.25
  9
$PSOLHEIGHT
 40
4.0
  9
$LOFTANG1
 40
1.570796326794896
  9
$LOFTANG2
 40
1.570796326794896
  9
$LOFTMAG1
 40
0.0
  9
$LOFTMAG2
 40
0.0
  9
$LOFTPARAM
 70
     7
  9
$LOFTNORMALS
280
     1
  9
$LATITUDE
 40
37.795
  9
$LONGITUDE
 40
-122.394
  9
$NORTHDIRECTION
 40
0.0
  9
$TIMEZONE
 70
 -8000
  9
$LIGHTGLYPHDISPLAY
280
     1
  9
$TILEMODELIGHTSYNCH
280
     1
  9
$CMATERIAL
347
11
  9
$SOLIDHIST
280
     0
  9
$SHOWHIST
280
     1
  9
$DWFFRAME
280
     2
  9
$DGNFRAME
280
     0
  9
$REALWORLDSCALE
290
     1
  9
$INTERFERECOLOR
 62
     1
  9
$INTERFEREOBJVS
345
33
  9
$INTERFEREVPVS
346
30
  9
$CSHADOW
280
     0
  9
$SHADOWPLANELOCATION
 40
0.0
  0
ENDSEC
  0
SECTION
  2
CLASSES
  0
CLASS
  1
ACDBDICTIONARYWDFLT
  2
AcDbDictionaryWithDefault
  3
ObjectDBX Classes
 90
        0
 91
        1
280
     0
281
     0
  0
CLASS
  1
MATERIAL
  2
AcDbMaterial
  3
ObjectDBX Classes
 90
     1153
 91
        3
280
     0
281
     0
  0
CLASS
  1
VISUALSTYLE
  2
AcDbVisualStyle
  3
ObjectDBX Classes
 90
     4095
 91
       24
280
     0
281
     0
  0
CLASS
  1
SCALE
  2
AcDbScale
  3
ObjectDBX Classes
 90
     1153
 91
       17
280
     0
281
     0
  0
CLASS
  1
TABLESTYLE
  2
AcDbTableStyle
  3
ObjectDBX Classes
 90
     4095
 91
        1
280
     0
281
     0
  0
CLASS
  1
MLEADERSTYLE
  2
AcDbMLeaderStyle
  3
ACDB_MLEADERSTYLE_CLASS
 90
     4095
 91
        1
280
     0
281
     0
  0
CLASS
  1
ACDBSECTIONVIEWSTYLE
  2
AcDbSectionViewStyle
  3
ObjectDBX Classes
 90
     1025
 91
        1
280
     0
281
     0
  0
CLASS
  1
ACDBDETAILVIEWSTYLE
  2
AcDbDetailViewStyle
  3
ObjectDBX Classes
 90
     1025
 91
        1
280
     0
281
     0
  0
CLASS
  1
DICTIONARYVAR
  2
AcDbDictionaryVar
  3
ObjectDBX Classes
 90
        0
 91
        5
280
     0
281
     0
  0
CLASS
  1
CELLSTYLEMAP
  2
AcDbCellStyleMap
  3
ObjectDBX Classes
 90
     1152
 91
        4
280
     0
281
     0
  0
CLASS
  1
SORTENTSTABLE
  2
AcDbSortentsTable
  3
ObjectDBX Classes
 90
        0
 91
        1
280
     0
281
     0
  0
ENDSEC
  0
SECTION
  2
TABLES
  0
TABLE
  2
VPORT
  5
8
330
0
100
AcDbSymbolTable
 70
     1
1001
ACAD
1000
DbSaveVer
1071
      105
  0
VPORT
  5
57
330
8
100
AcDbSymbolTableRecord
100
AcDbViewportTableRecord
  2
*Active
 70
     0
 10
0.0
 20
0.0
 11
1.0
 21
1.0
 12
151.4125433254731
 22
1.329358669627993
 13
0.0
 23
0.0
 14
1.0
 24
1.0
 15
0.0
 25
0.0
 16
0.0
 26
0.0
 36
1.0
 17
319.9999999200078
 27
-148.4999999628701
 37
0.0
 40
546.8592132947549
 41
1.931468531468531
 42
50.0
 43
0.0
 44
0.0
 50
0.0
 51
0.0
 71
     0
 72
   100
 73
     1
 74
     0
 75
     1
 76
     0
 77
     0
 78
     0
281
     0
 65
     1
110
0.0
120
0.0
130
0.0
111
1.0
121
0.0
131
0.0
112
0.0
122
1.0
132
0.0
 79
     0
146
0.0
348
2F
 60
     3
 61
     5
292
     1
282
     1
141
0.0
142
0.0
 63
   250
421
  3355443
1001
ACAD_NAV_VCDISPLAY
1070
     3
  0
ENDTAB
  0
TABLE
  2
LTYPE
  5
5
330
0
100
AcDbSymbolTable
 70
     1
  0
LTYPE
  5
5B
330
5
100
AcDbSymbolTableRecord
100
AcDbLinetypeTableRecord
  2
ByBlock
 70
     0
  3

 72
    65
 73
     0
 40
0.0
  0
LTYPE
  5
5C
330
5
100
AcDbSymbolTableRecord
100
AcDbLinetypeTableRecord
  2
ByLayer
 70
     0
  3

 72
    65
 73
     0
 40
0.0
  0
LTYPE
  5
5D
330
5
100
AcDbSymbolTableRecord
100
AcDbLinetypeTableRecord
  2
Continuous
 70
     0
  3
Solid line
 72
    65
 73
     0
 40
0.0
  0
ENDTAB
  0
TABLE
  2
LAYER
  5
2
330
0
100
AcDbSymbolTable
 70
     2
  0
LAYER
  5
54
330
2
100
AcDbSymbolTableRecord
100
AcDbLayerTableRecord
  2
0
 70
     0
 62
     7
  6
Continuous
370
    -3
390
F
347
21
348
0
  0
LAYER
  5
78
330
2
100
AcDbSymbolTableRecord
100
AcDbLayerTableRecord
  2
Livello 1
 70
     0
 62
     7
  6
Continuous
370
     0
390
F
347
21
348
0
  0
ENDTAB
  0
TABLE
  2
STYLE
  5
3
330
0
100
AcDbSymbolTable
 70
     2
  0
STYLE
  5
55
330
3
100
AcDbSymbolTableRecord
100
AcDbTextStyleTableRecord
  2
Standard
 70
     0
 40
0.0
 41
1.0
 50
0.0
 71
     0
 42
0.2
  3
txt
  4

  0
STYLE
  5
5A
330
3
100
AcDbSymbolTableRecord
100
AcDbTextStyleTableRecord
  2
Annotative
 70
     0
 40
0.0
 41
1.0
 50
0.0
 71
     0
 42
0.2
  3
txt
  4

1001
AcadAnnotative
1000
AnnotativeData
1002
{
1070
     1
1070
     1
1002
}
  0
ENDTAB
  0
TABLE
  2
VIEW
  5
6
330
0
100
AcDbSymbolTable
 70
     0
  0
ENDTAB
  0
TABLE
  2
UCS
  5
7
330
0
100
AcDbSymbolTable
 70
     0
  0
ENDTAB
  0
TABLE
  2
APPID
  5
9
330
0
100
AcDbSymbolTable
 70
     3
  0
APPID
  5
56
330
9
100
AcDbSymbolTableRecord
100
AcDbRegAppTableRecord
  2
ACAD
 70
     0
  0
APPID
  5
5E
330
9
100
AcDbSymbolTableRecord
100
AcDbRegAppTableRecord
  2
AcadAnnotative
 70
     0
  0
APPID
  5
2F1
330
9
100
AcDbSymbolTableRecord
100
AcDbRegAppTableRecord
  2
ACAD_NAV_VCDISPLAY
 70
     0
  0
ENDTAB
  0
TABLE
  2
DIMSTYLE
  5
A
330
0
100
AcDbSymbolTable
 70
     2
100
AcDbDimStyleTable
 71
     0
  0
DIMSTYLE
105
58
330
A
100
AcDbSymbolTableRecord
100
AcDbDimStyleTableRecord
  2
Standard
 70
     0
340
55
  0
DIMSTYLE
105
59
330
A
100
AcDbSymbolTableRecord
100
AcDbDimStyleTableRecord
  2
Annotative
 70
     0
340
55
1001
AcadAnnotative
1000
AnnotativeData
1002
{
1070
     1
1070
     1
1002
}
  0
ENDTAB
  0
TABLE
  2
BLOCK_RECORD
  5
1
330
0
100
AcDbSymbolTable
 70
    13
  0
BLOCK_RECORD
  5
70
102
{ACAD_XDICTIONARY
360
18B
102
}
330
1
100
AcDbSymbolTableRecord
100
AcDbBlockTableRecord
  2
*Model_Space
340
73
 70
     0
280
     1
281
     0
  0
BLOCK_RECORD
  5
6C
330
1
100
AcDbSymbolTableRecord
100
AcDbBlockTableRecord
  2
*Paper_Space
340
6F
 70
     0
280
     1
281
     0
  0
BLOCK_RECORD
  5
74
330
1
100
AcDbSymbolTableRecord
100
AcDbBlockTableRecord
  2
*Paper_Space0
340
77
 70
     0
280
     1
281
     0
  0
BLOCK_RECORD
  5
F2
330
1
100
AcDbSymbolTableRecord
100
AcDbBlockTableRecord
  2
Block_0
340
0
 70
     0
280
     1
281
     0
  0
BLOCK_RECORD
  5
F6
330
1
100
AcDbSymbolTableRecord
100
AcDbBlockTableRecord
  2
Block_1
340
0
102
{BLKREFS
331
F7
102
}
 70
     0
280
     1
281
     0
  0
BLOCK_RECORD
  5
FF
330
1
100
AcDbSymbolTableRecord
100
AcDbBlockTableRecord
  2
Block_2
340
0
 70
     0
280
     1
281
     0
  0
BLOCK_RECORD
  5
103
330
1
100
AcDbSymbolTableRecord
100
AcDbBlockTableRecord
  2
Block_3
340
0
102
{BLKREFS
331
104
102
}
 70
     0
280
     1
281
     0
  0
BLOCK_RECORD
  5
10B
330
1
100
AcDbSymbolTableRecord
100
AcDbBlockTableRecord
  2
Block_4
340
0
 70
     0
280
     1
281
     0
  0
BLOCK_RECORD
  5
10F
330
1
100
AcDbSymbolTableRecord
100
AcDbBlockTableRecord
  2
Block_5
340
0
102
{BLKREFS
331
110
102
}
 70
     0
280
     1
281
     0
  0
BLOCK_RECORD
  5
11E
330
1
100
AcDbSymbolTableRecord
100
AcDbBlockTableRecord
  2
Block_6
340
0
 70
     0
280
     1
281
     0
  0
BLOCK_RECORD
  5
122
330
1
100
AcDbSymbolTableRecord
100
AcDbBlockTableRecord
  2
Block_7
340
0
102
{BLKREFS
331
123
102
}
 70
     0
280
     1
281
     0
  0
BLOCK_RECORD
  5
12B
330
1
100
AcDbSymbolTableRecord
100
AcDbBlockTableRecord
  2
Block_8
340
0
 70
     0
280
     1
281
     0
  0
BLOCK_RECORD
  5
12F
330
1
100
AcDbSymbolTableRecord
100
AcDbBlockTableRecord
  2
Block_9
340
0
102
{BLKREFS
331
130
102
}
 70
     0
280
     1
281
     0
  0
BLOCK_RECORD
  5
137
330
1
100
AcDbSymbolTableRecord
100
AcDbBlockTableRecord
  2
Block_10
340
0
 70
     0
280
     1
281
     0
  0
BLOCK_RECORD
  5
13B
330
1
100
AcDbSymbolTableRecord
100
AcDbBlockTableRecord
  2
Block_11
340
0
102
{BLKREFS
331
13C
102
}
 70
     0
280
     1
281
     0
  0
ENDTAB
  0
ENDSEC
  0
SECTION
  2
BLOCKS
  0
BLOCK
  5
71
330
70
100
AcDbEntity
  8
0
100
AcDbBlockBegin
  2
*Model_Space
 70
     0
 10
0.0
 20
0.0
 30
0.0
  3
*Model_Space
  1

  0
ENDBLK
  5
72
330
70
100
AcDbEntity
  8
0
100
AcDbBlockEnd
  0
BLOCK
  5
6D
330
6C
100
AcDbEntity
 67
     1
  8
0
100
AcDbBlockBegin
  2
*Paper_Space
 70
     0
 10
0.0
 20
0.0
 30
0.0
  3
*Paper_Space
  1

  0
ENDBLK
  5
6E
330
6C
100
AcDbEntity
 67
     1
  8
0
100
AcDbBlockEnd
  0
BLOCK
  5
75
330
74
100
AcDbEntity
 67
     1
  8
0
100
AcDbBlockBegin
  2
*Paper_Space0
 70
     0
 10
0.0
 20
0.0
 30
0.0
  3
*Paper_Space0
  1

  0
ENDBLK
  5
76
330
74
100
AcDbEntity
 67
     1
  8
0
100
AcDbBlockEnd
  0
BLOCK
  5
F4
330
F2
100
AcDbEntity
  8
0
100
AcDbBlockBegin
  2
Block_0
 70
     0
 10
0.0
 20
0.0
 30
0.0
  3
Block_0
  1

  0
INSERT
  5
F7
330
F2
100
AcDbEntity
  8
Livello 1
100
AcDbBlockReference
  2
Block_1
 10
0.0
 20
0.0
 30
0.0
  0
ENDBLK
  5
F5
330
F2
100
AcDbEntity
  8
0
100
AcDbBlockEnd
  0
BLOCK
  5
F8
330
F6
100
AcDbEntity
  8
0
100
AcDbBlockBegin
  2
Block_1
 70
     0
 10
0.0
 20
0.0
 30
0.0
  3
Block_1
  1

  0
SPLINE
  5
FA
330
F6
100
AcDbEntity
  8
Livello 1
100
AcDbSpline
210
0.0
220
0.0
230
1.0
 70
     9
 71
     3
 72
    59
 73
    55
 74
     0
 42
0.000000001
 43
0.0000000001
 40
0.0
 40
0.0
 40
0.0
 40
0.0
 40
1.0
 40
1.0
 40
1.0
 40
2.0
 40
2.0
 40
2.0
 40
3.0
 40
3.0
 40
3.0
 40
4.0
 40
4.0
 40
4.0
 40
5.0
 40
5.0
 40
5.0
 40
6.0
 40
6.0
 40
6.0
 40
7.0
 40
7.0
 40
7.0
 40
8.0
 40
8.0
 40
8.0
 40
9.0
 40
9.0
 40
9.0
 40
10.0
 40
10.0
 40
10.0
 40
11.0
 40
11.0
 40
11.0
 40
12.0
 40
12.0
 40
12.0
 40
13.0
 40
13.0
 40
13.0
 40
14.0
 40
14.0
 40
14.0
 40
15.0
 40
15.0
 40
15.0
 40
16.0
 40
16.0
 40
16.0
 40
17.0
 40
17.0
 40
17.0
 40
18.0
 40
18.0
 40
18.0
 40
18.0
 10
144.7605007233585
 20
-179.682055619142
 30
0.0
 10
145.0779662723242
 20
-179.8853162527717
 30
0.0
 10
145.8145276870707
 20
-180.2026095469632
 30
0.0
 10
146.5891574069291
 20
-180.2026095469632
 30
0.0
 10
148.0240396765356
 20
-180.2026095469632
 30
0.0
 10
148.4684569941329
 20
-179.2882812051779
 30
0.0
 10
148.4558823956117
 20
-178.6027072036132
 30
0.0
 10
148.4431355423163
 20
-177.4472221778604
 30
0.0
 10
147.4018554318995
 20
-176.9518174470815
 30
0.0
 10
146.3225070163707
 20
-176.9518174470815
 30
0.0
 10
146.3225070163707
 20
-176.9518174470815
 30
0.0
 10
145.7003227717346
 20
-176.9518174470815
 30
0.0
 10
145.7003227717346
 20
-176.9518174470815
 30
0.0
 10
145.7003227717346
 20
-176.9518174470815
 30
0.0
 10
145.7003227717346
 20
-176.1139702250687
 30
0.0
 10
145.7003227717346
 20
-176.1139702250687
 30
0.0
 10
145.7003227717346
 20
-176.1139702250687
 30
0.0
 10
146.3225070163707
 20
-176.1139702250687
 30
0.0
 10
146.3225070163707
 20
-176.1139702250687
 30
0.0
 10
147.1352050413412
 20
-176.1139702250687
 30
0.0
 10
148.1637382984625
 20
-175.6950466140623
 30
0.0
 10
148.1637382984625
 20
-174.7169840057999
 30
0.0
 10
148.1637382984625
 20
-174.0565592012775
 30
0.0
 10
147.7446424326819
 20
-173.4726155165276
 30
0.0
 10
146.7161091755605
 20
-173.4726155165276
 30
0.0
 10
146.0558566258124
 20
-173.4726155165276
 30
0.0
 10
145.4209255278809
 20
-173.7644151041283
 30
0.0
 10
145.0653916738031
 20
-174.0186631509397
 30
0.0
 10
145.0653916738031
 20
-174.0186631509397
 30
0.0
 10
144.7732475766539
 20
-173.2059651259693
 30
0.0
 10
144.7732475766539
 20
-173.2059651259693
 30
0.0
 10
145.2050902957299
 20
-172.8886718317778
 30
0.0
 10
146.043109772517
 20
-172.5710340280378
 30
0.0
 10
146.9319444077114
 20
-172.5710340280378
 30
0.0
 10
148.5573404576523
 20
-172.5710340280378
 30
0.0
 10
149.2939018723987
 20
-173.5363497830048
 30
0.0
 10
149.2939018723987
 20
-174.539217078761
 30
0.0
 10
149.2939018723987
 20
-175.3898111540691
 30
0.0
 10
148.7859225430987
 20
-176.1139702250687
 30
0.0
 10
147.7701361392727
 20
-176.4819064228934
 30
0.0
 10
147.7701361392727
 20
-176.4819064228934
 30
0.0
 10
147.7701361392727
 20
-176.5074001294841
 30
0.0
 10
147.7701361392727
 20
-176.5074001294841
 30
0.0
 10
148.7859225430987
 20
-176.710660763114
 30
0.0
 10
149.6113674213645
 20
-177.4727158844513
 30
0.0
 10
149.6113674213645
 20
-178.6282009102041
 30
0.0
 10
149.6113674213645
 20
-179.9487060097003
 30
0.0
 10
148.5828341642432
 20
-181.1045355450016
 30
0.0
 10
146.6019042602245
 20
-181.1045355450016
 30
0.0
 10
145.6748290651438
 20
-181.1045355450016
 30
0.0
 10
144.8621310401733
 20
-180.8123914478524
 30
0.0
 10
144.4557820276881
 20
-180.5457410572941
 30
0.0
 10
144.4557820276881
 20
-180.5457410572941
 30
0.0
 10
144.7605007233585
 20
-179.682055619142
 30
0.0
 10
144.7605007233585
 20
-179.682055619142
 30
0.0
  0
HATCH
  5
FB
330
F6
100
AcDbEntity
  8
Livello 1
 62
   250
420
  1907995
440
 33554687
100
AcDbHatch
 10
0.0
 20
0.0
 30
0.0
210
0.0
220
0.0
230
1.0
  2
SOLID
 70
     1
 71
     1
 91
        1
 92
        1
 93
        1
 72
     4
 94
        3
 73
     0
 74
     0
 95
       59
 96
       55
 40
0.0
 40
0.0
 40
0.0
 40
0.0
 40
1.0
 40
1.0
 40
1.0
 40
2.0
 40
2.0
 40
2.0
 40
3.0
 40
3.0
 40
3.0
 40
4.0
 40
4.0
 40
4.0
 40
5.0
 40
5.0
 40
5.0
 40
6.0
 40
6.0
 40
6.0
 40
7.0
 40
7.0
 40
7.0
 40
8.0
 40
8.0
 40
8.0
 40
9.0
 40
9.0
 40
9.0
 40
10.0
 40
10.0
 40
10.0
 40
11.0
 40
11.0
 40
11.0
 40
12.0
 40
12.0
 40
12.0
 40
13.0
 40
13.0
 40
13.0
 40
14.0
 40
14.0
 40
14.0
 40
15.0
 40
15.0
 40
15.0
 40
16.0
 40
16.0
 40
16.0
 40
17.0
 40
17.0
 40
17.0
 40
18.0
 40
18.0
 40
18.0
 40
18.0
 10
144.7605007233585
 20
-179.682055619142
 10
145.0779662723242
 20
-179.8853162527717
 10
145.8145276870707
 20
-180.2026095469632
 10
146.5891574069291
 20
-180.2026095469632
 10
148.0240396765356
 20
-180.2026095469632
 10
148.4684569941329
 20
-179.2882812051779
 10
148.4558823956117
 20
-178.6027072036132
 10
148.4431355423163
 20
-177.4472221778604
 10
147.4018554318995
 20
-176.9518174470815
 10
146.3225070163707
 20
-176.9518174470815
 10
146.3225070163707
 20
-176.9518174470815
 10
145.7003227717346
 20
-176.9518174470815
 10
145.7003227717346
 20
-176.9518174470815
 10
145.7003227717346
 20
-176.9518174470815
 10
145.7003227717346
 20
-176.1139702250687
 10
145.7003227717346
 20
-176.1139702250687
 10
145.7003227717346
 20
-176.1139702250687
 10
146.3225070163707
 20
-176.1139702250687
 10
146.3225070163707
 20
-176.1139702250687
 10
147.1352050413412
 20
-176.1139702250687
 10
148.1637382984625
 20
-175.6950466140623
 10
148.1637382984625
 20
-174.7169840057999
 10
148.1637382984625
 20
-174.0565592012775
 10
147.7446424326819
 20
-173.4726155165276
 10
146.7161091755605
 20
-173.4726155165276
 10
146.0558566258124
 20
-173.4726155165276
 10
145.4209255278809
 20
-173.7644151041283
 10
145.0653916738031
 20
-174.0186631509397
 10
145.0653916738031
 20
-174.0186631509397
 10
144.7732475766539
 20
-173.2059651259693
 10
144.7732475766539
 20
-173.2059651259693
 10
145.2050902957299
 20
-172.8886718317778
 10
146.043109772517
 20
-172.5710340280378
 10
146.9319444077114
 20
-172.5710340280378
 10
148.5573404576523
 20
-172.5710340280378
 10
149.2939018723987
 20
-173.5363497830048
 10
149.2939018723987
 20
-174.539217078761
 10
149.2939018723987
 20
-175.3898111540691
 10
148.7859225430987
 20
-176.1139702250687
 10
147.7701361392727
 20
-176.4819064228934
 10
147.7701361392727
 20
-176.4819064228934
 10
147.7701361392727
 20
-176.5074001294841
 10
147.7701361392727
 20
-176.5074001294841
 10
148.7859225430987
 20
-176.710660763114
 10
149.6113674213645
 20
-177.4727158844513
 10
149.6113674213645
 20
-178.6282009102041
 10
149.6113674213645
 20
-179.9487060097003
 10
148.5828341642432
 20
-181.1045355450016
 10
146.6019042602245
 20
-181.1045355450016
 10
145.6748290651438
 20
-181.1045355450016
 10
144.8621310401733
 20
-180.8123914478524
 10
144.4557820276881
 20
-180.5457410572941
 10
144.4557820276881
 20
-180.5457410572941
 10
144.7605007233585
 20
-179.682055619142
 10
144.7605007233585
 20
-179.682055619142
 97
        0
 97
        1
330
FA
 75
     2
 76
     1
 98
        1
 10
0.0
 20
0.0
450
        0
451
        0
460
0.0
461
0.0
452
        0
462
0.0
453
        0
470

  0
SPLINE
  5
FC
330
F6
100
AcDbEntity
  8
Livello 1
100
AcDbSpline
210
0.0
220
0.0
230
1.0
 70
     9
 71
     3
 72
    17
 73
    13
 74
     0
 42
0.000000001
 43
0.0000000001
 40
0.0
 40
0.0
 40
0.0
 40
0.0
 40
1.0
 40
1.0
 40
1.0
 40
2.0
 40
2.0
 40
2.0
 40
3.0
 40
3.0
 40
3.0
 40
4.0
 40
4.0
 40
4.0
 40
4.0
 10
152.0119099554866
 20
-176.876025346406
 30
0.0
 10
152.0119099554866
 20
-179.0216308146196
 30
0.0
 10
152.6721625052346
 20
-180.2408501068495
 30
0.0
 10
153.6881211638349
 20
-180.2408501068495
 30
0.0
 10
154.8310315910665
 20
-180.2408501068495
 30
0.0
 10
155.3770792254787
 20
-178.9075981540578
 30
0.0
 10
155.3770792254787
 20
-176.7995442266334
 30
0.0
 10
155.3770792254787
 20
-174.7676269094331
 30
0.0
 10
154.8563530428831
 20
-173.4343749566414
 30
0.0
 10
153.7008680171303
 20
-173.4343749566414
 30
0.0
 10
152.7229776636422
 20
-173.4343749566414
 30
0.0
 10
152.0119099554866
 20
-174.6281005422805
 30
0.0
 10
152.0119099554866
 20
-176.876025346406
 30
0.0
  0
SPLINE
  5
FD
330
F6
100
AcDbEntity
  8
Livello 1
100
AcDbSpline
210
0.0
220
0.0
230
1.0
 70
     9
 71
     3
 72
    17
 73
    13
 74
     0
 42
0.000000001
 43
0.0000000001
 40
0.0
 40
0.0
 40
0.0
 40
0.0
 40
1.0
 40
1.0
 40
1.0
 40
2.0
 40
2.0
 40
2.0
 40
3.0
 40
3.0
 40
3.0
 40
4.0
 40
4.0
 40
4.0
 40
4.0
 10
156.4944959461194
 20
-176.7485568134517
 30
0.0
 10
156.4944959461194
 20
-179.5549315957362
 30
0.0
 10
155.4532158357027
 20
-181.1045355450016
 30
0.0
 10
153.624559152132
 20
-181.1045355450016
 30
0.0
 10
152.0119099554866
 20
-181.1045355450016
 30
0.0
 10
150.9198146866624
 20
-179.5931721556225
 30
0.0
 10
150.8944932348458
 20
-176.862933983562
 30
0.0
 10
150.8944932348458
 20
-174.0947997611638
 30
0.0
 10
152.0880465657106
 20
-172.5710340280378
 30
0.0
 10
153.7642577740589
 20
-172.5710340280378
 30
0.0
 10
155.5040309941101
 20
-172.5710340280378
 30
0.0
 10
156.4944959461194
 20
-174.1202934677546
 30
0.0
 10
156.4944959461194
 20
-176.7485568134517
 30
0.0
  0
HATCH
  5
FE
330
F6
100
AcDbEntity
  8
Livello 1
 62
   250
420
  1907995
440
 33554687
100
AcDbHatch
 10
0.0
 20
0.0
 30
0.0
210
0.0
220
0.0
230
1.0
  2
SOLID
 70
     1
 71
     1
 91
        2
 92
        1
 93
        1
 72
     4
 94
        3
 73
     0
 74
     0
 95
       17
 96
       13
 40
0.0
 40
0.0
 40
0.0
 40
0.0
 40
1.0
 40
1.0
 40
1.0
 40
2.0
 40
2.0
 40
2.0
 40
3.0
 40
3.0
 40
3.0
 40
4.0
 40
4.0
 40
4.0
 40
4.0
 10
152.0119099554866
 20
-176.876025346406
 10
152.0119099554866
 20
-179.0216308146196
 10
152.6721625052346
 20
-180.2408501068495
 10
153.6881211638349
 20
-180.2408501068495
 10
154.8310315910665
 20
-180.2408501068495
 10
155.3770792254787
 20
-178.9075981540578
 10
155.3770792254787
 20
-176.7995442266334
 10
155.3770792254787
 20
-174.7676269094331
 10
154.8563530428831
 20
-173.4343749566414
 10
153.7008680171303
 20
-173.4343749566414
 10
152.7229776636422
 20
-173.4343749566414
 10
152.0119099554866
 20
-174.6281005422805
 10
152.0119099554866
 20
-176.876025346406
 97
        0
 97
        1
330
FC
 92
        1
 93
        1
 72
     4
 94
        3
 73
     0
 74
     0
 95
       17
 96
       13
 40
0.0
 40
0.0
 40
0.0
 40
0.0
 40
1.0
 40
1.0
 40
1.0
 40
2.0
 40
2.0
 40
2.0
 40
3.0
 40
3.0
 40
3.0
 40
4.0
 40
4.0
 40
4.0
 40
4.0
 10
156.4944959461194
 20
-176.7485568134517
 10
156.4944959461194
 20
-179.5549315957362
 10
155.4532158357027
 20
-181.1045355450016
 10
153.624559152132
 20
-181.1045355450016
 10
152.0119099554866
 20
-181.1045355450016
 10
150.9198146866624
 20
-179.5931721556225
 10
150.8944932348458
 20
-176.862933983562
 10
150.8944932348458
 20
-174.0947997611638
 10
152.0880465657106
 20
-172.5710340280378
 10
153.7642577740589
 20
-172.5710340280378
 10
155.5040309941101
 20
-172.5710340280378
 10
156.4944959461194
 20
-174.1202934677546
 10
156.4944959461194
 20
-176.7485568134517
 97
        0
 97
        1
330
FD
 75
     2
 76
     1
 98
        1
 10
0.0
 20
0.0
450
        0
451
        0
460
0.0
461
0.0
452
        0
462
0.0
453
        0
470

  0
ENDBLK
  5
F9
330
F6
100
AcDbEntity
  8
0
100
AcDbBlockEnd
  0
BLOCK
  5
101
330
FF
100
AcDbEntity
  8
0
100
AcDbBlockBegin
  2
Block_2
 70
     0
 10
0.0
 20
0.0
 30
0.0
  3
Block_2
  1

  0
INSERT
  5
104
330
FF
100
AcDbEntity
  8
Livello 1
100
AcDbBlockReference
  2
Block_3
 10
0.0
 20
0.0
 30
0.0
  0
ENDBLK
  5
102
330
FF
100
AcDbEntity
  8
0
100
AcDbBlockEnd
  0
BLOCK
  5
105
330
103
100
AcDbEntity
  8
0
100
AcDbBlockBegin
  2
Block_3
 70
     0
 10
0.0
 20
0.0
 30
0.0
  3
Block_3
  1

  0
SPLINE
  5
107
330
103
100
AcDbEntity
  8
Livello 1
100
AcDbSpline
210
0.0
220
0.0
230
1.0
 70
    11
 71
     3
 72
    29
 73
    25
 74
     0
 42
0.000000001
 43
0.0000000001
 40
0.0
 40
0.0
 40
0.0
 40
0.0
 40
1.0
 40
1.0
 40
1.0
 40
2.0
 40
2.0
 40
2.0
 40
3.0
 40
3.0
 40
3.0
 40
4.0
 40
4.0
 40
4.0
 40
5.0
 40
5.0
 40
5.0
 40
6.0
 40
6.0
 40
6.0
 40
7.0
 40
7.0
 40
7.0
 40
8.0
 40
8.0
 40
8.0
 40
8.0
 10
234.5619099348491
 20
-151.3471787816076
 30
0.0
 10
234.5619099348491
 20
-151.3471787816076
 30
0.0
 10
234.5619099348491
 20
-151.3726724881985
 30
0.0
 10
234.5619099348491
 20
-151.3726724881985
 30
0.0
 10
234.5619099348491
 20
-151.3726724881985
 30
0.0
 10
235.3365396547075
 20
-152.807554757805
 30
0.0
 10
235.3365396547075
 20
-152.807554757805
 30
0.0
 10
235.3365396547075
 20
-152.807554757805
 30
0.0
 10
234.4856010698508
 20
-153.0235622447302
 30
0.0
 10
234.4856010698508
 20
-153.0235622447302
 30
0.0
 10
234.4856010698508
 20
-153.0235622447302
 30
0.0
 10
233.5206298244323
 20
-151.2203992677504
 30
0.0
 10
233.5206298244323
 20
-151.2203992677504
 30
0.0
 10
233.5206298244323
 20
-151.2203992677504
 30
0.0
 10
233.5206298244323
 20
-150.2678303660788
 30
0.0
 10
233.5206298244323
 20
-150.2678303660788
 30
0.0
 10
233.5206298244323
 20
-150.2678303660788
 30
0.0
 10
241.7745618427682
 20
-150.2678303660788
 30
0.0
 10
241.7745618427682
 20
-150.2678303660788
 30
0.0
 10
241.7745618427682
 20
-150.2678303660788
 30
0.0
 10
241.7745618427682
 20
-151.3471787816076
 30
0.0
 10
241.7745618427682
 20
-151.3471787816076
 30
0.0
 10
241.7745618427682
 20
-151.3471787816076
 30
0.0
 10
234.5619099348491
 20
-151.3471787816076
 30
0.0
 10
234.5619099348491
 20
-151.3471787816076
 30
0.0
  0
HATCH
  5
108
330
103
100
AcDbEntity
  8
Livello 1
 62
   250
420
  1907995
440
 33554687
100
AcDbHatch
 10
0.0
 20
0.0
 30
0.0
210
0.0
220
0.0
230
1.0
  2
SOLID
 70
     1
 71
     1
 91
        1
 92
        1
 93
        1
 72
     4
 94
        3
 73
     0
 74
     0
 95
       29
 96
       25
 40
0.0
 40
0.0
 40
0.0
 40
0.0
 40
1.0
 40
1.0
 40
1.0
 40
2.0
 40
2.0
 40
2.0
 40
3.0
 40
3.0
 40
3.0
 40
4.0
 40
4.0
 40
4.0
 40
5.0
 40
5.0
 40
5.0
 40
6.0
 40
6.0
 40
6.0
 40
7.0
 40
7.0
 40
7.0
 40
8.0
 40
8.0
 40
8.0
 40
8.0
 10
234.5619099348491
 20
-151.3471787816076
 10
234.5619099348491
 20
-151.3471787816076
 10
234.5619099348491
 20
-151.3726724881985
 10
234.5619099348491
 20
-151.3726724881985
 10
234.5619099348491
 20
-151.3726724881985
 10
235.3365396547075
 20
-152.807554757805
 10
235.3365396547075
 20
-152.807554757805
 10
235.3365396547075
 20
-152.807554757805
 10
234.4856010698508
 20
-153.0235622447302
 10
234.4856010698508
 20
-153.0235622447302
 10
234.4856010698508
 20
-153.0235622447302
 10
233.5206298244323
 20
-151.2203992677504
 10
233.5206298244323
 20
-151.2203992677504
 10
233.5206298244323
 20
-151.2203992677504
 10
233.5206298244323
 20
-150.2678303660788
 10
233.5206298244323
 20
-150.2678303660788
 10
233.5206298244323
 20
-150.2678303660788
 10
241.7745618427682
 20
-150.2678303660788
 10
241.7745618427682
 20
-150.2678303660788
 10
241.7745618427682
 20
-150.2678303660788
 10
241.7745618427682
 20
-151.3471787816076
 10
241.7745618427682
 20
-151.3471787816076
 10
241.7745618427682
 20
-151.3471787816076
 10
234.5619099348491
 20
-151.3471787816076
 10
234.5619099348491
 20
-151.3471787816076
 97
        0
 97
        1
330
107
 75
     2
 76
     1
 98
        1
 10
0.0
 20
0.0
450
        0
451
        0
460
0.0
461
0.0
452
        0
462
0.0
453
        0
470

  0
SPLINE
  5
109
330
103
100
AcDbEntity
  8
Livello 1
100
AcDbSpline
210
0.0
220
0.0
230
1.0
 70
     9
 71
     3
 72
    59
 73
    55
 74
     0
 42
0.000000001
 43
0.0000000001
 40
0.0
 40
0.0
 40
0.0
 40
0.0
 40
1.0
 40
1.0
 40
1.0
 40
2.0
 40
2.0
 40
2.0
 40
3.0
 40
3.0
 40
3.0
 40
4.0
 40
4.0
 40
4.0
 40
5.0
 40
5.0
 40
5.0
 40
6.0
 40
6.0
 40
6.0
 40
7.0
 40
7.0
 40
7.0
 40
8.0
 40
8.0
 40
8.0
 40
9.0
 40
9.0
 40
9.0
 40
10.0
 40
10.0
 40
10.0
 40
11.0
 40
11.0
 40
11.0
 40
12.0
 40
12.0
 40
12.0
 40
13.0
 40
13.0
 40
13.0
 40
14.0
 40
14.0
 40
14.0
 40
15.0
 40
15.0
 40
15.0
 40
16.0
 40
16.0
 40
16.0
 40
17.0
 40
17.0
 40
17.0
 40
18.0
 40
18.0
 40
18.0
 40
18.0
 10
240.4919527936097
 20
-146.9912000500577
 30
0.0
 10
240.6952134272394
 20
-146.673734501092
 30
0.0
 10
241.0126789762052
 20
-145.9371730863455
 30
0.0
 10
241.0126789762052
 20
-145.1625433664871
 30
0.0
 10
241.0126789762052
 20
-143.7276610968805
 30
0.0
 10
240.0983506344199
 20
-143.2832437792833
 30
0.0
 10
239.4126043780809
 20
-143.2958183778045
 30
0.0
 10
238.2571193523281
 20
-143.3085652310999
 30
0.0
 10
237.7618868763234
 20
-144.3498453415167
 30
0.0
 10
237.7618868763234
 20
-145.4291937570455
 30
0.0
 10
237.7618868763234
 20
-145.4291937570455
 30
0.0
 10
237.7618868763234
 20
-146.0513780016816
 30
0.0
 10
237.7618868763234
 20
-146.0513780016816
 30
0.0
 10
237.7618868763234
 20
-146.0513780016816
 30
0.0
 10
236.9236951447621
 20
-146.0513780016816
 30
0.0
 10
236.9236951447621
 20
-146.0513780016816
 30
0.0
 10
236.9236951447621
 20
-146.0513780016816
 30
0.0
 10
236.9236951447621
 20
-145.4291937570455
 30
0.0
 10
236.9236951447621
 20
-145.4291937570455
 30
0.0
 10
236.9236951447621
 20
-144.616495732075
 30
0.0
 10
236.5047715337558
 20
-143.5879624749537
 30
0.0
 10
235.5268811802676
 20
-143.5879624749537
 30
0.0
 10
234.8666286305195
 20
-143.5879624749537
 30
0.0
 10
234.2825126909954
 20
-144.0070583407343
 30
0.0
 10
234.2825126909954
 20
-145.0355915978557
 30
0.0
 10
234.2825126909954
 20
-145.6958441476038
 30
0.0
 10
234.5744845333703
 20
-146.3307752455353
 30
0.0
 10
234.8285603254075
 20
-146.6863090996131
 30
0.0
 10
234.8285603254075
 20
-146.6863090996131
 30
0.0
 10
234.015862300437
 20
-146.9784531967623
 30
0.0
 10
234.015862300437
 20
-146.9784531967623
 30
0.0
 10
233.6983967514711
 20
-146.5466104776862
 30
0.0
 10
233.3809312025055
 20
-145.7085910008992
 30
0.0
 10
233.3809312025055
 20
-144.8197563657048
 30
0.0
 10
233.3809312025055
 20
-143.1943603157639
 30
0.0
 10
234.3460747026981
 20
-142.4577989010175
 30
0.0
 10
235.3491142532287
 20
-142.4577989010175
 30
0.0
 10
236.1998805833112
 20
-142.4577989010175
 30
0.0
 10
236.9236951447621
 20
-142.9657782303176
 30
0.0
 10
237.2919758521354
 20
-143.9815646341435
 30
0.0
 10
237.2919758521354
 20
-143.9815646341435
 30
0.0
 10
237.3174695587262
 20
-143.9815646341435
 30
0.0
 10
237.3174695587262
 20
-143.9815646341435
 30
0.0
 10
237.5205579375817
 20
-142.9657782303176
 30
0.0
 10
238.2824408041447
 20
-142.1403333520517
 30
0.0
 10
239.4380980846718
 20
-142.1403333520517
 30
0.0
 10
240.7587754389422
 20
-142.1403333520517
 30
0.0
 10
241.9142604646951
 20
-143.168866609173
 30
0.0
 10
241.9142604646951
 20
-145.1497965131917
 30
0.0
 10
241.9142604646951
 20
-146.0768717082724
 30
0.0
 10
241.6221163675459
 20
-146.8895697332429
 30
0.0
 10
241.3554659769876
 20
-147.2959187457281
 30
0.0
 10
241.3554659769876
 20
-147.2959187457281
 30
0.0
 10
240.4919527936097
 20
-146.9912000500577
 30
0.0
 10
240.4919527936097
 20
-146.9912000500577
 30
0.0
  0
HATCH
  5
10A
330
103
100
AcDbEntity
  8
Livello 1
 62
   250
420
  1907995
440
 33554687
100
AcDbHatch
 10
0.0
 20
0.0
 30
0.0
210
0.0
220
0.0
230
1.0
  2
SOLID
 70
     1
 71
     1
 91
        1
 92
        1
 93
        1
 72
     4
 94
        3
 73
     0
 74
     0
 95
       59
 96
       55
 40
0.0
 40
0.0
 40
0.0
 40
0.0
 40
1.0
 40
1.0
 40
1.0
 40
2.0
 40
2.0
 40
2.0
 40
3.0
 40
3.0
 40
3.0
 40
4.0
 40
4.0
 40
4.0
 40
5.0
 40
5.0
 40
5.0
 40
6.0
 40
6.0
 40
6.0
 40
7.0
 40
7.0
 40
7.0
 40
8.0
 40
8.0
 40
8.0
 40
9.0
 40
9.0
 40
9.0
 40
10.0
 40
10.0
 40
10.0
 40
11.0
 40
11.0
 40
11.0
 40
12.0
 40
12.0
 40
12.0
 40
13.0
 40
13.0
 40
13.0
 40
14.0
 40
14.0
 40
14.0
 40
15.0
 40
15.0
 40
15.0
 40
16.0
 40
16.0
 40
16.0
 40
17.0
 40
17.0
 40
17.0
 40
18.0
 40
18.0
 40
18.0
 40
18.0
 10
240.4919527936097
 20
-146.9912000500577
 10
240.6952134272394
 20
-146.673734501092
 10
241.0126789762052
 20
-145.9371730863455
 10
241.0126789762052
 20
-145.1625433664871
 10
241.0126789762052
 20
-143.7276610968805
 10
240.0983506344199
 20
-143.2832437792833
 10
239.4126043780809
 20
-143.2958183778045
 10
238.2571193523281
 20
-143.3085652310999
 10
237.7618868763234
 20
-144.3498453415167
 10
237.7618868763234
 20
-145.4291937570455
 10
237.7618868763234
 20
-145.4291937570455
 10
237.7618868763234
 20
-146.0513780016816
 10
237.7618868763234
 20
-146.0513780016816
 10
237.7618868763234
 20
-146.0513780016816
 10
236.9236951447621
 20
-146.0513780016816
 10
236.9236951447621
 20
-146.0513780016816
 10
236.9236951447621
 20
-146.0513780016816
 10
236.9236951447621
 20
-145.4291937570455
 10
236.9236951447621
 20
-145.4291937570455
 10
236.9236951447621
 20
-144.616495732075
 10
236.5047715337558
 20
-143.5879624749537
 10
235.5268811802676
 20
-143.5879624749537
 10
234.8666286305195
 20
-143.5879624749537
 10
234.2825126909954
 20
-144.0070583407343
 10
234.2825126909954
 20
-145.0355915978557
 10
234.2825126909954
 20
-145.6958441476038
 10
234.5744845333703
 20
-146.3307752455353
 10
234.8285603254075
 20
-146.6863090996131
 10
234.8285603254075
 20
-146.6863090996131
 10
234.015862300437
 20
-146.9784531967623
 10
234.015862300437
 20
-146.9784531967623
 10
233.6983967514711
 20
-146.5466104776862
 10
233.3809312025055
 20
-145.7085910008992
 10
233.3809312025055
 20
-144.8197563657048
 10
233.3809312025055
 20
-143.1943603157639
 10
234.3460747026981
 20
-142.4577989010175
 10
235.3491142532287
 20
-142.4577989010175
 10
236.1998805833112
 20
-142.4577989010175
 10
236.9236951447621
 20
-142.9657782303176
 10
237.2919758521354
 20
-143.9815646341435
 10
237.2919758521354
 20
-143.9815646341435
 10
237.3174695587262
 20
-143.9815646341435
 10
237.3174695587262
 20
-143.9815646341435
 10
237.5205579375817
 20
-142.9657782303176
 10
238.2824408041447
 20
-142.1403333520517
 10
239.4380980846718
 20
-142.1403333520517
 10
240.7587754389422
 20
-142.1403333520517
 10
241.9142604646951
 20
-143.168866609173
 10
241.9142604646951
 20
-145.1497965131917
 10
241.9142604646951
 20
-146.0768717082724
 10
241.6221163675459
 20
-146.8895697332429
 10
241.3554659769876
 20
-147.2959187457281
 10
241.3554659769876
 20
-147.2959187457281
 10
240.4919527936097
 20
-146.9912000500577
 10
240.4919527936097
 20
-146.9912000500577
 97
        0
 97
        1
330
109
 75
     2
 76
     1
 98
        1
 10
0.0
 20
0.0
450
        0
451
        0
460
0.0
461
0.0
452
        0
462
0.0
453
        0
470

  0
ENDBLK
  5
106
330
103
100
AcDbEntity
  8
0
100
AcDbBlockEnd
  0
BLOCK
  5
10D
330
10B
100
AcDbEntity
  8
0
100
AcDbBlockBegin
  2
Block_4
 70
     0
 10
0.0
 20
0.0
 30
0.0
  3
Block_4
  1

  0
INSERT
  5
110
330
10B
100
AcDbEntity
  8
Livello 1
100
AcDbBlockReference
  2
Block_5
 10
0.0
 20
0.0
 30
0.0
  0
ENDBLK
  5
10E
330
10B
100
AcDbEntity
  8
0
100
AcDbBlockEnd
  0
BLOCK
  5
111
330
10F
100
AcDbEntity
  8
0
100
AcDbBlockBegin
  2
Block_5
 70
     0
 10
0.0
 20
0.0
 30
0.0
  3
Block_5
  1

  0
SPLINE
  5
113
330
10F
100
AcDbEntity
  8
Livello 1
100
AcDbSpline
210
0.0
220
0.0
230
1.0
 70
     9
 71
     3
 72
    17
 73
    13
 74
     0
 42
0.000000001
 43
0.0000000001
 40
0.0
 40
0.0
 40
0.0
 40
0.0
 40
1.0
 40
1.0
 40
1.0
 40
2.0
 40
2.0
 40
2.0
 40
3.0
 40
3.0
 40
3.0
 40
4.0
 40
4.0
 40
4.0
 40
4.0
 10
200.7360676581493
 20
-174.6918348087576
 30
0.0
 10
200.7360676581493
 20
-175.5172796870234
 30
0.0
 10
201.3582519027854
 20
-175.9616970046207
 30
0.0
 10
202.3106485496827
 20
-176.215256032335
 30
0.0
 10
203.0218885126126
 20
-175.9740993483676
 30
0.0
 10
203.5679361470247
 20
-175.4662922738417
 30
0.0
 10
203.5679361470247
 20
-174.7169840057999
 30
0.0
 10
203.5679361470247
 20
-174.0565592012775
 30
0.0
 10
203.1741617330606
 20
-173.3709851997128
 30
0.0
 10
202.1709499277559
 20
-173.3709851997128
 30
0.0
 10
201.2440469874494
 20
-173.3709851997128
 30
0.0
 10
200.7360676581493
 20
-173.980767100602
 30
0.0
 10
200.7360676581493
 20
-174.6918348087576
 30
0.0
  0
SPLINE
  5
114
330
10F
100
AcDbEntity
  8
Livello 1
100
AcDbSpline
210
0.0
220
0.0
230
1.0
 70
     9
 71
     3
 72
    17
 73
    13
 74
     0
 42
0.000000001
 43
0.0000000001
 40
0.0
 40
0.0
 40
0.0
 40
0.0
 40
1.0
 40
1.0
 40
1.0
 40
2.0
 40
2.0
 40
2.0
 40
3.0
 40
3.0
 40
3.0
 40
4.0
 40
4.0
 40
4.0
 40
4.0
 10
203.8090928309922
 20
-178.8187146905384
 30
0.0
 10
203.8090928309922
 20
-177.8155028852336
 30
0.0
 10
203.110771976132
 20
-177.3328450077501
 30
0.0
 10
201.993183000717
 20
-177.0152072040101
 30
0.0
 10
201.0282117552985
 20
-177.2949489574124
 30
0.0
 10
200.507485572703
 20
-177.9295355457954
 30
0.0
 10
200.507485572703
 20
-178.7170843737235
 30
0.0
 10
200.469417267591
 20
-179.5549315957362
 30
0.0
 10
201.1043483655225
 20
-180.2914930104826
 30
0.0
 10
202.1583753292347
 20
-180.2914930104826
 30
0.0
 10
203.1614148797652
 20
-180.2914930104826
 30
0.0
 10
203.8090928309922
 20
-179.6693087658466
 30
0.0
 10
203.8090928309922
 20
-178.8187146905384
 30
0.0
  0
SPLINE
  5
115
330
10F
100
AcDbEntity
  8
Livello 1
100
AcDbSpline
210
0.0
220
0.0
230
1.0
 70
     9
 71
     3
 72
    35
 73
    31
 74
     0
 42
0.000000001
 43
0.0000000001
 40
0.0
 40
0.0
 40
0.0
 40
0.0
 40
1.0
 40
1.0
 40
1.0
 40
2.0
 40
2.0
 40
2.0
 40
3.0
 40
3.0
 40
3.0
 40
4.0
 40
4.0
 40
4.0
 40
5.0
 40
5.0
 40
5.0
 40
6.0
 40
6.0
 40
6.0
 40
7.0
 40
7.0
 40
7.0
 40
8.0
 40
8.0
 40
8.0
 40
9.0
 40
9.0
 40
9.0
 40
10.0
 40
10.0
 40
10.0
 40
10.0
 10
199.3647474002456
 20
-178.8693575941715
 30
0.0
 10
199.3647474002456
 20
-177.828249738529
 30
0.0
 10
199.9869316448817
 20
-177.0916883237826
 30
0.0
 10
201.0027180487077
 20
-176.6596733499323
 30
0.0
 10
201.0027180487077
 20
-176.6596733499323
 30
0.0
 10
200.9901434501865
 20
-176.6217772995945
 30
0.0
 10
200.9901434501865
 20
-176.6217772995945
 30
0.0
 10
200.0758151084012
 20
-176.1901068352927
 30
0.0
 10
199.6822129492114
 20
-175.4790391271372
 30
0.0
 10
199.6822129492114
 20
-174.7676269094331
 30
0.0
 10
199.6822129492114
 20
-173.4598686632322
 30
0.0
 10
200.7868828165567
 20
-172.5710340280378
 30
0.0
 10
202.2345119394588
 20
-172.5710340280378
 30
0.0
 10
203.834586537583
 20
-172.5710340280378
 30
0.0
 10
204.634537709258
 20
-173.5742458333425
 30
0.0
 10
204.634537709258
 20
-174.602951345238
 30
0.0
 10
204.634537709258
 20
-175.3009276905497
 30
0.0
 10
204.2915784537014
 20
-176.0505804681401
 30
0.0
 10
203.2757920498755
 20
-176.5328938360751
 30
0.0
 10
203.2757920498755
 20
-176.5328938360751
 30
0.0
 10
203.2757920498755
 20
-176.5707898864128
 30
0.0
 10
203.2757920498755
 20
-176.5707898864128
 30
0.0
 10
204.3043253069968
 20
-176.9773111536723
 30
0.0
 10
204.9392564049284
 20
-177.7011257151233
 30
0.0
 10
204.9392564049284
 20
-178.7043375204281
 30
0.0
 10
204.9392564049284
 20
-180.1392197900346
 30
0.0
 10
203.7074625141773
 20
-181.1045355450016
 30
0.0
 10
202.1328816226439
 20
-181.1045355450016
 30
0.0
 10
200.4060275106624
 20
-181.1045355450016
 30
0.0
 10
199.3647474002456
 20
-180.075830033106
 30
0.0
 10
199.3647474002456
 20
-178.8693575941715
 30
0.0
  0
HATCH
  5
116
330
10F
100
AcDbEntity
  8
Livello 1
 62
   250
420
  1907995
440
 33554687
100
AcDbHatch
 10
0.0
 20
0.0
 30
0.0
210
0.0
220
0.0
230
1.0
  2
SOLID
 70
     1
 71
     1
 91
        3
 92
        1
 93
        1
 72
     4
 94
        3
 73
     0
 74
     0
 95
       17
 96
       13
 40
0.0
 40
0.0
 40
0.0
 40
0.0
 40
1.0
 40
1.0
 40
1.0
 40
2.0
 40
2.0
 40
2.0
 40
3.0
 40
3.0
 40
3.0
 40
4.0
 40
4.0
 40
4.0
 40
4.0
 10
200.7360676581493
 20
-174.6918348087576
 10
200.7360676581493
 20
-175.5172796870234
 10
201.3582519027854
 20
-175.9616970046207
 10
202.3106485496827
 20
-176.215256032335
 10
203.0218885126126
 20
-175.9740993483676
 10
203.5679361470247
 20
-175.4662922738417
 10
203.5679361470247
 20
-174.7169840057999
 10
203.5679361470247
 20
-174.0565592012775
 10
203.1741617330606
 20
-173.3709851997128
 10
202.1709499277559
 20
-173.3709851997128
 10
201.2440469874494
 20
-173.3709851997128
 10
200.7360676581493
 20
-173.980767100602
 10
200.7360676581493
 20
-174.6918348087576
 97
        0
 97
        1
330
113
 92
        1
 93
        1
 72
     4
 94
        3
 73
     0
 74
     0
 95
       17
 96
       13
 40
0.0
 40
0.0
 40
0.0
 40
0.0
 40
1.0
 40
1.0
 40
1.0
 40
2.0
 40
2.0
 40
2.0
 40
3.0
 40
3.0
 40
3.0
 40
4.0
 40
4.0
 40
4.0
 40
4.0
 10
203.8090928309922
 20
-178.8187146905384
 10
203.8090928309922
 20
-177.8155028852336
 10
203.110771976132
 20
-177.3328450077501
 10
201.993183000717
 20
-177.0152072040101
 10
201.0282117552985
 20
-177.2949489574124
 10
200.507485572703
 20
-177.9295355457954
 10
200.507485572703
 20
-178.7170843737235
 10
200.469417267591
 20
-179.5549315957362
 10
201.1043483655225
 20
-180.2914930104826
 10
202.1583753292347
 20
-180.2914930104826
 10
203.1614148797652
 20
-180.2914930104826
 10
203.8090928309922
 20
-179.6693087658466
 10
203.8090928309922
 20
-178.8187146905384
 97
        0
 97
        1
330
114
 92
        1
 93
        1
 72
     4
 94
        3
 73
     0
 74
     0
 95
       35
 96
       31
 40
0.0
 40
0.0
 40
0.0
 40
0.0
 40
1.0
 40
1.0
 40
1.0
 40
2.0
 40
2.0
 40
2.0
 40
3.0
 40
3.0
 40
3.0
 40
4.0
 40
4.0
 40
4.0
 40
5.0
 40
5.0
 40
5.0
 40
6.0
 40
6.0
 40
6.0
 40
7.0
 40
7.0
 40
7.0
 40
8.0
 40
8.0
 40
8.0
 40
9.0
 40
9.0
 40
9.0
 40
10.0
 40
10.0
 40
10.0
 40
10.0
 10
199.3647474002456
 20
-178.8693575941715
 10
199.3647474002456
 20
-177.828249738529
 10
199.9869316448817
 20
-177.0916883237826
 10
201.0027180487077
 20
-176.6596733499323
 10
201.0027180487077
 20
-176.6596733499323
 10
200.9901434501865
 20
-176.6217772995945
 10
200.9901434501865
 20
-176.6217772995945
 10
200.0758151084012
 20
-176.1901068352927
 10
199.6822129492114
 20
-175.4790391271372
 10
199.6822129492114
 20
-174.7676269094331
 10
199.6822129492114
 20
-173.4598686632322
 10
200.7868828165567
 20
-172.5710340280378
 10
202.2345119394588
 20
-172.5710340280378
 10
203.834586537583
 20
-172.5710340280378
 10
204.634537709258
 20
-173.5742458333425
 10
204.634537709258
 20
-174.602951345238
 10
204.634537709258
 20
-175.3009276905497
 10
204.2915784537014
 20
-176.0505804681401
 10
203.2757920498755
 20
-176.5328938360751
 10
203.2757920498755
 20
-176.5328938360751
 10
203.2757920498755
 20
-176.5707898864128
 10
203.2757920498755
 20
-176.5707898864128
 10
204.3043253069968
 20
-176.9773111536723
 10
204.9392564049284
 20
-177.7011257151233
 10
204.9392564049284
 20
-178.7043375204281
 10
204.9392564049284
 20
-180.1392197900346
 10
203.7074625141773
 20
-181.1045355450016
 10
202.1328816226439
 20
-181.1045355450016
 10
200.4060275106624
 20
-181.1045355450016
 10
199.3647474002456
 20
-180.075830033106
 10
199.3647474002456
 20
-178.8693575941715
 97
        0
 97
        1
330
115
 75
     2
 76
     1
 98
        1
 10
0.0
 20
0.0
450
        0
451
        0
460
0.0
461
0.0
452
        0
462
0.0
453
        0
470

  0
SPLINE
  5
117
330
10F
100
AcDbEntity
  8
Livello 1
100
AcDbSpline
210
0.0
220
0.0
230
1.0
 70
     9
 71
     3
 72
    17
 73
    13
 74
     0
 42
0.000000001
 43
0.0000000001
 40
0.0
 40
0.0
 40
0.0
 40
0.0
 40
1.0
 40
1.0
 40
1.0
 40
2.0
 40
2.0
 40
2.0
 40
3.0
 40
3.0
 40
3.0
 40
4.0
 40
4.0
 40
4.0
 40
4.0
 10
205.612944827069
 20
-182.5266709613128
 30
0.0
 10
205.8921698161485
 20
-181.7773626932709
 30
0.0
 10
206.2351290717051
 20
-180.4186170338884
 30
0.0
 10
206.374827693632
 20
-179.4915418388077
 30
0.0
 10
206.374827693632
 20
-179.4915418388077
 30
0.0
 10
207.6191961829042
 20
-179.3647623249505
 30
0.0
 10
207.6191961829042
 20
-179.3647623249505
 30
0.0
 10
207.3272243405293
 20
-180.4441107404792
 30
0.0
 10
206.7684298528218
 20
-181.8534993034949
 30
0.0
 10
206.412895998744
 20
-182.4501898415402
 30
0.0
 10
206.412895998744
 20
-182.4501898415402
 30
0.0
 10
205.612944827069
 20
-182.5266709613128
 30
0.0
 10
205.612944827069
 20
-182.5266709613128
 30
0.0
  0
HATCH
  5
118
330
10F
100
AcDbEntity
  8
Livello 1
 62
   250
420
  1907995
440
 33554687
100
AcDbHatch
 10
0.0
 20
0.0
 30
0.0
210
0.0
220
0.0
230
1.0
  2
SOLID
 70
     1
 71
     1
 91
        1
 92
        1
 93
        1
 72
     4
 94
        3
 73
     0
 74
     0
 95
       17
 96
       13
 40
0.0
 40
0.0
 40
0.0
 40
0.0
 40
1.0
 40
1.0
 40
1.0
 40
2.0
 40
2.0
 40
2.0
 40
3.0
 40
3.0
 40
3.0
 40
4.0
 40
4.0
 40
4.0
 40
4.0
 10
205.612944827069
 20
-182.5266709613128
 10
205.8921698161485
 20
-181.7773626932709
 10
206.2351290717051
 20
-180.4186170338884
 10
206.374827693632
 20
-179.4915418388077
 10
206.374827693632
 20
-179.4915418388077
 10
207.6191961829042
 20
-179.3647623249505
 10
207.6191961829042
 20
-179.3647623249505
 10
207.3272243405293
 20
-180.4441107404792
 10
206.7684298528218
 20
-181.8534993034949
 10
206.412895998744
 20
-182.4501898415402
 10
206.412895998744
 20
-182.4501898415402
 10
205.612944827069
 20
-182.5266709613128
 10
205.612944827069
 20
-182.5266709613128
 97
        0
 97
        1
330
117
 75
     2
 76
     1
 98
        1
 10
0.0
 20
0.0
450
        0
451
        0
460
0.0
461
0.0
452
        0
462
0.0
453
        0
470

  0
SPLINE
  5
119
330
10F
100
AcDbEntity
  8
Livello 1
100
AcDbSpline
210
0.0
220
0.0
230
1.0
 70
    11
 71
     3
 72
    50
 73
    46
 74
     0
 42
0.000000001
 43
0.0000000001
 40
0.0
 40
0.0
 40
0.0
 40
0.0
 40
1.0
 40
1.0
 40
1.0
 40
2.0
 40
2.0
 40
2.0
 40
3.0
 40
3.0
 40
3.0
 40
4.0
 40
4.0
 40
4.0
 40
5.0
 40
5.0
 40
5.0
 40
6.0
 40
6.0
 40
6.0
 40
7.0
 40
7.0
 40
7.0
 40
8.0
 40
8.0
 40
8.0
 40
9.0
 40
9.0
 40
9.0
 40
10.0
 40
10.0
 40
10.0
 40
11.0
 40
11.0
 40
11.0
 40
12.0
 40
12.0
 40
12.0
 40
13.0
 40
13.0
 40
13.0
 40
14.0
 40
14.0
 40
14.0
 40
15.0
 40
15.0
 40
15.0
 40
15.0
 10
213.5368366979179
 20
-173.6503824435665
 30
0.0
 10
213.5368366979179
 20
-173.6503824435665
 30
0.0
 10
210.387674914851
 20
-173.6503824435665
 30
0.0
 10
210.387674914851
 20
-173.6503824435665
 30
0.0
 10
210.387674914851
 20
-173.6503824435665
 30
0.0
 10
210.0702093658852
 20
-175.7708387147378
 30
0.0
 10
210.0702093658852
 20
-175.7708387147378
 30
0.0
 10
210.2607231462195
 20
-175.7456895176955
 30
0.0
 10
210.4384900732584
 20
-175.7201958111046
 30
0.0
 10
210.7432087689288
 20
-175.7201958111046
 30
0.0
 10
211.3781398668603
 20
-175.7201958111046
 30
0.0
 10
212.0130709647919
 20
-175.8597221782573
 30
0.0
 10
212.521050294092
 20
-176.1646131287019
 30
0.0
 10
213.1685559905447
 20
-176.5328938360751
 30
0.0
 10
213.7020290264356
 20
-177.2439615442307
 30
0.0
 10
213.7020290264356
 20
-178.2850693998732
 30
0.0
 10
213.7020290264356
 20
-179.8980631060671
 30
0.0
 10
212.4194199772771
 20
-181.1045355450016
 30
0.0
 10
210.6290038535928
 20
-181.1045355450016
 30
0.0
 10
209.7274223651029
 20
-181.1045355450016
 30
0.0
 10
208.9653672437656
 20
-180.8502874981902
 30
0.0
 10
208.5717650845758
 20
-180.5963839609273
 30
0.0
 10
208.5717650845758
 20
-180.5963839609273
 30
0.0
 10
208.8511623284296
 20
-179.7457898856191
 30
0.0
 10
208.8511623284296
 20
-179.7457898856191
 30
0.0
 10
209.1939493292119
 20
-179.9487060097003
 30
0.0
 10
209.8669487322555
 20
-180.2026095469632
 30
0.0
 10
210.6162570002974
 20
-180.2026095469632
 30
0.0
 10
211.6702839640095
 20
-180.2026095469632
 30
0.0
 10
212.5718654524994
 20
-179.5170355453985
 30
0.0
 10
212.5718654524994
 20
-178.4125379328274
 30
0.0
 10
212.5591185992039
 20
-177.3455918610455
 30
0.0
 10
211.8480508910484
 20
-176.5838812492568
 30
0.0
 10
210.1971611345167
 20
-176.5838812492568
 30
0.0
 10
209.7274223651029
 20
-176.5838812492568
 30
0.0
 10
209.3591416577297
 20
-176.63452415289
 30
0.0
 10
209.054250707285
 20
-176.6727647127761
 30
0.0
 10
209.054250707285
 20
-176.6727647127761
 30
0.0
 10
209.587723743176
 20
-172.7109049047389
 30
0.0
 10
209.587723743176
 20
-172.7109049047389
 30
0.0
 10
209.587723743176
 20
-172.7109049047389
 30
0.0
 10
213.5368366979179
 20
-172.7109049047389
 30
0.0
 10
213.5368366979179
 20
-172.7109049047389
 30
0.0
 10
213.5368366979179
 20
-172.7109049047389
 30
0.0
 10
213.5368366979179
 20
-173.6503824435665
 30
0.0
 10
213.5368366979179
 20
-173.6503824435665
 30
0.0
  0
HATCH
  5
11A
330
10F
100
AcDbEntity
  8
Livello 1
 62
   250
420
  1907995
440
 33554687
100
AcDbHatch
 10
0.0
 20
0.0
 30
0.0
210
0.0
220
0.0
230
1.0
  2
SOLID
 70
     1
 71
     1
 91
        1
 92
        1
 93
        1
 72
     4
 94
        3
 73
     0
 74
     0
 95
       50
 96
       46
 40
0.0
 40
0.0
 40
0.0
 40
0.0
 40
1.0
 40
1.0
 40
1.0
 40
2.0
 40
2.0
 40
2.0
 40
3.0
 40
3.0
 40
3.0
 40
4.0
 40
4.0
 40
4.0
 40
5.0
 40
5.0
 40
5.0
 40
6.0
 40
6.0
 40
6.0
 40
7.0
 40
7.0
 40
7.0
 40
8.0
 40
8.0
 40
8.0
 40
9.0
 40
9.0
 40
9.0
 40
10.0
 40
10.0
 40
10.0
 40
11.0
 40
11.0
 40
11.0
 40
12.0
 40
12.0
 40
12.0
 40
13.0
 40
13.0
 40
13.0
 40
14.0
 40
14.0
 40
14.0
 40
15.0
 40
15.0
 40
15.0
 40
15.0
 10
213.5368366979179
 20
-173.6503824435665
 10
213.5368366979179
 20
-173.6503824435665
 10
210.387674914851
 20
-173.6503824435665
 10
210.387674914851
 20
-173.6503824435665
 10
210.387674914851
 20
-173.6503824435665
 10
210.0702093658852
 20
-175.7708387147378
 10
210.0702093658852
 20
-175.7708387147378
 10
210.2607231462195
 20
-175.7456895176955
 10
210.4384900732584
 20
-175.7201958111046
 10
210.7432087689288
 20
-175.7201958111046
 10
211.3781398668603
 20
-175.7201958111046
 10
212.0130709647919
 20
-175.8597221782573
 10
212.521050294092
 20
-176.1646131287019
 10
213.1685559905447
 20
-176.5328938360751
 10
213.7020290264356
 20
-177.2439615442307
 10
213.7020290264356
 20
-178.2850693998732
 10
213.7020290264356
 20
-179.8980631060671
 10
212.4194199772771
 20
-181.1045355450016
 10
210.6290038535928
 20
-181.1045355450016
 10
209.7274223651029
 20
-181.1045355450016
 10
208.9653672437656
 20
-180.8502874981902
 10
208.5717650845758
 20
-180.5963839609273
 10
208.5717650845758
 20
-180.5963839609273
 10
208.8511623284296
 20
-179.7457898856191
 10
208.8511623284296
 20
-179.7457898856191
 10
209.1939493292119
 20
-179.9487060097003
 10
209.8669487322555
 20
-180.2026095469632
 10
210.6162570002974
 20
-180.2026095469632
 10
211.6702839640095
 20
-180.2026095469632
 10
212.5718654524994
 20
-179.5170355453985
 10
212.5718654524994
 20
-178.4125379328274
 10
212.5591185992039
 20
-177.3455918610455
 10
211.8480508910484
 20
-176.5838812492568
 10
210.1971611345167
 20
-176.5838812492568
 10
209.7274223651029
 20
-176.5838812492568
 10
209.3591416577297
 20
-176.63452415289
 10
209.054250707285
 20
-176.6727647127761
 10
209.054250707285
 20
-176.6727647127761
 10
209.587723743176
 20
-172.7109049047389
 10
209.587723743176
 20
-172.7109049047389
 10
209.587723743176
 20
-172.7109049047389
 10
213.5368366979179
 20
-172.7109049047389
 10
213.5368366979179
 20
-172.7109049047389
 10
213.5368366979179
 20
-172.7109049047389
 10
213.5368366979179
 20
-173.6503824435665
 10
213.5368366979179
 20
-173.6503824435665
 97
        0
 97
        1
330
119
 75
     2
 76
     1
 98
        1
 10
0.0
 20
0.0
450
        0
451
        0
460
0.0
461
0.0
452
        0
462
0.0
453
        0
470

  0
ENDBLK
  5
112
330
10F
100
AcDbEntity
  8
0
100
AcDbBlockEnd
  0
BLOCK
  5
120
330
11E
100
AcDbEntity
  8
0
100
AcDbBlockBegin
  2
Block_6
 70
     0
 10
0.0
 20
0.0
 30
0.0
  3
Block_6
  1

  0
INSERT
  5
123
330
11E
100
AcDbEntity
  8
Livello 1
100
AcDbBlockReference
  2
Block_7
 10
0.0
 20
0.0
 30
0.0
  0
ENDBLK
  5
121
330
11E
100
AcDbEntity
  8
0
100
AcDbBlockEnd
  0
BLOCK
  5
124
330
122
100
AcDbEntity
  8
0
100
AcDbBlockBegin
  2
Block_7
 70
     0
 10
0.0
 20
0.0
 30
0.0
  3
Block_7
  1

  0
SPLINE
  5
126
330
122
100
AcDbEntity
  8
Livello 1
100
AcDbSpline
210
0.0
220
0.0
230
1.0
 70
     9
 71
     3
 72
    59
 73
    55
 74
     0
 42
0.000000001
 43
0.0000000001
 40
0.0
 40
0.0
 40
0.0
 40
0.0
 40
1.0
 40
1.0
 40
1.0
 40
2.0
 40
2.0
 40
2.0
 40
3.0
 40
3.0
 40
3.0
 40
4.0
 40
4.0
 40
4.0
 40
5.0
 40
5.0
 40
5.0
 40
6.0
 40
6.0
 40
6.0
 40
7.0
 40
7.0
 40
7.0
 40
8.0
 40
8.0
 40
8.0
 40
9.0
 40
9.0
 40
9.0
 40
10.0
 40
10.0
 40
10.0
 40
11.0
 40
11.0
 40
11.0
 40
12.0
 40
12.0
 40
12.0
 40
13.0
 40
13.0
 40
13.0
 40
14.0
 40
14.0
 40
14.0
 40
15.0
 40
15.0
 40
15.0
 40
16.0
 40
16.0
 40
16.0
 40
17.0
 40
17.0
 40
17.0
 40
18.0
 40
18.0
 40
18.0
 40
18.0
 10
387.2345892044067
 20
-182.5125460698232
 30
0.0
 10
387.5518824985982
 20
-182.7158067034529
 30
0.0
 10
388.2884439133446
 20
-183.0330999976445
 30
0.0
 10
389.0632458879773
 20
-183.0330999976445
 30
0.0
 10
390.4981281575838
 20
-183.0330999976445
 30
0.0
 10
390.942545475181
 20
-182.1187716558592
 30
0.0
 10
390.9297986218856
 20
-181.4331976542945
 30
0.0
 10
390.9170517685902
 20
-180.2777126285416
 30
0.0
 10
389.8759439129477
 20
-179.7823078977627
 30
0.0
 10
388.7965954974189
 20
-179.7823078977627
 30
0.0
 10
388.7965954974189
 20
-179.7823078977627
 30
0.0
 10
388.1744112527828
 20
-179.7823078977627
 30
0.0
 10
388.1744112527828
 20
-179.7823078977627
 30
0.0
 10
388.1744112527828
 20
-179.7823078977627
 30
0.0
 10
388.1744112527828
 20
-178.9441161662014
 30
0.0
 10
388.1744112527828
 20
-178.9441161662014
 30
0.0
 10
388.1744112527828
 20
-178.9441161662014
 30
0.0
 10
388.7965954974189
 20
-178.9441161662014
 30
0.0
 10
388.7965954974189
 20
-178.9441161662014
 30
0.0
 10
389.6092935223894
 20
-178.9441161662014
 30
0.0
 10
390.6376545247364
 20
-178.5251925551951
 30
0.0
 10
390.6376545247364
 20
-177.5474744564812
 30
0.0
 10
390.6376545247364
 20
-176.8870496519588
 30
0.0
 10
390.2187309137301
 20
-176.3031059672089
 30
0.0
 10
389.1900254018345
 20
-176.3031059672089
 30
0.0
 10
388.5299451068607
 20
-176.3031059672089
 30
0.0
 10
387.895014008929
 20
-176.5949055548096
 30
0.0
 10
387.5394801548513
 20
-176.849153601621
 30
0.0
 10
387.5394801548513
 20
-176.849153601621
 30
0.0
 10
387.247336057702
 20
-176.0364555766505
 30
0.0
 10
387.247336057702
 20
-176.0364555766505
 30
0.0
 10
387.6790065220039
 20
-175.7188177729105
 30
0.0
 10
388.5171982535652
 20
-175.401524478719
 30
0.0
 10
389.4060328887596
 20
-175.401524478719
 30
0.0
 10
391.0314289387005
 20
-175.401524478719
 30
0.0
 10
391.7679903534469
 20
-176.3664957241375
 30
0.0
 10
391.7679903534469
 20
-177.3697075294423
 30
0.0
 10
391.7679903534469
 20
-178.2203016047505
 30
0.0
 10
391.2598387693726
 20
-178.9441161662014
 30
0.0
 10
390.2442246203209
 20
-179.3123968735747
 30
0.0
 10
390.2442246203209
 20
-179.3123968735747
 30
0.0
 10
390.2442246203209
 20
-179.3378905801655
 30
0.0
 10
390.2442246203209
 20
-179.3378905801655
 30
0.0
 10
391.2598387693726
 20
-179.5411512137953
 30
0.0
 10
392.0852836476384
 20
-180.302861825584
 30
0.0
 10
392.0852836476384
 20
-181.4586913608853
 30
0.0
 10
392.0852836476384
 20
-182.7791964603815
 30
0.0
 10
391.0569226452914
 20
-183.9346814861344
 30
0.0
 10
389.0759927412727
 20
-183.9346814861344
 30
0.0
 10
388.148917546192
 20
-183.9346814861344
 30
0.0
 10
387.3362195212215
 20
-183.6425373889851
 30
0.0
 10
386.9296982539621
 20
-183.3758869984268
 30
0.0
 10
386.9296982539621
 20
-183.3758869984268
 30
0.0
 10
387.2345892044067
 20
-182.5125460698232
 30
0.0
 10
387.2345892044067
 20
-182.5125460698232
 30
0.0
  0
HATCH
  5
127
330
122
100
AcDbEntity
  8
Livello 1
 62
   250
420
  1907995
440
 33554687
100
AcDbHatch
 10
0.0
 20
0.0
 30
0.0
210
0.0
220
0.0
230
1.0
  2
SOLID
 70
     1
 71
     1
 91
        1
 92
        1
 93
        1
 72
     4
 94
        3
 73
     0
 74
     0
 95
       59
 96
       55
 40
0.0
 40
0.0
 40
0.0
 40
0.0
 40
1.0
 40
1.0
 40
1.0
 40
2.0
 40
2.0
 40
2.0
 40
3.0
 40
3.0
 40
3.0
 40
4.0
 40
4.0
 40
4.0
 40
5.0
 40
5.0
 40
5.0
 40
6.0
 40
6.0
 40
6.0
 40
7.0
 40
7.0
 40
7.0
 40
8.0
 40
8.0
 40
8.0
 40
9.0
 40
9.0
 40
9.0
 40
10.0
 40
10.0
 40
10.0
 40
11.0
 40
11.0
 40
11.0
 40
12.0
 40
12.0
 40
12.0
 40
13.0
 40
13.0
 40
13.0
 40
14.0
 40
14.0
 40
14.0
 40
15.0
 40
15.0
 40
15.0
 40
16.0
 40
16.0
 40
16.0
 40
17.0
 40
17.0
 40
17.0
 40
18.0
 40
18.0
 40
18.0
 40
18.0
 10
387.2345892044067
 20
-182.5125460698232
 10
387.5518824985982
 20
-182.7158067034529
 10
388.2884439133446
 20
-183.0330999976445
 10
389.0632458879773
 20
-183.0330999976445
 10
390.4981281575838
 20
-183.0330999976445
 10
390.942545475181
 20
-182.1187716558592
 10
390.9297986218856
 20
-181.4331976542945
 10
390.9170517685902
 20
-180.2777126285416
 10
389.8759439129477
 20
-179.7823078977627
 10
388.7965954974189
 20
-179.7823078977627
 10
388.7965954974189
 20
-179.7823078977627
 10
388.1744112527828
 20
-179.7823078977627
 10
388.1744112527828
 20
-179.7823078977627
 10
388.1744112527828
 20
-179.7823078977627
 10
388.1744112527828
 20
-178.9441161662014
 10
388.1744112527828
 20
-178.9441161662014
 10
388.1744112527828
 20
-178.9441161662014
 10
388.7965954974189
 20
-178.9441161662014
 10
388.7965954974189
 20
-178.9441161662014
 10
389.6092935223894
 20
-178.9441161662014
 10
390.6376545247364
 20
-178.5251925551951
 10
390.6376545247364
 20
-177.5474744564812
 10
390.6376545247364
 20
-176.8870496519588
 10
390.2187309137301
 20
-176.3031059672089
 10
389.1900254018345
 20
-176.3031059672089
 10
388.5299451068607
 20
-176.3031059672089
 10
387.895014008929
 20
-176.5949055548096
 10
387.5394801548513
 20
-176.849153601621
 10
387.5394801548513
 20
-176.849153601621
 10
387.247336057702
 20
-176.0364555766505
 10
387.247336057702
 20
-176.0364555766505
 10
387.6790065220039
 20
-175.7188177729105
 10
388.5171982535652
 20
-175.401524478719
 10
389.4060328887596
 20
-175.401524478719
 10
391.0314289387005
 20
-175.401524478719
 10
391.7679903534469
 20
-176.3664957241375
 10
391.7679903534469
 20
-177.3697075294423
 10
391.7679903534469
 20
-178.2203016047505
 10
391.2598387693726
 20
-178.9441161662014
 10
390.2442246203209
 20
-179.3123968735747
 10
390.2442246203209
 20
-179.3123968735747
 10
390.2442246203209
 20
-179.3378905801655
 10
390.2442246203209
 20
-179.3378905801655
 10
391.2598387693726
 20
-179.5411512137953
 10
392.0852836476384
 20
-180.302861825584
 10
392.0852836476384
 20
-181.4586913608853
 10
392.0852836476384
 20
-182.7791964603815
 10
391.0569226452914
 20
-183.9346814861344
 10
389.0759927412727
 20
-183.9346814861344
 10
388.148917546192
 20
-183.9346814861344
 10
387.3362195212215
 20
-183.6425373889851
 10
386.9296982539621
 20
-183.3758869984268
 10
386.9296982539621
 20
-183.3758869984268
 10
387.2345892044067
 20
-182.5125460698232
 10
387.2345892044067
 20
-182.5125460698232
 97
        0
 97
        1
330
126
 75
     2
 76
     1
 98
        1
 10
0.0
 20
0.0
450
        0
451
        0
460
0.0
461
0.0
452
        0
462
0.0
453
        0
470

  0
SPLINE
  5
128
330
122
100
AcDbEntity
  8
Livello 1
100
AcDbSpline
210
0.0
220
0.0
230
1.0
 70
     9
 71
     3
 72
    17
 73
    13
 74
     0
 42
0.000000001
 43
0.0000000001
 40
0.0
 40
0.0
 40
0.0
 40
0.0
 40
1.0
 40
1.0
 40
1.0
 40
2.0
 40
2.0
 40
2.0
 40
3.0
 40
3.0
 40
3.0
 40
4.0
 40
4.0
 40
4.0
 40
4.0
 10
394.4858261817605
 20
-179.7061712875387
 30
0.0
 10
394.4858261817605
 20
-181.8521212653008
 30
0.0
 10
395.1462509862829
 20
-183.0713405575306
 30
0.0
 10
396.1622096448831
 20
-183.0713405575306
 30
0.0
 10
397.3049478173405
 20
-183.0713405575306
 30
0.0
 10
397.8509954517526
 20
-181.738088604739
 30
0.0
 10
397.8509954517526
 20
-179.6300346773147
 30
0.0
 10
397.8509954517526
 20
-177.5981173601143
 30
0.0
 10
397.3304415239312
 20
-176.2648654073226
 30
0.0
 10
396.1749564981785
 20
-176.2648654073226
 30
0.0
 10
395.1968938899162
 20
-176.2648654073226
 30
0.0
 10
394.4858261817605
 20
-177.4585909929617
 30
0.0
 10
394.4858261817605
 20
-179.7061712875387
 30
0.0
  0
SPLINE
  5
129
330
122
100
AcDbEntity
  8
Livello 1
100
AcDbSpline
210
0.0
220
0.0
230
1.0
 70
     9
 71
     3
 72
    17
 73
    13
 74
     0
 42
0.000000001
 43
0.0000000001
 40
0.0
 40
0.0
 40
0.0
 40
0.0
 40
1.0
 40
1.0
 40
1.0
 40
2.0
 40
2.0
 40
2.0
 40
3.0
 40
3.0
 40
3.0
 40
4.0
 40
4.0
 40
4.0
 40
4.0
 10
398.9685844271676
 20
-179.579047264133
 30
0.0
 10
398.9685844271676
 20
-182.3854220464175
 30
0.0
 10
397.9271320619766
 20
-183.9346814861344
 30
0.0
 10
396.098475378406
 20
-183.9346814861344
 30
0.0
 10
394.4858261817605
 20
-183.9346814861344
 30
0.0
 10
393.3937309129364
 20
-182.4236626063038
 30
0.0
 10
393.3685817158941
 20
-179.6934244342433
 30
0.0
 10
393.3685817158941
 20
-176.925290211845
 30
0.0
 10
394.5619627919845
 20
-175.401524478719
 30
0.0
 10
396.2383462551071
 20
-175.401524478719
 30
0.0
 10
397.9781194751583
 20
-175.401524478719
 30
0.0
 10
398.9685844271676
 20
-176.9507839184359
 30
0.0
 10
398.9685844271676
 20
-179.579047264133
 30
0.0
  0
HATCH
  5
12A
330
122
100
AcDbEntity
  8
Livello 1
 62
   250
420
  1907995
440
 33554687
100
AcDbHatch
 10
0.0
 20
0.0
 30
0.0
210
0.0
220
0.0
230
1.0
  2
SOLID
 70
     1
 71
     1
 91
        2
 92
        1
 93
        1
 72
     4
 94
        3
 73
     0
 74
     0
 95
       17
 96
       13
 40
0.0
 40
0.0
 40
0.0
 40
0.0
 40
1.0
 40
1.0
 40
1.0
 40
2.0
 40
2.0
 40
2.0
 40
3.0
 40
3.0
 40
3.0
 40
4.0
 40
4.0
 40
4.0
 40
4.0
 10
394.4858261817605
 20
-179.7061712875387
 10
394.4858261817605
 20
-181.8521212653008
 10
395.1462509862829
 20
-183.0713405575306
 10
396.1622096448831
 20
-183.0713405575306
 10
397.3049478173405
 20
-183.0713405575306
 10
397.8509954517526
 20
-181.738088604739
 10
397.8509954517526
 20
-179.6300346773147
 10
397.8509954517526
 20
-177.5981173601143
 10
397.3304415239312
 20
-176.2648654073226
 10
396.1749564981785
 20
-176.2648654073226
 10
395.1968938899162
 20
-176.2648654073226
 10
394.4858261817605
 20
-177.4585909929617
 10
394.4858261817605
 20
-179.7061712875387
 97
        0
 97
        1
330
128
 92
        1
 93
        1
 72
     4
 94
        3
 73
     0
 74
     0
 95
       17
 96
       13
 40
0.0
 40
0.0
 40
0.0
 40
0.0
 40
1.0
 40
1.0
 40
1.0
 40
2.0
 40
2.0
 40
2.0
 40
3.0
 40
3.0
 40
3.0
 40
4.0
 40
4.0
 40
4.0
 40
4.0
 10
398.9685844271676
 20
-179.579047264133
 10
398.9685844271676
 20
-182.3854220464175
 10
397.9271320619766
 20
-183.9346814861344
 10
396.098475378406
 20
-183.9346814861344
 10
394.4858261817605
 20
-183.9346814861344
 10
393.3937309129364
 20
-182.4236626063038
 10
393.3685817158941
 20
-179.6934244342433
 10
393.3685817158941
 20
-176.925290211845
 10
394.5619627919845
 20
-175.401524478719
 10
396.2383462551071
 20
-175.401524478719
 10
397.9781194751583
 20
-175.401524478719
 10
398.9685844271676
 20
-176.9507839184359
 10
398.9685844271676
 20
-179.579047264133
 97
        0
 97
        1
330
129
 75
     2
 76
     1
 98
        1
 10
0.0
 20
0.0
450
        0
451
        0
460
0.0
461
0.0
452
        0
462
0.0
453
        0
470

  0
ENDBLK
  5
125
330
122
100
AcDbEntity
  8
0
100
AcDbBlockEnd
  0
BLOCK
  5
12D
330
12B
100
AcDbEntity
  8
0
100
AcDbBlockBegin
  2
Block_8
 70
     0
 10
0.0
 20
0.0
 30
0.0
  3
Block_8
  1

  0
INSERT
  5
130
330
12B
100
AcDbEntity
  8
Livello 1
100
AcDbBlockReference
  2
Block_9
 10
0.0
 20
0.0
 30
0.0
  0
ENDBLK
  5
12E
330
12B
100
AcDbEntity
  8
0
100
AcDbBlockEnd
  0
BLOCK
  5
131
330
12F
100
AcDbEntity
  8
0
100
AcDbBlockBegin
  2
Block_9
 70
     0
 10
0.0
 20
0.0
 30
0.0
  3
Block_9
  1

  0
SPLINE
  5
133
330
12F
100
AcDbEntity
  8
Livello 1
100
AcDbSpline
210
0.0
220
0.0
230
1.0
 70
    11
 71
     3
 72
    29
 73
    25
 74
     0
 42
0.000000001
 43
0.0000000001
 40
0.0
 40
0.0
 40
0.0
 40
0.0
 40
1.0
 40
1.0
 40
1.0
 40
2.0
 40
2.0
 40
2.0
 40
3.0
 40
3.0
 40
3.0
 40
4.0
 40
4.0
 40
4.0
 40
5.0
 40
5.0
 40
5.0
 40
6.0
 40
6.0
 40
6.0
 40
7.0
 40
7.0
 40
7.0
 40
8.0
 40
8.0
 40
8.0
 40
8.0
 10
477.035826161123
 20
-154.1776692322889
 30
0.0
 10
477.035826161123
 20
-154.1776692322889
 30
0.0
 10
477.035826161123
 20
-154.2031629388798
 30
0.0
 10
477.035826161123
 20
-154.2031629388798
 30
0.0
 10
477.035826161123
 20
-154.2031629388798
 30
0.0
 10
477.8106281357556
 20
-155.6380452084863
 30
0.0
 10
477.8106281357556
 20
-155.6380452084863
 30
0.0
 10
477.8106281357556
 20
-155.6380452084863
 30
0.0
 10
476.9596895508988
 20
-155.8540526954115
 30
0.0
 10
476.9596895508988
 20
-155.8540526954115
 30
0.0
 10
476.9596895508988
 20
-155.8540526954115
 30
0.0
 10
475.9947183054803
 20
-154.0508897184317
 30
0.0
 10
475.9947183054803
 20
-154.0508897184317
 30
0.0
 10
475.9947183054803
 20
-154.0508897184317
 30
0.0
 10
475.9947183054803
 20
-153.0983208167601
 30
0.0
 10
475.9947183054803
 20
-153.0983208167601
 30
0.0
 10
475.9947183054803
 20
-153.0983208167601
 30
0.0
 10
484.2484780690419
 20
-153.0983208167601
 30
0.0
 10
484.2484780690419
 20
-153.0983208167601
 30
0.0
 10
484.2484780690419
 20
-153.0983208167601
 30
0.0
 10
484.2484780690419
 20
-154.1776692322889
 30
0.0
 10
484.2484780690419
 20
-154.1776692322889
 30
0.0
 10
484.2484780690419
 20
-154.1776692322889
 30
0.0
 10
477.035826161123
 20
-154.1776692322889
 30
0.0
 10
477.035826161123
 20
-154.1776692322889
 30
0.0
  0
HATCH
  5
134
330
12F
100
AcDbEntity
  8
Livello 1
 62
   250
420
  1907995
440
 33554687
100
AcDbHatch
 10
0.0
 20
0.0
 30
0.0
210
0.0
220
0.0
230
1.0
  2
SOLID
 70
     1
 71
     1
 91
        1
 92
        1
 93
        1
 72
     4
 94
        3
 73
     0
 74
     0
 95
       29
 96
       25
 40
0.0
 40
0.0
 40
0.0
 40
0.0
 40
1.0
 40
1.0
 40
1.0
 40
2.0
 40
2.0
 40
2.0
 40
3.0
 40
3.0
 40
3.0
 40
4.0
 40
4.0
 40
4.0
 40
5.0
 40
5.0
 40
5.0
 40
6.0
 40
6.0
 40
6.0
 40
7.0
 40
7.0
 40
7.0
 40
8.0
 40
8.0
 40
8.0
 40
8.0
 10
477.035826161123
 20
-154.1776692322889
 10
477.035826161123
 20
-154.1776692322889
 10
477.035826161123
 20
-154.2031629388798
 10
477.035826161123
 20
-154.2031629388798
 10
477.035826161123
 20
-154.2031629388798
 10
477.8106281357556
 20
-155.6380452084863
 10
477.8106281357556
 20
-155.6380452084863
 10
477.8106281357556
 20
-155.6380452084863
 10
476.9596895508988
 20
-155.8540526954115
 10
476.9596895508988
 20
-155.8540526954115
 10
476.9596895508988
 20
-155.8540526954115
 10
475.9947183054803
 20
-154.0508897184317
 10
475.9947183054803
 20
-154.0508897184317
 10
475.9947183054803
 20
-154.0508897184317
 10
475.9947183054803
 20
-153.0983208167601
 10
475.9947183054803
 20
-153.0983208167601
 10
475.9947183054803
 20
-153.0983208167601
 10
484.2484780690419
 20
-153.0983208167601
 10
484.2484780690419
 20
-153.0983208167601
 10
484.2484780690419
 20
-153.0983208167601
 10
484.2484780690419
 20
-154.1776692322889
 10
484.2484780690419
 20
-154.1776692322889
 10
484.2484780690419
 20
-154.1776692322889
 10
477.035826161123
 20
-154.1776692322889
 10
477.035826161123
 20
-154.1776692322889
 97
        0
 97
        1
330
133
 75
     2
 76
     1
 98
        1
 10
0.0
 20
0.0
450
        0
451
        0
460
0.0
461
0.0
452
        0
462
0.0
453
        0
470

  0
SPLINE
  5
135
330
12F
100
AcDbEntity
  8
Livello 1
100
AcDbSpline
210
0.0
220
0.0
230
1.0
 70
     9
 71
     3
 72
    59
 73
    55
 74
     0
 42
0.000000001
 43
0.0000000001
 40
0.0
 40
0.0
 40
0.0
 40
0.0
 40
1.0
 40
1.0
 40
1.0
 40
2.0
 40
2.0
 40
2.0
 40
3.0
 40
3.0
 40
3.0
 40
4.0
 40
4.0
 40
4.0
 40
5.0
 40
5.0
 40
5.0
 40
6.0
 40
6.0
 40
6.0
 40
7.0
 40
7.0
 40
7.0
 40
8.0
 40
8.0
 40
8.0
 40
9.0
 40
9.0
 40
9.0
 40
10.0
 40
10.0
 40
10.0
 40
11.0
 40
11.0
 40
11.0
 40
12.0
 40
12.0
 40
12.0
 40
13.0
 40
13.0
 40
13.0
 40
14.0
 40
14.0
 40
14.0
 40
15.0
 40
15.0
 40
15.0
 40
16.0
 40
16.0
 40
16.0
 40
17.0
 40
17.0
 40
17.0
 40
18.0
 40
18.0
 40
18.0
 40
18.0
 10
482.9658690198835
 20
-149.821690500739
 30
0.0
 10
483.1691296535133
 20
-149.504052696999
 30
0.0
 10
483.4867674572533
 20
-148.7676635370268
 30
0.0
 10
483.4867674572533
 20
-147.9930338171684
 30
0.0
 10
483.4867674572533
 20
-146.5581515475618
 30
0.0
 10
482.572439115468
 20
-146.1137342299646
 30
0.0
 10
481.8865206043547
 20
-146.1263088284858
 30
0.0
 10
480.7310355786018
 20
-146.1390556817812
 30
0.0
 10
480.2359753573715
 20
-147.180335792198
 30
0.0
 10
480.2359753573715
 20
-148.2596842077267
 30
0.0
 10
480.2359753573715
 20
-148.2596842077267
 30
0.0
 10
480.2359753573715
 20
-148.8818684523629
 30
0.0
 10
480.2359753573715
 20
-148.8818684523629
 30
0.0
 10
480.2359753573715
 20
-148.8818684523629
 30
0.0
 10
479.3977836258101
 20
-148.8818684523629
 30
0.0
 10
479.3977836258101
 20
-148.8818684523629
 30
0.0
 10
479.3977836258101
 20
-148.8818684523629
 30
0.0
 10
479.3977836258101
 20
-148.2596842077267
 30
0.0
 10
479.3977836258101
 20
-148.2596842077267
 30
0.0
 10
479.3977836258101
 20
-147.4469861827563
 30
0.0
 10
478.9788600148038
 20
-146.418452925635
 30
0.0
 10
478.0007974065415
 20
-146.418452925635
 30
0.0
 10
477.3407171115676
 20
-146.418452925635
 30
0.0
 10
476.7564289172693
 20
-146.8375487914156
 30
0.0
 10
476.7564289172693
 20
-147.8660820485369
 30
0.0
 10
476.7564289172693
 20
-148.5263345982851
 30
0.0
 10
477.0485730144184
 20
-149.1612656962166
 30
0.0
 10
477.3024765516812
 20
-149.5167995502944
 30
0.0
 10
477.3024765516812
 20
-149.5167995502944
 30
0.0
 10
476.4897785267108
 20
-149.8089436474436
 30
0.0
 10
476.4897785267108
 20
-149.8089436474436
 30
0.0
 10
476.1724852325193
 20
-149.3772731831418
 30
0.0
 10
475.8548474287793
 20
-148.5390814515805
 30
0.0
 10
475.8548474287793
 20
-147.650246816386
 30
0.0
 10
475.8548474287793
 20
-146.0248507664451
 30
0.0
 10
476.8201631837463
 20
-145.2882893516988
 30
0.0
 10
477.8230304795026
 20
-145.2882893516988
 30
0.0
 10
478.6739690643591
 20
-145.2882893516988
 30
0.0
 10
479.3977836258101
 20
-145.7962686809988
 30
0.0
 10
479.7660643331835
 20
-146.8120550848247
 30
0.0
 10
479.7660643331835
 20
-146.8120550848247
 30
0.0
 10
479.7915580397742
 20
-146.8120550848247
 30
0.0
 10
479.7915580397742
 20
-146.8120550848247
 30
0.0
 10
479.9944741638555
 20
-145.7962686809988
 30
0.0
 10
480.7565292851927
 20
-144.970823802733
 30
0.0
 10
481.9120143109456
 20
-144.970823802733
 30
0.0
 10
483.2328639199904
 20
-144.970823802733
 30
0.0
 10
484.388348945743
 20
-145.9993570598543
 30
0.0
 10
484.388348945743
 20
-147.980286963873
 30
0.0
 10
484.388348945743
 20
-148.9073621589537
 30
0.0
 10
484.0962048485939
 20
-149.7200601839241
 30
0.0
 10
483.8295544580356
 20
-150.1262369416351
 30
0.0
 10
483.8295544580356
 20
-150.1262369416351
 30
0.0
 10
482.9658690198835
 20
-149.821690500739
 30
0.0
 10
482.9658690198835
 20
-149.821690500739
 30
0.0
  0
HATCH
  5
136
330
12F
100
AcDbEntity
  8
Livello 1
 62
   250
420
  1907995
440
 33554687
100
AcDbHatch
 10
0.0
 20
0.0
 30
0.0
210
0.0
220
0.0
230
1.0
  2
SOLID
 70
     1
 71
     1
 91
        1
 92
        1
 93
        1
 72
     4
 94
        3
 73
     0
 74
     0
 95
       59
 96
       55
 40
0.0
 40
0.0
 40
0.0
 40
0.0
 40
1.0
 40
1.0
 40
1.0
 40
2.0
 40
2.0
 40
2.0
 40
3.0
 40
3.0
 40
3.0
 40
4.0
 40
4.0
 40
4.0
 40
5.0
 40
5.0
 40
5.0
 40
6.0
 40
6.0
 40
6.0
 40
7.0
 40
7.0
 40
7.0
 40
8.0
 40
8.0
 40
8.0
 40
9.0
 40
9.0
 40
9.0
 40
10.0
 40
10.0
 40
10.0
 40
11.0
 40
11.0
 40
11.0
 40
12.0
 40
12.0
 40
12.0
 40
13.0
 40
13.0
 40
13.0
 40
14.0
 40
14.0
 40
14.0
 40
15.0
 40
15.0
 40
15.0
 40
16.0
 40
16.0
 40
16.0
 40
17.0
 40
17.0
 40
17.0
 40
18.0
 40
18.0
 40
18.0
 40
18.0
 10
482.9658690198835
 20
-149.821690500739
 10
483.1691296535133
 20
-149.504052696999
 10
483.4867674572533
 20
-148.7676635370268
 10
483.4867674572533
 20
-147.9930338171684
 10
483.4867674572533
 20
-146.5581515475618
 10
482.572439115468
 20
-146.1137342299646
 10
481.8865206043547
 20
-146.1263088284858
 10
480.7310355786018
 20
-146.1390556817812
 10
480.2359753573715
 20
-147.180335792198
 10
480.2359753573715
 20
-148.2596842077267
 10
480.2359753573715
 20
-148.2596842077267
 10
480.2359753573715
 20
-148.8818684523629
 10
480.2359753573715
 20
-148.8818684523629
 10
480.2359753573715
 20
-148.8818684523629
 10
479.3977836258101
 20
-148.8818684523629
 10
479.3977836258101
 20
-148.8818684523629
 10
479.3977836258101
 20
-148.8818684523629
 10
479.3977836258101
 20
-148.2596842077267
 10
479.3977836258101
 20
-148.2596842077267
 10
479.3977836258101
 20
-147.4469861827563
 10
478.9788600148038
 20
-146.418452925635
 10
478.0007974065415
 20
-146.418452925635
 10
477.3407171115676
 20
-146.418452925635
 10
476.7564289172693
 20
-146.8375487914156
 10
476.7564289172693
 20
-147.8660820485369
 10
476.7564289172693
 20
-148.5263345982851
 10
477.0485730144184
 20
-149.1612656962166
 10
477.3024765516812
 20
-149.5167995502944
 10
477.3024765516812
 20
-149.5167995502944
 10
476.4897785267108
 20
-149.8089436474436
 10
476.4897785267108
 20
-149.8089436474436
 10
476.1724852325193
 20
-149.3772731831418
 10
475.8548474287793
 20
-148.5390814515805
 10
475.8548474287793
 20
-147.650246816386
 10
475.8548474287793
 20
-146.0248507664451
 10
476.8201631837463
 20
-145.2882893516988
 10
477.8230304795026
 20
-145.2882893516988
 10
478.6739690643591
 20
-145.2882893516988
 10
479.3977836258101
 20
-145.7962686809988
 10
479.7660643331835
 20
-146.8120550848247
 10
479.7660643331835
 20
-146.8120550848247
 10
479.7915580397742
 20
-146.8120550848247
 10
479.7915580397742
 20
-146.8120550848247
 10
479.9944741638555
 20
-145.7962686809988
 10
480.7565292851927
 20
-144.970823802733
 10
481.9120143109456
 20
-144.970823802733
 10
483.2328639199904
 20
-144.970823802733
 10
484.388348945743
 20
-145.9993570598543
 10
484.388348945743
 20
-147.980286963873
 10
484.388348945743
 20
-148.9073621589537
 10
484.0962048485939
 20
-149.7200601839241
 10
483.8295544580356
 20
-150.1262369416351
 10
483.8295544580356
 20
-150.1262369416351
 10
482.9658690198835
 20
-149.821690500739
 10
482.9658690198835
 20
-149.821690500739
 97
        0
 97
        1
330
135
 75
     2
 76
     1
 98
        1
 10
0.0
 20
0.0
450
        0
451
        0
460
0.0
461
0.0
452
        0
462
0.0
453
        0
470

  0
ENDBLK
  5
132
330
12F
100
AcDbEntity
  8
0
100
AcDbBlockEnd
  0
BLOCK
  5
139
330
137
100
AcDbEntity
  8
0
100
AcDbBlockBegin
  2
Block_10
 70
     0
 10
0.0
 20
0.0
 30
0.0
  3
Block_10
  1

  0
INSERT
  5
13C
330
137
100
AcDbEntity
  8
Livello 1
100
AcDbBlockReference
  2
Block_11
 10
0.0
 20
0.0
 30
0.0
  0
ENDBLK
  5
13A
330
137
100
AcDbEntity
  8
0
100
AcDbBlockEnd
  0
BLOCK
  5
13D
330
13B
100
AcDbEntity
  8
0
100
AcDbBlockBegin
  2
Block_11
 70
     0
 10
0.0
 20
0.0
 30
0.0
  3
Block_11
  1

  0
SPLINE
  5
13F
330
13B
100
AcDbEntity
  8
Livello 1
100
AcDbSpline
210
0.0
220
0.0
230
1.0
 70
     9
 71
     3
 72
    17
 73
    13
 74
     0
 42
0.000000001
 43
0.0000000001
 40
0.0
 40
0.0
 40
0.0
 40
0.0
 40
1.0
 40
1.0
 40
1.0
 40
2.0
 40
2.0
 40
2.0
 40
3.0
 40
3.0
 40
3.0
 40
4.0
 40
4.0
 40
4.0
 40
4.0
 10
444.3673637126928
 20
-177.5219807498903
 30
0.0
 10
444.3673637126928
 20
-178.3474256281562
 30
0.0
 10
444.989547957329
 20
-178.7918429457534
 30
0.0
 10
445.9421168590004
 20
-179.0457464830163
 30
0.0
 10
446.6531845671561
 20
-178.8045897990488
 30
0.0
 10
447.1992322015682
 20
-178.296782724523
 30
0.0
 10
447.1992322015682
 20
-177.5474744564812
 30
0.0
 10
447.1992322015682
 20
-176.8870496519588
 30
0.0
 10
446.8054577876042
 20
-176.2014756503941
 30
0.0
 10
445.8022459822993
 20
-176.2014756503941
 30
0.0
 10
444.8755152967672
 20
-176.2014756503941
 30
0.0
 10
444.3673637126928
 20
-176.8109130417347
 30
0.0
 10
444.3673637126928
 20
-177.5219807498903
 30
0.0
  0
SPLINE
  5
140
330
13B
100
AcDbEntity
  8
Livello 1
100
AcDbSpline
210
0.0
220
0.0
230
1.0
 70
     9
 71
     3
 72
    17
 73
    13
 74
     0
 42
0.000000001
 43
0.0000000001
 40
0.0
 40
0.0
 40
0.0
 40
0.0
 40
1.0
 40
1.0
 40
1.0
 40
2.0
 40
2.0
 40
2.0
 40
3.0
 40
3.0
 40
3.0
 40
4.0
 40
4.0
 40
4.0
 40
4.0
 10
447.4403888855356
 20
-181.6492051412196
 30
0.0
 10
447.4403888855356
 20
-180.6459933359149
 30
0.0
 10
446.7420680306757
 20
-180.1633354584314
 30
0.0
 10
445.6244790552604
 20
-179.8456976546913
 30
0.0
 10
444.659507809842
 20
-180.1250948985451
 30
0.0
 10
444.1389538820208
 20
-180.7600259964766
 30
0.0
 10
444.1389538820208
 20
-181.5475748244048
 30
0.0
 10
444.1007133221344
 20
-182.3854220464175
 30
0.0
 10
444.7356444200661
 20
-183.1219834611639
 30
0.0
 10
445.7898436385526
 20
-183.1219834611639
 30
0.0
 10
446.7927109343087
 20
-183.1219834611639
 30
0.0
 10
447.4403888855356
 20
-182.4997992165278
 30
0.0
 10
447.4403888855356
 20
-181.6492051412196
 30
0.0
  0
SPLINE
  5
141
330
13B
100
AcDbEntity
  8
Livello 1
100
AcDbSpline
210
0.0
220
0.0
230
1.0
 70
     9
 71
     3
 72
    35
 73
    31
 74
     0
 42
0.000000001
 43
0.0000000001
 40
0.0
 40
0.0
 40
0.0
 40
0.0
 40
1.0
 40
1.0
 40
1.0
 40
2.0
 40
2.0
 40
2.0
 40
3.0
 40
3.0
 40
3.0
 40
4.0
 40
4.0
 40
4.0
 40
5.0
 40
5.0
 40
5.0
 40
6.0
 40
6.0
 40
6.0
 40
7.0
 40
7.0
 40
7.0
 40
8.0
 40
8.0
 40
8.0
 40
9.0
 40
9.0
 40
9.0
 40
10.0
 40
10.0
 40
10.0
 40
10.0
 10
442.9962157095634
 20
-181.6998480448528
 30
0.0
 10
442.9962157095634
 20
-180.6583956796618
 30
0.0
 10
443.6183999541994
 20
-179.9221787744639
 30
0.0
 10
444.6340141032512
 20
-179.4901638006136
 30
0.0
 10
444.6340141032512
 20
-179.4901638006136
 30
0.0
 10
444.6216117595043
 20
-179.4522677502758
 30
0.0
 10
444.6216117595043
 20
-179.4522677502758
 30
0.0
 10
443.7072834177191
 20
-179.020597285974
 30
0.0
 10
443.3135090037549
 20
-178.3095295778184
 30
0.0
 10
443.3135090037549
 20
-177.5981173601143
 30
0.0
 10
443.3135090037549
 20
-176.2903591139135
 30
0.0
 10
444.4183511258746
 20
-175.401524478719
 30
0.0
 10
445.8659802487765
 20
-175.401524478719
 30
0.0
 10
447.4658825921266
 20
-175.401524478719
 30
0.0
 10
448.2658337638016
 20
-176.4047362840238
 30
0.0
 10
448.2658337638016
 20
-177.4330972863709
 30
0.0
 10
448.2658337638016
 20
-178.131418141231
 30
0.0
 10
447.9230467630191
 20
-178.8807264092729
 30
0.0
 10
446.9070881044189
 20
-179.3633842867563
 30
0.0
 10
446.9070881044189
 20
-179.3633842867563
 30
0.0
 10
446.9070881044189
 20
-179.4012803370941
 30
0.0
 10
446.9070881044189
 20
-179.4012803370941
 30
0.0
 10
447.9357936163147
 20
-179.8078016043536
 30
0.0
 10
448.5707247142462
 20
-180.5316161658046
 30
0.0
 10
448.5707247142462
 20
-181.5348279711093
 30
0.0
 10
448.5707247142462
 20
-182.9697102407159
 30
0.0
 10
447.3387585687207
 20
-183.9346814861344
 30
0.0
 10
445.7643499319615
 20
-183.9346814861344
 30
0.0
 10
444.0373235652058
 20
-183.9346814861344
 30
0.0
 10
442.9962157095634
 20
-182.9063204837873
 30
0.0
 10
442.9962157095634
 20
-181.6998480448528
 30
0.0
  0
HATCH
  5
142
330
13B
100
AcDbEntity
  8
Livello 1
 62
   250
420
  1907995
440
 33554687
100
AcDbHatch
 10
0.0
 20
0.0
 30
0.0
210
0.0
220
0.0
230
1.0
  2
SOLID
 70
     1
 71
     1
 91
        3
 92
        1
 93
        1
 72
     4
 94
        3
 73
     0
 74
     0
 95
       17
 96
       13
 40
0.0
 40
0.0
 40
0.0
 40
0.0
 40
1.0
 40
1.0
 40
1.0
 40
2.0
 40
2.0
 40
2.0
 40
3.0
 40
3.0
 40
3.0
 40
4.0
 40
4.0
 40
4.0
 40
4.0
 10
444.3673637126928
 20
-177.5219807498903
 10
444.3673637126928
 20
-178.3474256281562
 10
444.989547957329
 20
-178.7918429457534
 10
445.9421168590004
 20
-179.0457464830163
 10
446.6531845671561
 20
-178.8045897990488
 10
447.1992322015682
 20
-178.296782724523
 10
447.1992322015682
 20
-177.5474744564812
 10
447.1992322015682
 20
-176.8870496519588
 10
446.8054577876042
 20
-176.2014756503941
 10
445.8022459822993
 20
-176.2014756503941
 10
444.8755152967672
 20
-176.2014756503941
 10
444.3673637126928
 20
-176.8109130417347
 10
444.3673637126928
 20
-177.5219807498903
 97
        0
 97
        1
330
13F
 92
        1
 93
        1
 72
     4
 94
        3
 73
     0
 74
     0
 95
       17
 96
       13
 40
0.0
 40
0.0
 40
0.0
 40
0.0
 40
1.0
 40
1.0
 40
1.0
 40
2.0
 40
2.0
 40
2.0
 40
3.0
 40
3.0
 40
3.0
 40
4.0
 40
4.0
 40
4.0
 40
4.0
 10
447.4403888855356
 20
-181.6492051412196
 10
447.4403888855356
 20
-180.6459933359149
 10
446.7420680306757
 20
-180.1633354584314
 10
445.6244790552604
 20
-179.8456976546913
 10
444.659507809842
 20
-180.1250948985451
 10
444.1389538820208
 20
-180.7600259964766
 10
444.1389538820208
 20
-181.5475748244048
 10
444.1007133221344
 20
-182.3854220464175
 10
444.7356444200661
 20
-183.1219834611639
 10
445.7898436385526
 20
-183.1219834611639
 10
446.7927109343087
 20
-183.1219834611639
 10
447.4403888855356
 20
-182.4997992165278
 10
447.4403888855356
 20
-181.6492051412196
 97
        0
 97
        1
330
140
 92
        1
 93
        1
 72
     4
 94
        3
 73
     0
 74
     0
 95
       35
 96
       31
 40
0.0
 40
0.0
 40
0.0
 40
0.0
 40
1.0
 40
1.0
 40
1.0
 40
2.0
 40
2.0
 40
2.0
 40
3.0
 40
3.0
 40
3.0
 40
4.0
 40
4.0
 40
4.0
 40
5.0
 40
5.0
 40
5.0
 40
6.0
 40
6.0
 40
6.0
 40
7.0
 40
7.0
 40
7.0
 40
8.0
 40
8.0
 40
8.0
 40
9.0
 40
9.0
 40
9.0
 40
10.0
 40
10.0
 40
10.0
 40
10.0
 10
442.9962157095634
 20
-181.6998480448528
 10
442.9962157095634
 20
-180.6583956796618
 10
443.6183999541994
 20
-179.9221787744639
 10
444.6340141032512
 20
-179.4901638006136
 10
444.6340141032512
 20
-179.4901638006136
 10
444.6216117595043
 20
-179.4522677502758
 10
444.6216117595043
 20
-179.4522677502758
 10
443.7072834177191
 20
-179.020597285974
 10
443.3135090037549
 20
-178.3095295778184
 10
443.3135090037549
 20
-177.5981173601143
 10
443.3135090037549
 20
-176.2903591139135
 10
444.4183511258746
 20
-175.401524478719
 10
445.8659802487765
 20
-175.401524478719
 10
447.4658825921266
 20
-175.401524478719
 10
448.2658337638016
 20
-176.4047362840238
 10
448.2658337638016
 20
-177.4330972863709
 10
448.2658337638016
 20
-178.131418141231
 10
447.9230467630191
 20
-178.8807264092729
 10
446.9070881044189
 20
-179.3633842867563
 10
446.9070881044189
 20
-179.3633842867563
 10
446.9070881044189
 20
-179.4012803370941
 10
446.9070881044189
 20
-179.4012803370941
 10
447.9357936163147
 20
-179.8078016043536
 10
448.5707247142462
 20
-180.5316161658046
 10
448.5707247142462
 20
-181.5348279711093
 10
448.5707247142462
 20
-182.9697102407159
 10
447.3387585687207
 20
-183.9346814861344
 10
445.7643499319615
 20
-183.9346814861344
 10
444.0373235652058
 20
-183.9346814861344
 10
442.9962157095634
 20
-182.9063204837873
 10
442.9962157095634
 20
-181.6998480448528
 97
        0
 97
        1
330
141
 75
     2
 76
     1
 98
        1
 10
0.0
 20
0.0
450
        0
451
        0
460
0.0
461
0.0
452
        0
462
0.0
453
        0
470

  0
SPLINE
  5
143
330
13B
100
AcDbEntity
  8
Livello 1
100
AcDbSpline
210
0.0
220
0.0
230
1.0
 70
     9
 71
     3
 72
    17
 73
    13
 74
     0
 42
0.000000001
 43
0.0000000001
 40
0.0
 40
0.0
 40
0.0
 40
0.0
 40
1.0
 40
1.0
 40
1.0
 40
2.0
 40
2.0
 40
2.0
 40
3.0
 40
3.0
 40
3.0
 40
4.0
 40
4.0
 40
4.0
 40
4.0
 10
449.2442408816126
 20
-185.3568169024455
 30
0.0
 10
449.5236381254663
 20
-184.6078531439522
 30
0.0
 10
449.8664251262487
 20
-183.2491074845695
 30
0.0
 10
450.0062960029498
 20
-182.3220322894889
 30
0.0
 10
450.0062960029498
 20
-182.3220322894889
 30
0.0
 10
451.2506644922219
 20
-182.1949082660832
 30
0.0
 10
451.2506644922219
 20
-182.1949082660832
 30
0.0
 10
450.9585203950727
 20
-183.2746011911605
 30
0.0
 10
450.3997259073653
 20
-184.6839897541761
 30
0.0
 10
450.0441920532876
 20
-185.2806802922215
 30
0.0
 10
450.0441920532876
 20
-185.2806802922215
 30
0.0
 10
449.2442408816126
 20
-185.3568169024455
 30
0.0
 10
449.2442408816126
 20
-185.3568169024455
 30
0.0
  0
HATCH
  5
144
330
13B
100
AcDbEntity
  8
Livello 1
 62
   250
420
  1907995
440
 33554687
100
AcDbHatch
 10
0.0
 20
0.0
 30
0.0
210
0.0
220
0.0
230
1.0
  2
SOLID
 70
     1
 71
     1
 91
        1
 92
        1
 93
        1
 72
     4
 94
        3
 73
     0
 74
     0
 95
       17
 96
       13
 40
0.0
 40
0.0
 40
0.0
 40
0.0
 40
1.0
 40
1.0
 40
1.0
 40
2.0
 40
2.0
 40
2.0
 40
3.0
 40
3.0
 40
3.0
 40
4.0
 40
4.0
 40
4.0
 40
4.0
 10
449.2442408816126
 20
-185.3568169024455
 10
449.5236381254663
 20
-184.6078531439522
 10
449.8664251262487
 20
-183.2491074845695
 10
450.0062960029498
 20
-182.3220322894889
 10
450.0062960029498
 20
-182.3220322894889
 10
451.2506644922219
 20
-182.1949082660832
 10
451.2506644922219
 20
-182.1949082660832
 10
450.9585203950727
 20
-183.2746011911605
 10
450.3997259073653
 20
-184.6839897541761
 10
450.0441920532876
 20
-185.2806802922215
 10
450.0441920532876
 20
-185.2806802922215
 10
449.2442408816126
 20
-185.3568169024455
 10
449.2442408816126
 20
-185.3568169024455
 97
        0
 97
        1
330
143
 75
     2
 76
     1
 98
        1
 10
0.0
 20
0.0
450
        0
451
        0
460
0.0
461
0.0
452
        0
462
0.0
453
        0
470

  0
SPLINE
  5
145
330
13B
100
AcDbEntity
  8
Livello 1
100
AcDbSpline
210
0.0
220
0.0
230
1.0
 70
    11
 71
     3
 72
    50
 73
    46
 74
     0
 42
0.000000001
 43
0.0000000001
 40
0.0
 40
0.0
 40
0.0
 40
0.0
 40
1.0
 40
1.0
 40
1.0
 40
2.0
 40
2.0
 40
2.0
 40
3.0
 40
3.0
 40
3.0
 40
4.0
 40
4.0
 40
4.0
 40
5.0
 40
5.0
 40
5.0
 40
6.0
 40
6.0
 40
6.0
 40
7.0
 40
7.0
 40
7.0
 40
8.0
 40
8.0
 40
8.0
 40
9.0
 40
9.0
 40
9.0
 40
10.0
 40
10.0
 40
10.0
 40
11.0
 40
11.0
 40
11.0
 40
12.0
 40
12.0
 40
12.0
 40
13.0
 40
13.0
 40
13.0
 40
14.0
 40
14.0
 40
14.0
 40
15.0
 40
15.0
 40
15.0
 40
15.0
 10
457.1683050072357
 20
-176.4808728942478
 30
0.0
 10
457.1683050072357
 20
-176.4808728942478
 30
0.0
 10
454.0191432241687
 20
-176.4808728942478
 30
0.0
 10
454.0191432241687
 20
-176.4808728942478
 30
0.0
 10
454.0191432241687
 20
-176.4808728942478
 30
0.0
 10
453.7015054204288
 20
-178.6013291654191
 30
0.0
 10
453.7015054204288
 20
-178.6013291654191
 30
0.0
 10
453.8920192007631
 20
-178.5761799683768
 30
0.0
 10
454.069786127802
 20
-178.5506862617859
 30
0.0
 10
454.3746770782466
 20
-178.5506862617859
 30
0.0
 10
455.0096081761782
 20
-178.5506862617859
 30
0.0
 10
455.6445392741096
 20
-178.6902126289385
 30
0.0
 10
456.1523463486355
 20
-178.9951035793832
 30
0.0
 10
456.8000242998625
 20
-179.3633842867563
 30
0.0
 10
457.3333250809791
 20
-180.0744519949119
 30
0.0
 10
457.3333250809791
 20
-181.1155598505544
 30
0.0
 10
457.3333250809791
 20
-182.7285535567483
 30
0.0
 10
456.0507160318207
 20
-183.9346814861344
 30
0.0
 10
454.2602999081363
 20
-183.9346814861344
 30
0.0
 10
453.3587184196464
 20
-183.9346814861344
 30
0.0
 10
452.5966632983092
 20
-183.6807779488714
 30
0.0
 10
452.2032333938936
 20
-183.4268744116085
 30
0.0
 10
452.2032333938936
 20
-183.4268744116085
 30
0.0
 10
452.4826306377473
 20
-182.5759358267518
 30
0.0
 10
452.4826306377473
 20
-182.5759358267518
 30
0.0
 10
452.8254176385296
 20
-182.7791964603815
 30
0.0
 10
453.498244786799
 20
-183.0330999976445
 30
0.0
 10
454.2475530548408
 20
-183.0330999976445
 30
0.0
 10
455.3017522733273
 20
-183.0330999976445
 30
0.0
 10
456.2033337618172
 20
-182.3475259960798
 30
0.0
 10
456.2033337618172
 20
-181.2426838739602
 30
0.0
 10
456.1905869085218
 20
-180.1760823117268
 30
0.0
 10
455.4795192003663
 20
-179.4140271903895
 30
0.0
 10
453.8286294438345
 20
-179.4140271903895
 30
0.0
 10
453.3587184196464
 20
-179.4140271903895
 30
0.0
 10
452.9904377122732
 20
-179.4650146035712
 30
0.0
 10
452.6855467618286
 20
-179.502910653909
 30
0.0
 10
452.6855467618286
 20
-179.502910653909
 30
0.0
 10
453.2191920524938
 20
-175.5410508458717
 30
0.0
 10
453.2191920524938
 20
-175.5410508458717
 30
0.0
 10
453.2191920524938
 20
-175.5410508458717
 30
0.0
 10
457.1683050072357
 20
-175.5410508458717
 30
0.0
 10
457.1683050072357
 20
-175.5410508458717
 30
0.0
 10
457.1683050072357
 20
-175.5410508458717
 30
0.0
 10
457.1683050072357
 20
-176.4808728942478
 30
0.0
 10
457.1683050072357
 20
-176.4808728942478
 30
0.0
  0
HATCH
  5
146
330
13B
100
AcDbEntity
  8
Livello 1
 62
   250
420
  1907995
440
 33554687
100
AcDbHatch
 10
0.0
 20
0.0
 30
0.0
210
0.0
220
0.0
230
1.0
  2
SOLID
 70
     1
 71
     1
 91
        1
 92
        1
 93
        1
 72
     4
 94
        3
 73
     0
 74
     0
 95
       50
 96
       46
 40
0.0
 40
0.0
 40
0.0
 40
0.0
 40
1.0
 40
1.0
 40
1.0
 40
2.0
 40
2.0
 40
2.0
 40
3.0
 40
3.0
 40
3.0
 40
4.0
 40
4.0
 40
4.0
 40
5.0
 40
5.0
 40
5.0
 40
6.0
 40
6.0
 40
6.0
 40
7.0
 40
7.0
 40
7.0
 40
8.0
 40
8.0
 40
8.0
 40
9.0
 40
9.0
 40
9.0
 40
10.0
 40
10.0
 40
10.0
 40
11.0
 40
11.0
 40
11.0
 40
12.0
 40
12.0
 40
12.0
 40
13.0
 40
13.0
 40
13.0
 40
14.0
 40
14.0
 40
14.0
 40
15.0
 40
15.0
 40
15.0
 40
15.0
 10
457.1683050072357
 20
-176.4808728942478
 10
457.1683050072357
 20
-176.4808728942478
 10
454.0191432241687
 20
-176.4808728942478
 10
454.0191432241687
 20
-176.4808728942478
 10
454.0191432241687
 20
-176.4808728942478
 10
453.7015054204288
 20
-178.6013291654191
 10
453.7015054204288
 20
-178.6013291654191
 10
453.8920192007631
 20
-178.5761799683768
 10
454.069786127802
 20
-178.5506862617859
 10
454.3746770782466
 20
-178.5506862617859
 10
455.0096081761782
 20
-178.5506862617859
 10
455.6445392741096
 20
-178.6902126289385
 10
456.1523463486355
 20
-178.9951035793832
 10
456.8000242998625
 20
-179.3633842867563
 10
457.3333250809791
 20
-180.0744519949119
 10
457.3333250809791
 20
-181.1155598505544
 10
457.3333250809791
 20
-182.7285535567483
 10
456.0507160318207
 20
-183.9346814861344
 10
454.2602999081363
 20
-183.9346814861344
 10
453.3587184196464
 20
-183.9346814861344
 10
452.5966632983092
 20
-183.6807779488714
 10
452.2032333938936
 20
-183.4268744116085
 10
452.2032333938936
 20
-183.4268744116085
 10
452.4826306377473
 20
-182.5759358267518
 10
452.4826306377473
 20
-182.5759358267518
 10
452.8254176385296
 20
-182.7791964603815
 10
453.498244786799
 20
-183.0330999976445
 10
454.2475530548408
 20
-183.0330999976445
 10
455.3017522733273
 20
-183.0330999976445
 10
456.2033337618172
 20
-182.3475259960798
 10
456.2033337618172
 20
-181.2426838739602
 10
456.1905869085218
 20
-180.1760823117268
 10
455.4795192003663
 20
-179.4140271903895
 10
453.8286294438345
 20
-179.4140271903895
 10
453.3587184196464
 20
-179.4140271903895
 10
452.9904377122732
 20
-179.4650146035712
 10
452.6855467618286
 20
-179.502910653909
 10
452.6855467618286
 20
-179.502910653909
 10
453.2191920524938
 20
-175.5410508458717
 10
453.2191920524938
 20
-175.5410508458717
 10
453.2191920524938
 20
-175.5410508458717
 10
457.1683050072357
 20
-175.5410508458717
 10
457.1683050072357
 20
-175.5410508458717
 10
457.1683050072357
 20
-175.5410508458717
 10
457.1683050072357
 20
-176.4808728942478
 10
457.1683050072357
 20
-176.4808728942478
 97
        0
 97
        1
330
145
 75
     2
 76
     1
 98
        1
 10
0.0
 20
0.0
450
        0
451
        0
460
0.0
461
0.0
452
        0
462
0.0
453
        0
470

  0
ENDBLK
  5
13E
330
13B
100
AcDbEntity
  8
0
100
AcDbBlockEnd
  0
ENDSEC
  0
SECTION
  2
ENTITIES
  0
LINE
  5
9A
330
70
100
AcDbEntity
  8
Livello 1
100
AcDbLine
 10
421.4646693946268
 20
-131.8328497660046
 30
0.0
 11
421.8640843844368
 21
-131.8562389326653
 31
0.0
  0
LINE
  5
9B
330
70
100
AcDbEntity
  8
Livello 1
100
AcDbLine
 10
372.3708450915584
 20
-131.8328497660046
 30
0.0
 11
371.9722767683934
 21
-131.8562389326653
 31
0.0
  0
LINE
  5
9C
330
70
100
AcDbEntity
  8
Livello 1
100
AcDbLine
 10
371.9722767683934
 20
-156.1567011488125
 30
0.0
 11
372.3708450915584
 21
-156.1800550376959
 31
0.0
  0
LINE
  5
9D
330
70
100
AcDbEntity
  8
Livello 1
100
AcDbLine
 10
421.8640843844368
 20
-156.1567011488125
 30
0.0
 11
421.4646693946268
 21
-156.1800550376959
 31
0.0
  0
LINE
  5
A0
330
70
100
AcDbEntity
  8
Livello 1
100
AcDbLine
 10
419.1206727877603
 20
-130.7204355996158
 30
0.0
 11
420.9226616306766
 21
-131.7210897660324
 31
0.0
  0
SPLINE
  5
A2
330
70
100
AcDbEntity
  8
Livello 1
100
AcDbSpline
210
0.0
220
0.0
230
1.0
 70
     8
 71
     3
 72
     8
 73
     4
 74
     0
 42
0.000000001
 43
0.0000000001
 40
0.0
 40
0.0
 40
0.0
 40
0.0
 40
1.0
 40
1.0
 40
1.0
 40
1.0
 10
416.7366711819147
 20
-130.2392819886251
 30
0.0
 10
410.1366224614063
 20
-129.8807186553813
 30
0.0
 10
403.5274015189107
 20
-129.7014722665372
 30
0.0
 10
396.9173339097697
 20
-129.7014722665372
 30
0.0
  0
SPLINE
  5
A3
330
70
100
AcDbEntity
  8
Livello 1
100
AcDbSpline
210
0.0
220
0.0
230
1.0
 70
     8
 71
     3
 72
     8
 73
     4
 74
     0
 42
0.000000001
 43
0.0000000001
 40
0.0
 40
0.0
 40
0.0
 40
0.0
 40
1.0
 40
1.0
 40
1.0
 40
1.0
 10
377.0997252486924
 20
-130.2392819886251
 30
0.0
 10
383.7005853580682
 20
-129.8807186553813
 30
0.0
 10
390.3081482450508
 20
-129.7014722665372
 30
0.0
 10
396.9181805764149
 20
-129.7014722665372
 30
0.0
  0
LINE
  5
A5
330
70
100
AcDbEntity
  8
Livello 1
100
AcDbLine
 10
374.7148416984247
 20
-130.7204355996158
 30
0.0
 11
372.9136995221535
 21
-131.7210897660324
 31
0.0
  0
SPLINE
  5
A6
330
70
100
AcDbEntity
  8
Livello 1
100
AcDbSpline
210
0.0
220
0.0
230
1.0
 70
     8
 71
     3
 72
     8
 73
     4
 74
     0
 42
0.000000001
 43
0.0000000001
 40
0.0
 40
0.0
 40
0.0
 40
0.0
 40
1.0
 40
1.0
 40
1.0
 40
1.0
 10
366.9273782859884
 20
-129.8649142109409
 30
0.0
 10
386.8976338876158
 20
-128.4823781001755
 30
0.0
 10
406.9387272652138
 20
-128.4823781001755
 30
0.0
 10
426.9081362001968
 20
-129.8649142109409
 30
0.0
  0
SPLINE
  5
A7
330
70
100
AcDbEntity
  8
Livello 1
100
AcDbSpline
210
0.0
220
0.0
230
1.0
 70
     8
 71
     3
 72
     8
 73
     4
 74
     0
 42
0.000000001
 43
0.0000000001
 40
0.0
 40
0.0
 40
0.0
 40
0.0
 40
1.0
 40
1.0
 40
1.0
 40
1.0
 10
366.9273782859884
 20
-158.1496133705364
 30
0.0
 10
386.8976338876158
 20
-159.5304914257468
 30
0.0
 10
406.9387272652138
 20
-159.5304914257468
 30
0.0
 10
426.9081362001968
 20
-158.1496133705364
 30
0.0
  0
SPLINE
  5
A9
330
70
100
AcDbEntity
  8
Livello 1
100
AcDbSpline
210
0.0
220
0.0
230
1.0
 70
     8
 71
     3
 72
     8
 73
     4
 74
     0
 42
0.000000001
 43
0.0000000001
 40
0.0
 40
0.0
 40
0.0
 40
0.0
 40
1.0
 40
1.0
 40
1.0
 40
1.0
 10
396.9173691875466
 20
-158.3122086482735
 30
0.0
 10
390.3081482450508
 20
-158.3122086482735
 30
0.0
 10
383.6997766913804
 20
-158.1312689260967
 30
0.0
 10
377.0988785820474
 20
-157.7743989261853
 30
0.0
  0
SPLINE
  5
AA
330
70
100
AcDbEntity
  8
Livello 1
100
AcDbSpline
210
0.0
220
0.0
230
1.0
 70
     8
 71
     3
 72
     8
 73
     4
 74
     0
 42
0.000000001
 43
0.0000000001
 40
0.0
 40
0.0
 40
0.0
 40
0.0
 40
1.0
 40
1.0
 40
1.0
 40
1.0
 10
396.9173691875466
 20
-158.3122086482735
 30
0.0
 10
403.5274015189107
 20
-158.3122086482735
 30
0.0
 10
410.1366224614063
 20
-158.1312689260967
 30
0.0
 10
416.7366711819147
 20
-157.7743989261853
 30
0.0
  0
LINE
  5
AC
330
70
100
AcDbEntity
  8
Livello 1
100
AcDbLine
 10
420.9218502418086
 20
-156.2908978154456
 30
0.0
 11
419.1198613988921
 21
-157.2924339263063
 31
0.0
  0
SPLINE
  5
AD
330
70
100
AcDbEntity
  8
Livello 1
100
AcDbSpline
210
0.0
220
0.0
230
1.0
 70
     8
 71
     3
 72
     8
 73
     4
 74
     0
 42
0.000000001
 43
0.0000000001
 40
0.0
 40
0.0
 40
0.0
 40
0.0
 40
1.0
 40
1.0
 40
1.0
 40
1.0
 10
417.7481556005539
 20
-156.8596108708591
 30
0.0
 10
418.5703394684671
 20
-156.7537422597743
 30
0.0
 10
419.975382765955
 20
-155.8881667044348
 30
0.0
 10
420.578279972796
 20
-155.5521105934076
 30
0.0
  0
SPLINE
  5
AE
330
70
100
AcDbEntity
  8
Livello 1
100
AcDbSpline
210
0.0
220
0.0
230
1.0
 70
     8
 71
     3
 72
     8
 73
     4
 74
     0
 42
0.000000001
 43
0.0000000001
 40
0.0
 40
0.0
 40
0.0
 40
0.0
 40
1.0
 40
1.0
 40
1.0
 40
1.0
 10
376.0882433599497
 20
-156.8596108708591
 30
0.0
 10
375.1017683552201
 20
-156.5727672598199
 30
0.0
 10
373.8609783868753
 20
-155.8881667044348
 30
0.0
 10
373.257269791166
 20
-155.5521105934076
 30
0.0
  0
SPLINE
  5
AF
330
70
100
AcDbEntity
  8
Livello 1
100
AcDbSpline
210
0.0
220
0.0
230
1.0
 70
     8
 71
     3
 72
     8
 73
     4
 74
     0
 42
0.000000001
 43
0.0000000001
 40
0.0
 40
0.0
 40
0.0
 40
0.0
 40
1.0
 40
1.0
 40
1.0
 40
1.0
 10
375.0675841894255
 20
-131.4558714327654
 30
0.0
 10
374.4638755937163
 20
-131.7911161549039
 30
0.0
 10
373.8609783868753
 20
-132.1255142103759
 30
0.0
 10
373.2581164578111
 20
-132.4606883769585
 30
0.0
  0
SPLINE
  5
B0
330
70
100
AcDbEntity
  8
Livello 1
100
AcDbSpline
210
0.0
220
0.0
230
1.0
 70
     8
 71
     3
 72
     8
 73
     4
 74
     0
 42
0.000000001
 43
0.0000000001
 40
0.0
 40
0.0
 40
0.0
 40
0.0
 40
1.0
 40
1.0
 40
1.0
 40
1.0
 10
417.7464975450408
 20
-131.1548461550629
 30
0.0
 10
418.7771377965246
 20
-131.4041894883339
 30
0.0
 10
419.975382765955
 20
-132.1254436548202
 30
0.0
 10
420.578279972796
 20
-132.4606883769585
 30
0.0
  0
LINE
  5
B8
330
70
100
AcDbEntity
  8
Livello 1
100
AcDbLine
 10
440.6151047393917
 20
-157.0372344819254
 30
0.0
 11
440.6151047393917
 21
-158.1479200372039
 31
0.0
  0
SPLINE
  5
BA
330
70
100
AcDbEntity
  8
Livello 1
100
AcDbSpline
210
0.0
220
0.0
230
1.0
 70
     8
 71
     3
 72
     8
 73
     4
 74
     0
 42
0.000000001
 43
0.0000000001
 40
0.0
 40
0.0
 40
0.0
 40
0.0
 40
1.0
 40
1.0
 40
1.0
 40
1.0
 10
451.0270936404264
 20
-152.2786150386707
 30
0.0
 10
451.0037397521334
 20
-153.1174853162393
 30
0.0
 10
450.9729069751422
 20
-153.9562850382514
 30
0.0
 10
450.9378761427026
 20
-154.7951200380418
 30
0.0
  0
LINE
  5
BE
330
70
100
AcDbEntity
  8
Livello 1
100
AcDbLine
 10
450.6118742065751
 20
-156.1568069821456
 30
0.0
 11
450.6093738968755
 21
-156.1793494821404
 31
0.0
  0
LINE
  5
C0
330
70
100
AcDbEntity
  8
Livello 1
100
AcDbLine
 10
440.6151047393917
 20
-158.1479905927589
 30
0.0
 11
440.6151047393917
 21
-159.1852630924997
 31
0.0
  0
LINE
  5
C1
330
70
100
AcDbEntity
  8
Livello 1
100
AcDbLine
 10
446.3485238979401
 20
-130.7217408773933
 30
0.0
 11
450.2591669933512
 21
-131.7232064326987
 31
0.0
  0
LINE
  5
C3
330
70
100
AcDbEntity
  8
Livello 1
100
AcDbLine
 10
440.6151047393917
 20
-129.8645614331632
 30
0.0
 11
440.6151047393917
 21
-128.8289822667556
 31
0.0
  0
LINE
  5
C4
330
70
100
AcDbEntity
  8
Livello 1
100
AcDbLine
 10
450.9162155876996
 20
-132.7537761546632
 30
0.0
 11
450.89621308821
 21
-132.3360519881008
 31
0.0
  0
LINE
  5
C5
330
70
100
AcDbEntity
  8
Livello 1
100
AcDbLine
 10
450.8954016993418
 20
-132.3360519881008
 30
0.0
 11
450.8886989217351
 21
-132.188520321471
 31
0.0
  0
LINE
  5
C6
330
70
100
AcDbEntity
  8
Livello 1
100
AcDbLine
 10
450.9312439206496
 20
-133.1056719879084
 30
0.0
 11
450.9153689210545
 21
-132.7537761546632
 31
0.0
  0
SPLINE
  5
C7
330
70
100
AcDbEntity
  8
Livello 1
100
AcDbSpline
210
0.0
220
0.0
230
1.0
 70
     8
 71
     3
 72
     8
 73
     4
 74
     0
 42
0.000000001
 43
0.0000000001
 40
0.0
 40
0.0
 40
0.0
 40
0.0
 40
1.0
 40
1.0
 40
1.0
 40
1.0
 10
450.8895455883801
 20
-132.1892964325819
 30
0.0
 10
450.8811847552602
 20
-132.0292058770666
 30
0.0
 10
450.7678019803749
 20
-131.8932805993229
 30
0.0
 10
450.6127208732202
 20
-131.8582850437758
 30
0.0
  0
LINE
  5
C8
330
70
100
AcDbEntity
  8
Livello 1
100
AcDbLine
 10
450.9370647538345
 20
-133.2199014323243
 30
0.0
 11
450.9312439206496
 21
-133.1057072656862
 31
0.0
  0
SPLINE
  5
C9
330
70
100
AcDbEntity
  8
Livello 1
100
AcDbSpline
210
0.0
220
0.0
230
1.0
 70
     8
 71
     3
 72
     8
 73
     4
 74
     0
 42
0.000000001
 43
0.0000000001
 40
0.0
 40
0.0
 40
0.0
 40
0.0
 40
1.0
 40
1.0
 40
1.0
 40
1.0
 10
450.8895455883801
 20
-155.8241728155621
 30
0.0
 10
450.8811847552602
 20
-155.9842633710781
 30
0.0
 10
450.7678019803749
 20
-156.119341982155
 30
0.0
 10
450.6127208732202
 20
-156.1560308710351
 30
0.0
  0
SPLINE
  5
CA
330
70
100
AcDbEntity
  8
Livello 1
100
AcDbSpline
210
0.0
220
0.0
230
1.0
 70
     8
 71
     3
 72
     8
 73
     4
 74
     0
 42
0.000000001
 43
0.0000000001
 40
0.0
 40
0.0
 40
0.0
 40
0.0
 40
1.0
 40
1.0
 40
1.0
 40
1.0
 10
450.8895455883801
 20
-155.8241728155621
 30
0.0
 10
450.9070433657115
 20
-155.4822958712031
 30
0.0
 10
450.9220364208844
 20
-155.1379142046228
 30
0.0
 10
450.9379114204793
 20
-154.7943792047081
 30
0.0
  0
LINE
  5
CB
330
70
100
AcDbEntity
  8
Livello 1
100
AcDbLine
 10
450.8812200330369
 20
-132.1109092103795
 30
0.0
 11
450.8878875328668
 21
-132.1642844881438
 31
0.0
  0
LINE
  5
CC
330
70
100
AcDbEntity
  8
Livello 1
100
AcDbLine
 10
450.8895455883801
 20
-132.1892964325819
 30
0.0
 11
450.8878522550898
 21
-132.1650958770326
 31
0.0
  0
LINE
  5
CD
330
70
100
AcDbEntity
  8
Livello 1
100
AcDbLine
 10
450.8812200330369
 20
-155.9025247599873
 30
0.0
 11
450.8878875328668
 21
-155.8483733711118
 31
0.0
  0
LINE
  5
CE
330
70
100
AcDbEntity
  8
Livello 1
100
AcDbLine
 10
450.8878875328668
 20
-155.8475267044449
 30
0.0
 11
450.8895455883801
 21
-155.8242080933396
 31
0.0
  0
SPLINE
  5
CF
330
70
100
AcDbEntity
  8
Livello 1
100
AcDbSpline
210
0.0
220
0.0
230
1.0
 70
     8
 71
     3
 72
     8
 73
     4
 74
     0
 42
0.000000001
 43
0.0000000001
 40
0.0
 40
0.0
 40
0.0
 40
0.0
 40
1.0
 40
1.0
 40
1.0
 40
1.0
 10
450.6102161510618
 20
-156.1793847599179
 30
0.0
 10
450.7469572301742
 20
-156.1485519821477
 30
0.0
 10
450.8528567004272
 20
-156.0393319821755
 30
0.0
 10
450.8812200330369
 20
-155.9025953155423
 30
0.0
  0
LINE
  5
D0
330
70
100
AcDbEntity
  8
Livello 1
100
AcDbLine
 10
450.2600136599963
 20
-156.291109482112
 30
0.0
 11
450.2875303259609
 21
-156.2803144821146
 31
0.0
  0
LINE
  5
D1
330
70
100
AcDbEntity
  8
Livello 1
100
AcDbLine
 10
450.2600136599963
 20
-131.7232064326987
 30
0.0
 11
450.2875303259609
 21
-131.7332253215851
 31
0.0
  0
SPLINE
  5
D2
330
70
100
AcDbEntity
  8
Livello 1
100
AcDbSpline
210
0.0
220
0.0
230
1.0
 70
     8
 71
     3
 72
     8
 73
     4
 74
     0
 42
0.000000001
 43
0.0000000001
 40
0.0
 40
0.0
 40
0.0
 40
0.0
 40
1.0
 40
1.0
 40
1.0
 40
1.0
 10
450.6102161510618
 20
-131.8340844882265
 30
0.0
 10
450.7469572301742
 20
-131.8657992104407
 30
0.0
 10
450.8528567004272
 20
-131.9733964326358
 30
0.0
 10
450.8812200330369
 20
-132.1109444881571
 30
0.0
  0
LINE
  5
D3
330
70
100
AcDbEntity
  8
Livello 1
100
AcDbLine
 10
446.3485238979401
 20
-157.2916930929733
 30
0.0
 11
446.3752248702165
 21
-157.2817447596422
 31
0.0
  0
LINE
  5
D4
330
70
100
AcDbEntity
  8
Livello 1
100
AcDbLine
 10
446.3485238979401
 20
-130.7217761551711
 30
0.0
 11
446.3752248702165
 21
-130.7317950440576
 31
0.0
  0
LINE
  5
11B
330
70
100
AcDbEntity
  8
Livello 1
100
AcDbLine
 10
360.3387357260424
 20
-170.8310032884048
 30
0.0
 11
431.3243132958573
 21
-170.8310032884048
 31
0.0
  0
LINE
  5
11C
330
70
100
AcDbEntity
  8
Livello 1
100
AcDbLine
 10
439.2382108763698
 20
-170.8310032884048
 30
0.0
 11
460.3110385142318
 21
-170.8310032884048
 31
0.0
  0
LINE
  5
11D
330
70
100
AcDbEntity
  8
Livello 1
100
AcDbLine
 10
471.5443747900196
 20
-131.2501152230344
 30
0.0
 11
471.5443747900196
 21
-161.9478937570269
 31
0.0
  0
SPLINE
  5
18D
330
70
100
AcDbEntity
  8
Livello 1
100
AcDbSpline
210
0.0
220
0.0
230
1.0
 70
    24
 71
     3
 72
     8
 73
     4
 74
     0
 42
0.000000001
 43
0.0000000001
 40
0.0
 40
0.0
 40
0.0
 40
0.0
 40
1.0
 40
1.0
 40
1.0
 40
1.0
 10
422.2601516817404
 20
-133.4189033767192
 30
0.0
 10
422.2601516817404
 20
-133.4189033767192
 30
0.0
 10
422.2201429864641
 20
-133.3663747656212
 30
0.0
 10
422.2201429864641
 20
-133.3663747656212
 30
0.0
  0
SPLINE
  5
18E
330
70
100
AcDbEntity
  8
Livello 1
100
AcDbSpline
210
0.0
220
0.0
230
1.0
 70
     8
 71
     3
 72
     8
 73
     4
 74
     0
 42
0.000000001
 43
0.0000000001
 40
1.0
 40
1.0
 40
1.0
 40
1.0
 40
2.0
 40
2.0
 40
2.0
 40
2.0
 10
422.2201429864641
 20
-133.3663747656212
 30
0.0
 10
421.9866393813101
 20
-133.1295550434582
 30
0.0
 10
421.6105782797932
 20
-132.7868314324325
 30
0.0
 10
421.3170671761702
 20
-132.6317503213603
 30
0.0
  0
SPLINE
  5
18F
330
70
100
AcDbEntity
  8
Livello 1
100
AcDbSpline
210
0.0
220
0.0
230
1.0
 70
    24
 71
     3
 72
     8
 73
     4
 74
     0
 42
0.000000001
 43
0.0000000001
 40
2.0
 40
2.0
 40
2.0
 40
2.0
 40
3.0
 40
3.0
 40
3.0
 40
3.0
 10
421.3170671761702
 20
-132.6317503213603
 30
0.0
 10
421.3170671761702
 20
-132.6317503213603
 30
0.0
 10
421.3162205095251
 20
-132.6309389324716
 30
0.0
 10
421.3162205095251
 20
-132.6309389324716
 30
0.0
  0
SPLINE
  5
190
330
70
100
AcDbEntity
  8
Livello 1
100
AcDbSpline
210
0.0
220
0.0
230
1.0
 70
    24
 71
     3
 72
     8
 73
     4
 74
     0
 42
0.000000001
 43
0.0000000001
 40
0.0
 40
0.0
 40
0.0
 40
0.0
 40
1.0
 40
1.0
 40
1.0
 40
1.0
 10
372.51929397666
 20
-132.6300217102497
 30
0.0
 10
372.51929397666
 20
-132.6300217102497
 30
0.0
 10
372.4508903672941
 20
-132.6792342102374
 30
0.0
 10
372.4508903672941
 20
-132.6792342102374
 30
0.0
  0
SPLINE
  5
191
330
70
100
AcDbEntity
  8
Livello 1
100
AcDbSpline
210
0.0
220
0.0
230
1.0
 70
     8
 71
     3
 72
     8
 73
     4
 74
     0
 42
0.000000001
 43
0.0000000001
 40
1.0
 40
1.0
 40
1.0
 40
1.0
 40
2.0
 40
2.0
 40
2.0
 40
2.0
 10
372.4508903672941
 20
-132.6792342102374
 30
0.0
 10
372.2149173177587
 20
-132.8660300435239
 30
0.0
 10
371.9088850276618
 20
-133.2129517101039
 30
0.0
 10
371.7296009412513
 20
-133.4514294878222
 30
0.0
  0
SPLINE
  5
192
330
70
100
AcDbEntity
  8
Livello 1
100
AcDbSpline
210
0.0
220
0.0
230
1.0
 70
    24
 71
     3
 72
     8
 73
     4
 74
     0
 42
0.000000001
 43
0.0000000001
 40
2.0
 40
2.0
 40
2.0
 40
2.0
 40
3.0
 40
3.0
 40
3.0
 40
3.0
 10
371.7296009412513
 20
-133.4514294878222
 30
0.0
 10
371.7296009412513
 20
-133.4514294878222
 30
0.0
 10
371.6945701088117
 20
-133.5098142100295
 30
0.0
 10
371.6945701088117
 20
-133.5098142100295
 30
0.0
  0
SPLINE
  5
193
330
70
100
AcDbEntity
  8
Livello 1
100
AcDbSpline
210
0.0
220
0.0
230
1.0
 70
    24
 71
     3
 72
     8
 73
     4
 74
     0
 42
0.000000001
 43
0.0000000001
 40
3.0
 40
3.0
 40
3.0
 40
3.0
 40
4.0
 40
4.0
 40
4.0
 40
4.0
 10
371.6945701088117
 20
-133.5098142100295
 30
0.0
 10
371.6945701088117
 20
-133.5098142100295
 30
0.0
 10
371.2351123427557
 20
-134.3111489320516
 30
0.0
 10
371.2351123427557
 20
-134.3111489320516
 30
0.0
  0
SPLINE
  5
194
330
70
100
AcDbEntity
  8
Livello 1
100
AcDbSpline
210
0.0
220
0.0
230
1.0
 70
     8
 71
     3
 72
     8
 73
     4
 74
     0
 42
0.000000001
 43
0.0000000001
 40
4.0
 40
4.0
 40
4.0
 40
4.0
 40
5.0
 40
5.0
 40
5.0
 40
5.0
 10
371.2351123427557
 20
-134.3111489320516
 30
0.0
 10
367.9346999269561
 20
-140.3624872638722
 30
0.0
 10
367.9380183619875
 20
-147.6563089287151
 30
0.0
 10
371.2359590094006
 20
-153.7076825383135
 30
0.0
  0
SPLINE
  5
195
330
70
100
AcDbEntity
  8
Livello 1
100
AcDbSpline
210
0.0
220
0.0
230
1.0
 70
    24
 71
     3
 72
     8
 73
     4
 74
     0
 42
0.000000001
 43
0.0000000001
 40
5.0
 40
5.0
 40
5.0
 40
5.0
 40
6.0
 40
6.0
 40
6.0
 40
6.0
 10
371.2359590094006
 20
-153.7076825383135
 30
0.0
 10
371.2359590094006
 20
-153.7076825383135
 30
0.0
 10
371.6945701088117
 20
-154.5048544825589
 30
0.0
 10
371.6945701088117
 20
-154.5048544825589
 30
0.0
  0
SPLINE
  5
196
330
70
100
AcDbEntity
  8
Livello 1
100
AcDbSpline
210
0.0
220
0.0
230
1.0
 70
    24
 71
     3
 72
     8
 73
     4
 74
     0
 42
0.000000001
 43
0.0000000001
 40
0.0
 40
0.0
 40
0.0
 40
0.0
 40
1.0
 40
1.0
 40
1.0
 40
1.0
 10
421.316255787302
 20
-155.3836944823387
 30
0.0
 10
421.316255787302
 20
-155.3836944823387
 30
0.0
 10
421.3170671761702
 20
-155.3828830934499
 30
0.0
 10
421.3170671761702
 20
-155.3828830934499
 30
0.0
  0
SPLINE
  5
197
330
70
100
AcDbEntity
  8
Livello 1
100
AcDbSpline
210
0.0
220
0.0
230
1.0
 70
     8
 71
     3
 72
     8
 73
     4
 74
     0
 42
0.000000001
 43
0.0000000001
 40
1.0
 40
1.0
 40
1.0
 40
1.0
 40
2.0
 40
2.0
 40
2.0
 40
2.0
 10
421.3170671761702
 20
-155.3828830934499
 30
0.0
 10
421.5930805024617
 20
-155.19361781572
 30
0.0
 10
421.8023835526777
 20
-154.9184158713444
 30
0.0
 10
422.0250216025531
 20
-154.6724592047391
 30
0.0
  0
SPLINE
  5
198
330
70
100
AcDbEntity
  8
Livello 1
100
AcDbSpline
210
0.0
220
0.0
230
1.0
 70
    24
 71
     3
 72
     8
 73
     4
 74
     0
 42
0.000000001
 43
0.0000000001
 40
2.0
 40
2.0
 40
2.0
 40
2.0
 40
3.0
 40
3.0
 40
3.0
 40
3.0
 10
422.0250216025531
 20
-154.6724592047391
 30
0.0
 10
422.0250216025531
 20
-154.6724592047391
 30
0.0
 10
422.2651574297602
 20
-154.5682133714317
 30
0.0
 10
422.2651574297602
 20
-154.5682133714317
 30
0.0
  0
SPLINE
  5
199
330
70
100
AcDbEntity
  8
Livello 1
100
AcDbSpline
210
0.0
220
0.0
230
1.0
 70
    24
 71
     3
 72
     8
 73
     4
 74
     0
 42
0.000000001
 43
0.0000000001
 40
0.0
 40
0.0
 40
0.0
 40
0.0
 40
1.0
 40
1.0
 40
1.0
 40
1.0
 10
371.6946053865886
 20
-154.5047839270032
 30
0.0
 10
371.6946053865886
 20
-154.5047839270032
 30
0.0
 10
371.7296009412513
 20
-154.5615458714331
 30
0.0
 10
371.7296009412513
 20
-154.5615458714331
 30
0.0
  0
SPLINE
  5
19A
330
70
100
AcDbEntity
  8
Livello 1
100
AcDbSpline
210
0.0
220
0.0
230
1.0
 70
     8
 71
     3
 72
     8
 73
     4
 74
     0
 42
0.000000001
 43
0.0000000001
 40
1.0
 40
1.0
 40
1.0
 40
1.0
 40
2.0
 40
2.0
 40
2.0
 40
2.0
 10
371.7296009412513
 20
-154.5615458714331
 30
0.0
 10
371.9247223251622
 20
-154.8183680935914
 30
0.0
 10
372.2532642612248
 20
-155.1977805934969
 30
0.0
 10
372.5176006433699
 20
-155.3828830934499
 30
0.0
  0
SPLINE
  5
19B
330
70
100
AcDbEntity
  8
Livello 1
100
AcDbSpline
210
0.0
220
0.0
230
1.0
 70
    24
 71
     3
 72
     8
 73
     4
 74
     0
 42
0.000000001
 43
0.0000000001
 40
2.0
 40
2.0
 40
2.0
 40
2.0
 40
3.0
 40
3.0
 40
3.0
 40
3.0
 10
372.5176006433699
 20
-155.3828830934499
 30
0.0
 10
372.5176006433699
 20
-155.3828830934499
 30
0.0
 10
372.5201053655283
 20
-155.3836944823387
 30
0.0
 10
372.5201053655283
 20
-155.3836944823387
 30
0.0
  0
SPLINE
  5
19C
330
70
100
AcDbEntity
  8
Livello 1
100
AcDbSpline
210
0.0
220
0.0
230
1.0
 70
    24
 71
     3
 72
     8
 73
     4
 74
     0
 42
0.000000001
 43
0.0000000001
 40
0.0
 40
0.0
 40
0.0
 40
0.0
 40
1.0
 40
1.0
 40
1.0
 40
1.0
 10
396.9173339097697
 20
-130.5828875440949
 30
0.0
 10
396.9173339097697
 20
-130.5828875440949
 30
0.0
 10
395.9617294897048
 20
-130.5845455996498
 30
0.0
 10
395.9617294897048
 20
-130.5845455996498
 30
0.0
  0
SPLINE
  5
19D
330
70
100
AcDbEntity
  8
Livello 1
100
AcDbSpline
210
0.0
220
0.0
230
1.0
 70
     8
 71
     3
 72
     8
 73
     4
 74
     0
 42
0.000000001
 43
0.0000000001
 40
1.0
 40
1.0
 40
1.0
 40
1.0
 40
2.0
 40
2.0
 40
2.0
 40
2.0
 10
395.9617294897048
 20
-130.5845455996498
 30
0.0
 10
389.7527702036641
 20
-130.5995739329793
 30
0.0
 10
383.5446575842685
 20
-130.7680253218261
 30
0.0
 10
377.3440238535709
 20
-131.0882064328573
 30
0.0
  0
SPLINE
  5
19E
330
70
100
AcDbEntity
  8
Livello 1
100
AcDbSpline
210
0.0
220
0.0
230
1.0
 70
    24
 71
     3
 72
     8
 73
     4
 74
     0
 42
0.000000001
 43
0.0000000001
 40
2.0
 40
2.0
 40
2.0
 40
2.0
 40
3.0
 40
3.0
 40
3.0
 40
3.0
 10
377.3440238535709
 20
-131.0882064328573
 30
0.0
 10
377.3440238535709
 20
-131.0882064328573
 30
0.0
 10
375.0683955782939
 20
-131.4559772660986
 30
0.0
 10
375.0683955782939
 20
-131.4559772660986
 30
0.0
  0
SPLINE
  5
19F
330
70
100
AcDbEntity
  8
Livello 1
100
AcDbSpline
210
0.0
220
0.0
230
1.0
 70
    24
 71
     3
 72
     8
 73
     4
 74
     0
 42
0.000000001
 43
0.0000000001
 40
0.0
 40
0.0
 40
0.0
 40
0.0
 40
1.0
 40
1.0
 40
1.0
 40
1.0
 10
396.9173339097697
 20
-130.5828875440949
 30
0.0
 10
396.9173339097697
 20
-130.5828875440949
 30
0.0
 10
397.8746316631248
 20
-130.5845455996498
 30
0.0
 10
397.8746316631248
 20
-130.5845455996498
 30
0.0
  0
SPLINE
  5
1A0
330
70
100
AcDbEntity
  8
Livello 1
100
AcDbSpline
210
0.0
220
0.0
230
1.0
 70
     8
 71
     3
 72
     8
 73
     4
 74
     0
 42
0.000000001
 43
0.0000000001
 40
1.0
 40
1.0
 40
1.0
 40
1.0
 40
2.0
 40
2.0
 40
2.0
 40
2.0
 10
397.8746316631248
 20
-130.5845455996498
 30
0.0
 10
404.0835909491653
 20
-130.5995739329793
 30
0.0
 10
410.2917035685611
 20
-130.7680253218261
 30
0.0
 10
416.4914906326142
 20
-131.0882064328573
 30
0.0
  0
SPLINE
  5
1A1
330
70
100
AcDbEntity
  8
Livello 1
100
AcDbSpline
210
0.0
220
0.0
230
1.0
 70
    24
 71
     3
 72
     8
 73
     4
 74
     0
 42
0.000000001
 43
0.0000000001
 40
2.0
 40
2.0
 40
2.0
 40
2.0
 40
3.0
 40
3.0
 40
3.0
 40
3.0
 10
416.4914906326142
 20
-131.0882064328573
 30
0.0
 10
416.4914906326142
 20
-131.0882064328573
 30
0.0
 10
417.7464622672639
 20
-131.1549519883961
 30
0.0
 10
417.7464622672639
 20
-131.1549519883961
 30
0.0
  0
SPLINE
  5
1A2
330
70
100
AcDbEntity
  8
Livello 1
100
AcDbSpline
210
0.0
220
0.0
230
1.0
 70
    24
 71
     3
 72
     8
 73
     4
 74
     0
 42
0.000000001
 43
0.0000000001
 40
0.0
 40
0.0
 40
0.0
 40
0.0
 40
1.0
 40
1.0
 40
1.0
 40
1.0
 10
396.9173339097697
 20
-157.4299819818275
 30
0.0
 10
396.9173339097697
 20
-157.4299819818275
 30
0.0
 10
397.8746316631248
 20
-157.4299819818275
 30
0.0
 10
397.8746316631248
 20
-157.4299819818275
 30
0.0
  0
SPLINE
  5
1A3
330
70
100
AcDbEntity
  8
Livello 1
100
AcDbSpline
210
0.0
220
0.0
230
1.0
 70
     8
 71
     3
 72
     8
 73
     4
 74
     0
 42
0.000000001
 43
0.0000000001
 40
1.0
 40
1.0
 40
1.0
 40
1.0
 40
2.0
 40
2.0
 40
2.0
 40
2.0
 10
397.8746316631248
 20
-157.4299819818275
 30
0.0
 10
404.0835909491653
 20
-157.4141775373871
 30
0.0
 10
410.2917035685611
 20
-157.2457614263182
 30
0.0
 10
416.4914906326142
 20
-156.9263917041757
 30
0.0
  0
SPLINE
  5
1A4
330
70
100
AcDbEntity
  8
Livello 1
100
AcDbSpline
210
0.0
220
0.0
230
1.0
 70
    24
 71
     3
 72
     8
 73
     4
 74
     0
 42
0.000000001
 43
0.0000000001
 40
2.0
 40
2.0
 40
2.0
 40
2.0
 40
3.0
 40
3.0
 40
3.0
 40
3.0
 10
416.4914906326142
 20
-156.9263917041757
 30
0.0
 10
416.4914906326142
 20
-156.9263917041757
 30
0.0
 10
417.7473089339089
 20
-156.8596461486366
 30
0.0
 10
417.7473089339089
 20
-156.8596461486366
 30
0.0
  0
SPLINE
  5
1A5
330
70
100
AcDbEntity
  8
Livello 1
100
AcDbSpline
210
0.0
220
0.0
230
1.0
 70
    24
 71
     3
 72
     8
 73
     4
 74
     0
 42
0.000000001
 43
0.0000000001
 40
0.0
 40
0.0
 40
0.0
 40
0.0
 40
1.0
 40
1.0
 40
1.0
 40
1.0
 10
396.9173339097697
 20
-157.4299819818275
 30
0.0
 10
396.9173339097697
 20
-157.4299819818275
 30
0.0
 10
395.9617294897048
 20
-157.4299819818275
 30
0.0
 10
395.9617294897048
 20
-157.4299819818275
 30
0.0
  0
SPLINE
  5
1A6
330
70
100
AcDbEntity
  8
Livello 1
100
AcDbSpline
210
0.0
220
0.0
230
1.0
 70
     8
 71
     3
 72
     8
 73
     4
 74
     0
 42
0.000000001
 43
0.0000000001
 40
1.0
 40
1.0
 40
1.0
 40
1.0
 40
2.0
 40
2.0
 40
2.0
 40
2.0
 10
395.9617294897048
 20
-157.4299819818275
 30
0.0
 10
389.7527702036641
 20
-157.4141775373871
 30
0.0
 10
383.5446575842685
 20
-157.2457614263182
 30
0.0
 10
377.3440238535709
 20
-156.9263917041757
 30
0.0
  0
SPLINE
  5
1A7
330
70
100
AcDbEntity
  8
Livello 1
100
AcDbSpline
210
0.0
220
0.0
230
1.0
 70
    24
 71
     3
 72
     8
 73
     4
 74
     0
 42
0.000000001
 43
0.0000000001
 40
2.0
 40
2.0
 40
2.0
 40
2.0
 40
3.0
 40
3.0
 40
3.0
 40
3.0
 10
377.3440238535709
 20
-156.9263917041757
 30
0.0
 10
377.3440238535709
 20
-156.9263917041757
 30
0.0
 10
376.0890522189213
 20
-156.8596461486366
 30
0.0
 10
376.0890522189213
 20
-156.8596461486366
 30
0.0
  0
SPLINE
  5
1A8
330
70
100
AcDbEntity
  8
Livello 1
100
AcDbSpline
210
0.0
220
0.0
230
1.0
 70
    24
 71
     3
 72
     8
 73
     4
 74
     0
 42
0.000000001
 43
0.0000000001
 40
0.0
 40
0.0
 40
0.0
 40
0.0
 40
1.0
 40
1.0
 40
1.0
 40
1.0
 10
422.2651927075371
 20
-133.4463494878235
 30
0.0
 10
422.2651927075371
 20
-133.4463494878235
 30
0.0
 10
422.722957140303
 20
-134.2385119876254
 30
0.0
 10
422.722957140303
 20
-134.2385119876254
 30
0.0
  0
SPLINE
  5
1A9
330
70
100
AcDbEntity
  8
Livello 1
100
AcDbSpline
210
0.0
220
0.0
230
1.0
 70
     8
 71
     3
 72
     8
 73
     4
 74
     0
 42
0.000000001
 43
0.0000000001
 40
1.0
 40
1.0
 40
1.0
 40
1.0
 40
2.0
 40
2.0
 40
2.0
 40
2.0
 10
422.722957140303
 20
-134.2385119876254
 30
0.0
 10
426.0542376108705
 20
-140.3307725416576
 30
0.0
 10
426.0542376108705
 20
-147.6829789287085
 30
0.0
 10
422.722957140303
 20
-153.7751689271857
 30
0.0
  0
SPLINE
  5
1AA
330
70
100
AcDbEntity
  8
Livello 1
100
AcDbSpline
210
0.0
220
0.0
230
1.0
 70
    24
 71
     3
 72
     8
 73
     4
 74
     0
 42
0.000000001
 43
0.0000000001
 40
2.0
 40
2.0
 40
2.0
 40
2.0
 40
3.0
 40
3.0
 40
3.0
 40
3.0
 10
422.722957140303
 20
-153.7751689271857
 30
0.0
 10
422.722957140303
 20
-153.7751689271857
 30
0.0
 10
422.2651927075371
 20
-154.568142815876
 30
0.0
 10
422.2651927075371
 20
-154.568142815876
 30
0.0
  0
SPLINE
  5
1AB
330
70
100
AcDbEntity
  8
Livello 1
100
AcDbSpline
210
0.0
220
0.0
230
1.0
 70
    24
 71
     3
 72
     8
 73
     4
 74
     0
 42
0.000000001
 43
0.0000000001
 40
0.0
 40
0.0
 40
0.0
 40
0.0
 40
1.0
 40
1.0
 40
1.0
 40
1.0
 10
371.9722767683934
 20
-131.8569797659983
 30
0.0
 10
371.9722767683934
 20
-131.8569797659983
 30
0.0
 10
371.7662898292041
 20
-131.8745480993275
 30
0.0
 10
371.7662898292041
 20
-131.8745480993275
 30
0.0
  0
SPLINE
  5
1AC
330
70
100
AcDbEntity
  8
Livello 1
100
AcDbSpline
210
0.0
220
0.0
230
1.0
 70
     8
 71
     3
 72
     8
 73
     4
 74
     0
 42
0.000000001
 43
0.0000000001
 40
1.0
 40
1.0
 40
1.0
 40
1.0
 40
2.0
 40
2.0
 40
2.0
 40
2.0
 10
371.7662898292041
 20
-131.8745480993275
 30
0.0
 10
371.0233398481583
 20
-131.9612255993056
 30
0.0
 10
370.395430697511
 20
-132.0037705992951
 30
0.0
 10
370.0160182071907
 20
-132.7200505991159
 30
0.0
  0
SPLINE
  5
1AD
330
70
100
AcDbEntity
  8
Livello 1
100
AcDbSpline
210
0.0
220
0.0
230
1.0
 70
    24
 71
     3
 72
     8
 73
     4
 74
     0
 42
0.000000001
 43
0.0000000001
 40
2.0
 40
2.0
 40
2.0
 40
2.0
 40
3.0
 40
3.0
 40
3.0
 40
3.0
 10
370.0160182071907
 20
-132.7200505991159
 30
0.0
 10
370.0160182071907
 20
-132.7200505991159
 30
0.0
 10
369.9793293192377
 20
-132.7934636546534
 30
0.0
 10
369.9793293192377
 20
-132.7934636546534
 30
0.0
  0
SPLINE
  5
1AE
330
70
100
AcDbEntity
  8
Livello 1
100
AcDbSpline
210
0.0
220
0.0
230
1.0
 70
    24
 71
     3
 72
     8
 73
     4
 74
     0
 42
0.000000001
 43
0.0000000001
 40
0.0
 40
0.0
 40
0.0
 40
0.0
 40
1.0
 40
1.0
 40
1.0
 40
1.0
 10
369.9801759858828
 20
-132.7933930990977
 30
0.0
 10
369.9801759858828
 20
-132.7933930990977
 30
0.0
 10
369.3064057252943
 20
-132.6825150435698
 30
0.0
 10
369.3064057252943
 20
-132.6825150435698
 30
0.0
  0
SPLINE
  5
1AF
330
70
100
AcDbEntity
  8
Livello 1
100
AcDbSpline
210
0.0
220
0.0
230
1.0
 70
     8
 71
     3
 72
     8
 73
     4
 74
     0
 42
0.000000001
 43
0.0000000001
 40
1.0
 40
1.0
 40
1.0
 40
1.0
 40
2.0
 40
2.0
 40
2.0
 40
2.0
 10
369.3064057252943
 20
-132.6825150435698
 30
0.0
 10
368.407492692672
 20
-132.5224244880542
 30
0.0
 10
365.5765239181335
 20
-132.0212683770686
 30
0.0
 10
365.1220733320455
 20
-131.0440033773129
 30
0.0
  0
SPLINE
  5
1B0
330
70
100
AcDbEntity
  8
Livello 1
100
AcDbSpline
210
0.0
220
0.0
230
1.0
 70
    24
 71
     3
 72
     8
 73
     4
 74
     0
 42
0.000000001
 43
0.0000000001
 40
2.0
 40
2.0
 40
2.0
 40
2.0
 40
3.0
 40
3.0
 40
3.0
 40
3.0
 10
365.1220733320455
 20
-131.0440033773129
 30
0.0
 10
365.1220733320455
 20
-131.0440033773129
 30
0.0
 10
365.0953680549491
 20
-130.9755997662188
 30
0.0
 10
365.0953680549491
 20
-130.9755997662188
 30
0.0
  0
SPLINE
  5
1B1
330
70
100
AcDbEntity
  8
Livello 1
100
AcDbSpline
210
0.0
220
0.0
230
1.0
 70
    24
 71
     3
 72
     8
 73
     4
 74
     0
 42
0.000000001
 43
0.0000000001
 40
0.0
 40
0.0
 40
0.0
 40
0.0
 40
1.0
 40
1.0
 40
1.0
 40
1.0
 10
365.0945566660809
 20
-130.9755997662188
 30
0.0
 10
365.0945566660809
 20
-130.9755997662188
 30
0.0
 10
365.1987672189778
 20
-130.8188253218135
 30
0.0
 10
365.1987672189778
 20
-130.8188253218135
 30
0.0
  0
SPLINE
  5
1B2
330
70
100
AcDbEntity
  8
Livello 1
100
AcDbSpline
210
0.0
220
0.0
230
1.0
 70
     8
 71
     3
 72
     8
 73
     4
 74
     0
 42
0.000000001
 43
0.0000000001
 40
1.0
 40
1.0
 40
1.0
 40
1.0
 40
2.0
 40
2.0
 40
2.0
 40
2.0
 10
365.1987672189778
 20
-130.8188253218135
 30
0.0
 10
365.5631866541252
 20
-130.3202092108272
 30
0.0
 10
366.1293596952364
 20
-129.9725114331364
 30
0.0
 10
366.7414291240657
 20
-129.8841053220473
 30
0.0
  0
SPLINE
  5
1B3
330
70
100
AcDbEntity
  8
Livello 1
100
AcDbSpline
210
0.0
220
0.0
230
1.0
 70
    24
 71
     3
 72
     8
 73
     4
 74
     0
 42
0.000000001
 43
0.0000000001
 40
2.0
 40
2.0
 40
2.0
 40
2.0
 40
3.0
 40
3.0
 40
3.0
 40
3.0
 10
366.7414291240657
 20
-129.8841053220473
 30
0.0
 10
366.7414291240657
 20
-129.8841053220473
 30
0.0
 10
366.9273782859884
 20
-129.8649142109409
 30
0.0
 10
366.9273782859884
 20
-129.8649142109409
 30
0.0
  0
SPLINE
  5
1B4
330
70
100
AcDbEntity
  8
Livello 1
100
AcDbSpline
210
0.0
220
0.0
230
1.0
 70
    24
 71
     3
 72
     8
 73
     4
 74
     0
 42
0.000000001
 43
0.0000000001
 40
0.0
 40
0.0
 40
0.0
 40
0.0
 40
1.0
 40
1.0
 40
1.0
 40
1.0
 10
428.7418044867493
 20
-130.9755997662188
 30
0.0
 10
428.7418044867493
 20
-130.9755997662188
 30
0.0
 10
428.6367472672074
 20
-130.8188253218135
 30
0.0
 10
428.6367472672074
 20
-130.8188253218135
 30
0.0
  0
SPLINE
  5
1B5
330
70
100
AcDbEntity
  8
Livello 1
100
AcDbSpline
210
0.0
220
0.0
230
1.0
 70
     8
 71
     3
 72
     8
 73
     4
 74
     0
 42
0.000000001
 43
0.0000000001
 40
1.0
 40
1.0
 40
1.0
 40
1.0
 40
2.0
 40
2.0
 40
2.0
 40
2.0
 10
428.6367472672074
 20
-130.8188253218135
 30
0.0
 10
428.2731744987051
 20
-130.3202092108272
 30
0.0
 10
427.7061547909488
 20
-129.9733228220248
 30
0.0
 10
427.0949320287646
 20
-129.8841053220473
 30
0.0
  0
SPLINE
  5
1B6
330
70
100
AcDbEntity
  8
Livello 1
100
AcDbSpline
210
0.0
220
0.0
230
1.0
 70
    24
 71
     3
 72
     8
 73
     4
 74
     0
 42
0.000000001
 43
0.0000000001
 40
2.0
 40
2.0
 40
2.0
 40
2.0
 40
3.0
 40
3.0
 40
3.0
 40
3.0
 10
427.0949320287646
 20
-129.8841053220473
 30
0.0
 10
427.0949320287646
 20
-129.8841053220473
 30
0.0
 10
426.9081362001968
 20
-129.8649142109409
 30
0.0
 10
426.9081362001968
 20
-129.8649142109409
 30
0.0
  0
SPLINE
  5
1B7
330
70
100
AcDbEntity
  8
Livello 1
100
AcDbSpline
210
0.0
220
0.0
230
1.0
 70
    24
 71
     3
 72
     8
 73
     4
 74
     0
 42
0.000000001
 43
0.0000000001
 40
0.0
 40
0.0
 40
0.0
 40
0.0
 40
1.0
 40
1.0
 40
1.0
 40
1.0
 10
423.8561851669474
 20
-132.7933930990977
 30
0.0
 10
423.8561851669474
 20
-132.7933930990977
 30
0.0
 10
424.5299554275359
 20
-132.6825150435698
 30
0.0
 10
424.5299554275359
 20
-132.6825150435698
 30
0.0
  0
SPLINE
  5
1B8
330
70
100
AcDbEntity
  8
Livello 1
100
AcDbSpline
210
0.0
220
0.0
230
1.0
 70
     8
 71
     3
 72
     8
 73
     4
 74
     0
 42
0.000000001
 43
0.0000000001
 40
1.0
 40
1.0
 40
1.0
 40
1.0
 40
2.0
 40
2.0
 40
2.0
 40
2.0
 10
424.5299554275359
 20
-132.6825150435698
 30
0.0
 10
425.4296798490265
 20
-132.521577821388
 30
0.0
 10
428.2589928324003
 20
-132.0212683770686
 30
0.0
 10
428.7142878207848
 20
-131.0440033773129
 30
0.0
  0
SPLINE
  5
1B9
330
70
100
AcDbEntity
  8
Livello 1
100
AcDbSpline
210
0.0
220
0.0
230
1.0
 70
    24
 71
     3
 72
     8
 73
     4
 74
     0
 42
0.000000001
 43
0.0000000001
 40
2.0
 40
2.0
 40
2.0
 40
2.0
 40
3.0
 40
3.0
 40
3.0
 40
3.0
 10
428.7142878207848
 20
-131.0440033773129
 30
0.0
 10
428.7142878207848
 20
-131.0440033773129
 30
0.0
 10
428.7409578201041
 20
-130.9755997662188
 30
0.0
 10
428.7409578201041
 20
-130.9755997662188
 30
0.0
  0
SPLINE
  5
1BA
330
70
100
AcDbEntity
  8
Livello 1
100
AcDbSpline
210
0.0
220
0.0
230
1.0
 70
    24
 71
     3
 72
     8
 73
     4
 74
     0
 42
0.000000001
 43
0.0000000001
 40
0.0
 40
0.0
 40
0.0
 40
0.0
 40
1.0
 40
1.0
 40
1.0
 40
1.0
 10
421.8640843844368
 20
-131.8569797659983
 30
0.0
 10
421.8640843844368
 20
-131.8569797659983
 30
0.0
 10
422.0683779903359
 20
-131.8745480993275
 30
0.0
 10
422.0683779903359
 20
-131.8745480993275
 30
0.0
  0
SPLINE
  5
1BB
330
70
100
AcDbEntity
  8
Livello 1
100
AcDbSpline
210
0.0
220
0.0
230
1.0
 70
     8
 71
     3
 72
     8
 73
     4
 74
     0
 42
0.000000001
 43
0.0000000001
 40
1.0
 40
1.0
 40
1.0
 40
1.0
 40
2.0
 40
2.0
 40
2.0
 40
2.0
 10
422.0683779903359
 20
-131.8745480993275
 30
0.0
 10
422.8088585270002
 20
-131.9612255993056
 30
0.0
 10
423.4417771219643
 20
-132.0045819881838
 30
0.0
 10
423.8194962789946
 20
-132.7200505991159
 30
0.0
  0
SPLINE
  5
1BC
330
70
100
AcDbEntity
  8
Livello 1
100
AcDbSpline
210
0.0
220
0.0
230
1.0
 70
    24
 71
     3
 72
     8
 73
     4
 74
     0
 42
0.000000001
 43
0.0000000001
 40
2.0
 40
2.0
 40
2.0
 40
2.0
 40
3.0
 40
3.0
 40
3.0
 40
3.0
 10
423.8194962789946
 20
-132.7200505991159
 30
0.0
 10
423.8194962789946
 20
-132.7200505991159
 30
0.0
 10
423.8570318335925
 20
-132.7934636546534
 30
0.0
 10
423.8570318335925
 20
-132.7934636546534
 30
0.0
  0
SPLINE
  5
1BD
330
70
100
AcDbEntity
  8
Livello 1
100
AcDbSpline
210
0.0
220
0.0
230
1.0
 70
    24
 71
     3
 72
     8
 73
     4
 74
     0
 42
0.000000001
 43
0.0000000001
 40
0.0
 40
0.0
 40
0.0
 40
0.0
 40
1.0
 40
1.0
 40
1.0
 40
1.0
 10
369.9801759858828
 20
-155.219405871269
 30
0.0
 10
369.9801759858828
 20
-155.219405871269
 30
0.0
 10
370.0168648738357
 20
-155.2944769823611
 30
0.0
 10
370.0168648738357
 20
-155.2944769823611
 30
0.0
  0
SPLINE
  5
1BE
330
70
100
AcDbEntity
  8
Livello 1
100
AcDbSpline
210
0.0
220
0.0
230
1.0
 70
     8
 71
     3
 72
     8
 73
     4
 74
     0
 42
0.000000001
 43
0.0000000001
 40
1.0
 40
1.0
 40
1.0
 40
1.0
 40
2.0
 40
2.0
 40
2.0
 40
2.0
 10
370.0168648738357
 20
-155.2944769823611
 30
0.0
 10
370.3921145864845
 20
-156.0074055932938
 30
0.0
 10
371.0316654035015
 20
-156.0558067043932
 30
0.0
 10
371.7687945513624
 20
-156.1392033710389
 30
0.0
  0
SPLINE
  5
1BF
330
70
100
AcDbEntity
  8
Livello 1
100
AcDbSpline
210
0.0
220
0.0
230
1.0
 70
    24
 71
     3
 72
     8
 73
     4
 74
     0
 42
0.000000001
 43
0.0000000001
 40
2.0
 40
2.0
 40
2.0
 40
2.0
 40
3.0
 40
3.0
 40
3.0
 40
3.0
 10
371.7687945513624
 20
-156.1392033710389
 30
0.0
 10
371.7687945513624
 20
-156.1392033710389
 30
0.0
 10
371.9731234350385
 20
-156.1575125377012
 30
0.0
 10
371.9731234350385
 20
-156.1575125377012
 30
0.0
  0
SPLINE
  5
1C0
330
70
100
AcDbEntity
  8
Livello 1
100
AcDbSpline
210
0.0
220
0.0
230
1.0
 70
    24
 71
     3
 72
     8
 73
     4
 74
     0
 42
0.000000001
 43
0.0000000001
 40
0.0
 40
0.0
 40
0.0
 40
0.0
 40
1.0
 40
1.0
 40
1.0
 40
1.0
 10
365.0945566660809
 20
-157.0389278152585
 30
0.0
 10
365.0945566660809
 20
-157.0389278152585
 30
0.0
 10
365.1988024967547
 20
-157.1940442041089
 30
0.0
 10
365.1988024967547
 20
-157.1940442041089
 30
0.0
  0
SPLINE
  5
1C1
330
70
100
AcDbEntity
  8
Livello 1
100
AcDbSpline
210
0.0
220
0.0
230
1.0
 70
     8
 71
     3
 72
     8
 73
     4
 74
     0
 42
0.000000001
 43
0.0000000001
 40
1.0
 40
1.0
 40
1.0
 40
1.0
 40
2.0
 40
2.0
 40
2.0
 40
2.0
 10
365.1988024967547
 20
-157.1940442041089
 30
0.0
 10
365.5640333207702
 20
-157.6926955928727
 30
0.0
 10
366.1277016397232
 20
-158.0420514261191
 30
0.0
 10
366.7414291240657
 20
-158.1287642038748
 30
0.0
  0
SPLINE
  5
1C2
330
70
100
AcDbEntity
  8
Livello 1
100
AcDbSpline
210
0.0
220
0.0
230
1.0
 70
    24
 71
     3
 72
     8
 73
     4
 74
     0
 42
0.000000001
 43
0.0000000001
 40
2.0
 40
2.0
 40
2.0
 40
2.0
 40
3.0
 40
3.0
 40
3.0
 40
3.0
 10
366.7414291240657
 20
-158.1287642038748
 30
0.0
 10
366.7414291240657
 20
-158.1287642038748
 30
0.0
 10
366.9273782859884
 20
-158.1496486483145
 30
0.0
 10
366.9273782859884
 20
-158.1496486483145
 30
0.0
  0
SPLINE
  5
1C3
330
70
100
AcDbEntity
  8
Livello 1
100
AcDbSpline
210
0.0
220
0.0
230
1.0
 70
    24
 71
     3
 72
     8
 73
     4
 74
     0
 42
0.000000001
 43
0.0000000001
 40
0.0
 40
0.0
 40
0.0
 40
0.0
 40
1.0
 40
1.0
 40
1.0
 40
1.0
 10
369.9801759858828
 20
-155.219405871269
 30
0.0
 10
369.9801759858828
 20
-155.219405871269
 30
0.0
 10
369.3064057252943
 20
-155.3303544823519
 30
0.0
 10
369.3064057252943
 20
-155.3303544823519
 30
0.0
  0
SPLINE
  5
1C4
330
70
100
AcDbEntity
  8
Livello 1
100
AcDbSpline
210
0.0
220
0.0
230
1.0
 70
     8
 71
     3
 72
     8
 73
     4
 74
     0
 42
0.000000001
 43
0.0000000001
 40
1.0
 40
1.0
 40
1.0
 40
1.0
 40
2.0
 40
2.0
 40
2.0
 40
2.0
 10
369.3064057252943
 20
-155.3303544823519
 30
0.0
 10
368.407492692672
 20
-155.4937964267559
 30
0.0
 10
365.5756749871398
 20
-155.9907897599647
 30
0.0
 10
365.1220733320455
 20
-156.9705594819426
 30
0.0
  0
SPLINE
  5
1C5
330
70
100
AcDbEntity
  8
Livello 1
100
AcDbSpline
210
0.0
220
0.0
230
1.0
 70
    24
 71
     3
 72
     8
 73
     4
 74
     0
 42
0.000000001
 43
0.0000000001
 40
2.0
 40
2.0
 40
2.0
 40
2.0
 40
3.0
 40
3.0
 40
3.0
 40
3.0
 10
365.1220733320455
 20
-156.9705594819426
 30
0.0
 10
365.1220733320455
 20
-156.9705594819426
 30
0.0
 10
365.095403332726
 20
-157.0389278152585
 30
0.0
 10
365.095403332726
 20
-157.0389278152585
 30
0.0
  0
SPLINE
  5
1C6
330
70
100
AcDbEntity
  8
Livello 1
100
AcDbSpline
210
0.0
220
0.0
230
1.0
 70
    24
 71
     3
 72
     8
 73
     4
 74
     0
 42
0.000000001
 43
0.0000000001
 40
0.0
 40
0.0
 40
0.0
 40
0.0
 40
1.0
 40
1.0
 40
1.0
 40
1.0
 10
428.7418044867493
 20
-157.0389278152585
 30
0.0
 10
428.7418044867493
 20
-157.0389278152585
 30
0.0
 10
428.6367472672074
 20
-157.1940442041089
 30
0.0
 10
428.6367472672074
 20
-157.1940442041089
 30
0.0
  0
SPLINE
  5
1C7
330
70
100
AcDbEntity
  8
Livello 1
100
AcDbSpline
210
0.0
220
0.0
230
1.0
 70
     8
 71
     3
 72
     8
 73
     4
 74
     0
 42
0.000000001
 43
0.0000000001
 40
1.0
 40
1.0
 40
1.0
 40
1.0
 40
2.0
 40
2.0
 40
2.0
 40
2.0
 10
428.6367472672074
 20
-157.1940442041089
 30
0.0
 10
428.2740211653502
 20
-157.6926955928727
 30
0.0
 10
427.706966179817
 20
-158.0429333705629
 30
0.0
 10
427.0949320287646
 20
-158.1287642038748
 30
0.0
  0
SPLINE
  5
1C8
330
70
100
AcDbEntity
  8
Livello 1
100
AcDbSpline
210
0.0
220
0.0
230
1.0
 70
    24
 71
     3
 72
     8
 73
     4
 74
     0
 42
0.000000001
 43
0.0000000001
 40
2.0
 40
2.0
 40
2.0
 40
2.0
 40
3.0
 40
3.0
 40
3.0
 40
3.0
 10
427.0949320287646
 20
-158.1287642038748
 30
0.0
 10
427.0949320287646
 20
-158.1287642038748
 30
0.0
 10
426.9081362001968
 20
-158.1496486483145
 30
0.0
 10
426.9081362001968
 20
-158.1496486483145
 30
0.0
  0
SPLINE
  5
1C9
330
70
100
AcDbEntity
  8
Livello 1
100
AcDbSpline
210
0.0
220
0.0
230
1.0
 70
    24
 71
     3
 72
     8
 73
     4
 74
     0
 42
0.000000001
 43
0.0000000001
 40
0.0
 40
0.0
 40
0.0
 40
0.0
 40
1.0
 40
1.0
 40
1.0
 40
1.0
 10
423.8553737780793
 20
-155.219405871269
 30
0.0
 10
423.8553737780793
 20
-155.219405871269
 30
0.0
 10
423.8194962789946
 20
-155.2944769823611
 30
0.0
 10
423.8194962789946
 20
-155.2944769823611
 30
0.0
  0
SPLINE
  5
1CA
330
70
100
AcDbEntity
  8
Livello 1
100
AcDbSpline
210
0.0
220
0.0
230
1.0
 70
     8
 71
     3
 72
     8
 73
     4
 74
     0
 42
0.000000001
 43
0.0000000001
 40
1.0
 40
1.0
 40
1.0
 40
1.0
 40
2.0
 40
2.0
 40
2.0
 40
2.0
 10
423.8194962789946
 20
-155.2944769823611
 30
0.0
 10
423.4409304553192
 20
-156.0074055932938
 30
0.0
 10
422.8080155704923
 20
-156.0549600377263
 30
0.0
 10
422.0675666014678
 20
-156.1392033710389
 30
0.0
  0
SPLINE
  5
1CB
330
70
100
AcDbEntity
  8
Livello 1
100
AcDbSpline
210
0.0
220
0.0
230
1.0
 70
    24
 71
     3
 72
     8
 73
     4
 74
     0
 42
0.000000001
 43
0.0000000001
 40
2.0
 40
2.0
 40
2.0
 40
2.0
 40
3.0
 40
3.0
 40
3.0
 40
3.0
 10
422.0675666014678
 20
-156.1392033710389
 30
0.0
 10
422.0675666014678
 20
-156.1392033710389
 30
0.0
 10
421.8624263289235
 20
-156.1575125377012
 30
0.0
 10
421.8624263289235
 20
-156.1575125377012
 30
0.0
  0
SPLINE
  5
1CC
330
70
100
AcDbEntity
  8
Livello 1
100
AcDbSpline
210
0.0
220
0.0
230
1.0
 70
    24
 71
     3
 72
     8
 73
     4
 74
     0
 42
0.000000001
 43
0.0000000001
 40
0.0
 40
0.0
 40
0.0
 40
0.0
 40
1.0
 40
1.0
 40
1.0
 40
1.0
 10
423.8562204447243
 20
-155.219405871269
 30
0.0
 10
423.8562204447243
 20
-155.219405871269
 30
0.0
 10
424.5299554275359
 20
-155.3303544823519
 30
0.0
 10
424.5299554275359
 20
-155.3303544823519
 30
0.0
  0
SPLINE
  5
1CD
330
70
100
AcDbEntity
  8
Livello 1
100
AcDbSpline
210
0.0
220
0.0
230
1.0
 70
     8
 71
     3
 72
     8
 73
     4
 74
     0
 42
0.000000001
 43
0.0000000001
 40
1.0
 40
1.0
 40
1.0
 40
1.0
 40
2.0
 40
2.0
 40
2.0
 40
2.0
 10
424.5299554275359
 20
-155.3303544823519
 30
0.0
 10
425.4297151268032
 20
-155.4937964267559
 30
0.0
 10
428.2598433469076
 20
-155.9907897599647
 30
0.0
 10
428.7142878207848
 20
-156.9705594819426
 30
0.0
  0
SPLINE
  5
1CE
330
70
100
AcDbEntity
  8
Livello 1
100
AcDbSpline
210
0.0
220
0.0
230
1.0
 70
    24
 71
     3
 72
     8
 73
     4
 74
     0
 42
0.000000001
 43
0.0000000001
 40
2.0
 40
2.0
 40
2.0
 40
2.0
 40
3.0
 40
3.0
 40
3.0
 40
3.0
 10
428.7142878207848
 20
-156.9705594819426
 30
0.0
 10
428.7142878207848
 20
-156.9705594819426
 30
0.0
 10
428.740993097881
 20
-157.0389278152585
 30
0.0
 10
428.740993097881
 20
-157.0389278152585
 30
0.0
  0
SPLINE
  5
1CF
330
70
100
AcDbEntity
  8
Livello 1
100
AcDbSpline
210
0.0
220
0.0
230
1.0
 70
    24
 71
     3
 72
     8
 73
     4
 74
     0
 42
0.000000001
 43
0.0000000001
 40
0.0
 40
0.0
 40
0.0
 40
0.0
 40
1.0
 40
1.0
 40
1.0
 40
1.0
 10
366.9073757864987
 20
-144.0063994851832
 30
0.0
 10
366.9073757864987
 20
-144.0063994851832
 30
0.0
 10
366.9298830081467
 20
-144.9920605960485
 30
0.0
 10
366.9298830081467
 20
-144.9920605960485
 30
0.0
  0
SPLINE
  5
1D0
330
70
100
AcDbEntity
  8
Livello 1
100
AcDbSpline
210
0.0
220
0.0
230
1.0
 70
     8
 71
     3
 72
     8
 73
     4
 74
     0
 42
0.000000001
 43
0.0000000001
 40
1.0
 40
1.0
 40
1.0
 40
1.0
 40
2.0
 40
2.0
 40
2.0
 40
2.0
 10
366.9298830081467
 20
-144.9920605960485
 30
0.0
 10
367.0708177267734
 20
-148.2574775396763
 30
0.0
 10
367.9614052040526
 20
-151.4870169833133
 30
0.0
 10
369.5015294727079
 20
-154.3697053159256
 30
0.0
  0
SPLINE
  5
1D1
330
70
100
AcDbEntity
  8
Livello 1
100
AcDbSpline
210
0.0
220
0.0
230
1.0
 70
    24
 71
     3
 72
     8
 73
     4
 74
     0
 42
0.000000001
 43
0.0000000001
 40
2.0
 40
2.0
 40
2.0
 40
2.0
 40
3.0
 40
3.0
 40
3.0
 40
3.0
 10
369.5015294727079
 20
-154.3697053159256
 30
0.0
 10
369.5015294727079
 20
-154.3697053159256
 30
0.0
 10
369.9801759858828
 20
-155.219405871269
 30
0.0
 10
369.9801759858828
 20
-155.219405871269
 30
0.0
  0
SPLINE
  5
1D2
330
70
100
AcDbEntity
  8
Livello 1
100
AcDbSpline
210
0.0
220
0.0
230
1.0
 70
    24
 71
     3
 72
     8
 73
     4
 74
     0
 42
0.000000001
 43
0.0000000001
 40
0.0
 40
0.0
 40
0.0
 40
0.0
 40
1.0
 40
1.0
 40
1.0
 40
1.0
 10
426.9289853663314
 20
-144.0063994851832
 30
0.0
 10
426.9289853663314
 20
-144.0063994851832
 30
0.0
 10
426.9073248113286
 20
-144.9920605960485
 30
0.0
 10
426.9073248113286
 20
-144.9920605960485
 30
0.0
  0
SPLINE
  5
1D3
330
70
100
AcDbEntity
  8
Livello 1
100
AcDbSpline
210
0.0
220
0.0
230
1.0
 70
     8
 71
     3
 72
     8
 73
     4
 74
     0
 42
0.000000001
 43
0.0000000001
 40
1.0
 40
1.0
 40
1.0
 40
1.0
 40
2.0
 40
2.0
 40
2.0
 40
2.0
 10
426.9073248113286
 20
-144.9920605960485
 30
0.0
 10
426.7647320371887
 20
-148.2583242063425
 30
0.0
 10
425.8741445599095
 20
-151.4870169833133
 30
0.0
 10
424.3348377923332
 20
-154.3697053159256
 30
0.0
  0
SPLINE
  5
1D4
330
70
100
AcDbEntity
  8
Livello 1
100
AcDbSpline
210
0.0
220
0.0
230
1.0
 70
    24
 71
     3
 72
     8
 73
     4
 74
     0
 42
0.000000001
 43
0.0000000001
 40
2.0
 40
2.0
 40
2.0
 40
2.0
 40
3.0
 40
3.0
 40
3.0
 40
3.0
 10
424.3348377923332
 20
-154.3697053159256
 30
0.0
 10
424.3348377923332
 20
-154.3697053159256
 30
0.0
 10
423.8553737780793
 20
-155.219405871269
 30
0.0
 10
423.8553737780793
 20
-155.219405871269
 30
0.0
  0
SPLINE
  5
1D5
330
70
100
AcDbEntity
  8
Livello 1
100
AcDbSpline
210
0.0
220
0.0
230
1.0
 70
    24
 71
     3
 72
     8
 73
     4
 74
     0
 42
0.000000001
 43
0.0000000001
 40
0.0
 40
0.0
 40
0.0
 40
0.0
 40
1.0
 40
1.0
 40
1.0
 40
1.0
 10
369.9801759858828
 20
-132.7933930990977
 30
0.0
 10
369.9801759858828
 20
-132.7933930990977
 30
0.0
 10
369.5015294727079
 20
-133.6439755988851
 30
0.0
 10
369.5015294727079
 20
-133.6439755988851
 30
0.0
  0
SPLINE
  5
1D6
330
70
100
AcDbEntity
  8
Livello 1
100
AcDbSpline
210
0.0
220
0.0
230
1.0
 70
     8
 71
     3
 72
     8
 73
     4
 74
     0
 42
0.000000001
 43
0.0000000001
 40
1.0
 40
1.0
 40
1.0
 40
1.0
 40
2.0
 40
2.0
 40
2.0
 40
2.0
 10
369.5015294727079
 20
-133.6439755988851
 30
0.0
 10
367.9622165929208
 20
-136.5249705981647
 30
0.0
 10
367.0699710601283
 20
-139.7587080973564
 30
0.0
 10
366.9298830081467
 20
-143.0232783743179
 30
0.0
  0
SPLINE
  5
1D7
330
70
100
AcDbEntity
  8
Livello 1
100
AcDbSpline
210
0.0
220
0.0
230
1.0
 70
    24
 71
     3
 72
     8
 73
     4
 74
     0
 42
0.000000001
 43
0.0000000001
 40
2.0
 40
2.0
 40
2.0
 40
2.0
 40
3.0
 40
3.0
 40
3.0
 40
3.0
 10
366.9298830081467
 20
-143.0232783743179
 30
0.0
 10
366.9298830081467
 20
-143.0232783743179
 30
0.0
 10
366.9073757864987
 20
-144.0063994851832
 30
0.0
 10
366.9073757864987
 20
-144.0063994851832
 30
0.0
  0
SPLINE
  5
1D8
330
70
100
AcDbEntity
  8
Livello 1
100
AcDbSpline
210
0.0
220
0.0
230
1.0
 70
    24
 71
     3
 72
     8
 73
     4
 74
     0
 42
0.000000001
 43
0.0000000001
 40
0.0
 40
0.0
 40
0.0
 40
0.0
 40
1.0
 40
1.0
 40
1.0
 40
1.0
 10
423.8562204447243
 20
-132.7933930990977
 30
0.0
 10
423.8562204447243
 20
-132.7933930990977
 30
0.0
 10
424.3340226547568
 20
-133.6439755988851
 30
0.0
 10
424.3340226547568
 20
-133.6439755988851
 30
0.0
  0
SPLINE
  5
1D9
330
70
100
AcDbEntity
  8
Livello 1
100
AcDbSpline
210
0.0
220
0.0
230
1.0
 70
     8
 71
     3
 72
     8
 73
     4
 74
     0
 42
0.000000001
 43
0.0000000001
 40
1.0
 40
1.0
 40
1.0
 40
1.0
 40
2.0
 40
2.0
 40
2.0
 40
2.0
 10
424.3340226547568
 20
-133.6439755988851
 30
0.0
 10
425.8716398377512
 20
-136.5191144870551
 30
0.0
 10
426.767240569503
 20
-139.7653755973547
 30
0.0
 10
426.9064781446836
 20
-143.0232783743179
 30
0.0
  0
SPLINE
  5
1DA
330
70
100
AcDbEntity
  8
Livello 1
100
AcDbSpline
210
0.0
220
0.0
230
1.0
 70
    24
 71
     3
 72
     8
 73
     4
 74
     0
 42
0.000000001
 43
0.0000000001
 40
2.0
 40
2.0
 40
2.0
 40
2.0
 40
3.0
 40
3.0
 40
3.0
 40
3.0
 10
426.9064781446836
 20
-143.0232783743179
 30
0.0
 10
426.9064781446836
 20
-143.0232783743179
 30
0.0
 10
426.9289853663314
 20
-144.0063994851832
 30
0.0
 10
426.9289853663314
 20
-144.0063994851832
 30
0.0
  0
SPLINE
  5
1DB
330
70
100
AcDbEntity
  8
Livello 1
100
AcDbSpline
210
0.0
220
0.0
230
1.0
 70
    24
 71
     3
 72
     8
 73
     4
 74
     0
 42
0.000000001
 43
0.0000000001
 40
0.0
 40
0.0
 40
0.0
 40
0.0
 40
1.0
 40
1.0
 40
1.0
 40
1.0
 10
365.0945566660809
 20
-130.9755997662188
 30
0.0
 10
365.0945566660809
 20
-130.9755997662188
 30
0.0
 10
364.5000202923599
 20
-131.9887422659656
 30
0.0
 10
364.5000202923599
 20
-131.9887422659656
 30
0.0
  0
SPLINE
  5
1DC
330
70
100
AcDbEntity
  8
Livello 1
100
AcDbSpline
210
0.0
220
0.0
230
1.0
 70
     8
 71
     3
 72
     8
 73
     4
 74
     0
 42
0.000000001
 43
0.0000000001
 40
1.0
 40
1.0
 40
1.0
 40
1.0
 40
2.0
 40
2.0
 40
2.0
 40
2.0
 10
364.5000202923599
 20
-131.9887422659656
 30
0.0
 10
360.3164992879793
 20
-139.5185722640831
 30
0.0
 10
360.3482140093924
 20
-148.6719208729056
 30
0.0
 10
364.5825702902538
 20
-156.175010315474
 30
0.0
  0
SPLINE
  5
1DD
330
70
100
AcDbEntity
  8
Livello 1
100
AcDbSpline
210
0.0
220
0.0
230
1.0
 70
    24
 71
     3
 72
     8
 73
     4
 74
     0
 42
0.000000001
 43
0.0000000001
 40
2.0
 40
2.0
 40
2.0
 40
2.0
 40
3.0
 40
3.0
 40
3.0
 40
3.0
 10
364.5825702902538
 20
-156.175010315474
 30
0.0
 10
364.5825702902538
 20
-156.175010315474
 30
0.0
 10
365.0945566660809
 20
-157.0389278152585
 30
0.0
 10
365.0945566660809
 20
-157.0389278152585
 30
0.0
  0
SPLINE
  5
1DE
330
70
100
AcDbEntity
  8
Livello 1
100
AcDbSpline
210
0.0
220
0.0
230
1.0
 70
    24
 71
     3
 72
     8
 73
     4
 74
     0
 42
0.000000001
 43
0.0000000001
 40
0.0
 40
0.0
 40
0.0
 40
0.0
 40
1.0
 40
1.0
 40
1.0
 40
1.0
 10
428.7418397645263
 20
-130.9755997662188
 30
0.0
 10
428.7418397645263
 20
-130.9755997662188
 30
0.0
 10
429.3363761382471
 20
-131.9887422659656
 30
0.0
 10
429.3363761382471
 20
-131.9887422659656
 30
0.0
  0
SPLINE
  5
1DF
330
70
100
AcDbEntity
  8
Livello 1
100
AcDbSpline
210
0.0
220
0.0
230
1.0
 70
     8
 71
     3
 72
     8
 73
     4
 74
     0
 42
0.000000001
 43
0.0000000001
 40
1.0
 40
1.0
 40
1.0
 40
1.0
 40
2.0
 40
2.0
 40
2.0
 40
2.0
 10
429.3363761382471
 20
-131.9887422659656
 30
0.0
 10
433.519861864851
 20
-139.5127161529735
 30
0.0
 10
433.4873710323464
 20
-148.6777064284598
 30
0.0
 10
429.2529794737082
 20
-156.175010315474
 30
0.0
  0
SPLINE
  5
1E0
330
70
100
AcDbEntity
  8
Livello 1
100
AcDbSpline
210
0.0
220
0.0
230
1.0
 70
    24
 71
     3
 72
     8
 73
     4
 74
     0
 42
0.000000001
 43
0.0000000001
 40
2.0
 40
2.0
 40
2.0
 40
2.0
 40
3.0
 40
3.0
 40
3.0
 40
3.0
 10
429.2529794737082
 20
-156.175010315474
 30
0.0
 10
429.2529794737082
 20
-156.175010315474
 30
0.0
 10
428.7418397645263
 20
-157.0389278152585
 30
0.0
 10
428.7418397645263
 20
-157.0389278152585
 30
0.0
  0
SPLINE
  5
1E1
330
70
100
AcDbEntity
  8
Livello 1
100
AcDbSpline
210
0.0
220
0.0
230
1.0
 70
    24
 71
     3
 72
     8
 73
     4
 74
     0
 42
0.000000001
 43
0.0000000001
 40
0.0
 40
0.0
 40
0.0
 40
0.0
 40
1.0
 40
1.0
 40
1.0
 40
1.0
 10
373.2581164578111
 20
-132.4606883769585
 30
0.0
 10
373.2581164578111
 20
-132.4606883769585
 30
0.0
 10
373.2205809032132
 20
-132.4798794880648
 30
0.0
 10
373.2205809032132
 20
-132.4798794880648
 30
0.0
  0
SPLINE
  5
1E2
330
70
100
AcDbEntity
  8
Livello 1
100
AcDbSpline
210
0.0
220
0.0
230
1.0
 70
     8
 71
     3
 72
     8
 73
     4
 74
     0
 42
0.000000001
 43
0.0000000001
 40
1.0
 40
1.0
 40
1.0
 40
1.0
 40
2.0
 40
2.0
 40
2.0
 40
2.0
 10
373.2205809032132
 20
-132.4798794880648
 30
0.0
 10
373.0279642414605
 20
-132.5624294880443
 30
0.0
 10
372.8178145245997
 20
-132.5958375435914
 30
0.0
 10
372.6110161965423
 20
-132.6200028213632
 30
0.0
  0
SPLINE
  5
1E3
330
70
100
AcDbEntity
  8
Livello 1
100
AcDbSpline
210
0.0
220
0.0
230
1.0
 70
    24
 71
     3
 72
     8
 73
     4
 74
     0
 42
0.000000001
 43
0.0000000001
 40
2.0
 40
2.0
 40
2.0
 40
2.0
 40
3.0
 40
3.0
 40
3.0
 40
3.0
 10
372.6110161965423
 20
-132.6200028213632
 30
0.0
 10
372.6110161965423
 20
-132.6200028213632
 30
0.0
 10
372.5434945315982
 20
-132.6274817102503
 30
0.0
 10
372.5434945315982
 20
-132.6274817102503
 30
0.0
  0
SPLINE
  5
1E4
330
70
100
AcDbEntity
  8
Livello 1
100
AcDbSpline
210
0.0
220
0.0
230
1.0
 70
    24
 71
     3
 72
     8
 73
     4
 74
     0
 42
0.000000001
 43
0.0000000001
 40
0.0
 40
0.0
 40
0.0
 40
0.0
 40
1.0
 40
1.0
 40
1.0
 40
1.0
 10
420.578279972796
 20
-155.5521105934076
 30
0.0
 10
420.578279972796
 20
-155.5521105934076
 30
0.0
 10
420.6149688607489
 20
-155.5346128156347
 30
0.0
 10
420.6149688607489
 20
-155.5346128156347
 30
0.0
  0
SPLINE
  5
1E5
330
70
100
AcDbEntity
  8
Livello 1
100
AcDbSpline
210
0.0
220
0.0
230
1.0
 70
     8
 71
     3
 72
     8
 73
     4
 74
     0
 42
0.000000001
 43
0.0000000001
 40
1.0
 40
1.0
 40
1.0
 40
1.0
 40
2.0
 40
2.0
 40
2.0
 40
2.0
 10
420.6149688607489
 20
-155.5346128156347
 30
0.0
 10
420.7925961265518
 20
-155.4546028156546
 30
0.0
 10
421.0319169056671
 20
-155.4154092045533
 30
0.0
 10
421.2253449562879
 20
-155.3937133712254
 30
0.0
  0
SPLINE
  5
1E6
330
70
100
AcDbEntity
  8
Livello 1
100
AcDbSpline
210
0.0
220
0.0
230
1.0
 70
    24
 71
     3
 72
     8
 73
     4
 74
     0
 42
0.000000001
 43
0.0000000001
 40
2.0
 40
2.0
 40
2.0
 40
2.0
 40
3.0
 40
3.0
 40
3.0
 40
3.0
 10
421.2253449562879
 20
-155.3937133712254
 30
0.0
 10
421.2253449562879
 20
-155.3937133712254
 30
0.0
 10
421.2920552323637
 20
-155.3870105934492
 30
0.0
 10
421.2920552323637
 20
-155.3870105934492
 30
0.0
  0
SPLINE
  5
1E7
330
70
100
AcDbEntity
  8
Livello 1
100
AcDbSpline
210
0.0
220
0.0
230
1.0
 70
    24
 71
     3
 72
     8
 73
     4
 74
     0
 42
0.000000001
 43
0.0000000001
 40
0.0
 40
0.0
 40
0.0
 40
0.0
 40
1.0
 40
1.0
 40
1.0
 40
1.0
 10
420.578279972796
 20
-132.4606883769585
 30
0.0
 10
420.578279972796
 20
-132.4606883769585
 30
0.0
 10
420.6149688607489
 20
-132.4798794880648
 30
0.0
 10
420.6149688607489
 20
-132.4798794880648
 30
0.0
  0
SPLINE
  5
1E8
330
70
100
AcDbEntity
  8
Livello 1
100
AcDbSpline
210
0.0
220
0.0
230
1.0
 70
     8
 71
     3
 72
     8
 73
     4
 74
     0
 42
0.000000001
 43
0.0000000001
 40
1.0
 40
1.0
 40
1.0
 40
1.0
 40
2.0
 40
2.0
 40
2.0
 40
2.0
 10
420.6149688607489
 20
-132.4798794880648
 30
0.0
 10
420.8075855225015
 20
-132.5624294880443
 30
0.0
 10
421.0177352393623
 20
-132.5958375435914
 30
0.0
 10
421.2253449562879
 20
-132.6200028213632
 30
0.0
  0
SPLINE
  5
1E9
330
70
100
AcDbEntity
  8
Livello 1
100
AcDbSpline
210
0.0
220
0.0
230
1.0
 70
    24
 71
     3
 72
     8
 73
     4
 74
     0
 42
0.000000001
 43
0.0000000001
 40
2.0
 40
2.0
 40
2.0
 40
2.0
 40
3.0
 40
3.0
 40
3.0
 40
3.0
 10
421.2253449562879
 20
-132.6200028213632
 30
0.0
 10
421.2253449562879
 20
-132.6200028213632
 30
0.0
 10
421.2920552323637
 20
-132.6274817102503
 30
0.0
 10
421.2920552323637
 20
-132.6274817102503
 30
0.0
  0
SPLINE
  5
1EA
330
70
100
AcDbEntity
  8
Livello 1
100
AcDbSpline
210
0.0
220
0.0
230
1.0
 70
    24
 71
     3
 72
     8
 73
     4
 74
     0
 42
0.000000001
 43
0.0000000001
 40
0.0
 40
0.0
 40
0.0
 40
0.0
 40
1.0
 40
1.0
 40
1.0
 40
1.0
 10
373.2581164578111
 20
-155.5521105934076
 30
0.0
 10
373.2581164578111
 20
-155.5521105934076
 30
0.0
 10
373.2205809032132
 20
-155.5346128156347
 30
0.0
 10
373.2205809032132
 20
-155.5346128156347
 30
0.0
  0
SPLINE
  5
1EB
330
70
100
AcDbEntity
  8
Livello 1
100
AcDbSpline
210
0.0
220
0.0
230
1.0
 70
     8
 71
     3
 72
     8
 73
     4
 74
     0
 42
0.000000001
 43
0.0000000001
 40
1.0
 40
1.0
 40
1.0
 40
1.0
 40
2.0
 40
2.0
 40
2.0
 40
2.0
 10
373.2205809032132
 20
-155.5346128156347
 30
0.0
 10
373.0429572966337
 20
-155.4546028156546
 30
0.0
 10
372.8044795249399
 20
-155.4154092045533
 30
0.0
 10
372.6110161965423
 20
-155.3937133712254
 30
0.0
  0
SPLINE
  5
1EC
330
70
100
AcDbEntity
  8
Livello 1
100
AcDbSpline
210
0.0
220
0.0
230
1.0
 70
    24
 71
     3
 72
     8
 73
     4
 74
     0
 42
0.000000001
 43
0.0000000001
 40
2.0
 40
2.0
 40
2.0
 40
2.0
 40
3.0
 40
3.0
 40
3.0
 40
3.0
 10
372.6110161965423
 20
-155.3937133712254
 30
0.0
 10
372.6110161965423
 20
-155.3937133712254
 30
0.0
 10
372.5434945315982
 20
-155.3870105934492
 30
0.0
 10
372.5434945315982
 20
-155.3870105934492
 30
0.0
  0
SPLINE
  5
1ED
330
70
100
AcDbEntity
  8
Livello 1
100
AcDbSpline
210
0.0
220
0.0
230
1.0
 70
    24
 71
     3
 72
     8
 73
     4
 74
     0
 42
0.000000001
 43
0.0000000001
 40
0.0
 40
0.0
 40
0.0
 40
0.0
 40
1.0
 40
1.0
 40
1.0
 40
1.0
 10
372.3708803693353
 20
-156.180866426584
 30
0.0
 10
372.3708803693353
 20
-156.180866426584
 30
0.0
 10
372.4142367571181
 20
-156.1842178154721
 30
0.0
 10
372.4142367571181
 20
-156.1842178154721
 30
0.0
  0
SPLINE
  5
1EE
330
70
100
AcDbEntity
  8
Livello 1
100
AcDbSpline
210
0.0
220
0.0
230
1.0
 70
     8
 71
     3
 72
     8
 73
     4
 74
     0
 42
0.000000001
 43
0.0000000001
 40
1.0
 40
1.0
 40
1.0
 40
1.0
 40
2.0
 40
2.0
 40
2.0
 40
2.0
 10
372.4142367571181
 20
-156.1842178154721
 30
0.0
 10
372.5651550866011
 20
-156.1958947599138
 30
0.0
 10
372.7561136928405
 20
-156.2200953154635
 30
0.0
 10
372.8945461385259
 20
-156.2826075376695
 30
0.0
  0
SPLINE
  5
1EF
330
70
100
AcDbEntity
  8
Livello 1
100
AcDbSpline
210
0.0
220
0.0
230
1.0
 70
    24
 71
     3
 72
     8
 73
     4
 74
     0
 42
0.000000001
 43
0.0000000001
 40
2.0
 40
2.0
 40
2.0
 40
2.0
 40
3.0
 40
3.0
 40
3.0
 40
3.0
 10
372.8945461385259
 20
-156.2826075376695
 30
0.0
 10
372.8945461385259
 20
-156.2826075376695
 30
0.0
 10
372.9136995221535
 20
-156.2918150376675
 30
0.0
 10
372.9136995221535
 20
-156.2918150376675
 30
0.0
  0
SPLINE
  5
1F0
330
70
100
AcDbEntity
  8
Livello 1
100
AcDbSpline
210
0.0
220
0.0
230
1.0
 70
    24
 71
     3
 72
     8
 73
     4
 74
     0
 42
0.000000001
 43
0.0000000001
 40
0.0
 40
0.0
 40
0.0
 40
0.0
 40
1.0
 40
1.0
 40
1.0
 40
1.0
 10
421.4646693946268
 20
-156.180866426584
 30
0.0
 10
421.4646693946268
 20
-156.180866426584
 30
0.0
 10
421.4204663401988
 20
-156.1842178154721
 30
0.0
 10
421.4204663401988
 20
-156.1842178154721
 30
0.0
  0
SPLINE
  5
1F1
330
70
100
AcDbEntity
  8
Livello 1
100
AcDbSpline
210
0.0
220
0.0
230
1.0
 70
     8
 71
     3
 72
     8
 73
     4
 74
     0
 42
0.000000001
 43
0.0000000001
 40
1.0
 40
1.0
 40
1.0
 40
1.0
 40
2.0
 40
2.0
 40
2.0
 40
2.0
 10
421.4204663401988
 20
-156.1842178154721
 30
0.0
 10
421.271206066229
 20
-156.1967414265801
 30
0.0
 10
421.0794360711216
 20
-156.2200953154635
 30
0.0
 10
420.9418211265154
 20
-156.2826075376695
 30
0.0
  0
SPLINE
  5
1F2
330
70
100
AcDbEntity
  8
Livello 1
100
AcDbSpline
210
0.0
220
0.0
230
1.0
 70
    24
 71
     3
 72
     8
 73
     4
 74
     0
 42
0.000000001
 43
0.0000000001
 40
2.0
 40
2.0
 40
2.0
 40
2.0
 40
3.0
 40
3.0
 40
3.0
 40
3.0
 10
420.9418211265154
 20
-156.2826075376695
 30
0.0
 10
420.9418211265154
 20
-156.2826075376695
 30
0.0
 10
420.9218149640316
 20
-156.2918150376675
 30
0.0
 10
420.9218149640316
 20
-156.2918150376675
 30
0.0
  0
SPLINE
  5
1F3
330
70
100
AcDbEntity
  8
Livello 1
100
AcDbSpline
210
0.0
220
0.0
230
1.0
 70
    24
 71
     3
 72
     8
 73
     4
 74
     0
 42
0.000000001
 43
0.0000000001
 40
0.0
 40
0.0
 40
0.0
 40
0.0
 40
1.0
 40
1.0
 40
1.0
 40
1.0
 10
372.9136995221535
 20
-131.7210897660324
 30
0.0
 10
372.9136995221535
 20
-131.7210897660324
 30
0.0
 10
372.8945461385259
 20
-131.7311086549188
 30
0.0
 10
372.8945461385259
 20
-131.7311086549188
 30
0.0
  0
SPLINE
  5
1F4
330
70
100
AcDbEntity
  8
Livello 1
100
AcDbSpline
210
0.0
220
0.0
230
1.0
 70
     8
 71
     3
 72
     8
 73
     4
 74
     0
 42
0.000000001
 43
0.0000000001
 40
1.0
 40
1.0
 40
1.0
 40
1.0
 40
2.0
 40
2.0
 40
2.0
 40
2.0
 10
372.8945461385259
 20
-131.7311086549188
 30
0.0
 10
372.7511042485239
 20
-131.7936561549033
 30
0.0
 10
372.5684711976277
 20
-131.8170453215639
 30
0.0
 10
372.4142014793411
 20
-131.8303803215606
 30
0.0
  0
SPLINE
  5
1F5
330
70
100
AcDbEntity
  8
Livello 1
100
AcDbSpline
210
0.0
220
0.0
230
1.0
 70
    24
 71
     3
 72
     8
 73
     4
 74
     0
 42
0.000000001
 43
0.0000000001
 40
2.0
 40
2.0
 40
2.0
 40
2.0
 40
3.0
 40
3.0
 40
3.0
 40
3.0
 10
372.4142014793411
 20
-131.8303803215606
 30
0.0
 10
372.4142014793411
 20
-131.8303803215606
 30
0.0
 10
372.3708450915584
 20
-131.8328497660046
 30
0.0
 10
372.3708450915584
 20
-131.8328497660046
 30
0.0
  0
SPLINE
  5
1F6
330
70
100
AcDbEntity
  8
Livello 1
100
AcDbSpline
210
0.0
220
0.0
230
1.0
 70
    24
 71
     3
 72
     8
 73
     4
 74
     0
 42
0.000000001
 43
0.0000000001
 40
0.0
 40
0.0
 40
0.0
 40
0.0
 40
1.0
 40
1.0
 40
1.0
 40
1.0
 10
420.9218149640316
 20
-131.7210897660324
 30
0.0
 10
420.9218149640316
 20
-131.7210897660324
 30
0.0
 10
420.9418211265154
 20
-131.7311086549188
 30
0.0
 10
420.9418211265154
 20
-131.7311086549188
 30
0.0
  0
SPLINE
  5
1F7
330
70
100
AcDbEntity
  8
Livello 1
100
AcDbSpline
210
0.0
220
0.0
230
1.0
 70
     8
 71
     3
 72
     8
 73
     4
 74
     0
 42
0.000000001
 43
0.0000000001
 40
1.0
 40
1.0
 40
1.0
 40
1.0
 40
2.0
 40
2.0
 40
2.0
 40
2.0
 10
420.9418211265154
 20
-131.7311086549188
 30
0.0
 10
421.083598848793
 20
-131.7945028215695
 30
0.0
 10
421.2670432885574
 20
-131.8161633771198
 30
0.0
 10
421.4204663401988
 20
-131.8303803215606
 30
0.0
  0
SPLINE
  5
1F8
330
70
100
AcDbEntity
  8
Livello 1
100
AcDbSpline
210
0.0
220
0.0
230
1.0
 70
    24
 71
     3
 72
     8
 73
     4
 74
     0
 42
0.000000001
 43
0.0000000001
 40
2.0
 40
2.0
 40
2.0
 40
2.0
 40
3.0
 40
3.0
 40
3.0
 40
3.0
 10
421.4204663401988
 20
-131.8303803215606
 30
0.0
 10
421.4204663401988
 20
-131.8303803215606
 30
0.0
 10
421.4646693946268
 20
-131.8328497660046
 30
0.0
 10
421.4646693946268
 20
-131.8328497660046
 30
0.0
  0
SPLINE
  5
1F9
330
70
100
AcDbEntity
  8
Livello 1
100
AcDbSpline
210
0.0
220
0.0
230
1.0
 70
    24
 71
     3
 72
     8
 73
     4
 74
     0
 42
0.000000001
 43
0.0000000001
 40
0.0
 40
0.0
 40
0.0
 40
0.0
 40
1.0
 40
1.0
 40
1.0
 40
1.0
 10
416.7366711819147
 20
-130.2392819886251
 30
0.0
 10
416.7366711819147
 20
-130.2392819886251
 30
0.0
 10
416.9259364548639
 20
-130.2509942108444
 30
0.0
 10
416.9259364548639
 20
-130.2509942108444
 30
0.0
  0
SPLINE
  5
1FA
330
70
100
AcDbEntity
  8
Livello 1
100
AcDbSpline
210
0.0
220
0.0
230
1.0
 70
     8
 71
     3
 72
     8
 73
     4
 74
     0
 42
0.000000001
 43
0.0000000001
 40
1.0
 40
1.0
 40
1.0
 40
1.0
 40
2.0
 40
2.0
 40
2.0
 40
2.0
 10
416.9259364548639
 20
-130.2509942108444
 30
0.0
 10
417.5938858822676
 20
-130.3035228219424
 30
0.0
 10
418.4202325278524
 20
-130.4027592108064
 30
0.0
 10
419.0364683492133
 20
-130.6778905996266
 30
0.0
  0
SPLINE
  5
1FB
330
70
100
AcDbEntity
  8
Livello 1
100
AcDbSpline
210
0.0
220
0.0
230
1.0
 70
    24
 71
     3
 72
     8
 73
     4
 74
     0
 42
0.000000001
 43
0.0000000001
 40
2.0
 40
2.0
 40
2.0
 40
2.0
 40
3.0
 40
3.0
 40
3.0
 40
3.0
 10
419.0364683492133
 20
-130.6778905996266
 30
0.0
 10
419.0364683492133
 20
-130.6778905996266
 30
0.0
 10
419.1198261211154
 20
-130.7204355996158
 30
0.0
 10
419.1198261211154
 20
-130.7204355996158
 30
0.0
  0
SPLINE
  5
1FC
330
70
100
AcDbEntity
  8
Livello 1
100
AcDbSpline
210
0.0
220
0.0
230
1.0
 70
    24
 71
     3
 72
     8
 73
     4
 74
     0
 42
0.000000001
 43
0.0000000001
 40
0.0
 40
0.0
 40
0.0
 40
0.0
 40
1.0
 40
1.0
 40
1.0
 40
1.0
 10
377.0997252486924
 20
-130.2392819886251
 30
0.0
 10
377.0997252486924
 20
-130.2392819886251
 30
0.0
 10
376.9104246979663
 20
-130.2509942108444
 30
0.0
 10
376.9104246979663
 20
-130.2509942108444
 30
0.0
  0
SPLINE
  5
1FD
330
70
100
AcDbEntity
  8
Livello 1
100
AcDbSpline
210
0.0
220
0.0
230
1.0
 70
     8
 71
     3
 72
     8
 73
     4
 74
     0
 42
0.000000001
 43
0.0000000001
 40
1.0
 40
1.0
 40
1.0
 40
1.0
 40
2.0
 40
2.0
 40
2.0
 40
2.0
 10
376.9104246979663
 20
-130.2509942108444
 30
0.0
 10
376.2416638816945
 20
-130.3035228219424
 30
0.0
 10
375.4161286249779
 20
-130.4027592108064
 30
0.0
 10
374.7990850296088
 20
-130.6778905996266
 30
0.0
  0
SPLINE
  5
1FE
330
70
100
AcDbEntity
  8
Livello 1
100
AcDbSpline
210
0.0
220
0.0
230
1.0
 70
    24
 71
     3
 72
     8
 73
     4
 74
     0
 42
0.000000001
 43
0.0000000001
 40
2.0
 40
2.0
 40
2.0
 40
2.0
 40
3.0
 40
3.0
 40
3.0
 40
3.0
 10
374.7990850296088
 20
-130.6778905996266
 30
0.0
 10
374.7990850296088
 20
-130.6778905996266
 30
0.0
 10
374.7156883650698
 20
-130.7204355996158
 30
0.0
 10
374.7156883650698
 20
-130.7204355996158
 30
0.0
  0
SPLINE
  5
1FF
330
70
100
AcDbEntity
  8
Livello 1
100
AcDbSpline
210
0.0
220
0.0
230
1.0
 70
    24
 71
     3
 72
     8
 73
     4
 74
     0
 42
0.000000001
 43
0.0000000001
 40
0.0
 40
0.0
 40
0.0
 40
0.0
 40
1.0
 40
1.0
 40
1.0
 40
1.0
 10
372.9136995221535
 20
-156.2908978154456
 30
0.0
 10
372.9136995221535
 20
-156.2908978154456
 30
0.0
 10
374.7148416984247
 20
-157.2924339263063
 30
0.0
 10
374.7148416984247
 20
-157.2924339263063
 30
0.0
  0
SPLINE
  5
200
330
70
100
AcDbEntity
  8
Livello 1
100
AcDbSpline
210
0.0
220
0.0
230
1.0
 70
    24
 71
     3
 72
     8
 73
     4
 74
     0
 42
0.000000001
 43
0.0000000001
 40
1.0
 40
1.0
 40
1.0
 40
1.0
 40
2.0
 40
2.0
 40
2.0
 40
2.0
 10
374.7148416984247
 20
-157.2924339263063
 30
0.0
 10
374.7148416984247
 20
-157.2924339263063
 30
0.0
 10
374.7990850296088
 20
-157.33490837074
 30
0.0
 10
374.7990850296088
 20
-157.33490837074
 30
0.0
  0
SPLINE
  5
201
330
70
100
AcDbEntity
  8
Livello 1
100
AcDbSpline
210
0.0
220
0.0
230
1.0
 70
     8
 71
     3
 72
     8
 73
     4
 74
     0
 42
0.000000001
 43
0.0000000001
 40
2.0
 40
2.0
 40
2.0
 40
2.0
 40
3.0
 40
3.0
 40
3.0
 40
3.0
 10
374.7990850296088
 20
-157.33490837074
 30
0.0
 10
375.4153172361097
 20
-157.6101103151157
 30
0.0
 10
376.2433219372077
 20
-157.70934670398
 30
0.0
 10
376.9104246979663
 20
-157.7626867039667
 30
0.0
  0
SPLINE
  5
202
330
70
100
AcDbEntity
  8
Livello 1
100
AcDbSpline
210
0.0
220
0.0
230
1.0
 70
    24
 71
     3
 72
     8
 73
     4
 74
     0
 42
0.000000001
 43
0.0000000001
 40
3.0
 40
3.0
 40
3.0
 40
3.0
 40
4.0
 40
4.0
 40
4.0
 40
4.0
 10
376.9104246979663
 20
-157.7626867039667
 30
0.0
 10
376.9104246979663
 20
-157.7626867039667
 30
0.0
 10
377.0988785820474
 20
-157.7743989261853
 30
0.0
 10
377.0988785820474
 20
-157.7743989261853
 30
0.0
  0
SPLINE
  5
203
330
70
100
AcDbEntity
  8
Livello 1
100
AcDbSpline
210
0.0
220
0.0
230
1.0
 70
    24
 71
     3
 72
     8
 73
     4
 74
     0
 42
0.000000001
 43
0.0000000001
 40
0.0
 40
0.0
 40
0.0
 40
0.0
 40
1.0
 40
1.0
 40
1.0
 40
1.0
 10
419.1206727877603
 20
-157.2923633707506
 30
0.0
 10
419.1206727877603
 20
-157.2923633707506
 30
0.0
 10
419.0373114009981
 20
-157.33490837074
 30
0.0
 10
419.0373114009981
 20
-157.33490837074
 30
0.0
  0
SPLINE
  5
204
330
70
100
AcDbEntity
  8
Livello 1
100
AcDbSpline
210
0.0
220
0.0
230
1.0
 70
     8
 71
     3
 72
     8
 73
     4
 74
     0
 42
0.000000001
 43
0.0000000001
 40
1.0
 40
1.0
 40
1.0
 40
1.0
 40
2.0
 40
2.0
 40
2.0
 40
2.0
 10
419.0373114009981
 20
-157.33490837074
 30
0.0
 10
418.4210791944975
 20
-157.6101103151157
 30
0.0
 10
417.5938858822676
 20
-157.7093114262018
 30
0.0
 10
416.9259364548639
 20
-157.7626867039667
 30
0.0
  0
SPLINE
  5
205
330
70
100
AcDbEntity
  8
Livello 1
100
AcDbSpline
210
0.0
220
0.0
230
1.0
 70
    24
 71
     3
 72
     8
 73
     4
 74
     0
 42
0.000000001
 43
0.0000000001
 40
2.0
 40
2.0
 40
2.0
 40
2.0
 40
3.0
 40
3.0
 40
3.0
 40
3.0
 10
416.9259364548639
 20
-157.7626867039667
 30
0.0
 10
416.9259364548639
 20
-157.7626867039667
 30
0.0
 10
416.7374825707828
 20
-157.7743636484084
 30
0.0
 10
416.7374825707828
 20
-157.7743636484084
 30
0.0
  0
SPLINE
  5
206
330
70
100
AcDbEntity
  8
Livello 1
100
AcDbSpline
210
0.0
220
0.0
230
1.0
 70
    24
 71
     3
 72
     8
 73
     4
 74
     0
 42
0.000000001
 43
0.0000000001
 40
0.0
 40
0.0
 40
0.0
 40
0.0
 40
1.0
 40
1.0
 40
1.0
 40
1.0
 10
440.6150694616148
 20
-159.1851572591665
 30
0.0
 10
440.6150694616148
 20
-159.1851572591665
 30
0.0
 10
444.4031618649725
 20
-158.3096686482742
 30
0.0
 10
444.4031618649725
 20
-158.3096686482742
 30
0.0
  0
SPLINE
  5
207
330
70
100
AcDbEntity
  8
Livello 1
100
AcDbSpline
210
0.0
220
0.0
230
1.0
 70
     8
 71
     3
 72
     8
 73
     4
 74
     0
 42
0.000000001
 43
0.0000000001
 40
1.0
 40
1.0
 40
1.0
 40
1.0
 40
2.0
 40
2.0
 40
2.0
 40
2.0
 10
444.4031618649725
 20
-158.3096686482742
 30
0.0
 10
444.4823604740632
 20
-158.2921708705007
 30
0.0
 10
444.7266943567186
 20
-157.8251989261727
 30
0.0
 10
444.7758715776861
 20
-157.7618400372998
 30
0.0
  0
SPLINE
  5
208
330
70
100
AcDbEntity
  8
Livello 1
100
AcDbSpline
210
0.0
220
0.0
230
1.0
 70
    24
 71
     3
 72
     8
 73
     4
 74
     0
 42
0.000000001
 43
0.0000000001
 40
2.0
 40
2.0
 40
2.0
 40
2.0
 40
3.0
 40
3.0
 40
3.0
 40
3.0
 10
444.7758715776861
 20
-157.7618400372998
 30
0.0
 10
444.7758715776861
 20
-157.7618400372998
 30
0.0
 10
444.7625365780265
 20
-157.7735169817415
 30
0.0
 10
444.7625365780265
 20
-157.7735169817415
 30
0.0
  0
SPLINE
  5
209
330
70
100
AcDbEntity
  8
Livello 1
100
AcDbSpline
210
0.0
220
0.0
230
1.0
 70
    24
 71
     3
 72
     8
 73
     4
 74
     0
 42
0.000000001
 43
0.0000000001
 40
3.0
 40
3.0
 40
3.0
 40
3.0
 40
4.0
 40
4.0
 40
4.0
 40
4.0
 10
444.7625365780265
 20
-157.7735169817415
 30
0.0
 10
444.7625365780265
 20
-157.7735169817415
 30
0.0
 10
444.7758715776861
 20
-157.7618400372998
 30
0.0
 10
444.7758715776861
 20
-157.7618400372998
 30
0.0
  0
SPLINE
  5
20A
330
70
100
AcDbEntity
  8
Livello 1
100
AcDbSpline
210
0.0
220
0.0
230
1.0
 70
     8
 71
     3
 72
     8
 73
     4
 74
     0
 42
0.000000001
 43
0.0000000001
 40
4.0
 40
4.0
 40
4.0
 40
4.0
 40
5.0
 40
5.0
 40
5.0
 40
5.0
 10
444.7758715776861
 20
-157.7618400372998
 30
0.0
 10
445.1869635116428
 20
-157.5775842040123
 30
0.0
 10
445.7456266758692
 20
-157.4591919818201
 30
0.0
 10
446.1817262640421
 20
-157.3332855929626
 30
0.0
  0
SPLINE
  5
20B
330
70
100
AcDbEntity
  8
Livello 1
100
AcDbSpline
210
0.0
220
0.0
230
1.0
 70
    24
 71
     3
 72
     8
 73
     4
 74
     0
 42
0.000000001
 43
0.0000000001
 40
5.0
 40
5.0
 40
5.0
 40
5.0
 40
6.0
 40
6.0
 40
6.0
 40
6.0
 10
446.1817262640421
 20
-157.3332855929626
 30
0.0
 10
446.1817262640421
 20
-157.3332855929626
 30
0.0
 10
446.3484843153433
 20
-157.2915519818619
 30
0.0
 10
446.3484843153433
 20
-157.2915519818619
 30
0.0
  0
SPLINE
  5
20C
330
70
100
AcDbEntity
  8
Livello 1
100
AcDbSpline
210
0.0
220
0.0
230
1.0
 70
    24
 71
     3
 72
     8
 73
     4
 74
     0
 42
0.000000001
 43
0.0000000001
 40
6.0
 40
6.0
 40
6.0
 40
6.0
 40
7.0
 40
7.0
 40
7.0
 40
7.0
 10
446.3484843153433
 20
-157.2915519818619
 30
0.0
 10
446.3484843153433
 20
-157.2915519818619
 30
0.0
 10
444.9751600093946
 20
-157.6467992039958
 30
0.0
 10
444.9751600093946
 20
-157.6467992039958
 30
0.0
  0
SPLINE
  5
20D
330
70
100
AcDbEntity
  8
Livello 1
100
AcDbSpline
210
0.0
220
0.0
230
1.0
 70
    24
 71
     3
 72
     8
 73
     4
 74
     0
 42
0.000000001
 43
0.0000000001
 40
7.0
 40
7.0
 40
7.0
 40
7.0
 40
8.0
 40
8.0
 40
8.0
 40
8.0
 10
444.9751600093946
 20
-157.6467992039958
 30
0.0
 10
444.9751600093946
 20
-157.6467992039958
 30
0.0
 10
444.9876793500603
 20
-157.6509619817725
 30
0.0
 10
444.9876793500603
 20
-157.6509619817725
 30
0.0
  0
SPLINE
  5
20E
330
70
100
AcDbEntity
  8
Livello 1
100
AcDbSpline
210
0.0
220
0.0
230
1.0
 70
    24
 71
     3
 72
     8
 73
     4
 74
     0
 42
0.000000001
 43
0.0000000001
 40
8.0
 40
8.0
 40
8.0
 40
8.0
 40
9.0
 40
9.0
 40
9.0
 40
9.0
 10
444.9876793500603
 20
-157.6509619817725
 30
0.0
 10
444.9876793500603
 20
-157.6509619817725
 30
0.0
 10
445.0076818495499
 20
-157.6509619817725
 30
0.0
 10
445.0076818495499
 20
-157.6509619817725
 30
0.0
  0
SPLINE
  5
20F
330
70
100
AcDbEntity
  8
Livello 1
100
AcDbSpline
210
0.0
220
0.0
230
1.0
 70
     8
 71
     3
 72
     8
 73
     4
 74
     0
 42
0.000000001
 43
0.0000000001
 40
9.0
 40
9.0
 40
9.0
 40
9.0
 40
10.0
 40
10.0
 40
10.0
 40
10.0
 10
445.0076818495499
 20
-157.6509619817725
 30
0.0
 10
445.0877271252856
 20
-157.638438370664
 30
0.0
 10
445.1644562899947
 20
-157.6142730928925
 30
0.0
 10
445.2419968435721
 20
-157.5909192040097
 30
0.0
  0
SPLINE
  5
210
330
70
100
AcDbEntity
  8
Livello 1
100
AcDbSpline
210
0.0
220
0.0
230
1.0
 70
    24
 71
     3
 72
     8
 73
     4
 74
     0
 42
0.000000001
 43
0.0000000001
 40
10.0
 40
10.0
 40
10.0
 40
10.0
 40
11.0
 40
11.0
 40
11.0
 40
11.0
 10
445.2419968435721
 20
-157.5909192040097
 30
0.0
 10
445.2419968435721
 20
-157.5909192040097
 30
0.0
 10
445.3203840637946
 20
-157.5692233706818
 30
0.0
 10
445.3203840637946
 20
-157.5692233706818
 30
0.0
  0
SPLINE
  5
211
330
70
100
AcDbEntity
  8
Livello 1
100
AcDbSpline
210
0.0
220
0.0
230
1.0
 70
     8
 71
     3
 72
     8
 73
     4
 74
     0
 42
0.000000001
 43
0.0000000001
 40
11.0
 40
11.0
 40
11.0
 40
11.0
 40
12.0
 40
12.0
 40
12.0
 40
12.0
 10
445.3203840637946
 20
-157.5692233706818
 30
0.0
 10
445.564682668673
 20
-157.4958808706997
 30
0.0
 10
445.813179329
 20
-157.4282886484944
 30
0.0
 10
446.0591359893918
 20
-157.3624603151778
 30
0.0
  0
SPLINE
  5
212
330
70
100
AcDbEntity
  8
Livello 1
100
AcDbSpline
210
0.0
220
0.0
230
1.0
 70
    24
 71
     3
 72
     8
 73
     4
 74
     0
 42
0.000000001
 43
0.0000000001
 40
12.0
 40
12.0
 40
12.0
 40
12.0
 40
13.0
 40
13.0
 40
13.0
 40
13.0
 10
446.0591359893918
 20
-157.3624603151778
 30
0.0
 10
446.0591359893918
 20
-157.3624603151778
 30
0.0
 10
446.210054318875
 20
-157.3240780929646
 30
0.0
 10
446.210054318875
 20
-157.3240780929646
 30
0.0
  0
SPLINE
  5
213
330
70
100
AcDbEntity
  8
Livello 1
100
AcDbSpline
210
0.0
220
0.0
230
1.0
 70
    24
 71
     3
 72
     8
 73
     4
 74
     0
 42
0.000000001
 43
0.0000000001
 40
13.0
 40
13.0
 40
13.0
 40
13.0
 40
14.0
 40
14.0
 40
14.0
 40
14.0
 10
446.210054318875
 20
-157.3240780929646
 30
0.0
 10
446.210054318875
 20
-157.3240780929646
 30
0.0
 10
446.3751543146628
 20
-157.2815683707533
 30
0.0
 10
446.3751543146628
 20
-157.2815683707533
 30
0.0
  0
SPLINE
  5
214
330
70
100
AcDbEntity
  8
Livello 1
100
AcDbSpline
210
0.0
220
0.0
230
1.0
 70
     8
 71
     3
 72
     8
 73
     4
 74
     0
 42
0.000000001
 43
0.0000000001
 40
14.0
 40
14.0
 40
14.0
 40
14.0
 40
15.0
 40
15.0
 40
15.0
 40
15.0
 10
446.3751543146628
 20
-157.2815683707533
 30
0.0
 10
447.6792678925033
 20
-156.9480169819479
 30
0.0
 10
448.9825348036986
 20
-156.6153475375868
 30
0.0
 10
450.2874950481841
 20
-156.2801733710033
 30
0.0
  0
SPLINE
  5
215
330
70
100
AcDbEntity
  8
Livello 1
100
AcDbSpline
210
0.0
220
0.0
230
1.0
 70
    24
 71
     3
 72
     8
 73
     4
 74
     0
 42
0.000000001
 43
0.0000000001
 40
15.0
 40
15.0
 40
15.0
 40
15.0
 40
16.0
 40
16.0
 40
16.0
 40
16.0
 10
450.2874950481841
 20
-156.2801733710033
 30
0.0
 10
450.2874950481841
 20
-156.2801733710033
 30
0.0
 10
450.3883894900544
 20
-156.2534328154549
 30
0.0
 10
450.3883894900544
 20
-156.2534328154549
 30
0.0
  0
SPLINE
  5
216
330
70
100
AcDbEntity
  8
Livello 1
100
AcDbSpline
210
0.0
220
0.0
230
1.0
 70
     8
 71
     3
 72
     8
 73
     4
 74
     0
 42
0.000000001
 43
0.0000000001
 40
16.0
 40
16.0
 40
16.0
 40
16.0
 40
17.0
 40
17.0
 40
17.0
 40
17.0
 10
450.3883894900544
 20
-156.2534328154549
 30
0.0
 10
450.5593103190273
 20
-156.1992461488019
 30
0.0
 10
450.8036089239058
 20
-156.1267150377092
 30
0.0
 10
450.8720125332717
 20
-155.9357564266455
 30
0.0
  0
SPLINE
  5
217
330
70
100
AcDbEntity
  8
Livello 1
100
AcDbSpline
210
0.0
220
0.0
230
1.0
 70
    24
 71
     3
 72
     8
 73
     4
 74
     0
 42
0.000000001
 43
0.0000000001
 40
17.0
 40
17.0
 40
17.0
 40
17.0
 40
18.0
 40
18.0
 40
18.0
 40
18.0
 10
450.8720125332717
 20
-155.9357564266455
 30
0.0
 10
450.8720125332717
 20
-155.9357564266455
 30
0.0
 10
450.8811847552602
 20
-155.9015722599871
 30
0.0
 10
450.8811847552602
 20
-155.9015722599871
 30
0.0
  0
SPLINE
  5
218
330
70
100
AcDbEntity
  8
Livello 1
100
AcDbSpline
210
0.0
220
0.0
230
1.0
 70
    24
 71
     3
 72
     8
 73
     4
 74
     0
 42
0.000000001
 43
0.0000000001
 40
18.0
 40
18.0
 40
18.0
 40
18.0
 40
19.0
 40
19.0
 40
19.0
 40
19.0
 10
450.8811847552602
 20
-155.9015722599871
 30
0.0
 10
450.8811847552602
 20
-155.9015722599871
 30
0.0
 10
450.8336303120287
 20
-156.0074761488502
 30
0.0
 10
450.8336303120287
 20
-156.0074761488502
 30
0.0
  0
SPLINE
  5
219
330
70
100
AcDbEntity
  8
Livello 1
100
AcDbSpline
210
0.0
220
0.0
230
1.0
 70
    24
 71
     3
 72
     8
 73
     4
 74
     0
 42
0.000000001
 43
0.0000000001
 40
19.0
 40
19.0
 40
19.0
 40
19.0
 40
20.0
 40
20.0
 40
20.0
 40
20.0
 10
450.8336303120287
 20
-156.0074761488502
 30
0.0
 10
450.8336303120287
 20
-156.0074761488502
 30
0.0
 10
458.1079431820011
 20
-154.3289947603807
 30
0.0
 10
458.1079431820011
 20
-154.3289947603807
 30
0.0
  0
SPLINE
  5
21A
330
70
100
AcDbEntity
  8
Livello 1
100
AcDbSpline
210
0.0
220
0.0
230
1.0
 70
    24
 71
     3
 72
     8
 73
     4
 74
     0
 42
0.000000001
 43
0.0000000001
 40
20.0
 40
20.0
 40
20.0
 40
20.0
 40
21.0
 40
21.0
 40
21.0
 40
21.0
 10
458.1079431820011
 20
-154.3289947603807
 30
0.0
 10
458.1079431820011
 20
-154.3289947603807
 30
0.0
 10
458.0879406825115
 20
-154.3339689270462
 30
0.0
 10
458.0879406825115
 20
-154.3339689270462
 30
0.0
  0
SPLINE
  5
21B
330
70
100
AcDbEntity
  8
Livello 1
100
AcDbSpline
210
0.0
220
0.0
230
1.0
 70
     8
 71
     3
 72
     8
 73
     4
 74
     0
 42
0.000000001
 43
0.0000000001
 40
21.0
 40
21.0
 40
21.0
 40
21.0
 40
22.0
 40
22.0
 40
22.0
 40
22.0
 10
458.0879406825115
 20
-154.3339689270462
 30
0.0
 10
458.6616278900978
 20
-154.2097205937436
 30
0.0
 10
459.1277178782068
 20
-153.7936897605143
 30
0.0
 10
459.3178298178011
 20
-153.2374650384306
 30
0.0
  0
SPLINE
  5
21C
330
70
100
AcDbEntity
  8
Livello 1
100
AcDbSpline
210
0.0
220
0.0
230
1.0
 70
    24
 71
     3
 72
     8
 73
     4
 74
     0
 42
0.000000001
 43
0.0000000001
 40
22.0
 40
22.0
 40
22.0
 40
22.0
 40
23.0
 40
23.0
 40
23.0
 40
23.0
 10
459.3178298178011
 20
-153.2374650384306
 30
0.0
 10
459.3178298178011
 20
-153.2374650384306
 30
0.0
 10
459.3170184289329
 20
-153.2391583717644
 30
0.0
 10
459.3170184289329
 20
-153.2391583717644
 30
0.0
  0
SPLINE
  5
21D
330
70
100
AcDbEntity
  8
Livello 1
100
AcDbSpline
210
0.0
220
0.0
230
1.0
 70
    24
 71
     3
 72
     8
 73
     4
 74
     0
 42
0.000000001
 43
0.0000000001
 40
23.0
 40
23.0
 40
23.0
 40
23.0
 40
24.0
 40
24.0
 40
24.0
 40
24.0
 10
459.3170184289329
 20
-153.2391583717644
 30
0.0
 10
459.3170184289329
 20
-153.2391583717644
 30
0.0
 10
459.5046256463687
 20
-152.6679758719072
 30
0.0
 10
459.5046256463687
 20
-152.6679758719072
 30
0.0
  0
SPLINE
  5
21E
330
70
100
AcDbEntity
  8
Livello 1
100
AcDbSpline
210
0.0
220
0.0
230
1.0
 70
     8
 71
     3
 72
     8
 73
     4
 74
     0
 42
0.000000001
 43
0.0000000001
 40
24.0
 40
24.0
 40
24.0
 40
24.0
 40
25.0
 40
25.0
 40
25.0
 40
25.0
 10
459.5046256463687
 20
-152.6679758719072
 30
0.0
 10
461.2648456014618
 20
-147.102200873298
 30
0.0
 10
461.2656569903299
 20
-140.9118328192901
 30
0.0
 10
459.5046256463687
 20
-135.3460578206816
 30
0.0
  0
SPLINE
  5
21F
330
70
100
AcDbEntity
  8
Livello 1
100
AcDbSpline
210
0.0
220
0.0
230
1.0
 70
    24
 71
     3
 72
     8
 73
     4
 74
     0
 42
0.000000001
 43
0.0000000001
 40
25.0
 40
25.0
 40
25.0
 40
25.0
 40
26.0
 40
26.0
 40
26.0
 40
26.0
 10
459.5046256463687
 20
-135.3460578206816
 30
0.0
 10
459.5046256463687
 20
-135.3460578206816
 30
0.0
 10
459.3170184289329
 20
-134.7732172652695
 30
0.0
 10
459.3170184289329
 20
-134.7732172652695
 30
0.0
  0
SPLINE
  5
220
330
70
100
AcDbEntity
  8
Livello 1
100
AcDbSpline
210
0.0
220
0.0
230
1.0
 70
    24
 71
     3
 72
     8
 73
     4
 74
     0
 42
0.000000001
 43
0.0000000001
 40
26.0
 40
26.0
 40
26.0
 40
26.0
 40
27.0
 40
27.0
 40
27.0
 40
27.0
 10
459.3170184289329
 20
-134.7732172652695
 30
0.0
 10
459.3170184289329
 20
-134.7732172652695
 30
0.0
 10
459.3178298178011
 20
-134.7748753208244
 30
0.0
 10
459.3178298178011
 20
-134.7748753208244
 30
0.0
  0
SPLINE
  5
221
330
70
100
AcDbEntity
  8
Livello 1
100
AcDbSpline
210
0.0
220
0.0
230
1.0
 70
     8
 71
     3
 72
     8
 73
     4
 74
     0
 42
0.000000001
 43
0.0000000001
 40
27.0
 40
27.0
 40
27.0
 40
27.0
 40
28.0
 40
28.0
 40
28.0
 40
28.0
 10
459.3178298178011
 20
-134.7748753208244
 30
0.0
 10
459.129411211497
 20
-134.2237305987402
 30
0.0
 10
458.670800112086
 20
-133.8101692099546
 30
0.0
 10
458.1046270709746
 20
-133.6817228210979
 30
0.0
  0
SPLINE
  5
222
330
70
100
AcDbEntity
  8
Livello 1
100
AcDbSpline
210
0.0
220
0.0
230
1.0
 70
    24
 71
     3
 72
     8
 73
     4
 74
     0
 42
0.000000001
 43
0.0000000001
 40
28.0
 40
28.0
 40
28.0
 40
28.0
 40
29.0
 40
29.0
 40
29.0
 40
29.0
 10
458.1046270709746
 20
-133.6817228210979
 30
0.0
 10
458.1046270709746
 20
-133.6817228210979
 30
0.0
 10
458.1079431820011
 20
-133.6825694877642
 30
0.0
 10
458.1079431820011
 20
-133.6825694877642
 30
0.0
  0
SPLINE
  5
223
330
70
100
AcDbEntity
  8
Livello 1
100
AcDbSpline
210
0.0
220
0.0
230
1.0
 70
    24
 71
     3
 72
     8
 73
     4
 74
     0
 42
0.000000001
 43
0.0000000001
 40
29.0
 40
29.0
 40
29.0
 40
29.0
 40
30.0
 40
30.0
 40
30.0
 40
30.0
 10
458.1079431820011
 20
-133.6825694877642
 30
0.0
 10
458.1079431820011
 20
-133.6825694877642
 30
0.0
 10
450.8369817008322
 20
-132.004088099295
 30
0.0
 10
450.8369817008322
 20
-132.004088099295
 30
0.0
  0
SPLINE
  5
224
330
70
100
AcDbEntity
  8
Livello 1
100
AcDbSpline
210
0.0
220
0.0
230
1.0
 70
    24
 71
     3
 72
     8
 73
     4
 74
     0
 42
0.000000001
 43
0.0000000001
 40
30.0
 40
30.0
 40
30.0
 40
30.0
 40
31.0
 40
31.0
 40
31.0
 40
31.0
 10
450.8369817008322
 20
-132.004088099295
 30
0.0
 10
450.8369817008322
 20
-132.004088099295
 30
0.0
 10
450.8811847552602
 20
-132.1099919881573
 30
0.0
 10
450.8811847552602
 20
-132.1099919881573
 30
0.0
  0
SPLINE
  5
225
330
70
100
AcDbEntity
  8
Livello 1
100
AcDbSpline
210
0.0
220
0.0
230
1.0
 70
    24
 71
     3
 72
     8
 73
     4
 74
     0
 42
0.000000001
 43
0.0000000001
 40
31.0
 40
31.0
 40
31.0
 40
31.0
 40
32.0
 40
32.0
 40
32.0
 40
32.0
 10
450.8811847552602
 20
-132.1099919881573
 30
0.0
 10
450.8811847552602
 20
-132.1099919881573
 30
0.0
 10
450.8778377856968
 20
-132.0957750437165
 30
0.0
 10
450.8778377856968
 20
-132.0957750437165
 30
0.0
  0
SPLINE
  5
226
330
70
100
AcDbEntity
  8
Livello 1
100
AcDbSpline
210
0.0
220
0.0
230
1.0
 70
     8
 71
     3
 72
     8
 73
     4
 74
     0
 42
0.000000001
 43
0.0000000001
 40
32.0
 40
32.0
 40
32.0
 40
32.0
 40
33.0
 40
33.0
 40
33.0
 40
33.0
 10
450.8778377856968
 20
-132.0957750437165
 30
0.0
 10
450.8278094788438
 20
-131.8823444882145
 30
0.0
 10
450.5234680977195
 20
-131.8097780993436
 30
0.0
 10
450.346691157785
 20
-131.7488886549144
 30
0.0
  0
SPLINE
  5
227
330
70
100
AcDbEntity
  8
Livello 1
100
AcDbSpline
210
0.0
220
0.0
230
1.0
 70
    24
 71
     3
 72
     8
 73
     4
 74
     0
 42
0.000000001
 43
0.0000000001
 40
33.0
 40
33.0
 40
33.0
 40
33.0
 40
34.0
 40
34.0
 40
34.0
 40
34.0
 10
450.346691157785
 20
-131.7488886549144
 30
0.0
 10
450.346691157785
 20
-131.7488886549144
 30
0.0
 10
450.2874950481841
 20
-131.7322728215853
 30
0.0
 10
450.2874950481841
 20
-131.7322728215853
 30
0.0
  0
SPLINE
  5
228
330
70
100
AcDbEntity
  8
Livello 1
100
AcDbSpline
210
0.0
220
0.0
230
1.0
 70
     8
 71
     3
 72
     8
 73
     4
 74
     0
 42
0.000000001
 43
0.0000000001
 40
34.0
 40
34.0
 40
34.0
 40
34.0
 40
35.0
 40
35.0
 40
35.0
 40
35.0
 10
450.2874950481841
 20
-131.7322728215853
 30
0.0
 10
448.9825348036986
 20
-131.3970280994467
 30
0.0
 10
447.6792678925033
 20
-131.0626653217525
 30
0.0
 10
446.3751543146628
 20
-130.73080726628
 30
0.0
  0
SPLINE
  5
229
330
70
100
AcDbEntity
  8
Livello 1
100
AcDbSpline
210
0.0
220
0.0
230
1.0
 70
    24
 71
     3
 72
     8
 73
     4
 74
     0
 42
0.000000001
 43
0.0000000001
 40
35.0
 40
35.0
 40
35.0
 40
35.0
 40
36.0
 40
36.0
 40
36.0
 40
36.0
 10
446.3751543146628
 20
-130.73080726628
 30
0.0
 10
446.3751543146628
 20
-130.73080726628
 30
0.0
 10
446.2283987628514
 20
-130.6932717107339
 30
0.0
 10
446.2283987628514
 20
-130.6932717107339
 30
0.0
  0
SPLINE
  5
22A
330
70
100
AcDbEntity
  8
Livello 1
100
AcDbSpline
210
0.0
220
0.0
230
1.0
 70
    24
 71
     3
 72
     8
 73
     4
 74
     0
 42
0.000000001
 43
0.0000000001
 40
36.0
 40
36.0
 40
36.0
 40
36.0
 40
37.0
 40
37.0
 40
37.0
 40
37.0
 10
446.2283987628514
 20
-130.6932717107339
 30
0.0
 10
446.2283987628514
 20
-130.6932717107339
 30
0.0
 10
446.0883459886467
 20
-130.6574647662982
 30
0.0
 10
446.0883459886467
 20
-130.6574647662982
 30
0.0
  0
SPLINE
  5
22B
330
70
100
AcDbEntity
  8
Livello 1
100
AcDbSpline
210
0.0
220
0.0
230
1.0
 70
     8
 71
     3
 72
     8
 73
     4
 74
     0
 42
0.000000001
 43
0.0000000001
 40
37.0
 40
37.0
 40
37.0
 40
37.0
 40
38.0
 40
38.0
 40
38.0
 40
38.0
 10
446.0883459886467
 20
-130.6574647662982
 30
0.0
 10
445.8781962717858
 20
-130.6040542107561
 30
0.0
 10
445.6713979437282
 20
-130.5473628218815
 30
0.0
 10
445.4621301712895
 20
-130.4898247663402
 30
0.0
  0
SPLINE
  5
22C
330
70
100
AcDbEntity
  8
Livello 1
100
AcDbSpline
210
0.0
220
0.0
230
1.0
 70
    24
 71
     3
 72
     8
 73
     4
 74
     0
 42
0.000000001
 43
0.0000000001
 40
38.0
 40
38.0
 40
38.0
 40
38.0
 40
39.0
 40
39.0
 40
39.0
 40
39.0
 10
445.4621301712895
 20
-130.4898247663402
 30
0.0
 10
445.4621301712895
 20
-130.4898247663402
 30
0.0
 10
445.3562262851023
 20
-130.461461433014
 30
0.0
 10
445.3562262851023
 20
-130.461461433014
 30
0.0
  0
SPLINE
  5
22D
330
70
100
AcDbEntity
  8
Livello 1
100
AcDbSpline
210
0.0
220
0.0
230
1.0
 70
    24
 71
     3
 72
     8
 73
     4
 74
     0
 42
0.000000001
 43
0.0000000001
 40
39.0
 40
39.0
 40
39.0
 40
39.0
 40
40.0
 40
40.0
 40
40.0
 40
40.0
 10
445.3562262851023
 20
-130.461461433014
 30
0.0
 10
445.3562262851023
 20
-130.461461433014
 30
0.0
 10
445.2636573985751
 20
-130.435673377465
 30
0.0
 10
445.2636573985751
 20
-130.435673377465
 30
0.0
  0
SPLINE
  5
22E
330
70
100
AcDbEntity
  8
Livello 1
100
AcDbSpline
210
0.0
220
0.0
230
1.0
 70
     8
 71
     3
 72
     8
 73
     4
 74
     0
 42
0.000000001
 43
0.0000000001
 40
40.0
 40
40.0
 40
40.0
 40
40.0
 40
41.0
 40
41.0
 40
41.0
 40
41.0
 10
445.2636573985751
 20
-130.435673377465
 30
0.0
 10
445.1777912896546
 20
-130.4156003219143
 30
0.0
 10
445.0860690697723
 20
-130.3831094885891
 30
0.0
 10
444.9993562942068
 20
-130.3714325441477
 30
0.0
  0
SPLINE
  5
22F
330
70
100
AcDbEntity
  8
Livello 1
100
AcDbSpline
210
0.0
220
0.0
230
1.0
 70
    24
 71
     3
 72
     8
 73
     4
 74
     0
 42
0.000000001
 43
0.0000000001
 40
41.0
 40
41.0
 40
41.0
 40
41.0
 40
42.0
 40
42.0
 40
42.0
 40
42.0
 10
444.9993562942068
 20
-130.3714325441477
 30
0.0
 10
444.9993562942068
 20
-130.3714325441477
 30
0.0
 10
444.9818627871708
 20
-130.3731258774805
 30
0.0
 10
444.9818627871708
 20
-130.3731258774805
 30
0.0
  0
SPLINE
  5
230
330
70
100
AcDbEntity
  8
Livello 1
100
AcDbSpline
210
0.0
220
0.0
230
1.0
 70
    24
 71
     3
 72
     8
 73
     4
 74
     0
 42
0.000000001
 43
0.0000000001
 40
42.0
 40
42.0
 40
42.0
 40
42.0
 40
43.0
 40
43.0
 40
43.0
 40
43.0
 10
444.9818627871708
 20
-130.3731258774805
 30
0.0
 10
444.9818627871708
 20
-130.3731258774805
 30
0.0
 10
444.9776604614269
 20
-130.3739372663692
 30
0.0
 10
444.9776604614269
 20
-130.3739372663692
 30
0.0
  0
SPLINE
  5
231
330
70
100
AcDbEntity
  8
Livello 1
100
AcDbSpline
210
0.0
220
0.0
230
1.0
 70
     8
 71
     3
 72
     8
 73
     4
 74
     0
 42
0.000000001
 43
0.0000000001
 40
43.0
 40
43.0
 40
43.0
 40
43.0
 40
44.0
 40
44.0
 40
44.0
 40
44.0
 10
444.9776604614269
 20
-130.3739372663692
 30
0.0
 10
444.8842801860314
 20
-130.3714325441477
 30
0.0
 10
444.4823604740632
 20
-129.7210161554213
 30
0.0
 10
444.4031618649725
 20
-129.7027069887591
 30
0.0
  0
SPLINE
  5
232
330
70
100
AcDbEntity
  8
Livello 1
100
AcDbSpline
210
0.0
220
0.0
230
1.0
 70
    24
 71
     3
 72
     8
 73
     4
 74
     0
 42
0.000000001
 43
0.0000000001
 40
44.0
 40
44.0
 40
44.0
 40
44.0
 40
45.0
 40
45.0
 40
45.0
 40
45.0
 10
444.4031618649725
 20
-129.7027069887591
 30
0.0
 10
444.4031618649725
 20
-129.7027069887591
 30
0.0
 10
440.6150694616148
 20
-128.8280297667558
 30
0.0
 10
440.6150694616148
 20
-128.8280297667558
 30
0.0
  0
SPLINE
  5
233
330
70
100
AcDbEntity
  8
Livello 1
100
AcDbSpline
210
0.0
220
0.0
230
1.0
 70
    24
 71
     3
 72
     8
 73
     4
 74
     0
 42
0.000000001
 43
0.0000000001
 40
45.0
 40
45.0
 40
45.0
 40
45.0
 40
46.0
 40
46.0
 40
46.0
 40
46.0
 10
440.6150694616148
 20
-128.8280297667558
 30
0.0
 10
440.6150694616148
 20
-128.8280297667558
 30
0.0
 10
440.6150694616148
 20
-157.0372344819254
 30
0.0
 10
440.6150694616148
 20
-157.0372344819254
 30
0.0
  0
LINE
  5
234
330
70
100
AcDbEntity
  8
Livello 1
100
AcDbLine
 10
450.9470483646907
 20
-133.4707617100395
 30
0.0
 11
450.9687089196938
 21
-133.4766178211491
 31
0.0
  0
LINE
  5
235
330
70
100
AcDbEntity
  8
Livello 1
100
AcDbLine
 10
450.9687089196938
 20
-133.4766178211491
 30
0.0
 11
450.9995769744619
 21
-133.4866367100355
 31
0.0
  0
LINE
  5
236
330
70
100
AcDbEntity
  8
Livello 1
100
AcDbLine
 10
450.9995769744619
 20
-133.4866367100355
 30
0.0
 11
451.0295983625848
 21
-133.4982783766992
 31
0.0
  0
LINE
  5
237
330
70
100
AcDbEntity
  8
Livello 1
100
AcDbLine
 10
451.0295983625848
 20
-133.4982783766992
 30
0.0
 11
451.0562683619043
 21
-133.5099905989184
 31
0.0
  0
LINE
  5
238
330
70
100
AcDbEntity
  8
Livello 1
100
AcDbLine
 10
450.9470483646907
 20
-154.5424253158827
 30
0.0
 11
450.9687089196938
 21
-154.5374511492172
 31
0.0
  0
LINE
  5
239
330
70
100
AcDbEntity
  8
Livello 1
100
AcDbLine
 10
450.9687089196938
 20
-154.5374511492172
 30
0.0
 11
450.9995769744619
 21
-154.5265855936642
 31
0.0
  0
LINE
  5
23A
330
70
100
AcDbEntity
  8
Livello 1
100
AcDbLine
 10
450.9995769744619
 20
-154.5265855936642
 30
0.0
 11
451.0295983625848
 21
-154.5149439270006
 31
0.0
  0
LINE
  5
23B
330
70
100
AcDbEntity
  8
Livello 1
100
AcDbLine
 10
451.0295983625848
 20
-154.5149439270006
 30
0.0
 11
451.0562683619043
 21
-154.5032317047814
 31
0.0
  0
SPLINE
  5
23C
330
70
100
AcDbEntity
  8
Livello 1
100
AcDbSpline
210
0.0
220
0.0
230
1.0
 70
    24
 71
     3
 72
     8
 73
     4
 74
     0
 42
0.000000001
 43
0.0000000001
 40
0.0
 40
0.0
 40
0.0
 40
0.0
 40
1.0
 40
1.0
 40
1.0
 40
1.0
 10
459.3178650955779
 20
-134.7756867097132
 30
0.0
 10
459.3178650955779
 20
-134.7756867097132
 30
0.0
 10
459.2961738947036
 20
-134.7732172652695
 30
0.0
 10
459.2961738947036
 20
-134.7732172652695
 30
0.0
  0
SPLINE
  5
23D
330
70
100
AcDbEntity
  8
Livello 1
100
AcDbSpline
210
0.0
220
0.0
230
1.0
 70
     8
 71
     3
 72
     8
 73
     4
 74
     0
 42
0.000000001
 43
0.0000000001
 40
1.0
 40
1.0
 40
1.0
 40
1.0
 40
2.0
 40
2.0
 40
2.0
 40
2.0
 10
459.2961738947036
 20
-134.7732172652695
 30
0.0
 10
456.7413173835333
 20
-134.4397011542416
 30
0.0
 10
454.1956377262568
 20
-134.0561258765596
 30
0.0
 10
451.6574766743917
 20
-133.6150478211145
 30
0.0
  0
SPLINE
  5
23E
330
70
100
AcDbEntity
  8
Livello 1
100
AcDbSpline
210
0.0
220
0.0
230
1.0
 70
    24
 71
     3
 72
     8
 73
     4
 74
     0
 42
0.000000001
 43
0.0000000001
 40
2.0
 40
2.0
 40
2.0
 40
2.0
 40
3.0
 40
3.0
 40
3.0
 40
3.0
 10
451.6574766743917
 20
-133.6150478211145
 30
0.0
 10
451.6574766743917
 20
-133.6150478211145
 30
0.0
 10
451.0562683619043
 20
-133.5091439322522
 30
0.0
 10
451.0562683619043
 20
-133.5091439322522
 30
0.0
  0
SPLINE
  5
23F
330
70
100
AcDbEntity
  8
Livello 1
100
AcDbSpline
210
0.0
220
0.0
230
1.0
 70
    24
 71
     3
 72
     8
 73
     4
 74
     0
 42
0.000000001
 43
0.0000000001
 40
0.0
 40
0.0
 40
0.0
 40
0.0
 40
1.0
 40
1.0
 40
1.0
 40
1.0
 10
451.0562683619043
 20
-154.5032317047814
 30
0.0
 10
451.0562683619043
 20
-154.5032317047814
 30
0.0
 10
451.7567086218123
 20
-154.3798653159231
 30
0.0
 10
451.7567086218123
 20
-154.3798653159231
 30
0.0
  0
SPLINE
  5
240
330
70
100
AcDbEntity
  8
Livello 1
100
AcDbSpline
210
0.0
220
0.0
230
1.0
 70
     8
 71
     3
 72
     8
 73
     4
 74
     0
 42
0.000000001
 43
0.0000000001
 40
1.0
 40
1.0
 40
1.0
 40
1.0
 40
2.0
 40
2.0
 40
2.0
 40
2.0
 10
451.7567086218123
 20
-154.3798653159231
 30
0.0
 10
454.2631946689778
 20
-153.9487708715865
 30
0.0
 10
456.7746548826828
 20
-153.5668536494599
 30
0.0
 10
459.2961738947036
 20
-153.2400403162082
 30
0.0
  0
SPLINE
  5
241
330
70
100
AcDbEntity
  8
Livello 1
100
AcDbSpline
210
0.0
220
0.0
230
1.0
 70
    24
 71
     3
 72
     8
 73
     4
 74
     0
 42
0.000000001
 43
0.0000000001
 40
2.0
 40
2.0
 40
2.0
 40
2.0
 40
3.0
 40
3.0
 40
3.0
 40
3.0
 10
459.2961738947036
 20
-153.2400403162082
 30
0.0
 10
459.2961738947036
 20
-153.2400403162082
 30
0.0
 10
459.3178298178011
 20
-153.2366536495425
 30
0.0
 10
459.3178298178011
 20
-153.2366536495425
 30
0.0
  0
SPLINE
  5
242
330
70
100
AcDbEntity
  8
Livello 1
100
AcDbSpline
210
0.0
220
0.0
230
1.0
 70
    24
 71
     3
 72
     8
 73
     4
 74
     0
 42
0.000000001
 43
0.0000000001
 40
0.0
 40
0.0
 40
0.0
 40
0.0
 40
1.0
 40
1.0
 40
1.0
 40
1.0
 10
450.5484800415258
 20
-155.220323093491
 30
0.0
 10
450.5484800415258
 20
-155.220323093491
 30
0.0
 10
449.8355514486029
 20
-155.3303897601301
 30
0.0
 10
449.8355514486029
 20
-155.3303897601301
 30
0.0
  0
SPLINE
  5
243
330
70
100
AcDbEntity
  8
Livello 1
100
AcDbSpline
210
0.0
220
0.0
230
1.0
 70
     8
 71
     3
 72
     8
 73
     4
 74
     0
 42
0.000000001
 43
0.0000000001
 40
1.0
 40
1.0
 40
1.0
 40
1.0
 40
2.0
 40
2.0
 40
2.0
 40
2.0
 10
449.8355514486029
 20
-155.3303897601301
 30
0.0
 10
446.858812635657
 20
-155.7965150377912
 30
0.0
 10
443.8903683430003
 20
-156.355173926541
 30
0.0
 10
440.9411066755192
 20
-156.9697128152757
 30
0.0
  0
SPLINE
  5
244
330
70
100
AcDbEntity
  8
Livello 1
100
AcDbSpline
210
0.0
220
0.0
230
1.0
 70
    24
 71
     3
 72
     8
 73
     4
 74
     0
 42
0.000000001
 43
0.0000000001
 40
2.0
 40
2.0
 40
2.0
 40
2.0
 40
3.0
 40
3.0
 40
3.0
 40
3.0
 10
440.9411066755192
 20
-156.9697128152757
 30
0.0
 10
440.9411066755192
 20
-156.9697128152757
 30
0.0
 10
440.6150694616148
 20
-157.0381164263698
 30
0.0
 10
440.6150694616148
 20
-157.0381164263698
 30
0.0
  0
SPLINE
  5
245
330
70
100
AcDbEntity
  8
Livello 1
100
AcDbSpline
210
0.0
220
0.0
230
1.0
 70
    24
 71
     3
 72
     8
 73
     4
 74
     0
 42
0.000000001
 43
0.0000000001
 40
0.0
 40
0.0
 40
0.0
 40
0.0
 40
1.0
 40
1.0
 40
1.0
 40
1.0
 10
450.5484800415258
 20
-132.7936753213197
 30
0.0
 10
450.5484800415258
 20
-132.7936753213197
 30
0.0
 10
449.8355514486029
 20
-132.6836439324585
 30
0.0
 10
449.8355514486029
 20
-132.6836439324585
 30
0.0
  0
SPLINE
  5
246
330
70
100
AcDbEntity
  8
Livello 1
100
AcDbSpline
210
0.0
220
0.0
230
1.0
 70
     8
 71
     3
 72
     8
 73
     4
 74
     0
 42
0.000000001
 43
0.0000000001
 40
1.0
 40
1.0
 40
1.0
 40
1.0
 40
2.0
 40
2.0
 40
2.0
 40
2.0
 10
449.8355514486029
 20
-132.6836439324585
 30
0.0
 10
446.8571193023668
 20
-132.2158605992421
 30
0.0
 10
443.8928688224358
 20
-131.6596711549366
 30
0.0
 10
440.9411066755192
 20
-131.0443561550904
 30
0.0
  0
SPLINE
  5
247
330
70
100
AcDbEntity
  8
Livello 1
100
AcDbSpline
210
0.0
220
0.0
230
1.0
 70
    24
 71
     3
 72
     8
 73
     4
 74
     0
 42
0.000000001
 43
0.0000000001
 40
2.0
 40
2.0
 40
2.0
 40
2.0
 40
3.0
 40
3.0
 40
3.0
 40
3.0
 10
440.9411066755192
 20
-131.0443561550904
 30
0.0
 10
440.9411066755192
 20
-131.0443561550904
 30
0.0
 10
440.6150694616148
 20
-130.9751411551079
 30
0.0
 10
440.6150694616148
 20
-130.9751411551079
 30
0.0
  0
SPLINE
  5
248
330
70
100
AcDbEntity
  8
Livello 1
100
AcDbSpline
210
0.0
220
0.0
230
1.0
 70
     8
 71
     3
 72
     8
 73
     4
 74
     0
 42
0.000000001
 43
0.0000000001
 40
0.0
 40
0.0
 40
0.0
 40
0.0
 40
1.0
 40
1.0
 40
1.0
 40
1.0
 10
451.0270936404264
 20
-152.2786150386707
 30
0.0
 10
451.0404286400863
 20
-151.8492139276666
 30
0.0
 10
451.0512941953646
 20
-151.4222822611075
 30
0.0
 10
451.0612822300955
 20
-150.9928458723259
 30
0.0
  0
SPLINE
  5
249
330
70
100
AcDbEntity
  8
Livello 1
100
AcDbSpline
210
0.0
220
0.0
230
1.0
 70
    24
 71
     3
 72
     8
 73
     4
 74
     0
 42
0.000000001
 43
0.0000000001
 40
1.0
 40
1.0
 40
1.0
 40
1.0
 40
2.0
 40
2.0
 40
2.0
 40
2.0
 10
451.0612822300955
 20
-150.9928458723259
 30
0.0
 10
451.0612822300955
 20
-150.9928458723259
 30
0.0
 10
451.0721080837226
 20
-150.5017439280039
 30
0.0
 10
451.0721080837226
 20
-150.5017439280039
 30
0.0
  0
SPLINE
  5
24A
330
70
100
AcDbEntity
  8
Livello 1
100
AcDbSpline
210
0.0
220
0.0
230
1.0
 70
     8
 71
     3
 72
     8
 73
     4
 74
     0
 42
0.000000001
 43
0.0000000001
 40
2.0
 40
2.0
 40
2.0
 40
2.0
 40
3.0
 40
3.0
 40
3.0
 40
3.0
 10
451.0721080837226
 20
-150.5017439280039
 30
0.0
 10
451.1146530826371
 20
-148.653153095133
 30
0.0
 10
451.1329975266134
 20
-146.8029042067066
 30
0.0
 10
451.1396650264434
 20
-144.9534667071688
 30
0.0
  0
SPLINE
  5
24B
330
70
100
AcDbEntity
  8
Livello 1
100
AcDbSpline
210
0.0
220
0.0
230
1.0
 70
    24
 71
     3
 72
     8
 73
     4
 74
     0
 42
0.000000001
 43
0.0000000001
 40
3.0
 40
3.0
 40
3.0
 40
3.0
 40
4.0
 40
4.0
 40
4.0
 40
4.0
 10
451.1396650264434
 20
-144.9534667071688
 30
0.0
 10
451.1396650264434
 20
-144.9534667071688
 30
0.0
 10
451.1405116930886
 20
-144.0062230962943
 30
0.0
 10
451.1405116930886
 20
-144.0062230962943
 30
0.0
  0
SPLINE
  5
24C
330
70
100
AcDbEntity
  8
Livello 1
100
AcDbSpline
210
0.0
220
0.0
230
1.0
 70
    24
 71
     3
 72
     8
 73
     4
 74
     0
 42
0.000000001
 43
0.0000000001
 40
0.0
 40
0.0
 40
0.0
 40
0.0
 40
1.0
 40
1.0
 40
1.0
 40
1.0
 10
450.9370647538345
 20
-154.7942733713749
 30
0.0
 10
450.9370647538345
 20
-154.7942733713749
 30
0.0
 10
450.9312086428727
 20
-154.8351603158094
 30
0.0
 10
450.9312086428727
 20
-154.8351603158094
 30
0.0
  0
SPLINE
  5
24D
330
70
100
AcDbEntity
  8
Livello 1
100
AcDbSpline
210
0.0
220
0.0
230
1.0
 70
     8
 71
     3
 72
     8
 73
     4
 74
     0
 42
0.000000001
 43
0.0000000001
 40
1.0
 40
1.0
 40
1.0
 40
1.0
 40
2.0
 40
2.0
 40
2.0
 40
2.0
 10
450.9312086428727
 20
-154.8351603158094
 30
0.0
 10
450.902885007914
 20
-155.0019183713234
 30
0.0
 10
450.7469175364631
 20
-155.1220039268486
 30
0.0
 10
450.6051714289683
 20
-155.1936883712751
 30
0.0
  0
SPLINE
  5
24E
330
70
100
AcDbEntity
  8
Livello 1
100
AcDbSpline
210
0.0
220
0.0
230
1.0
 70
    24
 71
     3
 72
     8
 73
     4
 74
     0
 42
0.000000001
 43
0.0000000001
 40
2.0
 40
2.0
 40
2.0
 40
2.0
 40
3.0
 40
3.0
 40
3.0
 40
3.0
 10
450.6051714289683
 20
-155.1936883712751
 30
0.0
 10
450.6051714289683
 20
-155.1936883712751
 30
0.0
 10
450.5484800415258
 20
-155.2204289268241
 30
0.0
 10
450.5484800415258
 20
-155.2204289268241
 30
0.0
  0
SPLINE
  5
24F
330
70
100
AcDbEntity
  8
Livello 1
100
AcDbSpline
210
0.0
220
0.0
230
1.0
 70
    24
 71
     3
 72
     8
 73
     4
 74
     0
 42
0.000000001
 43
0.0000000001
 40
0.0
 40
0.0
 40
0.0
 40
0.0
 40
1.0
 40
1.0
 40
1.0
 40
1.0
 10
451.0921458609892
 20
-138.4779483754543
 30
0.0
 10
451.0921458609892
 20
-138.4779483754543
 30
0.0
 10
451.091299194344
 20
-138.4187522643579
 30
0.0
 10
451.091299194344
 20
-138.4187522643579
 30
0.0
  0
SPLINE
  5
250
330
70
100
AcDbEntity
  8
Livello 1
100
AcDbSpline
210
0.0
220
0.0
230
1.0
 70
     8
 71
     3
 72
     8
 73
     4
 74
     0
 42
0.000000001
 43
0.0000000001
 40
1.0
 40
1.0
 40
1.0
 40
1.0
 40
2.0
 40
2.0
 40
2.0
 40
2.0
 10
451.091299194344
 20
-138.4187522643579
 30
0.0
 10
451.062124472866
 20
-136.958746153612
 30
0.0
 10
451.0262822515583
 20
-135.4986694873102
 30
0.0
 10
450.9704022529838
 20
-134.0386633765643
 30
0.0
  0
SPLINE
  5
251
330
70
100
AcDbEntity
  8
Livello 1
100
AcDbSpline
210
0.0
220
0.0
230
1.0
 70
    24
 71
     3
 72
     8
 73
     4
 74
     0
 42
0.000000001
 43
0.0000000001
 40
2.0
 40
2.0
 40
2.0
 40
2.0
 40
3.0
 40
3.0
 40
3.0
 40
3.0
 10
450.9704022529838
 20
-134.0386633765643
 30
0.0
 10
450.9704022529838
 20
-134.0386633765643
 30
0.0
 10
450.9370647538345
 20
-133.2198661545465
 30
0.0
 10
450.9370647538345
 20
-133.2198661545465
 30
0.0
  0
SPLINE
  5
252
330
70
100
AcDbEntity
  8
Livello 1
100
AcDbSpline
210
0.0
220
0.0
230
1.0
 70
    24
 71
     3
 72
     8
 73
     4
 74
     0
 42
0.000000001
 43
0.0000000001
 40
3.0
 40
3.0
 40
3.0
 40
3.0
 40
4.0
 40
4.0
 40
4.0
 40
4.0
 10
450.9370647538345
 20
-133.2198661545465
 30
0.0
 10
450.9370647538345
 20
-133.2198661545465
 30
0.0
 10
450.9312086428727
 20
-133.1789792101123
 30
0.0
 10
450.9312086428727
 20
-133.1789792101123
 30
0.0
  0
SPLINE
  5
253
330
70
100
AcDbEntity
  8
Livello 1
100
AcDbSpline
210
0.0
220
0.0
230
1.0
 70
     8
 71
     3
 72
     8
 73
     4
 74
     0
 42
0.000000001
 43
0.0000000001
 40
4.0
 40
4.0
 40
4.0
 40
4.0
 40
5.0
 40
5.0
 40
5.0
 40
5.0
 10
450.9312086428727
 20
-133.1789792101123
 30
0.0
 10
450.9078547545795
 20
-133.0188886545967
 30
0.0
 10
450.7419433699235
 20
-132.8863147657411
 30
0.0
 10
450.6051714289683
 20
-132.8204511546463
 30
0.0
  0
SPLINE
  5
254
330
70
100
AcDbEntity
  8
Livello 1
100
AcDbSpline
210
0.0
220
0.0
230
1.0
 70
    24
 71
     3
 72
     8
 73
     4
 74
     0
 42
0.000000001
 43
0.0000000001
 40
5.0
 40
5.0
 40
5.0
 40
5.0
 40
6.0
 40
6.0
 40
6.0
 40
6.0
 10
450.6051714289683
 20
-132.8204511546463
 30
0.0
 10
450.6051714289683
 20
-132.8204511546463
 30
0.0
 10
450.5484800415258
 20
-132.7937811546533
 30
0.0
 10
450.5484800415258
 20
-132.7937811546533
 30
0.0
  0
LINE
  5
255
330
70
100
AcDbEntity
  8
Livello 1
100
AcDbLine
 10
451.1397003042203
 20
-144.0062230962943
 30
0.0
 11
451.1388536375751
 21
-143.059014763198
 31
0.0
  0
LINE
  5
256
330
70
100
AcDbEntity
  8
Livello 1
100
AcDbLine
 10
451.1388536375751
 20
-143.059014763198
 30
0.0
 11
451.1346600078558
 21
-142.1193205967662
 31
0.0
  0
LINE
  5
257
330
70
100
AcDbEntity
  8
Livello 1
100
AcDbLine
 10
451.1346600078558
 20
-142.1193205967662
 30
0.0
 11
451.1271766934286
 21
-141.184600597
 31
0.0
  0
LINE
  5
258
330
70
100
AcDbEntity
  8
Livello 1
100
AcDbLine
 10
451.1271766934286
 20
-141.184600597
 30
0.0
 11
451.1188158603085
 21
-140.2565480972318
 31
0.0
  0
LINE
  5
259
330
70
100
AcDbEntity
  8
Livello 1
100
AcDbLine
 10
451.1188158603085
 20
-140.2565480972318
 30
0.0
 11
451.1054808606488
 21
-139.3343164307957
 31
0.0
  0
LINE
  5
25A
330
70
100
AcDbEntity
  8
Livello 1
100
AcDbLine
 10
451.1054808606488
 20
-139.3343164307957
 30
0.0
 11
451.091299194344
 21
-138.4771369865655
 31
0.0
  0
SPLINE
  5
25B
330
70
100
AcDbEntity
  8
Livello 1
100
AcDbSpline
210
0.0
220
0.0
230
1.0
 70
    24
 71
     3
 72
     8
 73
     4
 74
     0
 42
0.000000001
 43
0.0000000001
 40
0.0
 40
0.0
 40
0.0
 40
0.0
 40
1.0
 40
1.0
 40
1.0
 40
1.0
 10
450.6102161510618
 20
-156.1792789265847
 30
0.0
 10
450.6102161510618
 20
-156.1792789265847
 30
0.0
 10
450.6093738968755
 20
-156.1826303154722
 30
0.0
 10
450.6093738968755
 20
-156.1826303154722
 30
0.0
  0
SPLINE
  5
25C
330
70
100
AcDbEntity
  8
Livello 1
100
AcDbSpline
210
0.0
220
0.0
230
1.0
 70
     8
 71
     3
 72
     8
 73
     4
 74
     0
 42
0.000000001
 43
0.0000000001
 40
1.0
 40
1.0
 40
1.0
 40
1.0
 40
2.0
 40
2.0
 40
2.0
 40
2.0
 10
450.6093738968755
 20
-156.1826303154722
 30
0.0
 10
450.5234680977195
 20
-156.2260219821285
 30
0.0
 10
450.3908942122128
 20
-156.2535386487881
 30
0.0
 10
450.2975183413986
 20
-156.2819019821146
 30
0.0
  0
SPLINE
  5
25D
330
70
100
AcDbEntity
  8
Livello 1
100
AcDbSpline
210
0.0
220
0.0
230
1.0
 70
    24
 71
     3
 72
     8
 73
     4
 74
     0
 42
0.000000001
 43
0.0000000001
 40
2.0
 40
2.0
 40
2.0
 40
2.0
 40
3.0
 40
3.0
 40
3.0
 40
3.0
 10
450.2975183413986
 20
-156.2819019821146
 30
0.0
 10
450.2975183413986
 20
-156.2819019821146
 30
0.0
 10
450.2599783822194
 20
-156.2910389265563
 30
0.0
 10
450.2599783822194
 20
-156.2910389265563
 30
0.0
  0
SPLINE
  5
25E
330
70
100
AcDbEntity
  8
Livello 1
100
AcDbSpline
210
0.0
220
0.0
230
1.0
 70
    24
 71
     3
 72
     8
 73
     4
 74
     0
 42
0.000000001
 43
0.0000000001
 40
3.0
 40
3.0
 40
3.0
 40
3.0
 40
4.0
 40
4.0
 40
4.0
 40
4.0
 10
450.2599783822194
 20
-156.2910389265563
 30
0.0
 10
450.2599783822194
 20
-156.2910389265563
 30
0.0
 10
446.3493309819884
 20
-157.2916578151951
 30
0.0
 10
446.3493309819884
 20
-157.2916578151951
 30
0.0
  0
SPLINE
  5
25F
330
70
100
AcDbEntity
  8
Livello 1
100
AcDbSpline
210
0.0
220
0.0
230
1.0
 70
    24
 71
     3
 72
     8
 73
     4
 74
     0
 42
0.000000001
 43
0.0000000001
 40
0.0
 40
0.0
 40
0.0
 40
0.0
 40
1.0
 40
1.0
 40
1.0
 40
1.0
 10
450.2600136599963
 20
-131.723135877143
 30
0.0
 10
450.2600136599963
 20
-131.723135877143
 30
0.0
 10
450.2975183413986
 20
-131.7323786549185
 30
0.0
 10
450.2975183413986
 20
-131.7323786549185
 30
0.0
  0
SPLINE
  5
260
330
70
100
AcDbEntity
  8
Livello 1
100
AcDbSpline
210
0.0
220
0.0
230
1.0
 70
     8
 71
     3
 72
     8
 73
     4
 74
     0
 42
0.000000001
 43
0.0000000001
 40
1.0
 40
1.0
 40
1.0
 40
1.0
 40
2.0
 40
2.0
 40
2.0
 40
2.0
 10
450.2975183413986
 20
-131.7323786549185
 30
0.0
 10
450.3883894900544
 20
-131.7573553215788
 30
0.0
 10
450.5268238968959
 20
-131.7890700437933
 30
0.0
 10
450.6093738968755
 20
-131.8307330993384
 30
0.0
  0
SPLINE
  5
261
330
70
100
AcDbEntity
  8
Livello 1
100
AcDbSpline
210
0.0
220
0.0
230
1.0
 70
    24
 71
     3
 72
     8
 73
     4
 74
     0
 42
0.000000001
 43
0.0000000001
 40
2.0
 40
2.0
 40
2.0
 40
2.0
 40
3.0
 40
3.0
 40
3.0
 40
3.0
 10
450.6093738968755
 20
-131.8307330993384
 30
0.0
 10
450.6093738968755
 20
-131.8307330993384
 30
0.0
 10
450.6102161510618
 20
-131.8340844882265
 30
0.0
 10
450.6102161510618
 20
-131.8340844882265
 30
0.0
  0
SPLINE
  5
262
330
70
100
AcDbEntity
  8
Livello 1
100
AcDbSpline
210
0.0
220
0.0
230
1.0
 70
    24
 71
     3
 72
     8
 73
     4
 74
     0
 42
0.000000001
 43
0.0000000001
 40
3.0
 40
3.0
 40
3.0
 40
3.0
 40
4.0
 40
4.0
 40
4.0
 40
4.0
 10
450.6102161510618
 20
-131.8340844882265
 30
0.0
 10
450.6102161510618
 20
-131.8340844882265
 30
0.0
 10
450.6126855954433
 20
-131.8574030993318
 30
0.0
 10
450.6126855954433
 20
-131.8574030993318
 30
0.0
  0
HATCH
  5
2E1
330
70
100
AcDbEntity
  8
Livello 1
440
 33554687
100
AcDbHatch
 10
0.0
 20
0.0
 30
0.0
210
0.0
220
0.0
230
1.0
  2
SOLID
 70
     1
 71
     0
 91
        1
 92
        1
 93
        1
 72
     4
 94
        3
 73
     0
 74
     0
 95
       59
 96
       55
 40
0.0
 40
0.0
 40
0.0
 40
0.0
 40
1.0
 40
1.0
 40
1.0
 40
2.0
 40
2.0
 40
2.0
 40
3.0
 40
3.0
 40
3.0
 40
4.0
 40
4.0
 40
4.0
 40
5.0
 40
5.0
 40
5.0
 40
6.0
 40
6.0
 40
6.0
 40
7.0
 40
7.0
 40
7.0
 40
8.0
 40
8.0
 40
8.0
 40
9.0
 40
9.0
 40
9.0
 40
10.0
 40
10.0
 40
10.0
 40
11.0
 40
11.0
 40
11.0
 40
12.0
 40
12.0
 40
12.0
 40
13.0
 40
13.0
 40
13.0
 40
14.0
 40
14.0
 40
14.0
 40
15.0
 40
15.0
 40
15.0
 40
16.0
 40
16.0
 40
16.0
 40
17.0
 40
17.0
 40
17.0
 40
18.0
 40
18.0
 40
18.0
 40
18.0
 10
387.2345892044067
 20
-182.5125460698232
 10
387.5518824985982
 20
-182.7158067034529
 10
388.2884439133446
 20
-183.0330999976445
 10
389.0632458879773
 20
-183.0330999976445
 10
390.4981281575838
 20
-183.0330999976445
 10
390.942545475181
 20
-182.1187716558592
 10
390.9297986218856
 20
-181.4331976542945
 10
390.9170517685902
 20
-180.2777126285416
 10
389.8759439129477
 20
-179.7823078977627
 10
388.7965954974189
 20
-179.7823078977627
 10
388.7965954974189
 20
-179.7823078977627
 10
388.1744112527828
 20
-179.7823078977627
 10
388.1744112527828
 20
-179.7823078977627
 10
388.1744112527828
 20
-179.7823078977627
 10
388.1744112527828
 20
-178.9441161662014
 10
388.1744112527828
 20
-178.9441161662014
 10
388.1744112527828
 20
-178.9441161662014
 10
388.7965954974189
 20
-178.9441161662014
 10
388.7965954974189
 20
-178.9441161662014
 10
389.6092935223894
 20
-178.9441161662014
 10
390.6376545247364
 20
-178.5251925551951
 10
390.6376545247364
 20
-177.5474744564812
 10
390.6376545247364
 20
-176.8870496519588
 10
390.2187309137301
 20
-176.3031059672089
 10
389.1900254018345
 20
-176.3031059672089
 10
388.5299451068607
 20
-176.3031059672089
 10
387.895014008929
 20
-176.5949055548096
 10
387.5394801548513
 20
-176.849153601621
 10
387.5394801548513
 20
-176.849153601621
 10
387.247336057702
 20
-176.0364555766505
 10
387.247336057702
 20
-176.0364555766505
 10
387.6790065220039
 20
-175.7188177729105
 10
388.5171982535652
 20
-175.401524478719
 10
389.4060328887596
 20
-175.401524478719
 10
391.0314289387005
 20
-175.401524478719
 10
391.7679903534469
 20
-176.3664957241375
 10
391.7679903534469
 20
-177.3697075294423
 10
391.7679903534469
 20
-178.2203016047505
 10
391.2598387693726
 20
-178.9441161662014
 10
390.2442246203209
 20
-179.3123968735747
 10
390.2442246203209
 20
-179.3123968735747
 10
390.2442246203209
 20
-179.3378905801655
 10
390.2442246203209
 20
-179.3378905801655
 10
391.2598387693726
 20
-179.5411512137953
 10
392.0852836476384
 20
-180.302861825584
 10
392.0852836476384
 20
-181.4586913608853
 10
392.0852836476384
 20
-182.7791964603815
 10
391.0569226452914
 20
-183.9346814861344
 10
389.0759927412727
 20
-183.9346814861344
 10
388.148917546192
 20
-183.9346814861344
 10
387.3362195212215
 20
-183.6425373889851
 10
386.9296982539621
 20
-183.3758869984268
 10
386.9296982539621
 20
-183.3758869984268
 10
387.2345892044067
 20
-182.5125460698232
 10
387.2345892044067
 20
-182.5125460698232
 97
        0
 97
        0
 75
     2
 76
     1
 98
        1
 10
0.0
 20
0.0
450
        0
451
        0
460
0.0
461
0.0
452
        0
462
0.0
453
        0
470

  0
SPLINE
  5
2E2
330
70
100
AcDbEntity
  8
Livello 1
100
AcDbSpline
210
0.0
220
0.0
230
1.0
 70
     9
 71
     3
 72
    17
 73
    13
 74
     0
 42
0.000000001
 43
0.0000000001
 40
0.0
 40
0.0
 40
0.0
 40
0.0
 40
1.0
 40
1.0
 40
1.0
 40
2.0
 40
2.0
 40
2.0
 40
3.0
 40
3.0
 40
3.0
 40
4.0
 40
4.0
 40
4.0
 40
4.0
 10
394.4858261817605
 20
-179.7061712875387
 30
0.0
 10
394.4858261817605
 20
-181.8521212653008
 30
0.0
 10
395.1462509862829
 20
-183.0713405575306
 30
0.0
 10
396.1622096448831
 20
-183.0713405575306
 30
0.0
 10
397.3049478173405
 20
-183.0713405575306
 30
0.0
 10
397.8509954517526
 20
-181.738088604739
 30
0.0
 10
397.8509954517526
 20
-179.6300346773147
 30
0.0
 10
397.8509954517526
 20
-177.5981173601143
 30
0.0
 10
397.3304415239312
 20
-176.2648654073226
 30
0.0
 10
396.1749564981785
 20
-176.2648654073226
 30
0.0
 10
395.1968938899162
 20
-176.2648654073226
 30
0.0
 10
394.4858261817605
 20
-177.4585909929617
 30
0.0
 10
394.4858261817605
 20
-179.7061712875387
 30
0.0
  0
HATCH
  5
2E4
330
70
100
AcDbEntity
  8
Livello 1
440
 33554687
100
AcDbHatch
 10
0.0
 20
0.0
 30
0.0
210
0.0
220
0.0
230
1.0
  2
SOLID
 70
     1
 71
     0
 91
        2
 92
        1
 93
        1
 72
     4
 94
        3
 73
     0
 74
     0
 95
       17
 96
       13
 40
0.0
 40
0.0
 40
0.0
 40
0.0
 40
1.0
 40
1.0
 40
1.0
 40
2.0
 40
2.0
 40
2.0
 40
3.0
 40
3.0
 40
3.0
 40
4.0
 40
4.0
 40
4.0
 40
4.0
 10
394.4858261817605
 20
-179.7061712875387
 10
394.4858261817605
 20
-181.8521212653008
 10
395.1462509862829
 20
-183.0713405575306
 10
396.1622096448831
 20
-183.0713405575306
 10
397.3049478173405
 20
-183.0713405575306
 10
397.8509954517526
 20
-181.738088604739
 10
397.8509954517526
 20
-179.6300346773147
 10
397.8509954517526
 20
-177.5981173601143
 10
397.3304415239312
 20
-176.2648654073226
 10
396.1749564981785
 20
-176.2648654073226
 10
395.1968938899162
 20
-176.2648654073226
 10
394.4858261817605
 20
-177.4585909929617
 10
394.4858261817605
 20
-179.7061712875387
 97
        0
 97
        0
 92
        1
 93
        1
 72
     4
 94
        3
 73
     0
 74
     0
 95
       17
 96
       13
 40
0.0
 40
0.0
 40
0.0
 40
0.0
 40
1.0
 40
1.0
 40
1.0
 40
2.0
 40
2.0
 40
2.0
 40
3.0
 40
3.0
 40
3.0
 40
4.0
 40
4.0
 40
4.0
 40
4.0
 10
398.9685844271676
 20
-179.579047264133
 10
398.9685844271676
 20
-182.3854220464175
 10
397.9271320619766
 20
-183.9346814861344
 10
396.098475378406
 20
-183.9346814861344
 10
394.4858261817605
 20
-183.9346814861344
 10
393.3937309129364
 20
-182.4236626063038
 10
393.3685817158941
 20
-179.6934244342433
 10
393.3685817158941
 20
-176.925290211845
 10
394.5619627919845
 20
-175.401524478719
 10
396.2383462551071
 20
-175.401524478719
 10
397.9781194751583
 20
-175.401524478719
 10
398.9685844271676
 20
-176.9507839184359
 10
398.9685844271676
 20
-179.579047264133
 97
        0
 97
        0
 75
     2
 76
     1
 98
        1
 10
0.0
 20
0.0
450
        0
451
        0
460
0.0
461
0.0
452
        0
462
0.0
453
        0
470

  0
HATCH
  5
2E6
330
70
100
AcDbEntity
  8
Livello 1
440
 33554687
100
AcDbHatch
 10
0.0
 20
0.0
 30
0.0
210
0.0
220
0.0
230
1.0
  2
SOLID
 70
     1
 71
     0
 91
        1
 92
        1
 93
        1
 72
     4
 94
        3
 73
     0
 74
     0
 95
       29
 96
       25
 40
0.0
 40
0.0
 40
0.0
 40
0.0
 40
1.0
 40
1.0
 40
1.0
 40
2.0
 40
2.0
 40
2.0
 40
3.0
 40
3.0
 40
3.0
 40
4.0
 40
4.0
 40
4.0
 40
5.0
 40
5.0
 40
5.0
 40
6.0
 40
6.0
 40
6.0
 40
7.0
 40
7.0
 40
7.0
 40
8.0
 40
8.0
 40
8.0
 40
8.0
 10
477.035826161123
 20
-154.1776692322889
 10
477.035826161123
 20
-154.1776692322889
 10
477.035826161123
 20
-154.2031629388798
 10
477.035826161123
 20
-154.2031629388798
 10
477.035826161123
 20
-154.2031629388798
 10
477.8106281357556
 20
-155.6380452084863
 10
477.8106281357556
 20
-155.6380452084863
 10
477.8106281357556
 20
-155.6380452084863
 10
476.9596895508988
 20
-155.8540526954115
 10
476.9596895508988
 20
-155.8540526954115
 10
476.9596895508988
 20
-155.8540526954115
 10
475.9947183054803
 20
-154.0508897184317
 10
475.9947183054803
 20
-154.0508897184317
 10
475.9947183054803
 20
-154.0508897184317
 10
475.9947183054803
 20
-153.0983208167601
 10
475.9947183054803
 20
-153.0983208167601
 10
475.9947183054803
 20
-153.0983208167601
 10
484.2484780690419
 20
-153.0983208167601
 10
484.2484780690419
 20
-153.0983208167601
 10
484.2484780690419
 20
-153.0983208167601
 10
484.2484780690419
 20
-154.1776692322889
 10
484.2484780690419
 20
-154.1776692322889
 10
484.2484780690419
 20
-154.1776692322889
 10
477.035826161123
 20
-154.1776692322889
 10
477.035826161123
 20
-154.1776692322889
 97
        0
 97
        0
 75
     2
 76
     1
 98
        1
 10
0.0
 20
0.0
450
        0
451
        0
460
0.0
461
0.0
452
        0
462
0.0
453
        0
470

  0
HATCH
  5
2E8
330
70
100
AcDbEntity
  8
Livello 1
440
 33554687
100
AcDbHatch
 10
0.0
 20
0.0
 30
0.0
210
0.0
220
0.0
230
1.0
  2
SOLID
 70
     1
 71
     0
 91
        1
 92
        1
 93
        1
 72
     4
 94
        3
 73
     0
 74
     0
 95
       59
 96
       55
 40
0.0
 40
0.0
 40
0.0
 40
0.0
 40
1.0
 40
1.0
 40
1.0
 40
2.0
 40
2.0
 40
2.0
 40
3.0
 40
3.0
 40
3.0
 40
4.0
 40
4.0
 40
4.0
 40
5.0
 40
5.0
 40
5.0
 40
6.0
 40
6.0
 40
6.0
 40
7.0
 40
7.0
 40
7.0
 40
8.0
 40
8.0
 40
8.0
 40
9.0
 40
9.0
 40
9.0
 40
10.0
 40
10.0
 40
10.0
 40
11.0
 40
11.0
 40
11.0
 40
12.0
 40
12.0
 40
12.0
 40
13.0
 40
13.0
 40
13.0
 40
14.0
 40
14.0
 40
14.0
 40
15.0
 40
15.0
 40
15.0
 40
16.0
 40
16.0
 40
16.0
 40
17.0
 40
17.0
 40
17.0
 40
18.0
 40
18.0
 40
18.0
 40
18.0
 10
482.9658690198835
 20
-149.821690500739
 10
483.1691296535133
 20
-149.504052696999
 10
483.4867674572533
 20
-148.7676635370268
 10
483.4867674572533
 20
-147.9930338171684
 10
483.4867674572533
 20
-146.5581515475618
 10
482.572439115468
 20
-146.1137342299646
 10
481.8865206043547
 20
-146.1263088284858
 10
480.7310355786018
 20
-146.1390556817812
 10
480.2359753573715
 20
-147.180335792198
 10
480.2359753573715
 20
-148.2596842077267
 10
480.2359753573715
 20
-148.2596842077267
 10
480.2359753573715
 20
-148.8818684523629
 10
480.2359753573715
 20
-148.8818684523629
 10
480.2359753573715
 20
-148.8818684523629
 10
479.3977836258101
 20
-148.8818684523629
 10
479.3977836258101
 20
-148.8818684523629
 10
479.3977836258101
 20
-148.8818684523629
 10
479.3977836258101
 20
-148.2596842077267
 10
479.3977836258101
 20
-148.2596842077267
 10
479.3977836258101
 20
-147.4469861827563
 10
478.9788600148038
 20
-146.418452925635
 10
478.0007974065415
 20
-146.418452925635
 10
477.3407171115676
 20
-146.418452925635
 10
476.7564289172693
 20
-146.8375487914156
 10
476.7564289172693
 20
-147.8660820485369
 10
476.7564289172693
 20
-148.5263345982851
 10
477.0485730144184
 20
-149.1612656962166
 10
477.3024765516812
 20
-149.5167995502944
 10
477.3024765516812
 20
-149.5167995502944
 10
476.4897785267108
 20
-149.8089436474436
 10
476.4897785267108
 20
-149.8089436474436
 10
476.1724852325193
 20
-149.3772731831418
 10
475.8548474287793
 20
-148.5390814515805
 10
475.8548474287793
 20
-147.650246816386
 10
475.8548474287793
 20
-146.0248507664451
 10
476.8201631837463
 20
-145.2882893516988
 10
477.8230304795026
 20
-145.2882893516988
 10
478.6739690643591
 20
-145.2882893516988
 10
479.3977836258101
 20
-145.7962686809988
 10
479.7660643331835
 20
-146.8120550848247
 10
479.7660643331835
 20
-146.8120550848247
 10
479.7915580397742
 20
-146.8120550848247
 10
479.7915580397742
 20
-146.8120550848247
 10
479.9944741638555
 20
-145.7962686809988
 10
480.7565292851927
 20
-144.970823802733
 10
481.9120143109456
 20
-144.970823802733
 10
483.2328639199904
 20
-144.970823802733
 10
484.388348945743
 20
-145.9993570598543
 10
484.388348945743
 20
-147.980286963873
 10
484.388348945743
 20
-148.9073621589537
 10
484.0962048485939
 20
-149.7200601839241
 10
483.8295544580356
 20
-150.1262369416351
 10
483.8295544580356
 20
-150.1262369416351
 10
482.9658690198835
 20
-149.821690500739
 10
482.9658690198835
 20
-149.821690500739
 97
        0
 97
        0
 75
     2
 76
     1
 98
        1
 10
0.0
 20
0.0
450
        0
451
        0
460
0.0
461
0.0
452
        0
462
0.0
453
        0
470

  0
HATCH
  5
2EC
330
70
100
AcDbEntity
  8
Livello 1
440
 33554687
100
AcDbHatch
 10
0.0
 20
0.0
 30
0.0
210
0.0
220
0.0
230
1.0
  2
SOLID
 70
     1
 71
     0
 91
        3
 92
        1
 93
        1
 72
     4
 94
        3
 73
     0
 74
     0
 95
       17
 96
       13
 40
0.0
 40
0.0
 40
0.0
 40
0.0
 40
1.0
 40
1.0
 40
1.0
 40
2.0
 40
2.0
 40
2.0
 40
3.0
 40
3.0
 40
3.0
 40
4.0
 40
4.0
 40
4.0
 40
4.0
 10
444.3673637126928
 20
-177.5219807498903
 10
444.3673637126928
 20
-178.3474256281562
 10
444.989547957329
 20
-178.7918429457534
 10
445.9421168590004
 20
-179.0457464830163
 10
446.6531845671561
 20
-178.8045897990488
 10
447.1992322015682
 20
-178.296782724523
 10
447.1992322015682
 20
-177.5474744564812
 10
447.1992322015682
 20
-176.8870496519588
 10
446.8054577876042
 20
-176.2014756503941
 10
445.8022459822993
 20
-176.2014756503941
 10
444.8755152967672
 20
-176.2014756503941
 10
444.3673637126928
 20
-176.8109130417347
 10
444.3673637126928
 20
-177.5219807498903
 97
        0
 97
        0
 92
        1
 93
        1
 72
     4
 94
        3
 73
     0
 74
     0
 95
       17
 96
       13
 40
0.0
 40
0.0
 40
0.0
 40
0.0
 40
1.0
 40
1.0
 40
1.0
 40
2.0
 40
2.0
 40
2.0
 40
3.0
 40
3.0
 40
3.0
 40
4.0
 40
4.0
 40
4.0
 40
4.0
 10
447.4403888855356
 20
-181.6492051412196
 10
447.4403888855356
 20
-180.6459933359149
 10
446.7420680306757
 20
-180.1633354584314
 10
445.6244790552604
 20
-179.8456976546913
 10
444.659507809842
 20
-180.1250948985451
 10
444.1389538820208
 20
-180.7600259964766
 10
444.1389538820208
 20
-181.5475748244048
 10
444.1007133221344
 20
-182.3854220464175
 10
444.7356444200661
 20
-183.1219834611639
 10
445.7898436385526
 20
-183.1219834611639
 10
446.7927109343087
 20
-183.1219834611639
 10
447.4403888855356
 20
-182.4997992165278
 10
447.4403888855356
 20
-181.6492051412196
 97
        0
 97
        0
 92
        1
 93
        1
 72
     4
 94
        3
 73
     0
 74
     0
 95
       35
 96
       31
 40
0.0
 40
0.0
 40
0.0
 40
0.0
 40
1.0
 40
1.0
 40
1.0
 40
2.0
 40
2.0
 40
2.0
 40
3.0
 40
3.0
 40
3.0
 40
4.0
 40
4.0
 40
4.0
 40
5.0
 40
5.0
 40
5.0
 40
6.0
 40
6.0
 40
6.0
 40
7.0
 40
7.0
 40
7.0
 40
8.0
 40
8.0
 40
8.0
 40
9.0
 40
9.0
 40
9.0
 40
10.0
 40
10.0
 40
10.0
 40
10.0
 10
442.9962157095634
 20
-181.6998480448528
 10
442.9962157095634
 20
-180.6583956796618
 10
443.6183999541994
 20
-179.9221787744639
 10
444.6340141032512
 20
-179.4901638006136
 10
444.6340141032512
 20
-179.4901638006136
 10
444.6216117595043
 20
-179.4522677502758
 10
444.6216117595043
 20
-179.4522677502758
 10
443.7072834177191
 20
-179.020597285974
 10
443.3135090037549
 20
-178.3095295778184
 10
443.3135090037549
 20
-177.5981173601143
 10
443.3135090037549
 20
-176.2903591139135
 10
444.4183511258746
 20
-175.401524478719
 10
445.8659802487765
 20
-175.401524478719
 10
447.4658825921266
 20
-175.401524478719
 10
448.2658337638016
 20
-176.4047362840238
 10
448.2658337638016
 20
-177.4330972863709
 10
448.2658337638016
 20
-178.131418141231
 10
447.9230467630191
 20
-178.8807264092729
 10
446.9070881044189
 20
-179.3633842867563
 10
446.9070881044189
 20
-179.3633842867563
 10
446.9070881044189
 20
-179.4012803370941
 10
446.9070881044189
 20
-179.4012803370941
 10
447.9357936163147
 20
-179.8078016043536
 10
448.5707247142462
 20
-180.5316161658046
 10
448.5707247142462
 20
-181.5348279711093
 10
448.5707247142462
 20
-182.9697102407159
 10
447.3387585687207
 20
-183.9346814861344
 10
445.7643499319615
 20
-183.9346814861344
 10
444.0373235652058
 20
-183.9346814861344
 10
442.9962157095634
 20
-182.9063204837873
 10
442.9962157095634
 20
-181.6998480448528
 97
        0
 97
        0
 75
     2
 76
     1
 98
        1
 10
0.0
 20
0.0
450
        0
451
        0
460
0.0
461
0.0
452
        0
462
0.0
453
        0
470

  0
HATCH
  5
2EE
330
70
100
AcDbEntity
  8
Livello 1
440
 33554687
100
AcDbHatch
 10
0.0
 20
0.0
 30
0.0
210
0.0
220
0.0
230
1.0
  2
SOLID
 70
     1
 71
     0
 91
        1
 92
        1
 93
        1
 72
     4
 94
        3
 73
     0
 74
     0
 95
       17
 96
       13
 40
0.0
 40
0.0
 40
0.0
 40
0.0
 40
1.0
 40
1.0
 40
1.0
 40
2.0
 40
2.0
 40
2.0
 40
3.0
 40
3.0
 40
3.0
 40
4.0
 40
4.0
 40
4.0
 40
4.0
 10
449.2442408816126
 20
-185.3568169024455
 10
449.5236381254663
 20
-184.6078531439522
 10
449.8664251262487
 20
-183.2491074845695
 10
450.0062960029498
 20
-182.3220322894889
 10
450.0062960029498
 20
-182.3220322894889
 10
451.2506644922219
 20
-182.1949082660832
 10
451.2506644922219
 20
-182.1949082660832
 10
450.9585203950727
 20
-183.2746011911605
 10
450.3997259073653
 20
-184.6839897541761
 10
450.0441920532876
 20
-185.2806802922215
 10
450.0441920532876
 20
-185.2806802922215
 10
449.2442408816126
 20
-185.3568169024455
 10
449.2442408816126
 20
-185.3568169024455
 97
        0
 97
        0
 75
     2
 76
     1
 98
        1
 10
0.0
 20
0.0
450
        0
451
        0
460
0.0
461
0.0
452
        0
462
0.0
453
        0
470

  0
HATCH
  5
2F0
330
70
100
AcDbEntity
  8
Livello 1
440
 33554687
100
AcDbHatch
 10
0.0
 20
0.0
 30
0.0
210
0.0
220
0.0
230
1.0
  2
SOLID
 70
     1
 71
     0
 91
        1
 92
        1
 93
        1
 72
     4
 94
        3
 73
     0
 74
     0
 95
       50
 96
       46
 40
0.0
 40
0.0
 40
0.0
 40
0.0
 40
1.0
 40
1.0
 40
1.0
 40
2.0
 40
2.0
 40
2.0
 40
3.0
 40
3.0
 40
3.0
 40
4.0
 40
4.0
 40
4.0
 40
5.0
 40
5.0
 40
5.0
 40
6.0
 40
6.0
 40
6.0
 40
7.0
 40
7.0
 40
7.0
 40
8.0
 40
8.0
 40
8.0
 40
9.0
 40
9.0
 40
9.0
 40
10.0
 40
10.0
 40
10.0
 40
11.0
 40
11.0
 40
11.0
 40
12.0
 40
12.0
 40
12.0
 40
13.0
 40
13.0
 40
13.0
 40
14.0
 40
14.0
 40
14.0
 40
15.0
 40
15.0
 40
15.0
 40
15.0
 10
457.1683050072357
 20
-176.4808728942478
 10
457.1683050072357
 20
-176.4808728942478
 10
454.0191432241687
 20
-176.4808728942478
 10
454.0191432241687
 20
-176.4808728942478
 10
454.0191432241687
 20
-176.4808728942478
 10
453.7015054204288
 20
-178.6013291654191
 10
453.7015054204288
 20
-178.6013291654191
 10
453.8920192007631
 20
-178.5761799683768
 10
454.069786127802
 20
-178.5506862617859
 10
454.3746770782466
 20
-178.5506862617859
 10
455.0096081761782
 20
-178.5506862617859
 10
455.6445392741096
 20
-178.6902126289385
 10
456.1523463486355
 20
-178.9951035793832
 10
456.8000242998625
 20
-179.3633842867563
 10
457.3333250809791
 20
-180.0744519949119
 10
457.3333250809791
 20
-181.1155598505544
 10
457.3333250809791
 20
-182.7285535567483
 10
456.0507160318207
 20
-183.9346814861344
 10
454.2602999081363
 20
-183.9346814861344
 10
453.3587184196464
 20
-183.9346814861344
 10
452.5966632983092
 20
-183.6807779488714
 10
452.2032333938936
 20
-183.4268744116085
 10
452.2032333938936
 20
-183.4268744116085
 10
452.4826306377473
 20
-182.5759358267518
 10
452.4826306377473
 20
-182.5759358267518
 10
452.8254176385296
 20
-182.7791964603815
 10
453.498244786799
 20
-183.0330999976445
 10
454.2475530548408
 20
-183.0330999976445
 10
455.3017522733273
 20
-183.0330999976445
 10
456.2033337618172
 20
-182.3475259960798
 10
456.2033337618172
 20
-181.2426838739602
 10
456.1905869085218
 20
-180.1760823117268
 10
455.4795192003663
 20
-179.4140271903895
 10
453.8286294438345
 20
-179.4140271903895
 10
453.3587184196464
 20
-179.4140271903895
 10
452.9904377122732
 20
-179.4650146035712
 10
452.6855467618286
 20
-179.502910653909
 10
452.6855467618286
 20
-179.502910653909
 10
453.2191920524938
 20
-175.5410508458717
 10
453.2191920524938
 20
-175.5410508458717
 10
453.2191920524938
 20
-175.5410508458717
 10
457.1683050072357
 20
-175.5410508458717
 10
457.1683050072357
 20
-175.5410508458717
 10
457.1683050072357
 20
-175.5410508458717
 10
457.1683050072357
 20
-176.4808728942478
 10
457.1683050072357
 20
-176.4808728942478
 97
        0
 97
        0
 75
     2
 76
     1
 98
        1
 10
0.0
 20
0.0
450
        0
451
        0
460
0.0
461
0.0
452
        0
462
0.0
453
        0
470

  0
SPLINE
  5
32A
330
70
100
AcDbEntity
  8
Livello 1
100
AcDbSpline
210
0.0
220
0.0
230
1.0
 70
     8
 71
     3
 72
    11
 73
     7
 74
     0
 42
0.000000001
 43
0.0000000001
 40
0.0
 40
0.0
 40
0.0
 40
0.0
 40
1.0
 40
1.0
 40
1.0
 40
2.0
 40
2.0
 40
2.0
 40
2.0
 10
387.2345892044067
 20
-182.5125460698232
 30
0.0
 10
387.5518824985982
 20
-182.7158067034529
 30
0.0
 10
388.2884439133446
 20
-183.0330999976445
 30
0.0
 10
389.0632458879773
 20
-183.0330999976445
 30
0.0
 10
390.4981281575838
 20
-183.0330999976445
 30
0.0
 10
390.942545475181
 20
-182.1187716558592
 30
0.0
 10
390.9297986218856
 20
-181.4331976542945
 30
0.0
  0
SPLINE
  5
32B
330
70
100
AcDbEntity
  8
Livello 1
100
AcDbSpline
210
0.0
220
0.0
230
1.0
 70
     8
 71
     3
 72
     8
 73
     4
 74
     0
 42
0.000000001
 43
0.0000000001
 40
2.0
 40
2.0
 40
2.0
 40
2.0
 40
3.0
 40
3.0
 40
3.0
 40
3.0
 10
390.9297986218856
 20
-181.4331976542945
 30
0.0
 10
390.9170517685902
 20
-180.2777126285416
 30
0.0
 10
389.8759439129477
 20
-179.7823078977627
 30
0.0
 10
388.7965954974189
 20
-179.7823078977627
 30
0.0
  0
SPLINE
  5
32C
330
70
100
AcDbEntity
  8
Livello 1
100
AcDbSpline
210
0.0
220
0.0
230
1.0
 70
    24
 71
     3
 72
     8
 73
     4
 74
     0
 42
0.000000001
 43
0.0000000001
 40
3.0
 40
3.0
 40
3.0
 40
3.0
 40
4.0
 40
4.0
 40
4.0
 40
4.0
 10
388.7965954974189
 20
-179.7823078977627
 30
0.0
 10
388.7965954974189
 20
-179.7823078977627
 30
0.0
 10
388.1744112527828
 20
-179.7823078977627
 30
0.0
 10
388.1744112527828
 20
-179.7823078977627
 30
0.0
  0
SPLINE
  5
32D
330
70
100
AcDbEntity
  8
Livello 1
100
AcDbSpline
210
0.0
220
0.0
230
1.0
 70
    24
 71
     3
 72
     8
 73
     4
 74
     0
 42
0.000000001
 43
0.0000000001
 40
4.0
 40
4.0
 40
4.0
 40
4.0
 40
5.0
 40
5.0
 40
5.0
 40
5.0
 10
388.1744112527828
 20
-179.7823078977627
 30
0.0
 10
388.1744112527828
 20
-179.7823078977627
 30
0.0
 10
388.1744112527828
 20
-178.9441161662014
 30
0.0
 10
388.1744112527828
 20
-178.9441161662014
 30
0.0
  0
SPLINE
  5
32E
330
70
100
AcDbEntity
  8
Livello 1
100
AcDbSpline
210
0.0
220
0.0
230
1.0
 70
    24
 71
     3
 72
     8
 73
     4
 74
     0
 42
0.000000001
 43
0.0000000001
 40
5.0
 40
5.0
 40
5.0
 40
5.0
 40
6.0
 40
6.0
 40
6.0
 40
6.0
 10
388.1744112527828
 20
-178.9441161662014
 30
0.0
 10
388.1744112527828
 20
-178.9441161662014
 30
0.0
 10
388.7965954974189
 20
-178.9441161662014
 30
0.0
 10
388.7965954974189
 20
-178.9441161662014
 30
0.0
  0
SPLINE
  5
32F
330
70
100
AcDbEntity
  8
Livello 1
100
AcDbSpline
210
0.0
220
0.0
230
1.0
 70
     8
 71
     3
 72
    14
 73
    10
 74
     0
 42
0.000000001
 43
0.0000000001
 40
6.0
 40
6.0
 40
6.0
 40
6.0
 40
7.0
 40
7.0
 40
7.0
 40
8.0
 40
8.0
 40
8.0
 40
9.0
 40
9.0
 40
9.0
 40
9.0
 10
388.7965954974189
 20
-178.9441161662014
 30
0.0
 10
389.6092935223894
 20
-178.9441161662014
 30
0.0
 10
390.6376545247364
 20
-178.5251925551951
 30
0.0
 10
390.6376545247364
 20
-177.5474744564812
 30
0.0
 10
390.6376545247364
 20
-176.8870496519588
 30
0.0
 10
390.2187309137301
 20
-176.3031059672089
 30
0.0
 10
389.1900254018345
 20
-176.3031059672089
 30
0.0
 10
388.5299451068607
 20
-176.3031059672089
 30
0.0
 10
387.895014008929
 20
-176.5949055548096
 30
0.0
 10
387.5394801548513
 20
-176.849153601621
 30
0.0
  0
SPLINE
  5
330
330
70
100
AcDbEntity
  8
Livello 1
100
AcDbSpline
210
0.0
220
0.0
230
1.0
 70
    24
 71
     3
 72
     8
 73
     4
 74
     0
 42
0.000000001
 43
0.0000000001
 40
9.0
 40
9.0
 40
9.0
 40
9.0
 40
10.0
 40
10.0
 40
10.0
 40
10.0
 10
387.5394801548513
 20
-176.849153601621
 30
0.0
 10
387.5394801548513
 20
-176.849153601621
 30
0.0
 10
387.247336057702
 20
-176.0364555766505
 30
0.0
 10
387.247336057702
 20
-176.0364555766505
 30
0.0
  0
SPLINE
  5
331
330
70
100
AcDbEntity
  8
Livello 1
100
AcDbSpline
210
0.0
220
0.0
230
1.0
 70
     8
 71
     3
 72
    14
 73
    10
 74
     0
 42
0.000000001
 43
0.0000000001
 40
10.0
 40
10.0
 40
10.0
 40
10.0
 40
11.0
 40
11.0
 40
11.0
 40
12.0
 40
12.0
 40
12.0
 40
13.0
 40
13.0
 40
13.0
 40
13.0
 10
387.247336057702
 20
-176.0364555766505
 30
0.0
 10
387.6790065220039
 20
-175.7188177729105
 30
0.0
 10
388.5171982535652
 20
-175.401524478719
 30
0.0
 10
389.4060328887596
 20
-175.401524478719
 30
0.0
 10
391.0314289387005
 20
-175.401524478719
 30
0.0
 10
391.7679903534469
 20
-176.3664957241375
 30
0.0
 10
391.7679903534469
 20
-177.3697075294423
 30
0.0
 10
391.7679903534469
 20
-178.2203016047505
 30
0.0
 10
391.2598387693726
 20
-178.9441161662014
 30
0.0
 10
390.2442246203209
 20
-179.3123968735747
 30
0.0
  0
SPLINE
  5
332
330
70
100
AcDbEntity
  8
Livello 1
100
AcDbSpline
210
0.0
220
0.0
230
1.0
 70
    24
 71
     3
 72
     8
 73
     4
 74
     0
 42
0.000000001
 43
0.0000000001
 40
13.0
 40
13.0
 40
13.0
 40
13.0
 40
14.0
 40
14.0
 40
14.0
 40
14.0
 10
390.2442246203209
 20
-179.3123968735747
 30
0.0
 10
390.2442246203209
 20
-179.3123968735747
 30
0.0
 10
390.2442246203209
 20
-179.3378905801655
 30
0.0
 10
390.2442246203209
 20
-179.3378905801655
 30
0.0
  0
SPLINE
  5
333
330
70
100
AcDbEntity
  8
Livello 1
100
AcDbSpline
210
0.0
220
0.0
230
1.0
 70
     8
 71
     3
 72
    14
 73
    10
 74
     0
 42
0.000000001
 43
0.0000000001
 40
14.0
 40
14.0
 40
14.0
 40
14.0
 40
15.0
 40
15.0
 40
15.0
 40
16.0
 40
16.0
 40
16.0
 40
17.0
 40
17.0
 40
17.0
 40
17.0
 10
390.2442246203209
 20
-179.3378905801655
 30
0.0
 10
391.2598387693726
 20
-179.5411512137953
 30
0.0
 10
392.0852836476384
 20
-180.302861825584
 30
0.0
 10
392.0852836476384
 20
-181.4586913608853
 30
0.0
 10
392.0852836476384
 20
-182.7791964603815
 30
0.0
 10
391.0569226452914
 20
-183.9346814861344
 30
0.0
 10
389.0759927412727
 20
-183.9346814861344
 30
0.0
 10
388.148917546192
 20
-183.9346814861344
 30
0.0
 10
387.3362195212215
 20
-183.6425373889851
 30
0.0
 10
386.9296982539621
 20
-183.3758869984268
 30
0.0
  0
SPLINE
  5
334
330
70
100
AcDbEntity
  8
Livello 1
100
AcDbSpline
210
0.0
220
0.0
230
1.0
 70
    24
 71
     3
 72
     8
 73
     4
 74
     0
 42
0.000000001
 43
0.0000000001
 40
17.0
 40
17.0
 40
17.0
 40
17.0
 40
18.0
 40
18.0
 40
18.0
 40
18.0
 10
386.9296982539621
 20
-183.3758869984268
 30
0.0
 10
386.9296982539621
 20
-183.3758869984268
 30
0.0
 10
387.2345892044067
 20
-182.5125460698232
 30
0.0
 10
387.2345892044067
 20
-182.5125460698232
 30
0.0
  0
SPLINE
  5
335
330
70
100
AcDbEntity
  8
Livello 1
100
AcDbSpline
210
0.0
220
0.0
230
1.0
 70
     8
 71
     3
 72
    11
 73
     7
 74
     0
 42
0.000000001
 43
0.0000000001
 40
0.0
 40
0.0
 40
0.0
 40
0.0
 40
1.0
 40
1.0
 40
1.0
 40
2.0
 40
2.0
 40
2.0
 40
2.0
 10
398.9685844271676
 20
-179.579047264133
 30
0.0
 10
398.9685844271676
 20
-182.3854220464175
 30
0.0
 10
397.9271320619766
 20
-183.9346814861344
 30
0.0
 10
396.098475378406
 20
-183.9346814861344
 30
0.0
 10
394.4858261817605
 20
-183.9346814861344
 30
0.0
 10
393.3937309129364
 20
-182.4236626063038
 30
0.0
 10
393.3685817158941
 20
-179.6934244342433
 30
0.0
  0
SPLINE
  5
336
330
70
100
AcDbEntity
  8
Livello 1
100
AcDbSpline
210
0.0
220
0.0
230
1.0
 70
     8
 71
     3
 72
    11
 73
     7
 74
     0
 42
0.000000001
 43
0.0000000001
 40
2.0
 40
2.0
 40
2.0
 40
2.0
 40
3.0
 40
3.0
 40
3.0
 40
4.0
 40
4.0
 40
4.0
 40
4.0
 10
393.3685817158941
 20
-179.6934244342433
 30
0.0
 10
393.3685817158941
 20
-176.925290211845
 30
0.0
 10
394.5619627919845
 20
-175.401524478719
 30
0.0
 10
396.2383462551071
 20
-175.401524478719
 30
0.0
 10
397.9781194751583
 20
-175.401524478719
 30
0.0
 10
398.9685844271676
 20
-176.9507839184359
 30
0.0
 10
398.9685844271676
 20
-179.579047264133
 30
0.0
  0
SPLINE
  5
337
330
70
100
AcDbEntity
  8
Livello 1
100
AcDbSpline
210
0.0
220
0.0
230
1.0
 70
    24
 71
     3
 72
     8
 73
     4
 74
     0
 42
0.000000001
 43
0.0000000001
 40
0.0
 40
0.0
 40
0.0
 40
0.0
 40
1.0
 40
1.0
 40
1.0
 40
1.0
 10
477.035826161123
 20
-154.1776692322889
 30
0.0
 10
477.035826161123
 20
-154.1776692322889
 30
0.0
 10
477.035826161123
 20
-154.2031629388798
 30
0.0
 10
477.035826161123
 20
-154.2031629388798
 30
0.0
  0
SPLINE
  5
338
330
70
100
AcDbEntity
  8
Livello 1
100
AcDbSpline
210
0.0
220
0.0
230
1.0
 70
    24
 71
     3
 72
     8
 73
     4
 74
     0
 42
0.000000001
 43
0.0000000001
 40
1.0
 40
1.0
 40
1.0
 40
1.0
 40
2.0
 40
2.0
 40
2.0
 40
2.0
 10
477.035826161123
 20
-154.2031629388798
 30
0.0
 10
477.035826161123
 20
-154.2031629388798
 30
0.0
 10
477.8106281357556
 20
-155.6380452084863
 30
0.0
 10
477.8106281357556
 20
-155.6380452084863
 30
0.0
  0
SPLINE
  5
339
330
70
100
AcDbEntity
  8
Livello 1
100
AcDbSpline
210
0.0
220
0.0
230
1.0
 70
    24
 71
     3
 72
     8
 73
     4
 74
     0
 42
0.000000001
 43
0.0000000001
 40
2.0
 40
2.0
 40
2.0
 40
2.0
 40
3.0
 40
3.0
 40
3.0
 40
3.0
 10
477.8106281357556
 20
-155.6380452084863
 30
0.0
 10
477.8106281357556
 20
-155.6380452084863
 30
0.0
 10
476.9596895508988
 20
-155.8540526954115
 30
0.0
 10
476.9596895508988
 20
-155.8540526954115
 30
0.0
  0
SPLINE
  5
33A
330
70
100
AcDbEntity
  8
Livello 1
100
AcDbSpline
210
0.0
220
0.0
230
1.0
 70
    24
 71
     3
 72
     8
 73
     4
 74
     0
 42
0.000000001
 43
0.0000000001
 40
3.0
 40
3.0
 40
3.0
 40
3.0
 40
4.0
 40
4.0
 40
4.0
 40
4.0
 10
476.9596895508988
 20
-155.8540526954115
 30
0.0
 10
476.9596895508988
 20
-155.8540526954115
 30
0.0
 10
475.9947183054803
 20
-154.0508897184317
 30
0.0
 10
475.9947183054803
 20
-154.0508897184317
 30
0.0
  0
SPLINE
  5
33B
330
70
100
AcDbEntity
  8
Livello 1
100
AcDbSpline
210
0.0
220
0.0
230
1.0
 70
    24
 71
     3
 72
     8
 73
     4
 74
     0
 42
0.000000001
 43
0.0000000001
 40
4.0
 40
4.0
 40
4.0
 40
4.0
 40
5.0
 40
5.0
 40
5.0
 40
5.0
 10
475.9947183054803
 20
-154.0508897184317
 30
0.0
 10
475.9947183054803
 20
-154.0508897184317
 30
0.0
 10
475.9947183054803
 20
-153.0983208167601
 30
0.0
 10
475.9947183054803
 20
-153.0983208167601
 30
0.0
  0
SPLINE
  5
33C
330
70
100
AcDbEntity
  8
Livello 1
100
AcDbSpline
210
0.0
220
0.0
230
1.0
 70
    24
 71
     3
 72
     8
 73
     4
 74
     0
 42
0.000000001
 43
0.0000000001
 40
5.0
 40
5.0
 40
5.0
 40
5.0
 40
6.0
 40
6.0
 40
6.0
 40
6.0
 10
475.9947183054803
 20
-153.0983208167601
 30
0.0
 10
475.9947183054803
 20
-153.0983208167601
 30
0.0
 10
484.2484780690419
 20
-153.0983208167601
 30
0.0
 10
484.2484780690419
 20
-153.0983208167601
 30
0.0
  0
SPLINE
  5
33D
330
70
100
AcDbEntity
  8
Livello 1
100
AcDbSpline
210
0.0
220
0.0
230
1.0
 70
    24
 71
     3
 72
     8
 73
     4
 74
     0
 42
0.000000001
 43
0.0000000001
 40
6.0
 40
6.0
 40
6.0
 40
6.0
 40
7.0
 40
7.0
 40
7.0
 40
7.0
 10
484.2484780690419
 20
-153.0983208167601
 30
0.0
 10
484.2484780690419
 20
-153.0983208167601
 30
0.0
 10
484.2484780690419
 20
-154.1776692322889
 30
0.0
 10
484.2484780690419
 20
-154.1776692322889
 30
0.0
  0
SPLINE
  5
33E
330
70
100
AcDbEntity
  8
Livello 1
100
AcDbSpline
210
0.0
220
0.0
230
1.0
 70
    24
 71
     3
 72
     8
 73
     4
 74
     0
 42
0.000000001
 43
0.0000000001
 40
7.0
 40
7.0
 40
7.0
 40
7.0
 40
8.0
 40
8.0
 40
8.0
 40
8.0
 10
484.2484780690419
 20
-154.1776692322889
 30
0.0
 10
484.2484780690419
 20
-154.1776692322889
 30
0.0
 10
477.035826161123
 20
-154.1776692322889
 30
0.0
 10
477.035826161123
 20
-154.1776692322889
 30
0.0
  0
SPLINE
  5
33F
330
70
100
AcDbEntity
  8
Livello 1
100
AcDbSpline
210
0.0
220
0.0
230
1.0
 70
     8
 71
     3
 72
    11
 73
     7
 74
     0
 42
0.000000001
 43
0.0000000001
 40
0.0
 40
0.0
 40
0.0
 40
0.0
 40
1.0
 40
1.0
 40
1.0
 40
2.0
 40
2.0
 40
2.0
 40
2.0
 10
482.9658690198835
 20
-149.821690500739
 30
0.0
 10
483.1691296535133
 20
-149.504052696999
 30
0.0
 10
483.4867674572533
 20
-148.7676635370268
 30
0.0
 10
483.4867674572533
 20
-147.9930338171684
 30
0.0
 10
483.4867674572533
 20
-146.5581515475618
 30
0.0
 10
482.572439115468
 20
-146.1137342299646
 30
0.0
 10
481.8865206043547
 20
-146.1263088284858
 30
0.0
  0
SPLINE
  5
340
330
70
100
AcDbEntity
  8
Livello 1
100
AcDbSpline
210
0.0
220
0.0
230
1.0
 70
     8
 71
     3
 72
     8
 73
     4
 74
     0
 42
0.000000001
 43
0.0000000001
 40
2.0
 40
2.0
 40
2.0
 40
2.0
 40
3.0
 40
3.0
 40
3.0
 40
3.0
 10
481.8865206043547
 20
-146.1263088284858
 30
0.0
 10
480.7310355786018
 20
-146.1390556817812
 30
0.0
 10
480.2359753573715
 20
-147.180335792198
 30
0.0
 10
480.2359753573715
 20
-148.2596842077267
 30
0.0
  0
SPLINE
  5
341
330
70
100
AcDbEntity
  8
Livello 1
100
AcDbSpline
210
0.0
220
0.0
230
1.0
 70
    24
 71
     3
 72
     8
 73
     4
 74
     0
 42
0.000000001
 43
0.0000000001
 40
3.0
 40
3.0
 40
3.0
 40
3.0
 40
4.0
 40
4.0
 40
4.0
 40
4.0
 10
480.2359753573715
 20
-148.2596842077267
 30
0.0
 10
480.2359753573715
 20
-148.2596842077267
 30
0.0
 10
480.2359753573715
 20
-148.8818684523629
 30
0.0
 10
480.2359753573715
 20
-148.8818684523629
 30
0.0
  0
SPLINE
  5
342
330
70
100
AcDbEntity
  8
Livello 1
100
AcDbSpline
210
0.0
220
0.0
230
1.0
 70
    24
 71
     3
 72
     8
 73
     4
 74
     0
 42
0.000000001
 43
0.0000000001
 40
4.0
 40
4.0
 40
4.0
 40
4.0
 40
5.0
 40
5.0
 40
5.0
 40
5.0
 10
480.2359753573715
 20
-148.8818684523629
 30
0.0
 10
480.2359753573715
 20
-148.8818684523629
 30
0.0
 10
479.3977836258101
 20
-148.8818684523629
 30
0.0
 10
479.3977836258101
 20
-148.8818684523629
 30
0.0
  0
SPLINE
  5
343
330
70
100
AcDbEntity
  8
Livello 1
100
AcDbSpline
210
0.0
220
0.0
230
1.0
 70
    24
 71
     3
 72
     8
 73
     4
 74
     0
 42
0.000000001
 43
0.0000000001
 40
5.0
 40
5.0
 40
5.0
 40
5.0
 40
6.0
 40
6.0
 40
6.0
 40
6.0
 10
479.3977836258101
 20
-148.8818684523629
 30
0.0
 10
479.3977836258101
 20
-148.8818684523629
 30
0.0
 10
479.3977836258101
 20
-148.2596842077267
 30
0.0
 10
479.3977836258101
 20
-148.2596842077267
 30
0.0
  0
SPLINE
  5
344
330
70
100
AcDbEntity
  8
Livello 1
100
AcDbSpline
210
0.0
220
0.0
230
1.0
 70
     8
 71
     3
 72
    14
 73
    10
 74
     0
 42
0.000000001
 43
0.0000000001
 40
6.0
 40
6.0
 40
6.0
 40
6.0
 40
7.0
 40
7.0
 40
7.0
 40
8.0
 40
8.0
 40
8.0
 40
9.0
 40
9.0
 40
9.0
 40
9.0
 10
479.3977836258101
 20
-148.2596842077267
 30
0.0
 10
479.3977836258101
 20
-147.4469861827563
 30
0.0
 10
478.9788600148038
 20
-146.418452925635
 30
0.0
 10
478.0007974065415
 20
-146.418452925635
 30
0.0
 10
477.3407171115676
 20
-146.418452925635
 30
0.0
 10
476.7564289172693
 20
-146.8375487914156
 30
0.0
 10
476.7564289172693
 20
-147.8660820485369
 30
0.0
 10
476.7564289172693
 20
-148.5263345982851
 30
0.0
 10
477.0485730144184
 20
-149.1612656962166
 30
0.0
 10
477.3024765516812
 20
-149.5167995502944
 30
0.0
  0
SPLINE
  5
345
330
70
100
AcDbEntity
  8
Livello 1
100
AcDbSpline
210
0.0
220
0.0
230
1.0
 70
    24
 71
     3
 72
     8
 73
     4
 74
     0
 42
0.000000001
 43
0.0000000001
 40
9.0
 40
9.0
 40
9.0
 40
9.0
 40
10.0
 40
10.0
 40
10.0
 40
10.0
 10
477.3024765516812
 20
-149.5167995502944
 30
0.0
 10
477.3024765516812
 20
-149.5167995502944
 30
0.0
 10
476.4897785267108
 20
-149.8089436474436
 30
0.0
 10
476.4897785267108
 20
-149.8089436474436
 30
0.0
  0
SPLINE
  5
346
330
70
100
AcDbEntity
  8
Livello 1
100
AcDbSpline
210
0.0
220
0.0
230
1.0
 70
     8
 71
     3
 72
    14
 73
    10
 74
     0
 42
0.000000001
 43
0.0000000001
 40
10.0
 40
10.0
 40
10.0
 40
10.0
 40
11.0
 40
11.0
 40
11.0
 40
12.0
 40
12.0
 40
12.0
 40
13.0
 40
13.0
 40
13.0
 40
13.0
 10
476.4897785267108
 20
-149.8089436474436
 30
0.0
 10
476.1724852325193
 20
-149.3772731831418
 30
0.0
 10
475.8548474287793
 20
-148.5390814515805
 30
0.0
 10
475.8548474287793
 20
-147.650246816386
 30
0.0
 10
475.8548474287793
 20
-146.0248507664451
 30
0.0
 10
476.8201631837463
 20
-145.2882893516988
 30
0.0
 10
477.8230304795026
 20
-145.2882893516988
 30
0.0
 10
478.6739690643591
 20
-145.2882893516988
 30
0.0
 10
479.3977836258101
 20
-145.7962686809988
 30
0.0
 10
479.7660643331835
 20
-146.8120550848247
 30
0.0
  0
SPLINE
  5
347
330
70
100
AcDbEntity
  8
Livello 1
100
AcDbSpline
210
0.0
220
0.0
230
1.0
 70
    24
 71
     3
 72
     8
 73
     4
 74
     0
 42
0.000000001
 43
0.0000000001
 40
13.0
 40
13.0
 40
13.0
 40
13.0
 40
14.0
 40
14.0
 40
14.0
 40
14.0
 10
479.7660643331835
 20
-146.8120550848247
 30
0.0
 10
479.7660643331835
 20
-146.8120550848247
 30
0.0
 10
479.7915580397742
 20
-146.8120550848247
 30
0.0
 10
479.7915580397742
 20
-146.8120550848247
 30
0.0
  0
SPLINE
  5
348
330
70
100
AcDbEntity
  8
Livello 1
100
AcDbSpline
210
0.0
220
0.0
230
1.0
 70
     8
 71
     3
 72
    14
 73
    10
 74
     0
 42
0.000000001
 43
0.0000000001
 40
14.0
 40
14.0
 40
14.0
 40
14.0
 40
15.0
 40
15.0
 40
15.0
 40
16.0
 40
16.0
 40
16.0
 40
17.0
 40
17.0
 40
17.0
 40
17.0
 10
479.7915580397742
 20
-146.8120550848247
 30
0.0
 10
479.9944741638555
 20
-145.7962686809988
 30
0.0
 10
480.7565292851927
 20
-144.970823802733
 30
0.0
 10
481.9120143109456
 20
-144.970823802733
 30
0.0
 10
483.2328639199904
 20
-144.970823802733
 30
0.0
 10
484.388348945743
 20
-145.9993570598543
 30
0.0
 10
484.388348945743
 20
-147.980286963873
 30
0.0
 10
484.388348945743
 20
-148.9073621589537
 30
0.0
 10
484.0962048485939
 20
-149.7200601839241
 30
0.0
 10
483.8295544580356
 20
-150.1262369416351
 30
0.0
  0
SPLINE
  5
349
330
70
100
AcDbEntity
  8
Livello 1
100
AcDbSpline
210
0.0
220
0.0
230
1.0
 70
    24
 71
     3
 72
     8
 73
     4
 74
     0
 42
0.000000001
 43
0.0000000001
 40
17.0
 40
17.0
 40
17.0
 40
17.0
 40
18.0
 40
18.0
 40
18.0
 40
18.0
 10
483.8295544580356
 20
-150.1262369416351
 30
0.0
 10
483.8295544580356
 20
-150.1262369416351
 30
0.0
 10
482.9658690198835
 20
-149.821690500739
 30
0.0
 10
482.9658690198835
 20
-149.821690500739
 30
0.0
  0
SPLINE
  5
34A
330
70
100
AcDbEntity
  8
Livello 1
100
AcDbSpline
210
0.0
220
0.0
230
1.0
 70
     8
 71
     3
 72
     8
 73
     4
 74
     0
 42
0.000000001
 43
0.0000000001
 40
0.0
 40
0.0
 40
0.0
 40
0.0
 40
1.0
 40
1.0
 40
1.0
 40
1.0
 10
444.3673637126928
 20
-177.5219807498903
 30
0.0
 10
444.3673637126928
 20
-178.3474256281562
 30
0.0
 10
444.989547957329
 20
-178.7918429457534
 30
0.0
 10
445.9421168590004
 20
-179.0457464830163
 30
0.0
  0
SPLINE
  5
34B
330
70
100
AcDbEntity
  8
Livello 1
100
AcDbSpline
210
0.0
220
0.0
230
1.0
 70
     8
 71
     3
 72
    14
 73
    10
 74
     0
 42
0.000000001
 43
0.0000000001
 40
1.0
 40
1.0
 40
1.0
 40
1.0
 40
2.0
 40
2.0
 40
2.0
 40
3.0
 40
3.0
 40
3.0
 40
4.0
 40
4.0
 40
4.0
 40
4.0
 10
445.9421168590004
 20
-179.0457464830163
 30
0.0
 10
446.6531845671561
 20
-178.8045897990488
 30
0.0
 10
447.1992322015682
 20
-178.296782724523
 30
0.0
 10
447.1992322015682
 20
-177.5474744564812
 30
0.0
 10
447.1992322015682
 20
-176.8870496519588
 30
0.0
 10
446.8054577876042
 20
-176.2014756503941
 30
0.0
 10
445.8022459822993
 20
-176.2014756503941
 30
0.0
 10
444.8755152967672
 20
-176.2014756503941
 30
0.0
 10
444.3673637126928
 20
-176.8109130417347
 30
0.0
 10
444.3673637126928
 20
-177.5219807498903
 30
0.0
  0
SPLINE
  5
34C
330
70
100
AcDbEntity
  8
Livello 1
100
AcDbSpline
210
0.0
220
0.0
230
1.0
 70
     8
 71
     3
 72
     8
 73
     4
 74
     0
 42
0.000000001
 43
0.0000000001
 40
0.0
 40
0.0
 40
0.0
 40
0.0
 40
1.0
 40
1.0
 40
1.0
 40
1.0
 10
447.4403888855356
 20
-181.6492051412196
 30
0.0
 10
447.4403888855356
 20
-180.6459933359149
 30
0.0
 10
446.7420680306757
 20
-180.1633354584314
 30
0.0
 10
445.6244790552604
 20
-179.8456976546913
 30
0.0
  0
SPLINE
  5
34D
330
70
100
AcDbEntity
  8
Livello 1
100
AcDbSpline
210
0.0
220
0.0
230
1.0
 70
     8
 71
     3
 72
     8
 73
     4
 74
     0
 42
0.000000001
 43
0.0000000001
 40
1.0
 40
1.0
 40
1.0
 40
1.0
 40
2.0
 40
2.0
 40
2.0
 40
2.0
 10
445.6244790552604
 20
-179.8456976546913
 30
0.0
 10
444.659507809842
 20
-180.1250948985451
 30
0.0
 10
444.1389538820208
 20
-180.7600259964766
 30
0.0
 10
444.1389538820208
 20
-181.5475748244048
 30
0.0
  0
SPLINE
  5
34E
330
70
100
AcDbEntity
  8
Livello 1
100
AcDbSpline
210
0.0
220
0.0
230
1.0
 70
     8
 71
     3
 72
    11
 73
     7
 74
     0
 42
0.000000001
 43
0.0000000001
 40
2.0
 40
2.0
 40
2.0
 40
2.0
 40
3.0
 40
3.0
 40
3.0
 40
4.0
 40
4.0
 40
4.0
 40
4.0
 10
444.1389538820208
 20
-181.5475748244048
 30
0.0
 10
444.1007133221344
 20
-182.3854220464175
 30
0.0
 10
444.7356444200661
 20
-183.1219834611639
 30
0.0
 10
445.7898436385526
 20
-183.1219834611639
 30
0.0
 10
446.7927109343087
 20
-183.1219834611639
 30
0.0
 10
447.4403888855356
 20
-182.4997992165278
 30
0.0
 10
447.4403888855356
 20
-181.6492051412196
 30
0.0
  0
SPLINE
  5
34F
330
70
100
AcDbEntity
  8
Livello 1
100
AcDbSpline
210
0.0
220
0.0
230
1.0
 70
     8
 71
     3
 72
     8
 73
     4
 74
     0
 42
0.000000001
 43
0.0000000001
 40
0.0
 40
0.0
 40
0.0
 40
0.0
 40
1.0
 40
1.0
 40
1.0
 40
1.0
 10
442.9962157095634
 20
-181.6998480448528
 30
0.0
 10
442.9962157095634
 20
-180.6583956796618
 30
0.0
 10
443.6183999541994
 20
-179.9221787744639
 30
0.0
 10
444.6340141032512
 20
-179.4901638006136
 30
0.0
  0
SPLINE
  5
350
330
70
100
AcDbEntity
  8
Livello 1
100
AcDbSpline
210
0.0
220
0.0
230
1.0
 70
    24
 71
     3
 72
     8
 73
     4
 74
     0
 42
0.000000001
 43
0.0000000001
 40
1.0
 40
1.0
 40
1.0
 40
1.0
 40
2.0
 40
2.0
 40
2.0
 40
2.0
 10
444.6340141032512
 20
-179.4901638006136
 30
0.0
 10
444.6340141032512
 20
-179.4901638006136
 30
0.0
 10
444.6216117595043
 20
-179.4522677502758
 30
0.0
 10
444.6216117595043
 20
-179.4522677502758
 30
0.0
  0
SPLINE
  5
351
330
70
100
AcDbEntity
  8
Livello 1
100
AcDbSpline
210
0.0
220
0.0
230
1.0
 70
     8
 71
     3
 72
    17
 73
    13
 74
     0
 42
0.000000001
 43
0.0000000001
 40
2.0
 40
2.0
 40
2.0
 40
2.0
 40
3.0
 40
3.0
 40
3.0
 40
4.0
 40
4.0
 40
4.0
 40
5.0
 40
5.0
 40
5.0
 40
6.0
 40
6.0
 40
6.0
 40
6.0
 10
444.6216117595043
 20
-179.4522677502758
 30
0.0
 10
443.7072834177191
 20
-179.020597285974
 30
0.0
 10
443.3135090037549
 20
-178.3095295778184
 30
0.0
 10
443.3135090037549
 20
-177.5981173601143
 30
0.0
 10
443.3135090037549
 20
-176.2903591139135
 30
0.0
 10
444.4183511258746
 20
-175.401524478719
 30
0.0
 10
445.8659802487765
 20
-175.401524478719
 30
0.0
 10
447.4658825921266
 20
-175.401524478719
 30
0.0
 10
448.2658337638016
 20
-176.4047362840238
 30
0.0
 10
448.2658337638016
 20
-177.4330972863709
 30
0.0
 10
448.2658337638016
 20
-178.131418141231
 30
0.0
 10
447.9230467630191
 20
-178.8807264092729
 30
0.0
 10
446.9070881044189
 20
-179.3633842867563
 30
0.0
  0
SPLINE
  5
352
330
70
100
AcDbEntity
  8
Livello 1
100
AcDbSpline
210
0.0
220
0.0
230
1.0
 70
    24
 71
     3
 72
     8
 73
     4
 74
     0
 42
0.000000001
 43
0.0000000001
 40
6.0
 40
6.0
 40
6.0
 40
6.0
 40
7.0
 40
7.0
 40
7.0
 40
7.0
 10
446.9070881044189
 20
-179.3633842867563
 30
0.0
 10
446.9070881044189
 20
-179.3633842867563
 30
0.0
 10
446.9070881044189
 20
-179.4012803370941
 30
0.0
 10
446.9070881044189
 20
-179.4012803370941
 30
0.0
  0
SPLINE
  5
353
330
70
100
AcDbEntity
  8
Livello 1
100
AcDbSpline
210
0.0
220
0.0
230
1.0
 70
     8
 71
     3
 72
    14
 73
    10
 74
     0
 42
0.000000001
 43
0.0000000001
 40
7.0
 40
7.0
 40
7.0
 40
7.0
 40
8.0
 40
8.0
 40
8.0
 40
9.0
 40
9.0
 40
9.0
 40
10.0
 40
10.0
 40
10.0
 40
10.0
 10
446.9070881044189
 20
-179.4012803370941
 30
0.0
 10
447.9357936163147
 20
-179.8078016043536
 30
0.0
 10
448.5707247142462
 20
-180.5316161658046
 30
0.0
 10
448.5707247142462
 20
-181.5348279711093
 30
0.0
 10
448.5707247142462
 20
-182.9697102407159
 30
0.0
 10
447.3387585687207
 20
-183.9346814861344
 30
0.0
 10
445.7643499319615
 20
-183.9346814861344
 30
0.0
 10
444.0373235652058
 20
-183.9346814861344
 30
0.0
 10
442.9962157095634
 20
-182.9063204837873
 30
0.0
 10
442.9962157095634
 20
-181.6998480448528
 30
0.0
  0
SPLINE
  5
354
330
70
100
AcDbEntity
  8
Livello 1
100
AcDbSpline
210
0.0
220
0.0
230
1.0
 70
     8
 71
     3
 72
     8
 73
     4
 74
     0
 42
0.000000001
 43
0.0000000001
 40
0.0
 40
0.0
 40
0.0
 40
0.0
 40
1.0
 40
1.0
 40
1.0
 40
1.0
 10
449.2442408816126
 20
-185.3568169024455
 30
0.0
 10
449.5236381254663
 20
-184.6078531439522
 30
0.0
 10
449.8664251262487
 20
-183.2491074845695
 30
0.0
 10
450.0062960029498
 20
-182.3220322894889
 30
0.0
  0
SPLINE
  5
355
330
70
100
AcDbEntity
  8
Livello 1
100
AcDbSpline
210
0.0
220
0.0
230
1.0
 70
    24
 71
     3
 72
     8
 73
     4
 74
     0
 42
0.000000001
 43
0.0000000001
 40
1.0
 40
1.0
 40
1.0
 40
1.0
 40
2.0
 40
2.0
 40
2.0
 40
2.0
 10
450.0062960029498
 20
-182.3220322894889
 30
0.0
 10
450.0062960029498
 20
-182.3220322894889
 30
0.0
 10
451.2506644922219
 20
-182.1949082660832
 30
0.0
 10
451.2506644922219
 20
-182.1949082660832
 30
0.0
  0
SPLINE
  5
356
330
70
100
AcDbEntity
  8
Livello 1
100
AcDbSpline
210
0.0
220
0.0
230
1.0
 70
     8
 71
     3
 72
     8
 73
     4
 74
     0
 42
0.000000001
 43
0.0000000001
 40
2.0
 40
2.0
 40
2.0
 40
2.0
 40
3.0
 40
3.0
 40
3.0
 40
3.0
 10
451.2506644922219
 20
-182.1949082660832
 30
0.0
 10
450.9585203950727
 20
-183.2746011911605
 30
0.0
 10
450.3997259073653
 20
-184.6839897541761
 30
0.0
 10
450.0441920532876
 20
-185.2806802922215
 30
0.0
  0
SPLINE
  5
357
330
70
100
AcDbEntity
  8
Livello 1
100
AcDbSpline
210
0.0
220
0.0
230
1.0
 70
    24
 71
     3
 72
     8
 73
     4
 74
     0
 42
0.000000001
 43
0.0000000001
 40
3.0
 40
3.0
 40
3.0
 40
3.0
 40
4.0
 40
4.0
 40
4.0
 40
4.0
 10
450.0441920532876
 20
-185.2806802922215
 30
0.0
 10
450.0441920532876
 20
-185.2806802922215
 30
0.0
 10
449.2442408816126
 20
-185.3568169024455
 30
0.0
 10
449.2442408816126
 20
-185.3568169024455
 30
0.0
  0
SPLINE
  5
358
330
70
100
AcDbEntity
  8
Livello 1
100
AcDbSpline
210
0.0
220
0.0
230
1.0
 70
    24
 71
     3
 72
     8
 73
     4
 74
     0
 42
0.000000001
 43
0.0000000001
 40
0.0
 40
0.0
 40
0.0
 40
0.0
 40
1.0
 40
1.0
 40
1.0
 40
1.0
 10
457.1683050072357
 20
-176.4808728942478
 30
0.0
 10
457.1683050072357
 20
-176.4808728942478
 30
0.0
 10
454.0191432241687
 20
-176.4808728942478
 30
0.0
 10
454.0191432241687
 20
-176.4808728942478
 30
0.0
  0
SPLINE
  5
359
330
70
100
AcDbEntity
  8
Livello 1
100
AcDbSpline
210
0.0
220
0.0
230
1.0
 70
    24
 71
     3
 72
     8
 73
     4
 74
     0
 42
0.000000001
 43
0.0000000001
 40
1.0
 40
1.0
 40
1.0
 40
1.0
 40
2.0
 40
2.0
 40
2.0
 40
2.0
 10
454.0191432241687
 20
-176.4808728942478
 30
0.0
 10
454.0191432241687
 20
-176.4808728942478
 30
0.0
 10
453.7015054204288
 20
-178.6013291654191
 30
0.0
 10
453.7015054204288
 20
-178.6013291654191
 30
0.0
  0
SPLINE
  5
35A
330
70
100
AcDbEntity
  8
Livello 1
100
AcDbSpline
210
0.0
220
0.0
230
1.0
 70
     8
 71
     3
 72
    11
 73
     7
 74
     0
 42
0.000000001
 43
0.0000000001
 40
2.0
 40
2.0
 40
2.0
 40
2.0
 40
3.0
 40
3.0
 40
3.0
 40
4.0
 40
4.0
 40
4.0
 40
4.0
 10
453.7015054204288
 20
-178.6013291654191
 30
0.0
 10
453.8920192007631
 20
-178.5761799683768
 30
0.0
 10
454.069786127802
 20
-178.5506862617859
 30
0.0
 10
454.3746770782466
 20
-178.5506862617859
 30
0.0
 10
455.0096081761782
 20
-178.5506862617859
 30
0.0
 10
455.6445392741096
 20
-178.6902126289385
 30
0.0
 10
456.1523463486355
 20
-178.9951035793832
 30
0.0
  0
SPLINE
  5
35B
330
70
100
AcDbEntity
  8
Livello 1
100
AcDbSpline
210
0.0
220
0.0
230
1.0
 70
     8
 71
     3
 72
    14
 73
    10
 74
     0
 42
0.000000001
 43
0.0000000001
 40
4.0
 40
4.0
 40
4.0
 40
4.0
 40
5.0
 40
5.0
 40
5.0
 40
6.0
 40
6.0
 40
6.0
 40
7.0
 40
7.0
 40
7.0
 40
7.0
 10
456.1523463486355
 20
-178.9951035793832
 30
0.0
 10
456.8000242998625
 20
-179.3633842867563
 30
0.0
 10
457.3333250809791
 20
-180.0744519949119
 30
0.0
 10
457.3333250809791
 20
-181.1155598505544
 30
0.0
 10
457.3333250809791
 20
-182.7285535567483
 30
0.0
 10
456.0507160318207
 20
-183.9346814861344
 30
0.0
 10
454.2602999081363
 20
-183.9346814861344
 30
0.0
 10
453.3587184196464
 20
-183.9346814861344
 30
0.0
 10
452.5966632983092
 20
-183.6807779488714
 30
0.0
 10
452.2032333938936
 20
-183.4268744116085
 30
0.0
  0
SPLINE
  5
35C
330
70
100
AcDbEntity
  8
Livello 1
100
AcDbSpline
210
0.0
220
0.0
230
1.0
 70
    24
 71
     3
 72
     8
 73
     4
 74
     0
 42
0.000000001
 43
0.0000000001
 40
7.0
 40
7.0
 40
7.0
 40
7.0
 40
8.0
 40
8.0
 40
8.0
 40
8.0
 10
452.2032333938936
 20
-183.4268744116085
 30
0.0
 10
452.2032333938936
 20
-183.4268744116085
 30
0.0
 10
452.4826306377473
 20
-182.5759358267518
 30
0.0
 10
452.4826306377473
 20
-182.5759358267518
 30
0.0
  0
SPLINE
  5
35D
330
70
100
AcDbEntity
  8
Livello 1
100
AcDbSpline
210
0.0
220
0.0
230
1.0
 70
     8
 71
     3
 72
    11
 73
     7
 74
     0
 42
0.000000001
 43
0.0000000001
 40
8.0
 40
8.0
 40
8.0
 40
8.0
 40
9.0
 40
9.0
 40
9.0
 40
10.0
 40
10.0
 40
10.0
 40
10.0
 10
452.4826306377473
 20
-182.5759358267518
 30
0.0
 10
452.8254176385296
 20
-182.7791964603815
 30
0.0
 10
453.498244786799
 20
-183.0330999976445
 30
0.0
 10
454.2475530548408
 20
-183.0330999976445
 30
0.0
 10
455.3017522733273
 20
-183.0330999976445
 30
0.0
 10
456.2033337618172
 20
-182.3475259960798
 30
0.0
 10
456.2033337618172
 20
-181.2426838739602
 30
0.0
  0
SPLINE
  5
35E
330
70
100
AcDbEntity
  8
Livello 1
100
AcDbSpline
210
0.0
220
0.0
230
1.0
 70
     8
 71
     3
 72
    11
 73
     7
 74
     0
 42
0.000000001
 43
0.0000000001
 40
10.0
 40
10.0
 40
10.0
 40
10.0
 40
11.0
 40
11.0
 40
11.0
 40
12.0
 40
12.0
 40
12.0
 40
12.0
 10
456.2033337618172
 20
-181.2426838739602
 30
0.0
 10
456.1905869085218
 20
-180.1760823117268
 30
0.0
 10
455.4795192003663
 20
-179.4140271903895
 30
0.0
 10
453.8286294438345
 20
-179.4140271903895
 30
0.0
 10
453.3587184196464
 20
-179.4140271903895
 30
0.0
 10
452.9904377122732
 20
-179.4650146035712
 30
0.0
 10
452.6855467618286
 20
-179.502910653909
 30
0.0
  0
SPLINE
  5
35F
330
70
100
AcDbEntity
  8
Livello 1
100
AcDbSpline
210
0.0
220
0.0
230
1.0
 70
    24
 71
     3
 72
     8
 73
     4
 74
     0
 42
0.000000001
 43
0.0000000001
 40
12.0
 40
12.0
 40
12.0
 40
12.0
 40
13.0
 40
13.0
 40
13.0
 40
13.0
 10
452.6855467618286
 20
-179.502910653909
 30
0.0
 10
452.6855467618286
 20
-179.502910653909
 30
0.0
 10
453.2191920524938
 20
-175.5410508458717
 30
0.0
 10
453.2191920524938
 20
-175.5410508458717
 30
0.0
  0
SPLINE
  5
360
330
70
100
AcDbEntity
  8
Livello 1
100
AcDbSpline
210
0.0
220
0.0
230
1.0
 70
    24
 71
     3
 72
     8
 73
     4
 74
     0
 42
0.000000001
 43
0.0000000001
 40
13.0
 40
13.0
 40
13.0
 40
13.0
 40
14.0
 40
14.0
 40
14.0
 40
14.0
 10
453.2191920524938
 20
-175.5410508458717
 30
0.0
 10
453.2191920524938
 20
-175.5410508458717
 30
0.0
 10
457.1683050072357
 20
-175.5410508458717
 30
0.0
 10
457.1683050072357
 20
-175.5410508458717
 30
0.0
  0
SPLINE
  5
361
330
70
100
AcDbEntity
  8
Livello 1
100
AcDbSpline
210
0.0
220
0.0
230
1.0
 70
    24
 71
     3
 72
     8
 73
     4
 74
     0
 42
0.000000001
 43
0.0000000001
 40
14.0
 40
14.0
 40
14.0
 40
14.0
 40
15.0
 40
15.0
 40
15.0
 40
15.0
 10
457.1683050072357
 20
-175.5410508458717
 30
0.0
 10
457.1683050072357
 20
-175.5410508458717
 30
0.0
 10
457.1683050072357
 20
-176.4808728942478
 30
0.0
 10
457.1683050072357
 20
-176.4808728942478
 30
0.0
  0
ENDSEC
  0
SECTION
  2
OBJECTS
  0
DICTIONARY
  5
C
330
0
100
AcDbDictionary
281
     1
  3
ACAD_CIP_PREVIOUS_PRODUCT_INFO
350
18A
  3
ACAD_COLOR
350
63
  3
ACAD_DETAILVIEWSTYLE
350
6A
  3
ACAD_GROUP
350
D
  3
ACAD_LAYOUT
350
62
  3
ACAD_MATERIAL
350
10
  3
ACAD_MLEADERSTYLE
350
66
  3
ACAD_MLINESTYLE
350
5F
  3
ACAD_PLOTSETTINGS
350
61
  3
ACAD_PLOTSTYLENAME
350
E
  3
ACAD_SCALELIST
350
42
  3
ACAD_SECTIONVIEWSTYLE
350
68
  3
ACAD_TABLESTYLE
350
64
  3
ACAD_VISUALSTYLE
350
29
  3
ACDB_RECOMPOSE_DATA
350
36F
  3
AcDbVariableDictionary
350
147
  0
DICTIONARY
  5
18B
330
70
100
AcDbDictionary
280
     1
281
     1
  3
ACAD_SORTENTS
360
18C
  0
XRECORD
  5
18A
102
{ACAD_REACTORS
330
C
102
}
330
C
100
AcDbXrecord
280
     1
300
ACD
300
2019
300
ACD_F_S
  0
DICTIONARY
  5
63
102
{ACAD_REACTORS
330
C
102
}
330
C
100
AcDbDictionary
281
     1
  0
DICTIONARY
  5
6A
102
{ACAD_REACTORS
330
C
102
}
330
C
100
AcDbDictionary
281
     1
  3
Imperial24
350
6B
  0
DICTIONARY
  5
D
102
{ACAD_REACTORS
330
C
102
}
330
C
100
AcDbDictionary
281
     1
  0
DICTIONARY
  5
62
102
{ACAD_REACTORS
330
C
102
}
330
C
100
AcDbDictionary
281
     1
  3
Layout1
350
6F
  3
Layout2
350
77
  3
Model
350
73
  0
DICTIONARY
  5
10
102
{ACAD_REACTORS
330
C
102
}
330
C
100
AcDbDictionary
281
     1
  3
ByBlock
350
19
  3
ByLayer
350
11
  3
Global
350
21
  0
DICTIONARY
  5
66
102
{ACAD_REACTORS
330
C
102
}
330
C
100
AcDbDictionary
281
     1
  3
Standard
350
67
  0
DICTIONARY
  5
5F
102
{ACAD_REACTORS
330
C
102
}
330
C
100
AcDbDictionary
281
     1
  3
Standard
350
60
  0
DICTIONARY
  5
61
102
{ACAD_REACTORS
330
C
102
}
330
C
100
AcDbDictionary
281
     1
  0
ACDBDICTIONARYWDFLT
  5
E
102
{ACAD_REACTORS
330
C
102
}
330
C
100
AcDbDictionary
281
     1
  3
Normal
350
F
100
AcDbDictionaryWithDefault
340
F
  0
DICTIONARY
  5
42
102
{ACAD_REACTORS
330
C
102
}
330
C
100
AcDbDictionary
281
     1
  3
A0
350
43
  3
A1
350
44
  3
A2
350
45
  3
A3
350
46
  3
A4
350
47
  3
A5
350
48
  3
A6
350
49
  3
A7
350
4A
  3
A8
350
4B
  3
A9
350
4C
  3
B0
350
4D
  3
B1
350
4E
  3
B2
350
4F
  3
B3
350
50
  3
B4
350
51
  3
B5
350
52
  3
B6
350
53
  0
DICTIONARY
  5
68
102
{ACAD_REACTORS
330
C
102
}
330
C
100
AcDbDictionary
281
     1
  3
Imperial24
350
69
  0
DICTIONARY
  5
64
102
{ACAD_REACTORS
330
C
102
}
330
C
100
AcDbDictionary
281
     1
  3
Standard
350
65
  0
DICTIONARY
  5
29
102
{ACAD_REACTORS
330
C
102
}
330
C
100
AcDbDictionary
281
     1
  3
2dWireframe
350
2F
  3
Basic
350
2E
  3
Brighten
350
35
  3
ColorChange
350
39
  3
Conceptual
350
32
  3
Dim
350
34
  3
EdgeColorOff
350
41
  3
Facepattern
350
38
  3
Flat
350
2A
  3
FlatWithEdges
350
2B
  3
Gouraud
350
2C
  3
GouraudWithEdges
350
2D
  3
Hidden
350
31
  3
JitterOff
350
3F
  3
Linepattern
350
37
  3
OverhangOff
350
40
  3
Realistic
350
33
  3
Shaded
350
3E
  3
Shaded with edges
350
3D
  3
Shades of Gray
350
3A
  3
Sketchy
350
3B
  3
Thicken
350
36
  3
Wireframe
350
30
  3
X-Ray
350
3C
  0
XRECORD
  5
36F
102
{ACAD_REACTORS
330
C
102
}
330
C
100
AcDbXrecord
280
     1
 90
        1
330
65
  0
DICTIONARY
  5
147
102
{ACAD_REACTORS
330
C
102
}
330
C
100
AcDbDictionary
281
     1
  3
CANNOSCALE
350
14C
  3
CMLEADERSTYLE
350
149
  3
CTABLESTYLE
350
148
  3
CVIEWDETAILSTYLE
350
14A
  3
CVIEWSECTIONSTYLE
350
14B
  0
SORTENTSTABLE
  5
18C
102
{ACAD_REACTORS
330
18B
102
}
330
18B
100
AcDbSortentsTable
330
70
331
9A
  5
1C8
331
9B
  5
1C9
331
9C
  5
1CA
331
9D
  5
1CB
331
A0
  5
1D2
331
A5
  5
1D9
331
AC
  5
1E1
331
B8
  5
224
331
BE
  5
238
331
C0
  5
23D
331
C1
  5
23E
331
C3
  5
243
331
C4
  5
244
331
C5
  5
245
331
C6
  5
246
331
C8
  5
247
331
CB
  5
248
331
CC
  5
249
331
CD
  5
24A
331
CE
  5
24B
331
D0
  5
24C
331
D1
  5
24D
331
D3
  5
24E
331
D4
  5
24F
331
11B
  5
316
331
11C
  5
317
331
11D
  5
318
331
18D
  5
9A
331
18E
  5
9B
331
18F
  5
9C
331
190
  5
9D
331
191
  5
A0
331
192
  5
A5
331
193
  5
AC
331
194
  5
B8
331
195
  5
BE
331
196
  5
C0
331
197
  5
C1
331
198
  5
C3
331
199
  5
C4
331
19A
  5
C5
331
19B
  5
C6
331
19C
  5
C8
331
19D
  5
CB
331
19E
  5
CC
331
19F
  5
CD
331
1A0
  5
CE
331
1A1
  5
D0
331
1A2
  5
D1
331
1A3
  5
D3
331
1A4
  5
D4
331
1A5
  5
DD
331
1A6
  5
DE
331
1A7
  5
E1
331
1A8
  5
E2
331
1A9
  5
E3
331
1AA
  5
E4
331
1AB
  5
E5
331
1AC
  5
E6
331
1AD
  5
E7
331
1AE
  5
E8
331
1AF
  5
EC
331
1B0
  5
ED
331
1B1
  5
EE
331
1B2
  5
EF
331
1B3
  5
F0
331
1B4
  5
F1
331
1B5
  5
11B
331
1B6
  5
11C
331
1B7
  5
11D
331
1B8
  5
18D
331
1B9
  5
18E
331
1BA
  5
18F
331
1BB
  5
190
331
1BC
  5
191
331
1BD
  5
192
331
1BE
  5
193
331
1BF
  5
194
331
1C0
  5
195
331
1C1
  5
196
331
1C2
  5
197
331
1C3
  5
198
331
1C4
  5
199
331
1C5
  5
19A
331
1C6
  5
19B
331
1C7
  5
19C
331
1C8
  5
19D
331
1C9
  5
19E
331
1CA
  5
19F
331
1CB
  5
1A0
331
1CC
  5
1A1
331
1CD
  5
1A2
331
1CE
  5
1A3
331
1CF
  5
1A4
331
1D0
  5
1A5
331
1D1
  5
1A6
331
1D2
  5
1A7
331
1D3
  5
1A8
331
1D4
  5
1A9
331
1D5
  5
1AA
331
1D6
  5
1AB
331
1D7
  5
1AC
331
1D8
  5
1AD
331
1D9
  5
1AE
331
1DA
  5
1AF
331
1DB
  5
1B0
331
1DC
  5
1B1
331
1DD
  5
1B2
331
1DE
  5
1B3
331
1DF
  5
1B4
331
1E0
  5
1B5
331
1E1
  5
1B6
331
1E2
  5
1B7
331
1E3
  5
1B8
331
1E4
  5
1B9
331
1E5
  5
1BA
331
1E6
  5
1BB
331
1E7
  5
1BC
331
1E8
  5
1BD
331
1E9
  5
1BE
331
1EA
  5
1BF
331
1EB
  5
1C0
331
1EC
  5
1C1
331
1ED
  5
1C2
331
1EE
  5
1C3
331
1EF
  5
1C4
331
1F0
  5
1C5
331
1F1
  5
1C6
331
1F2
  5
1C7
331
1F3
  5
1CC
331
1F4
  5
1CD
331
1F5
  5
1CE
331
1F6
  5
1CF
331
1F7
  5
1D0
331
1F8
  5
1D1
331
1F9
  5
1D3
331
1FA
  5
1D4
331
1FB
  5
1D5
331
1FC
  5
1D6
331
1FD
  5
1D7
331
1FE
  5
1D8
331
1FF
  5
1DA
331
200
  5
1DB
331
201
  5
1DC
331
202
  5
1DD
331
203
  5
1DE
331
204
  5
1DF
331
205
  5
1E0
331
206
  5
1E2
331
207
  5
1E3
331
208
  5
1E4
331
209
  5
1E5
331
20A
  5
1E6
331
20B
  5
1E7
331
20C
  5
1E8
331
20D
  5
1E9
331
20E
  5
1EA
331
20F
  5
1EB
331
210
  5
1EC
331
211
  5
1ED
331
212
  5
1EE
331
213
  5
1EF
331
214
  5
1F0
331
215
  5
1F1
331
216
  5
1F2
331
217
  5
1F3
331
218
  5
1F4
331
219
  5
1F5
331
21A
  5
1F6
331
21B
  5
1F7
331
21C
  5
1F8
331
21D
  5
1F9
331
21E
  5
1FA
331
21F
  5
1FB
331
220
  5
1FC
331
221
  5
1FD
331
222
  5
1FE
331
223
  5
1FF
331
224
  5
200
331
225
  5
201
331
226
  5
202
331
227
  5
203
331
228
  5
204
331
229
  5
205
331
22A
  5
206
331
22B
  5
207
331
22C
  5
208
331
22D
  5
209
331
22E
  5
20A
331
22F
  5
20B
331
230
  5
20C
331
231
  5
20D
331
232
  5
20E
331
233
  5
20F
331
234
  5
210
331
235
  5
211
331
236
  5
212
331
237
  5
213
331
238
  5
214
331
239
  5
215
331
23A
  5
216
331
23B
  5
217
331
23C
  5
218
331
23D
  5
219
331
23E
  5
21A
331
23F
  5
21B
331
240
  5
21C
331
241
  5
21D
331
242
  5
21E
331
243
  5
21F
331
244
  5
220
331
245
  5
221
331
246
  5
222
331
247
  5
223
331
248
  5
225
331
249
  5
226
331
24A
  5
227
331
24B
  5
228
331
24C
  5
229
331
24D
  5
22A
331
24E
  5
22B
331
24F
  5
22C
331
250
  5
22D
331
251
  5
22E
331
252
  5
22F
331
253
  5
230
331
254
  5
231
331
255
  5
232
331
256
  5
233
331
257
  5
234
331
258
  5
235
331
259
  5
236
331
25A
  5
237
331
25B
  5
239
331
25C
  5
23A
331
25D
  5
23B
331
25E
  5
23C
331
25F
  5
23F
331
260
  5
240
331
261
  5
241
331
262
  5
242
331
2E1
  5
31A
331
2E2
  5
31B
331
2E4
  5
31D
331
2E6
  5
31F
331
2E8
  5
321
331
2EC
  5
325
331
2EE
  5
327
331
2F0
  5
329
  0
ACDBDETAILVIEWSTYLE
  5
6B
102
{ACAD_XDICTIONARY
360
372
102
}
102
{ACAD_REACTORS
330
6A
102
}
330
6A
100
AcDbModelDocViewStyle
 70
     0
  3
Imperial24
290
     0
100
AcDbDetailViewStyle
 70
     0
 71
     0
 90
        3
 71
     1
340
55
 62
   256
 40
0.24
340
0
 62
   256
 40
0.24
300

 40
0.36
280
     3
 71
     2
340
5D
 90
       25
 62
   256
 71
     3
340
55
 62
   256
 40
0.24
 90
        1
 40
0.75
 90
        1
300
%<\AcVar ViewType \f "%tc1">% %<\AcVar ViewDetailId>%\PSCALE %<\AcVar ViewScale \f "%sn">%
 71
     4
340
5D
 90
       25
 62
   256
340
5D
 90
       25
 62
   256
280
     0
  0
LAYOUT
  5
6F
102
{ACAD_REACTORS
330
62
102
}
330
62
100
AcDbPlotSettings
  1

  2

  4

  6

 40
0.0
 41
0.0
 42
0.0
 43
0.0
 44
0.0
 45
0.0
 46
0.0
 47
0.0
 48
0.0
 49
0.0
140
0.0
141
0.0
142
1.0
143
1.0
 70
   688
 72
     0
 73
     0
 74
     5
  7

 75
    16
147
1.0
 76
     0
 77
     2
 78
   300
148
0.0
149
0.0
100
AcDbLayout
  1
Layout1
 70
     1
 71
     1
 10
0.0
 20
0.0
 11
12.0
 21
9.0
 12
0.0
 22
0.0
 32
0.0
 14
1.000000000000000E+20
 24
1.000000000000000E+20
 34
1.000000000000000E+20
 15
-1.000000000000000E+20
 25
-1.000000000000000E+20
 35
-1.000000000000000E+20
146
0.0
 13
0.0
 23
0.0
 33
0.0
 16
1.0
 26
0.0
 36
0.0
 17
0.0
 27
1.0
 37
0.0
 76
     0
330
6C
  0
LAYOUT
  5
77
102
{ACAD_REACTORS
330
62
102
}
330
62
100
AcDbPlotSettings
  1

  2

  4

  6

 40
0.0
 41
0.0
 42
0.0
 43
0.0
 44
0.0
 45
0.0
 46
0.0
 47
0.0
 48
0.0
 49
0.0
140
0.0
141
0.0
142
1.0
143
1.0
 70
   688
 72
     0
 73
     0
 74
     5
  7

 75
    16
147
1.0
 76
     0
 77
     2
 78
   300
148
0.0
149
0.0
100
AcDbLayout
  1
Layout2
 70
     1
 71
     2
 10
0.0
 20
0.0
 11
12.0
 21
9.0
 12
0.0
 22
0.0
 32
0.0
 14
0.0
 24
0.0
 34
0.0
 15
0.0
 25
0.0
 35
0.0
146
0.0
 13
0.0
 23
0.0
 33
0.0
 16
1.0
 26
0.0
 36
0.0
 17
0.0
 27
1.0
 37
0.0
 76
     0
330
74
  0
LAYOUT
  5
73
102
{ACAD_REACTORS
330
62
102
}
330
62
100
AcDbPlotSettings
  1

  2

  4

  6

 40
0.0
 41
0.0
 42
0.0
 43
0.0
 44
0.0
 45
0.0
 46
0.0
 47
0.0
 48
0.0
 49
0.0
140
0.0
141
0.0
142
1.0
143
1.0
 70
  1712
 72
     0
 73
     0
 74
     0
  7

 75
     0
147
1.0
 76
     0
 77
     2
 78
   300
148
0.0
149
0.0
100
AcDbLayout
  1
Model
 70
     1
 71
     0
 10
0.0
 20
0.0
 11
12.0
 21
9.0
 12
0.0
 22
0.0
 32
0.0
 14
0.0
 24
0.0
 34
0.0
 15
0.0
 25
0.0
 35
0.0
146
0.0
 13
0.0
 23
0.0
 33
0.0
 16
1.0
 26
0.0
 36
0.0
 17
0.0
 27
1.0
 37
0.0
 76
     0
330
70
331
57
  0
MATERIAL
  5
19
102
{ACAD_XDICTIONARY
360
1A
102
}
102
{ACAD_REACTORS
330
10
102
}
330
10
100
AcDbMaterial
  1
ByBlock
 72
     0
 43
0.0208333333333333
 43
0.0
 43
0.0
 43
0.0
 43
0.0
 43
0.0208333333333333
 43
0.0
 43
0.0
 43
0.0
 43
0.0
 43
1.0
 43
0.0
 43
0.0
 43
0.0
 43
0.0
 43
1.0
 77
     0
 47
0.0208333333333333
 47
0.0
 47
0.0
 47
0.0
 47
0.0
 47
0.0208333333333333
 47
0.0
 47
0.0
 47
0.0
 47
0.0
 47
1.0
 47
0.0
 47
0.0
 47
0.0
 47
0.0
 47
1.0
171
     0
 49
0.0208333333333333
 49
0.0
 49
0.0
 49
0.0
 49
0.0
 49
0.0208333333333333
 49
0.0
 49
0.0
 49
0.0
 49
0.0
 49
1.0
 49
0.0
 49
0.0
 49
0.0
 49
0.0
 49
1.0
175
     0
142
0.0208333333333333
142
0.0
142
0.0
142
0.0
142
0.0
142
0.0208333333333333
142
0.0
142
0.0
142
0.0
142
0.0
142
1.0
142
0.0
142
0.0
142
0.0
142
0.0
142
1.0
179
     0
144
0.0208333333333333
144
0.0
144
0.0
144
0.0
144
0.0
144
0.0208333333333333
144
0.0
144
0.0
144
0.0
144
0.0
144
1.0
144
0.0
144
0.0
144
0.0
144
0.0
144
1.0
147
0.0208333333333333
147
0.0
147
0.0
147
0.0
147
0.0
147
0.0208333333333333
147
0.0
147
0.0
147
0.0
147
0.0
147
1.0
147
0.0
147
0.0
147
0.0
147
0.0
147
1.0
  0
MATERIAL
  5
11
102
{ACAD_XDICTIONARY
360
12
102
}
102
{ACAD_REACTORS
330
10
102
}
330
10
100
AcDbMaterial
  1
ByLayer
 72
     0
 43
0.0208333333333333
 43
0.0
 43
0.0
 43
0.0
 43
0.0
 43
0.0208333333333333
 43
0.0
 43
0.0
 43
0.0
 43
0.0
 43
1.0
 43
0.0
 43
0.0
 43
0.0
 43
0.0
 43
1.0
 77
     0
 47
0.0208333333333333
 47
0.0
 47
0.0
 47
0.0
 47
0.0
 47
0.0208333333333333
 47
0.0
 47
0.0
 47
0.0
 47
0.0
 47
1.0
 47
0.0
 47
0.0
 47
0.0
 47
0.0
 47
1.0
171
     0
 49
0.0208333333333333
 49
0.0
 49
0.0
 49
0.0
 49
0.0
 49
0.0208333333333333
 49
0.0
 49
0.0
 49
0.0
 49
0.0
 49
1.0
 49
0.0
 49
0.0
 49
0.0
 49
0.0
 49
1.0
175
     0
142
0.0208333333333333
142
0.0
142
0.0
142
0.0
142
0.0
142
0.0208333333333333
142
0.0
142
0.0
142
0.0
142
0.0
142
1.0
142
0.0
142
0.0
142
0.0
142
0.0
142
1.0
179
     0
144
0.0208333333333333
144
0.0
144
0.0
144
0.0
144
0.0
144
0.0208333333333333
144
0.0
144
0.0
144
0.0
144
0.0
144
1.0
144
0.0
144
0.0
144
0.0
144
0.0
144
1.0
147
0.0208333333333333
147
0.0
147
0.0
147
0.0
147
0.0
147
0.0208333333333333
147
0.0
147
0.0
147
0.0
147
0.0
147
1.0
147
0.0
147
0.0
147
0.0
147
0.0
147
1.0
  0
MATERIAL
  5
21
102
{ACAD_XDICTIONARY
360
22
102
}
102
{ACAD_REACTORS
330
10
102
}
330
10
100
AcDbMaterial
  1
Global
 72
     0
 43
0.0208333333333333
 43
0.0
 43
0.0
 43
0.0
 43
0.0
 43
0.0208333333333333
 43
0.0
 43
0.0
 43
0.0
 43
0.0
 43
1.0
 43
0.0
 43
0.0
 43
0.0
 43
0.0
 43
1.0
 77
     0
 47
0.0208333333333333
 47
0.0
 47
0.0
 47
0.0
 47
0.0
 47
0.0208333333333333
 47
0.0
 47
0.0
 47
0.0
 47
0.0
 47
1.0
 47
0.0
 47
0.0
 47
0.0
 47
0.0
 47
1.0
171
     0
 49
0.0208333333333333
 49
0.0
 49
0.0
 49
0.0
 49
0.0
 49
0.0208333333333333
 49
0.0
 49
0.0
 49
0.0
 49
0.0
 49
1.0
 49
0.0
 49
0.0
 49
0.0
 49
0.0
 49
1.0
175
     0
142
0.0208333333333333
142
0.0
142
0.0
142
0.0
142
0.0
142
0.0208333333333333
142
0.0
142
0.0
142
0.0
142
0.0
142
1.0
142
0.0
142
0.0
142
0.0
142
0.0
142
1.0
179
     0
144
0.0208333333333333
144
0.0
144
0.0
144
0.0
144
0.0
144
0.0208333333333333
144
0.0
144
0.0
144
0.0
144
0.0
144
1.0
144
0.0
144
0.0
144
0.0
144
0.0
144
1.0
147
0.0208333333333333
147
0.0
147
0.0
147
0.0
147
0.0
147
0.0208333333333333
147
0.0
147
0.0
147
0.0
147
0.0
147
1.0
147
0.0
147
0.0
147
0.0
147
0.0
147
1.0
  0
MLEADERSTYLE
  5
67
102
{ACAD_REACTORS
330
66
102
}
330
66
100
AcDbMLeaderStyle
179
     2
170
     2
171
     1
172
     0
 90
        2
 40
0.0
 41
0.0
173
     1
 91
-1056964608
340
5B
 92
       -2
290
     1
 42
0.09
291
     1
 43
0.36
  3
Standard
 44
0.18
300

342
55
174
     1
178
     6
175
     1
176
     0
 93
-1056964608
 45
0.18
292
     0
297
     0
 46
0.18
 94
-1056964608
 47
1.0
 49
1.0
140
1.0
293
     1
141
0.0
294
     1
177
     0
142
1.0
295
     0
296
     0
143
0.125
271
     0
272
     9
273
     9
298
     1
  0
MLINESTYLE
  5
60
102
{ACAD_REACTORS
330
5F
102
}
330
5F
100
AcDbMlineStyle
  2
STANDARD
 70
     0
  3

 62
   256
 51
90.0
 52
90.0
 71
     2
 49
0.5
 62
   256
  6
BYLAYER
 49
-0.5
 62
   256
  6
BYLAYER
  0
ACDBPLACEHOLDER
  5
F
102
{ACAD_REACTORS
330
E
102
}
330
E
  0
SCALE
  5
43
102
{ACAD_REACTORS
330
42
102
}
330
42
100
AcDbScale
 70
     0
300
1:1
140
1.0
141
1.0
290
     1
  0
SCALE
  5
44
102
{ACAD_REACTORS
330
42
102
}
330
42
100
AcDbScale
 70
     0
300
1/128" = 1'-0"
140
0.0078125
141
12.0
290
     0
  0
SCALE
  5
45
102
{ACAD_REACTORS
330
42
102
}
330
42
100
AcDbScale
 70
     0
300
1/64" = 1'-0"
140
0.015625
141
12.0
290
     0
  0
SCALE
  5
46
102
{ACAD_REACTORS
330
42
102
}
330
42
100
AcDbScale
 70
     0
300
1/32" = 1'-0"
140
0.03125
141
12.0
290
     0
  0
SCALE
  5
47
102
{ACAD_REACTORS
330
42
102
}
330
42
100
AcDbScale
 70
     0
300
1/16" = 1'-0"
140
0.0625
141
12.0
290
     0
  0
SCALE
  5
48
102
{ACAD_REACTORS
330
42
102
}
330
42
100
AcDbScale
 70
     0
300
3/32" = 1'-0"
140
0.09375
141
12.0
290
     0
  0
SCALE
  5
49
102
{ACAD_REACTORS
330
42
102
}
330
42
100
AcDbScale
 70
     0
300
1/8" = 1'-0"
140
0.125
141
12.0
290
     0
  0
SCALE
  5
4A
102
{ACAD_REACTORS
330
42
102
}
330
42
100
AcDbScale
 70
     0
300
3/16" = 1'-0"
140
0.1875
141
12.0
290
     0
  0
SCALE
  5
4B
102
{ACAD_REACTORS
330
42
102
}
330
42
100
AcDbScale
 70
     0
300
1/4" = 1'-0"
140
0.25
141
12.0
290
     0
  0
SCALE
  5
4C
102
{ACAD_REACTORS
330
42
102
}
330
42
100
AcDbScale
 70
     0
300
3/8" = 1'-0"
140
0.375
141
12.0
290
     0
  0
SCALE
  5
4D
102
{ACAD_REACTORS
330
42
102
}
330
42
100
AcDbScale
 70
     0
300
1/2" = 1'-0"
140
0.5
141
12.0
290
     0
  0
SCALE
  5
4E
102
{ACAD_REACTORS
330
42
102
}
330
42
100
AcDbScale
 70
     0
300
3/4" = 1'-0"
140
0.75
141
12.0
290
     0
  0
SCALE
  5
4F
102
{ACAD_REACTORS
330
42
102
}
330
42
100
AcDbScale
 70
     0
300
1" = 1'-0"
140
1.0
141
12.0
290
     0
  0
SCALE
  5
50
102
{ACAD_REACTORS
330
42
102
}
330
42
100
AcDbScale
 70
     0
300
1-1/2" = 1'-0"
140
1.5
141
12.0
290
     0
  0
SCALE
  5
51
102
{ACAD_REACTORS
330
42
102
}
330
42
100
AcDbScale
 70
     0
300
3" = 1'-0"
140
3.0
141
12.0
290
     0
  0
SCALE
  5
52
102
{ACAD_REACTORS
330
42
102
}
330
42
100
AcDbScale
 70
     0
300
6" = 1'-0"
140
6.0
141
12.0
290
     0
  0
SCALE
  5
53
102
{ACAD_REACTORS
330
42
102
}
330
42
100
AcDbScale
 70
     0
300
1'-0" = 1'-0"
140
12.0
141
12.0
290
     0
  0
ACDBSECTIONVIEWSTYLE
  5
69
102
{ACAD_XDICTIONARY
360
370
102
}
102
{ACAD_REACTORS
330
68
102
}
330
68
100
AcDbModelDocViewStyle
 70
     0
  3
Imperial24
290
     0
100
AcDbSectionViewStyle
 70
     0
 71
     0
 90
       78
 71
     1
340
55
 62
   256
 40
0.24
340
0
340
0
 62
   256
 40
0.24
300
I, O, Q, S, X, Z
 40
0.48
 90
        3
 40
0.18
 90
        1
 71
     2
340
5D
 90
       25
 62
   256
340
5D
 90
       50
 62
   256
 40
0.24
 40
0.0
 40
0.24
 71
     3
340
55
 62
   256
 40
0.24
 90
        1
 40
0.75
 90
        1
300
%<\AcVar ViewType \f "%tc1">% %<\AcVar ViewSectionStartId>%-%<\AcVar ViewSectionEndId>%\PSCALE %<\AcVar ViewScale \f "%sn">%
 71
     4
 62
   256
 62
   257
300
ANSI31
 40
1.0
 90
        0
290
     0
290
     0
 90
        6
 40
0.0
 40
1.570796326794896
 40
0.2617993877991494
 40
1.308996938995747
 40
-0.2617993877991494
 40
1.832595714594045
  0
TABLESTYLE
  5
65
102
{ACAD_XDICTIONARY
360
14D
102
}
102
{ACAD_REACTORS
330
64
102
}
330
64
100
AcDbTableStyle
280
     0
  3
Standard
 70
     0
 71
     0
 40
0.06
 41
0.06
280
     0
281
     0
  7
Standard
140
0.18
170
     2
 62
     0
 63
     7
283
     0
 90
      512
 91
        0
  1

274
    -2
284
     1
 64
     0
275
    -2
285
     1
 65
     0
276
    -2
286
     1
 66
     0
277
    -2
287
     1
 67
     0
278
    -2
288
     1
 68
     0
279
    -2
289
     1
 69
     0
  7
Standard
140
0.25
170
     5
 62
     0
 63
     7
283
     0
 90
      512
 91
        0
  1

274
    -2
284
     1
 64
     0
275
    -2
285
     1
 65
     0
276
    -2
286
     1
 66
     0
277
    -2
287
     1
 67
     0
278
    -2
288
     1
 68
     0
279
    -2
289
     1
 69
     0
  7
Standard
140
0.18
170
     5
 62
     0
 63
     7
283
     0
 90
      512
 91
        0
  1

274
    -2
284
     1
 64
     0
275
    -2
285
     1
 65
     0
276
    -2
286
     1
 66
     0
277
    -2
287
     1
 67
     0
278
    -2
288
     1
 68
     0
279
    -2
289
     1
 69
     0
  0
VISUALSTYLE
  5
2F
102
{ACAD_REACTORS
330
29
102
}
330
29
100
AcDbVisualStyle
  2
2dWireframe
 70
     4
177
     3
291
     0
 70
    58
 90
        0
176
     1
 90
        2
176
     1
 90
        0
176
     1
 90
        0
176
     1
 40
0.6
176
     1
 40
30.0
176
     1
 62
     7
420
 16777215
176
     1
 90
        1
176
     1
 90
        4
176
     1
 62
     7
176
     1
 62
   257
176
     1
 90
        1
176
     1
 90
        1
176
     1
 40
1.0
176
     1
 90
        0
176
     1
 62
   257
176
     1
 40
1.0
176
     1
 90
        1
176
     1
 90
        6
176
     1
 90
        2
176
     1
 62
     7
176
     1
 90
        5
176
     1
 90
        0
176
     1
 90
        0
176
     1
290
     0
176
     1
 90
        1
176
     1
 40
0.0
176
     1
 90
        0
176
     1
290
     1
176
     1
290
     1
176
     1
290
     0
176
     1
290
     0
176
     1
290
     0
176
     1
290
     0
176
     1
290
     0
176
     1
290
     0
176
     1
290
     0
176
     1
 90
       50
176
     1
 40
0.0
176
     1
 40
1.0
176
     1
 90
        0
176
     1
 62
    18
420
        0
176
     1
 90
       50
176
     1
 90
        3
176
     1
 62
     5
420
      255
176
     1
290
     0
176
     1
 90
       50
176
     1
 90
       50
176
     1
 90
       50
176
     1
290
     0
176
     1
 90
       50
176
     1
 62
   256
176
     0
 40
1.0
176
     0
 90
        2
176
     1
  1
strokes_ogs.tif
176
     1
290
     0
176
     1
 40
1.0
176
     1
 40
1.0
176
     1
1001
ACAD
1000
AcDbSavedByObjectVersion
1070
     0
  0
VISUALSTYLE
  5
2E
102
{ACAD_REACTORS
330
29
102
}
330
29
100
AcDbVisualStyle
  2
Basic
 70
     7
177
     3
291
     1
 70
    58
 90
        1
176
     1
 90
        0
176
     1
 90
        1
176
     1
 90
        0
176
     1
 40
0.6
176
     1
 40
30.0
176
     1
 62
     7
420
 16777215
176
     1
 90
        0
176
     1
 90
        4
176
     1
 62
     7
176
     1
 62
   257
176
     1
 90
        1
176
     1
 90
        1
176
     1
 40
1.0
176
     1
 90
        8
176
     1
 62
     7
176
     1
 40
1.0
176
     1
 90
        1
176
     1
 90
        6
176
     1
 90
        2
176
     1
 62
     7
176
     1
 90
        5
176
     1
 90
        0
176
     1
 90
        0
176
     1
290
     0
176
     1
 90
        1
176
     1
 40
0.0
176
     1
 90
        0
176
     1
290
     0
176
     1
290
     1
176
     1
290
     1
176
     1
290
     0
176
     1
290
     0
176
     1
290
     0
176
     1
290
     0
176
     1
290
     0
176
     1
290
     0
176
     1
 90
       50
176
     1
 40
0.0
176
     1
 40
1.0
176
     1
 90
        0
176
     1
 62
    18
420
        0
176
     1
 90
       50
176
     1
 90
        3
176
     1
 62
     5
420
      255
176
     1
290
     0
176
     1
 90
       50
176
     1
 90
       50
176
     1
 90
       50
176
     1
290
     0
176
     1
 90
       50
176
     1
 62
   256
176
     0
 40
1.0
176
     0
 90
        2
176
     1
  1
strokes_ogs.tif
176
     1
290
     0
176
     1
 40
1.0
176
     1
 40
1.0
176
     1
1001
ACAD
1000
AcDbSavedByObjectVersion
1070
     0
  0
VISUALSTYLE
  5
35
102
{ACAD_REACTORS
330
29
102
}
330
29
100
AcDbVisualStyle
  2
Brighten
 70
    12
177
     3
291
     1
 70
    58
 90
        2
176
     1
 90
        2
176
     1
 90
        0
176
     1
 90
        0
176
     1
 40
0.6
176
     1
 40
30.0
176
     1
 62
     7
420
 16777215
176
     1
 90
        1
176
     1
 90
        4
176
     1
 62
     7
176
     1
 62
   257
176
     1
 90
        1
176
     1
 90
        1
176
     1
 40
1.0
176
     1
 90
        8
176
     1
 62
     7
176
     1
 40
1.0
176
     1
 90
        1
176
     1
 90
        6
176
     1
 90
        2
176
     1
 62
     7
176
     1
 90
        5
176
     1
 90
        0
176
     1
 90
        0
176
     1
290
     0
176
     1
 90
        1
176
     1
 40
50.0
176
     1
 90
        0
176
     1
290
     0
176
     1
290
     1
176
     1
290
     1
176
     1
290
     0
176
     1
290
     0
176
     1
290
     0
176
     1
290
     0
176
     1
290
     0
176
     1
290
     0
176
     1
 90
       50
176
     1
 40
0.0
176
     1
 40
1.0
176
     1
 90
        0
176
     1
 62
    18
420
        0
176
     1
 90
       50
176
     1
 90
        3
176
     1
 62
     5
420
      255
176
     1
290
     0
176
     1
 90
       50
176
     1
 90
       50
176
     1
 90
       50
176
     1
290
     0
176
     1
 90
       50
176
     1
 62
   256
176
     0
 40
1.0
176
     0
 90
        2
176
     1
  1
strokes_ogs.tif
176
     1
290
     0
176
     1
 40
1.0
176
     1
 40
1.0
176
     1
1001
ACAD
1000
AcDbSavedByObjectVersion
1070
     0
  0
VISUALSTYLE
  5
39
102
{ACAD_REACTORS
330
29
102
}
330
29
100
AcDbVisualStyle
  2
ColorChange
 70
    16
177
     3
291
     1
 70
    58
 90
        2
176
     1
 90
        2
176
     1
 90
        3
176
     1
 90
        0
176
     1
 40
0.6
176
     1
 40
30.0
176
     1
 62
     8
420
  8421504
176
     1
 90
        1
176
     1
 90
        4
176
     1
 62
     7
176
     1
 62
   257
176
     1
 90
        1
176
     1
 90
        1
176
     1
 40
1.0
176
     1
 90
        8
176
     1
 62
     8
420
  8421504
176
     1
 40
1.0
176
     1
 90
        1
176
     1
 90
        6
176
     1
 90
        2
176
     1
 62
     7
176
     1
 90
        5
176
     1
 90
        0
176
     1
 90
        0
176
     1
290
     0
176
     1
 90
        1
176
     1
 40
0.0
176
     1
 90
        0
176
     1
290
     0
176
     1
290
     1
176
     1
290
     1
176
     1
290
     0
176
     1
290
     0
176
     1
290
     0
176
     1
290
     0
176
     1
290
     0
176
     1
290
     0
176
     1
 90
       50
176
     1
 40
0.0
176
     1
 40
1.0
176
     1
 90
        0
176
     1
 62
    18
420
        0
176
     1
 90
       50
176
     1
 90
        3
176
     1
 62
     5
420
      255
176
     1
290
     0
176
     1
 90
       50
176
     1
 90
       50
176
     1
 90
       50
176
     1
290
     0
176
     1
 90
       50
176
     1
 62
   256
176
     0
 40
1.0
176
     0
 90
        2
176
     1
  1
strokes_ogs.tif
176
     1
290
     0
176
     1
 40
1.0
176
     1
 40
1.0
176
     1
1001
ACAD
1000
AcDbSavedByObjectVersion
1070
     0
  0
VISUALSTYLE
  5
32
102
{ACAD_REACTORS
330
29
102
}
330
29
100
AcDbVisualStyle
  2
Conceptual
 70
     9
177
     3
291
     0
 70
    58
 90
        3
176
     1
 90
        2
176
     1
 90
        0
176
     1
 90
        0
176
     1
 40
0.6
176
     1
 40
30.0
176
     1
 62
     7
420
 16777215
176
     1
 90
        2
176
     1
 90
        2
176
     1
 62
     7
176
     1
 62
   257
176
     1
 90
        1
176
     1
 90
        1
176
     1
 40
179.0
176
     1
 90
        8
176
     1
 62
     7
176
     1
 40
1.0
176
     1
 90
        1
176
     1
 90
        6
176
     1
 90
        2
176
     1
 62
     7
176
     1
 90
        3
176
     1
 90
        0
176
     1
 90
        0
176
     1
290
     0
176
     1
 90
        1
176
     1
 40
0.0
176
     1
 90
        0
176
     1
290
     0
176
     1
290
     1
176
     1
290
     1
176
     1
290
     0
176
     1
290
     0
176
     1
290
     0
176
     1
290
     0
176
     1
290
     0
176
     1
290
     0
176
     1
 90
       50
176
     1
 40
0.0
176
     1
 40
1.0
176
     1
 90
        0
176
     1
 62
    18
420
        0
176
     1
 90
       50
176
     1
 90
        3
176
     1
 62
     5
420
      255
176
     1
290
     0
176
     1
 90
       50
176
     1
 90
       50
176
     1
 90
       50
176
     1
290
     0
176
     1
 90
       50
176
     1
 62
   256
176
     0
 40
1.0
176
     0
 90
        2
176
     1
  1
strokes_ogs.tif
176
     1
290
     0
176
     1
 40
1.0
176
     1
 40
1.0
176
     1
1001
ACAD
1000
AcDbSavedByObjectVersion
1070
     0
  0
VISUALSTYLE
  5
34
102
{ACAD_REACTORS
330
29
102
}
330
29
100
AcDbVisualStyle
  2
Dim
 70
    11
177
     3
291
     1
 70
    58
 90
        2
176
     1
 90
        2
176
     1
 90
        0
176
     1
 90
        0
176
     1
 40
0.6
176
     1
 40
30.0
176
     1
 62
     7
420
 16777215
176
     1
 90
        1
176
     1
 90
        4
176
     1
 62
     7
176
     1
 62
   257
176
     1
 90
        1
176
     1
 90
        1
176
     1
 40
1.0
176
     1
 90
        8
176
     1
 62
     7
176
     1
 40
1.0
176
     1
 90
        1
176
     1
 90
        6
176
     1
 90
        2
176
     1
 62
     7
176
     1
 90
        5
176
     1
 90
        0
176
     1
 90
        0
176
     1
290
     0
176
     1
 90
        1
176
     1
 40
-50.0
176
     1
 90
        0
176
     1
290
     0
176
     1
290
     1
176
     1
290
     1
176
     1
290
     0
176
     1
290
     0
176
     1
290
     0
176
     1
290
     0
176
     1
290
     0
176
     1
290
     0
176
     1
 90
       50
176
     1
 40
0.0
176
     1
 40
1.0
176
     1
 90
        0
176
     1
 62
    18
420
        0
176
     1
 90
       50
176
     1
 90
        3
176
     1
 62
     5
420
      255
176
     1
290
     0
176
     1
 90
       50
176
     1
 90
       50
176
     1
 90
       50
176
     1
290
     0
176
     1
 90
       50
176
     1
 62
   256
176
     0
 40
1.0
176
     0
 90
        2
176
     1
  1
strokes_ogs.tif
176
     1
290
     0
176
     1
 40
1.0
176
     1
 40
1.0
176
     1
1001
ACAD
1000
AcDbSavedByObjectVersion
1070
     0
  0
VISUALSTYLE
  5
41
102
{ACAD_REACTORS
330
29
102
}
330
29
100
AcDbVisualStyle
  2
EdgeColorOff
 70
    22
177
     3
291
     1
 70
    58
 90
        2
176
     0
 90
        2
176
     0
 90
        0
176
     0
 90
        0
176
     0
 40
0.6
176
     0
 40
30.0
176
     0
 62
     7
420
 16777215
176
     0
 90
        1
176
     0
 90
        4
176
     0
 62
     7
176
     0
 62
   257
176
     0
 90
        1
176
     0
 90
        1
176
     0
 40
1.0
176
     0
 90
        8
176
     2
 62
     7
176
     0
 40
1.0
176
     0
 90
        1
176
     0
 90
        6
176
     0
 90
        2
176
     0
 62
     7
176
     0
 90
        5
176
     0
 90
        0
176
     0
 90
        0
176
     0
290
     0
176
     0
 90
        1
176
     0
 40
0.0
176
     0
 90
        0
176
     0
290
     0
176
     0
290
     1
176
     0
290
     1
176
     0
290
     0
176
     0
290
     0
176
     0
290
     0
176
     0
290
     0
176
     0
290
     0
176
     0
290
     0
176
     0
 90
       50
176
     0
 40
0.0
176
     0
 40
1.0
176
     0
 90
        0
176
     0
 62
    18
420
        0
176
     0
 90
       50
176
     0
 90
        3
176
     0
 62
     5
420
      255
176
     0
290
     0
176
     0
 90
       50
176
     0
 90
       50
176
     0
 90
       50
176
     0
290
     0
176
     0
 90
       50
176
     0
 62
   256
176
     0
 40
1.0
176
     0
 90
        2
176
     0
  1
strokes_ogs.tif
176
     0
290
     0
176
     0
 40
1.0
176
     0
 40
1.0
176
     0
1001
ACAD
1000
AcDbSavedByObjectVersion
1070
     0
  0
VISUALSTYLE
  5
38
102
{ACAD_REACTORS
330
29
102
}
330
29
100
AcDbVisualStyle
  2
Facepattern
 70
    15
177
     3
291
     1
 70
    58
 90
        2
176
     1
 90
        2
176
     1
 90
        0
176
     1
 90
        0
176
     1
 40
0.6
176
     1
 40
30.0
176
     1
 62
     7
420
 16777215
176
     1
 90
        1
176
     1
 90
        4
176
     1
 62
     7
176
     1
 62
   257
176
     1
 90
        1
176
     1
 90
        1
176
     1
 40
1.0
176
     1
 90
        8
176
     1
 62
     7
176
     1
 40
1.0
176
     1
 90
        1
176
     1
 90
        6
176
     1
 90
        2
176
     1
 62
     7
176
     1
 90
        5
176
     1
 90
        0
176
     1
 90
        0
176
     1
290
     0
176
     1
 90
        1
176
     1
 40
0.0
176
     1
 90
        0
176
     1
290
     0
176
     1
290
     1
176
     1
290
     1
176
     1
290
     0
176
     1
290
     0
176
     1
290
     0
176
     1
290
     0
176
     1
290
     0
176
     1
290
     0
176
     1
 90
       50
176
     1
 40
0.0
176
     1
 40
1.0
176
     1
 90
        0
176
     1
 62
    18
420
        0
176
     1
 90
       50
176
     1
 90
        3
176
     1
 62
     5
420
      255
176
     1
290
     0
176
     1
 90
       50
176
     1
 90
       50
176
     1
 90
       50
176
     1
290
     0
176
     1
 90
       50
176
     1
 62
   256
176
     0
 40
1.0
176
     0
 90
        2
176
     1
  1
strokes_ogs.tif
176
     1
290
     0
176
     1
 40
1.0
176
     1
 40
1.0
176
     1
1001
ACAD
1000
AcDbSavedByObjectVersion
1070
     0
  0
VISUALSTYLE
  5
2A
102
{ACAD_REACTORS
330
29
102
}
330
29
100
AcDbVisualStyle
  2
Flat
 70
     0
177
     3
291
     1
 70
    58
 90
        2
176
     1
 90
        1
176
     1
 90
        1
176
     1
 90
        2
176
     1
 40
0.6
176
     1
 40
30.0
176
     1
 62
     7
420
 16777215
176
     1
 90
        0
176
     1
 90
        0
176
     1
 62
     7
176
     1
 62
   257
176
     1
 90
        1
176
     1
 90
        1
176
     1
 40
1.0
176
     1
 90
        8
176
     1
 62
     7
176
     1
 40
1.0
176
     1
 90
        1
176
     1
 90
        6
176
     1
 90
        2
176
     1
 62
     7
176
     1
 90
        5
176
     1
 90
        0
176
     1
 90
        0
176
     1
290
     0
176
     1
 90
       13
176
     1
 40
0.0
176
     1
 90
        0
176
     1
290
     0
176
     1
290
     1
176
     1
290
     1
176
     1
290
     0
176
     1
290
     0
176
     1
290
     0
176
     1
290
     0
176
     1
290
     0
176
     1
290
     0
176
     1
 90
       50
176
     1
 40
0.0
176
     1
 40
1.0
176
     1
 90
        0
176
     1
 62
    18
420
        0
176
     1
 90
       50
176
     1
 90
        3
176
     1
 62
     5
420
      255
176
     1
290
     0
176
     1
 90
       50
176
     1
 90
       50
176
     1
 90
       50
176
     1
290
     0
176
     1
 90
       50
176
     1
 62
   256
176
     0
 40
1.0
176
     0
 90
        2
176
     1
  1
strokes_ogs.tif
176
     1
290
     0
176
     1
 40
1.0
176
     1
 40
1.0
176
     1
1001
ACAD
1000
AcDbSavedByObjectVersion
1070
     0
  0
VISUALSTYLE
  5
2B
102
{ACAD_REACTORS
330
29
102
}
330
29
100
AcDbVisualStyle
  2
FlatWithEdges
 70
     1
177
     3
291
     1
 70
    58
 90
        2
176
     1
 90
        1
176
     1
 90
        1
176
     1
 90
        2
176
     1
 40
0.6
176
     1
 40
30.0
176
     1
 62
     7
420
 16777215
176
     1
 90
        1
176
     1
 90
        0
176
     1
 62
     7
176
     1
 62
   257
176
     1
 90
        1
176
     1
 90
        1
176
     1
 40
1.0
176
     1
 90
        0
176
     1
 62
   257
176
     1
 40
1.0
176
     1
 90
        1
176
     1
 90
        6
176
     1
 90
        2
176
     1
 62
     7
176
     1
 90
        5
176
     1
 90
        0
176
     1
 90
        0
176
     1
290
     0
176
     1
 90
       13
176
     1
 40
0.0
176
     1
 90
        0
176
     1
290
     0
176
     1
290
     1
176
     1
290
     1
176
     1
290
     0
176
     1
290
     0
176
     1
290
     0
176
     1
290
     0
176
     1
290
     0
176
     1
290
     0
176
     1
 90
       50
176
     1
 40
0.0
176
     1
 40
1.0
176
     1
 90
        0
176
     1
 62
    18
420
        0
176
     1
 90
       50
176
     1
 90
        3
176
     1
 62
     5
420
      255
176
     1
290
     0
176
     1
 90
       50
176
     1
 90
       50
176
     1
 90
       50
176
     1
290
     0
176
     1
 90
       50
176
     1
 62
   256
176
     0
 40
1.0
176
     0
 90
        2
176
     1
  1
strokes_ogs.tif
176
     1
290
     0
176
     1
 40
1.0
176
     1
 40
1.0
176
     1
1001
ACAD
1000
AcDbSavedByObjectVersion
1070
     0
  0
VISUALSTYLE
  5
2C
102
{ACAD_REACTORS
330
29
102
}
330
29
100
AcDbVisualStyle
  2
Gouraud
 70
     2
177
     3
291
     1
 70
    58
 90
        2
176
     1
 90
        2
176
     1
 90
        1
176
     1
 90
        2
176
     1
 40
0.6
176
     1
 40
30.0
176
     1
 62
     7
420
 16777215
176
     1
 90
        0
176
     1
 90
        0
176
     1
 62
     7
176
     1
 62
   257
176
     1
 90
        1
176
     1
 90
        1
176
     1
 40
1.0
176
     1
 90
        0
176
     1
 62
     7
176
     1
 40
1.0
176
     1
 90
        1
176
     1
 90
        6
176
     1
 90
        2
176
     1
 62
     7
176
     1
 90
        5
176
     1
 90
        0
176
     1
 90
        0
176
     1
290
     0
176
     1
 90
       13
176
     1
 40
0.0
176
     1
 90
        0
176
     1
290
     0
176
     1
290
     1
176
     1
290
     1
176
     1
290
     0
176
     1
290
     0
176
     1
290
     0
176
     1
290
     0
176
     1
290
     0
176
     1
290
     0
176
     1
 90
       50
176
     1
 40
0.0
176
     1
 40
1.0
176
     1
 90
        0
176
     1
 62
    18
420
        0
176
     1
 90
       50
176
     1
 90
        3
176
     1
 62
     5
420
      255
176
     1
290
     0
176
     1
 90
       50
176
     1
 90
       50
176
     1
 90
       50
176
     1
290
     0
176
     1
 90
       50
176
     1
 62
   256
176
     0
 40
1.0
176
     0
 90
        2
176
     1
  1
strokes_ogs.tif
176
     1
290
     0
176
     1
 40
1.0
176
     1
 40
1.0
176
     1
1001
ACAD
1000
AcDbSavedByObjectVersion
1070
     0
  0
VISUALSTYLE
  5
2D
102
{ACAD_REACTORS
330
29
102
}
330
29
100
AcDbVisualStyle
  2
GouraudWithEdges
 70
     3
177
     3
291
     1
 70
    58
 90
        2
176
     1
 90
        2
176
     1
 90
        1
176
     1
 90
        2
176
     1
 40
0.6
176
     1
 40
30.0
176
     1
 62
     7
420
 16777215
176
     1
 90
        1
176
     1
 90
        0
176
     1
 62
     7
176
     1
 62
   257
176
     1
 90
        1
176
     1
 90
        1
176
     1
 40
1.0
176
     1
 90
        0
176
     1
 62
   257
176
     1
 40
1.0
176
     1
 90
        1
176
     1
 90
        6
176
     1
 90
        2
176
     1
 62
     7
176
     1
 90
        5
176
     1
 90
        0
176
     1
 90
        0
176
     1
290
     0
176
     1
 90
       13
176
     1
 40
0.0
176
     1
 90
        0
176
     1
290
     0
176
     1
290
     1
176
     1
290
     1
176
     1
290
     0
176
     1
290
     0
176
     1
290
     0
176
     1
290
     0
176
     1
290
     0
176
     1
290
     0
176
     1
 90
       50
176
     1
 40
0.0
176
     1
 40
1.0
176
     1
 90
        0
176
     1
 62
    18
420
        0
176
     1
 90
       50
176
     1
 90
        3
176
     1
 62
     5
420
      255
176
     1
290
     0
176
     1
 90
       50
176
     1
 90
       50
176
     1
 90
       50
176
     1
290
     0
176
     1
 90
       50
176
     1
 62
   256
176
     0
 40
1.0
176
     0
 90
        2
176
     1
  1
strokes_ogs.tif
176
     1
290
     0
176
     1
 40
1.0
176
     1
 40
1.0
176
     1
1001
ACAD
1000
AcDbSavedByObjectVersion
1070
     0
  0
VISUALSTYLE
  5
31
102
{ACAD_REACTORS
330
29
102
}
330
29
100
AcDbVisualStyle
  2
Hidden
 70
     6
177
     3
291
     0
 70
    58
 90
        1
176
     1
 90
        2
176
     1
 90
        2
176
     1
 90
        0
176
     1
 40
0.6
176
     1
 40
30.0
176
     1
 62
     7
420
 16777215
176
     1
 90
        2
176
     1
 90
        2
176
     1
 62
     7
176
     1
 62
   257
176
     1
 90
        2
176
     1
 90
        1
176
     1
 40
40.0
176
     1
 90
        0
176
     1
 62
   257
176
     1
 40
1.0
176
     1
 90
        1
176
     1
 90
        6
176
     1
 90
        2
176
     1
 62
     7
176
     1
 90
        3
176
     1
 90
        0
176
     1
 90
        0
176
     1
290
     0
176
     1
 90
        1
176
     1
 40
0.0
176
     1
 90
        0
176
     1
290
     0
176
     1
290
     1
176
     1
290
     1
176
     1
290
     0
176
     1
290
     0
176
     1
290
     0
176
     1
290
     0
176
     1
290
     0
176
     1
290
     0
176
     1
 90
       50
176
     1
 40
0.0
176
     1
 40
1.0
176
     1
 90
        0
176
     1
 62
    18
420
        0
176
     1
 90
       50
176
     1
 90
        3
176
     1
 62
     5
420
      255
176
     1
290
     0
176
     1
 90
       50
176
     1
 90
       50
176
     1
 90
       50
176
     1
290
     0
176
     1
 90
       50
176
     1
 62
   256
176
     0
 40
1.0
176
     0
 90
        2
176
     1
  1
strokes_ogs.tif
176
     1
290
     0
176
     1
 40
1.0
176
     1
 40
1.0
176
     1
1001
ACAD
1000
AcDbSavedByObjectVersion
1070
     0
  0
VISUALSTYLE
  5
3F
102
{ACAD_REACTORS
330
29
102
}
330
29
100
AcDbVisualStyle
  2
JitterOff
 70
    20
177
     3
291
     1
 70
    58
 90
        2
176
     0
 90
        2
176
     0
 90
        0
176
     0
 90
        0
176
     0
 40
0.6
176
     0
 40
30.0
176
     0
 62
     7
420
 16777215
176
     0
 90
        1
176
     0
 90
        4
176
     0
 62
     7
176
     0
 62
   257
176
     0
 90
        1
176
     0
 90
        1
176
     0
 40
1.0
176
     0
 90
       10
176
     2
 62
     7
176
     0
 40
1.0
176
     0
 90
        1
176
     0
 90
        6
176
     0
 90
        2
176
     0
 62
     7
176
     0
 90
        5
176
     0
 90
        0
176
     0
 90
        0
176
     0
290
     0
176
     0
 90
        1
176
     0
 40
0.0
176
     0
 90
        0
176
     0
290
     0
176
     0
290
     1
176
     0
290
     1
176
     0
290
     0
176
     0
290
     0
176
     0
290
     0
176
     0
290
     0
176
     0
290
     0
176
     0
290
     0
176
     0
 90
       50
176
     0
 40
0.0
176
     0
 40
1.0
176
     0
 90
        0
176
     0
 62
    18
420
        0
176
     0
 90
       50
176
     0
 90
        3
176
     0
 62
     5
420
      255
176
     0
290
     0
176
     0
 90
       50
176
     0
 90
       50
176
     0
 90
       50
176
     0
290
     0
176
     0
 90
       50
176
     0
 62
   256
176
     0
 40
1.0
176
     0
 90
        2
176
     0
  1
strokes_ogs.tif
176
     0
290
     0
176
     0
 40
1.0
176
     0
 40
1.0
176
     0
1001
ACAD
1000
AcDbSavedByObjectVersion
1070
     0
  0
VISUALSTYLE
  5
37
102
{ACAD_REACTORS
330
29
102
}
330
29
100
AcDbVisualStyle
  2
Linepattern
 70
    14
177
     3
291
     1
 70
    58
 90
        2
176
     1
 90
        2
176
     1
 90
        0
176
     1
 90
        0
176
     1
 40
0.6
176
     1
 40
30.0
176
     1
 62
     7
420
 16777215
176
     1
 90
        1
176
     1
 90
        4
176
     1
 62
     7
176
     1
 62
   257
176
     1
 90
        7
176
     1
 90
        7
176
     1
 40
1.0
176
     1
 90
        8
176
     1
 62
     7
176
     1
 40
1.0
176
     1
 90
        1
176
     1
 90
        6
176
     1
 90
        2
176
     1
 62
     7
176
     1
 90
        5
176
     1
 90
        0
176
     1
 90
        0
176
     1
290
     0
176
     1
 90
        1
176
     1
 40
0.0
176
     1
 90
        0
176
     1
290
     0
176
     1
290
     1
176
     1
290
     1
176
     1
290
     0
176
     1
290
     0
176
     1
290
     0
176
     1
290
     0
176
     1
290
     0
176
     1
290
     0
176
     1
 90
       50
176
     1
 40
0.0
176
     1
 40
1.0
176
     1
 90
        0
176
     1
 62
    18
420
        0
176
     1
 90
       50
176
     1
 90
        3
176
     1
 62
     5
420
      255
176
     1
290
     0
176
     1
 90
       50
176
     1
 90
       50
176
     1
 90
       50
176
     1
290
     0
176
     1
 90
       50
176
     1
 62
   256
176
     0
 40
1.0
176
     0
 90
        2
176
     1
  1
strokes_ogs.tif
176
     1
290
     0
176
     1
 40
1.0
176
     1
 40
1.0
176
     1
1001
ACAD
1000
AcDbSavedByObjectVersion
1070
     0
  0
VISUALSTYLE
  5
40
102
{ACAD_REACTORS
330
29
102
}
330
29
100
AcDbVisualStyle
  2
OverhangOff
 70
    21
177
     3
291
     1
 70
    58
 90
        2
176
     0
 90
        2
176
     0
 90
        0
176
     0
 90
        0
176
     0
 40
0.6
176
     0
 40
30.0
176
     0
 62
     7
420
 16777215
176
     0
 90
        1
176
     0
 90
        4
176
     0
 62
     7
176
     0
 62
   257
176
     0
 90
        1
176
     0
 90
        1
176
     0
 40
1.0
176
     0
 90
        9
176
     2
 62
     7
176
     0
 40
1.0
176
     0
 90
        1
176
     0
 90
        6
176
     0
 90
        2
176
     0
 62
     7
176
     0
 90
        5
176
     0
 90
        0
176
     0
 90
        0
176
     0
290
     0
176
     0
 90
        1
176
     0
 40
0.0
176
     0
 90
        0
176
     0
290
     0
176
     0
290
     1
176
     0
290
     1
176
     0
290
     0
176
     0
290
     0
176
     0
290
     0
176
     0
290
     0
176
     0
290
     0
176
     0
290
     0
176
     0
 90
       50
176
     0
 40
0.0
176
     0
 40
1.0
176
     0
 90
        0
176
     0
 62
    18
420
        0
176
     0
 90
       50
176
     0
 90
        3
176
     0
 62
     5
420
      255
176
     0
290
     0
176
     0
 90
       50
176
     0
 90
       50
176
     0
 90
       50
176
     0
290
     0
176
     0
 90
       50
176
     0
 62
   256
176
     0
 40
1.0
176
     0
 90
        2
176
     0
  1
strokes_ogs.tif
176
     0
290
     0
176
     0
 40
1.0
176
     0
 40
1.0
176
     0
1001
ACAD
1000
AcDbSavedByObjectVersion
1070
     0
  0
VISUALSTYLE
  5
33
102
{ACAD_REACTORS
330
29
102
}
330
29
100
AcDbVisualStyle
  2
Realistic
 70
     8
177
     3
291
     0
 70
    58
 90
        2
176
     1
 90
        3
176
     1
 90
        0
176
     1
 90
        2
176
     1
 40
0.6
176
     1
 40
30.0
176
     1
 62
     7
420
 16777215
176
     1
 90
        0
176
     1
 90
        0
176
     1
 62
     7
176
     1
 62
   257
176
     1
 90
        1
176
     1
 90
        1
176
     1
 40
1.0
176
     1
 90
        8
176
     1
 62
   257
176
     1
 40
1.0
176
     1
 90
        1
176
     1
 90
        6
176
     1
 90
        2
176
     1
 62
     7
176
     1
 90
        3
176
     1
 90
        0
176
     1
 90
        0
176
     1
290
     0
176
     1
 90
       13
176
     1
 40
0.0
176
     1
 90
        0
176
     1
290
     0
176
     1
290
     1
176
     1
290
     1
176
     1
290
     0
176
     1
290
     0
176
     1
290
     0
176
     1
290
     0
176
     1
290
     0
176
     1
290
     0
176
     1
 90
       50
176
     1
 40
0.0
176
     1
 40
1.0
176
     1
 90
        0
176
     1
 62
    18
420
        0
176
     1
 90
       50
176
     1
 90
        3
176
     1
 62
     5
420
      255
176
     1
290
     0
176
     1
 90
       50
176
     1
 90
       50
176
     1
 90
       50
176
     1
290
     0
176
     1
 90
       50
176
     1
 62
   256
176
     0
 40
1.0
176
     0
 90
        2
176
     1
  1
strokes_ogs.tif
176
     1
290
     0
176
     1
 40
1.0
176
     1
 40
1.0
176
     1
1001
ACAD
1000
AcDbSavedByObjectVersion
1070
     0
  0
VISUALSTYLE
  5
3E
102
{ACAD_REACTORS
330
29
102
}
330
29
100
AcDbVisualStyle
  2
Shaded
 70
    27
177
     3
291
     0
 70
    58
 90
        2
176
     1
 90
        2
176
     1
 90
        1
176
     1
 90
        2
176
     1
 40
0.6
176
     1
 40
30.0
176
     1
 62
     7
420
 16777215
176
     1
 90
        0
176
     1
 90
        4
176
     1
 62
     7
176
     1
 62
   257
176
     1
 90
        1
176
     1
 90
        1
176
     1
 40
1.0
176
     1
 90
        8
176
     1
 62
   257
176
     1
 40
1.0
176
     1
 90
        1
176
     1
 90
        6
176
     1
 90
        2
176
     1
 62
     8
420
  7895160
176
     1
 90
        3
176
     1
 90
        0
176
     1
 90
        0
176
     1
290
     0
176
     1
 90
        5
176
     1
 40
0.0
176
     1
 90
        0
176
     1
290
     0
176
     1
290
     1
176
     1
290
     1
176
     1
290
     0
176
     1
290
     0
176
     1
290
     0
176
     1
290
     0
176
     1
290
     0
176
     1
290
     0
176
     1
 90
       50
176
     1
 40
0.0
176
     1
 40
1.0
176
     1
 90
        0
176
     1
 62
    18
420
        0
176
     1
 90
       50
176
     1
 90
        3
176
     1
 62
     5
420
      255
176
     1
290
     0
176
     1
 90
       50
176
     1
 90
       50
176
     1
 90
       50
176
     1
290
     0
176
     1
 90
       50
176
     1
 62
   256
176
     0
 40
1.0
176
     0
 90
        2
176
     1
  1
strokes_ogs.tif
176
     1
290
     0
176
     1
 40
1.0
176
     1
 40
1.0
176
     1
1001
ACAD
1000
AcDbSavedByObjectVersion
1070
     0
  0
VISUALSTYLE
  5
3D
102
{ACAD_REACTORS
330
29
102
}
330
29
100
AcDbVisualStyle
  2
Shaded with edges
 70
    26
177
     3
291
     0
 70
    58
 90
        2
176
     1
 90
        2
176
     1
 90
        1
176
     1
 90
        2
176
     1
 40
0.6
176
     1
 40
30.0
176
     1
 62
     7
420
 16777215
176
     1
 90
        1
176
     1
 90
        2
176
     1
 62
     7
176
     1
 62
   257
176
     1
 90
        2
176
     1
 90
        1
176
     1
 40
1.0
176
     1
 90
        8
176
     1
 62
   257
176
     1
 40
1.0
176
     1
 90
        1
176
     1
 90
        6
176
     1
 90
        2
176
     1
 62
     7
176
     1
 90
        3
176
     1
 90
        0
176
     1
 90
        0
176
     1
290
     0
176
     1
 90
        5
176
     1
 40
0.0
176
     1
 90
        0
176
     1
290
     0
176
     1
290
     1
176
     1
290
     1
176
     1
290
     0
176
     1
290
     0
176
     1
290
     0
176
     1
290
     0
176
     1
290
     0
176
     1
290
     0
176
     1
 90
       50
176
     1
 40
0.0
176
     1
 40
1.0
176
     1
 90
        0
176
     1
 62
    18
420
        0
176
     1
 90
       50
176
     1
 90
        3
176
     1
 62
     5
420
      255
176
     1
290
     0
176
     1
 90
       50
176
     1
 90
       50
176
     1
 90
       50
176
     1
290
     0
176
     1
 90
       50
176
     1
 62
   256
176
     0
 40
1.0
176
     0
 90
        2
176
     1
  1
strokes_ogs.tif
176
     1
290
     0
176
     1
 40
1.0
176
     1
 40
1.0
176
     1
1001
ACAD
1000
AcDbSavedByObjectVersion
1070
     0
  0
VISUALSTYLE
  5
3A
102
{ACAD_REACTORS
330
29
102
}
330
29
100
AcDbVisualStyle
  2
Shades of Gray
 70
    23
177
     3
291
     0
 70
    58
 90
        2
176
     1
 90
        2
176
     1
 90
        3
176
     1
 90
        0
176
     1
 40
0.6
176
     1
 40
30.0
176
     1
 62
     7
420
 16777215
176
     1
 90
        2
176
     1
 90
        2
176
     1
 62
     7
176
     1
 62
     7
176
     1
 90
        1
176
     1
 90
        1
176
     1
 40
40.0
176
     1
 90
        8
176
     1
 62
     7
176
     1
 40
1.0
176
     1
 90
        1
176
     1
 90
        6
176
     1
 90
        2
176
     1
 62
     7
176
     1
 90
        3
176
     1
 90
        0
176
     1
 90
        0
176
     1
290
     0
176
     1
 90
        1
176
     1
 40
0.0
176
     1
 90
        0
176
     1
290
     0
176
     1
290
     1
176
     1
290
     1
176
     1
290
     0
176
     1
290
     0
176
     1
290
     0
176
     1
290
     0
176
     1
290
     0
176
     1
290
     0
176
     1
 90
       50
176
     1
 40
0.0
176
     1
 40
1.0
176
     1
 90
        0
176
     1
 62
    18
420
        0
176
     1
 90
       50
176
     1
 90
        3
176
     1
 62
     5
420
      255
176
     1
290
     0
176
     1
 90
       50
176
     1
 90
       50
176
     1
 90
       50
176
     1
290
     0
176
     1
 90
       50
176
     1
 62
   256
176
     0
 40
1.0
176
     0
 90
        2
176
     1
  1
strokes_ogs.tif
176
     1
290
     0
176
     1
 40
1.0
176
     1
 40
1.0
176
     1
1001
ACAD
1000
AcDbSavedByObjectVersion
1070
     0
  0
VISUALSTYLE
  5
3B
102
{ACAD_REACTORS
330
29
102
}
330
29
100
AcDbVisualStyle
  2
Sketchy
 70
    24
177
     3
291
     0
 70
    58
 90
        1
176
     1
 90
        2
176
     1
 90
        2
176
     1
 90
        0
176
     1
 40
0.6
176
     1
 40
30.0
176
     1
 62
     7
420
 16777215
176
     1
 90
        2
176
     1
 90
        2
176
     1
 62
     7
176
     1
 62
     7
176
     1
 90
        1
176
     1
 90
        1
176
     1
 40
40.0
176
     1
 90
       11
176
     1
 62
     7
176
     1
 40
1.0
176
     1
 90
        1
176
     1
 90
        6
176
     1
 90
        2
176
     1
 62
     7
176
     1
 90
        6
176
     1
 90
        0
176
     1
 90
        0
176
     1
290
     0
176
     1
 90
        1
176
     1
 40
0.0
176
     1
 90
        0
176
     1
290
     0
176
     1
290
     1
176
     1
290
     1
176
     1
290
     0
176
     1
290
     0
176
     1
290
     0
176
     1
290
     0
176
     1
290
     0
176
     1
290
     0
176
     1
 90
       50
176
     1
 40
0.0
176
     1
 40
1.0
176
     1
 90
        0
176
     1
 62
    18
420
        0
176
     1
 90
       50
176
     1
 90
        3
176
     1
 62
     5
420
      255
176
     1
290
     0
176
     1
 90
       50
176
     1
 90
       50
176
     1
 90
       50
176
     1
290
     0
176
     1
 90
       50
176
     1
 62
   256
176
     0
 40
1.0
176
     0
 90
        2
176
     1
  1
strokes_ogs.tif
176
     1
290
     0
176
     1
 40
1.0
176
     1
 40
1.0
176
     1
1001
ACAD
1000
AcDbSavedByObjectVersion
1070
     0
  0
VISUALSTYLE
  5
36
102
{ACAD_REACTORS
330
29
102
}
330
29
100
AcDbVisualStyle
  2
Thicken
 70
    13
177
     3
291
     1
 70
    58
 90
        2
176
     1
 90
        2
176
     1
 90
        0
176
     1
 90
        0
176
     1
 40
0.6
176
     1
 40
30.0
176
     1
 62
     7
420
 16777215
176
     1
 90
        1
176
     1
 90
        4
176
     1
 62
     7
176
     1
 62
   257
176
     1
 90
        1
176
     1
 90
        1
176
     1
 40
1.0
176
     1
 90
       12
176
     1
 62
     7
176
     1
 40
1.0
176
     1
 90
        1
176
     1
 90
        6
176
     1
 90
        2
176
     1
 62
     7
176
     1
 90
        5
176
     1
 90
        0
176
     1
 90
        0
176
     1
290
     0
176
     1
 90
        1
176
     1
 40
0.0
176
     1
 90
        0
176
     1
290
     0
176
     1
290
     1
176
     1
290
     1
176
     1
290
     0
176
     1
290
     0
176
     1
290
     0
176
     1
290
     0
176
     1
290
     0
176
     1
290
     0
176
     1
 90
       50
176
     1
 40
0.0
176
     1
 40
1.0
176
     1
 90
        0
176
     1
 62
    18
420
        0
176
     1
 90
       50
176
     1
 90
        3
176
     1
 62
     5
420
      255
176
     1
290
     0
176
     1
 90
       50
176
     1
 90
       50
176
     1
 90
       50
176
     1
290
     0
176
     1
 90
       50
176
     1
 62
   256
176
     0
 40
1.0
176
     0
 90
        2
176
     1
  1
strokes_ogs.tif
176
     1
290
     0
176
     1
 40
1.0
176
     1
 40
1.0
176
     1
1001
ACAD
1000
AcDbSavedByObjectVersion
1070
     0
  0
VISUALSTYLE
  5
30
102
{ACAD_REACTORS
330
29
102
}
330
29
100
AcDbVisualStyle
  2
Wireframe
 70
     5
177
     3
291
     0
 70
    58
 90
        0
176
     1
 90
        2
176
     1
 90
        0
176
     1
 90
        0
176
     1
 40
0.6
176
     1
 40
30.0
176
     1
 62
     7
420
 16777215
176
     1
 90
        1
176
     1
 90
        4
176
     1
 62
     7
176
     1
 62
   257
176
     1
 90
        1
176
     1
 90
        1
176
     1
 40
1.0
176
     1
 90
        0
176
     1
 62
   257
176
     1
 40
1.0
176
     1
 90
        1
176
     1
 90
        6
176
     1
 90
        2
176
     1
 62
     7
176
     1
 90
        3
176
     1
 90
        0
176
     1
 90
        0
176
     1
290
     0
176
     1
 90
        1
176
     1
 40
0.0
176
     1
 90
        0
176
     1
290
     0
176
     1
290
     1
176
     1
290
     1
176
     1
290
     0
176
     1
290
     0
176
     1
290
     0
176
     1
290
     0
176
     1
290
     0
176
     1
290
     0
176
     1
 90
       50
176
     1
 40
0.0
176
     1
 40
1.0
176
     1
 90
        0
176
     1
 62
    18
420
        0
176
     1
 90
       50
176
     1
 90
        3
176
     1
 62
     5
420
      255
176
     1
290
     0
176
     1
 90
       50
176
     1
 90
       50
176
     1
 90
       50
176
     1
290
     0
176
     1
 90
       50
176
     1
 62
   256
176
     0
 40
1.0
176
     0
 90
        2
176
     1
  1
strokes_ogs.tif
176
     1
290
     0
176
     1
 40
1.0
176
     1
 40
1.0
176
     1
1001
ACAD
1000
AcDbSavedByObjectVersion
1070
     0
  0
VISUALSTYLE
  5
3C
102
{ACAD_REACTORS
330
29
102
}
330
29
100
AcDbVisualStyle
  2
X-Ray
 70
    25
177
     3
291
     0
 70
    58
 90
        2
176
     1
 90
        2
176
     1
 90
        1
176
     1
 90
        1
176
     1
 40
0.5
176
     1
 40
30.0
176
     1
 62
     7
420
 16777215
176
     1
 90
        1
176
     1
 90
        0
176
     1
 62
     7
176
     1
 62
   257
176
     1
 90
        1
176
     1
 90
        1
176
     1
 40
1.0
176
     1
 90
        8
176
     1
 62
     7
176
     1
 40
1.0
176
     1
 90
        1
176
     1
 90
        6
176
     1
 90
        2
176
     1
 62
     7
176
     1
 90
        3
176
     1
 90
        0
176
     1
 90
        0
176
     1
290
     0
176
     1
 90
       13
176
     1
 40
0.0
176
     1
 90
        0
176
     1
290
     0
176
     1
290
     1
176
     1
290
     1
176
     1
290
     0
176
     1
290
     0
176
     1
290
     0
176
     1
290
     0
176
     1
290
     0
176
     1
290
     0
176
     1
 90
       50
176
     1
 40
0.0
176
     1
 40
1.0
176
     1
 90
        0
176
     1
 62
    18
420
        0
176
     1
 90
       50
176
     1
 90
        3
176
     1
 62
     5
420
      255
176
     1
290
     0
176
     1
 90
       50
176
     1
 90
       50
176
     1
 90
       50
176
     1
290
     0
176
     1
 90
       50
176
     1
 62
   256
176
     0
 40
1.0
176
     0
 90
        2
176
     1
  1
strokes_ogs.tif
176
     1
290
     0
176
     1
 40
1.0
176
     1
 40
1.0
176
     1
1001
ACAD
1000
AcDbSavedByObjectVersion
1070
     0
  0
DICTIONARYVAR
  5
14C
102
{ACAD_REACTORS
330
147
102
}
330
147
100
DictionaryVariables
280
     0
  1
1:1
  0
DICTIONARYVAR
  5
149
102
{ACAD_REACTORS
330
147
102
}
330
147
100
DictionaryVariables
280
     0
  1
STANDARD
  0
DICTIONARYVAR
  5
148
102
{ACAD_REACTORS
330
147
102
}
330
147
100
DictionaryVariables
280
     0
  1
STANDARD
  0
DICTIONARYVAR
  5
14A
102
{ACAD_REACTORS
330
147
102
}
330
147
100
DictionaryVariables
280
     0
  1
Imperial24
  0
DICTIONARYVAR
  5
14B
102
{ACAD_REACTORS
330
147
102
}
330
147
100
DictionaryVariables
280
     0
  1
Imperial24
  0
DICTIONARY
  5
372
330
6B
100
AcDbDictionary
280
     1
281
     1
  3
ACAD_XREC_ROUNDTRIP
360
373
  0
DICTIONARY
  5
1A
330
19
100
AcDbDictionary
280
     1
281
     1
  3
BUMPTILE
360
1C
  3
DIFFUSETILE
360
1B
  3
OPACITYTILE
360
1F
  3
REFLECTIONTILE
360
1E
  3
REFRACTIONTILE
360
20
  3
SPECULARTILE
360
1D
  0
DICTIONARY
  5
12
330
11
100
AcDbDictionary
280
     1
281
     1
  3
BUMPTILE
360
14
  3
DIFFUSETILE
360
13
  3
OPACITYTILE
360
17
  3
REFLECTIONTILE
360
16
  3
REFRACTIONTILE
360
18
  3
SPECULARTILE
360
15
  0
DICTIONARY
  5
22
330
21
100
AcDbDictionary
280
     1
281
     1
  3
BUMPTILE
360
24
  3
DIFFUSETILE
360
23
  3
OPACITYTILE
360
27
  3
REFLECTIONTILE
360
26
  3
REFRACTIONTILE
360
28
  3
SPECULARTILE
360
25
  0
DICTIONARY
  5
370
330
69
100
AcDbDictionary
280
     1
281
     1
  3
ACAD_XREC_ROUNDTRIP
360
371
  0
DICTIONARY
  5
14D
330
65
100
AcDbDictionary
280
     1
281
     1
  3
ACAD_ROUNDTRIP_2008_TABLESTYLE_CELLSTYLEMAP
360
36E
  0
XRECORD
  5
373
102
{ACAD_REACTORS
330
372
102
}
330
372
100
AcDbXrecord
280
     1
102
DISPLAYNAME
  1
Imperial24
102
FLAGS
 90
        0
  0
XRECORD
  5
1C
102
{ACAD_REACTORS
330
1A
102
}
330
1A
100
AcDbXrecord
280
     1
270
     1
271
     1
  0
XRECORD
  5
1B
102
{ACAD_REACTORS
330
1A
102
}
330
1A
100
AcDbXrecord
280
     1
270
     1
271
     1
  0
XRECORD
  5
1F
102
{ACAD_REACTORS
330
1A
102
}
330
1A
100
AcDbXrecord
280
     1
270
     1
271
     1
  0
XRECORD
  5
1E
102
{ACAD_REACTORS
330
1A
102
}
330
1A
100
AcDbXrecord
280
     1
270
     1
271
     1
  0
XRECORD
  5
20
102
{ACAD_REACTORS
330
1A
102
}
330
1A
100
AcDbXrecord
280
     1
270
     1
271
     1
  0
XRECORD
  5
1D
102
{ACAD_REACTORS
330
1A
102
}
330
1A
100
AcDbXrecord
280
     1
270
     1
271
     1
  0
XRECORD
  5
14
102
{ACAD_REACTORS
330
12
102
}
330
12
100
AcDbXrecord
280
     1
270
     1
271
     1
  0
XRECORD
  5
13
102
{ACAD_REACTORS
330
12
102
}
330
12
100
AcDbXrecord
280
     1
270
     1
271
     1
  0
XRECORD
  5
17
102
{ACAD_REACTORS
330
12
102
}
330
12
100
AcDbXrecord
280
     1
270
     1
271
     1
  0
XRECORD
  5
16
102
{ACAD_REACTORS
330
12
102
}
330
12
100
AcDbXrecord
280
     1
270
     1
271
     1
  0
XRECORD
  5
18
102
{ACAD_REACTORS
330
12
102
}
330
12
100
AcDbXrecord
280
     1
270
     1
271
     1
  0
XRECORD
  5
15
102
{ACAD_REACTORS
330
12
102
}
330
12
100
AcDbXrecord
280
     1
270
     1
271
     1
  0
XRECORD
  5
24
102
{ACAD_REACTORS
330
22
102
}
330
22
100
AcDbXrecord
280
     1
270
     1
271
     1
  0
XRECORD
  5
23
102
{ACAD_REACTORS
330
22
102
}
330
22
100
AcDbXrecord
280
     1
270
     1
271
     1
  0
XRECORD
  5
27
102
{ACAD_REACTORS
330
22
102
}
330
22
100
AcDbXrecord
280
     1
270
     1
271
     1
  0
XRECORD
  5
26
102
{ACAD_REACTORS
330
22
102
}
330
22
100
AcDbXrecord
280
     1
270
     1
271
     1
  0
XRECORD
  5
28
102
{ACAD_REACTORS
330
22
102
}
330
22
100
AcDbXrecord
280
     1
270
     1
271
     1
  0
XRECORD
  5
25
102
{ACAD_REACTORS
330
22
102
}
330
22
100
AcDbXrecord
280
     1
270
     1
271
     1
  0
XRECORD
  5
371
102
{ACAD_REACTORS
330
370
102
}
330
370
100
AcDbXrecord
280
     1
102
DISPLAYNAME
  1
Imperial24
102
FLAGS
 90
        0
  0
CELLSTYLEMAP
  5
36E
102
{ACAD_REACTORS
330
14D
102
}
330
14D
100
AcDbCellStyleMap
 90
        3
300
CELLSTYLE
  1
TABLEFORMAT_BEGIN
 90
        5
170
     1
 91
        0
 92
    32768
 62
   257
 93
        1
300
CONTENTFORMAT
  1
CONTENTFORMAT_BEGIN
 90
        0
 91
        0
 92
      512
 93
        0
300

 40
0.0
140
1.0
 94
        5
 62
     0
340
55
144
0.25
309
CONTENTFORMAT_END
171
     1
301
MARGIN
  1
CELLMARGIN_BEGIN
 40
0.06
 40
0.06
 40
0.06
 40
0.06
 40
0.18
 40
0.18
309
CELLMARGIN_END
 94
        6
 95
        1
302
GRIDFORMAT
  1
GRIDFORMAT_BEGIN
 90
        0
 91
        1
 62
     0
 92
       -2
340
0
 93
        0
 40
0.045
309
GRIDFORMAT_END
 95
        2
302
GRIDFORMAT
  1
GRIDFORMAT_BEGIN
 90
        0
 91
        1
 62
     0
 92
       -2
340
0
 93
        0
 40
0.045
309
GRIDFORMAT_END
 95
        4
302
GRIDFORMAT
  1
GRIDFORMAT_BEGIN
 90
        0
 91
        1
 62
     0
 92
       -2
340
0
 93
        0
 40
0.045
309
GRIDFORMAT_END
 95
        8
302
GRIDFORMAT
  1
GRIDFORMAT_BEGIN
 90
        0
 91
        1
 62
     0
 92
       -2
340
0
 93
        0
 40
0.045
309
GRIDFORMAT_END
 95
       16
302
GRIDFORMAT
  1
GRIDFORMAT_BEGIN
 90
        0
 91
        1
 62
     0
 92
       -2
340
0
 93
        0
 40
0.045
309
GRIDFORMAT_END
 95
       32
302
GRIDFORMAT
  1
GRIDFORMAT_BEGIN
 90
        0
 91
        1
 62
     0
 92
       -2
340
0
 93
        0
 40
0.045
309
GRIDFORMAT_END
309
TABLEFORMAT_END
  1
CELLSTYLE_BEGIN
 90
        1
 91
        1
300
_TITLE
309
CELLSTYLE_END
300
CELLSTYLE
  1
TABLEFORMAT_BEGIN
 90
        5
170
     1
 91
        0
 92
        0
 62
   257
 93
        1
300
CONTENTFORMAT
  1
CONTENTFORMAT_BEGIN
 90
        0
 91
        0
 92
      512
 93
        0
300

 40
0.0
140
1.0
 94
        5
 62
     0
340
55
144
0.18
309
CONTENTFORMAT_END
171
     1
301
MARGIN
  1
CELLMARGIN_BEGIN
 40
0.06
 40
0.06
 40
0.06
 40
0.06
 40
0.18
 40
0.18
309
CELLMARGIN_END
 94
        6
 95
        1
302
GRIDFORMAT
  1
GRIDFORMAT_BEGIN
 90
        0
 91
        1
 62
     0
 92
       -2
340
0
 93
        0
 40
0.045
309
GRIDFORMAT_END
 95
        2
302
GRIDFORMAT
  1
GRIDFORMAT_BEGIN
 90
        0
 91
        1
 62
     0
 92
       -2
340
0
 93
        0
 40
0.045
309
GRIDFORMAT_END
 95
        4
302
GRIDFORMAT
  1
GRIDFORMAT_BEGIN
 90
        0
 91
        1
 62
     0
 92
       -2
340
0
 93
        0
 40
0.045
309
GRIDFORMAT_END
 95
        8
302
GRIDFORMAT
  1
GRIDFORMAT_BEGIN
 90
        0
 91
        1
 62
     0
 92
       -2
340
0
 93
        0
 40
0.045
309
GRIDFORMAT_END
 95
       16
302
GRIDFORMAT
  1
GRIDFORMAT_BEGIN
 90
        0
 91
        1
 62
     0
 92
       -2
340
0
 93
        0
 40
0.045
309
GRIDFORMAT_END
 95
       32
302
GRIDFORMAT
  1
GRIDFORMAT_BEGIN
 90
        0
 91
        1
 62
     0
 92
       -2
340
0
 93
        0
 40
0.045
309
GRIDFORMAT_END
309
TABLEFORMAT_END
  1
CELLSTYLE_BEGIN
 90
        2
 91
        1
300
_HEADER
309
CELLSTYLE_END
300
CELLSTYLE
  1
TABLEFORMAT_BEGIN
 90
        5
170
     1
 91
        0
 92
        0
 62
   257
 93
        1
300
CONTENTFORMAT
  1
CONTENTFORMAT_BEGIN
 90
        0
 91
        0
 92
      512
 93
        0
300

 40
0.0
140
1.0
 94
        2
 62
     0
340
55
144
0.18
309
CONTENTFORMAT_END
171
     1
301
MARGIN
  1
CELLMARGIN_BEGIN
 40
0.06
 40
0.06
 40
0.06
 40
0.06
 40
0.18
 40
0.18
309
CELLMARGIN_END
 94
        6
 95
        1
302
GRIDFORMAT
  1
GRIDFORMAT_BEGIN
 90
        0
 91
        1
 62
     0
 92
       -2
340
0
 93
        0
 40
0.045
309
GRIDFORMAT_END
 95
        2
302
GRIDFORMAT
  1
GRIDFORMAT_BEGIN
 90
        0
 91
        1
 62
     0
 92
       -2
340
0
 93
        0
 40
0.045
309
GRIDFORMAT_END
 95
        4
302
GRIDFORMAT
  1
GRIDFORMAT_BEGIN
 90
        0
 91
        1
 62
     0
 92
       -2
340
0
 93
        0
 40
0.045
309
GRIDFORMAT_END
 95
        8
302
GRIDFORMAT
  1
GRIDFORMAT_BEGIN
 90
        0
 91
        1
 62
     0
 92
       -2
340
0
 93
        0
 40
0.045
309
GRIDFORMAT_END
 95
       16
302
GRIDFORMAT
  1
GRIDFORMAT_BEGIN
 90
        0
 91
        1
 62
     0
 92
       -2
340
0
 93
        0
 40
0.045
309
GRIDFORMAT_END
 95
       32
302
GRIDFORMAT
  1
GRIDFORMAT_BEGIN
 90
        0
 91
        1
 62
     0
 92
       -2
340
0
 93
        0
 40
0.045
309
GRIDFORMAT_END
309
TABLEFORMAT_END
  1
CELLSTYLE_BEGIN
 90
        3
 91
        2
300
_DATA
309
CELLSTYLE_END
  0
ENDSEC
  0
EOF
