  0
SECTION
  2
HEADER
  9
$ACADVER
  1
AC1027
  9
$ACADMAINTVER
 70
   125
  9
$DWGCODEPAGE
  3
ANSI_1252
  9
$LASTSAVEDBY
  1
ufficio.tecnico
  9
$REQUIREDVERSIONS
160
                 0
  9
$INSBASE
 10
0.0
 20
0.0
 30
0.0
  9
$EXTMIN
 10
8.385862702725482
 20
-8.527455374387232
 30
0.0
  9
$EXTMAX
 10
16.35915533264318
 20
-2.241740499439563
 30
0.0
  9
$LIMMIN
 10
0.0
 20
0.0
  9
$LIMMAX
 10
12.0
 20
9.0
  9
$ORTHOMODE
 70
     0
  9
$REGENMODE
 70
     1
  9
$FILLMODE
 70
     1
  9
$QTEXTMODE
 70
     0
  9
$MIRRTEXT
 70
     1
  9
$LTSCALE
 40
1.0
  9
$ATTMODE
 70
     1
  9
$TEXTSIZE
 40
0.2
  9
$TRACEWID
 40
0.05
  9
$TEXTSTYLE
  7
Standard
  9
$CLAYER
  8
0
  9
$CELTYPE
  6
ByLayer
  9
$CECOLOR
 62
   256
  9
$CELTSCALE
 40
1.0
  9
$DISPSILH
 70
     0
  9
$DIMSCALE
 40
1.0
  9
$DIMASZ
 40
0.18
  9
$DIMEXO
 40
0.0625
  9
$DIMDLI
 40
0.38
  9
$DIMRND
 40
0.0
  9
$DIMDLE
 40
0.0
  9
$DIMEXE
 40
0.18
  9
$DIMTP
 40
0.0
  9
$DIMTM
 40
0.0
  9
$DIMTXT
 40
0.18
  9
$DIMCEN
 40
0.09
  9
$DIMTSZ
 40
0.0
  9
$DIMTOL
 70
     0
  9
$DIMLIM
 70
     0
  9
$DIMTIH
 70
     1
  9
$DIMTOH
 70
     1
  9
$DIMSE1
 70
     0
  9
$DIMSE2
 70
     0
  9
$DIMTAD
 70
     0
  9
$DIMZIN
 70
     0
  9
$DIMBLK
  1

  9
$DIMASO
 70
     1
  9
$DIMSHO
 70
     1
  9
$DIMPOST
  1

  9
$DIMAPOST
  1

  9
$DIMALT
 70
     0
  9
$DIMALTD
 70
     2
  9
$DIMALTF
 40
25.4
  9
$DIMLFAC
 40
1.0
  9
$DIMTOFL
 70
     0
  9
$DIMTVP
 40
0.0
  9
$DIMTIX
 70
     0
  9
$DIMSOXD
 70
     0
  9
$DIMSAH
 70
     0
  9
$DIMBLK1
  1

  9
$DIMBLK2
  1

  9
$DIMSTYLE
  2
Standard
  9
$DIMCLRD
 70
     0
  9
$DIMCLRE
 70
     0
  9
$DIMCLRT
 70
     0
  9
$DIMTFAC
 40
1.0
  9
$DIMGAP
 40
0.09
  9
$DIMJUST
 70
     0
  9
$DIMSD1
 70
     0
  9
$DIMSD2
 70
     0
  9
$DIMTOLJ
 70
     1
  9
$DIMTZIN
 70
     0
  9
$DIMALTZ
 70
     0
  9
$DIMALTTZ
 70
     0
  9
$DIMUPT
 70
     0
  9
$DIMDEC
 70
     4
  9
$DIMTDEC
 70
     4
  9
$DIMALTU
 70
     2
  9
$DIMALTTD
 70
     2
  9
$DIMTXSTY
  7
Standard
  9
$DIMAUNIT
 70
     0
  9
$DIMADEC
 70
     0
  9
$DIMALTRND
 40
0.0
  9
$DIMAZIN
 70
     0
  9
$DIMDSEP
 70
    46
  9
$DIMATFIT
 70
     3
  9
$DIMFRAC
 70
     0
  9
$DIMLDRBLK
  1

  9
$DIMLUNIT
 70
     2
  9
$DIMLWD
 70
    -2
  9
$DIMLWE
 70
    -2
  9
$DIMTMOVE
 70
     0
  9
$DIMFXL
 40
1.0
  9
$DIMFXLON
 70
     0
  9
$DIMJOGANG
 40
0.7853981633974483
  9
$DIMTFILL
 70
     0
  9
$DIMTFILLCLR
 70
     0
  9
$DIMARCSYM
 70
     0
  9
$DIMLTYPE
  6

  9
$DIMLTEX1
  6

  9
$DIMLTEX2
  6

  9
$DIMTXTDIRECTION
 70
     0
  9
$LUNITS
 70
     2
  9
$LUPREC
 70
     4
  9
$SKETCHINC
 40
0.1
  9
$FILLETRAD
 40
0.5
  9
$AUNITS
 70
     0
  9
$AUPREC
 70
     0
  9
$MENU
  1
.
  9
$ELEVATION
 40
0.0
  9
$PELEVATION
 40
0.0
  9
$THICKNESS
 40
0.0
  9
$LIMCHECK
 70
     0
  9
$CHAMFERA
 40
0.5
  9
$CHAMFERB
 40
0.5
  9
$CHAMFERC
 40
1.0
  9
$CHAMFERD
 40
0.0
  9
$SKPOLY
 70
     0
  9
$TDCREATE
 40
2459325.634629630
  9
$TDUCREATE
 40
2459325.551301007
  9
$TDUPDATE
 40
2459328.478807870
  9
$TDUUPDATE
 40
2459328.395474537
  9
$TDINDWG
 40
0.0004861227
  9
$TDUSRTIMER
 40
0.0004861227
  9
$USRTIMER
 70
     1
  9
$ANGBASE
 50
0.0
  9
$ANGDIR
 70
     0
  9
$PDMODE
 70
     0
  9
$PDSIZE
 40
0.0
  9
$PLINEWID
 40
0.0
  9
$SPLFRAME
 70
     0
  9
$SPLINETYPE
 70
     6
  9
$SPLINESEGS
 70
     8
  9
$HANDSEED
  5
FE
  9
$SURFTAB1
 70
     6
  9
$SURFTAB2
 70
     6
  9
$SURFTYPE
 70
     6
  9
$SURFU
 70
     6
  9
$SURFV
 70
     6
  9
$UCSBASE
  2

  9
$UCSNAME
  2

  9
$UCSORG
 10
0.0
 20
0.0
 30
0.0
  9
$UCSXDIR
 10
1.0
 20
0.0
 30
0.0
  9
$UCSYDIR
 10
0.0
 20
1.0
 30
0.0
  9
$UCSORTHOREF
  2

  9
$UCSORTHOVIEW
 70
     0
  9
$UCSORGTOP
 10
0.0
 20
0.0
 30
0.0
  9
$UCSORGBOTTOM
 10
0.0
 20
0.0
 30
0.0
  9
$UCSORGLEFT
 10
0.0
 20
0.0
 30
0.0
  9
$UCSORGRIGHT
 10
0.0
 20
0.0
 30
0.0
  9
$UCSORGFRONT
 10
0.0
 20
0.0
 30
0.0
  9
$UCSORGBACK
 10
0.0
 20
0.0
 30
0.0
  9
$PUCSBASE
  2

  9
$PUCSNAME
  2

  9
$PUCSORG
 10
0.0
 20
0.0
 30
0.0
  9
$PUCSXDIR
 10
1.0
 20
0.0
 30
0.0
  9
$PUCSYDIR
 10
0.0
 20
1.0
 30
0.0
  9
$PUCSORTHOREF
  2

  9
$PUCSORTHOVIEW
 70
     0
  9
$PUCSORGTOP
 10
0.0
 20
0.0
 30
0.0
  9
$PUCSORGBOTTOM
 10
0.0
 20
0.0
 30
0.0
  9
$PUCSORGLEFT
 10
0.0
 20
0.0
 30
0.0
  9
$PUCSORGRIGHT
 10
0.0
 20
0.0
 30
0.0
  9
$PUCSORGFRONT
 10
0.0
 20
0.0
 30
0.0
  9
$PUCSORGBACK
 10
0.0
 20
0.0
 30
0.0
  9
$USERI1
 70
     0
  9
$USERI2
 70
     0
  9
$USERI3
 70
     0
  9
$USERI4
 70
     0
  9
$USERI5
 70
     0
  9
$USERR1
 40
0.0
  9
$USERR2
 40
0.0
  9
$USERR3
 40
0.0
  9
$USERR4
 40
0.0
  9
$USERR5
 40
0.0
  9
$WORLDVIEW
 70
     1
  9
$SHADEDGE
 70
     3
  9
$SHADEDIF
 70
    70
  9
$TILEMODE
 70
     1
  9
$MAXACTVP
 70
    64
  9
$PINSBASE
 10
0.0
 20
0.0
 30
0.0
  9
$PLIMCHECK
 70
     0
  9
$PEXTMIN
 10
1.000000000000000E+20
 20
1.000000000000000E+20
 30
1.000000000000000E+20
  9
$PEXTMAX
 10
-1.000000000000000E+20
 20
-1.000000000000000E+20
 30
-1.000000000000000E+20
  9
$PLIMMIN
 10
0.0
 20
0.0
  9
$PLIMMAX
 10
12.0
 20
9.0
  9
$UNITMODE
 70
     0
  9
$VISRETAIN
 70
     1
  9
$PLINEGEN
 70
     0
  9
$PSLTSCALE
 70
     1
  9
$TREEDEPTH
 70
  3020
  9
$CMLSTYLE
  2
Standard
  9
$CMLJUST
 70
     0
  9
$CMLSCALE
 40
1.0
  9
$PROXYGRAPHICS
 70
     1
  9
$MEASUREMENT
 70
     0
  9
$CELWEIGHT
370
    -1
  9
$ENDCAPS
280
     0
  9
$JOINSTYLE
280
     0
  9
$LWDISPLAY
290
     1
  9
$INSUNITS
 70
     5
  9
$HYPERLINKBASE
  1

  9
$STYLESHEET
  1

  9
$XEDIT
290
     1
  9
$CEPSNTYPE
380
     0
  9
$PSTYLEMODE
290
     1
  9
$FINGERPRINTGUID
  2
{A06DA632-3D96-4D17-8576-24B8A243567B}
  9
$VERSIONGUID
  2
{3A7C5C61-5334-984C-A4BD-52C281CB78EA}
  9
$EXTNAMES
290
     1
  9
$PSVPSCALE
 40
0.0
  9
$OLESTARTUP
290
     0
  9
$SORTENTS
280
   127
  9
$INDEXCTL
280
     0
  9
$HIDETEXT
280
     1
  9
$XCLIPFRAME
280
     2
  9
$HALOGAP
280
     0
  9
$OBSCOLOR
 70
   257
  9
$OBSLTYPE
280
     0
  9
$INTERSECTIONDISPLAY
280
     0
  9
$INTERSECTIONCOLOR
 70
   257
  9
$DIMASSOC
280
     2
  9
$PROJECTNAME
  1

  9
$CAMERADISPLAY
290
     0
  9
$LENSLENGTH
 40
50.0
  9
$CAMERAHEIGHT
 40
0.0
  9
$STEPSPERSEC
 40
2.0
  9
$STEPSIZE
 40
6.0
  9
$3DDWFPREC
 40
2.0
  9
$PSOLWIDTH
 40
0.25
  9
$PSOLHEIGHT
 40
4.0
  9
$LOFTANG1
 40
1.570796326794897
  9
$LOFTANG2
 40
1.570796326794897
  9
$LOFTMAG1
 40
0.0
  9
$LOFTMAG2
 40
0.0
  9
$LOFTPARAM
 70
     7
  9
$LOFTNORMALS
280
     1
  9
$LATITUDE
 40
37.795
  9
$LONGITUDE
 40
-122.394
  9
$NORTHDIRECTION
 40
0.0
  9
$TIMEZONE
 70
 -8000
  9
$LIGHTGLYPHDISPLAY
280
     1
  9
$TILEMODELIGHTSYNCH
280
     1
  9
$CMATERIAL
347
3C
  9
$SOLIDHIST
280
     1
  9
$SHOWHIST
280
     1
  9
$DWFFRAME
280
     2
  9
$DGNFRAME
280
     2
  9
$REALWORLDSCALE
290
     1
  9
$INTERFERECOLOR
 62
   256
  9
$INTERFEREOBJVS
345
33
  9
$INTERFEREVPVS
346
94
  9
$CSHADOW
280
     0
  9
$SHADOWPLANELOCATION
 40
0.0
  0
ENDSEC
  0
SECTION
  2
CLASSES
  0
CLASS
  1
ACDBDICTIONARYWDFLT
  2
AcDbDictionaryWithDefault
  3
ObjectDBX Classes
 90
        0
 91
        1
280
     0
281
     0
  0
CLASS
  1
VISUALSTYLE
  2
AcDbVisualStyle
  3
ObjectDBX Classes
 90
     4095
 91
       26
280
     0
281
     0
  0
CLASS
  1
MATERIAL
  2
AcDbMaterial
  3
ObjectDBX Classes
 90
     1153
 91
        3
280
     0
281
     0
  0
CLASS
  1
SUN
  2
AcDbSun
  3
SCENEOE
 90
     1153
 91
        1
280
     0
281
     0
  0
CLASS
  1
TABLESTYLE
  2
AcDbTableStyle
  3
ObjectDBX Classes
 90
     4095
 91
        1
280
     0
281
     0
  0
CLASS
  1
SCALE
  2
AcDbScale
  3
ObjectDBX Classes
 90
     1153
 91
       21
280
     0
281
     0
  0
CLASS
  1
MLEADERSTYLE
  2
AcDbMLeaderStyle
  3
ACDB_MLEADERSTYLE_CLASS
 90
     4095
 91
        1
280
     0
281
     0
  0
CLASS
  1
ACDBSECTIONVIEWSTYLE
  2
AcDbSectionViewStyle
  3
ObjectDBX Classes
 90
     1025
 91
        1
280
     0
281
     0
  0
CLASS
  1
ACDBDETAILVIEWSTYLE
  2
AcDbDetailViewStyle
  3
ObjectDBX Classes
 90
     1025
 91
        1
280
     0
281
     0
  0
CLASS
  1
SORTENTSTABLE
  2
AcDbSortentsTable
  3
ObjectDBX Classes
 90
        0
 91
        1
280
     0
281
     0
  0
CLASS
  1
DICTIONARYVAR
  2
AcDbDictionaryVar
  3
ObjectDBX Classes
 90
        0
 91
        5
280
     0
281
     0
  0
CLASS
  1
CELLSTYLEMAP
  2
AcDbCellStyleMap
  3
ObjectDBX Classes
 90
     1152
 91
        1
280
     0
281
     0
  0
ENDSEC
  0
SECTION
  2
TABLES
  0
TABLE
  2
VPORT
  5
8
330
0
100
AcDbSymbolTable
 70
     1
1001
ACAD
1000
DbSaveVer
1071
      105
  0
VPORT
  5
29
330
8
100
AcDbSymbolTableRecord
100
AcDbViewportTableRecord
  2
*Active
 70
     0
 10
0.0
 20
0.0
 11
1.0
 21
1.0
 12
0.1484480350799
 22
0.0
 13
0.0
 23
0.0
 14
0.5
 24
0.5
 15
0.5
 25
0.5
 16
0.0
 26
0.0
 36
1.0
 17
10.50008280156501
 27
-5.732638887455728
 37
0.0
 40
11.01897837159276
 41
1.932867132867133
 42
50.0
 43
0.0
 44
0.0
 50
0.0
 51
0.0
 71
     0
 72
   100
 73
     1
 74
     3
 75
     0
 76
     0
 77
     0
 78
     0
281
     0
 65
     1
110
0.0
120
0.0
130
0.0
111
1.0
121
0.0
131
0.0
112
0.0
122
1.0
132
0.0
 79
     0
146
0.0
348
2F
 60
     3
 61
     5
292
     1
282
     1
141
0.0
142
0.0
 63
   250
361
3F
1001
ACAD_NAV_VCDISPLAY
1070
     3
  0
ENDTAB
  0
TABLE
  2
LTYPE
  5
5
330
0
100
AcDbSymbolTable
 70
     1
  0
LTYPE
  5
14
330
5
100
AcDbSymbolTableRecord
100
AcDbLinetypeTableRecord
  2
ByBlock
 70
     0
  3

 72
    65
 73
     0
 40
0.0
  0
LTYPE
  5
15
330
5
100
AcDbSymbolTableRecord
100
AcDbLinetypeTableRecord
  2
ByLayer
 70
     0
  3

 72
    65
 73
     0
 40
0.0
  0
LTYPE
  5
16
330
5
100
AcDbSymbolTableRecord
100
AcDbLinetypeTableRecord
  2
Continuous
 70
     0
  3
Solid line
 72
    65
 73
     0
 40
0.0
  0
ENDTAB
  0
TABLE
  2
LAYER
  5
2
330
0
100
AcDbSymbolTable
 70
     2
  0
LAYER
  5
10
330
2
100
AcDbSymbolTableRecord
100
AcDbLayerTableRecord
  2
0
 70
     0
 62
     7
  6
Continuous
370
    -3
390
F
347
3E
348
0
  0
LAYER
  5
40
330
2
100
AcDbSymbolTableRecord
100
AcDbLayerTableRecord
  2
Livello 1
 70
     0
 62
     7
  6
Continuous
370
    -3
390
F
347
3E
348
0
  0
ENDTAB
  0
TABLE
  2
STYLE
  5
3
330
0
100
AcDbSymbolTable
 70
     1
  0
STYLE
  5
11
330
3
100
AcDbSymbolTableRecord
100
AcDbTextStyleTableRecord
  2
Standard
 70
     0
 40
0.0
 41
1.0
 50
0.0
 71
     0
 42
0.2
  3
txt
  4

  0
ENDTAB
  0
TABLE
  2
VIEW
  5
6
330
0
100
AcDbSymbolTable
 70
     0
  0
ENDTAB
  0
TABLE
  2
UCS
  5
7
330
0
100
AcDbSymbolTable
 70
     0
  0
ENDTAB
  0
TABLE
  2
APPID
  5
9
330
0
100
AcDbSymbolTable
 70
     2
  0
APPID
  5
12
330
9
100
AcDbSymbolTableRecord
100
AcDbRegAppTableRecord
  2
ACAD
 70
     0
  0
APPID
  5
F6
330
9
100
AcDbSymbolTableRecord
100
AcDbRegAppTableRecord
  2
ACAD_NAV_VCDISPLAY
 70
     0
  0
ENDTAB
  0
TABLE
  2
DIMSTYLE
  5
A
330
0
100
AcDbSymbolTable
 70
     1
100
AcDbDimStyleTable
 71
     0
  0
DIMSTYLE
105
27
330
A
100
AcDbSymbolTableRecord
100
AcDbDimStyleTableRecord
  2
Standard
 70
     0
340
11
  0
ENDTAB
  0
TABLE
  2
BLOCK_RECORD
  5
1
330
0
100
AcDbSymbolTable
 70
     7
  0
BLOCK_RECORD
  5
1F
102
{ACAD_XDICTIONARY
360
BE
102
}
330
1
100
AcDbSymbolTableRecord
100
AcDbBlockTableRecord
  2
*Model_Space
340
22
 70
     0
280
     1
281
     0
  0
BLOCK_RECORD
  5
1B
330
1
100
AcDbSymbolTableRecord
100
AcDbBlockTableRecord
  2
*Paper_Space
340
1E
 70
     0
280
     1
281
     0
  0
BLOCK_RECORD
  5
23
330
1
100
AcDbSymbolTableRecord
100
AcDbBlockTableRecord
  2
*Paper_Space0
340
26
 70
     0
280
     1
281
     0
  0
BLOCK_RECORD
  5
42
330
1
100
AcDbSymbolTableRecord
100
AcDbBlockTableRecord
  2
block 2
340
0
 70
     0
280
     1
281
     0
  0
BLOCK_RECORD
  5
47
330
1
100
AcDbSymbolTableRecord
100
AcDbBlockTableRecord
  2
block 3
340
0
 70
     0
280
     1
281
     0
  0
BLOCK_RECORD
  5
51
330
1
100
AcDbSymbolTableRecord
100
AcDbBlockTableRecord
  2
block 4
340
0
 70
     0
280
     1
281
     0
  0
BLOCK_RECORD
  5
56
330
1
100
AcDbSymbolTableRecord
100
AcDbBlockTableRecord
  2
block 5
340
0
 70
     0
280
     1
281
     0
  0
BLOCK_RECORD
  5
68
330
1
100
AcDbSymbolTableRecord
100
AcDbBlockTableRecord
  2
block 6
340
0
 70
     0
280
     1
281
     0
  0
BLOCK_RECORD
  5
74
330
1
100
AcDbSymbolTableRecord
100
AcDbBlockTableRecord
  2
block 7
340
0
 70
     0
280
     1
281
     0
  0
ENDTAB
  0
ENDSEC
  0
SECTION
  2
BLOCKS
  0
BLOCK
  5
20
330
1F
100
AcDbEntity
  8
0
100
AcDbBlockBegin
  2
*Model_Space
 70
     0
 10
0.0
 20
0.0
 30
0.0
  3
*Model_Space
  1

  0
ENDBLK
  5
21
330
1F
100
AcDbEntity
  8
0
100
AcDbBlockEnd
  0
BLOCK
  5
1C
330
1B
100
AcDbEntity
 67
     1
  8
0
100
AcDbBlockBegin
  2
*Paper_Space
 70
     0
 10
0.0
 20
0.0
 30
0.0
  3
*Paper_Space
  1

  0
ENDBLK
  5
1D
330
1B
100
AcDbEntity
 67
     1
  8
0
100
AcDbBlockEnd
  0
BLOCK
  5
24
330
23
100
AcDbEntity
 67
     1
  8
0
100
AcDbBlockBegin
  2
*Paper_Space0
 70
     0
 10
0.0
 20
0.0
 30
0.0
  3
*Paper_Space0
  1

  0
ENDBLK
  5
25
330
23
100
AcDbEntity
 67
     1
  8
0
100
AcDbBlockEnd
  0
BLOCK
  5
44
330
42
100
AcDbEntity
  8
0
100
AcDbBlockBegin
  2
block 2
 70
     0
 10
0.0
 20
0.0
 30
0.0
  3
block 2
  1

  0
SPLINE
  5
46
330
42
100
AcDbEntity
  8
Livello 1
 62
   250
420
  1842203
370
    70
100
AcDbSpline
210
0.0
220
0.0
230
1.0
 70
     8
 71
     3
 72
    14
 73
    10
 74
     0
 42
0.000000001
 43
0.0000000001
 40
0.0
 40
0.0
 40
0.0
 40
0.0
 40
1.0
 40
1.0
 40
1.0
 40
2.0
 40
2.0
 40
2.0
 40
3.0
 40
3.0
 40
3.0
 40
3.0
 10
16.35915533264318
 20
-4.567205748858203
 30
0.0
 10
16.35198336060392
 20
-3.268323832516263
 30
0.0
 10
15.83097998500694
 20
-2.227244860554304
 30
0.0
 10
15.19546847344241
 20
-2.241892193883955
 30
0.0
 10
14.89415392557403
 20
-2.248838388326693
 30
0.0
 10
14.60619944079288
 20
-2.497056360486837
 30
0.0
 10
14.39345996612558
 20
-2.933220221488903
 30
0.0
 10
14.39345996612558
 20
-2.933220221488903
 30
0.0
 10
14.18172980486059
 20
-3.457222221357915
 30
0.0
 10
14.18172980486059
 20
-3.457222221357915
 30
0.0
  0
ENDBLK
  5
45
330
42
100
AcDbEntity
  8
0
100
AcDbBlockEnd
  0
BLOCK
  5
49
330
47
100
AcDbEntity
  8
0
100
AcDbBlockBegin
  2
block 3
 70
     0
 10
0.0
 20
0.0
 30
0.0
  3
block 3
  1

  0
POLYLINE
  5
4B
330
47
100
AcDbEntity
  8
Livello 1
 62
   250
420
  1842203
370
    70
100
AcDb2dPolyline
 66
     1
 10
0.0
 20
0.0
 30
0.0
  0
VERTEX
  5
4C
330
4B
100
AcDbEntity
  8
Livello 1
 62
   250
420
  1842203
370
    70
100
AcDbVertex
100
AcDb2dVertex
 10
13.9699999965075
 20
-4.564623415525521
 30
0.0
  0
VERTEX
  5
4D
330
4B
100
AcDbEntity
  8
Livello 1
 62
   250
420
  1842203
370
    70
100
AcDbVertex
100
AcDb2dVertex
 10
13.9699999965075
 20
-3.457222221357915
 30
0.0
  0
VERTEX
  5
4E
330
4B
100
AcDbEntity
  8
Livello 1
 62
   250
420
  1842203
370
    70
100
AcDbVertex
100
AcDb2dVertex
 10
14.18172980486059
 20
-3.457222221357915
 30
0.0
  0
VERTEX
  5
4F
330
4B
100
AcDbEntity
  8
Livello 1
 62
   250
420
  1842203
370
    70
100
AcDbVertex
100
AcDb2dVertex
 10
14.18172980486059
 20
-4.564623415525521
 30
0.0
  0
SEQEND
  5
50
330
4B
100
AcDbEntity
  8
Livello 1
 62
   250
420
  1842203
370
    70
  0
ENDBLK
  5
4A
330
47
100
AcDbEntity
  8
0
100
AcDbBlockEnd
  0
BLOCK
  5
53
330
51
100
AcDbEntity
  8
0
100
AcDbBlockBegin
  2
block 4
 70
     0
 10
0.0
 20
0.0
 30
0.0
  3
block 4
  1

  0
SPLINE
  5
55
330
51
100
AcDbEntity
  8
Livello 1
 62
   250
420
  1842203
370
    70
100
AcDbSpline
210
0.0
220
0.0
230
1.0
 70
     8
 71
     3
 72
    14
 73
    10
 74
     0
 42
0.000000001
 43
0.0000000001
 40
0.0
 40
0.0
 40
0.0
 40
0.0
 40
1.0
 40
1.0
 40
1.0
 40
2.0
 40
2.0
 40
2.0
 40
3.0
 40
3.0
 40
3.0
 40
3.0
 10
16.35915533264318
 20
-4.567205748858203
 30
0.0
 10
16.35575455495216
 20
-5.183035804259784
 30
0.0
 10
16.23430416260807
 20
-5.771574970779316
 30
0.0
 10
16.0208978968284
 20
-6.206380637337288
 30
0.0
 10
15.57078874164497
 20
-7.123454692663566
 30
0.0
 10
14.84215801023389
 20
-7.121133414886388
 30
0.0
 10
14.39345996612558
 20
-6.201194804005253
 30
0.0
 10
14.39345996612558
 20
-6.201194804005253
 30
0.0
 10
14.18172980486059
 20
-5.672028137470879
 30
0.0
 10
14.18172980486059
 20
-5.672028137470879
 30
0.0
  0
ENDBLK
  5
54
330
51
100
AcDbEntity
  8
0
100
AcDbBlockEnd
  0
BLOCK
  5
58
330
56
100
AcDbEntity
  8
0
100
AcDbBlockBegin
  2
block 5
 70
     0
 10
0.0
 20
0.0
 30
0.0
  3
block 5
  1

  0
POLYLINE
  5
5A
330
56
100
AcDbEntity
  8
Livello 1
 62
   250
420
  1842203
370
    70
100
AcDb2dPolyline
 66
     1
 10
0.0
 20
0.0
 30
0.0
  0
VERTEX
  5
5B
330
5A
100
AcDbEntity
  8
Livello 1
 62
   250
420
  1842203
370
    70
100
AcDbVertex
100
AcDb2dVertex
 10
13.9699999965075
 20
-4.564623415525521
 30
0.0
  0
VERTEX
  5
5C
330
5A
100
AcDbEntity
  8
Livello 1
 62
   250
420
  1842203
370
    70
100
AcDbVertex
100
AcDb2dVertex
 10
13.9699999965075
 20
-5.672028137470879
 30
0.0
  0
VERTEX
  5
5D
330
5A
100
AcDbEntity
  8
Livello 1
 62
   250
420
  1842203
370
    70
100
AcDbVertex
100
AcDb2dVertex
 10
14.18172980486059
 20
-5.672028137470879
 30
0.0
  0
VERTEX
  5
5E
330
5A
100
AcDbEntity
  8
Livello 1
 62
   250
420
  1842203
370
    70
100
AcDbVertex
100
AcDb2dVertex
 10
14.18172980486059
 20
-4.564623415525521
 30
0.0
  0
SEQEND
  5
5F
330
5A
100
AcDbEntity
  8
Livello 1
 62
   250
420
  1842203
370
    70
  0
ENDBLK
  5
59
330
56
100
AcDbEntity
  8
0
100
AcDbBlockEnd
  0
BLOCK
  5
6A
330
68
100
AcDbEntity
  8
0
100
AcDbBlockBegin
  2
block 6
 70
     0
 10
0.0
 20
0.0
 30
0.0
  3
block 6
  1

  0
SPLINE
  5
6C
330
68
100
AcDbEntity
  8
Livello 1
370
     0
100
AcDbSpline
210
0.0
220
0.0
230
1.0
 70
     9
 71
     3
 72
    59
 73
    55
 74
     0
 42
0.000000001
 43
0.0000000001
 40
0.0
 40
0.0
 40
0.0
 40
0.0
 40
1.0
 40
1.0
 40
1.0
 40
2.0
 40
2.0
 40
2.0
 40
3.0
 40
3.0
 40
3.0
 40
4.0
 40
4.0
 40
4.0
 40
5.0
 40
5.0
 40
5.0
 40
6.0
 40
6.0
 40
6.0
 40
7.0
 40
7.0
 40
7.0
 40
8.0
 40
8.0
 40
8.0
 40
9.0
 40
9.0
 40
9.0
 40
10.0
 40
10.0
 40
10.0
 40
11.0
 40
11.0
 40
11.0
 40
12.0
 40
12.0
 40
12.0
 40
13.0
 40
13.0
 40
13.0
 40
14.0
 40
14.0
 40
14.0
 40
15.0
 40
15.0
 40
15.0
 40
16.0
 40
16.0
 40
16.0
 40
17.0
 40
17.0
 40
17.0
 40
18.0
 40
18.0
 40
18.0
 40
18.0
 10
9.827272675494571
 20
-8.337785642446803
 30
0.0
 10
9.848442787251428
 20
-8.351342093181258
 30
0.0
 10
9.897552623393668
 20
-8.372512204938121
 30
0.0
 10
9.949211830194988
 20
-8.372512204938121
 30
0.0
 10
10.04488213182038
 20
-8.372512204938121
 30
0.0
 10
10.07452717847095
 20
-8.3115340148492
 30
0.0
 10
10.07368313007706
 20
-8.265817597759934
 30
0.0
 10
10.07283908168318
 20
-8.188768037232323
 30
0.0
 10
10.00340318217797
 20
-8.155746797006202
 30
0.0
 10
9.931435137491098
 20
-8.155746797006202
 30
0.0
 10
9.931435137491098
 20
-8.155746797006202
 30
0.0
 10
9.889938962371264
 20
-8.155746797006202
 30
0.0
 10
9.889938962371264
 20
-8.155746797006202
 30
0.0
 10
9.889938962371264
 20
-8.155746797006202
 30
0.0
 10
9.889938962371264
 20
-8.099850122758022
 30
0.0
 10
9.889938962371264
 20
-8.099850122758022
 30
0.0
 10
9.889938962371264
 20
-8.099850122758022
 30
0.0
 10
9.931435137491098
 20
-8.099850122758022
 30
0.0
 10
9.931435137491098
 20
-8.099850122758022
 30
0.0
 10
9.985626489474078
 20
-8.099850122758022
 30
0.0
 10
10.05420111510798
 20
-8.071910398372647
 30
0.0
 10
10.05420111510798
 20
-8.006711966314293
 30
0.0
 10
10.05420111510798
 20
-7.9626836460128
 30
0.0
 10
10.0262613907226
 20
-7.923736841552051
 30
0.0
 10
9.957669539611275
 20
-7.923736841552051
 30
0.0
 10
9.913641219309782
 20
-7.923736841552051
 30
0.0
 10
9.871300995796062
 20
-7.943201631043713
 30
0.0
 10
9.847598738857543
 20
-7.960151500831142
 30
0.0
 10
9.847598738857543
 20
-7.960151500831142
 30
0.0
 10
9.828116723888456
 20
-7.905960148848161
 30
0.0
 10
9.828116723888456
 20
-7.905960148848161
 30
0.0
 10
9.856917722145144
 20
-7.884790037091303
 30
0.0
 10
9.912797170915897
 20
-7.863619925334442
 30
0.0
 10
9.972070038739619
 20
-7.863619925334442
 30
0.0
 10
10.08045274270558
 20
-7.863619925334442
 30
0.0
 10
10.12956257884782
 20
-7.927974308998908
 30
0.0
 10
10.12956257884782
 20
-7.994860837845034
 30
0.0
 10
10.12956257884782
 20
-8.051584335009673
 30
0.0
 10
10.09569729022781
 20
-8.099850122758022
 30
0.0
 10
10.02794948751037
 20
-8.124413653567854
 30
0.0
 10
10.02794948751037
 20
-8.124413653567854
 30
0.0
 10
10.02794948751037
 20
-8.126101750355626
 30
0.0
 10
10.02794948751037
 20
-8.126101750355626
 30
0.0
 10
10.09569729022781
 20
-8.139658201090083
 30
0.0
 10
10.15073269060468
 20
-8.190456134020093
 30
0.0
 10
10.15073269060468
 20
-8.267505694547706
 30
0.0
 10
10.15073269060468
 20
-8.35557956062812
 30
0.0
 10
10.08214083949335
 20
-8.432629121155731
 30
0.0
 10
9.950055878588873
 20
-8.432629121155731
 30
0.0
 10
9.888250865583492
 20
-8.432629121155731
 30
0.0
 10
9.834059513600511
 20
-8.413147106186643
 30
0.0
 10
9.806963837609023
 20
-8.395370413482753
 30
0.0
 10
9.806963837609023
 20
-8.395370413482753
 30
0.0
 10
9.827272675494571
 20
-8.337785642446803
 30
0.0
 10
9.827272675494571
 20
-8.337785642446803
 30
0.0
  0
HATCH
  5
6D
330
68
100
AcDbEntity
  8
Livello 1
 62
   250
420
  1842203
100
AcDbHatch
 10
0.0
 20
0.0
 30
0.0
210
0.0
220
0.0
230
1.0
  2
SOLID
 70
     1
 71
     0
 91
        1
 92
        1
 93
        1
 72
     4
 94
        3
 73
     0
 74
     0
 95
       59
 96
       55
 40
0.0
 40
0.0
 40
0.0
 40
0.0
 40
1.0
 40
1.0
 40
1.0
 40
2.0
 40
2.0
 40
2.0
 40
3.0
 40
3.0
 40
3.0
 40
4.0
 40
4.0
 40
4.0
 40
5.0
 40
5.0
 40
5.0
 40
6.0
 40
6.0
 40
6.0
 40
7.0
 40
7.0
 40
7.0
 40
8.0
 40
8.0
 40
8.0
 40
9.0
 40
9.0
 40
9.0
 40
10.0
 40
10.0
 40
10.0
 40
11.0
 40
11.0
 40
11.0
 40
12.0
 40
12.0
 40
12.0
 40
13.0
 40
13.0
 40
13.0
 40
14.0
 40
14.0
 40
14.0
 40
15.0
 40
15.0
 40
15.0
 40
16.0
 40
16.0
 40
16.0
 40
17.0
 40
17.0
 40
17.0
 40
18.0
 40
18.0
 40
18.0
 40
18.0
 10
9.827272675494571
 20
-8.337785642446803
 10
9.848442787251428
 20
-8.351342093181258
 10
9.897552623393668
 20
-8.372512204938121
 10
9.949211830194988
 20
-8.372512204938121
 10
10.04488213182038
 20
-8.372512204938121
 10
10.07452717847095
 20
-8.3115340148492
 10
10.07368313007706
 20
-8.265817597759934
 10
10.07283908168318
 20
-8.188768037232323
 10
10.00340318217797
 20
-8.155746797006202
 10
9.931435137491098
 20
-8.155746797006202
 10
9.931435137491098
 20
-8.155746797006202
 10
9.889938962371264
 20
-8.155746797006202
 10
9.889938962371264
 20
-8.155746797006202
 10
9.889938962371264
 20
-8.155746797006202
 10
9.889938962371264
 20
-8.099850122758022
 10
9.889938962371264
 20
-8.099850122758022
 10
9.889938962371264
 20
-8.099850122758022
 10
9.931435137491098
 20
-8.099850122758022
 10
9.931435137491098
 20
-8.099850122758022
 10
9.985626489474078
 20
-8.099850122758022
 10
10.05420111510798
 20
-8.071910398372647
 10
10.05420111510798
 20
-8.006711966314293
 10
10.05420111510798
 20
-7.9626836460128
 10
10.0262613907226
 20
-7.923736841552051
 10
9.957669539611275
 20
-7.923736841552051
 10
9.913641219309782
 20
-7.923736841552051
 10
9.871300995796062
 20
-7.943201631043713
 10
9.847598738857543
 20
-7.960151500831142
 10
9.847598738857543
 20
-7.960151500831142
 10
9.828116723888456
 20
-7.905960148848161
 10
9.828116723888456
 20
-7.905960148848161
 10
9.856917722145144
 20
-7.884790037091303
 10
9.912797170915897
 20
-7.863619925334442
 10
9.972070038739619
 20
-7.863619925334442
 10
10.08045274270558
 20
-7.863619925334442
 10
10.12956257884782
 20
-7.927974308998908
 10
10.12956257884782
 20
-7.994860837845034
 10
10.12956257884782
 20
-8.051584335009673
 10
10.09569729022781
 20
-8.099850122758022
 10
10.02794948751037
 20
-8.124413653567854
 10
10.02794948751037
 20
-8.124413653567854
 10
10.02794948751037
 20
-8.126101750355626
 10
10.02794948751037
 20
-8.126101750355626
 10
10.09569729022781
 20
-8.139658201090083
 10
10.15073269060468
 20
-8.190456134020093
 10
10.15073269060468
 20
-8.267505694547706
 10
10.15073269060468
 20
-8.35557956062812
 10
10.08214083949335
 20
-8.432629121155731
 10
9.950055878588873
 20
-8.432629121155731
 10
9.888250865583492
 20
-8.432629121155731
 10
9.834059513600511
 20
-8.413147106186643
 10
9.806963837609023
 20
-8.395370413482753
 10
9.806963837609023
 20
-8.395370413482753
 10
9.827272675494571
 20
-8.337785642446803
 10
9.827272675494571
 20
-8.337785642446803
 97
        0
 97
        0
 75
     2
 76
     1
 98
        0
450
        0
451
        0
460
0.0
461
0.0
452
        0
462
0.0
453
        0
470

  0
SPLINE
  5
6E
330
68
100
AcDbEntity
  8
Livello 1
370
     0
100
AcDbSpline
210
0.0
220
0.0
230
1.0
 70
     9
 71
     3
 72
    59
 73
    55
 74
     0
 42
0.000000001
 43
0.0000000001
 40
0.0
 40
0.0
 40
0.0
 40
0.0
 40
1.0
 40
1.0
 40
1.0
 40
2.0
 40
2.0
 40
2.0
 40
3.0
 40
3.0
 40
3.0
 40
4.0
 40
4.0
 40
4.0
 40
5.0
 40
5.0
 40
5.0
 40
6.0
 40
6.0
 40
6.0
 40
7.0
 40
7.0
 40
7.0
 40
8.0
 40
8.0
 40
8.0
 40
9.0
 40
9.0
 40
9.0
 40
10.0
 40
10.0
 40
10.0
 40
11.0
 40
11.0
 40
11.0
 40
12.0
 40
12.0
 40
12.0
 40
13.0
 40
13.0
 40
13.0
 40
14.0
 40
14.0
 40
14.0
 40
15.0
 40
15.0
 40
15.0
 40
16.0
 40
16.0
 40
16.0
 40
17.0
 40
17.0
 40
17.0
 40
18.0
 40
18.0
 40
18.0
 40
18.0
 10
10.26159586332002
 20
-8.337785642446803
 30
0.0
 10
10.28276597507688
 20
-8.351342093181258
 30
0.0
 10
10.33187581121911
 20
-8.372512204938121
 30
0.0
 10
10.38353501802044
 20
-8.372512204938121
 30
0.0
 10
10.47920531964582
 20
-8.372512204938121
 30
0.0
 10
10.5088503662964
 20
-8.3115340148492
 30
0.0
 10
10.50800631790251
 20
-8.265817597759934
 30
0.0
 10
10.50716226950863
 20
-8.188768037232323
 30
0.0
 10
10.43772637000341
 20
-8.155746797006202
 30
0.0
 10
10.36575832531655
 20
-8.155746797006202
 30
0.0
 10
10.36575832531655
 20
-8.155746797006202
 30
0.0
 10
10.32426215019671
 20
-8.155746797006202
 30
0.0
 10
10.32426215019671
 20
-8.155746797006202
 30
0.0
 10
10.32426215019671
 20
-8.155746797006202
 30
0.0
 10
10.32426215019671
 20
-8.099850122758022
 30
0.0
 10
10.32426215019671
 20
-8.099850122758022
 30
0.0
 10
10.32426215019671
 20
-8.099850122758022
 30
0.0
 10
10.36575832531655
 20
-8.099850122758022
 30
0.0
 10
10.36575832531655
 20
-8.099850122758022
 30
0.0
 10
10.41994967729953
 20
-8.099850122758022
 30
0.0
 10
10.48852430293342
 20
-8.071910398372647
 30
0.0
 10
10.48852430293342
 20
-8.006711966314293
 30
0.0
 10
10.48852430293342
 20
-7.9626836460128
 30
0.0
 10
10.46058457854805
 20
-7.923736841552051
 30
0.0
 10
10.39199272743672
 20
-7.923736841552051
 30
0.0
 10
10.34796440713523
 20
-7.923736841552051
 30
0.0
 10
10.30562418362151
 20
-7.943201631043713
 30
0.0
 10
10.28192192668299
 20
-7.960151500831142
 30
0.0
 10
10.28192192668299
 20
-7.960151500831142
 30
0.0
 10
10.2624399117139
 20
-7.905960148848161
 30
0.0
 10
10.2624399117139
 20
-7.905960148848161
 30
0.0
 10
10.29124090997059
 20
-7.884790037091303
 30
0.0
 10
10.34712035874134
 20
-7.863619925334442
 30
0.0
 10
10.40639322656507
 20
-7.863619925334442
 30
0.0
 10
10.51477593053103
 20
-7.863619925334442
 30
0.0
 10
10.56390299215069
 20
-7.927974308998908
 30
0.0
 10
10.56390299215069
 20
-7.994860837845034
 30
0.0
 10
10.56390299215069
 20
-8.051584335009673
 30
0.0
 10
10.53002047805326
 20
-8.099850122758022
 30
0.0
 10
10.46227267533582
 20
-8.124413653567854
 30
0.0
 10
10.46227267533582
 20
-8.124413653567854
 30
0.0
 10
10.46227267533582
 20
-8.126101750355626
 30
0.0
 10
10.46227267533582
 20
-8.126101750355626
 30
0.0
 10
10.53002047805326
 20
-8.139658201090083
 30
0.0
 10
10.58505587843012
 20
-8.190456134020093
 30
0.0
 10
10.58505587843012
 20
-8.267505694547706
 30
0.0
 10
10.58505587843012
 20
-8.35557956062812
 30
0.0
 10
10.5164640273188
 20
-8.432629121155731
 30
0.0
 10
10.38437906641432
 20
-8.432629121155731
 30
0.0
 10
10.32257405340894
 20
-8.432629121155731
 30
0.0
 10
10.26838270142596
 20
-8.413147106186643
 30
0.0
 10
10.24128702543447
 20
-8.395370413482753
 30
0.0
 10
10.24128702543447
 20
-8.395370413482753
 30
0.0
 10
10.26159586332002
 20
-8.337785642446803
 30
0.0
 10
10.26159586332002
 20
-8.337785642446803
 30
0.0
  0
HATCH
  5
6F
330
68
100
AcDbEntity
  8
Livello 1
 62
   250
420
  1842203
100
AcDbHatch
 10
0.0
 20
0.0
 30
0.0
210
0.0
220
0.0
230
1.0
  2
SOLID
 70
     1
 71
     0
 91
        1
 92
        1
 93
        1
 72
     4
 94
        3
 73
     0
 74
     0
 95
       59
 96
       55
 40
0.0
 40
0.0
 40
0.0
 40
0.0
 40
1.0
 40
1.0
 40
1.0
 40
2.0
 40
2.0
 40
2.0
 40
3.0
 40
3.0
 40
3.0
 40
4.0
 40
4.0
 40
4.0
 40
5.0
 40
5.0
 40
5.0
 40
6.0
 40
6.0
 40
6.0
 40
7.0
 40
7.0
 40
7.0
 40
8.0
 40
8.0
 40
8.0
 40
9.0
 40
9.0
 40
9.0
 40
10.0
 40
10.0
 40
10.0
 40
11.0
 40
11.0
 40
11.0
 40
12.0
 40
12.0
 40
12.0
 40
13.0
 40
13.0
 40
13.0
 40
14.0
 40
14.0
 40
14.0
 40
15.0
 40
15.0
 40
15.0
 40
16.0
 40
16.0
 40
16.0
 40
17.0
 40
17.0
 40
17.0
 40
18.0
 40
18.0
 40
18.0
 40
18.0
 10
10.26159586332002
 20
-8.337785642446803
 10
10.28276597507688
 20
-8.351342093181258
 10
10.33187581121911
 20
-8.372512204938121
 10
10.38353501802044
 20
-8.372512204938121
 10
10.47920531964582
 20
-8.372512204938121
 10
10.5088503662964
 20
-8.3115340148492
 10
10.50800631790251
 20
-8.265817597759934
 10
10.50716226950863
 20
-8.188768037232323
 10
10.43772637000341
 20
-8.155746797006202
 10
10.36575832531655
 20
-8.155746797006202
 10
10.36575832531655
 20
-8.155746797006202
 10
10.32426215019671
 20
-8.155746797006202
 10
10.32426215019671
 20
-8.155746797006202
 10
10.32426215019671
 20
-8.155746797006202
 10
10.32426215019671
 20
-8.099850122758022
 10
10.32426215019671
 20
-8.099850122758022
 10
10.32426215019671
 20
-8.099850122758022
 10
10.36575832531655
 20
-8.099850122758022
 10
10.36575832531655
 20
-8.099850122758022
 10
10.41994967729953
 20
-8.099850122758022
 10
10.48852430293342
 20
-8.071910398372647
 10
10.48852430293342
 20
-8.006711966314293
 10
10.48852430293342
 20
-7.9626836460128
 10
10.46058457854805
 20
-7.923736841552051
 10
10.39199272743672
 20
-7.923736841552051
 10
10.34796440713523
 20
-7.923736841552051
 10
10.30562418362151
 20
-7.943201631043713
 10
10.28192192668299
 20
-7.960151500831142
 10
10.28192192668299
 20
-7.960151500831142
 10
10.2624399117139
 20
-7.905960148848161
 10
10.2624399117139
 20
-7.905960148848161
 10
10.29124090997059
 20
-7.884790037091303
 10
10.34712035874134
 20
-7.863619925334442
 10
10.40639322656507
 20
-7.863619925334442
 10
10.51477593053103
 20
-7.863619925334442
 10
10.56390299215069
 20
-7.927974308998908
 10
10.56390299215069
 20
-7.994860837845034
 10
10.56390299215069
 20
-8.051584335009673
 10
10.53002047805326
 20
-8.099850122758022
 10
10.46227267533582
 20
-8.124413653567854
 10
10.46227267533582
 20
-8.124413653567854
 10
10.46227267533582
 20
-8.126101750355626
 10
10.46227267533582
 20
-8.126101750355626
 10
10.53002047805326
 20
-8.139658201090083
 10
10.58505587843012
 20
-8.190456134020093
 10
10.58505587843012
 20
-8.267505694547706
 10
10.58505587843012
 20
-8.35557956062812
 10
10.5164640273188
 20
-8.432629121155731
 10
10.38437906641432
 20
-8.432629121155731
 10
10.32257405340894
 20
-8.432629121155731
 10
10.26838270142596
 20
-8.413147106186643
 10
10.24128702543447
 20
-8.395370413482753
 10
10.24128702543447
 20
-8.395370413482753
 10
10.26159586332002
 20
-8.337785642446803
 10
10.26159586332002
 20
-8.337785642446803
 97
        0
 97
        0
 75
     2
 76
     1
 98
        0
450
        0
451
        0
460
0.0
461
0.0
452
        0
462
0.0
453
        0
470

  0
SPLINE
  5
70
330
68
100
AcDbEntity
  8
Livello 1
370
     0
100
AcDbSpline
210
0.0
220
0.0
230
1.0
 70
     9
 71
     3
 72
    17
 73
    13
 74
     0
 42
0.000000001
 43
0.0000000001
 40
0.0
 40
0.0
 40
0.0
 40
0.0
 40
1.0
 40
1.0
 40
1.0
 40
2.0
 40
2.0
 40
2.0
 40
3.0
 40
3.0
 40
3.0
 40
4.0
 40
4.0
 40
4.0
 40
4.0
 10
10.6536132785866
 20
-8.527455374387232
 30
0.0
 10
10.67221679420694
 20
-8.47750148985111
 30
0.0
 10
10.695092228229
 20
-8.386895478589039
 30
0.0
 10
10.70439398603918
 20
-8.325090465583656
 30
0.0
 10
10.70439398603918
 20
-8.325090465583656
 30
0.0
 10
10.78738633627885
 20
-8.316615530689942
 30
0.0
 10
10.78738633627885
 20
-8.316615530689942
 30
0.0
 10
10.76792154678719
 20
-8.388600800854236
 30
0.0
 10
10.73064561363678
 20
-8.482583005691854
 30
0.0
 10
10.70694335669826
 20
-8.522373858546488
 30
0.0
 10
10.70694335669826
 20
-8.522373858546488
 30
0.0
 10
10.6536132785866
 20
-8.527455374387232
 30
0.0
 10
10.6536132785866
 20
-8.527455374387232
 30
0.0
  0
HATCH
  5
71
330
68
100
AcDbEntity
  8
Livello 1
 62
   250
420
  1842203
100
AcDbHatch
 10
0.0
 20
0.0
 30
0.0
210
0.0
220
0.0
230
1.0
  2
SOLID
 70
     1
 71
     0
 91
        1
 92
        1
 93
        1
 72
     4
 94
        3
 73
     0
 74
     0
 95
       17
 96
       13
 40
0.0
 40
0.0
 40
0.0
 40
0.0
 40
1.0
 40
1.0
 40
1.0
 40
2.0
 40
2.0
 40
2.0
 40
3.0
 40
3.0
 40
3.0
 40
4.0
 40
4.0
 40
4.0
 40
4.0
 10
10.6536132785866
 20
-8.527455374387232
 10
10.67221679420694
 20
-8.47750148985111
 10
10.695092228229
 20
-8.386895478589039
 10
10.70439398603918
 20
-8.325090465583656
 10
10.70439398603918
 20
-8.325090465583656
 10
10.78738633627885
 20
-8.316615530689942
 10
10.78738633627885
 20
-8.316615530689942
 10
10.76792154678719
 20
-8.388600800854236
 10
10.73064561363678
 20
-8.482583005691854
 10
10.70694335669826
 20
-8.522373858546488
 10
10.70694335669826
 20
-8.522373858546488
 10
10.6536132785866
 20
-8.527455374387232
 10
10.6536132785866
 20
-8.527455374387232
 97
        0
 97
        0
 75
     2
 76
     1
 98
        0
450
        0
451
        0
460
0.0
461
0.0
452
        0
462
0.0
453
        0
470

  0
SPLINE
  5
72
330
68
100
AcDbEntity
  8
Livello 1
370
     0
100
AcDbSpline
210
0.0
220
0.0
230
1.0
 70
    11
 71
     3
 72
    50
 73
    46
 74
     0
 42
0.000000001
 43
0.0000000001
 40
0.0
 40
0.0
 40
0.0
 40
0.0
 40
1.0
 40
1.0
 40
1.0
 40
2.0
 40
2.0
 40
2.0
 40
3.0
 40
3.0
 40
3.0
 40
4.0
 40
4.0
 40
4.0
 40
5.0
 40
5.0
 40
5.0
 40
6.0
 40
6.0
 40
6.0
 40
7.0
 40
7.0
 40
7.0
 40
8.0
 40
8.0
 40
8.0
 40
9.0
 40
9.0
 40
9.0
 40
10.0
 40
10.0
 40
10.0
 40
11.0
 40
11.0
 40
11.0
 40
12.0
 40
12.0
 40
12.0
 40
13.0
 40
13.0
 40
13.0
 40
14.0
 40
14.0
 40
14.0
 40
15.0
 40
15.0
 40
15.0
 40
15.0
 10
11.18195312220451
 20
-7.935587970021309
 30
0.0
 10
11.18195312220451
 20
-7.935587970021309
 30
0.0
 10
10.97194010142368
 20
-7.935587970021309
 30
0.0
 10
10.97194010142368
 20
-7.935587970021309
 30
0.0
 10
10.97194010142368
 20
-7.935587970021309
 30
0.0
 10
10.95078721514425
 20
-8.076991914213389
 30
0.0
 10
10.95078721514425
 20
-8.076991914213389
 30
0.0
 10
10.96346516652997
 20
-8.075303817425618
 30
0.0
 10
10.97535074595408
 20
-8.073598495160419
 30
0.0
 10
10.9956423583622
 20
-8.073598495160419
 30
0.0
 10
11.03798258187592
 20
-8.073598495160419
 30
0.0
 10
11.08032280538964
 20
-8.082917478448019
 30
0.0
 10
11.11418809400965
 20
-8.103243541810991
 30
0.0
 10
11.15738959139468
 20
-8.127789847143398
 30
0.0
 10
11.19294297680246
 20
-8.175211586497862
 30
0.0
 10
11.19294297680246
 20
-8.244647486003072
 30
0.0
 10
11.19294297680246
 20
-8.352186141575147
 30
0.0
 10
11.10743570685856
 20
-8.432629121155731
 30
0.0
 10
10.9880286973398
 20
-8.432629121155731
 30
0.0
 10
10.92791178112219
 20
-8.432629121155731
 30
0.0
 10
10.87709662271475
 20
-8.415696476845726
 30
0.0
 10
10.850879446072
 20
-8.398746607058299
 30
0.0
 10
10.850879446072
 20
-8.398746607058299
 30
0.0
 10
10.86948296169235
 20
-8.342023109893659
 30
0.0
 10
10.86948296169235
 20
-8.342023109893659
 30
0.0
 10
10.89235839571441
 20
-8.35557956062812
 30
0.0
 10
10.93724798988722
 20
-8.372512204938121
 30
0.0
 10
10.98720187442334
 20
-8.372512204938121
 30
0.0
 10
11.05748182232244
 20
-8.372512204938121
 30
0.0
 10
11.11759873854004
 20
-8.326778562371428
 30
0.0
 10
11.11759873854004
 20
-8.253122420896788
 30
0.0
 10
11.11673746466873
 20
-8.181981199126379
 30
0.0
 10
11.06933295079169
 20
-8.131183266196369
 30
0.0
 10
10.95926215003796
 20
-8.131183266196369
 30
0.0
 10
10.92791178112219
 20
-8.131183266196369
 30
0.0
 10
10.90334825031236
 20
-8.134576685249339
 30
0.0
 10
10.88305663790424
 20
-8.137108830430999
 30
0.0
 10
10.88305663790424
 20
-8.137108830430999
 30
0.0
 10
10.91861002331201
 20
-7.872921683144616
 30
0.0
 10
10.91861002331201
 20
-7.872921683144616
 30
0.0
 10
10.91861002331201
 20
-7.872921683144616
 30
0.0
 10
11.18195312220451
 20
-7.872921683144616
 30
0.0
 10
11.18195312220451
 20
-7.872921683144616
 30
0.0
 10
11.18195312220451
 20
-7.872921683144616
 30
0.0
 10
11.18195312220451
 20
-7.935587970021309
 30
0.0
 10
11.18195312220451
 20
-7.935587970021309
 30
0.0
  0
HATCH
  5
73
330
68
100
AcDbEntity
  8
Livello 1
 62
   250
420
  1842203
100
AcDbHatch
 10
0.0
 20
0.0
 30
0.0
210
0.0
220
0.0
230
1.0
  2
SOLID
 70
     1
 71
     0
 91
        1
 92
        1
 93
        1
 72
     4
 94
        3
 73
     0
 74
     0
 95
       50
 96
       46
 40
0.0
 40
0.0
 40
0.0
 40
0.0
 40
1.0
 40
1.0
 40
1.0
 40
2.0
 40
2.0
 40
2.0
 40
3.0
 40
3.0
 40
3.0
 40
4.0
 40
4.0
 40
4.0
 40
5.0
 40
5.0
 40
5.0
 40
6.0
 40
6.0
 40
6.0
 40
7.0
 40
7.0
 40
7.0
 40
8.0
 40
8.0
 40
8.0
 40
9.0
 40
9.0
 40
9.0
 40
10.0
 40
10.0
 40
10.0
 40
11.0
 40
11.0
 40
11.0
 40
12.0
 40
12.0
 40
12.0
 40
13.0
 40
13.0
 40
13.0
 40
14.0
 40
14.0
 40
14.0
 40
15.0
 40
15.0
 40
15.0
 40
15.0
 10
11.18195312220451
 20
-7.935587970021309
 10
11.18195312220451
 20
-7.935587970021309
 10
10.97194010142368
 20
-7.935587970021309
 10
10.97194010142368
 20
-7.935587970021309
 10
10.97194010142368
 20
-7.935587970021309
 10
10.95078721514425
 20
-8.076991914213389
 10
10.95078721514425
 20
-8.076991914213389
 10
10.96346516652997
 20
-8.075303817425618
 10
10.97535074595408
 20
-8.073598495160419
 10
10.9956423583622
 20
-8.073598495160419
 10
11.03798258187592
 20
-8.073598495160419
 10
11.08032280538964
 20
-8.082917478448019
 10
11.11418809400965
 20
-8.103243541810991
 10
11.15738959139468
 20
-8.127789847143398
 10
11.19294297680246
 20
-8.175211586497862
 10
11.19294297680246
 20
-8.244647486003072
 10
11.19294297680246
 20
-8.352186141575147
 10
11.10743570685856
 20
-8.432629121155731
 10
10.9880286973398
 20
-8.432629121155731
 10
10.92791178112219
 20
-8.432629121155731
 10
10.87709662271475
 20
-8.415696476845726
 10
10.850879446072
 20
-8.398746607058299
 10
10.850879446072
 20
-8.398746607058299
 10
10.86948296169235
 20
-8.342023109893659
 10
10.86948296169235
 20
-8.342023109893659
 10
10.89235839571441
 20
-8.35557956062812
 10
10.93724798988722
 20
-8.372512204938121
 10
10.98720187442334
 20
-8.372512204938121
 10
11.05748182232244
 20
-8.372512204938121
 10
11.11759873854004
 20
-8.326778562371428
 10
11.11759873854004
 20
-8.253122420896788
 10
11.11673746466873
 20
-8.181981199126379
 10
11.06933295079169
 20
-8.131183266196369
 10
10.95926215003796
 20
-8.131183266196369
 10
10.92791178112219
 20
-8.131183266196369
 10
10.90334825031236
 20
-8.134576685249339
 10
10.88305663790424
 20
-8.137108830430999
 10
10.88305663790424
 20
-8.137108830430999
 10
10.91861002331201
 20
-7.872921683144616
 10
10.91861002331201
 20
-7.872921683144616
 10
10.91861002331201
 20
-7.872921683144616
 10
11.18195312220451
 20
-7.872921683144616
 10
11.18195312220451
 20
-7.872921683144616
 10
11.18195312220451
 20
-7.872921683144616
 10
11.18195312220451
 20
-7.935587970021309
 10
11.18195312220451
 20
-7.935587970021309
 97
        0
 97
        0
 75
     2
 76
     1
 98
        0
450
        0
451
        0
460
0.0
461
0.0
452
        0
462
0.0
453
        0
470

  0
ENDBLK
  5
6B
330
68
100
AcDbEntity
  8
0
100
AcDbBlockEnd
  0
BLOCK
  5
76
330
74
100
AcDbEntity
  8
0
100
AcDbBlockBegin
  2
block 7
 70
     0
 10
0.0
 20
0.0
 30
0.0
  3
block 7
  1

  0
POLYLINE
  5
78
330
74
100
AcDbEntity
  8
Livello 1
370
     0
100
AcDb2dPolyline
 66
     1
 10
0.0
 20
0.0
 30
0.0
  0
VERTEX
  5
79
330
78
100
AcDbEntity
  8
Livello 1
370
     0
100
AcDbVertex
100
AcDb2dVertex
 10
14.90665255703722
 20
-7.942357582649825
 30
0.0
  0
VERTEX
  5
7A
330
78
100
AcDbEntity
  8
Livello 1
370
     0
100
AcDbVertex
100
AcDb2dVertex
 10
14.90496446024945
 20
-7.942357582649825
 30
0.0
  0
VERTEX
  5
7B
330
78
100
AcDbEntity
  8
Livello 1
370
     0
100
AcDbVertex
100
AcDb2dVertex
 10
14.80925970766921
 20
-7.994016789451147
 30
0.0
  0
VERTEX
  5
7C
330
78
100
AcDbEntity
  8
Livello 1
370
     0
100
AcDbVertex
100
AcDb2dVertex
 10
14.79485920854087
 20
-7.937276066809081
 30
0.0
  0
VERTEX
  5
7D
330
78
100
AcDbEntity
  8
Livello 1
370
     0
100
AcDbVertex
100
AcDb2dVertex
 10
14.91509304097609
 20
-7.872921683144616
 30
0.0
  0
VERTEX
  5
7E
330
78
100
AcDbEntity
  8
Livello 1
370
     0
100
AcDbVertex
100
AcDb2dVertex
 10
14.97862060172409
 20
-7.872921683144616
 30
0.0
  0
VERTEX
  5
7F
330
78
100
AcDbEntity
  8
Livello 1
370
     0
100
AcDbVertex
100
AcDb2dVertex
 10
14.97862060172409
 20
-8.42331013786813
 30
0.0
  0
VERTEX
  5
80
330
78
100
AcDbEntity
  8
Livello 1
370
     0
100
AcDbVertex
100
AcDb2dVertex
 10
14.90665255703722
 20
-8.42331013786813
 30
0.0
  0
VERTEX
  5
81
330
78
100
AcDbEntity
  8
Livello 1
370
     0
100
AcDbVertex
100
AcDb2dVertex
 10
14.90665255703722
 20
-7.942357582649825
 30
0.0
  0
SEQEND
  5
82
330
78
100
AcDbEntity
  8
Livello 1
370
     0
  0
HATCH
  5
83
330
74
100
AcDbEntity
  8
Livello 1
 62
   250
420
  1842203
100
AcDbHatch
 10
0.0
 20
0.0
 30
0.0
210
0.0
220
0.0
230
1.0
  2
SOLID
 70
     1
 71
     0
 91
        1
 92
        1
 93
        8
 72
     1
 10
14.90665255703722
 20
-7.942357582649825
 11
14.90496446024945
 21
-7.942357582649825
 72
     1
 10
14.90496446024945
 20
-7.942357582649825
 11
14.80925970766921
 21
-7.994016789451147
 72
     1
 10
14.80925970766921
 20
-7.994016789451147
 11
14.79485920854087
 21
-7.937276066809081
 72
     1
 10
14.79485920854087
 20
-7.937276066809081
 11
14.91509304097609
 21
-7.872921683144616
 72
     1
 10
14.91509304097609
 20
-7.872921683144616
 11
14.97862060172409
 21
-7.872921683144616
 72
     1
 10
14.97862060172409
 20
-7.872921683144616
 11
14.97862060172409
 21
-8.42331013786813
 72
     1
 10
14.97862060172409
 20
-8.42331013786813
 11
14.90665255703722
 21
-8.42331013786813
 72
     1
 10
14.90665255703722
 20
-8.42331013786813
 11
14.90665255703722
 21
-7.942357582649825
 97
        0
 75
     2
 76
     1
 98
        0
450
        0
451
        0
460
0.0
461
0.0
452
        0
462
0.0
453
        0
470

  0
POLYLINE
  5
84
330
74
100
AcDbEntity
  8
Livello 1
370
     0
100
AcDb2dPolyline
 66
     1
 10
0.0
 20
0.0
 30
0.0
  0
VERTEX
  5
85
330
84
100
AcDbEntity
  8
Livello 1
370
     0
100
AcDbVertex
100
AcDb2dVertex
 10
15.53655381556031
 20
-7.872921683144616
 30
0.0
  0
VERTEX
  5
86
330
84
100
AcDbEntity
  8
Livello 1
370
     0
100
AcDbVertex
100
AcDb2dVertex
 10
15.53655381556031
 20
-7.922048744764278
 30
0.0
  0
VERTEX
  5
87
330
84
100
AcDbEntity
  8
Livello 1
370
     0
100
AcDbVertex
100
AcDb2dVertex
 10
15.29694742456118
 20
-8.42331013786813
 30
0.0
  0
VERTEX
  5
88
330
84
100
AcDbEntity
  8
Livello 1
370
     0
100
AcDbVertex
100
AcDb2dVertex
 10
15.21988063855614
 20
-8.42331013786813
 30
0.0
  0
VERTEX
  5
89
330
84
100
AcDbEntity
  8
Livello 1
370
     0
100
AcDbVertex
100
AcDb2dVertex
 10
15.45866020663881
 20
-7.936432018415197
 30
0.0
  0
VERTEX
  5
8A
330
84
100
AcDbEntity
  8
Livello 1
370
     0
100
AcDbVertex
100
AcDb2dVertex
 10
15.45866020663881
 20
-7.934743921627423
 30
0.0
  0
VERTEX
  5
8B
330
84
100
AcDbEntity
  8
Livello 1
370
     0
100
AcDbVertex
100
AcDb2dVertex
 10
15.18939154351168
 20
-7.934743921627423
 30
0.0
  0
VERTEX
  5
8C
330
84
100
AcDbEntity
  8
Livello 1
370
     0
100
AcDbVertex
100
AcDb2dVertex
 10
15.18939154351168
 20
-7.872921683144616
 30
0.0
  0
VERTEX
  5
8D
330
84
100
AcDbEntity
  8
Livello 1
370
     0
100
AcDbVertex
100
AcDb2dVertex
 10
15.53655381556031
 20
-7.872921683144616
 30
0.0
  0
SEQEND
  5
8E
330
84
100
AcDbEntity
  8
Livello 1
370
     0
  0
HATCH
  5
8F
330
74
100
AcDbEntity
  8
Livello 1
 62
   250
420
  1842203
100
AcDbHatch
 10
0.0
 20
0.0
 30
0.0
210
0.0
220
0.0
230
1.0
  2
SOLID
 70
     1
 71
     0
 91
        1
 92
        1
 93
        8
 72
     1
 10
15.53655381556031
 20
-7.872921683144616
 11
15.53655381556031
 21
-7.922048744764278
 72
     1
 10
15.53655381556031
 20
-7.922048744764278
 11
15.29694742456118
 21
-8.42331013786813
 72
     1
 10
15.29694742456118
 20
-8.42331013786813
 11
15.21988063855614
 21
-8.42331013786813
 72
     1
 10
15.21988063855614
 20
-8.42331013786813
 11
15.45866020663881
 21
-7.936432018415197
 72
     1
 10
15.45866020663881
 20
-7.936432018415197
 11
15.45866020663881
 21
-7.934743921627423
 72
     1
 10
15.45866020663881
 20
-7.934743921627423
 11
15.18939154351168
 21
-7.934743921627423
 72
     1
 10
15.18939154351168
 20
-7.934743921627423
 11
15.18939154351168
 21
-7.872921683144616
 72
     1
 10
15.18939154351168
 20
-7.872921683144616
 11
15.53655381556031
 21
-7.872921683144616
 97
        0
 75
     2
 76
     1
 98
        0
450
        0
451
        0
460
0.0
461
0.0
452
        0
462
0.0
453
        0
470

  0
ENDBLK
  5
77
330
74
100
AcDbEntity
  8
0
100
AcDbBlockEnd
  0
ENDSEC
  0
SECTION
  2
ENTITIES
  0
SPLINE
  5
41
330
1F
100
AcDbEntity
  8
Livello 1
100
AcDbSpline
210
0.0
220
0.0
230
1.0
 70
    11
 71
     3
 72
    17
 73
    13
 74
     0
 42
0.000000001
 43
0.0000000001
 40
0.0
 40
0.0
 40
0.0
 40
0.0
 40
1.0
 40
1.0
 40
1.0
 40
2.0
 40
2.0
 40
2.0
 40
3.0
 40
3.0
 40
3.0
 40
4.0
 40
4.0
 40
4.0
 40
4.0
 10
13.03679308407036
 20
-4.567205748858203
 30
0.0
 10
13.03679308407036
 20
-5.851524998537114
 30
0.0
 10
11.99564711063221
 20
-6.892670998276843
 30
0.0
 10
10.71132789339793
 20
-6.892670998276843
 30
0.0
 10
9.427008676163636
 20
-6.892670998276843
 30
0.0
 10
8.385862702725482
 20
-5.851524998537114
 30
0.0
 10
8.385862702725482
 20
-4.567205748858203
 30
0.0
 10
8.385862702725482
 20
-3.282886499179291
 30
0.0
 10
9.427008676163636
 20
-2.241740499439563
 30
0.0
 10
10.71132789339793
 20
-2.241740499439563
 30
0.0
 10
11.99564711063221
 20
-2.241740499439563
 30
0.0
 10
13.03679308407036
 20
-3.282886499179291
 30
0.0
 10
13.03679308407036
 20
-4.567205748858203
 30
0.0
  0
SPLINE
  5
C0
330
1F
100
AcDbEntity
  8
Livello 1
100
AcDbSpline
210
0.0
220
0.0
230
1.0
 70
     8
 71
     3
 72
    14
 73
    10
 74
     0
 42
0.000000001
 43
0.0000000001
 40
0.0
 40
0.0
 40
0.0
 40
0.0
 40
1.0
 40
1.0
 40
1.0
 40
2.0
 40
2.0
 40
2.0
 40
3.0
 40
3.0
 40
3.0
 40
3.0
 10
16.35915533264318
 20
-4.567205748858203
 30
0.0
 10
16.35198336060392
 20
-3.268323832516263
 30
0.0
 10
15.83097998500694
 20
-2.227244860554304
 30
0.0
 10
15.19546847344241
 20
-2.241892193883955
 30
0.0
 10
14.89415392557403
 20
-2.248838388326693
 30
0.0
 10
14.60619944079288
 20
-2.497056360486837
 30
0.0
 10
14.39345996612558
 20
-2.933220221488903
 30
0.0
 10
14.39345996612558
 20
-2.933220221488903
 30
0.0
 10
14.18172980486059
 20
-3.457222221357915
 30
0.0
 10
14.18172980486059
 20
-3.457222221357915
 30
0.0
  0
POLYLINE
  5
C1
330
1F
100
AcDbEntity
  8
Livello 1
100
AcDb2dPolyline
 66
     1
 10
0.0
 20
0.0
 30
0.0
  0
VERTEX
  5
C2
330
C1
100
AcDbEntity
  8
Livello 1
100
AcDbVertex
100
AcDb2dVertex
 10
13.9699999965075
 20
-4.564623415525521
 30
0.0
  0
VERTEX
  5
C3
330
C1
100
AcDbEntity
  8
Livello 1
100
AcDbVertex
100
AcDb2dVertex
 10
13.9699999965075
 20
-3.457222221357915
 30
0.0
  0
VERTEX
  5
C4
330
C1
100
AcDbEntity
  8
Livello 1
100
AcDbVertex
100
AcDb2dVertex
 10
14.18172980486059
 20
-3.457222221357915
 30
0.0
  0
VERTEX
  5
C5
330
C1
100
AcDbEntity
  8
Livello 1
100
AcDbVertex
100
AcDb2dVertex
 10
14.18172980486059
 20
-4.564623415525521
 30
0.0
  0
SEQEND
  5
C6
330
C1
100
AcDbEntity
  8
Livello 1
  0
SPLINE
  5
C7
330
1F
100
AcDbEntity
  8
Livello 1
100
AcDbSpline
210
0.0
220
0.0
230
1.0
 70
     8
 71
     3
 72
    14
 73
    10
 74
     0
 42
0.000000001
 43
0.0000000001
 40
0.0
 40
0.0
 40
0.0
 40
0.0
 40
1.0
 40
1.0
 40
1.0
 40
2.0
 40
2.0
 40
2.0
 40
3.0
 40
3.0
 40
3.0
 40
3.0
 10
16.35915533264318
 20
-4.567205748858203
 30
0.0
 10
16.35575455495216
 20
-5.183035804259784
 30
0.0
 10
16.23430416260807
 20
-5.771574970779316
 30
0.0
 10
16.0208978968284
 20
-6.206380637337288
 30
0.0
 10
15.57078874164497
 20
-7.123454692663566
 30
0.0
 10
14.84215801023389
 20
-7.121133414886388
 30
0.0
 10
14.39345996612558
 20
-6.201194804005253
 30
0.0
 10
14.39345996612558
 20
-6.201194804005253
 30
0.0
 10
14.18172980486059
 20
-5.672028137470879
 30
0.0
 10
14.18172980486059
 20
-5.672028137470879
 30
0.0
  0
POLYLINE
  5
C8
330
1F
100
AcDbEntity
  8
Livello 1
100
AcDb2dPolyline
 66
     1
 10
0.0
 20
0.0
 30
0.0
  0
VERTEX
  5
C9
330
C8
100
AcDbEntity
  8
Livello 1
100
AcDbVertex
100
AcDb2dVertex
 10
13.9699999965075
 20
-4.564623415525521
 30
0.0
  0
VERTEX
  5
CA
330
C8
100
AcDbEntity
  8
Livello 1
100
AcDbVertex
100
AcDb2dVertex
 10
13.9699999965075
 20
-5.672028137470879
 30
0.0
  0
VERTEX
  5
CB
330
C8
100
AcDbEntity
  8
Livello 1
100
AcDbVertex
100
AcDb2dVertex
 10
14.18172980486059
 20
-5.672028137470879
 30
0.0
  0
VERTEX
  5
CC
330
C8
100
AcDbEntity
  8
Livello 1
100
AcDbVertex
100
AcDb2dVertex
 10
14.18172980486059
 20
-4.564623415525521
 30
0.0
  0
SEQEND
  5
CD
330
C8
100
AcDbEntity
  8
Livello 1
  0
LINE
  5
CE
330
1F
100
AcDbEntity
  8
Livello 1
100
AcDbLine
 10
8.385862702725482
 20
-7.67487654129116
 30
0.0
 11
13.03679308407036
 21
-7.67487654129116
 31
0.0
  0
LINE
  5
CF
330
1F
100
AcDbEntity
  8
Livello 1
100
AcDbLine
 10
13.9699999965075
 20
-7.549444442557081
 30
0.0
 11
16.35915533264318
 21
-7.549444442557081
 31
0.0
  0
SPLINE
  5
D0
330
1F
100
AcDbEntity
  8
Livello 1
100
AcDbSpline
210
0.0
220
0.0
230
1.0
 70
     9
 71
     3
 72
    59
 73
    55
 74
     0
 42
0.000000001
 43
0.0000000001
 40
0.0
 40
0.0
 40
0.0
 40
0.0
 40
1.0
 40
1.0
 40
1.0
 40
2.0
 40
2.0
 40
2.0
 40
3.0
 40
3.0
 40
3.0
 40
4.0
 40
4.0
 40
4.0
 40
5.0
 40
5.0
 40
5.0
 40
6.0
 40
6.0
 40
6.0
 40
7.0
 40
7.0
 40
7.0
 40
8.0
 40
8.0
 40
8.0
 40
9.0
 40
9.0
 40
9.0
 40
10.0
 40
10.0
 40
10.0
 40
11.0
 40
11.0
 40
11.0
 40
12.0
 40
12.0
 40
12.0
 40
13.0
 40
13.0
 40
13.0
 40
14.0
 40
14.0
 40
14.0
 40
15.0
 40
15.0
 40
15.0
 40
16.0
 40
16.0
 40
16.0
 40
17.0
 40
17.0
 40
17.0
 40
18.0
 40
18.0
 40
18.0
 40
18.0
 10
9.827272675494571
 20
-8.337785642446803
 30
0.0
 10
9.848442787251428
 20
-8.351342093181258
 30
0.0
 10
9.897552623393668
 20
-8.372512204938121
 30
0.0
 10
9.949211830194988
 20
-8.372512204938121
 30
0.0
 10
10.04488213182038
 20
-8.372512204938121
 30
0.0
 10
10.07452717847095
 20
-8.3115340148492
 30
0.0
 10
10.07368313007706
 20
-8.265817597759934
 30
0.0
 10
10.07283908168318
 20
-8.188768037232323
 30
0.0
 10
10.00340318217797
 20
-8.155746797006202
 30
0.0
 10
9.931435137491098
 20
-8.155746797006202
 30
0.0
 10
9.931435137491098
 20
-8.155746797006202
 30
0.0
 10
9.889938962371264
 20
-8.155746797006202
 30
0.0
 10
9.889938962371264
 20
-8.155746797006202
 30
0.0
 10
9.889938962371264
 20
-8.155746797006202
 30
0.0
 10
9.889938962371264
 20
-8.099850122758022
 30
0.0
 10
9.889938962371264
 20
-8.099850122758022
 30
0.0
 10
9.889938962371264
 20
-8.099850122758022
 30
0.0
 10
9.931435137491098
 20
-8.099850122758022
 30
0.0
 10
9.931435137491098
 20
-8.099850122758022
 30
0.0
 10
9.985626489474078
 20
-8.099850122758022
 30
0.0
 10
10.05420111510798
 20
-8.071910398372647
 30
0.0
 10
10.05420111510798
 20
-8.006711966314293
 30
0.0
 10
10.05420111510798
 20
-7.9626836460128
 30
0.0
 10
10.0262613907226
 20
-7.923736841552051
 30
0.0
 10
9.957669539611275
 20
-7.923736841552051
 30
0.0
 10
9.913641219309782
 20
-7.923736841552051
 30
0.0
 10
9.871300995796062
 20
-7.943201631043713
 30
0.0
 10
9.847598738857543
 20
-7.960151500831142
 30
0.0
 10
9.847598738857543
 20
-7.960151500831142
 30
0.0
 10
9.828116723888456
 20
-7.905960148848161
 30
0.0
 10
9.828116723888456
 20
-7.905960148848161
 30
0.0
 10
9.856917722145144
 20
-7.884790037091303
 30
0.0
 10
9.912797170915897
 20
-7.863619925334442
 30
0.0
 10
9.972070038739619
 20
-7.863619925334442
 30
0.0
 10
10.08045274270558
 20
-7.863619925334442
 30
0.0
 10
10.12956257884782
 20
-7.927974308998908
 30
0.0
 10
10.12956257884782
 20
-7.994860837845034
 30
0.0
 10
10.12956257884782
 20
-8.051584335009673
 30
0.0
 10
10.09569729022781
 20
-8.099850122758022
 30
0.0
 10
10.02794948751037
 20
-8.124413653567854
 30
0.0
 10
10.02794948751037
 20
-8.124413653567854
 30
0.0
 10
10.02794948751037
 20
-8.126101750355626
 30
0.0
 10
10.02794948751037
 20
-8.126101750355626
 30
0.0
 10
10.09569729022781
 20
-8.139658201090083
 30
0.0
 10
10.15073269060468
 20
-8.190456134020093
 30
0.0
 10
10.15073269060468
 20
-8.267505694547706
 30
0.0
 10
10.15073269060468
 20
-8.35557956062812
 30
0.0
 10
10.08214083949335
 20
-8.432629121155731
 30
0.0
 10
9.950055878588873
 20
-8.432629121155731
 30
0.0
 10
9.888250865583492
 20
-8.432629121155731
 30
0.0
 10
9.834059513600511
 20
-8.413147106186643
 30
0.0
 10
9.806963837609023
 20
-8.395370413482753
 30
0.0
 10
9.806963837609023
 20
-8.395370413482753
 30
0.0
 10
9.827272675494571
 20
-8.337785642446803
 30
0.0
 10
9.827272675494571
 20
-8.337785642446803
 30
0.0
  0
HATCH
  5
D1
330
1F
100
AcDbEntity
  8
Livello 1
100
AcDbHatch
 10
0.0
 20
0.0
 30
0.0
210
0.0
220
0.0
230
1.0
  2
SOLID
 70
     1
 71
     0
 91
        1
 92
        1
 93
        1
 72
     4
 94
        3
 73
     0
 74
     0
 95
       59
 96
       55
 40
0.0
 40
0.0
 40
0.0
 40
0.0
 40
1.0
 40
1.0
 40
1.0
 40
2.0
 40
2.0
 40
2.0
 40
3.0
 40
3.0
 40
3.0
 40
4.0
 40
4.0
 40
4.0
 40
5.0
 40
5.0
 40
5.0
 40
6.0
 40
6.0
 40
6.0
 40
7.0
 40
7.0
 40
7.0
 40
8.0
 40
8.0
 40
8.0
 40
9.0
 40
9.0
 40
9.0
 40
10.0
 40
10.0
 40
10.0
 40
11.0
 40
11.0
 40
11.0
 40
12.0
 40
12.0
 40
12.0
 40
13.0
 40
13.0
 40
13.0
 40
14.0
 40
14.0
 40
14.0
 40
15.0
 40
15.0
 40
15.0
 40
16.0
 40
16.0
 40
16.0
 40
17.0
 40
17.0
 40
17.0
 40
18.0
 40
18.0
 40
18.0
 40
18.0
 10
9.827272675494571
 20
-8.337785642446803
 10
9.848442787251428
 20
-8.351342093181258
 10
9.897552623393668
 20
-8.372512204938121
 10
9.949211830194988
 20
-8.372512204938121
 10
10.04488213182038
 20
-8.372512204938121
 10
10.07452717847095
 20
-8.3115340148492
 10
10.07368313007706
 20
-8.265817597759934
 10
10.07283908168318
 20
-8.188768037232323
 10
10.00340318217797
 20
-8.155746797006202
 10
9.931435137491098
 20
-8.155746797006202
 10
9.931435137491098
 20
-8.155746797006202
 10
9.889938962371264
 20
-8.155746797006202
 10
9.889938962371264
 20
-8.155746797006202
 10
9.889938962371264
 20
-8.155746797006202
 10
9.889938962371264
 20
-8.099850122758022
 10
9.889938962371264
 20
-8.099850122758022
 10
9.889938962371264
 20
-8.099850122758022
 10
9.931435137491098
 20
-8.099850122758022
 10
9.931435137491098
 20
-8.099850122758022
 10
9.985626489474078
 20
-8.099850122758022
 10
10.05420111510798
 20
-8.071910398372647
 10
10.05420111510798
 20
-8.006711966314293
 10
10.05420111510798
 20
-7.9626836460128
 10
10.0262613907226
 20
-7.923736841552051
 10
9.957669539611275
 20
-7.923736841552051
 10
9.913641219309782
 20
-7.923736841552051
 10
9.871300995796062
 20
-7.943201631043713
 10
9.847598738857543
 20
-7.960151500831142
 10
9.847598738857543
 20
-7.960151500831142
 10
9.828116723888456
 20
-7.905960148848161
 10
9.828116723888456
 20
-7.905960148848161
 10
9.856917722145144
 20
-7.884790037091303
 10
9.912797170915897
 20
-7.863619925334442
 10
9.972070038739619
 20
-7.863619925334442
 10
10.08045274270558
 20
-7.863619925334442
 10
10.12956257884782
 20
-7.927974308998908
 10
10.12956257884782
 20
-7.994860837845034
 10
10.12956257884782
 20
-8.051584335009673
 10
10.09569729022781
 20
-8.099850122758022
 10
10.02794948751037
 20
-8.124413653567854
 10
10.02794948751037
 20
-8.124413653567854
 10
10.02794948751037
 20
-8.126101750355626
 10
10.02794948751037
 20
-8.126101750355626
 10
10.09569729022781
 20
-8.139658201090083
 10
10.15073269060468
 20
-8.190456134020093
 10
10.15073269060468
 20
-8.267505694547706
 10
10.15073269060468
 20
-8.35557956062812
 10
10.08214083949335
 20
-8.432629121155731
 10
9.950055878588873
 20
-8.432629121155731
 10
9.888250865583492
 20
-8.432629121155731
 10
9.834059513600511
 20
-8.413147106186643
 10
9.806963837609023
 20
-8.395370413482753
 10
9.806963837609023
 20
-8.395370413482753
 10
9.827272675494571
 20
-8.337785642446803
 10
9.827272675494571
 20
-8.337785642446803
 97
        0
 97
        0
 75
     2
 76
     1
 98
        0
450
        0
451
        0
460
0.0
461
0.0
452
        0
462
0.0
453
        0
470

  0
SPLINE
  5
D2
330
1F
100
AcDbEntity
  8
Livello 1
100
AcDbSpline
210
0.0
220
0.0
230
1.0
 70
     9
 71
     3
 72
    59
 73
    55
 74
     0
 42
0.000000001
 43
0.0000000001
 40
0.0
 40
0.0
 40
0.0
 40
0.0
 40
1.0
 40
1.0
 40
1.0
 40
2.0
 40
2.0
 40
2.0
 40
3.0
 40
3.0
 40
3.0
 40
4.0
 40
4.0
 40
4.0
 40
5.0
 40
5.0
 40
5.0
 40
6.0
 40
6.0
 40
6.0
 40
7.0
 40
7.0
 40
7.0
 40
8.0
 40
8.0
 40
8.0
 40
9.0
 40
9.0
 40
9.0
 40
10.0
 40
10.0
 40
10.0
 40
11.0
 40
11.0
 40
11.0
 40
12.0
 40
12.0
 40
12.0
 40
13.0
 40
13.0
 40
13.0
 40
14.0
 40
14.0
 40
14.0
 40
15.0
 40
15.0
 40
15.0
 40
16.0
 40
16.0
 40
16.0
 40
17.0
 40
17.0
 40
17.0
 40
18.0
 40
18.0
 40
18.0
 40
18.0
 10
10.26159586332002
 20
-8.337785642446803
 30
0.0
 10
10.28276597507688
 20
-8.351342093181258
 30
0.0
 10
10.33187581121911
 20
-8.372512204938121
 30
0.0
 10
10.38353501802044
 20
-8.372512204938121
 30
0.0
 10
10.47920531964582
 20
-8.372512204938121
 30
0.0
 10
10.5088503662964
 20
-8.3115340148492
 30
0.0
 10
10.50800631790251
 20
-8.265817597759934
 30
0.0
 10
10.50716226950863
 20
-8.188768037232323
 30
0.0
 10
10.43772637000341
 20
-8.155746797006202
 30
0.0
 10
10.36575832531655
 20
-8.155746797006202
 30
0.0
 10
10.36575832531655
 20
-8.155746797006202
 30
0.0
 10
10.32426215019671
 20
-8.155746797006202
 30
0.0
 10
10.32426215019671
 20
-8.155746797006202
 30
0.0
 10
10.32426215019671
 20
-8.155746797006202
 30
0.0
 10
10.32426215019671
 20
-8.099850122758022
 30
0.0
 10
10.32426215019671
 20
-8.099850122758022
 30
0.0
 10
10.32426215019671
 20
-8.099850122758022
 30
0.0
 10
10.36575832531655
 20
-8.099850122758022
 30
0.0
 10
10.36575832531655
 20
-8.099850122758022
 30
0.0
 10
10.41994967729953
 20
-8.099850122758022
 30
0.0
 10
10.48852430293342
 20
-8.071910398372647
 30
0.0
 10
10.48852430293342
 20
-8.006711966314293
 30
0.0
 10
10.48852430293342
 20
-7.9626836460128
 30
0.0
 10
10.46058457854805
 20
-7.923736841552051
 30
0.0
 10
10.39199272743672
 20
-7.923736841552051
 30
0.0
 10
10.34796440713523
 20
-7.923736841552051
 30
0.0
 10
10.30562418362151
 20
-7.943201631043713
 30
0.0
 10
10.28192192668299
 20
-7.960151500831142
 30
0.0
 10
10.28192192668299
 20
-7.960151500831142
 30
0.0
 10
10.2624399117139
 20
-7.905960148848161
 30
0.0
 10
10.2624399117139
 20
-7.905960148848161
 30
0.0
 10
10.29124090997059
 20
-7.884790037091303
 30
0.0
 10
10.34712035874134
 20
-7.863619925334442
 30
0.0
 10
10.40639322656507
 20
-7.863619925334442
 30
0.0
 10
10.51477593053103
 20
-7.863619925334442
 30
0.0
 10
10.56390299215069
 20
-7.927974308998908
 30
0.0
 10
10.56390299215069
 20
-7.994860837845034
 30
0.0
 10
10.56390299215069
 20
-8.051584335009673
 30
0.0
 10
10.53002047805326
 20
-8.099850122758022
 30
0.0
 10
10.46227267533582
 20
-8.124413653567854
 30
0.0
 10
10.46227267533582
 20
-8.124413653567854
 30
0.0
 10
10.46227267533582
 20
-8.126101750355626
 30
0.0
 10
10.46227267533582
 20
-8.126101750355626
 30
0.0
 10
10.53002047805326
 20
-8.139658201090083
 30
0.0
 10
10.58505587843012
 20
-8.190456134020093
 30
0.0
 10
10.58505587843012
 20
-8.267505694547706
 30
0.0
 10
10.58505587843012
 20
-8.35557956062812
 30
0.0
 10
10.5164640273188
 20
-8.432629121155731
 30
0.0
 10
10.38437906641432
 20
-8.432629121155731
 30
0.0
 10
10.32257405340894
 20
-8.432629121155731
 30
0.0
 10
10.26838270142596
 20
-8.413147106186643
 30
0.0
 10
10.24128702543447
 20
-8.395370413482753
 30
0.0
 10
10.24128702543447
 20
-8.395370413482753
 30
0.0
 10
10.26159586332002
 20
-8.337785642446803
 30
0.0
 10
10.26159586332002
 20
-8.337785642446803
 30
0.0
  0
HATCH
  5
D3
330
1F
100
AcDbEntity
  8
Livello 1
100
AcDbHatch
 10
0.0
 20
0.0
 30
0.0
210
0.0
220
0.0
230
1.0
  2
SOLID
 70
     1
 71
     0
 91
        1
 92
        1
 93
        1
 72
     4
 94
        3
 73
     0
 74
     0
 95
       59
 96
       55
 40
0.0
 40
0.0
 40
0.0
 40
0.0
 40
1.0
 40
1.0
 40
1.0
 40
2.0
 40
2.0
 40
2.0
 40
3.0
 40
3.0
 40
3.0
 40
4.0
 40
4.0
 40
4.0
 40
5.0
 40
5.0
 40
5.0
 40
6.0
 40
6.0
 40
6.0
 40
7.0
 40
7.0
 40
7.0
 40
8.0
 40
8.0
 40
8.0
 40
9.0
 40
9.0
 40
9.0
 40
10.0
 40
10.0
 40
10.0
 40
11.0
 40
11.0
 40
11.0
 40
12.0
 40
12.0
 40
12.0
 40
13.0
 40
13.0
 40
13.0
 40
14.0
 40
14.0
 40
14.0
 40
15.0
 40
15.0
 40
15.0
 40
16.0
 40
16.0
 40
16.0
 40
17.0
 40
17.0
 40
17.0
 40
18.0
 40
18.0
 40
18.0
 40
18.0
 10
10.26159586332002
 20
-8.337785642446803
 10
10.28276597507688
 20
-8.351342093181258
 10
10.33187581121911
 20
-8.372512204938121
 10
10.38353501802044
 20
-8.372512204938121
 10
10.47920531964582
 20
-8.372512204938121
 10
10.5088503662964
 20
-8.3115340148492
 10
10.50800631790251
 20
-8.265817597759934
 10
10.50716226950863
 20
-8.188768037232323
 10
10.43772637000341
 20
-8.155746797006202
 10
10.36575832531655
 20
-8.155746797006202
 10
10.36575832531655
 20
-8.155746797006202
 10
10.32426215019671
 20
-8.155746797006202
 10
10.32426215019671
 20
-8.155746797006202
 10
10.32426215019671
 20
-8.155746797006202
 10
10.32426215019671
 20
-8.099850122758022
 10
10.32426215019671
 20
-8.099850122758022
 10
10.32426215019671
 20
-8.099850122758022
 10
10.36575832531655
 20
-8.099850122758022
 10
10.36575832531655
 20
-8.099850122758022
 10
10.41994967729953
 20
-8.099850122758022
 10
10.48852430293342
 20
-8.071910398372647
 10
10.48852430293342
 20
-8.006711966314293
 10
10.48852430293342
 20
-7.9626836460128
 10
10.46058457854805
 20
-7.923736841552051
 10
10.39199272743672
 20
-7.923736841552051
 10
10.34796440713523
 20
-7.923736841552051
 10
10.30562418362151
 20
-7.943201631043713
 10
10.28192192668299
 20
-7.960151500831142
 10
10.28192192668299
 20
-7.960151500831142
 10
10.2624399117139
 20
-7.905960148848161
 10
10.2624399117139
 20
-7.905960148848161
 10
10.29124090997059
 20
-7.884790037091303
 10
10.34712035874134
 20
-7.863619925334442
 10
10.40639322656507
 20
-7.863619925334442
 10
10.51477593053103
 20
-7.863619925334442
 10
10.56390299215069
 20
-7.927974308998908
 10
10.56390299215069
 20
-7.994860837845034
 10
10.56390299215069
 20
-8.051584335009673
 10
10.53002047805326
 20
-8.099850122758022
 10
10.46227267533582
 20
-8.124413653567854
 10
10.46227267533582
 20
-8.124413653567854
 10
10.46227267533582
 20
-8.126101750355626
 10
10.46227267533582
 20
-8.126101750355626
 10
10.53002047805326
 20
-8.139658201090083
 10
10.58505587843012
 20
-8.190456134020093
 10
10.58505587843012
 20
-8.267505694547706
 10
10.58505587843012
 20
-8.35557956062812
 10
10.5164640273188
 20
-8.432629121155731
 10
10.38437906641432
 20
-8.432629121155731
 10
10.32257405340894
 20
-8.432629121155731
 10
10.26838270142596
 20
-8.413147106186643
 10
10.24128702543447
 20
-8.395370413482753
 10
10.24128702543447
 20
-8.395370413482753
 10
10.26159586332002
 20
-8.337785642446803
 10
10.26159586332002
 20
-8.337785642446803
 97
        0
 97
        0
 75
     2
 76
     1
 98
        0
450
        0
451
        0
460
0.0
461
0.0
452
        0
462
0.0
453
        0
470

  0
SPLINE
  5
D4
330
1F
100
AcDbEntity
  8
Livello 1
100
AcDbSpline
210
0.0
220
0.0
230
1.0
 70
     9
 71
     3
 72
    17
 73
    13
 74
     0
 42
0.000000001
 43
0.0000000001
 40
0.0
 40
0.0
 40
0.0
 40
0.0
 40
1.0
 40
1.0
 40
1.0
 40
2.0
 40
2.0
 40
2.0
 40
3.0
 40
3.0
 40
3.0
 40
4.0
 40
4.0
 40
4.0
 40
4.0
 10
10.6536132785866
 20
-8.527455374387232
 30
0.0
 10
10.67221679420694
 20
-8.47750148985111
 30
0.0
 10
10.695092228229
 20
-8.386895478589039
 30
0.0
 10
10.70439398603918
 20
-8.325090465583656
 30
0.0
 10
10.70439398603918
 20
-8.325090465583656
 30
0.0
 10
10.78738633627885
 20
-8.316615530689942
 30
0.0
 10
10.78738633627885
 20
-8.316615530689942
 30
0.0
 10
10.76792154678719
 20
-8.388600800854236
 30
0.0
 10
10.73064561363678
 20
-8.482583005691854
 30
0.0
 10
10.70694335669826
 20
-8.522373858546488
 30
0.0
 10
10.70694335669826
 20
-8.522373858546488
 30
0.0
 10
10.6536132785866
 20
-8.527455374387232
 30
0.0
 10
10.6536132785866
 20
-8.527455374387232
 30
0.0
  0
HATCH
  5
D5
330
1F
100
AcDbEntity
  8
Livello 1
100
AcDbHatch
 10
0.0
 20
0.0
 30
0.0
210
0.0
220
0.0
230
1.0
  2
SOLID
 70
     1
 71
     0
 91
        1
 92
        1
 93
        1
 72
     4
 94
        3
 73
     0
 74
     0
 95
       17
 96
       13
 40
0.0
 40
0.0
 40
0.0
 40
0.0
 40
1.0
 40
1.0
 40
1.0
 40
2.0
 40
2.0
 40
2.0
 40
3.0
 40
3.0
 40
3.0
 40
4.0
 40
4.0
 40
4.0
 40
4.0
 10
10.6536132785866
 20
-8.527455374387232
 10
10.67221679420694
 20
-8.47750148985111
 10
10.695092228229
 20
-8.386895478589039
 10
10.70439398603918
 20
-8.325090465583656
 10
10.70439398603918
 20
-8.325090465583656
 10
10.78738633627885
 20
-8.316615530689942
 10
10.78738633627885
 20
-8.316615530689942
 10
10.76792154678719
 20
-8.388600800854236
 10
10.73064561363678
 20
-8.482583005691854
 10
10.70694335669826
 20
-8.522373858546488
 10
10.70694335669826
 20
-8.522373858546488
 10
10.6536132785866
 20
-8.527455374387232
 10
10.6536132785866
 20
-8.527455374387232
 97
        0
 97
        0
 75
     2
 76
     1
 98
        0
450
        0
451
        0
460
0.0
461
0.0
452
        0
462
0.0
453
        0
470

  0
SPLINE
  5
D6
330
1F
100
AcDbEntity
  8
Livello 1
100
AcDbSpline
210
0.0
220
0.0
230
1.0
 70
    11
 71
     3
 72
    50
 73
    46
 74
     0
 42
0.000000001
 43
0.0000000001
 40
0.0
 40
0.0
 40
0.0
 40
0.0
 40
1.0
 40
1.0
 40
1.0
 40
2.0
 40
2.0
 40
2.0
 40
3.0
 40
3.0
 40
3.0
 40
4.0
 40
4.0
 40
4.0
 40
5.0
 40
5.0
 40
5.0
 40
6.0
 40
6.0
 40
6.0
 40
7.0
 40
7.0
 40
7.0
 40
8.0
 40
8.0
 40
8.0
 40
9.0
 40
9.0
 40
9.0
 40
10.0
 40
10.0
 40
10.0
 40
11.0
 40
11.0
 40
11.0
 40
12.0
 40
12.0
 40
12.0
 40
13.0
 40
13.0
 40
13.0
 40
14.0
 40
14.0
 40
14.0
 40
15.0
 40
15.0
 40
15.0
 40
15.0
 10
11.18195312220451
 20
-7.935587970021309
 30
0.0
 10
11.18195312220451
 20
-7.935587970021309
 30
0.0
 10
10.97194010142368
 20
-7.935587970021309
 30
0.0
 10
10.97194010142368
 20
-7.935587970021309
 30
0.0
 10
10.97194010142368
 20
-7.935587970021309
 30
0.0
 10
10.95078721514425
 20
-8.076991914213389
 30
0.0
 10
10.95078721514425
 20
-8.076991914213389
 30
0.0
 10
10.96346516652997
 20
-8.075303817425618
 30
0.0
 10
10.97535074595408
 20
-8.073598495160419
 30
0.0
 10
10.9956423583622
 20
-8.073598495160419
 30
0.0
 10
11.03798258187592
 20
-8.073598495160419
 30
0.0
 10
11.08032280538964
 20
-8.082917478448019
 30
0.0
 10
11.11418809400965
 20
-8.103243541810991
 30
0.0
 10
11.15738959139468
 20
-8.127789847143398
 30
0.0
 10
11.19294297680246
 20
-8.175211586497862
 30
0.0
 10
11.19294297680246
 20
-8.244647486003072
 30
0.0
 10
11.19294297680246
 20
-8.352186141575147
 30
0.0
 10
11.10743570685856
 20
-8.432629121155731
 30
0.0
 10
10.9880286973398
 20
-8.432629121155731
 30
0.0
 10
10.92791178112219
 20
-8.432629121155731
 30
0.0
 10
10.87709662271475
 20
-8.415696476845726
 30
0.0
 10
10.850879446072
 20
-8.398746607058299
 30
0.0
 10
10.850879446072
 20
-8.398746607058299
 30
0.0
 10
10.86948296169235
 20
-8.342023109893659
 30
0.0
 10
10.86948296169235
 20
-8.342023109893659
 30
0.0
 10
10.89235839571441
 20
-8.35557956062812
 30
0.0
 10
10.93724798988722
 20
-8.372512204938121
 30
0.0
 10
10.98720187442334
 20
-8.372512204938121
 30
0.0
 10
11.05748182232244
 20
-8.372512204938121
 30
0.0
 10
11.11759873854004
 20
-8.326778562371428
 30
0.0
 10
11.11759873854004
 20
-8.253122420896788
 30
0.0
 10
11.11673746466873
 20
-8.181981199126379
 30
0.0
 10
11.06933295079169
 20
-8.131183266196369
 30
0.0
 10
10.95926215003796
 20
-8.131183266196369
 30
0.0
 10
10.92791178112219
 20
-8.131183266196369
 30
0.0
 10
10.90334825031236
 20
-8.134576685249339
 30
0.0
 10
10.88305663790424
 20
-8.137108830430999
 30
0.0
 10
10.88305663790424
 20
-8.137108830430999
 30
0.0
 10
10.91861002331201
 20
-7.872921683144616
 30
0.0
 10
10.91861002331201
 20
-7.872921683144616
 30
0.0
 10
10.91861002331201
 20
-7.872921683144616
 30
0.0
 10
11.18195312220451
 20
-7.872921683144616
 30
0.0
 10
11.18195312220451
 20
-7.872921683144616
 30
0.0
 10
11.18195312220451
 20
-7.872921683144616
 30
0.0
 10
11.18195312220451
 20
-7.935587970021309
 30
0.0
 10
11.18195312220451
 20
-7.935587970021309
 30
0.0
  0
HATCH
  5
D7
330
1F
100
AcDbEntity
  8
Livello 1
100
AcDbHatch
 10
0.0
 20
0.0
 30
0.0
210
0.0
220
0.0
230
1.0
  2
SOLID
 70
     1
 71
     0
 91
        1
 92
        1
 93
        1
 72
     4
 94
        3
 73
     0
 74
     0
 95
       50
 96
       46
 40
0.0
 40
0.0
 40
0.0
 40
0.0
 40
1.0
 40
1.0
 40
1.0
 40
2.0
 40
2.0
 40
2.0
 40
3.0
 40
3.0
 40
3.0
 40
4.0
 40
4.0
 40
4.0
 40
5.0
 40
5.0
 40
5.0
 40
6.0
 40
6.0
 40
6.0
 40
7.0
 40
7.0
 40
7.0
 40
8.0
 40
8.0
 40
8.0
 40
9.0
 40
9.0
 40
9.0
 40
10.0
 40
10.0
 40
10.0
 40
11.0
 40
11.0
 40
11.0
 40
12.0
 40
12.0
 40
12.0
 40
13.0
 40
13.0
 40
13.0
 40
14.0
 40
14.0
 40
14.0
 40
15.0
 40
15.0
 40
15.0
 40
15.0
 10
11.18195312220451
 20
-7.935587970021309
 10
11.18195312220451
 20
-7.935587970021309
 10
10.97194010142368
 20
-7.935587970021309
 10
10.97194010142368
 20
-7.935587970021309
 10
10.97194010142368
 20
-7.935587970021309
 10
10.95078721514425
 20
-8.076991914213389
 10
10.95078721514425
 20
-8.076991914213389
 10
10.96346516652997
 20
-8.075303817425618
 10
10.97535074595408
 20
-8.073598495160419
 10
10.9956423583622
 20
-8.073598495160419
 10
11.03798258187592
 20
-8.073598495160419
 10
11.08032280538964
 20
-8.082917478448019
 10
11.11418809400965
 20
-8.103243541810991
 10
11.15738959139468
 20
-8.127789847143398
 10
11.19294297680246
 20
-8.175211586497862
 10
11.19294297680246
 20
-8.244647486003072
 10
11.19294297680246
 20
-8.352186141575147
 10
11.10743570685856
 20
-8.432629121155731
 10
10.9880286973398
 20
-8.432629121155731
 10
10.92791178112219
 20
-8.432629121155731
 10
10.87709662271475
 20
-8.415696476845726
 10
10.850879446072
 20
-8.398746607058299
 10
10.850879446072
 20
-8.398746607058299
 10
10.86948296169235
 20
-8.342023109893659
 10
10.86948296169235
 20
-8.342023109893659
 10
10.89235839571441
 20
-8.35557956062812
 10
10.93724798988722
 20
-8.372512204938121
 10
10.98720187442334
 20
-8.372512204938121
 10
11.05748182232244
 20
-8.372512204938121
 10
11.11759873854004
 20
-8.326778562371428
 10
11.11759873854004
 20
-8.253122420896788
 10
11.11673746466873
 20
-8.181981199126379
 10
11.06933295079169
 20
-8.131183266196369
 10
10.95926215003796
 20
-8.131183266196369
 10
10.92791178112219
 20
-8.131183266196369
 10
10.90334825031236
 20
-8.134576685249339
 10
10.88305663790424
 20
-8.137108830430999
 10
10.88305663790424
 20
-8.137108830430999
 10
10.91861002331201
 20
-7.872921683144616
 10
10.91861002331201
 20
-7.872921683144616
 10
10.91861002331201
 20
-7.872921683144616
 10
11.18195312220451
 20
-7.872921683144616
 10
11.18195312220451
 20
-7.872921683144616
 10
11.18195312220451
 20
-7.872921683144616
 10
11.18195312220451
 20
-7.935587970021309
 10
11.18195312220451
 20
-7.935587970021309
 97
        0
 97
        0
 75
     2
 76
     1
 98
        0
450
        0
451
        0
460
0.0
461
0.0
452
        0
462
0.0
453
        0
470

  0
POLYLINE
  5
D8
330
1F
100
AcDbEntity
  8
Livello 1
100
AcDb2dPolyline
 66
     1
 10
0.0
 20
0.0
 30
0.0
  0
VERTEX
  5
D9
330
D8
100
AcDbEntity
  8
Livello 1
100
AcDbVertex
100
AcDb2dVertex
 10
14.90665255703722
 20
-7.942357582649825
 30
0.0
  0
VERTEX
  5
DA
330
D8
100
AcDbEntity
  8
Livello 1
100
AcDbVertex
100
AcDb2dVertex
 10
14.90496446024945
 20
-7.942357582649825
 30
0.0
  0
VERTEX
  5
DB
330
D8
100
AcDbEntity
  8
Livello 1
100
AcDbVertex
100
AcDb2dVertex
 10
14.80925970766921
 20
-7.994016789451147
 30
0.0
  0
VERTEX
  5
DC
330
D8
100
AcDbEntity
  8
Livello 1
100
AcDbVertex
100
AcDb2dVertex
 10
14.79485920854087
 20
-7.937276066809081
 30
0.0
  0
VERTEX
  5
DD
330
D8
100
AcDbEntity
  8
Livello 1
100
AcDbVertex
100
AcDb2dVertex
 10
14.91509304097609
 20
-7.872921683144616
 30
0.0
  0
VERTEX
  5
DE
330
D8
100
AcDbEntity
  8
Livello 1
100
AcDbVertex
100
AcDb2dVertex
 10
14.97862060172409
 20
-7.872921683144616
 30
0.0
  0
VERTEX
  5
DF
330
D8
100
AcDbEntity
  8
Livello 1
100
AcDbVertex
100
AcDb2dVertex
 10
14.97862060172409
 20
-8.42331013786813
 30
0.0
  0
VERTEX
  5
E0
330
D8
100
AcDbEntity
  8
Livello 1
100
AcDbVertex
100
AcDb2dVertex
 10
14.90665255703722
 20
-8.42331013786813
 30
0.0
  0
VERTEX
  5
E1
330
D8
100
AcDbEntity
  8
Livello 1
100
AcDbVertex
100
AcDb2dVertex
 10
14.90665255703722
 20
-7.942357582649825
 30
0.0
  0
SEQEND
  5
E2
330
D8
100
AcDbEntity
  8
Livello 1
  0
HATCH
  5
E3
330
1F
100
AcDbEntity
  8
Livello 1
100
AcDbHatch
 10
0.0
 20
0.0
 30
0.0
210
0.0
220
0.0
230
1.0
  2
SOLID
 70
     1
 71
     0
 91
        1
 92
        1
 93
        8
 72
     1
 10
14.90665255703722
 20
-7.942357582649825
 11
14.90496446024945
 21
-7.942357582649825
 72
     1
 10
14.90496446024945
 20
-7.942357582649825
 11
14.80925970766921
 21
-7.994016789451147
 72
     1
 10
14.80925970766921
 20
-7.994016789451147
 11
14.79485920854087
 21
-7.937276066809081
 72
     1
 10
14.79485920854087
 20
-7.937276066809081
 11
14.91509304097609
 21
-7.872921683144616
 72
     1
 10
14.91509304097609
 20
-7.872921683144616
 11
14.97862060172409
 21
-7.872921683144616
 72
     1
 10
14.97862060172409
 20
-7.872921683144616
 11
14.97862060172409
 21
-8.42331013786813
 72
     1
 10
14.97862060172409
 20
-8.42331013786813
 11
14.90665255703722
 21
-8.42331013786813
 72
     1
 10
14.90665255703722
 20
-8.42331013786813
 11
14.90665255703722
 21
-7.942357582649825
 97
        0
 75
     2
 76
     1
 98
        0
450
        0
451
        0
460
0.0
461
0.0
452
        0
462
0.0
453
        0
470

  0
POLYLINE
  5
E4
330
1F
100
AcDbEntity
  8
Livello 1
100
AcDb2dPolyline
 66
     1
 10
0.0
 20
0.0
 30
0.0
  0
VERTEX
  5
E5
330
E4
100
AcDbEntity
  8
Livello 1
100
AcDbVertex
100
AcDb2dVertex
 10
15.53655381556031
 20
-7.872921683144616
 30
0.0
  0
VERTEX
  5
E6
330
E4
100
AcDbEntity
  8
Livello 1
100
AcDbVertex
100
AcDb2dVertex
 10
15.53655381556031
 20
-7.922048744764278
 30
0.0
  0
VERTEX
  5
E7
330
E4
100
AcDbEntity
  8
Livello 1
100
AcDbVertex
100
AcDb2dVertex
 10
15.29694742456118
 20
-8.42331013786813
 30
0.0
  0
VERTEX
  5
E8
330
E4
100
AcDbEntity
  8
Livello 1
100
AcDbVertex
100
AcDb2dVertex
 10
15.21988063855614
 20
-8.42331013786813
 30
0.0
  0
VERTEX
  5
E9
330
E4
100
AcDbEntity
  8
Livello 1
100
AcDbVertex
100
AcDb2dVertex
 10
15.45866020663881
 20
-7.936432018415197
 30
0.0
  0
VERTEX
  5
EA
330
E4
100
AcDbEntity
  8
Livello 1
100
AcDbVertex
100
AcDb2dVertex
 10
15.45866020663881
 20
-7.934743921627423
 30
0.0
  0
VERTEX
  5
EB
330
E4
100
AcDbEntity
  8
Livello 1
100
AcDbVertex
100
AcDb2dVertex
 10
15.18939154351168
 20
-7.934743921627423
 30
0.0
  0
VERTEX
  5
EC
330
E4
100
AcDbEntity
  8
Livello 1
100
AcDbVertex
100
AcDb2dVertex
 10
15.18939154351168
 20
-7.872921683144616
 30
0.0
  0
VERTEX
  5
ED
330
E4
100
AcDbEntity
  8
Livello 1
100
AcDbVertex
100
AcDb2dVertex
 10
15.53655381556031
 20
-7.872921683144616
 30
0.0
  0
SEQEND
  5
EE
330
E4
100
AcDbEntity
  8
Livello 1
  0
HATCH
  5
EF
330
1F
100
AcDbEntity
  8
Livello 1
100
AcDbHatch
 10
0.0
 20
0.0
 30
0.0
210
0.0
220
0.0
230
1.0
  2
SOLID
 70
     1
 71
     0
 91
        1
 92
        1
 93
        8
 72
     1
 10
15.53655381556031
 20
-7.872921683144616
 11
15.53655381556031
 21
-7.922048744764278
 72
     1
 10
15.53655381556031
 20
-7.922048744764278
 11
15.29694742456118
 21
-8.42331013786813
 72
     1
 10
15.29694742456118
 20
-8.42331013786813
 11
15.21988063855614
 21
-8.42331013786813
 72
     1
 10
15.21988063855614
 20
-8.42331013786813
 11
15.45866020663881
 21
-7.936432018415197
 72
     1
 10
15.45866020663881
 20
-7.936432018415197
 11
15.45866020663881
 21
-7.934743921627423
 72
     1
 10
15.45866020663881
 20
-7.934743921627423
 11
15.18939154351168
 21
-7.934743921627423
 72
     1
 10
15.18939154351168
 20
-7.934743921627423
 11
15.18939154351168
 21
-7.872921683144616
 72
     1
 10
15.18939154351168
 20
-7.872921683144616
 11
15.53655381556031
 21
-7.872921683144616
 97
        0
 75
     2
 76
     1
 98
        0
450
        0
451
        0
460
0.0
461
0.0
452
        0
462
0.0
453
        0
470

  0
ENDSEC
  0
SECTION
  2
OBJECTS
  0
DICTIONARY
  5
C
330
0
100
AcDbDictionary
281
     1
  3
ACAD_CIP_PREVIOUS_PRODUCT_INFO
350
BD
  3
ACAD_COLOR
350
9E
  3
ACAD_DETAILVIEWSTYLE
350
B9
  3
ACAD_GROUP
350
D
  3
ACAD_LAYOUT
350
1A
  3
ACAD_MATERIAL
350
3B
  3
ACAD_MLEADERSTYLE
350
91
  3
ACAD_MLINESTYLE
350
17
  3
ACAD_PLOTSETTINGS
350
19
  3
ACAD_PLOTSTYLENAME
350
E
  3
ACAD_SCALELIST
350
A0
  3
ACAD_SECTIONVIEWSTYLE
350
B7
  3
ACAD_TABLESTYLE
350
90
  3
ACAD_VISUALSTYLE
350
2A
  3
ACDB_RECOMPOSE_DATA
350
F9
  3
AcDbVariableDictionary
350
F0
  0
SUN
  5
3F
330
29
100
AcDbSun
 90
        1
290
     1
 63
     7
421
 16777215
 40
1.0
291
     1
 91
  2455826
 92
 54000000
292
     0
 70
     0
 71
   256
280
     1
1001
ACAD
1000
AcDbSavedByObjectVersion
1070
     0
  0
DICTIONARY
  5
BE
330
1F
100
AcDbDictionary
280
     1
281
     1
  3
ACAD_SORTENTS
360
BF
  0
XRECORD
  5
BD
102
{ACAD_REACTORS
330
C
102
}
330
C
100
AcDbXrecord
280
     1
300
ACD
300
2019
300
ACD_F_S
  0
DICTIONARY
  5
9E
102
{ACAD_REACTORS
330
C
102
}
330
C
100
AcDbDictionary
281
     1
  0
DICTIONARY
  5
B9
102
{ACAD_REACTORS
330
C
102
}
330
C
100
AcDbDictionary
281
     1
  3
Imperial24
350
BA
  0
DICTIONARY
  5
D
102
{ACAD_REACTORS
330
C
102
}
330
C
100
AcDbDictionary
281
     1
  0
DICTIONARY
  5
1A
102
{ACAD_REACTORS
330
C
102
}
330
C
100
AcDbDictionary
281
     1
  3
Layout1
350
1E
  3
Layout2
350
26
  3
Model
350
22
  0
DICTIONARY
  5
3B
102
{ACAD_REACTORS
330
C
102
}
330
C
100
AcDbDictionary
281
     1
  3
ByBlock
350
3D
  3
ByLayer
350
3C
  3
Global
350
3E
  0
DICTIONARY
  5
91
102
{ACAD_REACTORS
330
C
102
}
330
C
100
AcDbDictionary
281
     1
  3
Standard
350
B6
  0
DICTIONARY
  5
17
102
{ACAD_REACTORS
330
C
102
}
330
C
100
AcDbDictionary
281
     1
  3
Standard
350
18
  0
DICTIONARY
  5
19
102
{ACAD_REACTORS
330
C
102
}
330
C
100
AcDbDictionary
281
     1
  0
ACDBDICTIONARYWDFLT
  5
E
102
{ACAD_REACTORS
330
C
102
}
330
C
100
AcDbDictionary
281
     1
  3
Normal
350
F
100
AcDbDictionaryWithDefault
340
F
  0
DICTIONARY
  5
A0
102
{ACAD_REACTORS
330
C
102
}
330
C
100
AcDbDictionary
281
     1
  3
A0
350
A1
  3
A1
350
A2
  3
A2
350
A3
  3
A3
350
A4
  3
A4
350
A5
  3
A5
350
A6
  3
A6
350
A7
  3
A7
350
A8
  3
A8
350
A9
  3
A9
350
AA
  3
B0
350
AB
  3
B1
350
AC
  3
B2
350
AD
  3
B3
350
AE
  3
B4
350
AF
  3
B5
350
B0
  3
B6
350
B1
  3
B7
350
B2
  3
B8
350
B3
  3
B9
350
B4
  3
C0
350
B5
  0
DICTIONARY
  5
B7
102
{ACAD_REACTORS
330
C
102
}
330
C
100
AcDbDictionary
281
     1
  3
Imperial24
350
B8
  0
DICTIONARY
  5
90
102
{ACAD_REACTORS
330
C
102
}
330
C
100
AcDbDictionary
281
     1
  3
Standard
350
9F
  0
DICTIONARY
  5
2A
102
{ACAD_REACTORS
330
C
102
}
330
C
100
AcDbDictionary
281
     1
  3
2dWireframe
350
2F
  3
3D Hidden
350
31
  3
3dWireframe
350
30
  3
Basic
350
32
  3
Brighten
350
36
  3
ColorChange
350
3A
  3
Conceptual
350
34
  3
Dim
350
35
  3
EdgeColorOff
350
9D
  3
Facepattern
350
39
  3
Flat
350
2B
  3
FlatWithEdges
350
2C
  3
Gouraud
350
2D
  3
GouraudWithEdges
350
2E
  3
Hidden
350
95
  3
JitterOff
350
9B
  3
Linepattern
350
38
  3
OverhangOff
350
9C
  3
Realistic
350
33
  3
Shaded
350
9A
  3
Shaded with edges
350
99
  3
Shades of Gray
350
96
  3
Sketchy
350
97
  3
Thicken
350
37
  3
Wireframe
350
94
  3
X-Ray
350
98
  0
XRECORD
  5
F9
102
{ACAD_REACTORS
330
C
102
}
330
C
100
AcDbXrecord
280
     1
 90
        1
330
9F
  0
DICTIONARY
  5
F0
102
{ACAD_REACTORS
330
C
102
}
330
C
100
AcDbDictionary
281
     1
  3
CANNOSCALE
350
F5
  3
CMLEADERSTYLE
350
F2
  3
CTABLESTYLE
350
F1
  3
CVIEWDETAILSTYLE
350
F3
  3
CVIEWSECTIONSTYLE
350
F4
  0
SORTENTSTABLE
  5
BF
102
{ACAD_REACTORS
330
BE
102
}
330
BE
100
AcDbSortentsTable
330
1F
  0
ACDBDETAILVIEWSTYLE
  5
BA
102
{ACAD_XDICTIONARY
360
FC
102
}
102
{ACAD_REACTORS
330
B9
102
}
330
B9
100
AcDbModelDocViewStyle
 70
     0
  3
Imperial24
290
     0
100
AcDbDetailViewStyle
 70
     0
 71
     0
 90
        3
 71
     1
340
11
 62
   256
 40
0.24
340
0
 62
   256
 40
0.24
300

 40
0.36
280
     3
 71
     2
340
16
 90
       25
 62
   256
 71
     3
340
11
 62
   256
 40
0.24
 90
        1
 40
0.75
 90
        1
300
%<\AcVar ViewType \f "%tc1">% %<\AcVar ViewDetailId>%\PSCALA %<\AcVar ViewScale \f "%sn">%
 71
     4
340
16
 90
       25
 62
   256
340
16
 90
       25
 62
   256
280
     0
  0
LAYOUT
  5
1E
102
{ACAD_REACTORS
330
1A
102
}
330
1A
100
AcDbPlotSettings
  1

  2
none_device
  4

  6

 40
0.0
 41
0.0
 42
0.0
 43
0.0
 44
0.0
 45
0.0
 46
0.0
 47
0.0
 48
0.0
 49
0.0
140
0.0
141
0.0
142
1.0
143
1.0
 70
   688
 72
     0
 73
     0
 74
     5
  7

 75
    16
147
1.0
 76
     0
 77
     2
 78
   300
148
0.0
149
0.0
100
AcDbLayout
  1
Layout1
 70
     1
 71
     1
 10
0.0
 20
0.0
 11
12.0
 21
9.0
 12
0.0
 22
0.0
 32
0.0
 14
1.000000000000000E+20
 24
1.000000000000000E+20
 34
1.000000000000000E+20
 15
-1.000000000000000E+20
 25
-1.000000000000000E+20
 35
-1.000000000000000E+20
146
0.0
 13
0.0
 23
0.0
 33
0.0
 16
1.0
 26
0.0
 36
0.0
 17
0.0
 27
1.0
 37
0.0
 76
     0
330
1B
  0
LAYOUT
  5
26
102
{ACAD_REACTORS
330
1A
102
}
330
1A
100
AcDbPlotSettings
  1

  2
none_device
  4

  6

 40
0.0
 41
0.0
 42
0.0
 43
0.0
 44
0.0
 45
0.0
 46
0.0
 47
0.0
 48
0.0
 49
0.0
140
0.0
141
0.0
142
1.0
143
1.0
 70
   688
 72
     0
 73
     0
 74
     5
  7

 75
    16
147
1.0
 76
     0
 77
     2
 78
   300
148
0.0
149
0.0
100
AcDbLayout
  1
Layout2
 70
     1
 71
     2
 10
0.0
 20
0.0
 11
0.0
 21
0.0
 12
0.0
 22
0.0
 32
0.0
 14
0.0
 24
0.0
 34
0.0
 15
0.0
 25
0.0
 35
0.0
146
0.0
 13
0.0
 23
0.0
 33
0.0
 16
1.0
 26
0.0
 36
0.0
 17
0.0
 27
1.0
 37
0.0
 76
     0
330
23
  0
LAYOUT
  5
22
102
{ACAD_REACTORS
330
1A
102
}
330
1A
100
AcDbPlotSettings
  1

  2
none_device
  4

  6

 40
0.0
 41
0.0
 42
0.0
 43
0.0
 44
0.0
 45
0.0
 46
0.0
 47
0.0
 48
0.0
 49
0.0
140
0.0
141
0.0
142
1.0
143
1.0
 70
  1712
 72
     0
 73
     0
 74
     0
  7

 75
     0
147
1.0
 76
     0
 77
     2
 78
   300
148
0.0
149
0.0
100
AcDbLayout
  1
Model
 70
     1
 71
     0
 10
0.0
 20
0.0
 11
12.0
 21
9.0
 12
0.0
 22
0.0
 32
0.0
 14
1.000000000000000E+20
 24
1.000000000000000E+20
 34
1.000000000000000E+20
 15
-1.000000000000000E+20
 25
-1.000000000000000E+20
 35
-1.000000000000000E+20
146
0.0
 13
0.0
 23
0.0
 33
0.0
 16
1.0
 26
0.0
 36
0.0
 17
0.0
 27
1.0
 37
0.0
 76
     0
330
1F
331
29
  0
MATERIAL
  5
3D
102
{ACAD_REACTORS
330
3B
102
}
330
3B
100
AcDbMaterial
  1
ByBlock
  0
MATERIAL
  5
3C
102
{ACAD_REACTORS
330
3B
102
}
330
3B
100
AcDbMaterial
  1
ByLayer
  0
MATERIAL
  5
3E
102
{ACAD_REACTORS
330
3B
102
}
330
3B
100
AcDbMaterial
  1
Global
  0
MLEADERSTYLE
  5
B6
102
{ACAD_REACTORS
330
91
102
}
330
91
100
AcDbMLeaderStyle
179
     2
170
     2
171
     1
172
     0
 90
        2
 40
0.0
 41
0.0
173
     1
 91
-1056964608
340
14
 92
       -2
290
     1
 42
0.09
291
     1
 43
0.36
  3
Standard
 44
0.18
300

342
11
174
     1
178
     6
175
     1
176
     0
 93
-1056964608
 45
0.18
292
     0
297
     0
 46
0.18
 94
-1056964608
 47
1.0
 49
1.0
140
1.0
293
     1
141
0.0
294
     1
177
     0
142
1.0
295
     0
296
     0
143
0.125
271
     0
272
     9
273
     9
298
     0
  0
MLINESTYLE
  5
18
102
{ACAD_REACTORS
330
17
102
}
330
17
100
AcDbMlineStyle
  2
STANDARD
 70
     0
  3

 62
   256
 51
90.0
 52
90.0
 71
     2
 49
0.5
 62
   256
  6
BYLAYER
 49
-0.5
 62
   256
  6
BYLAYER
  0
ACDBPLACEHOLDER
  5
F
102
{ACAD_REACTORS
330
E
102
}
330
E
  0
SCALE
  5
A1
102
{ACAD_REACTORS
330
A0
102
}
330
A0
100
AcDbScale
 70
     0
300
1:1
140
1.0
141
1.0
290
     1
  0
SCALE
  5
A2
102
{ACAD_REACTORS
330
A0
102
}
330
A0
100
AcDbScale
 70
     0
300
1.10
140
1.0
141
10.0
290
     0
  0
SCALE
  5
A3
102
{ACAD_REACTORS
330
A0
102
}
330
A0
100
AcDbScale
 70
     0
300
1.50
140
1.0
141
50.0
290
     0
  0
SCALE
  5
A4
102
{ACAD_REACTORS
330
A0
102
}
330
A0
100
AcDbScale
 70
     0
300
1:100
140
1.0
141
100.0
290
     0
  0
SCALE
  5
A5
102
{ACAD_REACTORS
330
A0
102
}
330
A0
100
AcDbScale
 70
     0
300
1.200
140
1.0
141
200.0
290
     0
  0
SCALE
  5
A6
102
{ACAD_REACTORS
330
A0
102
}
330
A0
100
AcDbScale
 70
     0
300
1/128" = 1'-0"
140
0.0078125
141
12.0
290
     0
  0
SCALE
  5
A7
102
{ACAD_REACTORS
330
A0
102
}
330
A0
100
AcDbScale
 70
     0
300
1/64" = 1'-0"
140
0.015625
141
12.0
290
     0
  0
SCALE
  5
A8
102
{ACAD_REACTORS
330
A0
102
}
330
A0
100
AcDbScale
 70
     0
300
1/32" = 1'-0"
140
0.03125
141
12.0
290
     0
  0
SCALE
  5
A9
102
{ACAD_REACTORS
330
A0
102
}
330
A0
100
AcDbScale
 70
     0
300
1/16" = 1'-0"
140
0.0625
141
12.0
290
     0
  0
SCALE
  5
AA
102
{ACAD_REACTORS
330
A0
102
}
330
A0
100
AcDbScale
 70
     0
300
3/32" = 1'-0"
140
0.09375
141
12.0
290
     0
  0
SCALE
  5
AB
102
{ACAD_REACTORS
330
A0
102
}
330
A0
100
AcDbScale
 70
     0
300
1/8" = 1'-0"
140
0.125
141
12.0
290
     0
  0
SCALE
  5
AC
102
{ACAD_REACTORS
330
A0
102
}
330
A0
100
AcDbScale
 70
     0
300
3/16" = 1'-0"
140
0.1875
141
12.0
290
     0
  0
SCALE
  5
AD
102
{ACAD_REACTORS
330
A0
102
}
330
A0
100
AcDbScale
 70
     0
300
1/4" = 1'-0"
140
0.25
141
12.0
290
     0
  0
SCALE
  5
AE
102
{ACAD_REACTORS
330
A0
102
}
330
A0
100
AcDbScale
 70
     0
300
3/8" = 1'-0"
140
0.375
141
12.0
290
     0
  0
SCALE
  5
AF
102
{ACAD_REACTORS
330
A0
102
}
330
A0
100
AcDbScale
 70
     0
300
1/2" = 1'-0"
140
0.5
141
12.0
290
     0
  0
SCALE
  5
B0
102
{ACAD_REACTORS
330
A0
102
}
330
A0
100
AcDbScale
 70
     0
300
3/4" = 1'-0"
140
0.75
141
12.0
290
     0
  0
SCALE
  5
B1
102
{ACAD_REACTORS
330
A0
102
}
330
A0
100
AcDbScale
 70
     0
300
1" = 1'-0"
140
1.0
141
12.0
290
     0
  0
SCALE
  5
B2
102
{ACAD_REACTORS
330
A0
102
}
330
A0
100
AcDbScale
 70
     0
300
1-1/2" = 1'-0"
140
1.5
141
12.0
290
     0
  0
SCALE
  5
B3
102
{ACAD_REACTORS
330
A0
102
}
330
A0
100
AcDbScale
 70
     0
300
3" = 1'-0"
140
3.0
141
12.0
290
     0
  0
SCALE
  5
B4
102
{ACAD_REACTORS
330
A0
102
}
330
A0
100
AcDbScale
 70
     0
300
6" = 1'-0"
140
6.0
141
12.0
290
     0
  0
SCALE
  5
B5
102
{ACAD_REACTORS
330
A0
102
}
330
A0
100
AcDbScale
 70
     0
300
1'-0" = 1'-0"
140
12.0
141
12.0
290
     0
  0
ACDBSECTIONVIEWSTYLE
  5
B8
102
{ACAD_XDICTIONARY
360
FA
102
}
102
{ACAD_REACTORS
330
B7
102
}
330
B7
100
AcDbModelDocViewStyle
 70
     0
  3
Imperial24
290
     0
100
AcDbSectionViewStyle
 70
     0
 71
     0
 90
       78
 71
     1
340
11
 62
   256
 40
0.24
340
0
340
0
 62
   256
 40
0.24
300
I, O, Q, S, X, Z
 40
0.48
 90
        3
 40
0.18
 90
        1
 71
     2
340
16
 90
       25
 62
   256
340
16
 90
       50
 62
   256
 40
0.24
 40
0.0
 40
0.24
 71
     3
340
11
 62
   256
 40
0.24
 90
        1
 40
0.75
 90
        1
300
%<\AcVar ViewType \f "%tc1">% %<\AcVar ViewSectionStartId>%-%<\AcVar ViewSectionEndId>%\PSCALA %<\AcVar ViewScale \f "%sn">%
 71
     4
 62
   256
 62
   257
300
ANSI31
 40
1.0
 90
        0
290
     0
290
     0
 90
        6
 40
0.0
 40
1.570796326794896
 40
0.2617993877991494
 40
1.308996938995747
 40
-0.2617993877991494
 40
1.832595714594046
  0
TABLESTYLE
  5
9F
102
{ACAD_XDICTIONARY
360
F7
102
}
102
{ACAD_REACTORS
330
90
102
}
330
90
100
AcDbTableStyle
280
     0
  3
Standard
 70
     0
 71
     0
 40
0.06
 41
0.06
280
     0
281
     0
  7
Standard
140
0.18
170
     2
 62
     0
 63
     7
283
     0
 90
      512
 91
        0
  1

274
    -2
284
     1
 64
     0
275
    -2
285
     1
 65
     0
276
    -2
286
     1
 66
     0
277
    -2
287
     1
 67
     0
278
    -2
288
     1
 68
     0
279
    -2
289
     1
 69
     0
  7
Standard
140
0.25
170
     5
 62
     0
 63
     7
283
     0
 90
      512
 91
        0
  1

274
    -2
284
     1
 64
     0
275
    -2
285
     1
 65
     0
276
    -2
286
     1
 66
     0
277
    -2
287
     1
 67
     0
278
    -2
288
     1
 68
     0
279
    -2
289
     1
 69
     0
  7
Standard
140
0.18
170
     5
 62
     0
 63
     7
283
     0
 90
      512
 91
        0
  1

274
    -2
284
     1
 64
     0
275
    -2
285
     1
 65
     0
276
    -2
286
     1
 66
     0
277
    -2
287
     1
 67
     0
278
    -2
288
     1
 68
     0
279
    -2
289
     1
 69
     0
  0
VISUALSTYLE
  5
2F
102
{ACAD_REACTORS
330
2A
102
}
330
2A
100
AcDbVisualStyle
  2
2dWireframe
 70
     4
177
     3
291
     0
 70
    58
 90
        0
176
     1
 90
        2
176
     1
 90
        0
176
     1
 90
        0
176
     1
 40
0.6
176
     1
 40
30.0
176
     1
 62
     7
420
 16777215
176
     1
 90
        1
176
     1
 90
        4
176
     1
 62
     7
176
     1
 62
   257
176
     1
 90
        1
176
     1
 90
        1
176
     1
 40
1.0
176
     1
 90
        0
176
     1
 62
   257
176
     1
 40
1.0
176
     1
 90
        1
176
     1
 90
        6
176
     1
 90
        2
176
     1
 62
     7
176
     1
 90
        5
176
     1
 90
        0
176
     1
 90
        0
176
     1
290
     0
176
     1
 90
        1
176
     1
 40
0.0
176
     1
 90
        0
176
     1
290
     1
176
     1
290
     1
176
     1
290
     0
176
     1
290
     0
176
     1
290
     0
176
     1
290
     0
176
     1
290
     0
176
     1
290
     0
176
     1
290
     0
176
     1
 90
       50
176
     1
 40
0.0
176
     1
 40
1.0
176
     1
 90
        0
176
     1
 62
    18
420
        0
176
     1
 90
       50
176
     1
 90
        3
176
     1
 62
     5
420
      255
176
     1
290
     0
176
     1
 90
       50
176
     1
 90
       50
176
     1
 90
       50
176
     1
290
     0
176
     1
 90
       50
176
     1
 62
   256
176
     0
 40
1.0
176
     0
 90
        2
176
     1
  1
strokes_ogs.tif
176
     1
290
     0
176
     1
 40
1.0
176
     1
 40
1.0
176
     1
1001
ACAD
1000
AcDbSavedByObjectVersion
1070
     0
  0
VISUALSTYLE
  5
31
102
{ACAD_REACTORS
330
2A
102
}
330
2A
100
AcDbVisualStyle
  2
3D Hidden
 70
     6
177
     3
291
     0
 70
    58
 90
        1
176
     1
 90
        2
176
     1
 90
        2
176
     1
 90
        0
176
     1
 40
0.6
176
     1
 40
30.0
176
     1
 62
     7
420
 16777215
176
     1
 90
        2
176
     1
 90
        2
176
     1
 62
     7
176
     1
 62
   257
176
     1
 90
        2
176
     1
 90
        1
176
     1
 40
40.0
176
     1
 90
        0
176
     1
 62
   257
176
     1
 40
1.0
176
     1
 90
        1
176
     1
 90
        6
176
     1
 90
        2
176
     1
 62
     7
176
     1
 90
        3
176
     1
 90
        0
176
     1
 90
        0
176
     1
290
     0
176
     1
 90
        1
176
     1
 40
0.0
176
     1
 90
        0
176
     1
290
     0
176
     1
290
     1
176
     1
290
     1
176
     1
290
     0
176
     1
290
     0
176
     1
290
     0
176
     1
290
     0
176
     1
290
     0
176
     1
290
     0
176
     1
 90
       50
176
     1
 40
0.0
176
     1
 40
1.0
176
     1
 90
        0
176
     1
 62
    18
420
        0
176
     1
 90
       50
176
     1
 90
        3
176
     1
 62
     5
420
      255
176
     1
290
     0
176
     1
 90
       50
176
     1
 90
       50
176
     1
 90
       50
176
     1
290
     0
176
     1
 90
       50
176
     1
 62
   256
176
     0
 40
1.0
176
     0
 90
        2
176
     1
  1
strokes_ogs.tif
176
     1
290
     0
176
     1
 40
1.0
176
     1
 40
1.0
176
     1
1001
ACAD
1000
AcDbSavedByObjectVersion
1070
     0
  0
VISUALSTYLE
  5
30
102
{ACAD_REACTORS
330
2A
102
}
330
2A
100
AcDbVisualStyle
  2
3dWireframe
 70
     5
177
     3
291
     0
 70
    58
 90
        0
176
     1
 90
        2
176
     1
 90
        0
176
     1
 90
        0
176
     1
 40
0.6
176
     1
 40
30.0
176
     1
 62
     7
420
 16777215
176
     1
 90
        1
176
     1
 90
        4
176
     1
 62
     7
176
     1
 62
   257
176
     1
 90
        1
176
     1
 90
        1
176
     1
 40
1.0
176
     1
 90
        0
176
     1
 62
   257
176
     1
 40
1.0
176
     1
 90
        1
176
     1
 90
        6
176
     1
 90
        2
176
     1
 62
     7
176
     1
 90
        5
176
     1
 90
        0
176
     1
 90
        0
176
     1
290
     0
176
     1
 90
        1
176
     1
 40
0.0
176
     1
 90
        0
176
     1
290
     0
176
     1
290
     1
176
     1
290
     1
176
     1
290
     0
176
     1
290
     0
176
     1
290
     0
176
     1
290
     0
176
     1
290
     0
176
     1
290
     0
176
     1
 90
       50
176
     1
 40
0.0
176
     1
 40
1.0
176
     1
 90
        0
176
     1
 62
    18
420
        0
176
     1
 90
       50
176
     1
 90
        3
176
     1
 62
     5
420
      255
176
     1
290
     0
176
     1
 90
       50
176
     1
 90
       50
176
     1
 90
       50
176
     1
290
     0
176
     1
 90
       50
176
     1
 62
   256
176
     0
 40
1.0
176
     0
 90
        2
176
     1
  1
strokes_ogs.tif
176
     1
290
     0
176
     1
 40
1.0
176
     1
 40
1.0
176
     1
1001
ACAD
1000
AcDbSavedByObjectVersion
1070
     0
  0
VISUALSTYLE
  5
32
102
{ACAD_REACTORS
330
2A
102
}
330
2A
100
AcDbVisualStyle
  2
Basic
 70
     7
177
     3
291
     1
 70
    58
 90
        1
176
     1
 90
        0
176
     1
 90
        1
176
     1
 90
        0
176
     1
 40
0.6
176
     1
 40
30.0
176
     1
 62
     7
420
 16777215
176
     1
 90
        0
176
     1
 90
        4
176
     1
 62
     7
176
     1
 62
   257
176
     1
 90
        1
176
     1
 90
        1
176
     1
 40
1.0
176
     1
 90
        8
176
     1
 62
     7
176
     1
 40
1.0
176
     1
 90
        1
176
     1
 90
        6
176
     1
 90
        2
176
     1
 62
     7
176
     1
 90
        5
176
     1
 90
        0
176
     1
 90
        0
176
     1
290
     0
176
     1
 90
        1
176
     1
 40
0.0
176
     1
 90
        0
176
     1
290
     0
176
     1
290
     1
176
     1
290
     1
176
     1
290
     0
176
     1
290
     0
176
     1
290
     0
176
     1
290
     0
176
     1
290
     0
176
     1
290
     0
176
     1
 90
       50
176
     1
 40
0.0
176
     1
 40
1.0
176
     1
 90
        0
176
     1
 62
    18
420
        0
176
     1
 90
       50
176
     1
 90
        3
176
     1
 62
     5
420
      255
176
     1
290
     0
176
     1
 90
       50
176
     1
 90
       50
176
     1
 90
       50
176
     1
290
     0
176
     1
 90
       50
176
     1
 62
   256
176
     0
 40
1.0
176
     0
 90
        2
176
     1
  1
strokes_ogs.tif
176
     1
290
     0
176
     1
 40
1.0
176
     1
 40
1.0
176
     1
1001
ACAD
1000
AcDbSavedByObjectVersion
1070
     0
  0
VISUALSTYLE
  5
36
102
{ACAD_REACTORS
330
2A
102
}
330
2A
100
AcDbVisualStyle
  2
Brighten
 70
    12
177
     3
291
     1
 70
    58
 90
        2
176
     1
 90
        2
176
     1
 90
        0
176
     1
 90
        0
176
     1
 40
0.6
176
     1
 40
30.0
176
     1
 62
     7
420
 16777215
176
     1
 90
        1
176
     1
 90
        4
176
     1
 62
     7
176
     1
 62
   257
176
     1
 90
        1
176
     1
 90
        1
176
     1
 40
1.0
176
     1
 90
        8
176
     1
 62
     7
176
     1
 40
1.0
176
     1
 90
        1
176
     1
 90
        6
176
     1
 90
        2
176
     1
 62
     7
176
     1
 90
        5
176
     1
 90
        0
176
     1
 90
        0
176
     1
290
     0
176
     1
 90
        1
176
     1
 40
50.0
176
     1
 90
        0
176
     1
290
     0
176
     1
290
     1
176
     1
290
     1
176
     1
290
     0
176
     1
290
     0
176
     1
290
     0
176
     1
290
     0
176
     1
290
     0
176
     1
290
     0
176
     1
 90
       50
176
     1
 40
0.0
176
     1
 40
1.0
176
     1
 90
        0
176
     1
 62
    18
420
        0
176
     1
 90
       50
176
     1
 90
        3
176
     1
 62
     5
420
      255
176
     1
290
     0
176
     1
 90
       50
176
     1
 90
       50
176
     1
 90
       50
176
     1
290
     0
176
     1
 90
       50
176
     1
 62
   256
176
     0
 40
1.0
176
     0
 90
        2
176
     1
  1
strokes_ogs.tif
176
     1
290
     0
176
     1
 40
1.0
176
     1
 40
1.0
176
     1
1001
ACAD
1000
AcDbSavedByObjectVersion
1070
     0
  0
VISUALSTYLE
  5
3A
102
{ACAD_REACTORS
330
2A
102
}
330
2A
100
AcDbVisualStyle
  2
ColorChange
 70
    16
177
     3
291
     1
 70
    58
 90
        2
176
     1
 90
        2
176
     1
 90
        3
176
     1
 90
        0
176
     1
 40
0.6
176
     1
 40
30.0
176
     1
 62
     8
420
  8421504
176
     1
 90
        1
176
     1
 90
        4
176
     1
 62
     7
176
     1
 62
   257
176
     1
 90
        1
176
     1
 90
        1
176
     1
 40
1.0
176
     1
 90
        8
176
     1
 62
     8
420
  8421504
176
     1
 40
1.0
176
     1
 90
        1
176
     1
 90
        6
176
     1
 90
        2
176
     1
 62
     7
176
     1
 90
        5
176
     1
 90
        0
176
     1
 90
        0
176
     1
290
     0
176
     1
 90
        1
176
     1
 40
0.0
176
     1
 90
        0
176
     1
290
     0
176
     1
290
     1
176
     1
290
     1
176
     1
290
     0
176
     1
290
     0
176
     1
290
     0
176
     1
290
     0
176
     1
290
     0
176
     1
290
     0
176
     1
 90
       50
176
     1
 40
0.0
176
     1
 40
1.0
176
     1
 90
        0
176
     1
 62
    18
420
        0
176
     1
 90
       50
176
     1
 90
        3
176
     1
 62
     5
420
      255
176
     1
290
     0
176
     1
 90
       50
176
     1
 90
       50
176
     1
 90
       50
176
     1
290
     0
176
     1
 90
       50
176
     1
 62
   256
176
     0
 40
1.0
176
     0
 90
        2
176
     1
  1
strokes_ogs.tif
176
     1
290
     0
176
     1
 40
1.0
176
     1
 40
1.0
176
     1
1001
ACAD
1000
AcDbSavedByObjectVersion
1070
     0
  0
VISUALSTYLE
  5
34
102
{ACAD_REACTORS
330
2A
102
}
330
2A
100
AcDbVisualStyle
  2
Conceptual
 70
     9
177
     3
291
     0
 70
    58
 90
        3
176
     1
 90
        2
176
     1
 90
        0
176
     1
 90
        0
176
     1
 40
0.6
176
     1
 40
30.0
176
     1
 62
     7
420
 16777215
176
     1
 90
        2
176
     1
 90
        2
176
     1
 62
     7
176
     1
 62
   257
176
     1
 90
        1
176
     1
 90
        1
176
     1
 40
40.0
176
     1
 90
        8
176
     1
 62
     7
176
     1
 40
1.0
176
     1
 90
        1
176
     1
 90
        6
176
     1
 90
        2
176
     1
 62
     7
176
     1
 90
        3
176
     1
 90
        0
176
     1
 90
        0
176
     1
290
     0
176
     1
 90
        1
176
     1
 40
0.0
176
     1
 90
        0
176
     1
290
     0
176
     1
290
     1
176
     1
290
     1
176
     1
290
     0
176
     1
290
     0
176
     1
290
     0
176
     1
290
     0
176
     1
290
     0
176
     1
290
     0
176
     1
 90
       50
176
     1
 40
0.0
176
     1
 40
1.0
176
     1
 90
        0
176
     1
 62
    18
420
        0
176
     1
 90
       50
176
     1
 90
        3
176
     1
 62
     5
420
      255
176
     1
290
     0
176
     1
 90
       50
176
     1
 90
       50
176
     1
 90
       50
176
     1
290
     0
176
     1
 90
       50
176
     1
 62
   256
176
     0
 40
1.0
176
     0
 90
        2
176
     1
  1
strokes_ogs.tif
176
     1
290
     0
176
     1
 40
1.0
176
     1
 40
1.0
176
     1
1001
ACAD
1000
AcDbSavedByObjectVersion
1070
     0
  0
VISUALSTYLE
  5
35
102
{ACAD_REACTORS
330
2A
102
}
330
2A
100
AcDbVisualStyle
  2
Dim
 70
    11
177
     3
291
     1
 70
    58
 90
        2
176
     1
 90
        2
176
     1
 90
        0
176
     1
 90
        0
176
     1
 40
0.6
176
     1
 40
30.0
176
     1
 62
     7
420
 16777215
176
     1
 90
        1
176
     1
 90
        4
176
     1
 62
     7
176
     1
 62
   257
176
     1
 90
        1
176
     1
 90
        1
176
     1
 40
1.0
176
     1
 90
        8
176
     1
 62
     7
176
     1
 40
1.0
176
     1
 90
        1
176
     1
 90
        6
176
     1
 90
        2
176
     1
 62
     7
176
     1
 90
        5
176
     1
 90
        0
176
     1
 90
        0
176
     1
290
     0
176
     1
 90
        1
176
     1
 40
-50.0
176
     1
 90
        0
176
     1
290
     0
176
     1
290
     1
176
     1
290
     1
176
     1
290
     0
176
     1
290
     0
176
     1
290
     0
176
     1
290
     0
176
     1
290
     0
176
     1
290
     0
176
     1
 90
       50
176
     1
 40
0.0
176
     1
 40
1.0
176
     1
 90
        0
176
     1
 62
    18
420
        0
176
     1
 90
       50
176
     1
 90
        3
176
     1
 62
     5
420
      255
176
     1
290
     0
176
     1
 90
       50
176
     1
 90
       50
176
     1
 90
       50
176
     1
290
     0
176
     1
 90
       50
176
     1
 62
   256
176
     0
 40
1.0
176
     0
 90
        2
176
     1
  1
strokes_ogs.tif
176
     1
290
     0
176
     1
 40
1.0
176
     1
 40
1.0
176
     1
1001
ACAD
1000
AcDbSavedByObjectVersion
1070
     0
  0
VISUALSTYLE
  5
9D
102
{ACAD_REACTORS
330
2A
102
}
330
2A
100
AcDbVisualStyle
  2
EdgeColorOff
 70
    22
177
     3
291
     1
 70
    58
 90
        2
176
     0
 90
        2
176
     0
 90
        0
176
     0
 90
        0
176
     0
 40
0.6
176
     0
 40
30.0
176
     0
 62
     7
420
 16777215
176
     0
 90
        1
176
     0
 90
        4
176
     0
 62
     7
176
     0
 62
   257
176
     0
 90
        1
176
     0
 90
        1
176
     0
 40
1.0
176
     0
 90
        8
176
     2
 62
     7
176
     0
 40
1.0
176
     0
 90
        1
176
     0
 90
        6
176
     0
 90
        2
176
     0
 62
     7
176
     0
 90
        5
176
     0
 90
        0
176
     0
 90
        0
176
     0
290
     0
176
     0
 90
        1
176
     0
 40
0.0
176
     0
 90
        0
176
     0
290
     0
176
     1
290
     1
176
     1
290
     1
176
     1
290
     0
176
     1
290
     0
176
     1
290
     0
176
     1
290
     0
176
     1
290
     0
176
     1
290
     0
176
     1
 90
       50
176
     0
 40
0.0
176
     0
 40
1.0
176
     0
 90
        0
176
     0
 62
    18
420
        0
176
     0
 90
       50
176
     0
 90
        3
176
     0
 62
     5
420
      255
176
     0
290
     0
176
     1
 90
       50
176
     0
 90
       50
176
     0
 90
       50
176
     0
290
     0
176
     1
 90
       50
176
     0
 62
   256
176
     0
 40
1.0
176
     0
 90
        2
176
     0
  1
strokes_ogs.tif
176
     0
290
     0
176
     1
 40
1.0
176
     0
 40
1.0
176
     0
1001
ACAD
1000
AcDbSavedByObjectVersion
1070
     0
  0
VISUALSTYLE
  5
39
102
{ACAD_REACTORS
330
2A
102
}
330
2A
100
AcDbVisualStyle
  2
Facepattern
 70
    15
177
     3
291
     1
 70
    58
 90
        2
176
     1
 90
        2
176
     1
 90
        0
176
     1
 90
        0
176
     1
 40
0.6
176
     1
 40
30.0
176
     1
 62
     7
420
 16777215
176
     1
 90
        1
176
     1
 90
        4
176
     1
 62
     7
176
     1
 62
   257
176
     1
 90
        1
176
     1
 90
        1
176
     1
 40
1.0
176
     1
 90
        8
176
     1
 62
     7
176
     1
 40
1.0
176
     1
 90
        1
176
     1
 90
        6
176
     1
 90
        2
176
     1
 62
     7
176
     1
 90
        5
176
     1
 90
        0
176
     1
 90
        0
176
     1
290
     0
176
     1
 90
        1
176
     1
 40
0.0
176
     1
 90
        0
176
     1
290
     0
176
     1
290
     1
176
     1
290
     1
176
     1
290
     0
176
     1
290
     0
176
     1
290
     0
176
     1
290
     0
176
     1
290
     0
176
     1
290
     0
176
     1
 90
       50
176
     1
 40
0.0
176
     1
 40
1.0
176
     1
 90
        0
176
     1
 62
    18
420
        0
176
     1
 90
       50
176
     1
 90
        3
176
     1
 62
     5
420
      255
176
     1
290
     0
176
     1
 90
       50
176
     1
 90
       50
176
     1
 90
       50
176
     1
290
     0
176
     1
 90
       50
176
     1
 62
   256
176
     0
 40
1.0
176
     0
 90
        2
176
     1
  1
strokes_ogs.tif
176
     1
290
     0
176
     1
 40
1.0
176
     1
 40
1.0
176
     1
1001
ACAD
1000
AcDbSavedByObjectVersion
1070
     0
  0
VISUALSTYLE
  5
2B
102
{ACAD_REACTORS
330
2A
102
}
330
2A
100
AcDbVisualStyle
  2
Flat
 70
     0
177
     3
291
     1
 70
    58
 90
        2
176
     1
 90
        1
176
     1
 90
        1
176
     1
 90
        2
176
     1
 40
0.6
176
     1
 40
30.0
176
     1
 62
     7
420
 16777215
176
     1
 90
        0
176
     1
 90
        4
176
     1
 62
     7
176
     1
 62
   257
176
     1
 90
        1
176
     1
 90
        1
176
     1
 40
1.0
176
     1
 90
        8
176
     1
 62
     7
176
     1
 40
1.0
176
     1
 90
        1
176
     1
 90
        6
176
     1
 90
        2
176
     1
 62
     7
176
     1
 90
        5
176
     1
 90
        0
176
     1
 90
        0
176
     1
290
     0
176
     1
 90
       13
176
     1
 40
0.0
176
     1
 90
        0
176
     1
290
     0
176
     1
290
     1
176
     1
290
     1
176
     1
290
     0
176
     1
290
     0
176
     1
290
     0
176
     1
290
     0
176
     1
290
     0
176
     1
290
     0
176
     1
 90
       50
176
     1
 40
0.0
176
     1
 40
1.0
176
     1
 90
        0
176
     1
 62
    18
420
        0
176
     1
 90
       50
176
     1
 90
        3
176
     1
 62
     5
420
      255
176
     1
290
     0
176
     1
 90
       50
176
     1
 90
       50
176
     1
 90
       50
176
     1
290
     0
176
     1
 90
       50
176
     1
 62
   256
176
     0
 40
1.0
176
     0
 90
        2
176
     1
  1
strokes_ogs.tif
176
     1
290
     0
176
     1
 40
1.0
176
     1
 40
1.0
176
     1
1001
ACAD
1000
AcDbSavedByObjectVersion
1070
     0
  0
VISUALSTYLE
  5
2C
102
{ACAD_REACTORS
330
2A
102
}
330
2A
100
AcDbVisualStyle
  2
FlatWithEdges
 70
     1
177
     3
291
     1
 70
    58
 90
        2
176
     1
 90
        1
176
     1
 90
        1
176
     1
 90
        2
176
     1
 40
0.6
176
     1
 40
30.0
176
     1
 62
     7
420
 16777215
176
     1
 90
        1
176
     1
 90
        4
176
     1
 62
     7
176
     1
 62
   257
176
     1
 90
        1
176
     1
 90
        1
176
     1
 40
1.0
176
     1
 90
        0
176
     1
 62
   257
176
     1
 40
1.0
176
     1
 90
        1
176
     1
 90
        6
176
     1
 90
        2
176
     1
 62
     7
176
     1
 90
        5
176
     1
 90
        0
176
     1
 90
        0
176
     1
290
     0
176
     1
 90
       13
176
     1
 40
0.0
176
     1
 90
        0
176
     1
290
     0
176
     1
290
     1
176
     1
290
     1
176
     1
290
     0
176
     1
290
     0
176
     1
290
     0
176
     1
290
     0
176
     1
290
     0
176
     1
290
     0
176
     1
 90
       50
176
     1
 40
0.0
176
     1
 40
1.0
176
     1
 90
        0
176
     1
 62
    18
420
        0
176
     1
 90
       50
176
     1
 90
        3
176
     1
 62
     5
420
      255
176
     1
290
     0
176
     1
 90
       50
176
     1
 90
       50
176
     1
 90
       50
176
     1
290
     0
176
     1
 90
       50
176
     1
 62
   256
176
     0
 40
1.0
176
     0
 90
        2
176
     1
  1
strokes_ogs.tif
176
     1
290
     0
176
     1
 40
1.0
176
     1
 40
1.0
176
     1
1001
ACAD
1000
AcDbSavedByObjectVersion
1070
     0
  0
VISUALSTYLE
  5
2D
102
{ACAD_REACTORS
330
2A
102
}
330
2A
100
AcDbVisualStyle
  2
Gouraud
 70
     2
177
     3
291
     1
 70
    58
 90
        2
176
     1
 90
        2
176
     1
 90
        1
176
     1
 90
        2
176
     1
 40
0.6
176
     1
 40
30.0
176
     1
 62
     7
420
 16777215
176
     1
 90
        0
176
     1
 90
        4
176
     1
 62
     7
176
     1
 62
   257
176
     1
 90
        1
176
     1
 90
        1
176
     1
 40
1.0
176
     1
 90
        0
176
     1
 62
     7
176
     1
 40
1.0
176
     1
 90
        1
176
     1
 90
        6
176
     1
 90
        2
176
     1
 62
     7
176
     1
 90
        5
176
     1
 90
        0
176
     1
 90
        0
176
     1
290
     0
176
     1
 90
       13
176
     1
 40
0.0
176
     1
 90
        0
176
     1
290
     0
176
     1
290
     1
176
     1
290
     1
176
     1
290
     0
176
     1
290
     0
176
     1
290
     0
176
     1
290
     0
176
     1
290
     0
176
     1
290
     0
176
     1
 90
       50
176
     1
 40
0.0
176
     1
 40
1.0
176
     1
 90
        0
176
     1
 62
    18
420
        0
176
     1
 90
       50
176
     1
 90
        3
176
     1
 62
     5
420
      255
176
     1
290
     0
176
     1
 90
       50
176
     1
 90
       50
176
     1
 90
       50
176
     1
290
     0
176
     1
 90
       50
176
     1
 62
   256
176
     0
 40
1.0
176
     0
 90
        2
176
     1
  1
strokes_ogs.tif
176
     1
290
     0
176
     1
 40
1.0
176
     1
 40
1.0
176
     1
1001
ACAD
1000
AcDbSavedByObjectVersion
1070
     0
  0
VISUALSTYLE
  5
2E
102
{ACAD_REACTORS
330
2A
102
}
330
2A
100
AcDbVisualStyle
  2
GouraudWithEdges
 70
     3
177
     3
291
     1
 70
    58
 90
        2
176
     1
 90
        2
176
     1
 90
        1
176
     1
 90
        2
176
     1
 40
0.6
176
     1
 40
30.0
176
     1
 62
     7
420
 16777215
176
     1
 90
        1
176
     1
 90
        4
176
     1
 62
     7
176
     1
 62
   257
176
     1
 90
        1
176
     1
 90
        1
176
     1
 40
1.0
176
     1
 90
        0
176
     1
 62
   257
176
     1
 40
1.0
176
     1
 90
        1
176
     1
 90
        6
176
     1
 90
        2
176
     1
 62
     7
176
     1
 90
        5
176
     1
 90
        0
176
     1
 90
        0
176
     1
290
     0
176
     1
 90
       13
176
     1
 40
0.0
176
     1
 90
        0
176
     1
290
     0
176
     1
290
     1
176
     1
290
     1
176
     1
290
     0
176
     1
290
     0
176
     1
290
     0
176
     1
290
     0
176
     1
290
     0
176
     1
290
     0
176
     1
 90
       50
176
     1
 40
0.0
176
     1
 40
1.0
176
     1
 90
        0
176
     1
 62
    18
420
        0
176
     1
 90
       50
176
     1
 90
        3
176
     1
 62
     5
420
      255
176
     1
290
     0
176
     1
 90
       50
176
     1
 90
       50
176
     1
 90
       50
176
     1
290
     0
176
     1
 90
       50
176
     1
 62
   256
176
     0
 40
1.0
176
     0
 90
        2
176
     1
  1
strokes_ogs.tif
176
     1
290
     0
176
     1
 40
1.0
176
     1
 40
1.0
176
     1
1001
ACAD
1000
AcDbSavedByObjectVersion
1070
     0
  0
VISUALSTYLE
  5
95
102
{ACAD_REACTORS
330
2A
102
}
330
2A
100
AcDbVisualStyle
  2
Hidden
 70
     6
177
     3
291
     0
 70
    58
 90
        1
176
     1
 90
        2
176
     1
 90
        2
176
     1
 90
        0
176
     1
 40
0.6
176
     1
 40
30.0
176
     1
 62
     7
420
 16777215
176
     1
 90
        2
176
     1
 90
        2
176
     1
 62
     7
176
     1
 62
   257
176
     1
 90
        2
176
     1
 90
        1
176
     1
 40
40.0
176
     1
 90
        0
176
     1
 62
   257
176
     1
 40
1.0
176
     1
 90
        1
176
     1
 90
        6
176
     1
 90
        2
176
     1
 62
     7
176
     1
 90
        3
176
     1
 90
        0
176
     1
 90
        0
176
     1
290
     0
176
     1
 90
        1
176
     1
 40
0.0
176
     1
 90
        0
176
     1
290
     0
176
     1
290
     1
176
     1
290
     1
176
     1
290
     0
176
     1
290
     0
176
     1
290
     0
176
     1
290
     0
176
     1
290
     0
176
     1
290
     0
176
     1
 90
       50
176
     1
 40
0.0
176
     1
 40
1.0
176
     1
 90
        0
176
     1
 62
    18
420
        0
176
     1
 90
       50
176
     1
 90
        3
176
     1
 62
     5
420
      255
176
     1
290
     0
176
     1
 90
       50
176
     1
 90
       50
176
     1
 90
       50
176
     1
290
     0
176
     1
 90
       50
176
     1
 62
   256
176
     0
 40
1.0
176
     0
 90
        2
176
     1
  1
strokes_ogs.tif
176
     1
290
     0
176
     1
 40
1.0
176
     1
 40
1.0
176
     1
1001
ACAD
1000
AcDbSavedByObjectVersion
1070
     0
  0
VISUALSTYLE
  5
9B
102
{ACAD_REACTORS
330
2A
102
}
330
2A
100
AcDbVisualStyle
  2
JitterOff
 70
    20
177
     3
291
     1
 70
    58
 90
        2
176
     0
 90
        2
176
     0
 90
        0
176
     0
 90
        0
176
     0
 40
0.6
176
     0
 40
30.0
176
     0
 62
     7
420
 16777215
176
     0
 90
        1
176
     0
 90
        4
176
     0
 62
     7
176
     0
 62
   257
176
     0
 90
        1
176
     0
 90
        1
176
     0
 40
1.0
176
     0
 90
       10
176
     2
 62
     7
176
     0
 40
1.0
176
     0
 90
        1
176
     0
 90
        6
176
     0
 90
        2
176
     0
 62
     7
176
     0
 90
        5
176
     0
 90
        0
176
     0
 90
        0
176
     0
290
     0
176
     0
 90
        1
176
     0
 40
0.0
176
     0
 90
        0
176
     0
290
     0
176
     1
290
     1
176
     1
290
     1
176
     1
290
     0
176
     1
290
     0
176
     1
290
     0
176
     1
290
     0
176
     1
290
     0
176
     1
290
     0
176
     1
 90
       50
176
     0
 40
0.0
176
     0
 40
1.0
176
     0
 90
        0
176
     0
 62
    18
420
        0
176
     0
 90
       50
176
     0
 90
        3
176
     0
 62
     5
420
      255
176
     0
290
     0
176
     1
 90
       50
176
     0
 90
       50
176
     0
 90
       50
176
     0
290
     0
176
     1
 90
       50
176
     0
 62
   256
176
     0
 40
1.0
176
     0
 90
        2
176
     0
  1
strokes_ogs.tif
176
     0
290
     0
176
     1
 40
1.0
176
     0
 40
1.0
176
     0
1001
ACAD
1000
AcDbSavedByObjectVersion
1070
     0
  0
VISUALSTYLE
  5
38
102
{ACAD_REACTORS
330
2A
102
}
330
2A
100
AcDbVisualStyle
  2
Linepattern
 70
    14
177
     3
291
     1
 70
    58
 90
        2
176
     1
 90
        2
176
     1
 90
        0
176
     1
 90
        0
176
     1
 40
0.6
176
     1
 40
30.0
176
     1
 62
     7
420
 16777215
176
     1
 90
        1
176
     1
 90
        4
176
     1
 62
     7
176
     1
 62
   257
176
     1
 90
        7
176
     1
 90
        7
176
     1
 40
1.0
176
     1
 90
        8
176
     1
 62
     7
176
     1
 40
1.0
176
     1
 90
        1
176
     1
 90
        6
176
     1
 90
        2
176
     1
 62
     7
176
     1
 90
        5
176
     1
 90
        0
176
     1
 90
        0
176
     1
290
     0
176
     1
 90
        1
176
     1
 40
0.0
176
     1
 90
        0
176
     1
290
     0
176
     1
290
     1
176
     1
290
     1
176
     1
290
     0
176
     1
290
     0
176
     1
290
     0
176
     1
290
     0
176
     1
290
     0
176
     1
290
     0
176
     1
 90
       50
176
     1
 40
0.0
176
     1
 40
1.0
176
     1
 90
        0
176
     1
 62
    18
420
        0
176
     1
 90
       50
176
     1
 90
        3
176
     1
 62
     5
420
      255
176
     1
290
     0
176
     1
 90
       50
176
     1
 90
       50
176
     1
 90
       50
176
     1
290
     0
176
     1
 90
       50
176
     1
 62
   256
176
     0
 40
1.0
176
     0
 90
        2
176
     1
  1
strokes_ogs.tif
176
     1
290
     0
176
     1
 40
1.0
176
     1
 40
1.0
176
     1
1001
ACAD
1000
AcDbSavedByObjectVersion
1070
     0
  0
VISUALSTYLE
  5
9C
102
{ACAD_REACTORS
330
2A
102
}
330
2A
100
AcDbVisualStyle
  2
OverhangOff
 70
    21
177
     3
291
     1
 70
    58
 90
        2
176
     0
 90
        2
176
     0
 90
        0
176
     0
 90
        0
176
     0
 40
0.6
176
     0
 40
30.0
176
     0
 62
     7
420
 16777215
176
     0
 90
        1
176
     0
 90
        4
176
     0
 62
     7
176
     0
 62
   257
176
     0
 90
        1
176
     0
 90
        1
176
     0
 40
1.0
176
     0
 90
        9
176
     2
 62
     7
176
     0
 40
1.0
176
     0
 90
        1
176
     0
 90
        6
176
     0
 90
        2
176
     0
 62
     7
176
     0
 90
        5
176
     0
 90
        0
176
     0
 90
        0
176
     0
290
     0
176
     0
 90
        1
176
     0
 40
0.0
176
     0
 90
        0
176
     0
290
     0
176
     1
290
     1
176
     1
290
     1
176
     1
290
     0
176
     1
290
     0
176
     1
290
     0
176
     1
290
     0
176
     1
290
     0
176
     1
290
     0
176
     1
 90
       50
176
     0
 40
0.0
176
     0
 40
1.0
176
     0
 90
        0
176
     0
 62
    18
420
        0
176
     0
 90
       50
176
     0
 90
        3
176
     0
 62
     5
420
      255
176
     0
290
     0
176
     1
 90
       50
176
     0
 90
       50
176
     0
 90
       50
176
     0
290
     0
176
     1
 90
       50
176
     0
 62
   256
176
     0
 40
1.0
176
     0
 90
        2
176
     0
  1
strokes_ogs.tif
176
     0
290
     0
176
     1
 40
1.0
176
     0
 40
1.0
176
     0
1001
ACAD
1000
AcDbSavedByObjectVersion
1070
     0
  0
VISUALSTYLE
  5
33
102
{ACAD_REACTORS
330
2A
102
}
330
2A
100
AcDbVisualStyle
  2
Realistic
 70
     8
177
     3
291
     0
 70
    58
 90
        2
176
     1
 90
        2
176
     1
 90
        0
176
     1
 90
        0
176
     1
 40
0.6
176
     1
 40
30.0
176
     1
 62
     7
420
 16777215
176
     1
 90
        1
176
     1
 90
        0
176
     1
 62
     7
176
     1
 62
   257
176
     1
 90
        1
176
     1
 90
        1
176
     1
 40
1.0
176
     1
 90
        8
176
     1
 62
     8
420
  7895160
176
     1
 40
1.0
176
     1
 90
        1
176
     1
 90
        6
176
     1
 90
        2
176
     1
 62
     7
176
     1
 90
        5
176
     1
 90
        0
176
     1
 90
        0
176
     1
290
     0
176
     1
 90
       13
176
     1
 40
0.0
176
     1
 90
        0
176
     1
290
     0
176
     1
290
     1
176
     1
290
     1
176
     1
290
     0
176
     1
290
     0
176
     1
290
     0
176
     1
290
     0
176
     1
290
     0
176
     1
290
     0
176
     1
 90
       50
176
     1
 40
0.0
176
     1
 40
1.0
176
     1
 90
        0
176
     1
 62
    18
420
        0
176
     1
 90
       50
176
     1
 90
        3
176
     1
 62
     5
420
      255
176
     1
290
     0
176
     1
 90
       50
176
     1
 90
       50
176
     1
 90
       50
176
     1
290
     0
176
     1
 90
       50
176
     1
 62
   256
176
     0
 40
1.0
176
     0
 90
        2
176
     1
  1
strokes_ogs.tif
176
     1
290
     0
176
     1
 40
1.0
176
     1
 40
1.0
176
     1
1001
ACAD
1000
AcDbSavedByObjectVersion
1070
     0
  0
VISUALSTYLE
  5
9A
102
{ACAD_REACTORS
330
2A
102
}
330
2A
100
AcDbVisualStyle
  2
Shaded
 70
    27
177
     3
291
     0
 70
    58
 90
        2
176
     1
 90
        2
176
     1
 90
        1
176
     1
 90
        2
176
     1
 40
0.6
176
     1
 40
30.0
176
     1
 62
     7
420
 16777215
176
     1
 90
        0
176
     1
 90
        4
176
     1
 62
     7
176
     1
 62
   257
176
     1
 90
        1
176
     1
 90
        1
176
     1
 40
1.0
176
     1
 90
        8
176
     1
 62
   257
176
     1
 40
1.0
176
     1
 90
        1
176
     1
 90
        6
176
     1
 90
        2
176
     1
 62
     8
420
  7895160
176
     1
 90
        3
176
     1
 90
        0
176
     1
 90
        0
176
     1
290
     0
176
     1
 90
        5
176
     1
 40
0.0
176
     1
 90
        0
176
     1
290
     0
176
     1
290
     1
176
     1
290
     1
176
     1
290
     0
176
     1
290
     0
176
     1
290
     0
176
     1
290
     0
176
     1
290
     0
176
     1
290
     0
176
     1
 90
       50
176
     1
 40
0.0
176
     1
 40
1.0
176
     1
 90
        0
176
     1
 62
    18
420
        0
176
     1
 90
       50
176
     1
 90
        3
176
     1
 62
     5
420
      255
176
     1
290
     0
176
     1
 90
       50
176
     1
 90
       50
176
     1
 90
       50
176
     1
290
     0
176
     1
 90
       50
176
     1
 62
   256
176
     0
 40
1.0
176
     0
 90
        2
176
     1
  1
strokes_ogs.tif
176
     1
290
     0
176
     1
 40
1.0
176
     1
 40
1.0
176
     1
1001
ACAD
1000
AcDbSavedByObjectVersion
1070
     0
  0
VISUALSTYLE
  5
99
102
{ACAD_REACTORS
330
2A
102
}
330
2A
100
AcDbVisualStyle
  2
Shaded with edges
 70
    26
177
     3
291
     0
 70
    58
 90
        2
176
     1
 90
        2
176
     1
 90
        1
176
     1
 90
        2
176
     1
 40
0.6
176
     1
 40
30.0
176
     1
 62
     7
420
 16777215
176
     1
 90
        1
176
     1
 90
        2
176
     1
 62
     7
176
     1
 62
   257
176
     1
 90
        2
176
     1
 90
        1
176
     1
 40
1.0
176
     1
 90
        8
176
     1
 62
   257
176
     1
 40
1.0
176
     1
 90
        1
176
     1
 90
        6
176
     1
 90
        2
176
     1
 62
     7
176
     1
 90
        3
176
     1
 90
        0
176
     1
 90
        0
176
     1
290
     0
176
     1
 90
        5
176
     1
 40
0.0
176
     1
 90
        0
176
     1
290
     0
176
     1
290
     1
176
     1
290
     1
176
     1
290
     0
176
     1
290
     0
176
     1
290
     0
176
     1
290
     0
176
     1
290
     0
176
     1
290
     0
176
     1
 90
       50
176
     1
 40
0.0
176
     1
 40
1.0
176
     1
 90
        0
176
     1
 62
    18
420
        0
176
     1
 90
       50
176
     1
 90
        3
176
     1
 62
     5
420
      255
176
     1
290
     0
176
     1
 90
       50
176
     1
 90
       50
176
     1
 90
       50
176
     1
290
     0
176
     1
 90
       50
176
     1
 62
   256
176
     0
 40
1.0
176
     0
 90
        2
176
     1
  1
strokes_ogs.tif
176
     1
290
     0
176
     1
 40
1.0
176
     1
 40
1.0
176
     1
1001
ACAD
1000
AcDbSavedByObjectVersion
1070
     0
  0
VISUALSTYLE
  5
96
102
{ACAD_REACTORS
330
2A
102
}
330
2A
100
AcDbVisualStyle
  2
Shades of Gray
 70
    23
177
     3
291
     0
 70
    58
 90
        2
176
     1
 90
        2
176
     1
 90
        3
176
     1
 90
        0
176
     1
 40
0.6
176
     1
 40
30.0
176
     1
 62
     7
420
 16777215
176
     1
 90
        2
176
     1
 90
        2
176
     1
 62
     7
176
     1
 62
     7
176
     1
 90
        1
176
     1
 90
        1
176
     1
 40
40.0
176
     1
 90
        8
176
     1
 62
     7
176
     1
 40
1.0
176
     1
 90
        1
176
     1
 90
        6
176
     1
 90
        2
176
     1
 62
     7
176
     1
 90
        3
176
     1
 90
        0
176
     1
 90
        0
176
     1
290
     0
176
     1
 90
        1
176
     1
 40
0.0
176
     1
 90
        0
176
     1
290
     0
176
     1
290
     1
176
     1
290
     1
176
     1
290
     0
176
     1
290
     0
176
     1
290
     0
176
     1
290
     0
176
     1
290
     0
176
     1
290
     0
176
     1
 90
       50
176
     1
 40
0.0
176
     1
 40
1.0
176
     1
 90
        0
176
     1
 62
    18
420
        0
176
     1
 90
       50
176
     1
 90
        3
176
     1
 62
     5
420
      255
176
     1
290
     0
176
     1
 90
       50
176
     1
 90
       50
176
     1
 90
       50
176
     1
290
     0
176
     1
 90
       50
176
     1
 62
   256
176
     0
 40
1.0
176
     0
 90
        2
176
     1
  1
strokes_ogs.tif
176
     1
290
     0
176
     1
 40
1.0
176
     1
 40
1.0
176
     1
1001
ACAD
1000
AcDbSavedByObjectVersion
1070
     0
  0
VISUALSTYLE
  5
97
102
{ACAD_REACTORS
330
2A
102
}
330
2A
100
AcDbVisualStyle
  2
Sketchy
 70
    24
177
     3
291
     0
 70
    58
 90
        1
176
     1
 90
        2
176
     1
 90
        2
176
     1
 90
        0
176
     1
 40
0.6
176
     1
 40
30.0
176
     1
 62
     7
420
 16777215
176
     1
 90
        2
176
     1
 90
        2
176
     1
 62
     7
176
     1
 62
     7
176
     1
 90
        1
176
     1
 90
        1
176
     1
 40
40.0
176
     1
 90
       11
176
     1
 62
     7
176
     1
 40
1.0
176
     1
 90
        1
176
     1
 90
        6
176
     1
 90
        2
176
     1
 62
     7
176
     1
 90
        6
176
     1
 90
        0
176
     1
 90
        0
176
     1
290
     0
176
     1
 90
        1
176
     1
 40
0.0
176
     1
 90
        0
176
     1
290
     0
176
     1
290
     1
176
     1
290
     1
176
     1
290
     0
176
     1
290
     0
176
     1
290
     0
176
     1
290
     0
176
     1
290
     0
176
     1
290
     0
176
     1
 90
       50
176
     1
 40
0.0
176
     1
 40
1.0
176
     1
 90
        0
176
     1
 62
    18
420
        0
176
     1
 90
       50
176
     1
 90
        3
176
     1
 62
     5
420
      255
176
     1
290
     0
176
     1
 90
       50
176
     1
 90
       50
176
     1
 90
       50
176
     1
290
     0
176
     1
 90
       50
176
     1
 62
   256
176
     0
 40
1.0
176
     0
 90
        2
176
     1
  1
strokes_ogs.tif
176
     1
290
     0
176
     1
 40
1.0
176
     1
 40
1.0
176
     1
1001
ACAD
1000
AcDbSavedByObjectVersion
1070
     0
  0
VISUALSTYLE
  5
37
102
{ACAD_REACTORS
330
2A
102
}
330
2A
100
AcDbVisualStyle
  2
Thicken
 70
    13
177
     3
291
     1
 70
    58
 90
        2
176
     1
 90
        2
176
     1
 90
        0
176
     1
 90
        0
176
     1
 40
0.6
176
     1
 40
30.0
176
     1
 62
     7
420
 16777215
176
     1
 90
        1
176
     1
 90
        4
176
     1
 62
     7
176
     1
 62
   257
176
     1
 90
        1
176
     1
 90
        1
176
     1
 40
1.0
176
     1
 90
       12
176
     1
 62
     7
176
     1
 40
1.0
176
     1
 90
        1
176
     1
 90
        6
176
     1
 90
        2
176
     1
 62
     7
176
     1
 90
        5
176
     1
 90
        0
176
     1
 90
        0
176
     1
290
     0
176
     1
 90
        1
176
     1
 40
0.0
176
     1
 90
        0
176
     1
290
     0
176
     1
290
     1
176
     1
290
     1
176
     1
290
     0
176
     1
290
     0
176
     1
290
     0
176
     1
290
     0
176
     1
290
     0
176
     1
290
     0
176
     1
 90
       50
176
     1
 40
0.0
176
     1
 40
1.0
176
     1
 90
        0
176
     1
 62
    18
420
        0
176
     1
 90
       50
176
     1
 90
        3
176
     1
 62
     5
420
      255
176
     1
290
     0
176
     1
 90
       50
176
     1
 90
       50
176
     1
 90
       50
176
     1
290
     0
176
     1
 90
       50
176
     1
 62
   256
176
     0
 40
1.0
176
     0
 90
        2
176
     1
  1
strokes_ogs.tif
176
     1
290
     0
176
     1
 40
1.0
176
     1
 40
1.0
176
     1
1001
ACAD
1000
AcDbSavedByObjectVersion
1070
     0
  0
VISUALSTYLE
  5
94
102
{ACAD_REACTORS
330
2A
102
}
330
2A
100
AcDbVisualStyle
  2
Wireframe
 70
     5
177
     3
291
     0
 70
    58
 90
        0
176
     1
 90
        2
176
     1
 90
        0
176
     1
 90
        0
176
     1
 40
0.6
176
     1
 40
30.0
176
     1
 62
     7
420
 16777215
176
     1
 90
        1
176
     1
 90
        4
176
     1
 62
     7
176
     1
 62
   257
176
     1
 90
        1
176
     1
 90
        1
176
     1
 40
1.0
176
     1
 90
        0
176
     1
 62
   257
176
     1
 40
1.0
176
     1
 90
        1
176
     1
 90
        6
176
     1
 90
        2
176
     1
 62
     7
176
     1
 90
        3
176
     1
 90
        0
176
     1
 90
        0
176
     1
290
     0
176
     1
 90
        1
176
     1
 40
0.0
176
     1
 90
        0
176
     1
290
     0
176
     1
290
     1
176
     1
290
     1
176
     1
290
     0
176
     1
290
     0
176
     1
290
     0
176
     1
290
     0
176
     1
290
     0
176
     1
290
     0
176
     1
 90
       50
176
     1
 40
0.0
176
     1
 40
1.0
176
     1
 90
        0
176
     1
 62
    18
420
        0
176
     1
 90
       50
176
     1
 90
        3
176
     1
 62
     5
420
      255
176
     1
290
     0
176
     1
 90
       50
176
     1
 90
       50
176
     1
 90
       50
176
     1
290
     0
176
     1
 90
       50
176
     1
 62
   256
176
     0
 40
1.0
176
     0
 90
        2
176
     1
  1
strokes_ogs.tif
176
     1
290
     0
176
     1
 40
1.0
176
     1
 40
1.0
176
     1
1001
ACAD
1000
AcDbSavedByObjectVersion
1070
     0
  0
VISUALSTYLE
  5
98
102
{ACAD_REACTORS
330
2A
102
}
330
2A
100
AcDbVisualStyle
  2
X-Ray
 70
    25
177
     3
291
     0
 70
    58
 90
        2
176
     1
 90
        2
176
     1
 90
        1
176
     1
 90
        1
176
     1
 40
0.5
176
     1
 40
30.0
176
     1
 62
     7
420
 16777215
176
     1
 90
        1
176
     1
 90
        0
176
     1
 62
     7
176
     1
 62
   257
176
     1
 90
        1
176
     1
 90
        1
176
     1
 40
1.0
176
     1
 90
        8
176
     1
 62
     7
176
     1
 40
1.0
176
     1
 90
        1
176
     1
 90
        6
176
     1
 90
        2
176
     1
 62
     7
176
     1
 90
        3
176
     1
 90
        0
176
     1
 90
        0
176
     1
290
     0
176
     1
 90
       13
176
     1
 40
0.0
176
     1
 90
        0
176
     1
290
     0
176
     1
290
     1
176
     1
290
     1
176
     1
290
     0
176
     1
290
     0
176
     1
290
     0
176
     1
290
     0
176
     1
290
     0
176
     1
290
     0
176
     1
 90
       50
176
     1
 40
0.0
176
     1
 40
1.0
176
     1
 90
        0
176
     1
 62
    18
420
        0
176
     1
 90
       50
176
     1
 90
        3
176
     1
 62
     5
420
      255
176
     1
290
     0
176
     1
 90
       50
176
     1
 90
       50
176
     1
 90
       50
176
     1
290
     0
176
     1
 90
       50
176
     1
 62
   256
176
     0
 40
1.0
176
     0
 90
        2
176
     1
  1
strokes_ogs.tif
176
     1
290
     0
176
     1
 40
1.0
176
     1
 40
1.0
176
     1
1001
ACAD
1000
AcDbSavedByObjectVersion
1070
     0
  0
DICTIONARYVAR
  5
F5
102
{ACAD_REACTORS
330
F0
102
}
330
F0
100
DictionaryVariables
280
     0
  1
1:1
  0
DICTIONARYVAR
  5
F2
102
{ACAD_REACTORS
330
F0
102
}
330
F0
100
DictionaryVariables
280
     0
  1
STANDARD
  0
DICTIONARYVAR
  5
F1
102
{ACAD_REACTORS
330
F0
102
}
330
F0
100
DictionaryVariables
280
     0
  1
STANDARD
  0
DICTIONARYVAR
  5
F3
102
{ACAD_REACTORS
330
F0
102
}
330
F0
100
DictionaryVariables
280
     0
  1
Imperial24
  0
DICTIONARYVAR
  5
F4
102
{ACAD_REACTORS
330
F0
102
}
330
F0
100
DictionaryVariables
280
     0
  1
Imperial24
  0
DICTIONARY
  5
FC
330
BA
100
AcDbDictionary
280
     1
281
     1
  3
ACAD_XREC_ROUNDTRIP
360
FD
  0
DICTIONARY
  5
FA
330
B8
100
AcDbDictionary
280
     1
281
     1
  3
ACAD_XREC_ROUNDTRIP
360
FB
  0
DICTIONARY
  5
F7
330
9F
100
AcDbDictionary
280
     1
281
     1
  3
ACAD_ROUNDTRIP_2008_TABLESTYLE_CELLSTYLEMAP
360
F8
  0
XRECORD
  5
FD
102
{ACAD_REACTORS
330
FC
102
}
330
FC
100
AcDbXrecord
280
     1
102
DISPLAYNAME
  1
Imperial24
102
FLAGS
 90
        0
  0
XRECORD
  5
FB
102
{ACAD_REACTORS
330
FA
102
}
330
FA
100
AcDbXrecord
280
     1
102
DISPLAYNAME
  1
Imperial24
102
FLAGS
 90
        0
  0
CELLSTYLEMAP
  5
F8
102
{ACAD_REACTORS
330
F7
102
}
330
F7
100
AcDbCellStyleMap
 90
        3
300
CELLSTYLE
  1
TABLEFORMAT_BEGIN
 90
        5
170
     1
 91
        0
 92
    32768
 62
   257
 93
        1
300
CONTENTFORMAT
  1
CONTENTFORMAT_BEGIN
 90
        0
 91
        0
 92
      512
 93
        0
300

 40
0.0
140
1.0
 94
        5
 62
     0
340
11
144
0.25
309
CONTENTFORMAT_END
171
     0
 94
        0
309
TABLEFORMAT_END
  1
CELLSTYLE_BEGIN
 90
        1
 91
        1
300
_TITLE
309
CELLSTYLE_END
300
CELLSTYLE
  1
TABLEFORMAT_BEGIN
 90
        5
170
     1
 91
        0
 92
        0
 62
   257
 93
        1
300
CONTENTFORMAT
  1
CONTENTFORMAT_BEGIN
 90
        0
 91
        0
 92
      512
 93
        0
300

 40
0.0
140
1.0
 94
        5
 62
     0
340
11
144
0.18
309
CONTENTFORMAT_END
171
     0
 94
        0
309
TABLEFORMAT_END
  1
CELLSTYLE_BEGIN
 90
        2
 91
        1
300
_HEADER
309
CELLSTYLE_END
300
CELLSTYLE
  1
TABLEFORMAT_BEGIN
 90
        5
170
     1
 91
        0
 92
        0
 62
   257
 93
        1
300
CONTENTFORMAT
  1
CONTENTFORMAT_BEGIN
 90
        0
 91
        0
 92
      512
 93
        0
300

 40
0.0
140
1.0
 94
        2
 62
     0
340
11
144
0.18
309
CONTENTFORMAT_END
171
     0
 94
        0
309
TABLEFORMAT_END
  1
CELLSTYLE_BEGIN
 90
        3
 91
        2
300
_DATA
309
CELLSTYLE_END
  0
ENDSEC
  0
EOF
