  0
SECTION
  2
HEADER
  9
$ACADVER
  1
AC1027
  9
$ACADMAINTVER
 70
   125
  9
$DWGCODEPAGE
  3
ANSI_1252
  9
$LASTSAVEDBY
  1
ufficio.tecnico
  9
$REQUIREDVERSIONS
160
                 0
  9
$INSBASE
 10
0.0
 20
0.0
 30
0.0
  9
$EXTMIN
 10
7.971048123038324
 20
-20.12065560750408
 30
0.0
  9
$EXTMAX
 10
14.09519825957392
 20
-10.64343621133077
 30
0.0
  9
$LIMMIN
 10
0.0
 20
0.0
  9
$LIMMAX
 10
12.0
 20
9.0
  9
$ORTHOMODE
 70
     0
  9
$REGENMODE
 70
     1
  9
$FILLMODE
 70
     1
  9
$QTEXTMODE
 70
     0
  9
$MIRRTEXT
 70
     1
  9
$LTSCALE
 40
1.0
  9
$ATTMODE
 70
     1
  9
$TEXTSIZE
 40
0.2
  9
$TRACEWID
 40
0.05
  9
$TEXTSTYLE
  7
Standard
  9
$CLAYER
  8
0
  9
$CELTYPE
  6
ByLayer
  9
$CECOLOR
 62
   256
  9
$CELTSCALE
 40
1.0
  9
$DISPSILH
 70
     0
  9
$DIMSCALE
 40
1.0
  9
$DIMASZ
 40
0.18
  9
$DIMEXO
 40
0.0625
  9
$DIMDLI
 40
0.38
  9
$DIMRND
 40
0.0
  9
$DIMDLE
 40
0.0
  9
$DIMEXE
 40
0.18
  9
$DIMTP
 40
0.0
  9
$DIMTM
 40
0.0
  9
$DIMTXT
 40
0.18
  9
$DIMCEN
 40
0.09
  9
$DIMTSZ
 40
0.0
  9
$DIMTOL
 70
     0
  9
$DIMLIM
 70
     0
  9
$DIMTIH
 70
     1
  9
$DIMTOH
 70
     1
  9
$DIMSE1
 70
     0
  9
$DIMSE2
 70
     0
  9
$DIMTAD
 70
     0
  9
$DIMZIN
 70
     0
  9
$DIMBLK
  1

  9
$DIMASO
 70
     1
  9
$DIMSHO
 70
     1
  9
$DIMPOST
  1

  9
$DIMAPOST
  1

  9
$DIMALT
 70
     0
  9
$DIMALTD
 70
     2
  9
$DIMALTF
 40
25.4
  9
$DIMLFAC
 40
1.0
  9
$DIMTOFL
 70
     0
  9
$DIMTVP
 40
0.0
  9
$DIMTIX
 70
     0
  9
$DIMSOXD
 70
     0
  9
$DIMSAH
 70
     0
  9
$DIMBLK1
  1

  9
$DIMBLK2
  1

  9
$DIMSTYLE
  2
Standard
  9
$DIMCLRD
 70
     0
  9
$DIMCLRE
 70
     0
  9
$DIMCLRT
 70
     0
  9
$DIMTFAC
 40
1.0
  9
$DIMGAP
 40
0.09
  9
$DIMJUST
 70
     0
  9
$DIMSD1
 70
     0
  9
$DIMSD2
 70
     0
  9
$DIMTOLJ
 70
     1
  9
$DIMTZIN
 70
     0
  9
$DIMALTZ
 70
     0
  9
$DIMALTTZ
 70
     0
  9
$DIMUPT
 70
     0
  9
$DIMDEC
 70
     4
  9
$DIMTDEC
 70
     4
  9
$DIMALTU
 70
     2
  9
$DIMALTTD
 70
     2
  9
$DIMTXSTY
  7
Standard
  9
$DIMAUNIT
 70
     0
  9
$DIMADEC
 70
     0
  9
$DIMALTRND
 40
0.0
  9
$DIMAZIN
 70
     0
  9
$DIMDSEP
 70
    46
  9
$DIMATFIT
 70
     3
  9
$DIMFRAC
 70
     0
  9
$DIMLDRBLK
  1

  9
$DIMLUNIT
 70
     2
  9
$DIMLWD
 70
    -2
  9
$DIMLWE
 70
    -2
  9
$DIMTMOVE
 70
     0
  9
$DIMFXL
 40
1.0
  9
$DIMFXLON
 70
     0
  9
$DIMJOGANG
 40
0.7853981633974483
  9
$DIMTFILL
 70
     0
  9
$DIMTFILLCLR
 70
     0
  9
$DIMARCSYM
 70
     0
  9
$DIMLTYPE
  6

  9
$DIMLTEX1
  6

  9
$DIMLTEX2
  6

  9
$DIMTXTDIRECTION
 70
     0
  9
$LUNITS
 70
     2
  9
$LUPREC
 70
     4
  9
$SKETCHINC
 40
0.1
  9
$FILLETRAD
 40
0.5
  9
$AUNITS
 70
     0
  9
$AUPREC
 70
     0
  9
$MENU
  1
.
  9
$ELEVATION
 40
0.0
  9
$PELEVATION
 40
0.0
  9
$THICKNESS
 40
0.0
  9
$LIMCHECK
 70
     0
  9
$CHAMFERA
 40
0.5
  9
$CHAMFERB
 40
0.5
  9
$CHAMFERC
 40
1.0
  9
$CHAMFERD
 40
0.0
  9
$SKPOLY
 70
     0
  9
$TDCREATE
 40
2459325.714050926
  9
$TDUCREATE
 40
2459325.630726841
  9
$TDUPDATE
 40
2459334.345185185
  9
$TDUUPDATE
 40
2459334.261851852
  9
$TDINDWG
 40
0.0043402894
  9
$TDUSRTIMER
 40
0.0043402894
  9
$USRTIMER
 70
     1
  9
$ANGBASE
 50
0.0
  9
$ANGDIR
 70
     0
  9
$PDMODE
 70
     0
  9
$PDSIZE
 40
0.0
  9
$PLINEWID
 40
0.0
  9
$SPLFRAME
 70
     0
  9
$SPLINETYPE
 70
     6
  9
$SPLINESEGS
 70
     8
  9
$HANDSEED
  5
12C
  9
$SURFTAB1
 70
     6
  9
$SURFTAB2
 70
     6
  9
$SURFTYPE
 70
     6
  9
$SURFU
 70
     6
  9
$SURFV
 70
     6
  9
$UCSBASE
  2

  9
$UCSNAME
  2

  9
$UCSORG
 10
0.0
 20
0.0
 30
0.0
  9
$UCSXDIR
 10
1.0
 20
0.0
 30
0.0
  9
$UCSYDIR
 10
0.0
 20
1.0
 30
0.0
  9
$UCSORTHOREF
  2

  9
$UCSORTHOVIEW
 70
     0
  9
$UCSORGTOP
 10
0.0
 20
0.0
 30
0.0
  9
$UCSORGBOTTOM
 10
0.0
 20
0.0
 30
0.0
  9
$UCSORGLEFT
 10
0.0
 20
0.0
 30
0.0
  9
$UCSORGRIGHT
 10
0.0
 20
0.0
 30
0.0
  9
$UCSORGFRONT
 10
0.0
 20
0.0
 30
0.0
  9
$UCSORGBACK
 10
0.0
 20
0.0
 30
0.0
  9
$PUCSBASE
  2

  9
$PUCSNAME
  2

  9
$PUCSORG
 10
0.0
 20
0.0
 30
0.0
  9
$PUCSXDIR
 10
1.0
 20
0.0
 30
0.0
  9
$PUCSYDIR
 10
0.0
 20
1.0
 30
0.0
  9
$PUCSORTHOREF
  2

  9
$PUCSORTHOVIEW
 70
     0
  9
$PUCSORGTOP
 10
0.0
 20
0.0
 30
0.0
  9
$PUCSORGBOTTOM
 10
0.0
 20
0.0
 30
0.0
  9
$PUCSORGLEFT
 10
0.0
 20
0.0
 30
0.0
  9
$PUCSORGRIGHT
 10
0.0
 20
0.0
 30
0.0
  9
$PUCSORGFRONT
 10
0.0
 20
0.0
 30
0.0
  9
$PUCSORGBACK
 10
0.0
 20
0.0
 30
0.0
  9
$USERI1
 70
     0
  9
$USERI2
 70
     0
  9
$USERI3
 70
     0
  9
$USERI4
 70
     0
  9
$USERI5
 70
     0
  9
$USERR1
 40
0.0
  9
$USERR2
 40
0.0
  9
$USERR3
 40
0.0
  9
$USERR4
 40
0.0
  9
$USERR5
 40
0.0
  9
$WORLDVIEW
 70
     1
  9
$SHADEDGE
 70
     3
  9
$SHADEDIF
 70
    70
  9
$TILEMODE
 70
     1
  9
$MAXACTVP
 70
    64
  9
$PINSBASE
 10
0.0
 20
0.0
 30
0.0
  9
$PLIMCHECK
 70
     0
  9
$PEXTMIN
 10
1.000000000000000E+20
 20
1.000000000000000E+20
 30
1.000000000000000E+20
  9
$PEXTMAX
 10
-1.000000000000000E+20
 20
-1.000000000000000E+20
 30
-1.000000000000000E+20
  9
$PLIMMIN
 10
0.0
 20
0.0
  9
$PLIMMAX
 10
12.0
 20
9.0
  9
$UNITMODE
 70
     0
  9
$VISRETAIN
 70
     1
  9
$PLINEGEN
 70
     0
  9
$PSLTSCALE
 70
     1
  9
$TREEDEPTH
 70
  3020
  9
$CMLSTYLE
  2
Standard
  9
$CMLJUST
 70
     0
  9
$CMLSCALE
 40
1.0
  9
$PROXYGRAPHICS
 70
     1
  9
$MEASUREMENT
 70
     0
  9
$CELWEIGHT
370
    -1
  9
$ENDCAPS
280
     0
  9
$JOINSTYLE
280
     0
  9
$LWDISPLAY
290
     1
  9
$INSUNITS
 70
     5
  9
$HYPERLINKBASE
  1

  9
$STYLESHEET
  1

  9
$XEDIT
290
     1
  9
$CEPSNTYPE
380
     0
  9
$PSTYLEMODE
290
     1
  9
$FINGERPRINTGUID
  2
{2BE1F757-DE7A-47F7-9C2C-455AA73209B4}
  9
$VERSIONGUID
  2
{96B31EAA-124C-0E4D-956B-CA9BE441C76D}
  9
$EXTNAMES
290
     1
  9
$PSVPSCALE
 40
0.0
  9
$OLESTARTUP
290
     0
  9
$SORTENTS
280
   127
  9
$INDEXCTL
280
     0
  9
$HIDETEXT
280
     1
  9
$XCLIPFRAME
280
     2
  9
$HALOGAP
280
     0
  9
$OBSCOLOR
 70
   257
  9
$OBSLTYPE
280
     0
  9
$INTERSECTIONDISPLAY
280
     0
  9
$INTERSECTIONCOLOR
 70
   257
  9
$DIMASSOC
280
     2
  9
$PROJECTNAME
  1

  9
$CAMERADISPLAY
290
     0
  9
$LENSLENGTH
 40
50.0
  9
$CAMERAHEIGHT
 40
0.0
  9
$STEPSPERSEC
 40
2.0
  9
$STEPSIZE
 40
6.0
  9
$3DDWFPREC
 40
2.0
  9
$PSOLWIDTH
 40
0.25
  9
$PSOLHEIGHT
 40
4.0
  9
$LOFTANG1
 40
1.570796326794897
  9
$LOFTANG2
 40
1.570796326794897
  9
$LOFTMAG1
 40
0.0
  9
$LOFTMAG2
 40
0.0
  9
$LOFTPARAM
 70
     7
  9
$LOFTNORMALS
280
     1
  9
$LATITUDE
 40
37.795
  9
$LONGITUDE
 40
-122.394
  9
$NORTHDIRECTION
 40
0.0
  9
$TIMEZONE
 70
 -8000
  9
$LIGHTGLYPHDISPLAY
280
     1
  9
$TILEMODELIGHTSYNCH
280
     1
  9
$CMATERIAL
347
3C
  9
$SOLIDHIST
280
     1
  9
$SHOWHIST
280
     1
  9
$DWFFRAME
280
     2
  9
$DGNFRAME
280
     2
  9
$REALWORLDSCALE
290
     1
  9
$INTERFERECOLOR
 62
   256
  9
$INTERFEREOBJVS
345
33
  9
$INTERFEREVPVS
346
A7
  9
$CSHADOW
280
     0
  9
$SHADOWPLANELOCATION
 40
0.0
  0
ENDSEC
  0
SECTION
  2
CLASSES
  0
CLASS
  1
ACDBDICTIONARYWDFLT
  2
AcDbDictionaryWithDefault
  3
ObjectDBX Classes
 90
        0
 91
        1
280
     0
281
     0
  0
CLASS
  1
VISUALSTYLE
  2
AcDbVisualStyle
  3
ObjectDBX Classes
 90
     4095
 91
       26
280
     0
281
     0
  0
CLASS
  1
MATERIAL
  2
AcDbMaterial
  3
ObjectDBX Classes
 90
     1153
 91
        3
280
     0
281
     0
  0
CLASS
  1
SUN
  2
AcDbSun
  3
SCENEOE
 90
     1153
 91
        1
280
     0
281
     0
  0
CLASS
  1
TABLESTYLE
  2
AcDbTableStyle
  3
ObjectDBX Classes
 90
     4095
 91
        1
280
     0
281
     0
  0
CLASS
  1
SCALE
  2
AcDbScale
  3
ObjectDBX Classes
 90
     1153
 91
       21
280
     0
281
     0
  0
CLASS
  1
MLEADERSTYLE
  2
AcDbMLeaderStyle
  3
ACDB_MLEADERSTYLE_CLASS
 90
     4095
 91
        1
280
     0
281
     0
  0
CLASS
  1
ACDBSECTIONVIEWSTYLE
  2
AcDbSectionViewStyle
  3
ObjectDBX Classes
 90
     1025
 91
        1
280
     0
281
     0
  0
CLASS
  1
ACDBDETAILVIEWSTYLE
  2
AcDbDetailViewStyle
  3
ObjectDBX Classes
 90
     1025
 91
        1
280
     0
281
     0
  0
CLASS
  1
SOLID_BACKGROUND
  2
AcDbSolidBackground
  3
SCENEOE
 90
     4095
 91
        1
280
     0
281
     0
  0
CLASS
  1
NPOCOLLECTION
  2
AcDbImpNonPersistentObjectsCollection
  3
ObjectDBX Classes
 90
     1153
 91
        1
280
     0
281
     0
  0
CLASS
  1
SORTENTSTABLE
  2
AcDbSortentsTable
  3
ObjectDBX Classes
 90
        0
 91
        1
280
     0
281
     0
  0
CLASS
  1
DICTIONARYVAR
  2
AcDbDictionaryVar
  3
ObjectDBX Classes
 90
        0
 91
        5
280
     0
281
     0
  0
CLASS
  1
CELLSTYLEMAP
  2
AcDbCellStyleMap
  3
ObjectDBX Classes
 90
     1152
 91
        3
280
     0
281
     0
  0
ENDSEC
  0
SECTION
  2
TABLES
  0
TABLE
  2
VPORT
  5
8
330
0
100
AcDbSymbolTable
 70
     1
1001
ACAD
1000
DbSaveVer
1071
      105
  0
VPORT
  5
29
330
8
100
AcDbSymbolTableRecord
100
AcDbViewportTableRecord
  2
*Active
 70
     0
 10
0.0
 20
0.0
 11
1.0
 21
1.0
 12
0.0
 22
0.0
 13
0.0
 23
0.0
 14
0.5
 24
0.5
 15
0.5
 25
0.5
 16
0.0
 26
0.0
 36
43.84458629233294
 17
21.71713862690464
 27
-14.84999710739862
 37
0.0
 40
23.36804373175201
 41
1.932867132867133
 42
50.0
 43
0.0
 44
0.0
 50
0.0
 51
0.0
 71
     0
 72
   100
 73
     1
 74
     3
 75
     0
 76
     0
 77
     0
 78
     0
281
     2
 65
     1
110
0.0
120
0.0
130
0.0
111
1.0
121
0.0
131
0.0
112
0.0
122
1.0
132
0.0
 79
     0
146
0.0
348
31
 60
     3
 61
     5
292
     1
282
     1
141
0.0
142
0.0
 63
   250
361
3F
1001
ACAD_NAV_VCDISPLAY
1070
     3
  0
ENDTAB
  0
TABLE
  2
LTYPE
  5
5
330
0
100
AcDbSymbolTable
 70
     1
  0
LTYPE
  5
14
330
5
100
AcDbSymbolTableRecord
100
AcDbLinetypeTableRecord
  2
ByBlock
 70
     0
  3

 72
    65
 73
     0
 40
0.0
  0
LTYPE
  5
15
330
5
100
AcDbSymbolTableRecord
100
AcDbLinetypeTableRecord
  2
ByLayer
 70
     0
  3

 72
    65
 73
     0
 40
0.0
  0
LTYPE
  5
16
330
5
100
AcDbSymbolTableRecord
100
AcDbLinetypeTableRecord
  2
Continuous
 70
     0
  3
Solid line
 72
    65
 73
     0
 40
0.0
  0
ENDTAB
  0
TABLE
  2
LAYER
  5
2
330
0
100
AcDbSymbolTable
 70
     2
  0
LAYER
  5
10
330
2
100
AcDbSymbolTableRecord
100
AcDbLayerTableRecord
  2
0
 70
     0
 62
     7
  6
Continuous
370
    -3
390
F
347
3E
348
0
  0
LAYER
  5
40
330
2
100
AcDbSymbolTableRecord
100
AcDbLayerTableRecord
  2
Livello 1
 70
     0
 62
     7
  6
Continuous
370
    -3
390
F
347
3E
348
0
  0
ENDTAB
  0
TABLE
  2
STYLE
  5
3
330
0
100
AcDbSymbolTable
 70
     1
  0
STYLE
  5
11
330
3
100
AcDbSymbolTableRecord
100
AcDbTextStyleTableRecord
  2
Standard
 70
     0
 40
0.0
 41
1.0
 50
0.0
 71
     0
 42
0.2
  3
txt
  4

  0
ENDTAB
  0
TABLE
  2
VIEW
  5
6
330
0
100
AcDbSymbolTable
 70
     0
  0
ENDTAB
  0
TABLE
  2
UCS
  5
7
330
0
100
AcDbSymbolTable
 70
     0
  0
ENDTAB
  0
TABLE
  2
APPID
  5
9
330
0
100
AcDbSymbolTable
 70
     2
  0
APPID
  5
12
330
9
100
AcDbSymbolTableRecord
100
AcDbRegAppTableRecord
  2
ACAD
 70
     0
  0
APPID
  5
116
330
9
100
AcDbSymbolTableRecord
100
AcDbRegAppTableRecord
  2
ACAD_NAV_VCDISPLAY
 70
     0
  0
ENDTAB
  0
TABLE
  2
DIMSTYLE
  5
A
330
0
100
AcDbSymbolTable
 70
     1
100
AcDbDimStyleTable
 71
     0
  0
DIMSTYLE
105
27
330
A
100
AcDbSymbolTableRecord
100
AcDbDimStyleTableRecord
  2
Standard
 70
     0
340
11
  0
ENDTAB
  0
TABLE
  2
BLOCK_RECORD
  5
1
330
0
100
AcDbSymbolTable
 70
     8
  0
BLOCK_RECORD
  5
1F
102
{ACAD_XDICTIONARY
360
D4
102
}
330
1
100
AcDbSymbolTableRecord
100
AcDbBlockTableRecord
  2
*Model_Space
340
22
 70
     0
280
     1
281
     0
  0
BLOCK_RECORD
  5
1B
330
1
100
AcDbSymbolTableRecord
100
AcDbBlockTableRecord
  2
*Paper_Space
340
1E
 70
     0
280
     1
281
     0
  0
BLOCK_RECORD
  5
23
330
1
100
AcDbSymbolTableRecord
100
AcDbBlockTableRecord
  2
*Paper_Space0
340
26
 70
     0
280
     1
281
     0
  0
BLOCK_RECORD
  5
41
330
1
100
AcDbSymbolTableRecord
100
AcDbBlockTableRecord
  2
block 2
340
0
 70
     0
280
     1
281
     0
  0
BLOCK_RECORD
  5
4C
330
1
100
AcDbSymbolTableRecord
100
AcDbBlockTableRecord
  2
block 3
340
0
 70
     0
280
     1
281
     0
  0
BLOCK_RECORD
  5
51
330
1
100
AcDbSymbolTableRecord
100
AcDbBlockTableRecord
  2
block 4
340
0
 70
     0
280
     1
281
     0
  0
BLOCK_RECORD
  5
66
330
1
100
AcDbSymbolTableRecord
100
AcDbBlockTableRecord
  2
block 5
340
0
 70
     0
280
     1
281
     0
  0
BLOCK_RECORD
  5
6D
330
1
100
AcDbSymbolTableRecord
100
AcDbBlockTableRecord
  2
block 6
340
0
 70
     0
280
     1
281
     0
  0
BLOCK_RECORD
  5
81
330
1
100
AcDbSymbolTableRecord
100
AcDbBlockTableRecord
  2
block 7
340
0
 70
     0
280
     1
281
     0
  0
BLOCK_RECORD
  5
89
330
1
100
AcDbSymbolTableRecord
100
AcDbBlockTableRecord
  2
block 8
340
0
 70
     0
280
     1
281
     0
  0
ENDTAB
  0
ENDSEC
  0
SECTION
  2
BLOCKS
  0
BLOCK
  5
20
330
1F
100
AcDbEntity
  8
0
100
AcDbBlockBegin
  2
*Model_Space
 70
     0
 10
0.0
 20
0.0
 30
0.0
  3
*Model_Space
  1

  0
ENDBLK
  5
21
330
1F
100
AcDbEntity
  8
0
100
AcDbBlockEnd
  0
BLOCK
  5
1C
330
1B
100
AcDbEntity
 67
     1
  8
0
100
AcDbBlockBegin
  2
*Paper_Space
 70
     0
 10
0.0
 20
0.0
 30
0.0
  3
*Paper_Space
  1

  0
ENDBLK
  5
1D
330
1B
100
AcDbEntity
 67
     1
  8
0
100
AcDbBlockEnd
  0
BLOCK
  5
24
330
23
100
AcDbEntity
 67
     1
  8
0
100
AcDbBlockBegin
  2
*Paper_Space0
 70
     0
 10
0.0
 20
0.0
 30
0.0
  3
*Paper_Space0
  1

  0
ENDBLK
  5
25
330
23
100
AcDbEntity
 67
     1
  8
0
100
AcDbBlockEnd
  0
BLOCK
  5
43
330
41
100
AcDbEntity
  8
0
100
AcDbBlockBegin
  2
block 2
 70
     0
 10
0.0
 20
0.0
 30
0.0
  3
block 2
  1

  0
POLYLINE
  5
45
330
41
100
AcDbEntity
  8
Livello 1
 62
   250
420
  1842203
370
    70
100
AcDb2dPolyline
 66
     1
 10
0.0
 20
0.0
 30
0.0
  0
VERTEX
  5
46
330
45
100
AcDbEntity
  8
Livello 1
 62
   250
420
  1842203
370
    70
100
AcDbVertex
100
AcDb2dVertex
 10
11.15676274314505
 20
-11.42157579446957
 30
0.0
  0
VERTEX
  5
47
330
45
100
AcDbEntity
  8
Livello 1
 62
   250
420
  1842203
370
    70
100
AcDbVertex
100
AcDb2dVertex
 10
9.762627334267961
 20
-11.42157579446957
 30
0.0
  0
VERTEX
  5
48
330
45
100
AcDbEntity
  8
Livello 1
 62
   250
420
  1842203
370
    70
100
AcDbVertex
100
AcDb2dVertex
 10
9.762627334267961
 20
-10.64343621133077
 30
0.0
  0
VERTEX
  5
49
330
45
100
AcDbEntity
  8
Livello 1
 62
   250
420
  1842203
370
    70
100
AcDbVertex
100
AcDb2dVertex
 10
11.15676274314505
 20
-10.64343621133077
 30
0.0
  0
VERTEX
  5
4A
330
45
100
AcDbEntity
  8
Livello 1
 62
   250
420
  1842203
370
    70
100
AcDbVertex
100
AcDb2dVertex
 10
11.15676274314505
 20
-11.42157579446957
 30
0.0
  0
SEQEND
  5
4B
330
45
100
AcDbEntity
  8
Livello 1
 62
   250
420
  1842203
370
    70
  0
ENDBLK
  5
44
330
41
100
AcDbEntity
  8
0
100
AcDbBlockEnd
  0
BLOCK
  5
4E
330
4C
100
AcDbEntity
  8
0
100
AcDbBlockBegin
  2
block 3
 70
     0
 10
0.0
 20
0.0
 30
0.0
  3
block 3
  1

  0
SPLINE
  5
50
330
4C
100
AcDbEntity
  8
Livello 1
 62
   250
420
  1842203
370
    70
100
AcDbSpline
210
0.0
220
0.0
230
1.0
 70
     8
 71
     3
 72
    23
 73
    19
 74
     0
 42
0.000000001
 43
0.0000000001
 40
0.0
 40
0.0
 40
0.0
 40
0.0
 40
1.0
 40
1.0
 40
1.0
 40
2.0
 40
2.0
 40
2.0
 40
3.0
 40
3.0
 40
3.0
 40
4.0
 40
4.0
 40
4.0
 40
5.0
 40
5.0
 40
5.0
 40
6.0
 40
6.0
 40
6.0
 40
6.0
 10
10.4596950387065
 20
-19.92556974501858
 30
0.0
 10
10.70341888621305
 20
-19.92556974501858
 30
0.0
 10
10.94312405415098
 20
-19.86348085614527
 30
0.0
 10
11.156198298715
 20
-19.74515918950814
 30
0.0
 10
12.37897221912747
 20
-19.153452078545
 30
0.0
 10
12.89055611557896
 20
-17.68252396780159
 30
0.0
 10
12.29884901956355
 20
-16.45974680144065
 30
0.0
 10
12.24536438203917
 20
-16.34922152369044
 30
0.0
 10
12.18367766139071
 20
-16.2428554959393
 30
0.0
 10
12.11431096871596
 20
-16.14154477374238
 30
0.0
 10
11.96213322259833
 20
-15.91484977379907
 30
0.0
 10
11.71012289569432
 20
-15.77528735716732
 30
0.0
 10
11.43722459710098
 20
-15.76657727383616
 30
0.0
 10
11.43722459710098
 20
-15.76657727383616
 30
0.0
 10
11.1776718815005
 20
-15.76657727383616
 30
0.0
 10
11.1776718815005
 20
-15.76657727383616
 30
0.0
 10
11.1776718815005
 20
-15.76657727383616
 30
0.0
 10
10.4596950387065
 20
-15.76657727383616
 30
0.0
 10
10.4596950387065
 20
-15.76657727383616
 30
0.0
  0
ENDBLK
  5
4F
330
4C
100
AcDbEntity
  8
0
100
AcDbBlockEnd
  0
BLOCK
  5
53
330
51
100
AcDbEntity
  8
0
100
AcDbBlockBegin
  2
block 4
 70
     0
 10
0.0
 20
0.0
 30
0.0
  3
block 4
  1

  0
SPLINE
  5
55
330
51
100
AcDbEntity
  8
Livello 1
 62
   250
420
  1842203
370
    70
100
AcDbSpline
210
0.0
220
0.0
230
1.0
 70
     8
 71
     3
 72
    23
 73
    19
 74
     0
 42
0.000000001
 43
0.0000000001
 40
0.0
 40
0.0
 40
0.0
 40
0.0
 40
1.0
 40
1.0
 40
1.0
 40
2.0
 40
2.0
 40
2.0
 40
3.0
 40
3.0
 40
3.0
 40
4.0
 40
4.0
 40
4.0
 40
5.0
 40
5.0
 40
5.0
 40
6.0
 40
6.0
 40
6.0
 40
6.0
 10
10.4596950387065
 20
-19.92556974501858
 30
0.0
 10
10.21597498936876
 20
-19.92556974501858
 30
0.0
 10
9.976269551039711
 20
-19.86348085614527
 30
0.0
 10
9.763195553114769
 20
-19.74515918950814
 30
0.0
 10
9.652670275364599
 20
-19.69167807841041
 30
0.0
 10
9.546304006453492
 20
-19.62999135620358
 30
0.0
 10
9.444993286815922
 20
-19.56062466177648
 30
0.0
 10
8.324133648744767
 20
-18.79317777307946
 30
0.0
 10
8.037635767165049
 20
-17.26240444012883
 30
0.0
 10
8.805082636474738
 20
-16.14154477374238
 30
0.0
 10
8.957256854814671
 20
-15.91484977379907
 30
0.0
 10
9.209270709496376
 20
-15.77528735716732
 30
0.0
 10
9.482165480312028
 20
-15.76657727383616
 30
0.0
 10
9.482165480312028
 20
-15.76657727383616
 30
0.0
 10
9.741721723690194
 20
-15.76657727383616
 30
0.0
 10
9.741721723690194
 20
-15.76657727383616
 30
0.0
 10
9.741721723690194
 20
-15.76657727383616
 30
0.0
 10
10.4596950387065
 20
-15.76657727383616
 30
0.0
 10
10.4596950387065
 20
-15.76657727383616
 30
0.0
  0
ENDBLK
  5
54
330
51
100
AcDbEntity
  8
0
100
AcDbBlockEnd
  0
BLOCK
  5
68
330
66
100
AcDbEntity
  8
0
100
AcDbBlockBegin
  2
block 5
 70
     0
 10
0.0
 20
0.0
 30
0.0
  3
block 5
  1

  0
SPLINE
  5
6A
330
66
100
AcDbEntity
  8
Livello 1
370
     0
100
AcDbSpline
210
0.0
220
0.0
230
1.0
 70
     9
 71
     3
 72
    41
 73
    37
 74
     0
 42
0.000000001
 43
0.0000000001
 40
0.0
 40
0.0
 40
0.0
 40
0.0
 40
1.0
 40
1.0
 40
1.0
 40
2.0
 40
2.0
 40
2.0
 40
3.0
 40
3.0
 40
3.0
 40
4.0
 40
4.0
 40
4.0
 40
5.0
 40
5.0
 40
5.0
 40
6.0
 40
6.0
 40
6.0
 40
7.0
 40
7.0
 40
7.0
 40
8.0
 40
8.0
 40
8.0
 40
9.0
 40
9.0
 40
9.0
 40
10.0
 40
10.0
 40
10.0
 40
11.0
 40
11.0
 40
11.0
 40
12.0
 40
12.0
 40
12.0
 40
12.0
 10
10.29813110094109
 20
-12.50447360255964
 30
0.0
 10
10.31421969685721
 20
-12.50617892482484
 30
0.0
 10
10.33284043795498
 20
-12.50447360255964
 30
0.0
 10
10.3582480171587
 20
-12.50194145737799
 30
0.0
 10
10.40143228906631
 20
-12.49601589314336
 30
0.0
 10
10.44208441579226
 20
-12.47822197496204
 30
0.0
 10
10.47340033375318
 20
-12.44859415378889
 30
0.0
 10
10.50981499303227
 20
-12.41557291356277
 30
0.0
 10
10.53606662062987
 20
-12.36730712581442
 30
0.0
 10
10.54622965231136
 20
-12.30210869375607
 30
0.0
 10
10.54622965231136
 20
-12.30210869375607
 30
0.0
 10
10.54368028165227
 20
-12.30210869375607
 30
0.0
 10
10.54368028165227
 20
-12.30210869375607
 30
0.0
 10
10.51320841208524
 20
-12.33936740142905
 30
0.0
 10
10.46918009178375
 20
-12.36138156157979
 30
0.0
 10
10.41412746592945
 20
-12.36138156157979
 30
0.0
 10
10.31506374525109
 20
-12.36138156157979
 30
0.0
 10
10.25155340998051
 20
-12.28686414623384
 30
0.0
 10
10.25155340998051
 20
-12.19288194139622
 30
0.0
 10
10.25155340998051
 20
-12.08873670487712
 30
0.0
 10
10.32691487372035
 20
-11.99728664522116
 30
0.0
 10
10.43953504513317
 20
-11.99728664522116
 30
0.0
 10
10.55215521654599
 20
-11.99728664522116
 30
0.0
 10
10.62157389057377
 20
-12.08873670487712
 30
0.0
 10
10.62157389057377
 20
-12.22929660067531
 30
0.0
 10
10.62157389057377
 20
-12.35037448150442
 30
0.0
 10
10.58092176384782
 20
-12.43505492853186
 30
0.0
 10
10.52674763734227
 20
-12.48754095824964
 30
0.0
 10
10.48440741382855
 20
-12.52903713336948
 30
0.0
 10
10.42599581987614
 20
-12.55444471257319
 30
0.0
 10
10.36672295205241
 20
-12.56121432520171
 30
0.0
 10
10.33962727606093
 20
-12.56545179264857
 30
0.0
 10
10.31590779364498
 20
-12.56629584104245
 30
0.0
 10
10.29813110094109
 20
-12.56545179264857
 30
0.0
 10
10.29813110094109
 20
-12.56545179264857
 30
0.0
 10
10.29813110094109
 20
-12.50447360255964
 30
0.0
 10
10.29813110094109
 20
-12.50447360255964
 30
0.0
  0
SPLINE
  5
6B
330
66
100
AcDbEntity
  8
Livello 1
370
     0
100
AcDbSpline
210
0.0
220
0.0
230
1.0
 70
     9
 71
     3
 72
    20
 73
    16
 74
     0
 42
0.000000001
 43
0.0000000001
 40
0.0
 40
0.0
 40
0.0
 40
0.0
 40
1.0
 40
1.0
 40
1.0
 40
2.0
 40
2.0
 40
2.0
 40
3.0
 40
3.0
 40
3.0
 40
4.0
 40
4.0
 40
4.0
 40
5.0
 40
5.0
 40
5.0
 40
5.0
 10
10.32522677693258
 20
-12.18780042555548
 30
0.0
 10
10.32522677693258
 20
-12.2563922766668
 30
0.0
 10
10.36672295205241
 20
-12.30464083893773
 30
0.0
 10
10.43107733571688
 20
-12.30464083893773
 30
0.0
 10
10.481031220253
 20
-12.30464083893773
 30
0.0
 10
10.51997802471375
 20
-12.28009453360532
 30
0.0
 10
10.53946003968284
 20
-12.2470732933792
 30
0.0
 10
10.54368028165227
 20
-12.24030368075069
 30
0.0
 10
10.54622965231136
 20
-12.23182874585697
 30
0.0
 10
10.54622965231136
 20
-12.21997761738771
 30
0.0
 10
10.54622965231136
 20
-12.12597818707267
 30
0.0
 10
10.51150308982004
 20
-12.0540101423858
 30
0.0
 10
10.43360948089854
 20
-12.0540101423858
 30
0.0
 10
10.37009914562796
 20
-12.0540101423858
 30
0.0
 10
10.32522677693258
 20
-12.10990681663398
 30
0.0
 10
10.32522677693258
 20
-12.18780042555548
 30
0.0
  0
HATCH
  5
6C
330
66
100
AcDbEntity
  8
Livello 1
 62
   250
420
  1842203
100
AcDbHatch
 10
0.0
 20
0.0
 30
0.0
210
0.0
220
0.0
230
1.0
  2
SOLID
 70
     1
 71
     0
 91
        2
 92
        1
 93
        1
 72
     4
 94
        3
 73
     0
 74
     0
 95
       41
 96
       37
 40
0.0
 40
0.0
 40
0.0
 40
0.0
 40
1.0
 40
1.0
 40
1.0
 40
2.0
 40
2.0
 40
2.0
 40
3.0
 40
3.0
 40
3.0
 40
4.0
 40
4.0
 40
4.0
 40
5.0
 40
5.0
 40
5.0
 40
6.0
 40
6.0
 40
6.0
 40
7.0
 40
7.0
 40
7.0
 40
8.0
 40
8.0
 40
8.0
 40
9.0
 40
9.0
 40
9.0
 40
10.0
 40
10.0
 40
10.0
 40
11.0
 40
11.0
 40
11.0
 40
12.0
 40
12.0
 40
12.0
 40
12.0
 10
10.29813110094109
 20
-12.50447360255964
 10
10.31421969685721
 20
-12.50617892482484
 10
10.33284043795498
 20
-12.50447360255964
 10
10.3582480171587
 20
-12.50194145737799
 10
10.40143228906631
 20
-12.49601589314336
 10
10.44208441579226
 20
-12.47822197496204
 10
10.47340033375318
 20
-12.44859415378889
 10
10.50981499303227
 20
-12.41557291356277
 10
10.53606662062987
 20
-12.36730712581442
 10
10.54622965231136
 20
-12.30210869375607
 10
10.54622965231136
 20
-12.30210869375607
 10
10.54368028165227
 20
-12.30210869375607
 10
10.54368028165227
 20
-12.30210869375607
 10
10.51320841208524
 20
-12.33936740142905
 10
10.46918009178375
 20
-12.36138156157979
 10
10.41412746592945
 20
-12.36138156157979
 10
10.31506374525109
 20
-12.36138156157979
 10
10.25155340998051
 20
-12.28686414623384
 10
10.25155340998051
 20
-12.19288194139622
 10
10.25155340998051
 20
-12.08873670487712
 10
10.32691487372035
 20
-11.99728664522116
 10
10.43953504513317
 20
-11.99728664522116
 10
10.55215521654599
 20
-11.99728664522116
 10
10.62157389057377
 20
-12.08873670487712
 10
10.62157389057377
 20
-12.22929660067531
 10
10.62157389057377
 20
-12.35037448150442
 10
10.58092176384782
 20
-12.43505492853186
 10
10.52674763734227
 20
-12.48754095824964
 10
10.48440741382855
 20
-12.52903713336948
 10
10.42599581987614
 20
-12.55444471257319
 10
10.36672295205241
 20
-12.56121432520171
 10
10.33962727606093
 20
-12.56545179264857
 10
10.31590779364498
 20
-12.56629584104245
 10
10.29813110094109
 20
-12.56545179264857
 10
10.29813110094109
 20
-12.56545179264857
 10
10.29813110094109
 20
-12.50447360255964
 10
10.29813110094109
 20
-12.50447360255964
 97
        0
 97
        0
 92
        1
 93
        1
 72
     4
 94
        3
 73
     0
 74
     0
 95
       20
 96
       16
 40
0.0
 40
0.0
 40
0.0
 40
0.0
 40
1.0
 40
1.0
 40
1.0
 40
2.0
 40
2.0
 40
2.0
 40
3.0
 40
3.0
 40
3.0
 40
4.0
 40
4.0
 40
4.0
 40
5.0
 40
5.0
 40
5.0
 40
5.0
 10
10.32522677693258
 20
-12.18780042555548
 10
10.32522677693258
 20
-12.2563922766668
 10
10.36672295205241
 20
-12.30464083893773
 10
10.43107733571688
 20
-12.30464083893773
 10
10.481031220253
 20
-12.30464083893773
 10
10.51997802471375
 20
-12.28009453360532
 10
10.53946003968284
 20
-12.2470732933792
 10
10.54368028165227
 20
-12.24030368075069
 10
10.54622965231136
 20
-12.23182874585697
 10
10.54622965231136
 20
-12.21997761738771
 10
10.54622965231136
 20
-12.12597818707267
 10
10.51150308982004
 20
-12.0540101423858
 10
10.43360948089854
 20
-12.0540101423858
 10
10.37009914562796
 20
-12.0540101423858
 10
10.32522677693258
 20
-12.10990681663398
 10
10.32522677693258
 20
-12.18780042555548
 97
        0
 97
        0
 75
     2
 76
     1
 98
        0
450
        0
451
        0
460
0.0
461
0.0
452
        0
462
0.0
453
        0
470

  0
ENDBLK
  5
69
330
66
100
AcDbEntity
  8
0
100
AcDbBlockEnd
  0
BLOCK
  5
6F
330
6D
100
AcDbEntity
  8
0
100
AcDbBlockBegin
  2
block 6
 70
     0
 10
0.0
 20
0.0
 30
0.0
  3
block 6
  1

  0
POLYLINE
  5
71
330
6D
100
AcDbEntity
  8
Livello 1
370
     0
100
AcDb2dPolyline
 66
     1
 10
0.0
 20
0.0
 30
0.0
  0
VERTEX
  5
72
330
71
100
AcDbEntity
  8
Livello 1
370
     0
100
AcDbVertex
100
AcDb2dVertex
 10
12.36413763796799
 20
-11.03812038569533
 30
0.0
  0
VERTEX
  5
73
330
71
100
AcDbEntity
  8
Livello 1
370
     0
100
AcDbVertex
100
AcDb2dVertex
 10
12.21427598435962
 20
-11.03812038569533
 30
0.0
  0
VERTEX
  5
74
330
71
100
AcDbEntity
  8
Livello 1
370
     0
100
AcDbVertex
100
AcDb2dVertex
 10
12.21427598435962
 20
-11.29384982356543
 30
0.0
  0
VERTEX
  5
75
330
71
100
AcDbEntity
  8
Livello 1
370
     0
100
AcDbVertex
100
AcDb2dVertex
 10
12.16514892273996
 20
-11.29384982356543
 30
0.0
  0
VERTEX
  5
76
330
71
100
AcDbEntity
  8
Livello 1
370
     0
100
AcDbVertex
100
AcDb2dVertex
 10
11.81374918324448
 20
-11.04828341737682
 30
0.0
  0
VERTEX
  5
77
330
71
100
AcDbEntity
  8
Livello 1
370
     0
100
AcDbVertex
100
AcDb2dVertex
 10
11.81374918324448
 20
-10.96784043779623
 30
0.0
  0
VERTEX
  5
78
330
71
100
AcDbEntity
  8
Livello 1
370
     0
100
AcDbVertex
100
AcDb2dVertex
 10
12.15584716492979
 20
-10.96784043779623
 30
0.0
  0
VERTEX
  5
79
330
71
100
AcDbEntity
  8
Livello 1
370
     0
100
AcDbVertex
100
AcDb2dVertex
 10
12.15584716492979
 20
-10.89079087726862
 30
0.0
  0
VERTEX
  5
7A
330
71
100
AcDbEntity
  8
Livello 1
370
     0
100
AcDbVertex
100
AcDb2dVertex
 10
12.21427598435962
 20
-10.89079087726862
 30
0.0
  0
VERTEX
  5
7B
330
71
100
AcDbEntity
  8
Livello 1
370
     0
100
AcDbVertex
100
AcDb2dVertex
 10
12.21427598435962
 20
-10.96784043779623
 30
0.0
  0
VERTEX
  5
7C
330
71
100
AcDbEntity
  8
Livello 1
370
     0
100
AcDbVertex
100
AcDb2dVertex
 10
12.36413763796799
 20
-10.96784043779623
 30
0.0
  0
VERTEX
  5
7D
330
71
100
AcDbEntity
  8
Livello 1
370
     0
100
AcDbVertex
100
AcDb2dVertex
 10
12.36413763796799
 20
-11.03812038569533
 30
0.0
  0
SEQEND
  5
7E
330
71
100
AcDbEntity
  8
Livello 1
370
     0
  0
SPLINE
  5
7F
330
6D
100
AcDbEntity
  8
Livello 1
370
     0
100
AcDbSpline
210
0.0
220
0.0
230
1.0
 70
    11
 71
     3
 72
    26
 73
    22
 74
     0
 42
0.000000001
 43
0.0000000001
 40
0.0
 40
0.0
 40
0.0
 40
0.0
 40
1.0
 40
1.0
 40
1.0
 40
2.0
 40
2.0
 40
2.0
 40
3.0
 40
3.0
 40
3.0
 40
4.0
 40
4.0
 40
4.0
 40
5.0
 40
5.0
 40
5.0
 40
6.0
 40
6.0
 40
6.0
 40
7.0
 40
7.0
 40
7.0
 40
7.0
 10
12.15584716492979
 20
-11.03812038569533
 30
0.0
 10
12.15584716492979
 20
-11.03812038569533
 30
0.0
 10
11.97212022270141
 20
-11.03812038569533
 30
0.0
 10
11.97212022270141
 20
-11.03812038569533
 30
0.0
 10
11.94331922444472
 20
-11.03812038569533
 30
0.0
 10
11.91451822618804
 20
-11.03727633730144
 30
0.0
 10
11.8857516788862
 20
-11.03558824051367
 30
0.0
 10
11.8857516788862
 20
-11.03558824051367
 30
0.0
 10
11.8857516788862
 20
-11.03812038569533
 30
0.0
 10
11.8857516788862
 20
-11.03812038569533
 30
0.0
 10
11.91792887071843
 20
-11.05507025548276
 30
0.0
 10
11.94163112765695
 20
-11.06860948073979
 30
0.0
 10
11.96702148138324
 20
-11.08385402826202
 30
0.0
 10
11.96702148138324
 20
-11.08385402826202
 30
0.0
 10
12.15415906814201
 20
-11.21848835982559
 30
0.0
 10
12.15415906814201
 20
-11.21848835982559
 30
0.0
 10
12.15415906814201
 20
-11.21848835982559
 30
0.0
 10
12.15584716492979
 20
-11.21848835982559
 30
0.0
 10
12.15584716492979
 20
-11.21848835982559
 30
0.0
 10
12.15584716492979
 20
-11.21848835982559
 30
0.0
 10
12.15584716492979
 20
-11.03812038569533
 30
0.0
 10
12.15584716492979
 20
-11.03812038569533
 30
0.0
  0
HATCH
  5
80
330
6D
100
AcDbEntity
  8
Livello 1
 62
   250
420
  1842203
100
AcDbHatch
 10
0.0
 20
0.0
 30
0.0
210
0.0
220
0.0
230
1.0
  2
SOLID
 70
     1
 71
     0
 91
        2
 92
        1
 93
       11
 72
     1
 10
12.36413763796799
 20
-11.03812038569533
 11
12.21427598435962
 21
-11.03812038569533
 72
     1
 10
12.21427598435962
 20
-11.03812038569533
 11
12.21427598435962
 21
-11.29384982356543
 72
     1
 10
12.21427598435962
 20
-11.29384982356543
 11
12.16514892273996
 21
-11.29384982356543
 72
     1
 10
12.16514892273996
 20
-11.29384982356543
 11
11.81374918324448
 21
-11.04828341737682
 72
     1
 10
11.81374918324448
 20
-11.04828341737682
 11
11.81374918324448
 21
-10.96784043779623
 72
     1
 10
11.81374918324448
 20
-10.96784043779623
 11
12.15584716492979
 21
-10.96784043779623
 72
     1
 10
12.15584716492979
 20
-10.96784043779623
 11
12.15584716492979
 21
-10.89079087726862
 72
     1
 10
12.15584716492979
 20
-10.89079087726862
 11
12.21427598435962
 21
-10.89079087726862
 72
     1
 10
12.21427598435962
 20
-10.89079087726862
 11
12.21427598435962
 21
-10.96784043779623
 72
     1
 10
12.21427598435962
 20
-10.96784043779623
 11
12.36413763796799
 21
-10.96784043779623
 72
     1
 10
12.36413763796799
 20
-10.96784043779623
 11
12.36413763796799
 21
-11.03812038569533
 97
        0
 92
        1
 93
        1
 72
     4
 94
        3
 73
     0
 74
     0
 95
       26
 96
       22
 40
0.0
 40
0.0
 40
0.0
 40
0.0
 40
1.0
 40
1.0
 40
1.0
 40
2.0
 40
2.0
 40
2.0
 40
3.0
 40
3.0
 40
3.0
 40
4.0
 40
4.0
 40
4.0
 40
5.0
 40
5.0
 40
5.0
 40
6.0
 40
6.0
 40
6.0
 40
7.0
 40
7.0
 40
7.0
 40
7.0
 10
12.15584716492979
 20
-11.03812038569533
 10
12.15584716492979
 20
-11.03812038569533
 10
11.97212022270141
 20
-11.03812038569533
 10
11.97212022270141
 20
-11.03812038569533
 10
11.94331922444472
 20
-11.03812038569533
 10
11.91451822618804
 20
-11.03727633730144
 10
11.8857516788862
 20
-11.03558824051367
 10
11.8857516788862
 20
-11.03558824051367
 10
11.8857516788862
 20
-11.03812038569533
 10
11.8857516788862
 20
-11.03812038569533
 10
11.91792887071843
 20
-11.05507025548276
 10
11.94163112765695
 20
-11.06860948073979
 10
11.96702148138324
 20
-11.08385402826202
 10
11.96702148138324
 20
-11.08385402826202
 10
12.15415906814201
 20
-11.21848835982559
 10
12.15415906814201
 20
-11.21848835982559
 10
12.15415906814201
 20
-11.21848835982559
 10
12.15584716492979
 20
-11.21848835982559
 10
12.15584716492979
 20
-11.21848835982559
 10
12.15584716492979
 20
-11.21848835982559
 10
12.15584716492979
 20
-11.03812038569533
 10
12.15584716492979
 20
-11.03812038569533
 97
        0
 97
        0
 75
     2
 76
     1
 98
        0
450
        0
451
        0
460
0.0
461
0.0
452
        0
462
0.0
453
        0
470

  0
ENDBLK
  5
70
330
6D
100
AcDbEntity
  8
0
100
AcDbBlockEnd
  0
BLOCK
  5
83
330
81
100
AcDbEntity
  8
0
100
AcDbBlockBegin
  2
block 7
 70
     0
 10
0.0
 20
0.0
 30
0.0
  3
block 7
  1

  0
SPLINE
  5
85
330
81
100
AcDbEntity
  8
Livello 1
370
     0
100
AcDbSpline
210
0.0
220
0.0
230
1.0
 70
    11
 71
     3
 72
    47
 73
    43
 74
     0
 42
0.000000001
 43
0.0000000001
 40
0.0
 40
0.0
 40
0.0
 40
0.0
 40
1.0
 40
1.0
 40
1.0
 40
2.0
 40
2.0
 40
2.0
 40
3.0
 40
3.0
 40
3.0
 40
4.0
 40
4.0
 40
4.0
 40
5.0
 40
5.0
 40
5.0
 40
6.0
 40
6.0
 40
6.0
 40
7.0
 40
7.0
 40
7.0
 40
8.0
 40
8.0
 40
8.0
 40
9.0
 40
9.0
 40
9.0
 40
10.0
 40
10.0
 40
10.0
 40
11.0
 40
11.0
 40
11.0
 40
12.0
 40
12.0
 40
12.0
 40
13.0
 40
13.0
 40
13.0
 40
14.0
 40
14.0
 40
14.0
 40
14.0
 10
10.0458812095111
 20
-14.44106512768314
 30
0.0
 10
10.0458812095111
 20
-14.44106512768314
 30
0.0
 10
10.0458812095111
 20
-14.39534871059387
 30
0.0
 10
10.0458812095111
 20
-14.39534871059387
 30
0.0
 10
10.0458812095111
 20
-14.39534871059387
 30
0.0
 10
10.10431002894093
 20
-14.33860798795181
 30
0.0
 10
10.10431002894093
 20
-14.33860798795181
 30
0.0
 10
10.24486992473913
 20
-14.20481770478213
 30
0.0
 10
10.30836303453228
 20
-14.13369370848915
 30
0.0
 10
10.3092243084036
 20
-14.0507185837269
 30
0.0
 10
10.3092243084036
 20
-13.99483913495615
 30
0.0
 10
10.28212863241211
 20
-13.94317992815483
 30
0.0
 10
10.19998033056632
 20
-13.94317992815483
 30
0.0
 10
10.1500264460302
 20
-13.94317992815483
 30
0.0
 10
10.10854749638779
 20
-13.96858750735855
 30
0.0
 10
10.08313991718408
 20
-13.98975761911541
 30
0.0
 10
10.08313991718408
 20
-13.98975761911541
 30
0.0
 10
10.05943766024556
 20
-13.9372543639202
 30
0.0
 10
10.05943766024556
 20
-13.9372543639202
 30
0.0
 10
10.09754041631242
 20
-13.90507717208797
 30
0.0
 10
10.1517317682954
 20
-13.88137491514945
 30
0.0
 10
10.21522487808855
 20
-13.88137491514945
 30
0.0
 10
10.333770613736
 20
-13.88137491514945
 30
0.0
 10
10.38372449827211
 20
-13.96266194312392
 30
0.0
 10
10.38372449827211
 20
-14.0413996004393
 30
0.0
 10
10.38372449827211
 20
-14.14301269177675
 30
0.0
 10
10.31006835679748
 20
-14.2251437681451
 30
0.0
 10
10.19405476633169
 20
-14.33691989116403
 30
0.0
 10
10.19405476633169
 20
-14.33691989116403
 30
0.0
 10
10.1500264460302
 20
-14.37755479241256
 30
0.0
 10
10.1500264460302
 20
-14.37755479241256
 30
0.0
 10
10.1500264460302
 20
-14.37755479241256
 30
0.0
 10
10.1500264460302
 20
-14.37926011467775
 30
0.0
 10
10.1500264460302
 20
-14.37926011467775
 30
0.0
 10
10.1500264460302
 20
-14.37926011467775
 30
0.0
 10
10.39728094900658
 20
-14.37926011467775
 30
0.0
 10
10.39728094900658
 20
-14.37926011467775
 30
0.0
 10
10.39728094900658
 20
-14.37926011467775
 30
0.0
 10
10.39728094900658
 20
-14.44106512768314
 30
0.0
 10
10.39728094900658
 20
-14.44106512768314
 30
0.0
 10
10.39728094900658
 20
-14.44106512768314
 30
0.0
 10
10.0458812095111
 20
-14.44106512768314
 30
0.0
 10
10.0458812095111
 20
-14.44106512768314
 30
0.0
  0
HATCH
  5
86
330
81
100
AcDbEntity
  8
Livello 1
 62
   250
420
  1842203
100
AcDbHatch
 10
0.0
 20
0.0
 30
0.0
210
0.0
220
0.0
230
1.0
  2
SOLID
 70
     1
 71
     0
 91
        1
 92
        1
 93
        1
 72
     4
 94
        3
 73
     0
 74
     0
 95
       47
 96
       43
 40
0.0
 40
0.0
 40
0.0
 40
0.0
 40
1.0
 40
1.0
 40
1.0
 40
2.0
 40
2.0
 40
2.0
 40
3.0
 40
3.0
 40
3.0
 40
4.0
 40
4.0
 40
4.0
 40
5.0
 40
5.0
 40
5.0
 40
6.0
 40
6.0
 40
6.0
 40
7.0
 40
7.0
 40
7.0
 40
8.0
 40
8.0
 40
8.0
 40
9.0
 40
9.0
 40
9.0
 40
10.0
 40
10.0
 40
10.0
 40
11.0
 40
11.0
 40
11.0
 40
12.0
 40
12.0
 40
12.0
 40
13.0
 40
13.0
 40
13.0
 40
14.0
 40
14.0
 40
14.0
 40
14.0
 10
10.0458812095111
 20
-14.44106512768314
 10
10.0458812095111
 20
-14.44106512768314
 10
10.0458812095111
 20
-14.39534871059387
 10
10.0458812095111
 20
-14.39534871059387
 10
10.0458812095111
 20
-14.39534871059387
 10
10.10431002894093
 20
-14.33860798795181
 10
10.10431002894093
 20
-14.33860798795181
 10
10.24486992473913
 20
-14.20481770478213
 10
10.30836303453228
 20
-14.13369370848915
 10
10.3092243084036
 20
-14.0507185837269
 10
10.3092243084036
 20
-13.99483913495615
 10
10.28212863241211
 20
-13.94317992815483
 10
10.19998033056632
 20
-13.94317992815483
 10
10.1500264460302
 20
-13.94317992815483
 10
10.10854749638779
 20
-13.96858750735855
 10
10.08313991718408
 20
-13.98975761911541
 10
10.08313991718408
 20
-13.98975761911541
 10
10.05943766024556
 20
-13.9372543639202
 10
10.05943766024556
 20
-13.9372543639202
 10
10.09754041631242
 20
-13.90507717208797
 10
10.1517317682954
 20
-13.88137491514945
 10
10.21522487808855
 20
-13.88137491514945
 10
10.333770613736
 20
-13.88137491514945
 10
10.38372449827211
 20
-13.96266194312392
 10
10.38372449827211
 20
-14.0413996004393
 10
10.38372449827211
 20
-14.14301269177675
 10
10.31006835679748
 20
-14.2251437681451
 10
10.19405476633169
 20
-14.33691989116403
 10
10.19405476633169
 20
-14.33691989116403
 10
10.1500264460302
 20
-14.37755479241256
 10
10.1500264460302
 20
-14.37755479241256
 10
10.1500264460302
 20
-14.37755479241256
 10
10.1500264460302
 20
-14.37926011467775
 10
10.1500264460302
 20
-14.37926011467775
 10
10.1500264460302
 20
-14.37926011467775
 10
10.39728094900658
 20
-14.37926011467775
 10
10.39728094900658
 20
-14.37926011467775
 10
10.39728094900658
 20
-14.37926011467775
 10
10.39728094900658
 20
-14.44106512768314
 10
10.39728094900658
 20
-14.44106512768314
 10
10.39728094900658
 20
-14.44106512768314
 10
10.0458812095111
 20
-14.44106512768314
 10
10.0458812095111
 20
-14.44106512768314
 97
        0
 97
        0
 75
     2
 76
     1
 98
        0
450
        0
451
        0
460
0.0
461
0.0
452
        0
462
0.0
453
        0
470

  0
SPLINE
  5
87
330
81
100
AcDbEntity
  8
Livello 1
370
     0
100
AcDbSpline
210
0.0
220
0.0
230
1.0
 70
     9
 71
     3
 72
    59
 73
    55
 74
     0
 42
0.000000001
 43
0.0000000001
 40
0.0
 40
0.0
 40
0.0
 40
0.0
 40
1.0
 40
1.0
 40
1.0
 40
2.0
 40
2.0
 40
2.0
 40
3.0
 40
3.0
 40
3.0
 40
4.0
 40
4.0
 40
4.0
 40
5.0
 40
5.0
 40
5.0
 40
6.0
 40
6.0
 40
6.0
 40
7.0
 40
7.0
 40
7.0
 40
8.0
 40
8.0
 40
8.0
 40
9.0
 40
9.0
 40
9.0
 40
10.0
 40
10.0
 40
10.0
 40
11.0
 40
11.0
 40
11.0
 40
12.0
 40
12.0
 40
12.0
 40
13.0
 40
13.0
 40
13.0
 40
14.0
 40
14.0
 40
14.0
 40
15.0
 40
15.0
 40
15.0
 40
16.0
 40
16.0
 40
16.0
 40
17.0
 40
17.0
 40
17.0
 40
18.0
 40
18.0
 40
18.0
 40
18.0
 10
10.49798109004043
 20
-14.35554063226181
 30
0.0
 10
10.51915120179729
 20
-14.36909708299627
 30
0.0
 10
10.56827826341696
 20
-14.39026719475313
 30
0.0
 10
10.61992024474085
 20
-14.39026719475313
 30
0.0
 10
10.71559054636624
 20
-14.39026719475313
 30
0.0
 10
10.74525281849424
 20
-14.3292890046642
 30
0.0
 10
10.74439154462293
 20
-14.28357258757494
 30
0.0
 10
10.74356472170647
 20
-14.20652302704733
 30
0.0
 10
10.67411159672383
 20
-14.17350178682121
 30
0.0
 10
10.60214355203696
 20
-14.17350178682121
 30
0.0
 10
10.60214355203696
 20
-14.17350178682121
 30
0.0
 10
10.56066460239455
 20
-14.17350178682121
 30
0.0
 10
10.56066460239455
 20
-14.17350178682121
 30
0.0
 10
10.56066460239455
 20
-14.17350178682121
 30
0.0
 10
10.56066460239455
 20
-14.11760511257303
 30
0.0
 10
10.56066460239455
 20
-14.11760511257303
 30
0.0
 10
10.56066460239455
 20
-14.11760511257303
 30
0.0
 10
10.60214355203696
 20
-14.11760511257303
 30
0.0
 10
10.60214355203696
 20
-14.11760511257303
 30
0.0
 10
10.65633490401994
 20
-14.11760511257303
 30
0.0
 10
10.72492675513127
 20
-14.08966538818765
 30
0.0
 10
10.72492675513127
 20
-14.0244669561293
 30
0.0
 10
10.72492675513127
 20
-13.98043863582781
 30
0.0
 10
10.69698703074589
 20
-13.94149183136706
 30
0.0
 10
10.62839517963457
 20
-13.94149183136706
 30
0.0
 10
10.58436685933307
 20
-13.94149183136706
 30
0.0
 10
10.54200941034193
 20
-13.96095662085872
 30
0.0
 10
10.51830715340341
 20
-13.97790649064615
 30
0.0
 10
10.51830715340341
 20
-13.97790649064615
 30
0.0
 10
10.49882513843432
 20
-13.92371513866317
 30
0.0
 10
10.49882513843432
 20
-13.92371513866317
 30
0.0
 10
10.52762613669101
 20
-13.90254502690631
 30
0.0
 10
10.58350558546176
 20
-13.88137491514945
 30
0.0
 10
10.64279567876291
 20
-13.88137491514945
 30
0.0
 10
10.75117838272887
 20
-13.88137491514945
 30
0.0
 10
10.80027099339368
 20
-13.94572929881391
 30
0.0
 10
10.80027099339368
 20
-14.01261582766004
 30
0.0
 10
10.80027099339368
 20
-14.06933932482468
 30
0.0
 10
10.76640570477367
 20
-14.11760511257303
 30
0.0
 10
10.69867512753366
 20
-14.14216864338286
 30
0.0
 10
10.69867512753366
 20
-14.14216864338286
 30
0.0
 10
10.69867512753366
 20
-14.14385674017063
 30
0.0
 10
10.69867512753366
 20
-14.14385674017063
 30
0.0
 10
10.76640570477367
 20
-14.15741319090509
 30
0.0
 10
10.82145833062797
 20
-14.2082111238351
 30
0.0
 10
10.82145833062797
 20
-14.28526068436271
 30
0.0
 10
10.82145833062797
 20
-14.37333455044312
 30
0.0
 10
10.75286647951664
 20
-14.45038411097074
 30
0.0
 10
10.62078151861217
 20
-14.45038411097074
 30
0.0
 10
10.55897650560678
 20
-14.45038411097074
 30
0.0
 10
10.50476792814638
 20
-14.43090209600165
 30
0.0
 10
10.47767225215489
 20
-14.41312540329776
 30
0.0
 10
10.47767225215489
 20
-14.41312540329776
 30
0.0
 10
10.49798109004043
 20
-14.35554063226181
 30
0.0
 10
10.49798109004043
 20
-14.35554063226181
 30
0.0
  0
HATCH
  5
88
330
81
100
AcDbEntity
  8
Livello 1
 62
   250
420
  1842203
100
AcDbHatch
 10
0.0
 20
0.0
 30
0.0
210
0.0
220
0.0
230
1.0
  2
SOLID
 70
     1
 71
     0
 91
        1
 92
        1
 93
        1
 72
     4
 94
        3
 73
     0
 74
     0
 95
       59
 96
       55
 40
0.0
 40
0.0
 40
0.0
 40
0.0
 40
1.0
 40
1.0
 40
1.0
 40
2.0
 40
2.0
 40
2.0
 40
3.0
 40
3.0
 40
3.0
 40
4.0
 40
4.0
 40
4.0
 40
5.0
 40
5.0
 40
5.0
 40
6.0
 40
6.0
 40
6.0
 40
7.0
 40
7.0
 40
7.0
 40
8.0
 40
8.0
 40
8.0
 40
9.0
 40
9.0
 40
9.0
 40
10.0
 40
10.0
 40
10.0
 40
11.0
 40
11.0
 40
11.0
 40
12.0
 40
12.0
 40
12.0
 40
13.0
 40
13.0
 40
13.0
 40
14.0
 40
14.0
 40
14.0
 40
15.0
 40
15.0
 40
15.0
 40
16.0
 40
16.0
 40
16.0
 40
17.0
 40
17.0
 40
17.0
 40
18.0
 40
18.0
 40
18.0
 40
18.0
 10
10.49798109004043
 20
-14.35554063226181
 10
10.51915120179729
 20
-14.36909708299627
 10
10.56827826341696
 20
-14.39026719475313
 10
10.61992024474085
 20
-14.39026719475313
 10
10.71559054636624
 20
-14.39026719475313
 10
10.74525281849424
 20
-14.3292890046642
 10
10.74439154462293
 20
-14.28357258757494
 10
10.74356472170647
 20
-14.20652302704733
 10
10.67411159672383
 20
-14.17350178682121
 10
10.60214355203696
 20
-14.17350178682121
 10
10.60214355203696
 20
-14.17350178682121
 10
10.56066460239455
 20
-14.17350178682121
 10
10.56066460239455
 20
-14.17350178682121
 10
10.56066460239455
 20
-14.17350178682121
 10
10.56066460239455
 20
-14.11760511257303
 10
10.56066460239455
 20
-14.11760511257303
 10
10.56066460239455
 20
-14.11760511257303
 10
10.60214355203696
 20
-14.11760511257303
 10
10.60214355203696
 20
-14.11760511257303
 10
10.65633490401994
 20
-14.11760511257303
 10
10.72492675513127
 20
-14.08966538818765
 10
10.72492675513127
 20
-14.0244669561293
 10
10.72492675513127
 20
-13.98043863582781
 10
10.69698703074589
 20
-13.94149183136706
 10
10.62839517963457
 20
-13.94149183136706
 10
10.58436685933307
 20
-13.94149183136706
 10
10.54200941034193
 20
-13.96095662085872
 10
10.51830715340341
 20
-13.97790649064615
 10
10.51830715340341
 20
-13.97790649064615
 10
10.49882513843432
 20
-13.92371513866317
 10
10.49882513843432
 20
-13.92371513866317
 10
10.52762613669101
 20
-13.90254502690631
 10
10.58350558546176
 20
-13.88137491514945
 10
10.64279567876291
 20
-13.88137491514945
 10
10.75117838272887
 20
-13.88137491514945
 10
10.80027099339368
 20
-13.94572929881391
 10
10.80027099339368
 20
-14.01261582766004
 10
10.80027099339368
 20
-14.06933932482468
 10
10.76640570477367
 20
-14.11760511257303
 10
10.69867512753366
 20
-14.14216864338286
 10
10.69867512753366
 20
-14.14216864338286
 10
10.69867512753366
 20
-14.14385674017063
 10
10.69867512753366
 20
-14.14385674017063
 10
10.76640570477367
 20
-14.15741319090509
 10
10.82145833062797
 20
-14.2082111238351
 10
10.82145833062797
 20
-14.28526068436271
 10
10.82145833062797
 20
-14.37333455044312
 10
10.75286647951664
 20
-14.45038411097074
 10
10.62078151861217
 20
-14.45038411097074
 10
10.55897650560678
 20
-14.45038411097074
 10
10.50476792814638
 20
-14.43090209600165
 10
10.47767225215489
 20
-14.41312540329776
 10
10.47767225215489
 20
-14.41312540329776
 10
10.49798109004043
 20
-14.35554063226181
 10
10.49798109004043
 20
-14.35554063226181
 97
        0
 97
        0
 75
     2
 76
     1
 98
        0
450
        0
451
        0
460
0.0
461
0.0
452
        0
462
0.0
453
        0
470

  0
ENDBLK
  5
84
330
81
100
AcDbEntity
  8
0
100
AcDbBlockEnd
  0
BLOCK
  5
8B
330
89
100
AcDbEntity
  8
0
100
AcDbBlockBegin
  2
block 8
 70
     0
 10
0.0
 20
0.0
 30
0.0
  3
block 8
  1

  0
SPLINE
  5
8D
330
89
100
AcDbEntity
  8
Livello 1
370
     0
100
AcDbSpline
210
0.0
220
0.0
230
1.0
 70
    11
 71
     3
 72
    47
 73
    43
 74
     0
 42
0.000000001
 43
0.0000000001
 40
0.0
 40
0.0
 40
0.0
 40
0.0
 40
1.0
 40
1.0
 40
1.0
 40
2.0
 40
2.0
 40
2.0
 40
3.0
 40
3.0
 40
3.0
 40
4.0
 40
4.0
 40
4.0
 40
5.0
 40
5.0
 40
5.0
 40
6.0
 40
6.0
 40
6.0
 40
7.0
 40
7.0
 40
7.0
 40
8.0
 40
8.0
 40
8.0
 40
9.0
 40
9.0
 40
9.0
 40
10.0
 40
10.0
 40
10.0
 40
11.0
 40
11.0
 40
11.0
 40
12.0
 40
12.0
 40
12.0
 40
13.0
 40
13.0
 40
13.0
 40
14.0
 40
14.0
 40
14.0
 40
14.0
 10
13.97062011369484
 20
-18.52262477835545
 30
0.0
 10
13.97062011369484
 20
-18.52262477835545
 30
0.0
 10
13.92490369660558
 20
-18.52262477835545
 30
0.0
 10
13.92490369660558
 20
-18.52262477835545
 30
0.0
 10
13.92490369660558
 20
-18.52262477835545
 30
0.0
 10
13.86816297396351
 20
-18.46419595892561
 30
0.0
 10
13.86816297396351
 20
-18.46419595892561
 30
0.0
 10
13.73438991627126
 20
-18.32363606312742
 30
0.0
 10
13.66324869450085
 20
-18.26010850237942
 30
0.0
 10
13.58029079521604
 20
-18.25928167946295
 30
0.0
 10
13.52441134644529
 20
-18.25928167946295
 30
0.0
 10
13.47273491416654
 20
-18.28636012997702
 30
0.0
 10
13.47273491416654
 20
-18.36849120634538
 30
0.0
 10
13.47273491416654
 20
-18.4184450908815
 30
0.0
 10
13.49815971884768
 20
-18.45992404052391
 30
0.0
 10
13.51931260512712
 20
-18.48534884520505
 30
0.0
 10
13.51931260512712
 20
-18.48534884520505
 30
0.0
 10
13.46680934993191
 20
-18.50905110214357
 30
0.0
 10
13.46680934993191
 20
-18.50905110214357
 30
0.0
 10
13.43463215809967
 20
-18.47094834607671
 30
0.0
 10
13.41092990116116
 20
-18.41675699409373
 30
0.0
 10
13.41092990116116
 20
-18.35326388430057
 30
0.0
 10
13.41092990116116
 20
-18.23471814865313
 30
0.0
 10
13.49223415461305
 20
-18.184764264117
 30
0.0
 10
13.57095458645101
 20
-18.184764264117
 30
0.0
 10
13.67258490326588
 20
-18.184764264117
 30
0.0
 10
13.75471597963424
 20
-18.25842040559164
 30
0.0
 10
13.86647487717574
 20
-18.37441677058001
 30
0.0
 10
13.86647487717574
 20
-18.37441677058001
 30
0.0
 10
13.90712700390169
 20
-18.4184450908815
 30
0.0
 10
13.90712700390169
 20
-18.4184450908815
 30
0.0
 10
13.90712700390169
 20
-18.4184450908815
 30
0.0
 10
13.90881510068946
 20
-18.4184450908815
 30
0.0
 10
13.90881510068946
 20
-18.4184450908815
 30
0.0
 10
13.90881510068946
 20
-18.4184450908815
 30
0.0
 10
13.90881510068946
 20
-18.17122503885997
 30
0.0
 10
13.90881510068946
 20
-18.17122503885997
 30
0.0
 10
13.90881510068946
 20
-18.17122503885997
 30
0.0
 10
13.97062011369484
 20
-18.17122503885997
 30
0.0
 10
13.97062011369484
 20
-18.17122503885997
 30
0.0
 10
13.97062011369484
 20
-18.17122503885997
 30
0.0
 10
13.97062011369484
 20
-18.52262477835545
 30
0.0
 10
13.97062011369484
 20
-18.52262477835545
 30
0.0
  0
HATCH
  5
8E
330
89
100
AcDbEntity
  8
Livello 1
 62
   250
420
  1842203
100
AcDbHatch
 10
0.0
 20
0.0
 30
0.0
210
0.0
220
0.0
230
1.0
  2
SOLID
 70
     1
 71
     0
 91
        1
 92
        1
 93
        1
 72
     4
 94
        3
 73
     0
 74
     0
 95
       47
 96
       43
 40
0.0
 40
0.0
 40
0.0
 40
0.0
 40
1.0
 40
1.0
 40
1.0
 40
2.0
 40
2.0
 40
2.0
 40
3.0
 40
3.0
 40
3.0
 40
4.0
 40
4.0
 40
4.0
 40
5.0
 40
5.0
 40
5.0
 40
6.0
 40
6.0
 40
6.0
 40
7.0
 40
7.0
 40
7.0
 40
8.0
 40
8.0
 40
8.0
 40
9.0
 40
9.0
 40
9.0
 40
10.0
 40
10.0
 40
10.0
 40
11.0
 40
11.0
 40
11.0
 40
12.0
 40
12.0
 40
12.0
 40
13.0
 40
13.0
 40
13.0
 40
14.0
 40
14.0
 40
14.0
 40
14.0
 10
13.97062011369484
 20
-18.52262477835545
 10
13.97062011369484
 20
-18.52262477835545
 10
13.92490369660558
 20
-18.52262477835545
 10
13.92490369660558
 20
-18.52262477835545
 10
13.92490369660558
 20
-18.52262477835545
 10
13.86816297396351
 20
-18.46419595892561
 10
13.86816297396351
 20
-18.46419595892561
 10
13.73438991627126
 20
-18.32363606312742
 10
13.66324869450085
 20
-18.26010850237942
 10
13.58029079521604
 20
-18.25928167946295
 10
13.52441134644529
 20
-18.25928167946295
 10
13.47273491416654
 20
-18.28636012997702
 10
13.47273491416654
 20
-18.36849120634538
 10
13.47273491416654
 20
-18.4184450908815
 10
13.49815971884768
 20
-18.45992404052391
 10
13.51931260512712
 20
-18.48534884520505
 10
13.51931260512712
 20
-18.48534884520505
 10
13.46680934993191
 20
-18.50905110214357
 10
13.46680934993191
 20
-18.50905110214357
 10
13.43463215809967
 20
-18.47094834607671
 10
13.41092990116116
 20
-18.41675699409373
 10
13.41092990116116
 20
-18.35326388430057
 10
13.41092990116116
 20
-18.23471814865313
 10
13.49223415461305
 20
-18.184764264117
 10
13.57095458645101
 20
-18.184764264117
 10
13.67258490326588
 20
-18.184764264117
 10
13.75471597963424
 20
-18.25842040559164
 10
13.86647487717574
 20
-18.37441677058001
 10
13.86647487717574
 20
-18.37441677058001
 10
13.90712700390169
 20
-18.4184450908815
 10
13.90712700390169
 20
-18.4184450908815
 10
13.90712700390169
 20
-18.4184450908815
 10
13.90881510068946
 20
-18.4184450908815
 10
13.90881510068946
 20
-18.4184450908815
 10
13.90881510068946
 20
-18.4184450908815
 10
13.90881510068946
 20
-18.17122503885997
 10
13.90881510068946
 20
-18.17122503885997
 10
13.90881510068946
 20
-18.17122503885997
 10
13.97062011369484
 20
-18.17122503885997
 10
13.97062011369484
 20
-18.17122503885997
 10
13.97062011369484
 20
-18.17122503885997
 10
13.97062011369484
 20
-18.52262477835545
 10
13.97062011369484
 20
-18.52262477835545
 97
        0
 97
        0
 75
     2
 76
     1
 98
        0
450
        0
451
        0
460
0.0
461
0.0
452
        0
462
0.0
453
        0
470

  0
POLYLINE
  5
8F
330
89
100
AcDbEntity
  8
Livello 1
370
     0
100
AcDb2dPolyline
 66
     1
 10
0.0
 20
0.0
 30
0.0
  0
VERTEX
  5
90
330
8F
100
AcDbEntity
  8
Livello 1
370
     0
100
AcDbVertex
100
AcDb2dVertex
 10
13.97062011369484
 20
-17.8579625063862
 30
0.0
  0
VERTEX
  5
91
330
8F
100
AcDbEntity
  8
Livello 1
370
     0
100
AcDbVertex
100
AcDb2dVertex
 10
13.82075846008648
 20
-17.8579625063862
 30
0.0
  0
VERTEX
  5
92
330
8F
100
AcDbEntity
  8
Livello 1
370
     0
100
AcDbVertex
100
AcDb2dVertex
 10
13.82075846008648
 20
-18.1136919442563
 30
0.0
  0
VERTEX
  5
93
330
8F
100
AcDbEntity
  8
Livello 1
370
     0
100
AcDbVertex
100
AcDb2dVertex
 10
13.77163139846681
 20
-18.1136919442563
 30
0.0
  0
VERTEX
  5
94
330
8F
100
AcDbEntity
  8
Livello 1
370
     0
100
AcDbVertex
100
AcDb2dVertex
 10
13.42023165897133
 20
-17.86812553806769
 30
0.0
  0
VERTEX
  5
95
330
8F
100
AcDbEntity
  8
Livello 1
370
     0
100
AcDbVertex
100
AcDb2dVertex
 10
13.42023165897133
 20
-17.78768255848711
 30
0.0
  0
VERTEX
  5
96
330
8F
100
AcDbEntity
  8
Livello 1
370
     0
100
AcDbVertex
100
AcDb2dVertex
 10
13.76232964065664
 20
-17.78768255848711
 30
0.0
  0
VERTEX
  5
97
330
8F
100
AcDbEntity
  8
Livello 1
370
     0
100
AcDbVertex
100
AcDb2dVertex
 10
13.76232964065664
 20
-17.71061577248207
 30
0.0
  0
VERTEX
  5
98
330
8F
100
AcDbEntity
  8
Livello 1
370
     0
100
AcDbVertex
100
AcDb2dVertex
 10
13.82075846008648
 20
-17.71061577248207
 30
0.0
  0
VERTEX
  5
99
330
8F
100
AcDbEntity
  8
Livello 1
370
     0
100
AcDbVertex
100
AcDb2dVertex
 10
13.82075846008648
 20
-17.78768255848711
 30
0.0
  0
VERTEX
  5
9A
330
8F
100
AcDbEntity
  8
Livello 1
370
     0
100
AcDbVertex
100
AcDb2dVertex
 10
13.97062011369484
 20
-17.78768255848711
 30
0.0
  0
VERTEX
  5
9B
330
8F
100
AcDbEntity
  8
Livello 1
370
     0
100
AcDbVertex
100
AcDb2dVertex
 10
13.97062011369484
 20
-17.8579625063862
 30
0.0
  0
SEQEND
  5
9C
330
8F
100
AcDbEntity
  8
Livello 1
370
     0
  0
SPLINE
  5
9D
330
89
100
AcDbEntity
  8
Livello 1
370
     0
100
AcDbSpline
210
0.0
220
0.0
230
1.0
 70
    11
 71
     3
 72
    26
 73
    22
 74
     0
 42
0.000000001
 43
0.0000000001
 40
0.0
 40
0.0
 40
0.0
 40
0.0
 40
1.0
 40
1.0
 40
1.0
 40
2.0
 40
2.0
 40
2.0
 40
3.0
 40
3.0
 40
3.0
 40
4.0
 40
4.0
 40
4.0
 40
5.0
 40
5.0
 40
5.0
 40
6.0
 40
6.0
 40
6.0
 40
7.0
 40
7.0
 40
7.0
 40
7.0
 10
13.76232964065664
 20
-17.8579625063862
 30
0.0
 10
13.76232964065664
 20
-17.8579625063862
 30
0.0
 10
13.57860269842826
 20
-17.8579625063862
 30
0.0
 10
13.57860269842826
 20
-17.8579625063862
 30
0.0
 10
13.54980170017158
 20
-17.8579625063862
 30
0.0
 10
13.52100070191489
 20
-17.85710123251489
 30
0.0
 10
13.49223415461305
 20
-17.85544758668197
 30
0.0
 10
13.49223415461305
 20
-17.85544758668197
 30
0.0
 10
13.49223415461305
 20
-17.8579625063862
 30
0.0
 10
13.49223415461305
 20
-17.8579625063862
 30
0.0
 10
13.52441134644529
 20
-17.87491237617363
 30
0.0
 10
13.5481136033838
 20
-17.88845160143066
 30
0.0
 10
13.57350395711009
 20
-17.90367892347546
 30
0.0
 10
13.57350395711009
 20
-17.90367892347546
 30
0.0
 10
13.76064154386887
 20
-18.03831325503903
 30
0.0
 10
13.76064154386887
 20
-18.03831325503903
 30
0.0
 10
13.76064154386887
 20
-18.03831325503903
 30
0.0
 10
13.76232964065664
 20
-18.03831325503903
 30
0.0
 10
13.76232964065664
 20
-18.03831325503903
 30
0.0
 10
13.76232964065664
 20
-18.03831325503903
 30
0.0
 10
13.76232964065664
 20
-17.8579625063862
 30
0.0
 10
13.76232964065664
 20
-17.8579625063862
 30
0.0
  0
HATCH
  5
9E
330
89
100
AcDbEntity
  8
Livello 1
 62
   250
420
  1842203
100
AcDbHatch
 10
0.0
 20
0.0
 30
0.0
210
0.0
220
0.0
230
1.0
  2
SOLID
 70
     1
 71
     0
 91
        2
 92
        1
 93
       11
 72
     1
 10
13.97062011369484
 20
-17.8579625063862
 11
13.82075846008648
 21
-17.8579625063862
 72
     1
 10
13.82075846008648
 20
-17.8579625063862
 11
13.82075846008648
 21
-18.1136919442563
 72
     1
 10
13.82075846008648
 20
-18.1136919442563
 11
13.77163139846681
 21
-18.1136919442563
 72
     1
 10
13.77163139846681
 20
-18.1136919442563
 11
13.42023165897133
 21
-17.86812553806769
 72
     1
 10
13.42023165897133
 20
-17.86812553806769
 11
13.42023165897133
 21
-17.78768255848711
 72
     1
 10
13.42023165897133
 20
-17.78768255848711
 11
13.76232964065664
 21
-17.78768255848711
 72
     1
 10
13.76232964065664
 20
-17.78768255848711
 11
13.76232964065664
 21
-17.71061577248207
 72
     1
 10
13.76232964065664
 20
-17.71061577248207
 11
13.82075846008648
 21
-17.71061577248207
 72
     1
 10
13.82075846008648
 20
-17.71061577248207
 11
13.82075846008648
 21
-17.78768255848711
 72
     1
 10
13.82075846008648
 20
-17.78768255848711
 11
13.97062011369484
 21
-17.78768255848711
 72
     1
 10
13.97062011369484
 20
-17.78768255848711
 11
13.97062011369484
 21
-17.8579625063862
 97
        0
 92
        1
 93
        1
 72
     4
 94
        3
 73
     0
 74
     0
 95
       26
 96
       22
 40
0.0
 40
0.0
 40
0.0
 40
0.0
 40
1.0
 40
1.0
 40
1.0
 40
2.0
 40
2.0
 40
2.0
 40
3.0
 40
3.0
 40
3.0
 40
4.0
 40
4.0
 40
4.0
 40
5.0
 40
5.0
 40
5.0
 40
6.0
 40
6.0
 40
6.0
 40
7.0
 40
7.0
 40
7.0
 40
7.0
 10
13.76232964065664
 20
-17.8579625063862
 10
13.76232964065664
 20
-17.8579625063862
 10
13.57860269842826
 20
-17.8579625063862
 10
13.57860269842826
 20
-17.8579625063862
 10
13.54980170017158
 20
-17.8579625063862
 10
13.52100070191489
 20
-17.85710123251489
 10
13.49223415461305
 20
-17.85544758668197
 10
13.49223415461305
 20
-17.85544758668197
 10
13.49223415461305
 20
-17.8579625063862
 10
13.49223415461305
 20
-17.8579625063862
 10
13.52441134644529
 20
-17.87491237617363
 10
13.5481136033838
 20
-17.88845160143066
 10
13.57350395711009
 20
-17.90367892347546
 10
13.57350395711009
 20
-17.90367892347546
 10
13.76064154386887
 20
-18.03831325503903
 10
13.76064154386887
 20
-18.03831325503903
 10
13.76064154386887
 20
-18.03831325503903
 10
13.76232964065664
 20
-18.03831325503903
 10
13.76232964065664
 20
-18.03831325503903
 10
13.76232964065664
 20
-18.03831325503903
 10
13.76232964065664
 20
-17.8579625063862
 10
13.76232964065664
 20
-17.8579625063862
 97
        0
 97
        0
 75
     2
 76
     1
 98
        0
450
        0
451
        0
460
0.0
461
0.0
452
        0
462
0.0
453
        0
470

  0
SPLINE
  5
9F
330
89
100
AcDbEntity
  8
Livello 1
370
     0
100
AcDbSpline
210
0.0
220
0.0
230
1.0
 70
     9
 71
     3
 72
    17
 73
    13
 74
     0
 42
0.000000001
 43
0.0000000001
 40
0.0
 40
0.0
 40
0.0
 40
0.0
 40
1.0
 40
1.0
 40
1.0
 40
2.0
 40
2.0
 40
2.0
 40
3.0
 40
3.0
 40
3.0
 40
4.0
 40
4.0
 40
4.0
 40
4.0
 10
14.07476535021395
 20
-17.67850748255954
 30
0.0
 10
14.02481146567782
 20
-17.65990396693919
 30
0.0
 10
13.93420545441575
 20
-17.63702853291713
 30
0.0
 10
13.87240044141037
 20
-17.62772677510696
 30
0.0
 10
13.87240044141037
 20
-17.62772677510696
 30
0.0
 10
13.86392550651666
 20
-17.54473442486729
 30
0.0
 10
13.86392550651666
 20
-17.54473442486729
 30
0.0
 10
13.93592800215838
 20
-17.56419921435895
 30
0.0
 10
14.02991020699599
 20
-17.60147514750935
 30
0.0
 10
14.06970105985063
 20
-17.62517740444787
 30
0.0
 10
14.06970105985063
 20
-17.62517740444787
 30
0.0
 10
14.07476535021395
 20
-17.67850748255954
 30
0.0
 10
14.07476535021395
 20
-17.67850748255954
 30
0.0
  0
HATCH
  5
A0
330
89
100
AcDbEntity
  8
Livello 1
 62
   250
420
  1842203
100
AcDbHatch
 10
0.0
 20
0.0
 30
0.0
210
0.0
220
0.0
230
1.0
  2
SOLID
 70
     1
 71
     0
 91
        1
 92
        1
 93
        1
 72
     4
 94
        3
 73
     0
 74
     0
 95
       17
 96
       13
 40
0.0
 40
0.0
 40
0.0
 40
0.0
 40
1.0
 40
1.0
 40
1.0
 40
2.0
 40
2.0
 40
2.0
 40
3.0
 40
3.0
 40
3.0
 40
4.0
 40
4.0
 40
4.0
 40
4.0
 10
14.07476535021395
 20
-17.67850748255954
 10
14.02481146567782
 20
-17.65990396693919
 10
13.93420545441575
 20
-17.63702853291713
 10
13.87240044141037
 20
-17.62772677510696
 10
13.87240044141037
 20
-17.62772677510696
 10
13.86392550651666
 20
-17.54473442486729
 10
13.86392550651666
 20
-17.54473442486729
 10
13.93592800215838
 20
-17.56419921435895
 10
14.02991020699599
 20
-17.60147514750935
 10
14.06970105985063
 20
-17.62517740444787
 10
14.06970105985063
 20
-17.62517740444787
 10
14.07476535021395
 20
-17.67850748255954
 10
14.07476535021395
 20
-17.67850748255954
 97
        0
 97
        0
 75
     2
 76
     1
 98
        0
450
        0
451
        0
460
0.0
461
0.0
452
        0
462
0.0
453
        0
470

  0
SPLINE
  5
A1
330
89
100
AcDbEntity
  8
Livello 1
370
     0
100
AcDbSpline
210
0.0
220
0.0
230
1.0
 70
    11
 71
     3
 72
    50
 73
    46
 74
     0
 42
0.000000001
 43
0.0000000001
 40
0.0
 40
0.0
 40
0.0
 40
0.0
 40
1.0
 40
1.0
 40
1.0
 40
2.0
 40
2.0
 40
2.0
 40
3.0
 40
3.0
 40
3.0
 40
4.0
 40
4.0
 40
4.0
 40
5.0
 40
5.0
 40
5.0
 40
6.0
 40
6.0
 40
6.0
 40
7.0
 40
7.0
 40
7.0
 40
8.0
 40
8.0
 40
8.0
 40
9.0
 40
9.0
 40
9.0
 40
10.0
 40
10.0
 40
10.0
 40
11.0
 40
11.0
 40
11.0
 40
12.0
 40
12.0
 40
12.0
 40
13.0
 40
13.0
 40
13.0
 40
14.0
 40
14.0
 40
14.0
 40
15.0
 40
15.0
 40
15.0
 40
15.0
 10
13.48289794584803
 20
-17.15016763894162
 30
0.0
 10
13.48289794584803
 20
-17.15016763894162
 30
0.0
 10
13.48289794584803
 20
-17.36018065972245
 30
0.0
 10
13.48289794584803
 20
-17.36018065972245
 30
0.0
 10
13.48289794584803
 20
-17.36018065972245
 30
0.0
 10
13.62431911551753
 20
-17.38133354600189
 30
0.0
 10
13.62431911551753
 20
-17.38133354600189
 30
0.0
 10
13.62263101872976
 20
-17.36865559461617
 30
0.0
 10
13.62090847098713
 20
-17.35677001519205
 30
0.0
 10
13.62090847098713
 20
-17.33647840278394
 30
0.0
 10
13.62090847098713
 20
-17.29410372831536
 30
0.0
 10
13.63024467975216
 20
-17.25179795575649
 30
0.0
 10
13.65057074311513
 20
-17.21789821618163
 30
0.0
 10
13.67509982297011
 20
-17.17473116975145
 30
0.0
 10
13.722538787802
 20
-17.13914333338882
 30
0.0
 10
13.79195746182979
 20
-17.13914333338882
 30
0.0
 10
13.89951334287929
 20
-17.13914333338882
 30
0.0
 10
13.97995632245987
 20
-17.22468505428758
 30
0.0
 10
13.97995632245987
 20
-17.34405761285148
 30
0.0
 10
13.97995632245987
 20
-17.40420898002395
 30
0.0
 10
13.96300645267244
 20
-17.45498968747653
 30
0.0
 10
13.94605658288501
 20
-17.48124131507413
 30
0.0
 10
13.94605658288501
 20
-17.48124131507413
 30
0.0
 10
13.8893503111978
 20
-17.46263779945377
 30
0.0
 10
13.8893503111978
 20
-17.46263779945377
 30
0.0
 10
13.90288953645483
 20
-17.43976236543173
 30
0.0
 10
13.91983940624226
 20
-17.39487277125892
 30
0.0
 10
13.91983940624226
 20
-17.3449188867228
 30
0.0
 10
13.91983940624226
 20
-17.2746389388237
 30
0.0
 10
13.87408853819814
 20
-17.21452202260609
 30
0.0
 10
13.8004323967235
 20
-17.21452202260609
 30
0.0
 10
13.72929117495309
 20
-17.21534884552255
 30
0.0
 10
13.67851046750051
 20
-17.26278781035444
 30
0.0
 10
13.67851046750051
 20
-17.37285861110817
 30
0.0
 10
13.67851046750051
 20
-17.40420898002395
 30
0.0
 10
13.68188666107605
 20
-17.42873805987892
 30
0.0
 10
13.68443603173514
 20
-17.4490641232419
 30
0.0
 10
13.68443603173514
 20
-17.4490641232419
 30
0.0
 10
13.42023165897133
 20
-17.41351073783412
 30
0.0
 10
13.42023165897133
 20
-17.41351073783412
 30
0.0
 10
13.42023165897133
 20
-17.41351073783412
 30
0.0
 10
13.42023165897133
 20
-17.15016763894162
 30
0.0
 10
13.42023165897133
 20
-17.15016763894162
 30
0.0
 10
13.42023165897133
 20
-17.15016763894162
 30
0.0
 10
13.48289794584803
 20
-17.15016763894162
 30
0.0
 10
13.48289794584803
 20
-17.15016763894162
 30
0.0
  0
HATCH
  5
A2
330
89
100
AcDbEntity
  8
Livello 1
 62
   250
420
  1842203
100
AcDbHatch
 10
0.0
 20
0.0
 30
0.0
210
0.0
220
0.0
230
1.0
  2
SOLID
 70
     1
 71
     0
 91
        1
 92
        1
 93
        1
 72
     4
 94
        3
 73
     0
 74
     0
 95
       50
 96
       46
 40
0.0
 40
0.0
 40
0.0
 40
0.0
 40
1.0
 40
1.0
 40
1.0
 40
2.0
 40
2.0
 40
2.0
 40
3.0
 40
3.0
 40
3.0
 40
4.0
 40
4.0
 40
4.0
 40
5.0
 40
5.0
 40
5.0
 40
6.0
 40
6.0
 40
6.0
 40
7.0
 40
7.0
 40
7.0
 40
8.0
 40
8.0
 40
8.0
 40
9.0
 40
9.0
 40
9.0
 40
10.0
 40
10.0
 40
10.0
 40
11.0
 40
11.0
 40
11.0
 40
12.0
 40
12.0
 40
12.0
 40
13.0
 40
13.0
 40
13.0
 40
14.0
 40
14.0
 40
14.0
 40
15.0
 40
15.0
 40
15.0
 40
15.0
 10
13.48289794584803
 20
-17.15016763894162
 10
13.48289794584803
 20
-17.15016763894162
 10
13.48289794584803
 20
-17.36018065972245
 10
13.48289794584803
 20
-17.36018065972245
 10
13.48289794584803
 20
-17.36018065972245
 10
13.62431911551753
 20
-17.38133354600189
 10
13.62431911551753
 20
-17.38133354600189
 10
13.62263101872976
 20
-17.36865559461617
 10
13.62090847098713
 20
-17.35677001519205
 10
13.62090847098713
 20
-17.33647840278394
 10
13.62090847098713
 20
-17.29410372831536
 10
13.63024467975216
 20
-17.25179795575649
 10
13.65057074311513
 20
-17.21789821618163
 10
13.67509982297011
 20
-17.17473116975145
 10
13.722538787802
 20
-17.13914333338882
 10
13.79195746182979
 20
-17.13914333338882
 10
13.89951334287929
 20
-17.13914333338882
 10
13.97995632245987
 20
-17.22468505428758
 10
13.97995632245987
 20
-17.34405761285148
 10
13.97995632245987
 20
-17.40420898002395
 10
13.96300645267244
 20
-17.45498968747653
 10
13.94605658288501
 20
-17.48124131507413
 10
13.94605658288501
 20
-17.48124131507413
 10
13.8893503111978
 20
-17.46263779945377
 10
13.8893503111978
 20
-17.46263779945377
 10
13.90288953645483
 20
-17.43976236543173
 10
13.91983940624226
 20
-17.39487277125892
 10
13.91983940624226
 20
-17.3449188867228
 10
13.91983940624226
 20
-17.2746389388237
 10
13.87408853819814
 20
-17.21452202260609
 10
13.8004323967235
 20
-17.21452202260609
 10
13.72929117495309
 20
-17.21534884552255
 10
13.67851046750051
 20
-17.26278781035444
 10
13.67851046750051
 20
-17.37285861110817
 10
13.67851046750051
 20
-17.40420898002395
 10
13.68188666107605
 20
-17.42873805987892
 10
13.68443603173514
 20
-17.4490641232419
 10
13.68443603173514
 20
-17.4490641232419
 10
13.42023165897133
 20
-17.41351073783412
 10
13.42023165897133
 20
-17.41351073783412
 10
13.42023165897133
 20
-17.41351073783412
 10
13.42023165897133
 20
-17.15016763894162
 10
13.42023165897133
 20
-17.15016763894162
 10
13.42023165897133
 20
-17.15016763894162
 10
13.48289794584803
 20
-17.15016763894162
 10
13.48289794584803
 20
-17.15016763894162
 97
        0
 97
        0
 75
     2
 76
     1
 98
        0
450
        0
451
        0
460
0.0
461
0.0
452
        0
462
0.0
453
        0
470

  0
ENDBLK
  5
8C
330
89
100
AcDbEntity
  8
0
100
AcDbBlockEnd
  0
ENDSEC
  0
SECTION
  2
ENTITIES
  0
POLYLINE
  5
D6
330
1F
100
AcDbEntity
  8
Livello 1
100
AcDb2dPolyline
 66
     1
 10
0.0
 20
0.0
 30
0.0
  0
VERTEX
  5
D7
330
D6
100
AcDbEntity
  8
Livello 1
100
AcDbVertex
100
AcDb2dVertex
 10
11.15676274314505
 20
-11.42157579446957
 30
0.0
  0
VERTEX
  5
D8
330
D6
100
AcDbEntity
  8
Livello 1
100
AcDbVertex
100
AcDb2dVertex
 10
9.762627334267961
 20
-11.42157579446957
 30
0.0
  0
VERTEX
  5
D9
330
D6
100
AcDbEntity
  8
Livello 1
100
AcDbVertex
100
AcDb2dVertex
 10
9.762627334267961
 20
-10.64343621133077
 30
0.0
  0
VERTEX
  5
DA
330
D6
100
AcDbEntity
  8
Livello 1
100
AcDbVertex
100
AcDb2dVertex
 10
11.15676274314505
 20
-10.64343621133077
 30
0.0
  0
VERTEX
  5
DB
330
D6
100
AcDbEntity
  8
Livello 1
100
AcDbVertex
100
AcDb2dVertex
 10
11.15676274314505
 20
-11.42157579446957
 30
0.0
  0
SEQEND
  5
DC
330
D6
100
AcDbEntity
  8
Livello 1
  0
SPLINE
  5
DD
330
1F
100
AcDbEntity
  8
Livello 1
100
AcDbSpline
210
0.0
220
0.0
230
1.0
 70
     8
 71
     3
 72
    23
 73
    19
 74
     0
 42
0.000000001
 43
0.0000000001
 40
0.0
 40
0.0
 40
0.0
 40
0.0
 40
1.0
 40
1.0
 40
1.0
 40
2.0
 40
2.0
 40
2.0
 40
3.0
 40
3.0
 40
3.0
 40
4.0
 40
4.0
 40
4.0
 40
5.0
 40
5.0
 40
5.0
 40
6.0
 40
6.0
 40
6.0
 40
6.0
 10
10.4596950387065
 20
-19.92556974501858
 30
0.0
 10
10.70341888621305
 20
-19.92556974501858
 30
0.0
 10
10.94312405415098
 20
-19.86348085614527
 30
0.0
 10
11.156198298715
 20
-19.74515918950814
 30
0.0
 10
12.37897221912747
 20
-19.153452078545
 30
0.0
 10
12.89055611557896
 20
-17.68252396780159
 30
0.0
 10
12.29884901956355
 20
-16.45974680144065
 30
0.0
 10
12.24536438203917
 20
-16.34922152369044
 30
0.0
 10
12.18367766139071
 20
-16.2428554959393
 30
0.0
 10
12.11431096871596
 20
-16.14154477374238
 30
0.0
 10
11.96213322259833
 20
-15.91484977379907
 30
0.0
 10
11.71012289569432
 20
-15.77528735716732
 30
0.0
 10
11.43722459710098
 20
-15.76657727383616
 30
0.0
 10
11.43722459710098
 20
-15.76657727383616
 30
0.0
 10
11.1776718815005
 20
-15.76657727383616
 30
0.0
 10
11.1776718815005
 20
-15.76657727383616
 30
0.0
 10
11.1776718815005
 20
-15.76657727383616
 30
0.0
 10
10.4596950387065
 20
-15.76657727383616
 30
0.0
 10
10.4596950387065
 20
-15.76657727383616
 30
0.0
  0
SPLINE
  5
DE
330
1F
100
AcDbEntity
  8
Livello 1
100
AcDbSpline
210
0.0
220
0.0
230
1.0
 70
     8
 71
     3
 72
    23
 73
    19
 74
     0
 42
0.000000001
 43
0.0000000001
 40
0.0
 40
0.0
 40
0.0
 40
0.0
 40
1.0
 40
1.0
 40
1.0
 40
2.0
 40
2.0
 40
2.0
 40
3.0
 40
3.0
 40
3.0
 40
4.0
 40
4.0
 40
4.0
 40
5.0
 40
5.0
 40
5.0
 40
6.0
 40
6.0
 40
6.0
 40
6.0
 10
10.4596950387065
 20
-19.92556974501858
 30
0.0
 10
10.21597498936876
 20
-19.92556974501858
 30
0.0
 10
9.976269551039711
 20
-19.86348085614527
 30
0.0
 10
9.763195553114769
 20
-19.74515918950814
 30
0.0
 10
9.652670275364599
 20
-19.69167807841041
 30
0.0
 10
9.546304006453492
 20
-19.62999135620358
 30
0.0
 10
9.444993286815922
 20
-19.56062466177648
 30
0.0
 10
8.324133648744767
 20
-18.79317777307946
 30
0.0
 10
8.037635767165049
 20
-17.26240444012883
 30
0.0
 10
8.805082636474738
 20
-16.14154477374238
 30
0.0
 10
8.957256854814671
 20
-15.91484977379907
 30
0.0
 10
9.209270709496376
 20
-15.77528735716732
 30
0.0
 10
9.482165480312028
 20
-15.76657727383616
 30
0.0
 10
9.482165480312028
 20
-15.76657727383616
 30
0.0
 10
9.741721723690194
 20
-15.76657727383616
 30
0.0
 10
9.741721723690194
 20
-15.76657727383616
 30
0.0
 10
9.741721723690194
 20
-15.76657727383616
 30
0.0
 10
10.4596950387065
 20
-15.76657727383616
 30
0.0
 10
10.4596950387065
 20
-15.76657727383616
 30
0.0
  0
LINE
  5
DF
330
1F
100
AcDbEntity
  8
Livello 1
100
AcDbLine
 10
9.762627334267961
 20
-11.73051440035941
 30
0.0
 11
11.15676274314505
 21
-11.73051440035941
 31
0.0
  0
LINE
  5
E0
330
1F
100
AcDbEntity
  8
Livello 1
100
AcDbLine
 10
11.50235369518481
 20
-10.64343621133077
 30
0.0
 11
11.50235369518481
 21
-11.42157579446957
 31
0.0
  0
LINE
  5
E1
330
1F
100
AcDbEntity
  8
Livello 1
100
AcDbLine
 10
8.374710487736207
 20
-14.65726337082116
 30
0.0
 11
12.54501235166318
 21
-14.65726337082116
 31
0.0
  0
LINE
  5
E2
330
1F
100
AcDbEntity
  8
Livello 1
100
AcDbLine
 10
13.2030349761231
 20
-15.76657727383616
 30
0.0
 11
13.2030349761231
 21
-19.92556974501858
 31
0.0
  0
SPLINE
  5
E3
330
1F
100
AcDbEntity
  8
Livello 1
100
AcDbSpline
210
0.0
220
0.0
230
1.0
 70
     9
 71
     3
 72
    41
 73
    37
 74
     0
 42
0.000000001
 43
0.0000000001
 40
0.0
 40
0.0
 40
0.0
 40
0.0
 40
1.0
 40
1.0
 40
1.0
 40
2.0
 40
2.0
 40
2.0
 40
3.0
 40
3.0
 40
3.0
 40
4.0
 40
4.0
 40
4.0
 40
5.0
 40
5.0
 40
5.0
 40
6.0
 40
6.0
 40
6.0
 40
7.0
 40
7.0
 40
7.0
 40
8.0
 40
8.0
 40
8.0
 40
9.0
 40
9.0
 40
9.0
 40
10.0
 40
10.0
 40
10.0
 40
11.0
 40
11.0
 40
11.0
 40
12.0
 40
12.0
 40
12.0
 40
12.0
 10
10.29813110094109
 20
-12.50447360255964
 30
0.0
 10
10.31421969685721
 20
-12.50617892482484
 30
0.0
 10
10.33284043795498
 20
-12.50447360255964
 30
0.0
 10
10.3582480171587
 20
-12.50194145737799
 30
0.0
 10
10.40143228906631
 20
-12.49601589314336
 30
0.0
 10
10.44208441579226
 20
-12.47822197496204
 30
0.0
 10
10.47340033375318
 20
-12.44859415378889
 30
0.0
 10
10.50981499303227
 20
-12.41557291356277
 30
0.0
 10
10.53606662062987
 20
-12.36730712581442
 30
0.0
 10
10.54622965231136
 20
-12.30210869375607
 30
0.0
 10
10.54622965231136
 20
-12.30210869375607
 30
0.0
 10
10.54368028165227
 20
-12.30210869375607
 30
0.0
 10
10.54368028165227
 20
-12.30210869375607
 30
0.0
 10
10.51320841208524
 20
-12.33936740142905
 30
0.0
 10
10.46918009178375
 20
-12.36138156157979
 30
0.0
 10
10.41412746592945
 20
-12.36138156157979
 30
0.0
 10
10.31506374525109
 20
-12.36138156157979
 30
0.0
 10
10.25155340998051
 20
-12.28686414623384
 30
0.0
 10
10.25155340998051
 20
-12.19288194139622
 30
0.0
 10
10.25155340998051
 20
-12.08873670487712
 30
0.0
 10
10.32691487372035
 20
-11.99728664522116
 30
0.0
 10
10.43953504513317
 20
-11.99728664522116
 30
0.0
 10
10.55215521654599
 20
-11.99728664522116
 30
0.0
 10
10.62157389057377
 20
-12.08873670487712
 30
0.0
 10
10.62157389057377
 20
-12.22929660067531
 30
0.0
 10
10.62157389057377
 20
-12.35037448150442
 30
0.0
 10
10.58092176384782
 20
-12.43505492853186
 30
0.0
 10
10.52674763734227
 20
-12.48754095824964
 30
0.0
 10
10.48440741382855
 20
-12.52903713336948
 30
0.0
 10
10.42599581987614
 20
-12.55444471257319
 30
0.0
 10
10.36672295205241
 20
-12.56121432520171
 30
0.0
 10
10.33962727606093
 20
-12.56545179264857
 30
0.0
 10
10.31590779364498
 20
-12.56629584104245
 30
0.0
 10
10.29813110094109
 20
-12.56545179264857
 30
0.0
 10
10.29813110094109
 20
-12.56545179264857
 30
0.0
 10
10.29813110094109
 20
-12.50447360255964
 30
0.0
 10
10.29813110094109
 20
-12.50447360255964
 30
0.0
  0
SPLINE
  5
E4
330
1F
100
AcDbEntity
  8
Livello 1
100
AcDbSpline
210
0.0
220
0.0
230
1.0
 70
     9
 71
     3
 72
    20
 73
    16
 74
     0
 42
0.000000001
 43
0.0000000001
 40
0.0
 40
0.0
 40
0.0
 40
0.0
 40
1.0
 40
1.0
 40
1.0
 40
2.0
 40
2.0
 40
2.0
 40
3.0
 40
3.0
 40
3.0
 40
4.0
 40
4.0
 40
4.0
 40
5.0
 40
5.0
 40
5.0
 40
5.0
 10
10.32522677693258
 20
-12.18780042555548
 30
0.0
 10
10.32522677693258
 20
-12.2563922766668
 30
0.0
 10
10.36672295205241
 20
-12.30464083893773
 30
0.0
 10
10.43107733571688
 20
-12.30464083893773
 30
0.0
 10
10.481031220253
 20
-12.30464083893773
 30
0.0
 10
10.51997802471375
 20
-12.28009453360532
 30
0.0
 10
10.53946003968284
 20
-12.2470732933792
 30
0.0
 10
10.54368028165227
 20
-12.24030368075069
 30
0.0
 10
10.54622965231136
 20
-12.23182874585697
 30
0.0
 10
10.54622965231136
 20
-12.21997761738771
 30
0.0
 10
10.54622965231136
 20
-12.12597818707267
 30
0.0
 10
10.51150308982004
 20
-12.0540101423858
 30
0.0
 10
10.43360948089854
 20
-12.0540101423858
 30
0.0
 10
10.37009914562796
 20
-12.0540101423858
 30
0.0
 10
10.32522677693258
 20
-12.10990681663398
 30
0.0
 10
10.32522677693258
 20
-12.18780042555548
 30
0.0
  0
HATCH
  5
E5
330
1F
100
AcDbEntity
  8
Livello 1
100
AcDbHatch
 10
0.0
 20
0.0
 30
0.0
210
0.0
220
0.0
230
1.0
  2
SOLID
 70
     1
 71
     0
 91
        2
 92
        1
 93
        1
 72
     4
 94
        3
 73
     0
 74
     0
 95
       41
 96
       37
 40
0.0
 40
0.0
 40
0.0
 40
0.0
 40
1.0
 40
1.0
 40
1.0
 40
2.0
 40
2.0
 40
2.0
 40
3.0
 40
3.0
 40
3.0
 40
4.0
 40
4.0
 40
4.0
 40
5.0
 40
5.0
 40
5.0
 40
6.0
 40
6.0
 40
6.0
 40
7.0
 40
7.0
 40
7.0
 40
8.0
 40
8.0
 40
8.0
 40
9.0
 40
9.0
 40
9.0
 40
10.0
 40
10.0
 40
10.0
 40
11.0
 40
11.0
 40
11.0
 40
12.0
 40
12.0
 40
12.0
 40
12.0
 10
10.29813110094109
 20
-12.50447360255964
 10
10.31421969685721
 20
-12.50617892482484
 10
10.33284043795498
 20
-12.50447360255964
 10
10.3582480171587
 20
-12.50194145737799
 10
10.40143228906631
 20
-12.49601589314336
 10
10.44208441579226
 20
-12.47822197496204
 10
10.47340033375318
 20
-12.44859415378889
 10
10.50981499303227
 20
-12.41557291356277
 10
10.53606662062987
 20
-12.36730712581442
 10
10.54622965231136
 20
-12.30210869375607
 10
10.54622965231136
 20
-12.30210869375607
 10
10.54368028165227
 20
-12.30210869375607
 10
10.54368028165227
 20
-12.30210869375607
 10
10.51320841208524
 20
-12.33936740142905
 10
10.46918009178375
 20
-12.36138156157979
 10
10.41412746592945
 20
-12.36138156157979
 10
10.31506374525109
 20
-12.36138156157979
 10
10.25155340998051
 20
-12.28686414623384
 10
10.25155340998051
 20
-12.19288194139622
 10
10.25155340998051
 20
-12.08873670487712
 10
10.32691487372035
 20
-11.99728664522116
 10
10.43953504513317
 20
-11.99728664522116
 10
10.55215521654599
 20
-11.99728664522116
 10
10.62157389057377
 20
-12.08873670487712
 10
10.62157389057377
 20
-12.22929660067531
 10
10.62157389057377
 20
-12.35037448150442
 10
10.58092176384782
 20
-12.43505492853186
 10
10.52674763734227
 20
-12.48754095824964
 10
10.48440741382855
 20
-12.52903713336948
 10
10.42599581987614
 20
-12.55444471257319
 10
10.36672295205241
 20
-12.56121432520171
 10
10.33962727606093
 20
-12.56545179264857
 10
10.31590779364498
 20
-12.56629584104245
 10
10.29813110094109
 20
-12.56545179264857
 10
10.29813110094109
 20
-12.56545179264857
 10
10.29813110094109
 20
-12.50447360255964
 10
10.29813110094109
 20
-12.50447360255964
 97
        0
 97
        0
 92
        1
 93
        1
 72
     4
 94
        3
 73
     0
 74
     0
 95
       20
 96
       16
 40
0.0
 40
0.0
 40
0.0
 40
0.0
 40
1.0
 40
1.0
 40
1.0
 40
2.0
 40
2.0
 40
2.0
 40
3.0
 40
3.0
 40
3.0
 40
4.0
 40
4.0
 40
4.0
 40
5.0
 40
5.0
 40
5.0
 40
5.0
 10
10.32522677693258
 20
-12.18780042555548
 10
10.32522677693258
 20
-12.2563922766668
 10
10.36672295205241
 20
-12.30464083893773
 10
10.43107733571688
 20
-12.30464083893773
 10
10.481031220253
 20
-12.30464083893773
 10
10.51997802471375
 20
-12.28009453360532
 10
10.53946003968284
 20
-12.2470732933792
 10
10.54368028165227
 20
-12.24030368075069
 10
10.54622965231136
 20
-12.23182874585697
 10
10.54622965231136
 20
-12.21997761738771
 10
10.54622965231136
 20
-12.12597818707267
 10
10.51150308982004
 20
-12.0540101423858
 10
10.43360948089854
 20
-12.0540101423858
 10
10.37009914562796
 20
-12.0540101423858
 10
10.32522677693258
 20
-12.10990681663398
 10
10.32522677693258
 20
-12.18780042555548
 97
        0
 97
        0
 75
     2
 76
     1
 98
        0
450
        0
451
        0
460
0.0
461
0.0
452
        0
462
0.0
453
        0
470

  0
POLYLINE
  5
E6
330
1F
100
AcDbEntity
  8
Livello 1
100
AcDb2dPolyline
 66
     1
 10
0.0
 20
0.0
 30
0.0
  0
VERTEX
  5
E7
330
E6
100
AcDbEntity
  8
Livello 1
100
AcDbVertex
100
AcDb2dVertex
 10
12.36413763796799
 20
-11.03812038569533
 30
0.0
  0
VERTEX
  5
E8
330
E6
100
AcDbEntity
  8
Livello 1
100
AcDbVertex
100
AcDb2dVertex
 10
12.21427598435962
 20
-11.03812038569533
 30
0.0
  0
VERTEX
  5
E9
330
E6
100
AcDbEntity
  8
Livello 1
100
AcDbVertex
100
AcDb2dVertex
 10
12.21427598435962
 20
-11.29384982356543
 30
0.0
  0
VERTEX
  5
EA
330
E6
100
AcDbEntity
  8
Livello 1
100
AcDbVertex
100
AcDb2dVertex
 10
12.16514892273996
 20
-11.29384982356543
 30
0.0
  0
VERTEX
  5
EB
330
E6
100
AcDbEntity
  8
Livello 1
100
AcDbVertex
100
AcDb2dVertex
 10
11.81374918324448
 20
-11.04828341737682
 30
0.0
  0
VERTEX
  5
EC
330
E6
100
AcDbEntity
  8
Livello 1
100
AcDbVertex
100
AcDb2dVertex
 10
11.81374918324448
 20
-10.96784043779623
 30
0.0
  0
VERTEX
  5
ED
330
E6
100
AcDbEntity
  8
Livello 1
100
AcDbVertex
100
AcDb2dVertex
 10
12.15584716492979
 20
-10.96784043779623
 30
0.0
  0
VERTEX
  5
EE
330
E6
100
AcDbEntity
  8
Livello 1
100
AcDbVertex
100
AcDb2dVertex
 10
12.15584716492979
 20
-10.89079087726862
 30
0.0
  0
VERTEX
  5
EF
330
E6
100
AcDbEntity
  8
Livello 1
100
AcDbVertex
100
AcDb2dVertex
 10
12.21427598435962
 20
-10.89079087726862
 30
0.0
  0
VERTEX
  5
F0
330
E6
100
AcDbEntity
  8
Livello 1
100
AcDbVertex
100
AcDb2dVertex
 10
12.21427598435962
 20
-10.96784043779623
 30
0.0
  0
VERTEX
  5
F1
330
E6
100
AcDbEntity
  8
Livello 1
100
AcDbVertex
100
AcDb2dVertex
 10
12.36413763796799
 20
-10.96784043779623
 30
0.0
  0
VERTEX
  5
F2
330
E6
100
AcDbEntity
  8
Livello 1
100
AcDbVertex
100
AcDb2dVertex
 10
12.36413763796799
 20
-11.03812038569533
 30
0.0
  0
SEQEND
  5
F3
330
E6
100
AcDbEntity
  8
Livello 1
  0
SPLINE
  5
F4
330
1F
100
AcDbEntity
  8
Livello 1
100
AcDbSpline
210
0.0
220
0.0
230
1.0
 70
    11
 71
     3
 72
    26
 73
    22
 74
     0
 42
0.000000001
 43
0.0000000001
 40
0.0
 40
0.0
 40
0.0
 40
0.0
 40
1.0
 40
1.0
 40
1.0
 40
2.0
 40
2.0
 40
2.0
 40
3.0
 40
3.0
 40
3.0
 40
4.0
 40
4.0
 40
4.0
 40
5.0
 40
5.0
 40
5.0
 40
6.0
 40
6.0
 40
6.0
 40
7.0
 40
7.0
 40
7.0
 40
7.0
 10
12.15584716492979
 20
-11.03812038569533
 30
0.0
 10
12.15584716492979
 20
-11.03812038569533
 30
0.0
 10
11.97212022270141
 20
-11.03812038569533
 30
0.0
 10
11.97212022270141
 20
-11.03812038569533
 30
0.0
 10
11.94331922444472
 20
-11.03812038569533
 30
0.0
 10
11.91451822618804
 20
-11.03727633730144
 30
0.0
 10
11.8857516788862
 20
-11.03558824051367
 30
0.0
 10
11.8857516788862
 20
-11.03558824051367
 30
0.0
 10
11.8857516788862
 20
-11.03812038569533
 30
0.0
 10
11.8857516788862
 20
-11.03812038569533
 30
0.0
 10
11.91792887071843
 20
-11.05507025548276
 30
0.0
 10
11.94163112765695
 20
-11.06860948073979
 30
0.0
 10
11.96702148138324
 20
-11.08385402826202
 30
0.0
 10
11.96702148138324
 20
-11.08385402826202
 30
0.0
 10
12.15415906814201
 20
-11.21848835982559
 30
0.0
 10
12.15415906814201
 20
-11.21848835982559
 30
0.0
 10
12.15415906814201
 20
-11.21848835982559
 30
0.0
 10
12.15584716492979
 20
-11.21848835982559
 30
0.0
 10
12.15584716492979
 20
-11.21848835982559
 30
0.0
 10
12.15584716492979
 20
-11.21848835982559
 30
0.0
 10
12.15584716492979
 20
-11.03812038569533
 30
0.0
 10
12.15584716492979
 20
-11.03812038569533
 30
0.0
  0
HATCH
  5
F5
330
1F
100
AcDbEntity
  8
Livello 1
100
AcDbHatch
 10
0.0
 20
0.0
 30
0.0
210
0.0
220
0.0
230
1.0
  2
SOLID
 70
     1
 71
     0
 91
        2
 92
        1
 93
       11
 72
     1
 10
12.36413763796799
 20
-11.03812038569533
 11
12.21427598435962
 21
-11.03812038569533
 72
     1
 10
12.21427598435962
 20
-11.03812038569533
 11
12.21427598435962
 21
-11.29384982356543
 72
     1
 10
12.21427598435962
 20
-11.29384982356543
 11
12.16514892273996
 21
-11.29384982356543
 72
     1
 10
12.16514892273996
 20
-11.29384982356543
 11
11.81374918324448
 21
-11.04828341737682
 72
     1
 10
11.81374918324448
 20
-11.04828341737682
 11
11.81374918324448
 21
-10.96784043779623
 72
     1
 10
11.81374918324448
 20
-10.96784043779623
 11
12.15584716492979
 21
-10.96784043779623
 72
     1
 10
12.15584716492979
 20
-10.96784043779623
 11
12.15584716492979
 21
-10.89079087726862
 72
     1
 10
12.15584716492979
 20
-10.89079087726862
 11
12.21427598435962
 21
-10.89079087726862
 72
     1
 10
12.21427598435962
 20
-10.89079087726862
 11
12.21427598435962
 21
-10.96784043779623
 72
     1
 10
12.21427598435962
 20
-10.96784043779623
 11
12.36413763796799
 21
-10.96784043779623
 72
     1
 10
12.36413763796799
 20
-10.96784043779623
 11
12.36413763796799
 21
-11.03812038569533
 97
        0
 92
        1
 93
        1
 72
     4
 94
        3
 73
     0
 74
     0
 95
       26
 96
       22
 40
0.0
 40
0.0
 40
0.0
 40
0.0
 40
1.0
 40
1.0
 40
1.0
 40
2.0
 40
2.0
 40
2.0
 40
3.0
 40
3.0
 40
3.0
 40
4.0
 40
4.0
 40
4.0
 40
5.0
 40
5.0
 40
5.0
 40
6.0
 40
6.0
 40
6.0
 40
7.0
 40
7.0
 40
7.0
 40
7.0
 10
12.15584716492979
 20
-11.03812038569533
 10
12.15584716492979
 20
-11.03812038569533
 10
11.97212022270141
 20
-11.03812038569533
 10
11.97212022270141
 20
-11.03812038569533
 10
11.94331922444472
 20
-11.03812038569533
 10
11.91451822618804
 20
-11.03727633730144
 10
11.8857516788862
 20
-11.03558824051367
 10
11.8857516788862
 20
-11.03558824051367
 10
11.8857516788862
 20
-11.03812038569533
 10
11.8857516788862
 20
-11.03812038569533
 10
11.91792887071843
 20
-11.05507025548276
 10
11.94163112765695
 20
-11.06860948073979
 10
11.96702148138324
 20
-11.08385402826202
 10
11.96702148138324
 20
-11.08385402826202
 10
12.15415906814201
 20
-11.21848835982559
 10
12.15415906814201
 20
-11.21848835982559
 10
12.15415906814201
 20
-11.21848835982559
 10
12.15584716492979
 20
-11.21848835982559
 10
12.15584716492979
 20
-11.21848835982559
 10
12.15584716492979
 20
-11.21848835982559
 10
12.15584716492979
 20
-11.03812038569533
 10
12.15584716492979
 20
-11.03812038569533
 97
        0
 97
        0
 75
     2
 76
     1
 98
        0
450
        0
451
        0
460
0.0
461
0.0
452
        0
462
0.0
453
        0
470

  0
SPLINE
  5
F6
330
1F
100
AcDbEntity
  8
Livello 1
100
AcDbSpline
210
0.0
220
0.0
230
1.0
 70
    11
 71
     3
 72
    47
 73
    43
 74
     0
 42
0.000000001
 43
0.0000000001
 40
0.0
 40
0.0
 40
0.0
 40
0.0
 40
1.0
 40
1.0
 40
1.0
 40
2.0
 40
2.0
 40
2.0
 40
3.0
 40
3.0
 40
3.0
 40
4.0
 40
4.0
 40
4.0
 40
5.0
 40
5.0
 40
5.0
 40
6.0
 40
6.0
 40
6.0
 40
7.0
 40
7.0
 40
7.0
 40
8.0
 40
8.0
 40
8.0
 40
9.0
 40
9.0
 40
9.0
 40
10.0
 40
10.0
 40
10.0
 40
11.0
 40
11.0
 40
11.0
 40
12.0
 40
12.0
 40
12.0
 40
13.0
 40
13.0
 40
13.0
 40
14.0
 40
14.0
 40
14.0
 40
14.0
 10
10.0458812095111
 20
-14.44106512768314
 30
0.0
 10
10.0458812095111
 20
-14.44106512768314
 30
0.0
 10
10.0458812095111
 20
-14.39534871059387
 30
0.0
 10
10.0458812095111
 20
-14.39534871059387
 30
0.0
 10
10.0458812095111
 20
-14.39534871059387
 30
0.0
 10
10.10431002894093
 20
-14.33860798795181
 30
0.0
 10
10.10431002894093
 20
-14.33860798795181
 30
0.0
 10
10.24486992473913
 20
-14.20481770478213
 30
0.0
 10
10.30836303453228
 20
-14.13369370848915
 30
0.0
 10
10.3092243084036
 20
-14.0507185837269
 30
0.0
 10
10.3092243084036
 20
-13.99483913495615
 30
0.0
 10
10.28212863241211
 20
-13.94317992815483
 30
0.0
 10
10.19998033056632
 20
-13.94317992815483
 30
0.0
 10
10.1500264460302
 20
-13.94317992815483
 30
0.0
 10
10.10854749638779
 20
-13.96858750735855
 30
0.0
 10
10.08313991718408
 20
-13.98975761911541
 30
0.0
 10
10.08313991718408
 20
-13.98975761911541
 30
0.0
 10
10.05943766024556
 20
-13.9372543639202
 30
0.0
 10
10.05943766024556
 20
-13.9372543639202
 30
0.0
 10
10.09754041631242
 20
-13.90507717208797
 30
0.0
 10
10.1517317682954
 20
-13.88137491514945
 30
0.0
 10
10.21522487808855
 20
-13.88137491514945
 30
0.0
 10
10.333770613736
 20
-13.88137491514945
 30
0.0
 10
10.38372449827211
 20
-13.96266194312392
 30
0.0
 10
10.38372449827211
 20
-14.0413996004393
 30
0.0
 10
10.38372449827211
 20
-14.14301269177675
 30
0.0
 10
10.31006835679748
 20
-14.2251437681451
 30
0.0
 10
10.19405476633169
 20
-14.33691989116403
 30
0.0
 10
10.19405476633169
 20
-14.33691989116403
 30
0.0
 10
10.1500264460302
 20
-14.37755479241256
 30
0.0
 10
10.1500264460302
 20
-14.37755479241256
 30
0.0
 10
10.1500264460302
 20
-14.37755479241256
 30
0.0
 10
10.1500264460302
 20
-14.37926011467775
 30
0.0
 10
10.1500264460302
 20
-14.37926011467775
 30
0.0
 10
10.1500264460302
 20
-14.37926011467775
 30
0.0
 10
10.39728094900658
 20
-14.37926011467775
 30
0.0
 10
10.39728094900658
 20
-14.37926011467775
 30
0.0
 10
10.39728094900658
 20
-14.37926011467775
 30
0.0
 10
10.39728094900658
 20
-14.44106512768314
 30
0.0
 10
10.39728094900658
 20
-14.44106512768314
 30
0.0
 10
10.39728094900658
 20
-14.44106512768314
 30
0.0
 10
10.0458812095111
 20
-14.44106512768314
 30
0.0
 10
10.0458812095111
 20
-14.44106512768314
 30
0.0
  0
HATCH
  5
F7
330
1F
100
AcDbEntity
  8
Livello 1
100
AcDbHatch
 10
0.0
 20
0.0
 30
0.0
210
0.0
220
0.0
230
1.0
  2
SOLID
 70
     1
 71
     0
 91
        1
 92
        1
 93
        1
 72
     4
 94
        3
 73
     0
 74
     0
 95
       47
 96
       43
 40
0.0
 40
0.0
 40
0.0
 40
0.0
 40
1.0
 40
1.0
 40
1.0
 40
2.0
 40
2.0
 40
2.0
 40
3.0
 40
3.0
 40
3.0
 40
4.0
 40
4.0
 40
4.0
 40
5.0
 40
5.0
 40
5.0
 40
6.0
 40
6.0
 40
6.0
 40
7.0
 40
7.0
 40
7.0
 40
8.0
 40
8.0
 40
8.0
 40
9.0
 40
9.0
 40
9.0
 40
10.0
 40
10.0
 40
10.0
 40
11.0
 40
11.0
 40
11.0
 40
12.0
 40
12.0
 40
12.0
 40
13.0
 40
13.0
 40
13.0
 40
14.0
 40
14.0
 40
14.0
 40
14.0
 10
10.0458812095111
 20
-14.44106512768314
 10
10.0458812095111
 20
-14.44106512768314
 10
10.0458812095111
 20
-14.39534871059387
 10
10.0458812095111
 20
-14.39534871059387
 10
10.0458812095111
 20
-14.39534871059387
 10
10.10431002894093
 20
-14.33860798795181
 10
10.10431002894093
 20
-14.33860798795181
 10
10.24486992473913
 20
-14.20481770478213
 10
10.30836303453228
 20
-14.13369370848915
 10
10.3092243084036
 20
-14.0507185837269
 10
10.3092243084036
 20
-13.99483913495615
 10
10.28212863241211
 20
-13.94317992815483
 10
10.19998033056632
 20
-13.94317992815483
 10
10.1500264460302
 20
-13.94317992815483
 10
10.10854749638779
 20
-13.96858750735855
 10
10.08313991718408
 20
-13.98975761911541
 10
10.08313991718408
 20
-13.98975761911541
 10
10.05943766024556
 20
-13.9372543639202
 10
10.05943766024556
 20
-13.9372543639202
 10
10.09754041631242
 20
-13.90507717208797
 10
10.1517317682954
 20
-13.88137491514945
 10
10.21522487808855
 20
-13.88137491514945
 10
10.333770613736
 20
-13.88137491514945
 10
10.38372449827211
 20
-13.96266194312392
 10
10.38372449827211
 20
-14.0413996004393
 10
10.38372449827211
 20
-14.14301269177675
 10
10.31006835679748
 20
-14.2251437681451
 10
10.19405476633169
 20
-14.33691989116403
 10
10.19405476633169
 20
-14.33691989116403
 10
10.1500264460302
 20
-14.37755479241256
 10
10.1500264460302
 20
-14.37755479241256
 10
10.1500264460302
 20
-14.37755479241256
 10
10.1500264460302
 20
-14.37926011467775
 10
10.1500264460302
 20
-14.37926011467775
 10
10.1500264460302
 20
-14.37926011467775
 10
10.39728094900658
 20
-14.37926011467775
 10
10.39728094900658
 20
-14.37926011467775
 10
10.39728094900658
 20
-14.37926011467775
 10
10.39728094900658
 20
-14.44106512768314
 10
10.39728094900658
 20
-14.44106512768314
 10
10.39728094900658
 20
-14.44106512768314
 10
10.0458812095111
 20
-14.44106512768314
 10
10.0458812095111
 20
-14.44106512768314
 97
        0
 97
        0
 75
     2
 76
     1
 98
        0
450
        0
451
        0
460
0.0
461
0.0
452
        0
462
0.0
453
        0
470

  0
SPLINE
  5
F8
330
1F
100
AcDbEntity
  8
Livello 1
100
AcDbSpline
210
0.0
220
0.0
230
1.0
 70
     9
 71
     3
 72
    59
 73
    55
 74
     0
 42
0.000000001
 43
0.0000000001
 40
0.0
 40
0.0
 40
0.0
 40
0.0
 40
1.0
 40
1.0
 40
1.0
 40
2.0
 40
2.0
 40
2.0
 40
3.0
 40
3.0
 40
3.0
 40
4.0
 40
4.0
 40
4.0
 40
5.0
 40
5.0
 40
5.0
 40
6.0
 40
6.0
 40
6.0
 40
7.0
 40
7.0
 40
7.0
 40
8.0
 40
8.0
 40
8.0
 40
9.0
 40
9.0
 40
9.0
 40
10.0
 40
10.0
 40
10.0
 40
11.0
 40
11.0
 40
11.0
 40
12.0
 40
12.0
 40
12.0
 40
13.0
 40
13.0
 40
13.0
 40
14.0
 40
14.0
 40
14.0
 40
15.0
 40
15.0
 40
15.0
 40
16.0
 40
16.0
 40
16.0
 40
17.0
 40
17.0
 40
17.0
 40
18.0
 40
18.0
 40
18.0
 40
18.0
 10
10.49798109004043
 20
-14.35554063226181
 30
0.0
 10
10.51915120179729
 20
-14.36909708299627
 30
0.0
 10
10.56827826341696
 20
-14.39026719475313
 30
0.0
 10
10.61992024474085
 20
-14.39026719475313
 30
0.0
 10
10.71559054636624
 20
-14.39026719475313
 30
0.0
 10
10.74525281849424
 20
-14.3292890046642
 30
0.0
 10
10.74439154462293
 20
-14.28357258757494
 30
0.0
 10
10.74356472170647
 20
-14.20652302704733
 30
0.0
 10
10.67411159672383
 20
-14.17350178682121
 30
0.0
 10
10.60214355203696
 20
-14.17350178682121
 30
0.0
 10
10.60214355203696
 20
-14.17350178682121
 30
0.0
 10
10.56066460239455
 20
-14.17350178682121
 30
0.0
 10
10.56066460239455
 20
-14.17350178682121
 30
0.0
 10
10.56066460239455
 20
-14.17350178682121
 30
0.0
 10
10.56066460239455
 20
-14.11760511257303
 30
0.0
 10
10.56066460239455
 20
-14.11760511257303
 30
0.0
 10
10.56066460239455
 20
-14.11760511257303
 30
0.0
 10
10.60214355203696
 20
-14.11760511257303
 30
0.0
 10
10.60214355203696
 20
-14.11760511257303
 30
0.0
 10
10.65633490401994
 20
-14.11760511257303
 30
0.0
 10
10.72492675513127
 20
-14.08966538818765
 30
0.0
 10
10.72492675513127
 20
-14.0244669561293
 30
0.0
 10
10.72492675513127
 20
-13.98043863582781
 30
0.0
 10
10.69698703074589
 20
-13.94149183136706
 30
0.0
 10
10.62839517963457
 20
-13.94149183136706
 30
0.0
 10
10.58436685933307
 20
-13.94149183136706
 30
0.0
 10
10.54200941034193
 20
-13.96095662085872
 30
0.0
 10
10.51830715340341
 20
-13.97790649064615
 30
0.0
 10
10.51830715340341
 20
-13.97790649064615
 30
0.0
 10
10.49882513843432
 20
-13.92371513866317
 30
0.0
 10
10.49882513843432
 20
-13.92371513866317
 30
0.0
 10
10.52762613669101
 20
-13.90254502690631
 30
0.0
 10
10.58350558546176
 20
-13.88137491514945
 30
0.0
 10
10.64279567876291
 20
-13.88137491514945
 30
0.0
 10
10.75117838272887
 20
-13.88137491514945
 30
0.0
 10
10.80027099339368
 20
-13.94572929881391
 30
0.0
 10
10.80027099339368
 20
-14.01261582766004
 30
0.0
 10
10.80027099339368
 20
-14.06933932482468
 30
0.0
 10
10.76640570477367
 20
-14.11760511257303
 30
0.0
 10
10.69867512753366
 20
-14.14216864338286
 30
0.0
 10
10.69867512753366
 20
-14.14216864338286
 30
0.0
 10
10.69867512753366
 20
-14.14385674017063
 30
0.0
 10
10.69867512753366
 20
-14.14385674017063
 30
0.0
 10
10.76640570477367
 20
-14.15741319090509
 30
0.0
 10
10.82145833062797
 20
-14.2082111238351
 30
0.0
 10
10.82145833062797
 20
-14.28526068436271
 30
0.0
 10
10.82145833062797
 20
-14.37333455044312
 30
0.0
 10
10.75286647951664
 20
-14.45038411097074
 30
0.0
 10
10.62078151861217
 20
-14.45038411097074
 30
0.0
 10
10.55897650560678
 20
-14.45038411097074
 30
0.0
 10
10.50476792814638
 20
-14.43090209600165
 30
0.0
 10
10.47767225215489
 20
-14.41312540329776
 30
0.0
 10
10.47767225215489
 20
-14.41312540329776
 30
0.0
 10
10.49798109004043
 20
-14.35554063226181
 30
0.0
 10
10.49798109004043
 20
-14.35554063226181
 30
0.0
  0
HATCH
  5
F9
330
1F
100
AcDbEntity
  8
Livello 1
100
AcDbHatch
 10
0.0
 20
0.0
 30
0.0
210
0.0
220
0.0
230
1.0
  2
SOLID
 70
     1
 71
     0
 91
        1
 92
        1
 93
        1
 72
     4
 94
        3
 73
     0
 74
     0
 95
       59
 96
       55
 40
0.0
 40
0.0
 40
0.0
 40
0.0
 40
1.0
 40
1.0
 40
1.0
 40
2.0
 40
2.0
 40
2.0
 40
3.0
 40
3.0
 40
3.0
 40
4.0
 40
4.0
 40
4.0
 40
5.0
 40
5.0
 40
5.0
 40
6.0
 40
6.0
 40
6.0
 40
7.0
 40
7.0
 40
7.0
 40
8.0
 40
8.0
 40
8.0
 40
9.0
 40
9.0
 40
9.0
 40
10.0
 40
10.0
 40
10.0
 40
11.0
 40
11.0
 40
11.0
 40
12.0
 40
12.0
 40
12.0
 40
13.0
 40
13.0
 40
13.0
 40
14.0
 40
14.0
 40
14.0
 40
15.0
 40
15.0
 40
15.0
 40
16.0
 40
16.0
 40
16.0
 40
17.0
 40
17.0
 40
17.0
 40
18.0
 40
18.0
 40
18.0
 40
18.0
 10
10.49798109004043
 20
-14.35554063226181
 10
10.51915120179729
 20
-14.36909708299627
 10
10.56827826341696
 20
-14.39026719475313
 10
10.61992024474085
 20
-14.39026719475313
 10
10.71559054636624
 20
-14.39026719475313
 10
10.74525281849424
 20
-14.3292890046642
 10
10.74439154462293
 20
-14.28357258757494
 10
10.74356472170647
 20
-14.20652302704733
 10
10.67411159672383
 20
-14.17350178682121
 10
10.60214355203696
 20
-14.17350178682121
 10
10.60214355203696
 20
-14.17350178682121
 10
10.56066460239455
 20
-14.17350178682121
 10
10.56066460239455
 20
-14.17350178682121
 10
10.56066460239455
 20
-14.17350178682121
 10
10.56066460239455
 20
-14.11760511257303
 10
10.56066460239455
 20
-14.11760511257303
 10
10.56066460239455
 20
-14.11760511257303
 10
10.60214355203696
 20
-14.11760511257303
 10
10.60214355203696
 20
-14.11760511257303
 10
10.65633490401994
 20
-14.11760511257303
 10
10.72492675513127
 20
-14.08966538818765
 10
10.72492675513127
 20
-14.0244669561293
 10
10.72492675513127
 20
-13.98043863582781
 10
10.69698703074589
 20
-13.94149183136706
 10
10.62839517963457
 20
-13.94149183136706
 10
10.58436685933307
 20
-13.94149183136706
 10
10.54200941034193
 20
-13.96095662085872
 10
10.51830715340341
 20
-13.97790649064615
 10
10.51830715340341
 20
-13.97790649064615
 10
10.49882513843432
 20
-13.92371513866317
 10
10.49882513843432
 20
-13.92371513866317
 10
10.52762613669101
 20
-13.90254502690631
 10
10.58350558546176
 20
-13.88137491514945
 10
10.64279567876291
 20
-13.88137491514945
 10
10.75117838272887
 20
-13.88137491514945
 10
10.80027099339368
 20
-13.94572929881391
 10
10.80027099339368
 20
-14.01261582766004
 10
10.80027099339368
 20
-14.06933932482468
 10
10.76640570477367
 20
-14.11760511257303
 10
10.69867512753366
 20
-14.14216864338286
 10
10.69867512753366
 20
-14.14216864338286
 10
10.69867512753366
 20
-14.14385674017063
 10
10.69867512753366
 20
-14.14385674017063
 10
10.76640570477367
 20
-14.15741319090509
 10
10.82145833062797
 20
-14.2082111238351
 10
10.82145833062797
 20
-14.28526068436271
 10
10.82145833062797
 20
-14.37333455044312
 10
10.75286647951664
 20
-14.45038411097074
 10
10.62078151861217
 20
-14.45038411097074
 10
10.55897650560678
 20
-14.45038411097074
 10
10.50476792814638
 20
-14.43090209600165
 10
10.47767225215489
 20
-14.41312540329776
 10
10.47767225215489
 20
-14.41312540329776
 10
10.49798109004043
 20
-14.35554063226181
 10
10.49798109004043
 20
-14.35554063226181
 97
        0
 97
        0
 75
     2
 76
     1
 98
        0
450
        0
451
        0
460
0.0
461
0.0
452
        0
462
0.0
453
        0
470

  0
SPLINE
  5
FA
330
1F
100
AcDbEntity
  8
Livello 1
100
AcDbSpline
210
0.0
220
0.0
230
1.0
 70
    11
 71
     3
 72
    47
 73
    43
 74
     0
 42
0.000000001
 43
0.0000000001
 40
0.0
 40
0.0
 40
0.0
 40
0.0
 40
1.0
 40
1.0
 40
1.0
 40
2.0
 40
2.0
 40
2.0
 40
3.0
 40
3.0
 40
3.0
 40
4.0
 40
4.0
 40
4.0
 40
5.0
 40
5.0
 40
5.0
 40
6.0
 40
6.0
 40
6.0
 40
7.0
 40
7.0
 40
7.0
 40
8.0
 40
8.0
 40
8.0
 40
9.0
 40
9.0
 40
9.0
 40
10.0
 40
10.0
 40
10.0
 40
11.0
 40
11.0
 40
11.0
 40
12.0
 40
12.0
 40
12.0
 40
13.0
 40
13.0
 40
13.0
 40
14.0
 40
14.0
 40
14.0
 40
14.0
 10
13.97062011369484
 20
-18.52262477835545
 30
0.0
 10
13.97062011369484
 20
-18.52262477835545
 30
0.0
 10
13.92490369660558
 20
-18.52262477835545
 30
0.0
 10
13.92490369660558
 20
-18.52262477835545
 30
0.0
 10
13.92490369660558
 20
-18.52262477835545
 30
0.0
 10
13.86816297396351
 20
-18.46419595892561
 30
0.0
 10
13.86816297396351
 20
-18.46419595892561
 30
0.0
 10
13.73438991627126
 20
-18.32363606312742
 30
0.0
 10
13.66324869450085
 20
-18.26010850237942
 30
0.0
 10
13.58029079521604
 20
-18.25928167946295
 30
0.0
 10
13.52441134644529
 20
-18.25928167946295
 30
0.0
 10
13.47273491416654
 20
-18.28636012997702
 30
0.0
 10
13.47273491416654
 20
-18.36849120634538
 30
0.0
 10
13.47273491416654
 20
-18.4184450908815
 30
0.0
 10
13.49815971884768
 20
-18.45992404052391
 30
0.0
 10
13.51931260512712
 20
-18.48534884520505
 30
0.0
 10
13.51931260512712
 20
-18.48534884520505
 30
0.0
 10
13.46680934993191
 20
-18.50905110214357
 30
0.0
 10
13.46680934993191
 20
-18.50905110214357
 30
0.0
 10
13.43463215809967
 20
-18.47094834607671
 30
0.0
 10
13.41092990116116
 20
-18.41675699409373
 30
0.0
 10
13.41092990116116
 20
-18.35326388430057
 30
0.0
 10
13.41092990116116
 20
-18.23471814865313
 30
0.0
 10
13.49223415461305
 20
-18.184764264117
 30
0.0
 10
13.57095458645101
 20
-18.184764264117
 30
0.0
 10
13.67258490326588
 20
-18.184764264117
 30
0.0
 10
13.75471597963424
 20
-18.25842040559164
 30
0.0
 10
13.86647487717574
 20
-18.37441677058001
 30
0.0
 10
13.86647487717574
 20
-18.37441677058001
 30
0.0
 10
13.90712700390169
 20
-18.4184450908815
 30
0.0
 10
13.90712700390169
 20
-18.4184450908815
 30
0.0
 10
13.90712700390169
 20
-18.4184450908815
 30
0.0
 10
13.90881510068946
 20
-18.4184450908815
 30
0.0
 10
13.90881510068946
 20
-18.4184450908815
 30
0.0
 10
13.90881510068946
 20
-18.4184450908815
 30
0.0
 10
13.90881510068946
 20
-18.17122503885997
 30
0.0
 10
13.90881510068946
 20
-18.17122503885997
 30
0.0
 10
13.90881510068946
 20
-18.17122503885997
 30
0.0
 10
13.97062011369484
 20
-18.17122503885997
 30
0.0
 10
13.97062011369484
 20
-18.17122503885997
 30
0.0
 10
13.97062011369484
 20
-18.17122503885997
 30
0.0
 10
13.97062011369484
 20
-18.52262477835545
 30
0.0
 10
13.97062011369484
 20
-18.52262477835545
 30
0.0
  0
HATCH
  5
FB
330
1F
100
AcDbEntity
  8
Livello 1
100
AcDbHatch
 10
0.0
 20
0.0
 30
0.0
210
0.0
220
0.0
230
1.0
  2
SOLID
 70
     1
 71
     0
 91
        1
 92
        1
 93
        1
 72
     4
 94
        3
 73
     0
 74
     0
 95
       47
 96
       43
 40
0.0
 40
0.0
 40
0.0
 40
0.0
 40
1.0
 40
1.0
 40
1.0
 40
2.0
 40
2.0
 40
2.0
 40
3.0
 40
3.0
 40
3.0
 40
4.0
 40
4.0
 40
4.0
 40
5.0
 40
5.0
 40
5.0
 40
6.0
 40
6.0
 40
6.0
 40
7.0
 40
7.0
 40
7.0
 40
8.0
 40
8.0
 40
8.0
 40
9.0
 40
9.0
 40
9.0
 40
10.0
 40
10.0
 40
10.0
 40
11.0
 40
11.0
 40
11.0
 40
12.0
 40
12.0
 40
12.0
 40
13.0
 40
13.0
 40
13.0
 40
14.0
 40
14.0
 40
14.0
 40
14.0
 10
13.97062011369484
 20
-18.52262477835545
 10
13.97062011369484
 20
-18.52262477835545
 10
13.92490369660558
 20
-18.52262477835545
 10
13.92490369660558
 20
-18.52262477835545
 10
13.92490369660558
 20
-18.52262477835545
 10
13.86816297396351
 20
-18.46419595892561
 10
13.86816297396351
 20
-18.46419595892561
 10
13.73438991627126
 20
-18.32363606312742
 10
13.66324869450085
 20
-18.26010850237942
 10
13.58029079521604
 20
-18.25928167946295
 10
13.52441134644529
 20
-18.25928167946295
 10
13.47273491416654
 20
-18.28636012997702
 10
13.47273491416654
 20
-18.36849120634538
 10
13.47273491416654
 20
-18.4184450908815
 10
13.49815971884768
 20
-18.45992404052391
 10
13.51931260512712
 20
-18.48534884520505
 10
13.51931260512712
 20
-18.48534884520505
 10
13.46680934993191
 20
-18.50905110214357
 10
13.46680934993191
 20
-18.50905110214357
 10
13.43463215809967
 20
-18.47094834607671
 10
13.41092990116116
 20
-18.41675699409373
 10
13.41092990116116
 20
-18.35326388430057
 10
13.41092990116116
 20
-18.23471814865313
 10
13.49223415461305
 20
-18.184764264117
 10
13.57095458645101
 20
-18.184764264117
 10
13.67258490326588
 20
-18.184764264117
 10
13.75471597963424
 20
-18.25842040559164
 10
13.86647487717574
 20
-18.37441677058001
 10
13.86647487717574
 20
-18.37441677058001
 10
13.90712700390169
 20
-18.4184450908815
 10
13.90712700390169
 20
-18.4184450908815
 10
13.90712700390169
 20
-18.4184450908815
 10
13.90881510068946
 20
-18.4184450908815
 10
13.90881510068946
 20
-18.4184450908815
 10
13.90881510068946
 20
-18.4184450908815
 10
13.90881510068946
 20
-18.17122503885997
 10
13.90881510068946
 20
-18.17122503885997
 10
13.90881510068946
 20
-18.17122503885997
 10
13.97062011369484
 20
-18.17122503885997
 10
13.97062011369484
 20
-18.17122503885997
 10
13.97062011369484
 20
-18.17122503885997
 10
13.97062011369484
 20
-18.52262477835545
 10
13.97062011369484
 20
-18.52262477835545
 97
        0
 97
        0
 75
     2
 76
     1
 98
        0
450
        0
451
        0
460
0.0
461
0.0
452
        0
462
0.0
453
        0
470

  0
POLYLINE
  5
FC
330
1F
100
AcDbEntity
  8
Livello 1
100
AcDb2dPolyline
 66
     1
 10
0.0
 20
0.0
 30
0.0
  0
VERTEX
  5
FD
330
FC
100
AcDbEntity
  8
Livello 1
100
AcDbVertex
100
AcDb2dVertex
 10
13.97062011369484
 20
-17.8579625063862
 30
0.0
  0
VERTEX
  5
FE
330
FC
100
AcDbEntity
  8
Livello 1
100
AcDbVertex
100
AcDb2dVertex
 10
13.82075846008648
 20
-17.8579625063862
 30
0.0
  0
VERTEX
  5
FF
330
FC
100
AcDbEntity
  8
Livello 1
100
AcDbVertex
100
AcDb2dVertex
 10
13.82075846008648
 20
-18.1136919442563
 30
0.0
  0
VERTEX
  5
100
330
FC
100
AcDbEntity
  8
Livello 1
100
AcDbVertex
100
AcDb2dVertex
 10
13.77163139846681
 20
-18.1136919442563
 30
0.0
  0
VERTEX
  5
101
330
FC
100
AcDbEntity
  8
Livello 1
100
AcDbVertex
100
AcDb2dVertex
 10
13.42023165897133
 20
-17.86812553806769
 30
0.0
  0
VERTEX
  5
102
330
FC
100
AcDbEntity
  8
Livello 1
100
AcDbVertex
100
AcDb2dVertex
 10
13.42023165897133
 20
-17.78768255848711
 30
0.0
  0
VERTEX
  5
103
330
FC
100
AcDbEntity
  8
Livello 1
100
AcDbVertex
100
AcDb2dVertex
 10
13.76232964065664
 20
-17.78768255848711
 30
0.0
  0
VERTEX
  5
104
330
FC
100
AcDbEntity
  8
Livello 1
100
AcDbVertex
100
AcDb2dVertex
 10
13.76232964065664
 20
-17.71061577248207
 30
0.0
  0
VERTEX
  5
105
330
FC
100
AcDbEntity
  8
Livello 1
100
AcDbVertex
100
AcDb2dVertex
 10
13.82075846008648
 20
-17.71061577248207
 30
0.0
  0
VERTEX
  5
106
330
FC
100
AcDbEntity
  8
Livello 1
100
AcDbVertex
100
AcDb2dVertex
 10
13.82075846008648
 20
-17.78768255848711
 30
0.0
  0
VERTEX
  5
107
330
FC
100
AcDbEntity
  8
Livello 1
100
AcDbVertex
100
AcDb2dVertex
 10
13.97062011369484
 20
-17.78768255848711
 30
0.0
  0
VERTEX
  5
108
330
FC
100
AcDbEntity
  8
Livello 1
100
AcDbVertex
100
AcDb2dVertex
 10
13.97062011369484
 20
-17.8579625063862
 30
0.0
  0
SEQEND
  5
109
330
FC
100
AcDbEntity
  8
Livello 1
  0
SPLINE
  5
10A
330
1F
100
AcDbEntity
  8
Livello 1
100
AcDbSpline
210
0.0
220
0.0
230
1.0
 70
    11
 71
     3
 72
    26
 73
    22
 74
     0
 42
0.000000001
 43
0.0000000001
 40
0.0
 40
0.0
 40
0.0
 40
0.0
 40
1.0
 40
1.0
 40
1.0
 40
2.0
 40
2.0
 40
2.0
 40
3.0
 40
3.0
 40
3.0
 40
4.0
 40
4.0
 40
4.0
 40
5.0
 40
5.0
 40
5.0
 40
6.0
 40
6.0
 40
6.0
 40
7.0
 40
7.0
 40
7.0
 40
7.0
 10
13.76232964065664
 20
-17.8579625063862
 30
0.0
 10
13.76232964065664
 20
-17.8579625063862
 30
0.0
 10
13.57860269842826
 20
-17.8579625063862
 30
0.0
 10
13.57860269842826
 20
-17.8579625063862
 30
0.0
 10
13.54980170017158
 20
-17.8579625063862
 30
0.0
 10
13.52100070191489
 20
-17.85710123251489
 30
0.0
 10
13.49223415461305
 20
-17.85544758668197
 30
0.0
 10
13.49223415461305
 20
-17.85544758668197
 30
0.0
 10
13.49223415461305
 20
-17.8579625063862
 30
0.0
 10
13.49223415461305
 20
-17.8579625063862
 30
0.0
 10
13.52441134644529
 20
-17.87491237617363
 30
0.0
 10
13.5481136033838
 20
-17.88845160143066
 30
0.0
 10
13.57350395711009
 20
-17.90367892347546
 30
0.0
 10
13.57350395711009
 20
-17.90367892347546
 30
0.0
 10
13.76064154386887
 20
-18.03831325503903
 30
0.0
 10
13.76064154386887
 20
-18.03831325503903
 30
0.0
 10
13.76064154386887
 20
-18.03831325503903
 30
0.0
 10
13.76232964065664
 20
-18.03831325503903
 30
0.0
 10
13.76232964065664
 20
-18.03831325503903
 30
0.0
 10
13.76232964065664
 20
-18.03831325503903
 30
0.0
 10
13.76232964065664
 20
-17.8579625063862
 30
0.0
 10
13.76232964065664
 20
-17.8579625063862
 30
0.0
  0
HATCH
  5
10B
330
1F
100
AcDbEntity
  8
Livello 1
100
AcDbHatch
 10
0.0
 20
0.0
 30
0.0
210
0.0
220
0.0
230
1.0
  2
SOLID
 70
     1
 71
     0
 91
        2
 92
        1
 93
       11
 72
     1
 10
13.97062011369484
 20
-17.8579625063862
 11
13.82075846008648
 21
-17.8579625063862
 72
     1
 10
13.82075846008648
 20
-17.8579625063862
 11
13.82075846008648
 21
-18.1136919442563
 72
     1
 10
13.82075846008648
 20
-18.1136919442563
 11
13.77163139846681
 21
-18.1136919442563
 72
     1
 10
13.77163139846681
 20
-18.1136919442563
 11
13.42023165897133
 21
-17.86812553806769
 72
     1
 10
13.42023165897133
 20
-17.86812553806769
 11
13.42023165897133
 21
-17.78768255848711
 72
     1
 10
13.42023165897133
 20
-17.78768255848711
 11
13.76232964065664
 21
-17.78768255848711
 72
     1
 10
13.76232964065664
 20
-17.78768255848711
 11
13.76232964065664
 21
-17.71061577248207
 72
     1
 10
13.76232964065664
 20
-17.71061577248207
 11
13.82075846008648
 21
-17.71061577248207
 72
     1
 10
13.82075846008648
 20
-17.71061577248207
 11
13.82075846008648
 21
-17.78768255848711
 72
     1
 10
13.82075846008648
 20
-17.78768255848711
 11
13.97062011369484
 21
-17.78768255848711
 72
     1
 10
13.97062011369484
 20
-17.78768255848711
 11
13.97062011369484
 21
-17.8579625063862
 97
        0
 92
        1
 93
        1
 72
     4
 94
        3
 73
     0
 74
     0
 95
       26
 96
       22
 40
0.0
 40
0.0
 40
0.0
 40
0.0
 40
1.0
 40
1.0
 40
1.0
 40
2.0
 40
2.0
 40
2.0
 40
3.0
 40
3.0
 40
3.0
 40
4.0
 40
4.0
 40
4.0
 40
5.0
 40
5.0
 40
5.0
 40
6.0
 40
6.0
 40
6.0
 40
7.0
 40
7.0
 40
7.0
 40
7.0
 10
13.76232964065664
 20
-17.8579625063862
 10
13.76232964065664
 20
-17.8579625063862
 10
13.57860269842826
 20
-17.8579625063862
 10
13.57860269842826
 20
-17.8579625063862
 10
13.54980170017158
 20
-17.8579625063862
 10
13.52100070191489
 20
-17.85710123251489
 10
13.49223415461305
 20
-17.85544758668197
 10
13.49223415461305
 20
-17.85544758668197
 10
13.49223415461305
 20
-17.8579625063862
 10
13.49223415461305
 20
-17.8579625063862
 10
13.52441134644529
 20
-17.87491237617363
 10
13.5481136033838
 20
-17.88845160143066
 10
13.57350395711009
 20
-17.90367892347546
 10
13.57350395711009
 20
-17.90367892347546
 10
13.76064154386887
 20
-18.03831325503903
 10
13.76064154386887
 20
-18.03831325503903
 10
13.76064154386887
 20
-18.03831325503903
 10
13.76232964065664
 20
-18.03831325503903
 10
13.76232964065664
 20
-18.03831325503903
 10
13.76232964065664
 20
-18.03831325503903
 10
13.76232964065664
 20
-17.8579625063862
 10
13.76232964065664
 20
-17.8579625063862
 97
        0
 97
        0
 75
     2
 76
     1
 98
        0
450
        0
451
        0
460
0.0
461
0.0
452
        0
462
0.0
453
        0
470

  0
SPLINE
  5
10C
330
1F
100
AcDbEntity
  8
Livello 1
100
AcDbSpline
210
0.0
220
0.0
230
1.0
 70
     9
 71
     3
 72
    17
 73
    13
 74
     0
 42
0.000000001
 43
0.0000000001
 40
0.0
 40
0.0
 40
0.0
 40
0.0
 40
1.0
 40
1.0
 40
1.0
 40
2.0
 40
2.0
 40
2.0
 40
3.0
 40
3.0
 40
3.0
 40
4.0
 40
4.0
 40
4.0
 40
4.0
 10
14.07476535021395
 20
-17.67850748255954
 30
0.0
 10
14.02481146567782
 20
-17.65990396693919
 30
0.0
 10
13.93420545441575
 20
-17.63702853291713
 30
0.0
 10
13.87240044141037
 20
-17.62772677510696
 30
0.0
 10
13.87240044141037
 20
-17.62772677510696
 30
0.0
 10
13.86392550651666
 20
-17.54473442486729
 30
0.0
 10
13.86392550651666
 20
-17.54473442486729
 30
0.0
 10
13.93592800215838
 20
-17.56419921435895
 30
0.0
 10
14.02991020699599
 20
-17.60147514750935
 30
0.0
 10
14.06970105985063
 20
-17.62517740444787
 30
0.0
 10
14.06970105985063
 20
-17.62517740444787
 30
0.0
 10
14.07476535021395
 20
-17.67850748255954
 30
0.0
 10
14.07476535021395
 20
-17.67850748255954
 30
0.0
  0
HATCH
  5
10D
330
1F
100
AcDbEntity
  8
Livello 1
100
AcDbHatch
 10
0.0
 20
0.0
 30
0.0
210
0.0
220
0.0
230
1.0
  2
SOLID
 70
     1
 71
     0
 91
        1
 92
        1
 93
        1
 72
     4
 94
        3
 73
     0
 74
     0
 95
       17
 96
       13
 40
0.0
 40
0.0
 40
0.0
 40
0.0
 40
1.0
 40
1.0
 40
1.0
 40
2.0
 40
2.0
 40
2.0
 40
3.0
 40
3.0
 40
3.0
 40
4.0
 40
4.0
 40
4.0
 40
4.0
 10
14.07476535021395
 20
-17.67850748255954
 10
14.02481146567782
 20
-17.65990396693919
 10
13.93420545441575
 20
-17.63702853291713
 10
13.87240044141037
 20
-17.62772677510696
 10
13.87240044141037
 20
-17.62772677510696
 10
13.86392550651666
 20
-17.54473442486729
 10
13.86392550651666
 20
-17.54473442486729
 10
13.93592800215838
 20
-17.56419921435895
 10
14.02991020699599
 20
-17.60147514750935
 10
14.06970105985063
 20
-17.62517740444787
 10
14.06970105985063
 20
-17.62517740444787
 10
14.07476535021395
 20
-17.67850748255954
 10
14.07476535021395
 20
-17.67850748255954
 97
        0
 97
        0
 75
     2
 76
     1
 98
        0
450
        0
451
        0
460
0.0
461
0.0
452
        0
462
0.0
453
        0
470

  0
SPLINE
  5
10E
330
1F
100
AcDbEntity
  8
Livello 1
100
AcDbSpline
210
0.0
220
0.0
230
1.0
 70
    11
 71
     3
 72
    50
 73
    46
 74
     0
 42
0.000000001
 43
0.0000000001
 40
0.0
 40
0.0
 40
0.0
 40
0.0
 40
1.0
 40
1.0
 40
1.0
 40
2.0
 40
2.0
 40
2.0
 40
3.0
 40
3.0
 40
3.0
 40
4.0
 40
4.0
 40
4.0
 40
5.0
 40
5.0
 40
5.0
 40
6.0
 40
6.0
 40
6.0
 40
7.0
 40
7.0
 40
7.0
 40
8.0
 40
8.0
 40
8.0
 40
9.0
 40
9.0
 40
9.0
 40
10.0
 40
10.0
 40
10.0
 40
11.0
 40
11.0
 40
11.0
 40
12.0
 40
12.0
 40
12.0
 40
13.0
 40
13.0
 40
13.0
 40
14.0
 40
14.0
 40
14.0
 40
15.0
 40
15.0
 40
15.0
 40
15.0
 10
13.48289794584803
 20
-17.15016763894162
 30
0.0
 10
13.48289794584803
 20
-17.15016763894162
 30
0.0
 10
13.48289794584803
 20
-17.36018065972245
 30
0.0
 10
13.48289794584803
 20
-17.36018065972245
 30
0.0
 10
13.48289794584803
 20
-17.36018065972245
 30
0.0
 10
13.62431911551753
 20
-17.38133354600189
 30
0.0
 10
13.62431911551753
 20
-17.38133354600189
 30
0.0
 10
13.62263101872976
 20
-17.36865559461617
 30
0.0
 10
13.62090847098713
 20
-17.35677001519205
 30
0.0
 10
13.62090847098713
 20
-17.33647840278394
 30
0.0
 10
13.62090847098713
 20
-17.29410372831536
 30
0.0
 10
13.63024467975216
 20
-17.25179795575649
 30
0.0
 10
13.65057074311513
 20
-17.21789821618163
 30
0.0
 10
13.67509982297011
 20
-17.17473116975145
 30
0.0
 10
13.722538787802
 20
-17.13914333338882
 30
0.0
 10
13.79195746182979
 20
-17.13914333338882
 30
0.0
 10
13.89951334287929
 20
-17.13914333338882
 30
0.0
 10
13.97995632245987
 20
-17.22468505428758
 30
0.0
 10
13.97995632245987
 20
-17.34405761285148
 30
0.0
 10
13.97995632245987
 20
-17.40420898002395
 30
0.0
 10
13.96300645267244
 20
-17.45498968747653
 30
0.0
 10
13.94605658288501
 20
-17.48124131507413
 30
0.0
 10
13.94605658288501
 20
-17.48124131507413
 30
0.0
 10
13.8893503111978
 20
-17.46263779945377
 30
0.0
 10
13.8893503111978
 20
-17.46263779945377
 30
0.0
 10
13.90288953645483
 20
-17.43976236543173
 30
0.0
 10
13.91983940624226
 20
-17.39487277125892
 30
0.0
 10
13.91983940624226
 20
-17.3449188867228
 30
0.0
 10
13.91983940624226
 20
-17.2746389388237
 30
0.0
 10
13.87408853819814
 20
-17.21452202260609
 30
0.0
 10
13.8004323967235
 20
-17.21452202260609
 30
0.0
 10
13.72929117495309
 20
-17.21534884552255
 30
0.0
 10
13.67851046750051
 20
-17.26278781035444
 30
0.0
 10
13.67851046750051
 20
-17.37285861110817
 30
0.0
 10
13.67851046750051
 20
-17.40420898002395
 30
0.0
 10
13.68188666107605
 20
-17.42873805987892
 30
0.0
 10
13.68443603173514
 20
-17.4490641232419
 30
0.0
 10
13.68443603173514
 20
-17.4490641232419
 30
0.0
 10
13.42023165897133
 20
-17.41351073783412
 30
0.0
 10
13.42023165897133
 20
-17.41351073783412
 30
0.0
 10
13.42023165897133
 20
-17.41351073783412
 30
0.0
 10
13.42023165897133
 20
-17.15016763894162
 30
0.0
 10
13.42023165897133
 20
-17.15016763894162
 30
0.0
 10
13.42023165897133
 20
-17.15016763894162
 30
0.0
 10
13.48289794584803
 20
-17.15016763894162
 30
0.0
 10
13.48289794584803
 20
-17.15016763894162
 30
0.0
  0
HATCH
  5
10F
330
1F
100
AcDbEntity
  8
Livello 1
100
AcDbHatch
 10
0.0
 20
0.0
 30
0.0
210
0.0
220
0.0
230
1.0
  2
SOLID
 70
     1
 71
     0
 91
        1
 92
        1
 93
        1
 72
     4
 94
        3
 73
     0
 74
     0
 95
       50
 96
       46
 40
0.0
 40
0.0
 40
0.0
 40
0.0
 40
1.0
 40
1.0
 40
1.0
 40
2.0
 40
2.0
 40
2.0
 40
3.0
 40
3.0
 40
3.0
 40
4.0
 40
4.0
 40
4.0
 40
5.0
 40
5.0
 40
5.0
 40
6.0
 40
6.0
 40
6.0
 40
7.0
 40
7.0
 40
7.0
 40
8.0
 40
8.0
 40
8.0
 40
9.0
 40
9.0
 40
9.0
 40
10.0
 40
10.0
 40
10.0
 40
11.0
 40
11.0
 40
11.0
 40
12.0
 40
12.0
 40
12.0
 40
13.0
 40
13.0
 40
13.0
 40
14.0
 40
14.0
 40
14.0
 40
15.0
 40
15.0
 40
15.0
 40
15.0
 10
13.48289794584803
 20
-17.15016763894162
 10
13.48289794584803
 20
-17.15016763894162
 10
13.48289794584803
 20
-17.36018065972245
 10
13.48289794584803
 20
-17.36018065972245
 10
13.48289794584803
 20
-17.36018065972245
 10
13.62431911551753
 20
-17.38133354600189
 10
13.62431911551753
 20
-17.38133354600189
 10
13.62263101872976
 20
-17.36865559461617
 10
13.62090847098713
 20
-17.35677001519205
 10
13.62090847098713
 20
-17.33647840278394
 10
13.62090847098713
 20
-17.29410372831536
 10
13.63024467975216
 20
-17.25179795575649
 10
13.65057074311513
 20
-17.21789821618163
 10
13.67509982297011
 20
-17.17473116975145
 10
13.722538787802
 20
-17.13914333338882
 10
13.79195746182979
 20
-17.13914333338882
 10
13.89951334287929
 20
-17.13914333338882
 10
13.97995632245987
 20
-17.22468505428758
 10
13.97995632245987
 20
-17.34405761285148
 10
13.97995632245987
 20
-17.40420898002395
 10
13.96300645267244
 20
-17.45498968747653
 10
13.94605658288501
 20
-17.48124131507413
 10
13.94605658288501
 20
-17.48124131507413
 10
13.8893503111978
 20
-17.46263779945377
 10
13.8893503111978
 20
-17.46263779945377
 10
13.90288953645483
 20
-17.43976236543173
 10
13.91983940624226
 20
-17.39487277125892
 10
13.91983940624226
 20
-17.3449188867228
 10
13.91983940624226
 20
-17.2746389388237
 10
13.87408853819814
 20
-17.21452202260609
 10
13.8004323967235
 20
-17.21452202260609
 10
13.72929117495309
 20
-17.21534884552255
 10
13.67851046750051
 20
-17.26278781035444
 10
13.67851046750051
 20
-17.37285861110817
 10
13.67851046750051
 20
-17.40420898002395
 10
13.68188666107605
 20
-17.42873805987892
 10
13.68443603173514
 20
-17.4490641232419
 10
13.68443603173514
 20
-17.4490641232419
 10
13.42023165897133
 20
-17.41351073783412
 10
13.42023165897133
 20
-17.41351073783412
 10
13.42023165897133
 20
-17.41351073783412
 10
13.42023165897133
 20
-17.15016763894162
 10
13.42023165897133
 20
-17.15016763894162
 10
13.42023165897133
 20
-17.15016763894162
 10
13.48289794584803
 20
-17.15016763894162
 10
13.48289794584803
 20
-17.15016763894162
 97
        0
 97
        0
 75
     2
 76
     1
 98
        0
450
        0
451
        0
460
0.0
461
0.0
452
        0
462
0.0
453
        0
470

  0
ENDSEC
  0
SECTION
  2
OBJECTS
  0
DICTIONARY
  5
C
330
0
100
AcDbDictionary
281
     1
  3
ACAD_BACKGROUND
350
D1
  3
ACAD_CIP_PREVIOUS_PRODUCT_INFO
350
D0
  3
ACAD_COLOR
350
B1
  3
ACAD_DETAILVIEWSTYLE
350
CC
  3
ACAD_GROUP
350
D
  3
ACAD_LAYOUT
350
1A
  3
ACAD_MATERIAL
350
3B
  3
ACAD_MLEADERSTYLE
350
A4
  3
ACAD_MLINESTYLE
350
17
  3
ACAD_PLOTSETTINGS
350
19
  3
ACAD_PLOTSTYLENAME
350
E
  3
ACAD_SCALELIST
350
B3
  3
ACAD_SECTIONVIEWSTYLE
350
CA
  3
ACAD_TABLESTYLE
350
A3
  3
ACAD_VISUALSTYLE
350
2A
  3
ACDB_RECOMPOSE_DATA
350
127
  3
AcDbVariableDictionary
350
110
  0
SUN
  5
3F
330
29
100
AcDbSun
 90
        1
290
     1
 63
     7
421
 16777215
 40
1.0
291
     1
 91
  2455826
 92
 54000000
292
     0
 70
     0
 71
   256
280
     1
1001
ACAD
1000
AcDbSavedByObjectVersion
1070
     0
  0
DICTIONARY
  5
D4
330
1F
100
AcDbDictionary
280
     1
281
     1
  3
ACAD_SORTENTS
360
D5
  0
DICTIONARY
  5
D1
102
{ACAD_REACTORS
330
C
102
}
330
C
100
AcDbDictionary
281
     1
  0
XRECORD
  5
D0
102
{ACAD_REACTORS
330
C
102
}
330
C
100
AcDbXrecord
280
     1
300
ACD
300
2019
300

  0
DICTIONARY
  5
B1
102
{ACAD_REACTORS
330
C
102
}
330
C
100
AcDbDictionary
281
     1
  0
DICTIONARY
  5
CC
102
{ACAD_REACTORS
330
C
102
}
330
C
100
AcDbDictionary
281
     1
  3
Imperial24
350
CD
  0
DICTIONARY
  5
D
102
{ACAD_REACTORS
330
C
102
}
330
C
100
AcDbDictionary
281
     1
  0
DICTIONARY
  5
1A
102
{ACAD_REACTORS
330
C
102
}
330
C
100
AcDbDictionary
281
     1
  3
Layout1
350
1E
  3
Layout2
350
26
  3
Model
350
22
  0
DICTIONARY
  5
3B
102
{ACAD_REACTORS
330
C
102
}
330
C
100
AcDbDictionary
281
     1
  3
ByBlock
350
3D
  3
ByLayer
350
3C
  3
Global
350
3E
  0
DICTIONARY
  5
A4
102
{ACAD_REACTORS
330
C
102
}
330
C
100
AcDbDictionary
281
     1
  3
Standard
350
C9
  0
DICTIONARY
  5
17
102
{ACAD_REACTORS
330
C
102
}
330
C
100
AcDbDictionary
281
     1
  3
Standard
350
18
  0
DICTIONARY
  5
19
102
{ACAD_REACTORS
330
C
102
}
330
C
100
AcDbDictionary
281
     1
  0
ACDBDICTIONARYWDFLT
  5
E
102
{ACAD_REACTORS
330
C
102
}
330
C
100
AcDbDictionary
281
     1
  3
Normal
350
F
100
AcDbDictionaryWithDefault
340
F
  0
DICTIONARY
  5
B3
102
{ACAD_REACTORS
330
C
102
}
330
C
100
AcDbDictionary
281
     1
  3
A0
350
B4
  3
A1
350
B5
  3
A2
350
B6
  3
A3
350
B7
  3
A4
350
B8
  3
A5
350
B9
  3
A6
350
BA
  3
A7
350
BB
  3
A8
350
BC
  3
A9
350
BD
  3
B0
350
BE
  3
B1
350
BF
  3
B2
350
C0
  3
B3
350
C1
  3
B4
350
C2
  3
B5
350
C3
  3
B6
350
C4
  3
B7
350
C5
  3
B8
350
C6
  3
B9
350
C7
  3
C0
350
C8
  0
DICTIONARY
  5
CA
102
{ACAD_REACTORS
330
C
102
}
330
C
100
AcDbDictionary
281
     1
  3
Imperial24
350
CB
  0
DICTIONARY
  5
A3
102
{ACAD_REACTORS
330
C
102
}
330
C
100
AcDbDictionary
281
     1
  3
Standard
350
B2
  0
DICTIONARY
  5
2A
102
{ACAD_REACTORS
330
C
102
}
330
C
100
AcDbDictionary
281
     1
  3
2dWireframe
350
2F
  3
3D Hidden
350
31
  3
3dWireframe
350
30
  3
Basic
350
32
  3
Brighten
350
36
  3
ColorChange
350
3A
  3
Conceptual
350
34
  3
Dim
350
35
  3
EdgeColorOff
350
B0
  3
Facepattern
350
39
  3
Flat
350
2B
  3
FlatWithEdges
350
2C
  3
Gouraud
350
2D
  3
GouraudWithEdges
350
2E
  3
Hidden
350
A8
  3
JitterOff
350
AE
  3
Linepattern
350
38
  3
OverhangOff
350
AF
  3
Realistic
350
33
  3
Shaded
350
AD
  3
Shaded with edges
350
AC
  3
Shades of Gray
350
A9
  3
Sketchy
350
AA
  3
Thicken
350
37
  3
Wireframe
350
A7
  3
X-Ray
350
AB
  0
XRECORD
  5
127
102
{ACAD_REACTORS
330
C
102
}
330
C
100
AcDbXrecord
280
     1
 90
        1
330
B2
  0
DICTIONARY
  5
110
102
{ACAD_REACTORS
330
C
102
}
330
C
100
AcDbDictionary
281
     1
  3
CANNOSCALE
350
115
  3
CMLEADERSTYLE
350
112
  3
CTABLESTYLE
350
111
  3
CVIEWDETAILSTYLE
350
113
  3
CVIEWSECTIONSTYLE
350
114
  0
SORTENTSTABLE
  5
D5
102
{ACAD_REACTORS
330
D4
102
}
330
D4
100
AcDbSortentsTable
330
1F
  0
ACDBDETAILVIEWSTYLE
  5
CD
102
{ACAD_XDICTIONARY
360
12A
102
}
102
{ACAD_REACTORS
330
CC
102
}
330
CC
100
AcDbModelDocViewStyle
 70
     0
  3
Imperial24
290
     0
100
AcDbDetailViewStyle
 70
     0
 71
     0
 90
        3
 71
     1
340
11
 62
   256
 40
0.24
340
0
 62
   256
 40
0.24
300

 40
0.36
280
     3
 71
     2
340
16
 90
       25
 62
   256
 71
     3
340
11
 62
   256
 40
0.24
 90
        1
 40
0.75
 90
        1
300
%<\AcVar ViewType \f "%tc1">% %<\AcVar ViewDetailId>%\PSCALA %<\AcVar ViewScale \f "%sn">%
 71
     4
340
16
 90
       25
 62
   256
340
16
 90
       25
 62
   256
280
     0
  0
LAYOUT
  5
1E
102
{ACAD_REACTORS
330
1A
102
}
330
1A
100
AcDbPlotSettings
  1

  2
none_device
  4

  6

 40
0.0
 41
0.0
 42
0.0
 43
0.0
 44
0.0
 45
0.0
 46
0.0
 47
0.0
 48
0.0
 49
0.0
140
0.0
141
0.0
142
1.0
143
1.0
 70
   688
 72
     0
 73
     0
 74
     5
  7

 75
    16
147
1.0
 76
     0
 77
     2
 78
   300
148
0.0
149
0.0
100
AcDbLayout
  1
Layout1
 70
     1
 71
     1
 10
0.0
 20
0.0
 11
12.0
 21
9.0
 12
0.0
 22
0.0
 32
0.0
 14
1.000000000000000E+20
 24
1.000000000000000E+20
 34
1.000000000000000E+20
 15
-1.000000000000000E+20
 25
-1.000000000000000E+20
 35
-1.000000000000000E+20
146
0.0
 13
0.0
 23
0.0
 33
0.0
 16
1.0
 26
0.0
 36
0.0
 17
0.0
 27
1.0
 37
0.0
 76
     0
330
1B
  0
LAYOUT
  5
26
102
{ACAD_REACTORS
330
1A
102
}
330
1A
100
AcDbPlotSettings
  1

  2
none_device
  4

  6

 40
0.0
 41
0.0
 42
0.0
 43
0.0
 44
0.0
 45
0.0
 46
0.0
 47
0.0
 48
0.0
 49
0.0
140
0.0
141
0.0
142
1.0
143
1.0
 70
   688
 72
     0
 73
     0
 74
     5
  7

 75
    16
147
1.0
 76
     0
 77
     2
 78
   300
148
0.0
149
0.0
100
AcDbLayout
  1
Layout2
 70
     1
 71
     2
 10
0.0
 20
0.0
 11
0.0
 21
0.0
 12
0.0
 22
0.0
 32
0.0
 14
0.0
 24
0.0
 34
0.0
 15
0.0
 25
0.0
 35
0.0
146
0.0
 13
0.0
 23
0.0
 33
0.0
 16
1.0
 26
0.0
 36
0.0
 17
0.0
 27
1.0
 37
0.0
 76
     0
330
23
  0
LAYOUT
  5
22
102
{ACAD_REACTORS
330
1A
102
}
330
1A
100
AcDbPlotSettings
  1

  2
none_device
  4

  6

 40
0.0
 41
0.0
 42
0.0
 43
0.0
 44
0.0
 45
0.0
 46
0.0
 47
0.0
 48
0.0
 49
0.0
140
0.0
141
0.0
142
1.0
143
1.0
 70
  1712
 72
     0
 73
     0
 74
     0
  7

 75
     0
147
1.0
 76
     0
 77
     2
 78
   300
148
0.0
149
0.0
100
AcDbLayout
  1
Model
 70
     1
 71
     0
 10
0.0
 20
0.0
 11
12.0
 21
9.0
 12
0.0
 22
0.0
 32
0.0
 14
1.000000000000000E+20
 24
1.000000000000000E+20
 34
1.000000000000000E+20
 15
-1.000000000000000E+20
 25
-1.000000000000000E+20
 35
-1.000000000000000E+20
146
0.0
 13
0.0
 23
0.0
 33
0.0
 16
1.0
 26
0.0
 36
0.0
 17
0.0
 27
1.0
 37
0.0
 76
     0
330
1F
331
29
  0
MATERIAL
  5
3D
102
{ACAD_REACTORS
330
3B
102
}
330
3B
100
AcDbMaterial
  1
ByBlock
  0
MATERIAL
  5
3C
102
{ACAD_REACTORS
330
3B
102
}
330
3B
100
AcDbMaterial
  1
ByLayer
  0
MATERIAL
  5
3E
102
{ACAD_REACTORS
330
3B
102
}
330
3B
100
AcDbMaterial
  1
Global
  0
MLEADERSTYLE
  5
C9
102
{ACAD_REACTORS
330
A4
102
}
330
A4
100
AcDbMLeaderStyle
179
     2
170
     2
171
     1
172
     0
 90
        2
 40
0.0
 41
0.0
173
     1
 91
-1056964608
340
14
 92
       -2
290
     1
 42
0.09
291
     1
 43
0.36
  3
Standard
 44
0.18
300

342
11
174
     1
178
     6
175
     1
176
     0
 93
-1056964608
 45
0.18
292
     0
297
     0
 46
0.18
 94
-1056964608
 47
1.0
 49
1.0
140
1.0
293
     1
141
0.0
294
     1
177
     0
142
1.0
295
     0
296
     0
143
0.125
271
     0
272
     9
273
     9
298
     0
  0
MLINESTYLE
  5
18
102
{ACAD_REACTORS
330
17
102
}
330
17
100
AcDbMlineStyle
  2
STANDARD
 70
     0
  3

 62
   256
 51
90.0
 52
90.0
 71
     2
 49
0.5
 62
   256
  6
BYLAYER
 49
-0.5
 62
   256
  6
BYLAYER
  0
ACDBPLACEHOLDER
  5
F
102
{ACAD_REACTORS
330
E
102
}
330
E
  0
SCALE
  5
B4
102
{ACAD_REACTORS
330
B3
102
}
330
B3
100
AcDbScale
 70
     0
300
1:1
140
1.0
141
1.0
290
     1
  0
SCALE
  5
B5
102
{ACAD_REACTORS
330
B3
102
}
330
B3
100
AcDbScale
 70
     0
300
1.10
140
1.0
141
10.0
290
     0
  0
SCALE
  5
B6
102
{ACAD_REACTORS
330
B3
102
}
330
B3
100
AcDbScale
 70
     0
300
1.50
140
1.0
141
50.0
290
     0
  0
SCALE
  5
B7
102
{ACAD_REACTORS
330
B3
102
}
330
B3
100
AcDbScale
 70
     0
300
1:100
140
1.0
141
100.0
290
     0
  0
SCALE
  5
B8
102
{ACAD_REACTORS
330
B3
102
}
330
B3
100
AcDbScale
 70
     0
300
1.200
140
1.0
141
200.0
290
     0
  0
SCALE
  5
B9
102
{ACAD_REACTORS
330
B3
102
}
330
B3
100
AcDbScale
 70
     0
300
1/128" = 1'-0"
140
0.0078125
141
12.0
290
     0
  0
SCALE
  5
BA
102
{ACAD_REACTORS
330
B3
102
}
330
B3
100
AcDbScale
 70
     0
300
1/64" = 1'-0"
140
0.015625
141
12.0
290
     0
  0
SCALE
  5
BB
102
{ACAD_REACTORS
330
B3
102
}
330
B3
100
AcDbScale
 70
     0
300
1/32" = 1'-0"
140
0.03125
141
12.0
290
     0
  0
SCALE
  5
BC
102
{ACAD_REACTORS
330
B3
102
}
330
B3
100
AcDbScale
 70
     0
300
1/16" = 1'-0"
140
0.0625
141
12.0
290
     0
  0
SCALE
  5
BD
102
{ACAD_REACTORS
330
B3
102
}
330
B3
100
AcDbScale
 70
     0
300
3/32" = 1'-0"
140
0.09375
141
12.0
290
     0
  0
SCALE
  5
BE
102
{ACAD_REACTORS
330
B3
102
}
330
B3
100
AcDbScale
 70
     0
300
1/8" = 1'-0"
140
0.125
141
12.0
290
     0
  0
SCALE
  5
BF
102
{ACAD_REACTORS
330
B3
102
}
330
B3
100
AcDbScale
 70
     0
300
3/16" = 1'-0"
140
0.1875
141
12.0
290
     0
  0
SCALE
  5
C0
102
{ACAD_REACTORS
330
B3
102
}
330
B3
100
AcDbScale
 70
     0
300
1/4" = 1'-0"
140
0.25
141
12.0
290
     0
  0
SCALE
  5
C1
102
{ACAD_REACTORS
330
B3
102
}
330
B3
100
AcDbScale
 70
     0
300
3/8" = 1'-0"
140
0.375
141
12.0
290
     0
  0
SCALE
  5
C2
102
{ACAD_REACTORS
330
B3
102
}
330
B3
100
AcDbScale
 70
     0
300
1/2" = 1'-0"
140
0.5
141
12.0
290
     0
  0
SCALE
  5
C3
102
{ACAD_REACTORS
330
B3
102
}
330
B3
100
AcDbScale
 70
     0
300
3/4" = 1'-0"
140
0.75
141
12.0
290
     0
  0
SCALE
  5
C4
102
{ACAD_REACTORS
330
B3
102
}
330
B3
100
AcDbScale
 70
     0
300
1" = 1'-0"
140
1.0
141
12.0
290
     0
  0
SCALE
  5
C5
102
{ACAD_REACTORS
330
B3
102
}
330
B3
100
AcDbScale
 70
     0
300
1-1/2" = 1'-0"
140
1.5
141
12.0
290
     0
  0
SCALE
  5
C6
102
{ACAD_REACTORS
330
B3
102
}
330
B3
100
AcDbScale
 70
     0
300
3" = 1'-0"
140
3.0
141
12.0
290
     0
  0
SCALE
  5
C7
102
{ACAD_REACTORS
330
B3
102
}
330
B3
100
AcDbScale
 70
     0
300
6" = 1'-0"
140
6.0
141
12.0
290
     0
  0
SCALE
  5
C8
102
{ACAD_REACTORS
330
B3
102
}
330
B3
100
AcDbScale
 70
     0
300
1'-0" = 1'-0"
140
12.0
141
12.0
290
     0
  0
ACDBSECTIONVIEWSTYLE
  5
CB
102
{ACAD_XDICTIONARY
360
128
102
}
102
{ACAD_REACTORS
330
CA
102
}
330
CA
100
AcDbModelDocViewStyle
 70
     0
  3
Imperial24
290
     0
100
AcDbSectionViewStyle
 70
     0
 71
     0
 90
       78
 71
     1
340
11
 62
   256
 40
0.24
340
0
340
0
 62
   256
 40
0.24
300
I, O, Q, S, X, Z
 40
0.48
 90
        3
 40
0.18
 90
        1
 71
     2
340
16
 90
       25
 62
   256
340
16
 90
       50
 62
   256
 40
0.24
 40
0.0
 40
0.24
 71
     3
340
11
 62
   256
 40
0.24
 90
        1
 40
0.75
 90
        1
300
%<\AcVar ViewType \f "%tc1">% %<\AcVar ViewSectionStartId>%-%<\AcVar ViewSectionEndId>%\PSCALA %<\AcVar ViewScale \f "%sn">%
 71
     4
 62
   256
 62
   257
300
ANSI31
 40
1.0
 90
        0
290
     0
290
     0
 90
        6
 40
0.0
 40
1.570796326794896
 40
0.2617993877991494
 40
1.308996938995747
 40
-0.2617993877991494
 40
1.832595714594046
  0
TABLESTYLE
  5
B2
102
{ACAD_XDICTIONARY
360
125
102
}
102
{ACAD_REACTORS
330
A3
102
}
330
A3
100
AcDbTableStyle
280
     0
  3
Standard
 70
     0
 71
     0
 40
0.06
 41
0.06
280
     0
281
     0
  7
Standard
140
0.18
170
     2
 62
     0
 63
     7
283
     0
 90
      512
 91
        0
  1

274
    -2
284
     1
 64
     0
275
    -2
285
     1
 65
     0
276
    -2
286
     1
 66
     0
277
    -2
287
     1
 67
     0
278
    -2
288
     1
 68
     0
279
    -2
289
     1
 69
     0
  7
Standard
140
0.25
170
     5
 62
     0
 63
     7
283
     0
 90
      512
 91
        0
  1

274
    -2
284
     1
 64
     0
275
    -2
285
     1
 65
     0
276
    -2
286
     1
 66
     0
277
    -2
287
     1
 67
     0
278
    -2
288
     1
 68
     0
279
    -2
289
     1
 69
     0
  7
Standard
140
0.18
170
     5
 62
     0
 63
     7
283
     0
 90
      512
 91
        0
  1

274
    -2
284
     1
 64
     0
275
    -2
285
     1
 65
     0
276
    -2
286
     1
 66
     0
277
    -2
287
     1
 67
     0
278
    -2
288
     1
 68
     0
279
    -2
289
     1
 69
     0
  0
VISUALSTYLE
  5
2F
102
{ACAD_REACTORS
330
2A
102
}
330
2A
100
AcDbVisualStyle
  2
2dWireframe
 70
     4
177
     3
291
     0
 70
    58
 90
        0
176
     1
 90
        2
176
     1
 90
        0
176
     1
 90
        0
176
     1
 40
0.6
176
     1
 40
30.0
176
     1
 62
     7
420
 16777215
176
     1
 90
        1
176
     1
 90
        4
176
     1
 62
     7
176
     1
 62
   257
176
     1
 90
        1
176
     1
 90
        1
176
     1
 40
1.0
176
     1
 90
        0
176
     1
 62
   257
176
     1
 40
1.0
176
     1
 90
        1
176
     1
 90
        6
176
     1
 90
        2
176
     1
 62
     7
176
     1
 90
        5
176
     1
 90
        0
176
     1
 90
        0
176
     1
290
     0
176
     1
 90
        1
176
     1
 40
0.0
176
     1
 90
        0
176
     1
290
     1
176
     1
290
     1
176
     1
290
     0
176
     1
290
     0
176
     1
290
     0
176
     1
290
     0
176
     1
290
     0
176
     1
290
     0
176
     1
290
     0
176
     1
 90
       50
176
     1
 40
0.0
176
     1
 40
1.0
176
     1
 90
        0
176
     1
 62
    18
420
        0
176
     1
 90
       50
176
     1
 90
        3
176
     1
 62
     5
420
      255
176
     1
290
     0
176
     1
 90
       50
176
     1
 90
       50
176
     1
 90
       50
176
     1
290
     0
176
     1
 90
       50
176
     1
 62
   256
176
     0
 40
1.0
176
     0
 90
        2
176
     1
  1
strokes_ogs.tif
176
     1
290
     0
176
     1
 40
1.0
176
     1
 40
1.0
176
     1
1001
ACAD
1000
AcDbSavedByObjectVersion
1070
     0
  0
VISUALSTYLE
  5
31
102
{ACAD_REACTORS
330
2A
102
}
330
2A
100
AcDbVisualStyle
  2
3D Hidden
 70
     6
177
     3
291
     0
 70
    58
 90
        1
176
     1
 90
        2
176
     1
 90
        2
176
     1
 90
        0
176
     1
 40
0.6
176
     1
 40
30.0
176
     1
 62
     7
420
 16777215
176
     1
 90
        2
176
     1
 90
        2
176
     1
 62
     7
176
     1
 62
   257
176
     1
 90
        2
176
     1
 90
        1
176
     1
 40
40.0
176
     1
 90
        0
176
     1
 62
   257
176
     1
 40
1.0
176
     1
 90
        1
176
     1
 90
        6
176
     1
 90
        2
176
     1
 62
     7
176
     1
 90
        3
176
     1
 90
        0
176
     1
 90
        0
176
     1
290
     0
176
     1
 90
        1
176
     1
 40
0.0
176
     1
 90
        0
176
     1
290
     0
176
     1
290
     1
176
     1
290
     1
176
     1
290
     0
176
     1
290
     0
176
     1
290
     0
176
     1
290
     0
176
     1
290
     0
176
     1
290
     0
176
     1
 90
       50
176
     1
 40
0.0
176
     1
 40
1.0
176
     1
 90
        0
176
     1
 62
    18
420
        0
176
     1
 90
       50
176
     1
 90
        3
176
     1
 62
     5
420
      255
176
     1
290
     0
176
     1
 90
       50
176
     1
 90
       50
176
     1
 90
       50
176
     1
290
     0
176
     1
 90
       50
176
     1
 62
   256
176
     0
 40
1.0
176
     0
 90
        2
176
     1
  1
strokes_ogs.tif
176
     1
290
     0
176
     1
 40
1.0
176
     1
 40
1.0
176
     1
1001
ACAD
1000
AcDbSavedByObjectVersion
1070
     0
  0
VISUALSTYLE
  5
30
102
{ACAD_REACTORS
330
2A
102
}
330
2A
100
AcDbVisualStyle
  2
3dWireframe
 70
     5
177
     3
291
     0
 70
    58
 90
        0
176
     1
 90
        2
176
     1
 90
        0
176
     1
 90
        0
176
     1
 40
0.6
176
     1
 40
30.0
176
     1
 62
     7
420
 16777215
176
     1
 90
        1
176
     1
 90
        4
176
     1
 62
     7
176
     1
 62
   257
176
     1
 90
        1
176
     1
 90
        1
176
     1
 40
1.0
176
     1
 90
        0
176
     1
 62
   257
176
     1
 40
1.0
176
     1
 90
        1
176
     1
 90
        6
176
     1
 90
        2
176
     1
 62
     7
176
     1
 90
        5
176
     1
 90
        0
176
     1
 90
        0
176
     1
290
     0
176
     1
 90
        1
176
     1
 40
0.0
176
     1
 90
        0
176
     1
290
     0
176
     1
290
     1
176
     1
290
     1
176
     1
290
     0
176
     1
290
     0
176
     1
290
     0
176
     1
290
     0
176
     1
290
     0
176
     1
290
     0
176
     1
 90
       50
176
     1
 40
0.0
176
     1
 40
1.0
176
     1
 90
        0
176
     1
 62
    18
420
        0
176
     1
 90
       50
176
     1
 90
        3
176
     1
 62
     5
420
      255
176
     1
290
     0
176
     1
 90
       50
176
     1
 90
       50
176
     1
 90
       50
176
     1
290
     0
176
     1
 90
       50
176
     1
 62
   256
176
     0
 40
1.0
176
     0
 90
        2
176
     1
  1
strokes_ogs.tif
176
     1
290
     0
176
     1
 40
1.0
176
     1
 40
1.0
176
     1
1001
ACAD
1000
AcDbSavedByObjectVersion
1070
     0
  0
VISUALSTYLE
  5
32
102
{ACAD_REACTORS
330
2A
102
}
330
2A
100
AcDbVisualStyle
  2
Basic
 70
     7
177
     3
291
     1
 70
    58
 90
        1
176
     1
 90
        0
176
     1
 90
        1
176
     1
 90
        0
176
     1
 40
0.6
176
     1
 40
30.0
176
     1
 62
     7
420
 16777215
176
     1
 90
        0
176
     1
 90
        4
176
     1
 62
     7
176
     1
 62
   257
176
     1
 90
        1
176
     1
 90
        1
176
     1
 40
1.0
176
     1
 90
        8
176
     1
 62
     7
176
     1
 40
1.0
176
     1
 90
        1
176
     1
 90
        6
176
     1
 90
        2
176
     1
 62
     7
176
     1
 90
        5
176
     1
 90
        0
176
     1
 90
        0
176
     1
290
     0
176
     1
 90
        1
176
     1
 40
0.0
176
     1
 90
        0
176
     1
290
     0
176
     1
290
     1
176
     1
290
     1
176
     1
290
     0
176
     1
290
     0
176
     1
290
     0
176
     1
290
     0
176
     1
290
     0
176
     1
290
     0
176
     1
 90
       50
176
     1
 40
0.0
176
     1
 40
1.0
176
     1
 90
        0
176
     1
 62
    18
420
        0
176
     1
 90
       50
176
     1
 90
        3
176
     1
 62
     5
420
      255
176
     1
290
     0
176
     1
 90
       50
176
     1
 90
       50
176
     1
 90
       50
176
     1
290
     0
176
     1
 90
       50
176
     1
 62
   256
176
     0
 40
1.0
176
     0
 90
        2
176
     1
  1
strokes_ogs.tif
176
     1
290
     0
176
     1
 40
1.0
176
     1
 40
1.0
176
     1
1001
ACAD
1000
AcDbSavedByObjectVersion
1070
     0
  0
VISUALSTYLE
  5
36
102
{ACAD_REACTORS
330
2A
102
}
330
2A
100
AcDbVisualStyle
  2
Brighten
 70
    12
177
     3
291
     1
 70
    58
 90
        2
176
     1
 90
        2
176
     1
 90
        0
176
     1
 90
        0
176
     1
 40
0.6
176
     1
 40
30.0
176
     1
 62
     7
420
 16777215
176
     1
 90
        1
176
     1
 90
        4
176
     1
 62
     7
176
     1
 62
   257
176
     1
 90
        1
176
     1
 90
        1
176
     1
 40
1.0
176
     1
 90
        8
176
     1
 62
     7
176
     1
 40
1.0
176
     1
 90
        1
176
     1
 90
        6
176
     1
 90
        2
176
     1
 62
     7
176
     1
 90
        5
176
     1
 90
        0
176
     1
 90
        0
176
     1
290
     0
176
     1
 90
        1
176
     1
 40
50.0
176
     1
 90
        0
176
     1
290
     0
176
     1
290
     1
176
     1
290
     1
176
     1
290
     0
176
     1
290
     0
176
     1
290
     0
176
     1
290
     0
176
     1
290
     0
176
     1
290
     0
176
     1
 90
       50
176
     1
 40
0.0
176
     1
 40
1.0
176
     1
 90
        0
176
     1
 62
    18
420
        0
176
     1
 90
       50
176
     1
 90
        3
176
     1
 62
     5
420
      255
176
     1
290
     0
176
     1
 90
       50
176
     1
 90
       50
176
     1
 90
       50
176
     1
290
     0
176
     1
 90
       50
176
     1
 62
   256
176
     0
 40
1.0
176
     0
 90
        2
176
     1
  1
strokes_ogs.tif
176
     1
290
     0
176
     1
 40
1.0
176
     1
 40
1.0
176
     1
1001
ACAD
1000
AcDbSavedByObjectVersion
1070
     0
  0
VISUALSTYLE
  5
3A
102
{ACAD_REACTORS
330
2A
102
}
330
2A
100
AcDbVisualStyle
  2
ColorChange
 70
    16
177
     3
291
     1
 70
    58
 90
        2
176
     1
 90
        2
176
     1
 90
        3
176
     1
 90
        0
176
     1
 40
0.6
176
     1
 40
30.0
176
     1
 62
     8
420
  8421504
176
     1
 90
        1
176
     1
 90
        4
176
     1
 62
     7
176
     1
 62
   257
176
     1
 90
        1
176
     1
 90
        1
176
     1
 40
1.0
176
     1
 90
        8
176
     1
 62
     8
420
  8421504
176
     1
 40
1.0
176
     1
 90
        1
176
     1
 90
        6
176
     1
 90
        2
176
     1
 62
     7
176
     1
 90
        5
176
     1
 90
        0
176
     1
 90
        0
176
     1
290
     0
176
     1
 90
        1
176
     1
 40
0.0
176
     1
 90
        0
176
     1
290
     0
176
     1
290
     1
176
     1
290
     1
176
     1
290
     0
176
     1
290
     0
176
     1
290
     0
176
     1
290
     0
176
     1
290
     0
176
     1
290
     0
176
     1
 90
       50
176
     1
 40
0.0
176
     1
 40
1.0
176
     1
 90
        0
176
     1
 62
    18
420
        0
176
     1
 90
       50
176
     1
 90
        3
176
     1
 62
     5
420
      255
176
     1
290
     0
176
     1
 90
       50
176
     1
 90
       50
176
     1
 90
       50
176
     1
290
     0
176
     1
 90
       50
176
     1
 62
   256
176
     0
 40
1.0
176
     0
 90
        2
176
     1
  1
strokes_ogs.tif
176
     1
290
     0
176
     1
 40
1.0
176
     1
 40
1.0
176
     1
1001
ACAD
1000
AcDbSavedByObjectVersion
1070
     0
  0
VISUALSTYLE
  5
34
102
{ACAD_REACTORS
330
2A
102
}
330
2A
100
AcDbVisualStyle
  2
Conceptual
 70
     9
177
     3
291
     0
 70
    58
 90
        3
176
     1
 90
        2
176
     1
 90
        0
176
     1
 90
        0
176
     1
 40
0.6
176
     1
 40
30.0
176
     1
 62
     7
420
 16777215
176
     1
 90
        2
176
     1
 90
        2
176
     1
 62
     7
176
     1
 62
   257
176
     1
 90
        1
176
     1
 90
        1
176
     1
 40
40.0
176
     1
 90
        8
176
     1
 62
     7
176
     1
 40
1.0
176
     1
 90
        1
176
     1
 90
        6
176
     1
 90
        2
176
     1
 62
     7
176
     1
 90
        3
176
     1
 90
        0
176
     1
 90
        0
176
     1
290
     0
176
     1
 90
        1
176
     1
 40
0.0
176
     1
 90
        0
176
     1
290
     0
176
     1
290
     1
176
     1
290
     1
176
     1
290
     0
176
     1
290
     0
176
     1
290
     0
176
     1
290
     0
176
     1
290
     0
176
     1
290
     0
176
     1
 90
       50
176
     1
 40
0.0
176
     1
 40
1.0
176
     1
 90
        0
176
     1
 62
    18
420
        0
176
     1
 90
       50
176
     1
 90
        3
176
     1
 62
     5
420
      255
176
     1
290
     0
176
     1
 90
       50
176
     1
 90
       50
176
     1
 90
       50
176
     1
290
     0
176
     1
 90
       50
176
     1
 62
   256
176
     0
 40
1.0
176
     0
 90
        2
176
     1
  1
strokes_ogs.tif
176
     1
290
     0
176
     1
 40
1.0
176
     1
 40
1.0
176
     1
1001
ACAD
1000
AcDbSavedByObjectVersion
1070
     0
  0
VISUALSTYLE
  5
35
102
{ACAD_REACTORS
330
2A
102
}
330
2A
100
AcDbVisualStyle
  2
Dim
 70
    11
177
     3
291
     1
 70
    58
 90
        2
176
     1
 90
        2
176
     1
 90
        0
176
     1
 90
        0
176
     1
 40
0.6
176
     1
 40
30.0
176
     1
 62
     7
420
 16777215
176
     1
 90
        1
176
     1
 90
        4
176
     1
 62
     7
176
     1
 62
   257
176
     1
 90
        1
176
     1
 90
        1
176
     1
 40
1.0
176
     1
 90
        8
176
     1
 62
     7
176
     1
 40
1.0
176
     1
 90
        1
176
     1
 90
        6
176
     1
 90
        2
176
     1
 62
     7
176
     1
 90
        5
176
     1
 90
        0
176
     1
 90
        0
176
     1
290
     0
176
     1
 90
        1
176
     1
 40
-50.0
176
     1
 90
        0
176
     1
290
     0
176
     1
290
     1
176
     1
290
     1
176
     1
290
     0
176
     1
290
     0
176
     1
290
     0
176
     1
290
     0
176
     1
290
     0
176
     1
290
     0
176
     1
 90
       50
176
     1
 40
0.0
176
     1
 40
1.0
176
     1
 90
        0
176
     1
 62
    18
420
        0
176
     1
 90
       50
176
     1
 90
        3
176
     1
 62
     5
420
      255
176
     1
290
     0
176
     1
 90
       50
176
     1
 90
       50
176
     1
 90
       50
176
     1
290
     0
176
     1
 90
       50
176
     1
 62
   256
176
     0
 40
1.0
176
     0
 90
        2
176
     1
  1
strokes_ogs.tif
176
     1
290
     0
176
     1
 40
1.0
176
     1
 40
1.0
176
     1
1001
ACAD
1000
AcDbSavedByObjectVersion
1070
     0
  0
VISUALSTYLE
  5
B0
102
{ACAD_REACTORS
330
2A
102
}
330
2A
100
AcDbVisualStyle
  2
EdgeColorOff
 70
    22
177
     3
291
     1
 70
    58
 90
        2
176
     0
 90
        2
176
     0
 90
        0
176
     0
 90
        0
176
     0
 40
0.6
176
     0
 40
30.0
176
     0
 62
     7
420
 16777215
176
     0
 90
        1
176
     0
 90
        4
176
     0
 62
     7
176
     0
 62
   257
176
     0
 90
        1
176
     0
 90
        1
176
     0
 40
1.0
176
     0
 90
        8
176
     2
 62
     7
176
     0
 40
1.0
176
     0
 90
        1
176
     0
 90
        6
176
     0
 90
        2
176
     0
 62
     7
176
     0
 90
        5
176
     0
 90
        0
176
     0
 90
        0
176
     0
290
     0
176
     0
 90
        1
176
     0
 40
0.0
176
     0
 90
        0
176
     0
290
     0
176
     1
290
     1
176
     1
290
     1
176
     1
290
     0
176
     1
290
     0
176
     1
290
     0
176
     1
290
     0
176
     1
290
     0
176
     1
290
     0
176
     1
 90
       50
176
     0
 40
0.0
176
     0
 40
1.0
176
     0
 90
        0
176
     0
 62
    18
420
        0
176
     0
 90
       50
176
     0
 90
        3
176
     0
 62
     5
420
      255
176
     0
290
     0
176
     1
 90
       50
176
     0
 90
       50
176
     0
 90
       50
176
     0
290
     0
176
     1
 90
       50
176
     0
 62
   256
176
     0
 40
1.0
176
     0
 90
        2
176
     0
  1
strokes_ogs.tif
176
     0
290
     0
176
     1
 40
1.0
176
     0
 40
1.0
176
     0
1001
ACAD
1000
AcDbSavedByObjectVersion
1070
     0
  0
VISUALSTYLE
  5
39
102
{ACAD_REACTORS
330
2A
102
}
330
2A
100
AcDbVisualStyle
  2
Facepattern
 70
    15
177
     3
291
     1
 70
    58
 90
        2
176
     1
 90
        2
176
     1
 90
        0
176
     1
 90
        0
176
     1
 40
0.6
176
     1
 40
30.0
176
     1
 62
     7
420
 16777215
176
     1
 90
        1
176
     1
 90
        4
176
     1
 62
     7
176
     1
 62
   257
176
     1
 90
        1
176
     1
 90
        1
176
     1
 40
1.0
176
     1
 90
        8
176
     1
 62
     7
176
     1
 40
1.0
176
     1
 90
        1
176
     1
 90
        6
176
     1
 90
        2
176
     1
 62
     7
176
     1
 90
        5
176
     1
 90
        0
176
     1
 90
        0
176
     1
290
     0
176
     1
 90
        1
176
     1
 40
0.0
176
     1
 90
        0
176
     1
290
     0
176
     1
290
     1
176
     1
290
     1
176
     1
290
     0
176
     1
290
     0
176
     1
290
     0
176
     1
290
     0
176
     1
290
     0
176
     1
290
     0
176
     1
 90
       50
176
     1
 40
0.0
176
     1
 40
1.0
176
     1
 90
        0
176
     1
 62
    18
420
        0
176
     1
 90
       50
176
     1
 90
        3
176
     1
 62
     5
420
      255
176
     1
290
     0
176
     1
 90
       50
176
     1
 90
       50
176
     1
 90
       50
176
     1
290
     0
176
     1
 90
       50
176
     1
 62
   256
176
     0
 40
1.0
176
     0
 90
        2
176
     1
  1
strokes_ogs.tif
176
     1
290
     0
176
     1
 40
1.0
176
     1
 40
1.0
176
     1
1001
ACAD
1000
AcDbSavedByObjectVersion
1070
     0
  0
VISUALSTYLE
  5
2B
102
{ACAD_REACTORS
330
2A
102
}
330
2A
100
AcDbVisualStyle
  2
Flat
 70
     0
177
     3
291
     1
 70
    58
 90
        2
176
     1
 90
        1
176
     1
 90
        1
176
     1
 90
        2
176
     1
 40
0.6
176
     1
 40
30.0
176
     1
 62
     7
420
 16777215
176
     1
 90
        0
176
     1
 90
        4
176
     1
 62
     7
176
     1
 62
   257
176
     1
 90
        1
176
     1
 90
        1
176
     1
 40
1.0
176
     1
 90
        8
176
     1
 62
     7
176
     1
 40
1.0
176
     1
 90
        1
176
     1
 90
        6
176
     1
 90
        2
176
     1
 62
     7
176
     1
 90
        5
176
     1
 90
        0
176
     1
 90
        0
176
     1
290
     0
176
     1
 90
       13
176
     1
 40
0.0
176
     1
 90
        0
176
     1
290
     0
176
     1
290
     1
176
     1
290
     1
176
     1
290
     0
176
     1
290
     0
176
     1
290
     0
176
     1
290
     0
176
     1
290
     0
176
     1
290
     0
176
     1
 90
       50
176
     1
 40
0.0
176
     1
 40
1.0
176
     1
 90
        0
176
     1
 62
    18
420
        0
176
     1
 90
       50
176
     1
 90
        3
176
     1
 62
     5
420
      255
176
     1
290
     0
176
     1
 90
       50
176
     1
 90
       50
176
     1
 90
       50
176
     1
290
     0
176
     1
 90
       50
176
     1
 62
   256
176
     0
 40
1.0
176
     0
 90
        2
176
     1
  1
strokes_ogs.tif
176
     1
290
     0
176
     1
 40
1.0
176
     1
 40
1.0
176
     1
1001
ACAD
1000
AcDbSavedByObjectVersion
1070
     0
  0
VISUALSTYLE
  5
2C
102
{ACAD_REACTORS
330
2A
102
}
330
2A
100
AcDbVisualStyle
  2
FlatWithEdges
 70
     1
177
     3
291
     1
 70
    58
 90
        2
176
     1
 90
        1
176
     1
 90
        1
176
     1
 90
        2
176
     1
 40
0.6
176
     1
 40
30.0
176
     1
 62
     7
420
 16777215
176
     1
 90
        1
176
     1
 90
        4
176
     1
 62
     7
176
     1
 62
   257
176
     1
 90
        1
176
     1
 90
        1
176
     1
 40
1.0
176
     1
 90
        0
176
     1
 62
   257
176
     1
 40
1.0
176
     1
 90
        1
176
     1
 90
        6
176
     1
 90
        2
176
     1
 62
     7
176
     1
 90
        5
176
     1
 90
        0
176
     1
 90
        0
176
     1
290
     0
176
     1
 90
       13
176
     1
 40
0.0
176
     1
 90
        0
176
     1
290
     0
176
     1
290
     1
176
     1
290
     1
176
     1
290
     0
176
     1
290
     0
176
     1
290
     0
176
     1
290
     0
176
     1
290
     0
176
     1
290
     0
176
     1
 90
       50
176
     1
 40
0.0
176
     1
 40
1.0
176
     1
 90
        0
176
     1
 62
    18
420
        0
176
     1
 90
       50
176
     1
 90
        3
176
     1
 62
     5
420
      255
176
     1
290
     0
176
     1
 90
       50
176
     1
 90
       50
176
     1
 90
       50
176
     1
290
     0
176
     1
 90
       50
176
     1
 62
   256
176
     0
 40
1.0
176
     0
 90
        2
176
     1
  1
strokes_ogs.tif
176
     1
290
     0
176
     1
 40
1.0
176
     1
 40
1.0
176
     1
1001
ACAD
1000
AcDbSavedByObjectVersion
1070
     0
  0
VISUALSTYLE
  5
2D
102
{ACAD_REACTORS
330
2A
102
}
330
2A
100
AcDbVisualStyle
  2
Gouraud
 70
     2
177
     3
291
     1
 70
    58
 90
        2
176
     1
 90
        2
176
     1
 90
        1
176
     1
 90
        2
176
     1
 40
0.6
176
     1
 40
30.0
176
     1
 62
     7
420
 16777215
176
     1
 90
        0
176
     1
 90
        4
176
     1
 62
     7
176
     1
 62
   257
176
     1
 90
        1
176
     1
 90
        1
176
     1
 40
1.0
176
     1
 90
        0
176
     1
 62
     7
176
     1
 40
1.0
176
     1
 90
        1
176
     1
 90
        6
176
     1
 90
        2
176
     1
 62
     7
176
     1
 90
        5
176
     1
 90
        0
176
     1
 90
        0
176
     1
290
     0
176
     1
 90
       13
176
     1
 40
0.0
176
     1
 90
        0
176
     1
290
     0
176
     1
290
     1
176
     1
290
     1
176
     1
290
     0
176
     1
290
     0
176
     1
290
     0
176
     1
290
     0
176
     1
290
     0
176
     1
290
     0
176
     1
 90
       50
176
     1
 40
0.0
176
     1
 40
1.0
176
     1
 90
        0
176
     1
 62
    18
420
        0
176
     1
 90
       50
176
     1
 90
        3
176
     1
 62
     5
420
      255
176
     1
290
     0
176
     1
 90
       50
176
     1
 90
       50
176
     1
 90
       50
176
     1
290
     0
176
     1
 90
       50
176
     1
 62
   256
176
     0
 40
1.0
176
     0
 90
        2
176
     1
  1
strokes_ogs.tif
176
     1
290
     0
176
     1
 40
1.0
176
     1
 40
1.0
176
     1
1001
ACAD
1000
AcDbSavedByObjectVersion
1070
     0
  0
VISUALSTYLE
  5
2E
102
{ACAD_REACTORS
330
2A
102
}
330
2A
100
AcDbVisualStyle
  2
GouraudWithEdges
 70
     3
177
     3
291
     1
 70
    58
 90
        2
176
     1
 90
        2
176
     1
 90
        1
176
     1
 90
        2
176
     1
 40
0.6
176
     1
 40
30.0
176
     1
 62
     7
420
 16777215
176
     1
 90
        1
176
     1
 90
        4
176
     1
 62
     7
176
     1
 62
   257
176
     1
 90
        1
176
     1
 90
        1
176
     1
 40
1.0
176
     1
 90
        0
176
     1
 62
   257
176
     1
 40
1.0
176
     1
 90
        1
176
     1
 90
        6
176
     1
 90
        2
176
     1
 62
     7
176
     1
 90
        5
176
     1
 90
        0
176
     1
 90
        0
176
     1
290
     0
176
     1
 90
       13
176
     1
 40
0.0
176
     1
 90
        0
176
     1
290
     0
176
     1
290
     1
176
     1
290
     1
176
     1
290
     0
176
     1
290
     0
176
     1
290
     0
176
     1
290
     0
176
     1
290
     0
176
     1
290
     0
176
     1
 90
       50
176
     1
 40
0.0
176
     1
 40
1.0
176
     1
 90
        0
176
     1
 62
    18
420
        0
176
     1
 90
       50
176
     1
 90
        3
176
     1
 62
     5
420
      255
176
     1
290
     0
176
     1
 90
       50
176
     1
 90
       50
176
     1
 90
       50
176
     1
290
     0
176
     1
 90
       50
176
     1
 62
   256
176
     0
 40
1.0
176
     0
 90
        2
176
     1
  1
strokes_ogs.tif
176
     1
290
     0
176
     1
 40
1.0
176
     1
 40
1.0
176
     1
1001
ACAD
1000
AcDbSavedByObjectVersion
1070
     0
  0
VISUALSTYLE
  5
A8
102
{ACAD_REACTORS
330
2A
102
}
330
2A
100
AcDbVisualStyle
  2
Hidden
 70
     6
177
     3
291
     0
 70
    58
 90
        1
176
     1
 90
        2
176
     1
 90
        2
176
     1
 90
        0
176
     1
 40
0.6
176
     1
 40
30.0
176
     1
 62
     7
420
 16777215
176
     1
 90
        2
176
     1
 90
        2
176
     1
 62
     7
176
     1
 62
   257
176
     1
 90
        2
176
     1
 90
        1
176
     1
 40
40.0
176
     1
 90
        0
176
     1
 62
   257
176
     1
 40
1.0
176
     1
 90
        1
176
     1
 90
        6
176
     1
 90
        2
176
     1
 62
     7
176
     1
 90
        3
176
     1
 90
        0
176
     1
 90
        0
176
     1
290
     0
176
     1
 90
        1
176
     1
 40
0.0
176
     1
 90
        0
176
     1
290
     0
176
     1
290
     1
176
     1
290
     1
176
     1
290
     0
176
     1
290
     0
176
     1
290
     0
176
     1
290
     0
176
     1
290
     0
176
     1
290
     0
176
     1
 90
       50
176
     1
 40
0.0
176
     1
 40
1.0
176
     1
 90
        0
176
     1
 62
    18
420
        0
176
     1
 90
       50
176
     1
 90
        3
176
     1
 62
     5
420
      255
176
     1
290
     0
176
     1
 90
       50
176
     1
 90
       50
176
     1
 90
       50
176
     1
290
     0
176
     1
 90
       50
176
     1
 62
   256
176
     0
 40
1.0
176
     0
 90
        2
176
     1
  1
strokes_ogs.tif
176
     1
290
     0
176
     1
 40
1.0
176
     1
 40
1.0
176
     1
1001
ACAD
1000
AcDbSavedByObjectVersion
1070
     0
  0
VISUALSTYLE
  5
AE
102
{ACAD_REACTORS
330
2A
102
}
330
2A
100
AcDbVisualStyle
  2
JitterOff
 70
    20
177
     3
291
     1
 70
    58
 90
        2
176
     0
 90
        2
176
     0
 90
        0
176
     0
 90
        0
176
     0
 40
0.6
176
     0
 40
30.0
176
     0
 62
     7
420
 16777215
176
     0
 90
        1
176
     0
 90
        4
176
     0
 62
     7
176
     0
 62
   257
176
     0
 90
        1
176
     0
 90
        1
176
     0
 40
1.0
176
     0
 90
       10
176
     2
 62
     7
176
     0
 40
1.0
176
     0
 90
        1
176
     0
 90
        6
176
     0
 90
        2
176
     0
 62
     7
176
     0
 90
        5
176
     0
 90
        0
176
     0
 90
        0
176
     0
290
     0
176
     0
 90
        1
176
     0
 40
0.0
176
     0
 90
        0
176
     0
290
     0
176
     1
290
     1
176
     1
290
     1
176
     1
290
     0
176
     1
290
     0
176
     1
290
     0
176
     1
290
     0
176
     1
290
     0
176
     1
290
     0
176
     1
 90
       50
176
     0
 40
0.0
176
     0
 40
1.0
176
     0
 90
        0
176
     0
 62
    18
420
        0
176
     0
 90
       50
176
     0
 90
        3
176
     0
 62
     5
420
      255
176
     0
290
     0
176
     1
 90
       50
176
     0
 90
       50
176
     0
 90
       50
176
     0
290
     0
176
     1
 90
       50
176
     0
 62
   256
176
     0
 40
1.0
176
     0
 90
        2
176
     0
  1
strokes_ogs.tif
176
     0
290
     0
176
     1
 40
1.0
176
     0
 40
1.0
176
     0
1001
ACAD
1000
AcDbSavedByObjectVersion
1070
     0
  0
VISUALSTYLE
  5
38
102
{ACAD_REACTORS
330
2A
102
}
330
2A
100
AcDbVisualStyle
  2
Linepattern
 70
    14
177
     3
291
     1
 70
    58
 90
        2
176
     1
 90
        2
176
     1
 90
        0
176
     1
 90
        0
176
     1
 40
0.6
176
     1
 40
30.0
176
     1
 62
     7
420
 16777215
176
     1
 90
        1
176
     1
 90
        4
176
     1
 62
     7
176
     1
 62
   257
176
     1
 90
        7
176
     1
 90
        7
176
     1
 40
1.0
176
     1
 90
        8
176
     1
 62
     7
176
     1
 40
1.0
176
     1
 90
        1
176
     1
 90
        6
176
     1
 90
        2
176
     1
 62
     7
176
     1
 90
        5
176
     1
 90
        0
176
     1
 90
        0
176
     1
290
     0
176
     1
 90
        1
176
     1
 40
0.0
176
     1
 90
        0
176
     1
290
     0
176
     1
290
     1
176
     1
290
     1
176
     1
290
     0
176
     1
290
     0
176
     1
290
     0
176
     1
290
     0
176
     1
290
     0
176
     1
290
     0
176
     1
 90
       50
176
     1
 40
0.0
176
     1
 40
1.0
176
     1
 90
        0
176
     1
 62
    18
420
        0
176
     1
 90
       50
176
     1
 90
        3
176
     1
 62
     5
420
      255
176
     1
290
     0
176
     1
 90
       50
176
     1
 90
       50
176
     1
 90
       50
176
     1
290
     0
176
     1
 90
       50
176
     1
 62
   256
176
     0
 40
1.0
176
     0
 90
        2
176
     1
  1
strokes_ogs.tif
176
     1
290
     0
176
     1
 40
1.0
176
     1
 40
1.0
176
     1
1001
ACAD
1000
AcDbSavedByObjectVersion
1070
     0
  0
VISUALSTYLE
  5
AF
102
{ACAD_REACTORS
330
2A
102
}
330
2A
100
AcDbVisualStyle
  2
OverhangOff
 70
    21
177
     3
291
     1
 70
    58
 90
        2
176
     0
 90
        2
176
     0
 90
        0
176
     0
 90
        0
176
     0
 40
0.6
176
     0
 40
30.0
176
     0
 62
     7
420
 16777215
176
     0
 90
        1
176
     0
 90
        4
176
     0
 62
     7
176
     0
 62
   257
176
     0
 90
        1
176
     0
 90
        1
176
     0
 40
1.0
176
     0
 90
        9
176
     2
 62
     7
176
     0
 40
1.0
176
     0
 90
        1
176
     0
 90
        6
176
     0
 90
        2
176
     0
 62
     7
176
     0
 90
        5
176
     0
 90
        0
176
     0
 90
        0
176
     0
290
     0
176
     0
 90
        1
176
     0
 40
0.0
176
     0
 90
        0
176
     0
290
     0
176
     1
290
     1
176
     1
290
     1
176
     1
290
     0
176
     1
290
     0
176
     1
290
     0
176
     1
290
     0
176
     1
290
     0
176
     1
290
     0
176
     1
 90
       50
176
     0
 40
0.0
176
     0
 40
1.0
176
     0
 90
        0
176
     0
 62
    18
420
        0
176
     0
 90
       50
176
     0
 90
        3
176
     0
 62
     5
420
      255
176
     0
290
     0
176
     1
 90
       50
176
     0
 90
       50
176
     0
 90
       50
176
     0
290
     0
176
     1
 90
       50
176
     0
 62
   256
176
     0
 40
1.0
176
     0
 90
        2
176
     0
  1
strokes_ogs.tif
176
     0
290
     0
176
     1
 40
1.0
176
     0
 40
1.0
176
     0
1001
ACAD
1000
AcDbSavedByObjectVersion
1070
     0
  0
VISUALSTYLE
  5
33
102
{ACAD_REACTORS
330
2A
102
}
330
2A
100
AcDbVisualStyle
  2
Realistic
 70
     8
177
     3
291
     0
 70
    58
 90
        2
176
     1
 90
        2
176
     1
 90
        0
176
     1
 90
        0
176
     1
 40
0.6
176
     1
 40
30.0
176
     1
 62
     7
420
 16777215
176
     1
 90
        1
176
     1
 90
        0
176
     1
 62
     7
176
     1
 62
   257
176
     1
 90
        1
176
     1
 90
        1
176
     1
 40
1.0
176
     1
 90
        8
176
     1
 62
     8
420
  7895160
176
     1
 40
1.0
176
     1
 90
        1
176
     1
 90
        6
176
     1
 90
        2
176
     1
 62
     7
176
     1
 90
        5
176
     1
 90
        0
176
     1
 90
        0
176
     1
290
     0
176
     1
 90
       13
176
     1
 40
0.0
176
     1
 90
        0
176
     1
290
     0
176
     1
290
     1
176
     1
290
     1
176
     1
290
     0
176
     1
290
     0
176
     1
290
     0
176
     1
290
     0
176
     1
290
     0
176
     1
290
     0
176
     1
 90
       50
176
     1
 40
0.0
176
     1
 40
1.0
176
     1
 90
        0
176
     1
 62
    18
420
        0
176
     1
 90
       50
176
     1
 90
        3
176
     1
 62
     5
420
      255
176
     1
290
     0
176
     1
 90
       50
176
     1
 90
       50
176
     1
 90
       50
176
     1
290
     0
176
     1
 90
       50
176
     1
 62
   256
176
     0
 40
1.0
176
     0
 90
        2
176
     1
  1
strokes_ogs.tif
176
     1
290
     0
176
     1
 40
1.0
176
     1
 40
1.0
176
     1
1001
ACAD
1000
AcDbSavedByObjectVersion
1070
     0
  0
VISUALSTYLE
  5
AD
102
{ACAD_REACTORS
330
2A
102
}
330
2A
100
AcDbVisualStyle
  2
Shaded
 70
    27
177
     3
291
     0
 70
    58
 90
        2
176
     1
 90
        2
176
     1
 90
        1
176
     1
 90
        2
176
     1
 40
0.6
176
     1
 40
30.0
176
     1
 62
     7
420
 16777215
176
     1
 90
        0
176
     1
 90
        4
176
     1
 62
     7
176
     1
 62
   257
176
     1
 90
        1
176
     1
 90
        1
176
     1
 40
1.0
176
     1
 90
        8
176
     1
 62
   257
176
     1
 40
1.0
176
     1
 90
        1
176
     1
 90
        6
176
     1
 90
        2
176
     1
 62
     8
420
  7895160
176
     1
 90
        3
176
     1
 90
        0
176
     1
 90
        0
176
     1
290
     0
176
     1
 90
        5
176
     1
 40
0.0
176
     1
 90
        0
176
     1
290
     0
176
     1
290
     1
176
     1
290
     1
176
     1
290
     0
176
     1
290
     0
176
     1
290
     0
176
     1
290
     0
176
     1
290
     0
176
     1
290
     0
176
     1
 90
       50
176
     1
 40
0.0
176
     1
 40
1.0
176
     1
 90
        0
176
     1
 62
    18
420
        0
176
     1
 90
       50
176
     1
 90
        3
176
     1
 62
     5
420
      255
176
     1
290
     0
176
     1
 90
       50
176
     1
 90
       50
176
     1
 90
       50
176
     1
290
     0
176
     1
 90
       50
176
     1
 62
   256
176
     0
 40
1.0
176
     0
 90
        2
176
     1
  1
strokes_ogs.tif
176
     1
290
     0
176
     1
 40
1.0
176
     1
 40
1.0
176
     1
1001
ACAD
1000
AcDbSavedByObjectVersion
1070
     0
  0
VISUALSTYLE
  5
AC
102
{ACAD_REACTORS
330
2A
102
}
330
2A
100
AcDbVisualStyle
  2
Shaded with edges
 70
    26
177
     3
291
     0
 70
    58
 90
        2
176
     1
 90
        2
176
     1
 90
        1
176
     1
 90
        2
176
     1
 40
0.6
176
     1
 40
30.0
176
     1
 62
     7
420
 16777215
176
     1
 90
        1
176
     1
 90
        2
176
     1
 62
     7
176
     1
 62
   257
176
     1
 90
        2
176
     1
 90
        1
176
     1
 40
1.0
176
     1
 90
        8
176
     1
 62
   257
176
     1
 40
1.0
176
     1
 90
        1
176
     1
 90
        6
176
     1
 90
        2
176
     1
 62
     7
176
     1
 90
        3
176
     1
 90
        0
176
     1
 90
        0
176
     1
290
     0
176
     1
 90
        5
176
     1
 40
0.0
176
     1
 90
        0
176
     1
290
     0
176
     1
290
     1
176
     1
290
     1
176
     1
290
     0
176
     1
290
     0
176
     1
290
     0
176
     1
290
     0
176
     1
290
     0
176
     1
290
     0
176
     1
 90
       50
176
     1
 40
0.0
176
     1
 40
1.0
176
     1
 90
        0
176
     1
 62
    18
420
        0
176
     1
 90
       50
176
     1
 90
        3
176
     1
 62
     5
420
      255
176
     1
290
     0
176
     1
 90
       50
176
     1
 90
       50
176
     1
 90
       50
176
     1
290
     0
176
     1
 90
       50
176
     1
 62
   256
176
     0
 40
1.0
176
     0
 90
        2
176
     1
  1
strokes_ogs.tif
176
     1
290
     0
176
     1
 40
1.0
176
     1
 40
1.0
176
     1
1001
ACAD
1000
AcDbSavedByObjectVersion
1070
     0
  0
VISUALSTYLE
  5
A9
102
{ACAD_REACTORS
330
2A
102
}
330
2A
100
AcDbVisualStyle
  2
Shades of Gray
 70
    23
177
     3
291
     0
 70
    58
 90
        2
176
     1
 90
        2
176
     1
 90
        3
176
     1
 90
        0
176
     1
 40
0.6
176
     1
 40
30.0
176
     1
 62
     7
420
 16777215
176
     1
 90
        2
176
     1
 90
        2
176
     1
 62
     7
176
     1
 62
     7
176
     1
 90
        1
176
     1
 90
        1
176
     1
 40
40.0
176
     1
 90
        8
176
     1
 62
     7
176
     1
 40
1.0
176
     1
 90
        1
176
     1
 90
        6
176
     1
 90
        2
176
     1
 62
     7
176
     1
 90
        3
176
     1
 90
        0
176
     1
 90
        0
176
     1
290
     0
176
     1
 90
        1
176
     1
 40
0.0
176
     1
 90
        0
176
     1
290
     0
176
     1
290
     1
176
     1
290
     1
176
     1
290
     0
176
     1
290
     0
176
     1
290
     0
176
     1
290
     0
176
     1
290
     0
176
     1
290
     0
176
     1
 90
       50
176
     1
 40
0.0
176
     1
 40
1.0
176
     1
 90
        0
176
     1
 62
    18
420
        0
176
     1
 90
       50
176
     1
 90
        3
176
     1
 62
     5
420
      255
176
     1
290
     0
176
     1
 90
       50
176
     1
 90
       50
176
     1
 90
       50
176
     1
290
     0
176
     1
 90
       50
176
     1
 62
   256
176
     0
 40
1.0
176
     0
 90
        2
176
     1
  1
strokes_ogs.tif
176
     1
290
     0
176
     1
 40
1.0
176
     1
 40
1.0
176
     1
1001
ACAD
1000
AcDbSavedByObjectVersion
1070
     0
  0
VISUALSTYLE
  5
AA
102
{ACAD_REACTORS
330
2A
102
}
330
2A
100
AcDbVisualStyle
  2
Sketchy
 70
    24
177
     3
291
     0
 70
    58
 90
        1
176
     1
 90
        2
176
     1
 90
        2
176
     1
 90
        0
176
     1
 40
0.6
176
     1
 40
30.0
176
     1
 62
     7
420
 16777215
176
     1
 90
        2
176
     1
 90
        2
176
     1
 62
     7
176
     1
 62
     7
176
     1
 90
        1
176
     1
 90
        1
176
     1
 40
40.0
176
     1
 90
       11
176
     1
 62
     7
176
     1
 40
1.0
176
     1
 90
        1
176
     1
 90
        6
176
     1
 90
        2
176
     1
 62
     7
176
     1
 90
        6
176
     1
 90
        0
176
     1
 90
        0
176
     1
290
     0
176
     1
 90
        1
176
     1
 40
0.0
176
     1
 90
        0
176
     1
290
     0
176
     1
290
     1
176
     1
290
     1
176
     1
290
     0
176
     1
290
     0
176
     1
290
     0
176
     1
290
     0
176
     1
290
     0
176
     1
290
     0
176
     1
 90
       50
176
     1
 40
0.0
176
     1
 40
1.0
176
     1
 90
        0
176
     1
 62
    18
420
        0
176
     1
 90
       50
176
     1
 90
        3
176
     1
 62
     5
420
      255
176
     1
290
     0
176
     1
 90
       50
176
     1
 90
       50
176
     1
 90
       50
176
     1
290
     0
176
     1
 90
       50
176
     1
 62
   256
176
     0
 40
1.0
176
     0
 90
        2
176
     1
  1
strokes_ogs.tif
176
     1
290
     0
176
     1
 40
1.0
176
     1
 40
1.0
176
     1
1001
ACAD
1000
AcDbSavedByObjectVersion
1070
     0
  0
VISUALSTYLE
  5
37
102
{ACAD_REACTORS
330
2A
102
}
330
2A
100
AcDbVisualStyle
  2
Thicken
 70
    13
177
     3
291
     1
 70
    58
 90
        2
176
     1
 90
        2
176
     1
 90
        0
176
     1
 90
        0
176
     1
 40
0.6
176
     1
 40
30.0
176
     1
 62
     7
420
 16777215
176
     1
 90
        1
176
     1
 90
        4
176
     1
 62
     7
176
     1
 62
   257
176
     1
 90
        1
176
     1
 90
        1
176
     1
 40
1.0
176
     1
 90
       12
176
     1
 62
     7
176
     1
 40
1.0
176
     1
 90
        1
176
     1
 90
        6
176
     1
 90
        2
176
     1
 62
     7
176
     1
 90
        5
176
     1
 90
        0
176
     1
 90
        0
176
     1
290
     0
176
     1
 90
        1
176
     1
 40
0.0
176
     1
 90
        0
176
     1
290
     0
176
     1
290
     1
176
     1
290
     1
176
     1
290
     0
176
     1
290
     0
176
     1
290
     0
176
     1
290
     0
176
     1
290
     0
176
     1
290
     0
176
     1
 90
       50
176
     1
 40
0.0
176
     1
 40
1.0
176
     1
 90
        0
176
     1
 62
    18
420
        0
176
     1
 90
       50
176
     1
 90
        3
176
     1
 62
     5
420
      255
176
     1
290
     0
176
     1
 90
       50
176
     1
 90
       50
176
     1
 90
       50
176
     1
290
     0
176
     1
 90
       50
176
     1
 62
   256
176
     0
 40
1.0
176
     0
 90
        2
176
     1
  1
strokes_ogs.tif
176
     1
290
     0
176
     1
 40
1.0
176
     1
 40
1.0
176
     1
1001
ACAD
1000
AcDbSavedByObjectVersion
1070
     0
  0
VISUALSTYLE
  5
A7
102
{ACAD_REACTORS
330
2A
102
}
330
2A
100
AcDbVisualStyle
  2
Wireframe
 70
     5
177
     3
291
     0
 70
    58
 90
        0
176
     1
 90
        2
176
     1
 90
        0
176
     1
 90
        0
176
     1
 40
0.6
176
     1
 40
30.0
176
     1
 62
     7
420
 16777215
176
     1
 90
        1
176
     1
 90
        4
176
     1
 62
     7
176
     1
 62
   257
176
     1
 90
        1
176
     1
 90
        1
176
     1
 40
1.0
176
     1
 90
        0
176
     1
 62
   257
176
     1
 40
1.0
176
     1
 90
        1
176
     1
 90
        6
176
     1
 90
        2
176
     1
 62
     7
176
     1
 90
        3
176
     1
 90
        0
176
     1
 90
        0
176
     1
290
     0
176
     1
 90
        1
176
     1
 40
0.0
176
     1
 90
        0
176
     1
290
     0
176
     1
290
     1
176
     1
290
     1
176
     1
290
     0
176
     1
290
     0
176
     1
290
     0
176
     1
290
     0
176
     1
290
     0
176
     1
290
     0
176
     1
 90
       50
176
     1
 40
0.0
176
     1
 40
1.0
176
     1
 90
        0
176
     1
 62
    18
420
        0
176
     1
 90
       50
176
     1
 90
        3
176
     1
 62
     5
420
      255
176
     1
290
     0
176
     1
 90
       50
176
     1
 90
       50
176
     1
 90
       50
176
     1
290
     0
176
     1
 90
       50
176
     1
 62
   256
176
     0
 40
1.0
176
     0
 90
        2
176
     1
  1
strokes_ogs.tif
176
     1
290
     0
176
     1
 40
1.0
176
     1
 40
1.0
176
     1
1001
ACAD
1000
AcDbSavedByObjectVersion
1070
     0
  0
VISUALSTYLE
  5
AB
102
{ACAD_REACTORS
330
2A
102
}
330
2A
100
AcDbVisualStyle
  2
X-Ray
 70
    25
177
     3
291
     0
 70
    58
 90
        2
176
     1
 90
        2
176
     1
 90
        1
176
     1
 90
        1
176
     1
 40
0.5
176
     1
 40
30.0
176
     1
 62
     7
420
 16777215
176
     1
 90
        1
176
     1
 90
        0
176
     1
 62
     7
176
     1
 62
   257
176
     1
 90
        1
176
     1
 90
        1
176
     1
 40
1.0
176
     1
 90
        8
176
     1
 62
     7
176
     1
 40
1.0
176
     1
 90
        1
176
     1
 90
        6
176
     1
 90
        2
176
     1
 62
     7
176
     1
 90
        3
176
     1
 90
        0
176
     1
 90
        0
176
     1
290
     0
176
     1
 90
       13
176
     1
 40
0.0
176
     1
 90
        0
176
     1
290
     0
176
     1
290
     1
176
     1
290
     1
176
     1
290
     0
176
     1
290
     0
176
     1
290
     0
176
     1
290
     0
176
     1
290
     0
176
     1
290
     0
176
     1
 90
       50
176
     1
 40
0.0
176
     1
 40
1.0
176
     1
 90
        0
176
     1
 62
    18
420
        0
176
     1
 90
       50
176
     1
 90
        3
176
     1
 62
     5
420
      255
176
     1
290
     0
176
     1
 90
       50
176
     1
 90
       50
176
     1
 90
       50
176
     1
290
     0
176
     1
 90
       50
176
     1
 62
   256
176
     0
 40
1.0
176
     0
 90
        2
176
     1
  1
strokes_ogs.tif
176
     1
290
     0
176
     1
 40
1.0
176
     1
 40
1.0
176
     1
1001
ACAD
1000
AcDbSavedByObjectVersion
1070
     0
  0
DICTIONARYVAR
  5
115
102
{ACAD_REACTORS
330
110
102
}
330
110
100
DictionaryVariables
280
     0
  1
1:1
  0
DICTIONARYVAR
  5
112
102
{ACAD_REACTORS
330
110
102
}
330
110
100
DictionaryVariables
280
     0
  1
STANDARD
  0
DICTIONARYVAR
  5
111
102
{ACAD_REACTORS
330
110
102
}
330
110
100
DictionaryVariables
280
     0
  1
STANDARD
  0
DICTIONARYVAR
  5
113
102
{ACAD_REACTORS
330
110
102
}
330
110
100
DictionaryVariables
280
     0
  1
Imperial24
  0
DICTIONARYVAR
  5
114
102
{ACAD_REACTORS
330
110
102
}
330
110
100
DictionaryVariables
280
     0
  1
Imperial24
  0
DICTIONARY
  5
12A
330
CD
100
AcDbDictionary
280
     1
281
     1
  3
ACAD_XREC_ROUNDTRIP
360
12B
  0
DICTIONARY
  5
128
330
CB
100
AcDbDictionary
280
     1
281
     1
  3
ACAD_XREC_ROUNDTRIP
360
129
  0
DICTIONARY
  5
125
330
B2
100
AcDbDictionary
280
     1
281
     1
  3
ACAD_ROUNDTRIP_2008_TABLESTYLE_CELLSTYLEMAP
360
126
  0
XRECORD
  5
12B
102
{ACAD_REACTORS
330
12A
102
}
330
12A
100
AcDbXrecord
280
     1
102
DISPLAYNAME
  1
Imperial24
102
FLAGS
 90
        0
  0
XRECORD
  5
129
102
{ACAD_REACTORS
330
128
102
}
330
128
100
AcDbXrecord
280
     1
102
DISPLAYNAME
  1
Imperial24
102
FLAGS
 90
        0
  0
CELLSTYLEMAP
  5
126
102
{ACAD_REACTORS
330
125
102
}
330
125
100
AcDbCellStyleMap
 90
        3
300
CELLSTYLE
  1
TABLEFORMAT_BEGIN
 90
        5
170
     1
 91
        0
 92
    32768
 62
   257
 93
        1
300
CONTENTFORMAT
  1
CONTENTFORMAT_BEGIN
 90
        0
 91
        0
 92
      512
 93
        0
300

 40
0.0
140
1.0
 94
        5
 62
     0
340
11
144
0.25
309
CONTENTFORMAT_END
171
     0
 94
        0
309
TABLEFORMAT_END
  1
CELLSTYLE_BEGIN
 90
        1
 91
        1
300
_TITLE
309
CELLSTYLE_END
300
CELLSTYLE
  1
TABLEFORMAT_BEGIN
 90
        5
170
     1
 91
        0
 92
        0
 62
   257
 93
        1
300
CONTENTFORMAT
  1
CONTENTFORMAT_BEGIN
 90
        0
 91
        0
 92
      512
 93
        0
300

 40
0.0
140
1.0
 94
        5
 62
     0
340
11
144
0.18
309
CONTENTFORMAT_END
171
     0
 94
        0
309
TABLEFORMAT_END
  1
CELLSTYLE_BEGIN
 90
        2
 91
        1
300
_HEADER
309
CELLSTYLE_END
300
CELLSTYLE
  1
TABLEFORMAT_BEGIN
 90
        5
170
     1
 91
        0
 92
        0
 62
   257
 93
        1
300
CONTENTFORMAT
  1
CONTENTFORMAT_BEGIN
 90
        0
 91
        0
 92
      512
 93
        0
300

 40
0.0
140
1.0
 94
        2
 62
     0
340
11
144
0.18
309
CONTENTFORMAT_END
171
     0
 94
        0
309
TABLEFORMAT_END
  1
CELLSTYLE_BEGIN
 90
        3
 91
        2
300
_DATA
309
CELLSTYLE_END
  0
ENDSEC
  0
EOF
