  0
SECTION
  2
HEADER
  9
$ACADVER
  1
AC1027
  9
$ACADMAINTVER
 70
   125
  9
$DWGCODEPAGE
  3
ANSI_1252
  9
$LASTSAVEDBY
  1
andrea.ragusa
  9
$REQUIREDVERSIONS
160
                 0
  9
$INSBASE
 10
0.0
 20
0.0
 30
0.0
  9
$EXTMIN
 10
0.1474008804041205
 20
0.104233479714253
 30
-0.0015258207003583
  9
$EXTMAX
 10
28.37768606885538
 20
22.49162329674186
 30
0.0000000349246037
  9
$LIMMIN
 10
0.0
 20
0.0
  9
$LIMMAX
 10
420.0
 20
297.0
  9
$ORTHOMODE
 70
     0
  9
$REGENMODE
 70
     1
  9
$FILLMODE
 70
     1
  9
$QTEXTMODE
 70
     0
  9
$MIRRTEXT
 70
     0
  9
$LTSCALE
 40
1.0
  9
$ATTMODE
 70
     1
  9
$TEXTSIZE
 40
2.5
  9
$TRACEWID
 40
1.0
  9
$TEXTSTYLE
  7
Standard
  9
$CLAYER
  8
0
  9
$CELTYPE
  6
ByLayer
  9
$CECOLOR
 62
   256
  9
$CELTSCALE
 40
1.0
  9
$DISPSILH
 70
     0
  9
$DIMSCALE
 40
1.0
  9
$DIMASZ
 40
2.5
  9
$DIMEXO
 40
0.625
  9
$DIMDLI
 40
3.75
  9
$DIMRND
 40
0.0
  9
$DIMDLE
 40
0.0
  9
$DIMEXE
 40
1.25
  9
$DIMTP
 40
0.0
  9
$DIMTM
 40
0.0
  9
$DIMTXT
 40
2.5
  9
$DIMCEN
 40
2.5
  9
$DIMTSZ
 40
0.0
  9
$DIMTOL
 70
     0
  9
$DIMLIM
 70
     0
  9
$DIMTIH
 70
     0
  9
$DIMTOH
 70
     0
  9
$DIMSE1
 70
     0
  9
$DIMSE2
 70
     0
  9
$DIMTAD
 70
     1
  9
$DIMZIN
 70
     8
  9
$DIMBLK
  1

  9
$DIMASO
 70
     1
  9
$DIMSHO
 70
     1
  9
$DIMPOST
  1

  9
$DIMAPOST
  1

  9
$DIMALT
 70
     0
  9
$DIMALTD
 70
     3
  9
$DIMALTF
 40
0.03937007874016
  9
$DIMLFAC
 40
1.0
  9
$DIMTOFL
 70
     1
  9
$DIMTVP
 40
0.0
  9
$DIMTIX
 70
     0
  9
$DIMSOXD
 70
     0
  9
$DIMSAH
 70
     0
  9
$DIMBLK1
  1

  9
$DIMBLK2
  1

  9
$DIMSTYLE
  2
ISO-25
  9
$DIMCLRD
 70
     0
  9
$DIMCLRE
 70
     0
  9
$DIMCLRT
 70
     0
  9
$DIMTFAC
 40
1.0
  9
$DIMGAP
 40
0.625
  9
$DIMJUST
 70
     0
  9
$DIMSD1
 70
     0
  9
$DIMSD2
 70
     0
  9
$DIMTOLJ
 70
     0
  9
$DIMTZIN
 70
     8
  9
$DIMALTZ
 70
     0
  9
$DIMALTTZ
 70
     0
  9
$DIMUPT
 70
     0
  9
$DIMDEC
 70
     2
  9
$DIMTDEC
 70
     2
  9
$DIMALTU
 70
     2
  9
$DIMALTTD
 70
     3
  9
$DIMTXSTY
  7
Standard
  9
$DIMAUNIT
 70
     0
  9
$DIMADEC
 70
     0
  9
$DIMALTRND
 40
0.0
  9
$DIMAZIN
 70
     0
  9
$DIMDSEP
 70
    44
  9
$DIMATFIT
 70
     3
  9
$DIMFRAC
 70
     0
  9
$DIMLDRBLK
  1

  9
$DIMLUNIT
 70
     2
  9
$DIMLWD
 70
    -2
  9
$DIMLWE
 70
    -2
  9
$DIMTMOVE
 70
     0
  9
$DIMFXL
 40
1.0
  9
$DIMFXLON
 70
     0
  9
$DIMJOGANG
 40
0.7853981633974483
  9
$DIMTFILL
 70
     0
  9
$DIMTFILLCLR
 70
     0
  9
$DIMARCSYM
 70
     0
  9
$DIMLTYPE
  6

  9
$DIMLTEX1
  6

  9
$DIMLTEX2
  6

  9
$DIMTXTDIRECTION
 70
     0
  9
$LUNITS
 70
     2
  9
$LUPREC
 70
     4
  9
$SKETCHINC
 40
1.0
  9
$FILLETRAD
 40
0.0
  9
$AUNITS
 70
     0
  9
$AUPREC
 70
     0
  9
$MENU
  1
.
  9
$ELEVATION
 40
0.0
  9
$PELEVATION
 40
0.0
  9
$THICKNESS
 40
0.0
  9
$LIMCHECK
 70
     0
  9
$CHAMFERA
 40
0.0
  9
$CHAMFERB
 40
0.0
  9
$CHAMFERC
 40
0.0
  9
$CHAMFERD
 40
0.0
  9
$SKPOLY
 70
     0
  9
$TDCREATE
 40
2459023.678078704
  9
$TDUCREATE
 40
2459023.594745371
  9
$TDUPDATE
 40
2459023.678333333
  9
$TDUUPDATE
 40
2459023.595000001
  9
$TDINDWG
 40
0.0002546296
  9
$TDUSRTIMER
 40
0.0002546296
  9
$USRTIMER
 70
     1
  9
$ANGBASE
 50
0.0
  9
$ANGDIR
 70
     0
  9
$PDMODE
 70
     0
  9
$PDSIZE
 40
0.0
  9
$PLINEWID
 40
0.0
  9
$SPLFRAME
 70
     0
  9
$SPLINETYPE
 70
     6
  9
$SPLINESEGS
 70
     8
  9
$HANDSEED
  5
3C2
  9
$SURFTAB1
 70
     6
  9
$SURFTAB2
 70
     6
  9
$SURFTYPE
 70
     6
  9
$SURFU
 70
     6
  9
$SURFV
 70
     6
  9
$UCSBASE
  2

  9
$UCSNAME
  2

  9
$UCSORG
 10
0.0
 20
0.0
 30
0.0
  9
$UCSXDIR
 10
1.0
 20
0.0
 30
0.0
  9
$UCSYDIR
 10
0.0
 20
1.0
 30
0.0
  9
$UCSORTHOREF
  2

  9
$UCSORTHOVIEW
 70
     0
  9
$UCSORGTOP
 10
0.0
 20
0.0
 30
0.0
  9
$UCSORGBOTTOM
 10
0.0
 20
0.0
 30
0.0
  9
$UCSORGLEFT
 10
0.0
 20
0.0
 30
0.0
  9
$UCSORGRIGHT
 10
0.0
 20
0.0
 30
0.0
  9
$UCSORGFRONT
 10
0.0
 20
0.0
 30
0.0
  9
$UCSORGBACK
 10
0.0
 20
0.0
 30
0.0
  9
$PUCSBASE
  2

  9
$PUCSNAME
  2

  9
$PUCSORG
 10
0.0
 20
0.0
 30
0.0
  9
$PUCSXDIR
 10
1.0
 20
0.0
 30
0.0
  9
$PUCSYDIR
 10
0.0
 20
1.0
 30
0.0
  9
$PUCSORTHOREF
  2

  9
$PUCSORTHOVIEW
 70
     0
  9
$PUCSORGTOP
 10
0.0
 20
0.0
 30
0.0
  9
$PUCSORGBOTTOM
 10
0.0
 20
0.0
 30
0.0
  9
$PUCSORGLEFT
 10
0.0
 20
0.0
 30
0.0
  9
$PUCSORGRIGHT
 10
0.0
 20
0.0
 30
0.0
  9
$PUCSORGFRONT
 10
0.0
 20
0.0
 30
0.0
  9
$PUCSORGBACK
 10
0.0
 20
0.0
 30
0.0
  9
$USERI1
 70
     0
  9
$USERI2
 70
     0
  9
$USERI3
 70
     0
  9
$USERI4
 70
     0
  9
$USERI5
 70
     0
  9
$USERR1
 40
0.0
  9
$USERR2
 40
0.0
  9
$USERR3
 40
0.0
  9
$USERR4
 40
0.0
  9
$USERR5
 40
0.0
  9
$WORLDVIEW
 70
     1
  9
$SHADEDGE
 70
     3
  9
$SHADEDIF
 70
    70
  9
$TILEMODE
 70
     1
  9
$MAXACTVP
 70
    64
  9
$PINSBASE
 10
0.0
 20
0.0
 30
0.0
  9
$PLIMCHECK
 70
     0
  9
$PEXTMIN
 10
0.0
 20
0.0
 30
0.0
  9
$PEXTMAX
 10
0.0
 20
0.0
 30
0.0
  9
$PLIMMIN
 10
0.0
 20
0.0
  9
$PLIMMAX
 10
12.0
 20
9.0
  9
$UNITMODE
 70
     0
  9
$VISRETAIN
 70
     1
  9
$PLINEGEN
 70
     0
  9
$PSLTSCALE
 70
     1
  9
$TREEDEPTH
 70
  3020
  9
$CMLSTYLE
  2
Standard
  9
$CMLJUST
 70
     0
  9
$CMLSCALE
 40
20.0
  9
$PROXYGRAPHICS
 70
     1
  9
$MEASUREMENT
 70
     1
  9
$CELWEIGHT
370
    -1
  9
$ENDCAPS
280
     0
  9
$JOINSTYLE
280
     0
  9
$LWDISPLAY
290
     0
  9
$INSUNITS
 70
     4
  9
$HYPERLINKBASE
  1

  9
$STYLESHEET
  1

  9
$XEDIT
290
     1
  9
$CEPSNTYPE
380
     0
  9
$PSTYLEMODE
290
     1
  9
$FINGERPRINTGUID
  2
{B0C94DC9-95ED-BB47-9525-61A6C18CDD09}
  9
$VERSIONGUID
  2
{79A1BB26-173A-3A40-B529-D6AFEC62C103}
  9
$EXTNAMES
290
     1
  9
$PSVPSCALE
 40
0.0
  9
$OLESTARTUP
290
     0
  9
$SORTENTS
280
   127
  9
$INDEXCTL
280
     0
  9
$HIDETEXT
280
     1
  9
$XCLIPFRAME
280
     2
  9
$HALOGAP
280
     0
  9
$OBSCOLOR
 70
   257
  9
$OBSLTYPE
280
     0
  9
$INTERSECTIONDISPLAY
280
     0
  9
$INTERSECTIONCOLOR
 70
   257
  9
$DIMASSOC
280
     2
  9
$PROJECTNAME
  1

  9
$CAMERADISPLAY
290
     0
  9
$LENSLENGTH
 40
50.0
  9
$CAMERAHEIGHT
 40
0.0
  9
$STEPSPERSEC
 40
2.0
  9
$STEPSIZE
 40
6.0
  9
$3DDWFPREC
 40
2.0
  9
$PSOLWIDTH
 40
5.0
  9
$PSOLHEIGHT
 40
80.0
  9
$LOFTANG1
 40
1.570796326794896
  9
$LOFTANG2
 40
1.570796326794896
  9
$LOFTMAG1
 40
0.0
  9
$LOFTMAG2
 40
0.0
  9
$LOFTPARAM
 70
     7
  9
$LOFTNORMALS
280
     1
  9
$LATITUDE
 40
37.795
  9
$LONGITUDE
 40
-122.394
  9
$NORTHDIRECTION
 40
0.0
  9
$TIMEZONE
 70
 -8000
  9
$LIGHTGLYPHDISPLAY
280
     1
  9
$TILEMODELIGHTSYNCH
280
     1
  9
$CMATERIAL
347
EC
  9
$SOLIDHIST
280
     0
  9
$SHOWHIST
280
     1
  9
$DWFFRAME
280
     2
  9
$DGNFRAME
280
     0
  9
$REALWORLDSCALE
290
     1
  9
$INTERFERECOLOR
 62
     1
  9
$INTERFEREOBJVS
345
F9
  9
$INTERFEREVPVS
346
F6
  9
$CSHADOW
280
     0
  9
$SHADOWPLANELOCATION
 40
0.0
  0
ENDSEC
  0
SECTION
  2
CLASSES
  0
CLASS
  1
ACDBDICTIONARYWDFLT
  2
AcDbDictionaryWithDefault
  3
ObjectDBX Classes
 90
        0
 91
        1
280
     0
281
     0
  0
CLASS
  1
DICTIONARYVAR
  2
AcDbDictionaryVar
  3
ObjectDBX Classes
 90
        0
 91
       11
280
     0
281
     0
  0
CLASS
  1
TABLESTYLE
  2
AcDbTableStyle
  3
ObjectDBX Classes
 90
     4095
 91
        1
280
     0
281
     0
  0
CLASS
  1
MATERIAL
  2
AcDbMaterial
  3
ObjectDBX Classes
 90
     1153
 91
        3
280
     0
281
     0
  0
CLASS
  1
VISUALSTYLE
  2
AcDbVisualStyle
  3
ObjectDBX Classes
 90
     4095
 91
       24
280
     0
281
     0
  0
CLASS
  1
SCALE
  2
AcDbScale
  3
ObjectDBX Classes
 90
     1153
 91
       17
280
     0
281
     0
  0
CLASS
  1
MLEADERSTYLE
  2
AcDbMLeaderStyle
  3
ACDB_MLEADERSTYLE_CLASS
 90
     4095
 91
        2
280
     0
281
     0
  0
CLASS
  1
CELLSTYLEMAP
  2
AcDbCellStyleMap
  3
ObjectDBX Classes
 90
     1152
 91
        1
280
     0
281
     0
  0
CLASS
  1
EXACXREFPANELOBJECT
  2
ExAcXREFPanelObject
  3
EXAC_ESW
 90
     1025
 91
        0
280
     0
281
     0
  0
CLASS
  1
NPOCOLLECTION
  2
AcDbImpNonPersistentObjectsCollection
  3
ObjectDBX Classes
 90
     1153
 91
        0
280
     0
281
     0
  0
CLASS
  1
LAYER_INDEX
  2
AcDbLayerIndex
  3
ObjectDBX Classes
 90
        0
 91
        0
280
     0
281
     0
  0
CLASS
  1
SPATIAL_INDEX
  2
AcDbSpatialIndex
  3
ObjectDBX Classes
 90
        0
 91
        0
280
     0
281
     0
  0
CLASS
  1
IDBUFFER
  2
AcDbIdBuffer
  3
ObjectDBX Classes
 90
        0
 91
        0
280
     0
281
     0
  0
CLASS
  1
ACDBSECTIONVIEWSTYLE
  2
AcDbSectionViewStyle
  3
ObjectDBX Classes
 90
     1025
 91
        2
280
     0
281
     0
  0
CLASS
  1
ACDBDETAILVIEWSTYLE
  2
AcDbDetailViewStyle
  3
ObjectDBX Classes
 90
     1025
 91
        2
280
     0
281
     0
  0
CLASS
  1
SORTENTSTABLE
  2
AcDbSortentsTable
  3
ObjectDBX Classes
 90
        0
 91
        1
280
     0
281
     0
  0
ENDSEC
  0
SECTION
  2
TABLES
  0
TABLE
  2
VPORT
  5
8
330
0
100
AcDbSymbolTable
 70
     1
1001
ACAD
1000
DbSaveVer
1071
      208
  0
VPORT
  5
EA
330
8
100
AcDbSymbolTableRecord
100
AcDbViewportTableRecord
  2
*Active
 70
     0
 10
0.0
 20
0.0
 11
1.0
 21
1.0
 12
14.26254347462975
 22
11.29792838822806
 13
0.0
 23
0.0
 14
10.0
 24
10.0
 15
10.0
 25
10.0
 16
0.0
 26
0.0
 36
1.0
 17
0.0
 27
0.0
 37
0.0
 40
22.57215506998795
 41
1.887052341597796
 42
50.0
 43
0.0
 44
0.0
 50
0.0
 51
0.0
 71
     0
 72
  1000
 73
     1
 74
     3
 75
     0
 76
     1
 77
     0
 78
     0
281
     0
 65
     1
110
0.0
120
0.0
130
0.0
111
1.0
121
0.0
131
0.0
112
0.0
122
1.0
132
0.0
 79
     0
146
0.0
348
F5
 60
     3
 61
     5
292
     1
282
     1
141
0.0
142
0.0
 63
   250
421
  3355443
1001
ACAD_NAV_VCDISPLAY
1070
     3
  0
ENDTAB
  0
TABLE
  2
LTYPE
  5
5
330
0
100
AcDbSymbolTable
 70
     1
  0
LTYPE
  5
14
330
5
100
AcDbSymbolTableRecord
100
AcDbLinetypeTableRecord
  2
ByBlock
 70
     0
  3

 72
    65
 73
     0
 40
0.0
  0
LTYPE
  5
15
330
5
100
AcDbSymbolTableRecord
100
AcDbLinetypeTableRecord
  2
ByLayer
 70
     0
  3

 72
    65
 73
     0
 40
0.0
  0
LTYPE
  5
16
330
5
100
AcDbSymbolTableRecord
100
AcDbLinetypeTableRecord
  2
Continuous
 70
     0
  3
Solid line
 72
    65
 73
     0
 40
0.0
  0
ENDTAB
  0
TABLE
  2
LAYER
  5
2
102
{ACAD_XDICTIONARY
360
1FF
102
}
330
0
100
AcDbSymbolTable
 70
     2
  0
LAYER
  5
10
102
{ACAD_XDICTIONARY
360
13C
102
}
330
2
100
AcDbSymbolTableRecord
100
AcDbLayerTableRecord
  2
0
 70
     0
 62
     7
  6
Continuous
370
    -3
390
F
347
EE
348
0
  0
LAYER
  5
28D
330
2
100
AcDbSymbolTableRecord
100
AcDbLayerTableRecord
  2
Livello 1
 70
     0
 62
     7
  6
Continuous
370
    -3
390
F
347
EE
348
0
  0
ENDTAB
  0
TABLE
  2
STYLE
  5
3
330
0
100
AcDbSymbolTable
 70
     2
  0
STYLE
  5
11
330
3
100
AcDbSymbolTableRecord
100
AcDbTextStyleTableRecord
  2
Standard
 70
     0
 40
0.0
 41
1.0
 50
0.0
 71
     0
 42
2.5
  3
arial.ttf
  4

1001
ACAD
1000
Arial
1071
       34
  0
STYLE
  5
132
330
3
100
AcDbSymbolTableRecord
100
AcDbTextStyleTableRecord
  2
Annotativa
 70
     0
 40
0.0
 41
1.0
 50
0.0
 71
     0
 42
2.5
  3
arial.ttf
  4

1001
AcadAnnotative
1000
AnnotativeData
1002
{
1070
     1
1070
     1
1002
}
1001
ACAD
1000
Arial
1071
       34
  0
ENDTAB
  0
TABLE
  2
VIEW
  5
6
330
0
100
AcDbSymbolTable
 70
     0
  0
ENDTAB
  0
TABLE
  2
UCS
  5
7
330
0
100
AcDbSymbolTable
 70
     0
  0
ENDTAB
  0
TABLE
  2
APPID
  5
9
330
0
100
AcDbSymbolTable
 70
     8
  0
APPID
  5
12
330
9
100
AcDbSymbolTableRecord
100
AcDbRegAppTableRecord
  2
ACAD
 70
     0
  0
APPID
  5
9E
330
9
100
AcDbSymbolTableRecord
100
AcDbRegAppTableRecord
  2
ACAD_PSEXT
 70
     0
  0
APPID
  5
133
330
9
100
AcDbSymbolTableRecord
100
AcDbRegAppTableRecord
  2
AcadAnnoPO
 70
     0
  0
APPID
  5
134
330
9
100
AcDbSymbolTableRecord
100
AcDbRegAppTableRecord
  2
AcadAnnotative
 70
     0
  0
APPID
  5
135
330
9
100
AcDbSymbolTableRecord
100
AcDbRegAppTableRecord
  2
ACAD_DSTYLE_DIMJAG
 70
     0
  0
APPID
  5
136
330
9
100
AcDbSymbolTableRecord
100
AcDbRegAppTableRecord
  2
ACAD_DSTYLE_DIMTALN
 70
     0
  0
APPID
  5
165
330
9
100
AcDbSymbolTableRecord
100
AcDbRegAppTableRecord
  2
ACAD_MLEADERVER
 70
     0
  0
APPID
  5
217
330
9
100
AcDbSymbolTableRecord
100
AcDbRegAppTableRecord
  2
ACAD_NAV_VCDISPLAY
 70
     0
  0
ENDTAB
  0
TABLE
  2
DIMSTYLE
  5
A
330
0
100
AcDbSymbolTable
 70
     3
100
AcDbDimStyleTable
 71
     2
340
27
340
137
  0
DIMSTYLE
105
1B0
330
A
100
AcDbSymbolTableRecord
100
AcDbDimStyleTableRecord
  2
Standard
 70
     0
340
11
  0
DIMSTYLE
105
137
330
A
100
AcDbSymbolTableRecord
100
AcDbDimStyleTableRecord
  2
Annotativa
 70
     0
 40
0.0
 41
2.5
 42
0.625
 43
3.75
 44
1.25
 73
     0
 74
     0
 77
     1
 78
     8
140
2.5
141
2.5
143
0.03937007874016
147
0.625
171
     3
172
     1
271
     2
272
     2
274
     3
278
    44
283
     0
284
     8
340
11
1001
AcadAnnotative
1000
AnnotativeData
1002
{
1070
     1
1070
     1
1002
}
1001
ACAD_DSTYLE_DIMJAG
1070
   388
1040
1.5
1001
ACAD_DSTYLE_DIMTALN
1070
   392
1070
     0
  0
DIMSTYLE
105
27
330
A
100
AcDbSymbolTableRecord
100
AcDbDimStyleTableRecord
  2
ISO-25
 70
     0
 41
2.5
 42
0.625
 43
3.75
 44
1.25
 73
     0
 74
     0
 77
     1
 78
     8
140
2.5
141
2.5
143
0.03937007874016
147
0.625
171
     3
172
     1
271
     2
272
     2
274
     3
278
    44
283
     0
284
     8
340
11
  0
ENDTAB
  0
TABLE
  2
BLOCK_RECORD
  5
1
330
0
100
AcDbSymbolTable
 70
     2
  0
BLOCK_RECORD
  5
1F
102
{ACAD_XDICTIONARY
360
1CE
102
}
330
1
100
AcDbSymbolTableRecord
100
AcDbBlockTableRecord
  2
*Model_Space
340
22
 70
     0
280
     1
281
     0
  0
BLOCK_RECORD
  5
D2
330
1
100
AcDbSymbolTableRecord
100
AcDbBlockTableRecord
  2
*Paper_Space
340
D3
 70
     0
280
     1
281
     0
  0
BLOCK_RECORD
  5
D6
330
1
100
AcDbSymbolTableRecord
100
AcDbBlockTableRecord
  2
*Paper_Space0
340
D7
 70
     0
280
     1
281
     0
  0
ENDTAB
  0
ENDSEC
  0
SECTION
  2
BLOCKS
  0
BLOCK
  5
20
330
1F
100
AcDbEntity
  8
0
100
AcDbBlockBegin
  2
*Model_Space
 70
     0
 10
0.0
 20
0.0
 30
0.0
  3
*Model_Space
  1

  0
ENDBLK
  5
21
330
1F
100
AcDbEntity
  8
0
100
AcDbBlockEnd
  0
BLOCK
  5
D4
330
D2
100
AcDbEntity
 67
     1
  8
0
100
AcDbBlockBegin
  2
*Paper_Space
 70
     0
 10
0.0
 20
0.0
 30
0.0
  3
*Paper_Space
  1

  0
ENDBLK
  5
D5
330
D2
100
AcDbEntity
 67
     1
  8
0
100
AcDbBlockEnd
  0
BLOCK
  5
D8
330
D6
100
AcDbEntity
 67
     1
  8
0
100
AcDbBlockBegin
  2
*Paper_Space0
 70
     0
 10
0.0
 20
0.0
 30
0.0
  3
*Paper_Space0
  1

  0
ENDBLK
  5
D9
330
D6
100
AcDbEntity
 67
     1
  8
0
100
AcDbBlockEnd
  0
ENDSEC
  0
SECTION
  2
ENTITIES
  0
POLYLINE
  5
324
330
1F
100
AcDbEntity
  8
Livello 1
100
AcDb2dPolyline
 66
     1
 10
0.0
 20
0.0
 30
0.0
  0
VERTEX
  5
325
330
324
100
AcDbEntity
  8
Livello 1
100
AcDbVertex
100
AcDb2dVertex
 10
8.105769332785079
 20
4.055704458512906
 30
0.0
  0
VERTEX
  5
326
330
324
100
AcDbEntity
  8
Livello 1
100
AcDbVertex
100
AcDb2dVertex
 10
3.13266095763133
 20
4.055704458512906
 30
0.0
  0
SEQEND
  5
327
330
324
100
AcDbEntity
  8
Livello 1
  0
MTEXT
  5
328
330
1F
100
AcDbEntity
  8
Livello 1
100
AcDbMText
 10
1.508037512221221
 20
0.9521741608941454
 30
0.0
 40
2.123016666135912
 41
0.0
 46
0.0
 71
     7
 72
     1
  1
\fSource Sans Pro Light|b0|i0|c0|p34;\W1;80 mm
 73
     1
 44
1.0
  0
SPLINE
  5
329
330
1F
100
AcDbEntity
  8
Livello 1
100
AcDbSpline
210
0.0
220
0.0
230
1.0
 70
     9
 71
     3
 72
    23
 73
    19
 74
     0
 42
0.000000001
 43
0.0000000001
 40
0.0
 40
0.0
 40
0.0
 40
0.0
 40
1.0
 40
1.0
 40
1.0
 40
2.0
 40
2.0
 40
2.0
 40
3.0
 40
3.0
 40
3.0
 40
4.0
 40
4.0
 40
4.0
 40
5.0
 40
5.0
 40
5.0
 40
6.0
 40
6.0
 40
6.0
 40
6.0
 10
6.557145755418545
 20
13.32141223777631
 30
0.0
 10
6.547267347836715
 20
13.32141223777631
 30
0.0
 10
6.539153878820862
 20
13.32952570679214
 30
0.0
 10
6.539153878820862
 20
13.33940344150375
 30
0.0
 10
6.539153878820862
 20
13.33940344150375
 30
0.0
 10
6.539153878820862
 20
14.17725066351653
 30
0.0
 10
6.539153878820862
 20
14.17725066351653
 30
0.0
 10
6.539153878820862
 20
14.18712839822814
 30
0.0
 10
6.547267347836715
 20
14.19524186724402
 30
0.0
 10
6.557145755418545
 20
14.19524186724402
 30
0.0
 10
6.567023490130168
 20
14.19524186724402
 30
0.0
 10
6.575136959146007
 20
14.18712839822814
 30
0.0
 10
6.575136959146007
 20
14.17725066351653
 30
0.0
 10
6.575136959146007
 20
14.17725066351653
 30
0.0
 10
6.575136959146007
 20
13.33940344150375
 30
0.0
 10
6.575136959146007
 20
13.33940344150375
 30
0.0
 10
6.575136959146007
 20
13.32952570679214
 30
0.0
 10
6.567023490130168
 20
13.32141223777631
 30
0.0
 10
6.557145755418545
 20
13.32141223777631
 30
0.0
  0
SPLINE
  5
32A
330
1F
100
AcDbEntity
  8
Livello 1
100
AcDbSpline
210
0.0
220
0.0
230
1.0
 70
     9
 71
     3
 72
    23
 73
    19
 74
     0
 42
0.000000001
 43
0.0000000001
 40
0.0
 40
0.0
 40
0.0
 40
0.0
 40
1.0
 40
1.0
 40
1.0
 40
2.0
 40
2.0
 40
2.0
 40
3.0
 40
3.0
 40
3.0
 40
4.0
 40
4.0
 40
4.0
 40
5.0
 40
5.0
 40
5.0
 40
6.0
 40
6.0
 40
6.0
 40
6.0
 10
6.557145755418545
 20
13.32141223777631
 30
0.0
 10
6.547267347836715
 20
13.32141223777631
 30
0.0
 10
6.539153878820862
 20
13.32952570679214
 30
0.0
 10
6.539153878820862
 20
13.33940344150375
 30
0.0
 10
6.539153878820862
 20
13.33940344150375
 30
0.0
 10
6.539153878820862
 20
14.17725066351653
 30
0.0
 10
6.539153878820862
 20
14.17725066351653
 30
0.0
 10
6.539153878820862
 20
14.18712839822814
 30
0.0
 10
6.547267347836715
 20
14.19524186724402
 30
0.0
 10
6.557145755418545
 20
14.19524186724402
 30
0.0
 10
6.567023490130168
 20
14.19524186724402
 30
0.0
 10
6.575136959146007
 20
14.18712839822814
 30
0.0
 10
6.575136959146007
 20
14.17725066351653
 30
0.0
 10
6.575136959146007
 20
14.17725066351653
 30
0.0
 10
6.575136959146007
 20
13.33940344150375
 30
0.0
 10
6.575136959146007
 20
13.33940344150375
 30
0.0
 10
6.575136959146007
 20
13.32952570679214
 30
0.0
 10
6.567023490130168
 20
13.32141223777631
 30
0.0
 10
6.557145755418545
 20
13.32141223777631
 30
0.0
  0
SPLINE
  5
32B
330
1F
100
AcDbEntity
  8
Livello 1
100
AcDbSpline
210
0.0
220
0.0
230
1.0
 70
     9
 71
     3
 72
    26
 73
    22
 74
     0
 42
0.000000001
 43
0.0000000001
 40
0.0
 40
0.0
 40
0.0
 40
0.0
 40
1.0
 40
1.0
 40
1.0
 40
2.0
 40
2.0
 40
2.0
 40
3.0
 40
3.0
 40
3.0
 40
4.0
 40
4.0
 40
4.0
 40
5.0
 40
5.0
 40
5.0
 40
6.0
 40
6.0
 40
6.0
 40
7.0
 40
7.0
 40
7.0
 40
7.0
 10
4.742668465824621
 20
13.22154080369552
 30
0.0
 10
4.738082182459891
 20
13.22154080369552
 30
0.0
 10
4.733495899095146
 20
13.22330372365081
 30
0.0
 10
4.72996804057383
 20
13.22683225504232
 30
0.0
 10
4.72996804057383
 20
13.22683225504232
 30
0.0
 10
4.630132268614261
 20
13.32666735413173
 30
0.0
 10
4.630132268614261
 20
13.32666735413173
 30
0.0
 10
4.623076551571614
 20
13.33372307117435
 30
0.0
 10
4.623076551571614
 20
13.34501248759065
 30
0.0
 10
4.630132268614261
 20
13.35206820463332
 30
0.0
 10
4.637187312786686
 20
13.35912392167594
 30
0.0
 10
4.648476729203004
 20
13.35912392167594
 30
0.0
 10
4.655531773375429
 20
13.35206820463332
 30
0.0
 10
4.655531773375429
 20
13.35206820463332
 30
0.0
 10
4.755368218205212
 20
13.25223175980352
 30
0.0
 10
4.755368218205212
 20
13.25223175980352
 30
0.0
 10
4.762423935247859
 20
13.24517604276096
 30
0.0
 10
4.762423935247859
 20
13.23388797208503
 30
0.0
 10
4.755368218205212
 20
13.22683225504232
 30
0.0
 10
4.751840359683889
 20
13.22330372365081
 30
0.0
 10
4.747254076319151
 20
13.22154080369552
 30
0.0
 10
4.742668465824621
 20
13.22154080369552
 30
0.0
  0
SPLINE
  5
32C
330
1F
100
AcDbEntity
  8
Livello 1
100
AcDbSpline
210
0.0
220
0.0
230
1.0
 70
     9
 71
     3
 72
    23
 73
    19
 74
     0
 42
0.000000001
 43
0.0000000001
 40
0.0
 40
0.0
 40
0.0
 40
0.0
 40
1.0
 40
1.0
 40
1.0
 40
2.0
 40
2.0
 40
2.0
 40
3.0
 40
3.0
 40
3.0
 40
4.0
 40
4.0
 40
4.0
 40
5.0
 40
5.0
 40
5.0
 40
6.0
 40
6.0
 40
6.0
 40
6.0
 10
6.029989625077512
 20
10.30287003886633
 30
0.0
 10
6.020111217495689
 20
10.30287003886633
 30
0.0
 10
6.011997748479835
 20
10.31098350788212
 30
0.0
 10
6.011997748479835
 20
10.32086124259373
 30
0.0
 10
6.011997748479835
 20
10.32086124259373
 30
0.0
 10
6.011997748479835
 20
12.28512751581314
 30
0.0
 10
6.011997748479835
 20
12.28512751581314
 30
0.0
 10
6.011997748479835
 20
12.29500525052472
 30
0.0
 10
6.020111217495689
 20
12.30312006528103
 30
0.0
 10
6.029989625077512
 20
12.30312006528103
 30
0.0
 10
6.039867359789127
 20
12.30312006528103
 30
0.0
 10
6.047980828804973
 20
12.29500525052472
 30
0.0
 10
6.047980828804973
 20
12.28512751581314
 30
0.0
 10
6.047980828804973
 20
12.28512751581314
 30
0.0
 10
6.047980828804973
 20
10.32086124259373
 30
0.0
 10
6.047980828804973
 20
10.32086124259373
 30
0.0
 10
6.047980828804973
 20
10.31098350788212
 30
0.0
 10
6.039867359789127
 20
10.30287003886633
 30
0.0
 10
6.029989625077512
 20
10.30287003886633
 30
0.0
  0
SPLINE
  5
32D
330
1F
100
AcDbEntity
  8
Livello 1
100
AcDbSpline
210
0.0
220
0.0
230
1.0
 70
     9
 71
     3
 72
    26
 73
    22
 74
     0
 42
0.000000001
 43
0.0000000001
 40
0.0
 40
0.0
 40
0.0
 40
0.0
 40
1.0
 40
1.0
 40
1.0
 40
2.0
 40
2.0
 40
2.0
 40
3.0
 40
3.0
 40
3.0
 40
4.0
 40
4.0
 40
4.0
 40
5.0
 40
5.0
 40
5.0
 40
6.0
 40
6.0
 40
6.0
 40
7.0
 40
7.0
 40
7.0
 40
7.0
 10
4.809202545253718
 20
13.17712733248464
 30
0.0
 10
4.80391042103664
 20
13.17712733248464
 30
0.0
 10
4.798971553680829
 20
13.17924283643114
 30
0.0
 10
4.795443695159505
 20
13.18347653580474
 30
0.0
 10
4.795443695159505
 20
13.18347653580474
 30
0.0
 10
4.767574756720428
 20
13.21699085532222
 30
0.0
 10
4.767574756720428
 20
13.21699085532222
 30
0.0
 10
4.761224207659928
 20
13.22439915635593
 30
0.0
 10
4.76228263250335
 20
13.23568722703183
 30
0.0
 10
4.77004419039833
 20
13.24203777609233
 30
0.0
 10
4.777452491432043
 20
13.24838832515283
 30
0.0
 10
4.788741234978139
 20
13.24732922743922
 30
0.0
 10
4.795091111168432
 20
13.23992092640551
 30
0.0
 10
4.795091111168432
 20
13.23992092640551
 30
0.0
 10
4.822960722477724
 20
13.20640660688804
 30
0.0
 10
4.822960722477724
 20
13.20640660688804
 30
0.0
 10
4.82931059866803
 20
13.19899830585433
 30
0.0
 10
4.828252173824608
 20
13.18771023517843
 30
0.0
 10
4.820491288799829
 20
13.18135968611793
 30
0.0
 10
4.817316014269579
 20
13.17853766844894
 30
0.0
 10
4.813435571757182
 20
13.17712733248464
 30
0.0
 10
4.809202545253718
 20
13.17712733248464
 30
0.0
  0
SPLINE
  5
32E
330
1F
100
AcDbEntity
  8
Livello 1
100
AcDbSpline
210
0.0
220
0.0
230
1.0
 70
     9
 71
     3
 72
    23
 73
    19
 74
     0
 42
0.000000001
 43
0.0000000001
 40
0.0
 40
0.0
 40
0.0
 40
0.0
 40
1.0
 40
1.0
 40
1.0
 40
2.0
 40
2.0
 40
2.0
 40
3.0
 40
3.0
 40
3.0
 40
4.0
 40
4.0
 40
4.0
 40
5.0
 40
5.0
 40
5.0
 40
6.0
 40
6.0
 40
6.0
 40
6.0
 10
6.041031425255823
 20
12.42814473362543
 30
0.0
 10
6.041031425255823
 20
12.42814473362543
 30
0.0
 10
5.158733724170581
 20
12.42814473362543
 30
0.0
 10
5.158733724170581
 20
12.42814473362543
 30
0.0
 10
5.148855989458972
 20
12.42814473362543
 30
0.0
 10
5.140742520443119
 20
12.43625820264123
 30
0.0
 10
5.140742520443119
 20
12.44613593735295
 30
0.0
 10
5.140742520443119
 20
12.45601367206453
 30
0.0
 10
5.148855989458972
 20
12.46412714108032
 30
0.0
 10
5.158733724170581
 20
12.46412714108032
 30
0.0
 10
5.158733724170581
 20
12.46412714108032
 30
0.0
 10
6.041031425255823
 20
12.46412714108032
 30
0.0
 10
6.041031425255823
 20
12.46412714108032
 30
0.0
 10
6.050909159967432
 20
12.46412714108032
 30
0.0
 10
6.059022628983285
 20
12.45601367206453
 30
0.0
 10
6.059022628983285
 20
12.44613593735295
 30
0.0
 10
6.059022628983285
 20
12.43625820264123
 30
0.0
 10
6.050909159967432
 20
12.42814473362543
 30
0.0
 10
6.041031425255823
 20
12.42814473362543
 30
0.0
  0
SPLINE
  5
32F
330
1F
100
AcDbEntity
  8
Livello 1
100
AcDbSpline
210
0.0
220
0.0
230
1.0
 70
     9
 71
     3
 72
    26
 73
    22
 74
     0
 42
0.000000001
 43
0.0000000001
 40
0.0
 40
0.0
 40
0.0
 40
0.0
 40
1.0
 40
1.0
 40
1.0
 40
2.0
 40
2.0
 40
2.0
 40
3.0
 40
3.0
 40
3.0
 40
4.0
 40
4.0
 40
4.0
 40
5.0
 40
5.0
 40
5.0
 40
6.0
 40
6.0
 40
6.0
 40
7.0
 40
7.0
 40
7.0
 40
7.0
 10
6.390598939164121
 20
13.17712733248464
 30
0.0
 10
6.386365239790464
 20
13.17712733248464
 30
0.0
 10
6.382484797278074
 20
13.17853766844894
 30
0.0
 10
6.379309522747817
 20
13.18135968611793
 30
0.0
 10
6.371548637723037
 20
13.18771023517843
 30
0.0
 10
6.370490212879623
 20
13.19899830585433
 30
0.0
 10
6.376840089069922
 20
13.20640660688804
 30
0.0
 10
6.376840089069922
 20
13.20640660688804
 30
0.0
 10
6.404709700379207
 20
13.23992092640551
 30
0.0
 10
6.404709700379207
 20
13.23992092640551
 30
0.0
 10
6.411059576569499
 20
13.24768181143022
 30
0.0
 10
6.422348320115602
 20
13.24874090914395
 30
0.0
 10
6.429756621149302
 20
13.24203777609233
 30
0.0
 10
6.437518179044303
 20
13.23568722703183
 30
0.0
 10
6.438576603887717
 20
13.22439915635593
 30
0.0
 10
6.432226054827211
 20
13.21699085532222
 30
0.0
 10
6.432226054827211
 20
13.21699085532222
 30
0.0
 10
6.404357116388133
 20
13.18347653580474
 30
0.0
 10
6.404357116388133
 20
13.18347653580474
 30
0.0
 10
6.400829257866817
 20
13.17924283643114
 30
0.0
 10
6.395890390511006
 20
13.17712733248464
 30
0.0
 10
6.390598939164121
 20
13.17712733248464
 30
0.0
  0
SPLINE
  5
330
330
1F
100
AcDbEntity
  8
Livello 1
100
AcDbSpline
210
0.0
220
0.0
230
1.0
 70
     9
 71
     3
 72
    23
 73
    19
 74
     0
 42
0.000000001
 43
0.0000000001
 40
0.0
 40
0.0
 40
0.0
 40
0.0
 40
1.0
 40
1.0
 40
1.0
 40
2.0
 40
2.0
 40
2.0
 40
3.0
 40
3.0
 40
3.0
 40
4.0
 40
4.0
 40
4.0
 40
5.0
 40
5.0
 40
5.0
 40
6.0
 40
6.0
 40
6.0
 40
6.0
 10
5.169917499963617
 20
10.30287003886633
 30
0.0
 10
5.160039092381794
 20
10.30287003886633
 30
0.0
 10
5.15192562336594
 20
10.31098350788212
 30
0.0
 10
5.15192562336594
 20
10.32086124259373
 30
0.0
 10
5.15192562336594
 20
10.32086124259373
 30
0.0
 10
5.15192562336594
 20
12.28512751581314
 30
0.0
 10
5.15192562336594
 20
12.28512751581314
 30
0.0
 10
5.15192562336594
 20
12.29500525052472
 30
0.0
 10
5.160039092381794
 20
12.30312006528103
 30
0.0
 10
5.169917499963617
 20
12.30312006528103
 30
0.0
 10
5.179795234675239
 20
12.30312006528103
 30
0.0
 10
5.187908703691071
 20
12.29500525052472
 30
0.0
 10
5.187908703691071
 20
12.28512751581314
 30
0.0
 10
5.187908703691071
 20
12.28512751581314
 30
0.0
 10
5.187908703691071
 20
10.32086124259373
 30
0.0
 10
5.187908703691071
 20
10.32086124259373
 30
0.0
 10
5.187908703691071
 20
10.31098350788212
 30
0.0
 10
5.179795234675239
 20
10.30287003886633
 30
0.0
 10
5.169917499963617
 20
10.30287003886633
 30
0.0
  0
SPLINE
  5
331
330
1F
100
AcDbEntity
  8
Livello 1
100
AcDbSpline
210
0.0
220
0.0
230
1.0
 70
     9
 71
     3
 72
    23
 73
    19
 74
     0
 42
0.000000001
 43
0.0000000001
 40
0.0
 40
0.0
 40
0.0
 40
0.0
 40
1.0
 40
1.0
 40
1.0
 40
2.0
 40
2.0
 40
2.0
 40
3.0
 40
3.0
 40
3.0
 40
4.0
 40
4.0
 40
4.0
 40
5.0
 40
5.0
 40
5.0
 40
6.0
 40
6.0
 40
6.0
 40
6.0
 10
6.418397899101165
 20
13.21046401426613
 30
0.0
 10
6.418397899101165
 20
13.21046401426613
 30
0.0
 10
4.781508553069755
 20
13.21046401426613
 30
0.0
 10
4.781508553069755
 20
13.21046401426613
 30
0.0
 10
4.771630818358133
 20
13.21046401426613
 30
0.0
 10
4.763517349342293
 20
13.21857748328205
 30
0.0
 10
4.763517349342293
 20
13.22845521799365
 30
0.0
 10
4.763517349342293
 20
13.23833295270523
 30
0.0
 10
4.771630818358133
 20
13.24644642172114
 30
0.0
 10
4.781508553069755
 20
13.24644642172114
 30
0.0
 10
4.781508553069755
 20
13.24644642172114
 30
0.0
 10
6.418397899101165
 20
13.24644642172114
 30
0.0
 10
6.418397899101165
 20
13.24644642172114
 30
0.0
 10
6.428275633812788
 20
13.24644642172114
 30
0.0
 10
6.43638910282862
 20
13.23833295270523
 30
0.0
 10
6.43638910282862
 20
13.22845521799365
 30
0.0
 10
6.43638910282862
 20
13.21857748328205
 30
0.0
 10
6.428275633812788
 20
13.21046401426613
 30
0.0
 10
6.418397899101165
 20
13.21046401426613
 30
0.0
  0
SPLINE
  5
332
330
1F
100
AcDbEntity
  8
Livello 1
100
AcDbSpline
210
0.0
220
0.0
230
1.0
 70
     9
 71
     3
 72
    23
 73
    19
 74
     0
 42
0.000000001
 43
0.0000000001
 40
0.0
 40
0.0
 40
0.0
 40
0.0
 40
1.0
 40
1.0
 40
1.0
 40
2.0
 40
2.0
 40
2.0
 40
3.0
 40
3.0
 40
3.0
 40
4.0
 40
4.0
 40
4.0
 40
5.0
 40
5.0
 40
5.0
 40
6.0
 40
6.0
 40
6.0
 40
6.0
 10
6.457274321337749
 20
13.22154080369552
 30
0.0
 10
6.457274321337749
 20
13.22154080369552
 30
0.0
 10
4.742774106447903
 20
13.22154080369552
 30
0.0
 10
4.742774106447903
 20
13.22154080369552
 30
0.0
 10
4.732896371736281
 20
13.22154080369552
 30
0.0
 10
4.72478222985022
 20
13.22965427271134
 30
0.0
 10
4.72478222985022
 20
13.23953200742295
 30
0.0
 10
4.72478222985022
 20
13.24940974213464
 30
0.0
 10
4.732896371736281
 20
13.25752321115044
 30
0.0
 10
4.742774106447903
 20
13.25752321115044
 30
0.0
 10
4.742774106447903
 20
13.25752321115044
 30
0.0
 10
6.457274321337749
 20
13.25752321115044
 30
0.0
 10
6.457274321337749
 20
13.25752321115044
 30
0.0
 10
6.467152056049357
 20
13.25752321115044
 30
0.0
 10
6.475265525065211
 20
13.24940974213464
 30
0.0
 10
6.475265525065211
 20
13.23953200742295
 30
0.0
 10
6.475265525065211
 20
13.22965427271134
 30
0.0
 10
6.467152056049357
 20
13.22154080369552
 30
0.0
 10
6.457274321337749
 20
13.22154080369552
 30
0.0
  0
SPLINE
  5
333
330
1F
100
AcDbEntity
  8
Livello 1
100
AcDbSpline
210
0.0
220
0.0
230
1.0
 70
     9
 71
     3
 72
    47
 73
    43
 74
     0
 42
0.000000001
 43
0.0000000001
 40
0.0
 40
0.0
 40
0.0
 40
0.0
 40
1.0
 40
1.0
 40
1.0
 40
2.0
 40
2.0
 40
2.0
 40
3.0
 40
3.0
 40
3.0
 40
4.0
 40
4.0
 40
4.0
 40
5.0
 40
5.0
 40
5.0
 40
6.0
 40
6.0
 40
6.0
 40
7.0
 40
7.0
 40
7.0
 40
8.0
 40
8.0
 40
8.0
 40
9.0
 40
9.0
 40
9.0
 40
10.0
 40
10.0
 40
10.0
 40
11.0
 40
11.0
 40
11.0
 40
12.0
 40
12.0
 40
12.0
 40
13.0
 40
13.0
 40
13.0
 40
14.0
 40
14.0
 40
14.0
 40
14.0
 10
6.457274321337749
 20
13.22154080369552
 30
0.0
 10
6.452688037973004
 20
13.22154080369552
 30
0.0
 10
6.448101754608266
 20
13.22330372365081
 30
0.0
 10
6.444573896086943
 20
13.22683225504232
 30
0.0
 10
6.437518179044303
 20
13.23388797208503
 30
0.0
 10
6.437518179044303
 20
13.24517604276096
 30
0.0
 10
6.444573896086943
 20
13.25223175980352
 30
0.0
 10
6.444573896086943
 20
13.25223175980352
 30
0.0
 10
6.514071295929525
 20
13.32137590278483
 30
0.0
 10
6.514071295929525
 20
13.32137590278483
 30
0.0
 10
6.514071295929525
 20
13.32137590278483
 30
0.0
 10
4.642585077627053
 20
13.32137590278483
 30
0.0
 10
4.642585077627053
 20
13.32137590278483
 30
0.0
 10
4.632707342915438
 20
13.32137590278483
 30
0.0
 10
4.624946457890651
 20
13.32949071754115
 30
0.0
 10
4.624946457890651
 20
13.33936845225273
 30
0.0
 10
4.624946457890651
 20
13.33936845225273
 30
0.0
 10
4.624946457890651
 20
14.17721567426554
 30
0.0
 10
4.624946457890651
 20
14.17721567426554
 30
0.0
 10
4.624946457890651
 20
14.18709340897715
 30
0.0
 10
4.632707342915438
 20
14.19520687799294
 30
0.0
 10
4.642585077627053
 20
14.19520687799294
 30
0.0
 10
4.652462812338669
 20
14.19520687799294
 30
0.0
 10
4.660576954224723
 20
14.18709340897715
 30
0.0
 10
4.660576954224723
 20
14.17721567426554
 30
0.0
 10
4.660576954224723
 20
14.17721567426554
 30
0.0
 10
4.660576954224723
 20
13.35735965598022
 30
0.0
 10
4.660576954224723
 20
13.35735965598022
 30
0.0
 10
4.660576954224723
 20
13.35735965598022
 30
0.0
 10
6.557110093297318
 20
13.35735965598022
 30
0.0
 10
6.557110093297318
 20
13.35735965598022
 30
0.0
 10
6.56451839433101
 20
13.35735965598022
 30
0.0
 10
6.570868270521316
 20
13.35277337261544
 30
0.0
 10
6.573690961060499
 20
13.34607023956394
 30
0.0
 10
6.576512978729461
 20
13.33936845225273
 30
0.0
 10
6.574748713033713
 20
13.33196015121902
 30
0.0
 10
6.569809845677895
 20
13.32666735413173
 30
0.0
 10
6.569809845677895
 20
13.32666735413173
 30
0.0
 10
6.469974073718333
 20
13.22683225504232
 30
0.0
 10
6.469974073718333
 20
13.22683225504232
 30
0.0
 10
6.466446215197002
 20
13.22330372365081
 30
0.0
 10
6.461859931832279
 20
13.22154080369552
 30
0.0
 10
6.457274321337749
 20
13.22154080369552
 30
0.0
  0
SPLINE
  5
334
330
1F
100
AcDbEntity
  8
Livello 1
100
AcDbSpline
210
0.0
220
0.0
230
1.0
 70
     9
 71
     3
 72
    23
 73
    19
 74
     0
 42
0.000000001
 43
0.0000000001
 40
0.0
 40
0.0
 40
0.0
 40
0.0
 40
1.0
 40
1.0
 40
1.0
 40
2.0
 40
2.0
 40
2.0
 40
3.0
 40
3.0
 40
3.0
 40
4.0
 40
4.0
 40
4.0
 40
5.0
 40
5.0
 40
5.0
 40
6.0
 40
6.0
 40
6.0
 40
6.0
 10
4.64272638037157
 20
13.32141223777631
 30
0.0
 10
4.63284797278974
 20
13.32141223777631
 30
0.0
 10
4.624734503773893
 20
13.32952570679214
 30
0.0
 10
4.624734503773893
 20
13.33940344150375
 30
0.0
 10
4.624734503773893
 20
13.33940344150375
 30
0.0
 10
4.624734503773893
 20
14.17725066351653
 30
0.0
 10
4.624734503773893
 20
14.17725066351653
 30
0.0
 10
4.624734503773893
 20
14.18712839822814
 30
0.0
 10
4.63284797278974
 20
14.19524186724402
 30
0.0
 10
4.64272638037157
 20
14.19524186724402
 30
0.0
 10
4.652604115083178
 20
14.19524186724402
 30
0.0
 10
4.660717584099039
 20
14.18712839822814
 30
0.0
 10
4.660717584099039
 20
14.17725066351653
 30
0.0
 10
4.660717584099039
 20
14.17725066351653
 30
0.0
 10
4.660717584099039
 20
13.33940344150375
 30
0.0
 10
4.660717584099039
 20
13.33940344150375
 30
0.0
 10
4.660717584099039
 20
13.32952570679214
 30
0.0
 10
4.652604115083178
 20
13.32141223777631
 30
0.0
 10
4.64272638037157
 20
13.32141223777631
 30
0.0
  0
SPLINE
  5
335
330
1F
100
AcDbEntity
  8
Livello 1
100
AcDbSpline
210
0.0
220
0.0
230
1.0
 70
     9
 71
     3
 72
    17
 73
    13
 74
     0
 42
0.000000001
 43
0.0000000001
 40
0.0
 40
0.0
 40
0.0
 40
0.0
 40
1.0
 40
1.0
 40
1.0
 40
2.0
 40
2.0
 40
2.0
 40
3.0
 40
3.0
 40
3.0
 40
4.0
 40
4.0
 40
4.0
 40
4.0
 10
5.594415167805898
 20
5.059145376124916
 30
0.0
 10
4.126506409585566
 20
5.059145376124916
 30
0.0
 10
2.932353551361906
 20
6.253298234348534
 30
0.0
 10
2.932353551361906
 20
7.721206319698723
 30
0.0
 10
2.932353551361906
 20
9.189114405048826
 30
0.0
 10
4.126506409585566
 20
10.38326726327244
 30
0.0
 10
5.594415167805898
 20
10.38326726327244
 30
0.0
 10
7.062323253156016
 20
10.38326726327244
 30
0.0
 10
8.256476111379683
 20
9.189114405048826
 30
0.0
 10
8.256476111379683
 20
7.721206319698723
 30
0.0
 10
8.256476111379683
 20
6.253298234348534
 30
0.0
 10
7.062323253156016
 20
5.059145376124916
 30
0.0
 10
5.594415167805898
 20
5.059145376124916
 30
0.0
  0
SPLINE
  5
336
330
1F
100
AcDbEntity
  8
Livello 1
100
AcDbSpline
210
0.0
220
0.0
230
1.0
 70
     9
 71
     3
 72
    17
 73
    13
 74
     0
 42
0.000000001
 43
0.0000000001
 40
0.0
 40
0.0
 40
0.0
 40
0.0
 40
1.0
 40
1.0
 40
1.0
 40
2.0
 40
2.0
 40
2.0
 40
3.0
 40
3.0
 40
3.0
 40
4.0
 40
4.0
 40
4.0
 40
4.0
 10
5.594415167805898
 20
10.34728418294733
 30
0.0
 10
4.146261879008797
 20
10.34728418294733
 30
0.0
 10
2.968337304557252
 20
9.169358935625524
 30
0.0
 10
2.968337304557252
 20
7.721206319698723
 30
0.0
 10
2.968337304557252
 20
6.273053703771807
 30
0.0
 10
4.146261879008797
 20
5.095128792885134
 30
0.0
 10
5.594415167805898
 20
5.095128792885134
 30
0.0
 10
7.042567783732785
 20
5.095128792885134
 30
0.0
 10
8.220492358184323
 20
6.273053703771807
 30
0.0
 10
8.220492358184323
 20
7.721206319698723
 30
0.0
 10
8.220492358184323
 20
9.169358935625524
 30
0.0
 10
7.042567783732785
 20
10.34728418294733
 30
0.0
 10
5.594415167805898
 20
10.34728418294733
 30
0.0
  0
SPLINE
  5
337
330
1F
100
AcDbEntity
  8
Livello 1
100
AcDbSpline
210
0.0
220
0.0
230
1.0
 70
     9
 71
     3
 72
    17
 73
    13
 74
     0
 42
0.000000001
 43
0.0000000001
 40
0.0
 40
0.0
 40
0.0
 40
0.0
 40
1.0
 40
1.0
 40
1.0
 40
2.0
 40
2.0
 40
2.0
 40
3.0
 40
3.0
 40
3.0
 40
4.0
 40
4.0
 40
4.0
 40
4.0
 10
5.594415167805898
 20
5.158946831703644
 30
0.0
 10
4.181539791351802
 20
5.158946831703644
 30
0.0
 10
3.032542580182749
 20
6.308296626863722
 30
0.0
 10
3.032542580182749
 20
7.721171330447646
 30
0.0
 10
3.032542580182749
 20
9.134046706901756
 30
0.0
 10
4.181539791351802
 20
10.28339650206194
 30
0.0
 10
5.594415167805898
 20
10.28339650206194
 30
0.0
 10
7.007289871389787
 20
10.28339650206194
 30
0.0
 10
8.156287082558833
 20
9.134046706901756
 30
0.0
 10
8.156287082558833
 20
7.721171330447646
 30
0.0
 10
8.156287082558833
 20
6.308296626863722
 30
0.0
 10
7.007289871389787
 20
5.158946831703644
 30
0.0
 10
5.594415167805898
 20
5.158946831703644
 30
0.0
  0
SPLINE
  5
338
330
1F
100
AcDbEntity
  8
Livello 1
100
AcDbSpline
210
0.0
220
0.0
230
1.0
 70
     9
 71
     3
 72
    17
 73
    13
 74
     0
 42
0.000000001
 43
0.0000000001
 40
0.0
 40
0.0
 40
0.0
 40
0.0
 40
1.0
 40
1.0
 40
1.0
 40
2.0
 40
2.0
 40
2.0
 40
3.0
 40
3.0
 40
3.0
 40
4.0
 40
4.0
 40
4.0
 40
4.0
 10
5.594415167805898
 20
10.24741342173675
 30
0.0
 10
4.201295260775026
 20
10.24741342173675
 30
0.0
 10
3.068173076516828
 20
9.114291237478511
 30
0.0
 10
3.068173076516828
 20
7.721171330447646
 30
0.0
 10
3.068173076516828
 20
6.328052096287024
 30
0.0
 10
4.201295260775026
 20
5.194930248463919
 30
0.0
 10
5.594415167805898
 20
5.194930248463919
 30
0.0
 10
6.987181817975489
 20
5.194930248463919
 30
0.0
 10
8.120656586224761
 20
6.328052096287024
 30
0.0
 10
8.120656586224761
 20
7.721171330447646
 30
0.0
 10
8.120656586224761
 20
9.114291237478511
 30
0.0
 10
6.987181817975489
 20
10.24741342173675
 30
0.0
 10
5.594415167805898
 20
10.24741342173675
 30
0.0
  0
SPLINE
  5
339
330
1F
100
AcDbEntity
  8
Livello 1
100
AcDbSpline
210
0.0
220
0.0
230
1.0
 70
    11
 71
     3
 72
    17
 73
    13
 74
     0
 42
0.000000001
 43
0.0000000001
 40
0.0
 40
0.0
 40
0.0
 40
0.0
 40
1.0
 40
1.0
 40
1.0
 40
2.0
 40
2.0
 40
2.0
 40
3.0
 40
3.0
 40
3.0
 40
4.0
 40
4.0
 40
4.0
 40
4.0
 10
5.594415167805898
 20
5.175703318592155
 30
0.0
 10
4.190712358081277
 20
5.175703318592155
 30
0.0
 10
3.049123447945937
 20
6.317644812718526
 30
0.0
 10
3.049123447945937
 20
7.720995038452144
 30
0.0
 10
3.049123447945937
 20
9.124697848176737
 30
0.0
 10
4.190712358081277
 20
10.26663934230313
 30
0.0
 10
5.594415167805898
 20
10.26663934230313
 30
0.0
 10
6.998117977530512
 20
10.26663934230313
 30
0.0
 10
8.139706887665852
 20
9.124697848176737
 30
0.0
 10
8.139706887665852
 20
7.720995038452144
 30
0.0
 10
8.139706887665852
 20
6.317644812718526
 30
0.0
 10
6.998117977530512
 20
5.175703318592155
 30
0.0
 10
5.594415167805898
 20
5.175703318592155
 30
0.0
  0
SPLINE
  5
33A
330
1F
100
AcDbEntity
  8
Livello 1
100
AcDbSpline
210
0.0
220
0.0
230
1.0
 70
     9
 71
     3
 72
    17
 73
    13
 74
     0
 42
0.000000001
 43
0.0000000001
 40
0.0
 40
0.0
 40
0.0
 40
0.0
 40
1.0
 40
1.0
 40
1.0
 40
2.0
 40
2.0
 40
2.0
 40
3.0
 40
3.0
 40
3.0
 40
4.0
 40
4.0
 40
4.0
 40
4.0
 10
5.594415167805898
 20
10.23065626197802
 30
0.0
 10
4.210467827504508
 20
10.23065626197802
 30
0.0
 10
3.084753944280002
 20
9.10494237875352
 30
0.0
 10
3.084753944280002
 20
7.720995038452144
 30
0.0
 10
3.084753944280002
 20
6.337400282141828
 30
0.0
 10
4.210467827504508
 20
5.211686735352429
 30
0.0
 10
5.594415167805898
 20
5.211686735352429
 30
0.0
 10
6.978361835237087
 20
5.211686735352429
 30
0.0
 10
8.104075718461579
 20
6.337400282141828
 30
0.0
 10
8.104075718461579
 20
7.720995038452144
 30
0.0
 10
8.104075718461579
 20
9.10494237875352
 30
0.0
 10
6.978361835237087
 20
10.23065626197802
 30
0.0
 10
5.594415167805898
 20
10.23065626197802
 30
0.0
  0
SPLINE
  5
33B
330
1F
100
AcDbEntity
  8
Livello 1
100
AcDbSpline
210
0.0
220
0.0
230
1.0
 70
     9
 71
     3
 72
    17
 73
    13
 74
     0
 42
0.000000001
 43
0.0000000001
 40
0.0
 40
0.0
 40
0.0
 40
0.0
 40
1.0
 40
1.0
 40
1.0
 40
2.0
 40
2.0
 40
2.0
 40
3.0
 40
3.0
 40
3.0
 40
4.0
 40
4.0
 40
4.0
 40
4.0
 10
5.594415167805898
 20
5.192319512041422
 30
0.0
 10
4.199884251940545
 20
5.192319512041422
 30
0.0
 10
3.065703642838919
 20
6.326852368699036
 30
0.0
 10
3.065703642838919
 20
7.721030027703136
 30
0.0
 10
3.065703642838919
 20
9.115560943568539
 30
0.0
 10
4.199884251940545
 20
10.25009413666123
 30
0.0
 10
5.594415167805898
 20
10.25009413666123
 30
0.0
 10
6.988945410801044
 20
10.25009413666123
 30
0.0
 10
8.12312601990267
 20
9.115560943568539
 30
0.0
 10
8.12312601990267
 20
7.721030027703136
 30
0.0
 10
8.12312601990267
 20
6.326852368699036
 30
0.0
 10
6.988945410801044
 20
5.192319512041422
 30
0.0
 10
5.594415167805898
 20
5.192319512041422
 30
0.0
  0
SPLINE
  5
33C
330
1F
100
AcDbEntity
  8
Livello 1
100
AcDbSpline
210
0.0
220
0.0
230
1.0
 70
     9
 71
     3
 72
    17
 73
    13
 74
     0
 42
0.000000001
 43
0.0000000001
 40
0.0
 40
0.0
 40
0.0
 40
0.0
 40
1.0
 40
1.0
 40
1.0
 40
2.0
 40
2.0
 40
2.0
 40
3.0
 40
3.0
 40
3.0
 40
4.0
 40
4.0
 40
4.0
 40
4.0
 10
5.594415167805898
 20
10.21411105633603
 30
0.0
 10
4.219639721363762
 20
10.21411105633603
 30
0.0
 10
3.10133413917299
 20
9.095805474145237
 30
0.0
 10
3.10133413917299
 20
7.721030027703136
 30
0.0
 10
3.10133413917299
 20
6.346607838122338
 30
0.0
 10
4.219639721363762
 20
5.227950008375557
 30
0.0
 10
5.594415167805898
 20
5.227950008375557
 30
0.0
 10
6.96918994137782
 20
5.227950008375557
 30
0.0
 10
8.087142939577539
 20
6.346607838122338
 30
0.0
 10
8.087142939577539
 20
7.721030027703136
 30
0.0
 10
8.087142939577539
 20
9.095805474145237
 30
0.0
 10
6.96918994137782
 20
10.21411105633603
 30
0.0
 10
5.594415167805898
 20
10.21411105633603
 30
0.0
  0
SPLINE
  5
33D
330
1F
100
AcDbEntity
  8
Livello 1
100
AcDbSpline
210
0.0
220
0.0
230
1.0
 70
     9
 71
     3
 72
    17
 73
    13
 74
     0
 42
0.000000001
 43
0.0000000001
 40
0.0
 40
0.0
 40
0.0
 40
0.0
 40
1.0
 40
1.0
 40
1.0
 40
2.0
 40
2.0
 40
2.0
 40
3.0
 40
3.0
 40
3.0
 40
4.0
 40
4.0
 40
4.0
 40
4.0
 10
5.594415167805898
 20
5.247952084731423
 30
0.0
 10
4.230575880918806
 20
5.247952084731423
 30
0.0
 10
3.121089608596214
 20
6.357438357054036
 30
0.0
 10
3.121089608596214
 20
7.720924387079833
 30
0.0
 10
3.121089608596214
 20
9.085115585087834
 30
0.0
 10
4.230575880918806
 20
10.19460185741042
 30
0.0
 10
5.594415167805898
 20
10.19460185741042
 30
0.0
 10
6.95825378182279
 20
10.19460185741042
 30
0.0
 10
8.067740054145367
 20
9.085115585087834
 30
0.0
 10
8.067740054145367
 20
7.720924387079833
 30
0.0
 10
8.067740054145367
 20
6.357438357054036
 30
0.0
 10
6.95825378182279
 20
5.247952084731423
 30
0.0
 10
5.594415167805898
 20
5.247952084731423
 30
0.0
  0
SPLINE
  5
33E
330
1F
100
AcDbEntity
  8
Livello 1
100
AcDbSpline
210
0.0
220
0.0
230
1.0
 70
     9
 71
     3
 72
    17
 73
    13
 74
     0
 42
0.000000001
 43
0.0000000001
 40
0.0
 40
0.0
 40
0.0
 40
0.0
 40
1.0
 40
1.0
 40
1.0
 40
2.0
 40
2.0
 40
2.0
 40
3.0
 40
3.0
 40
3.0
 40
4.0
 40
4.0
 40
4.0
 40
4.0
 10
5.594415167805898
 20
10.15861877708522
 30
0.0
 10
4.250331350342037
 20
10.15861877708522
 30
0.0
 10
3.157073361791567
 20
9.065007531673529
 30
0.0
 10
3.157073361791567
 20
7.720924387079833
 30
0.0
 10
3.157073361791567
 20
6.377193826477252
 30
0.0
 10
4.250331350342037
 20
5.28358258106553
 30
0.0
 10
5.594415167805898
 20
5.28358258106553
 30
0.0
 10
6.938498312399552
 20
5.28358258106553
 30
0.0
 10
8.031756300950029
 20
6.377193826477252
 30
0.0
 10
8.031756300950029
 20
7.720924387079833
 30
0.0
 10
8.031756300950029
 20
9.065007531673529
 30
0.0
 10
6.938498312399552
 20
10.15861877708522
 30
0.0
 10
5.594415167805898
 20
10.15861877708522
 30
0.0
  0
SPLINE
  5
33F
330
1F
100
AcDbEntity
  8
Livello 1
100
AcDbSpline
210
0.0
220
0.0
230
1.0
 70
     9
 71
     3
 72
    17
 73
    13
 74
     0
 42
0.000000001
 43
0.0000000001
 40
0.0
 40
0.0
 40
0.0
 40
0.0
 40
1.0
 40
1.0
 40
1.0
 40
2.0
 40
2.0
 40
2.0
 40
3.0
 40
3.0
 40
3.0
 40
4.0
 40
4.0
 40
4.0
 40
4.0
 10
5.594415167805898
 20
5.258993884909727
 30
0.0
 10
4.236573173118031
 20
5.258993884909727
 30
0.0
 10
3.132025768151244
 20
6.363541289876536
 30
0.0
 10
3.132025768151244
 20
7.721030027703136
 30
0.0
 10
3.132025768151244
 20
9.078871349520824
 30
0.0
 10
4.236573173118031
 20
10.18341875448754
 30
0.0
 10
5.594415167805898
 20
10.18341875448754
 30
0.0
 10
6.951903905632498
 20
10.18341875448754
 30
0.0
 10
8.056451310599278
 20
9.078871349520824
 30
0.0
 10
8.056451310599278
 20
7.721030027703136
 30
0.0
 10
8.056451310599278
 20
6.363541289876536
 30
0.0
 10
6.951903905632498
 20
5.258993884909727
 30
0.0
 10
5.594415167805898
 20
5.258993884909727
 30
0.0
  0
SPLINE
  5
340
330
1F
100
AcDbEntity
  8
Livello 1
100
AcDbSpline
210
0.0
220
0.0
230
1.0
 70
     9
 71
     3
 72
    17
 73
    13
 74
     0
 42
0.000000001
 43
0.0000000001
 40
0.0
 40
0.0
 40
0.0
 40
0.0
 40
1.0
 40
1.0
 40
1.0
 40
2.0
 40
2.0
 40
2.0
 40
3.0
 40
3.0
 40
3.0
 40
4.0
 40
4.0
 40
4.0
 40
4.0
 10
5.594415167805898
 20
10.14743567416243
 30
0.0
 10
4.256328642541262
 20
10.14743567416243
 30
0.0
 10
3.168009521346597
 20
9.059115880097522
 30
0.0
 10
3.168009521346597
 20
7.721030027703136
 30
0.0
 10
3.168009521346597
 20
6.383296759299724
 30
0.0
 10
4.256328642541262
 20
5.294624717678942
 30
0.0
 10
5.594415167805898
 20
5.294624717678942
 30
0.0
 10
6.932148436209253
 20
5.294624717678942
 30
0.0
 10
8.020820141394999
 20
6.383296759299724
 30
0.0
 10
8.020820141394999
 20
7.721030027703136
 30
0.0
 10
8.020820141394999
 20
9.059115880097522
 30
0.0
 10
6.932148436209253
 20
10.14743567416243
 30
0.0
 10
5.594415167805898
 20
10.14743567416243
 30
0.0
  0
SPLINE
  5
341
330
1F
100
AcDbEntity
  8
Livello 1
100
AcDbSpline
210
0.0
220
0.0
230
1.0
 70
     9
 71
     3
 72
    17
 73
    13
 74
     0
 42
0.000000001
 43
0.0000000001
 40
0.0
 40
0.0
 40
0.0
 40
0.0
 40
1.0
 40
1.0
 40
1.0
 40
2.0
 40
2.0
 40
2.0
 40
3.0
 40
3.0
 40
3.0
 40
4.0
 40
4.0
 40
4.0
 40
4.0
 10
5.594415167805898
 20
5.53648892467433
 30
0.0
 10
4.389678734018268
 20
5.53648892467433
 30
0.0
 10
3.409662110660299
 20
6.516505548032313
 30
0.0
 10
3.409662110660299
 20
7.721241308949743
 30
0.0
 10
3.409662110660299
 20
8.925625158746242
 30
0.0
 10
4.389678734018268
 20
9.905994366095342
 30
0.0
 10
5.594415167805898
 20
9.905994366095342
 30
0.0
 10
6.799150928723314
 20
9.905994366095342
 30
0.0
 10
7.779167552081283
 20
8.925625158746242
 30
0.0
 10
7.779167552081283
 20
7.721241308949743
 30
0.0
 10
7.779167552081283
 20
6.516505548032313
 30
0.0
 10
6.799150928723314
 20
5.53648892467433
 30
0.0
 10
5.594415167805898
 20
5.53648892467433
 30
0.0
  0
SPLINE
  5
342
330
1F
100
AcDbEntity
  8
Livello 1
100
AcDbSpline
210
0.0
220
0.0
230
1.0
 70
     9
 71
     3
 72
    17
 73
    13
 74
     0
 42
0.000000001
 43
0.0000000001
 40
0.0
 40
0.0
 40
0.0
 40
0.0
 40
1.0
 40
1.0
 40
1.0
 40
2.0
 40
2.0
 40
2.0
 40
3.0
 40
3.0
 40
3.0
 40
4.0
 40
4.0
 40
4.0
 40
4.0
 10
5.594415167805898
 20
9.870011285770118
 30
0.0
 10
4.409434203441499
 20
9.870011285770118
 30
0.0
 10
3.445292606994371
 20
8.90586901645284
 30
0.0
 10
3.445292606994371
 20
7.721241308949743
 30
0.0
 10
3.445292606994371
 20
6.53626101745553
 30
0.0
 10
4.409434203441499
 20
5.572119421008324
 30
0.0
 10
5.594415167805898
 20
5.572119421008324
 30
0.0
 10
6.779395459300083
 20
5.572119421008324
 30
0.0
 10
7.743184471756144
 20
6.53626101745553
 30
0.0
 10
7.743184471756144
 20
7.721241308949743
 30
0.0
 10
7.743184471756144
 20
8.90586901645284
 30
0.0
 10
6.779395459300083
 20
9.870011285770118
 30
0.0
 10
5.594415167805898
 20
9.870011285770118
 30
0.0
  0
SPLINE
  5
343
330
1F
100
AcDbEntity
  8
Livello 1
100
AcDbSpline
210
0.0
220
0.0
230
1.0
 70
     9
 71
     3
 72
    26
 73
    22
 74
     0
 42
0.000000001
 43
0.0000000001
 40
0.0
 40
0.0
 40
0.0
 40
0.0
 40
1.0
 40
1.0
 40
1.0
 40
2.0
 40
2.0
 40
2.0
 40
3.0
 40
3.0
 40
3.0
 40
4.0
 40
4.0
 40
4.0
 40
5.0
 40
5.0
 40
5.0
 40
6.0
 40
6.0
 40
6.0
 40
7.0
 40
7.0
 40
7.0
 40
7.0
 10
6.024415568241614
 20
12.27009963249915
 30
0.0
 10
6.024415568241614
 20
12.27009963249915
 30
0.0
 10
6.024415568241614
 20
12.27009963249915
 30
0.0
 10
6.024415568241614
 20
12.27009963249915
 30
0.0
 10
6.014537160659784
 20
12.27009963249915
 30
0.0
 10
6.006423691643938
 20
12.27821310151503
 30
0.0
 10
6.006423691643938
 20
12.28809083622664
 30
0.0
 10
6.006423691643938
 20
12.63169604718675
 30
0.0
 10
6.136598508590694
 20
12.95836780639263
 30
0.0
 10
6.372253805705177
 20
13.20848846732383
 30
0.0
 10
6.378956938756751
 20
13.21554283862602
 30
0.0
 10
6.390245682302854
 20
13.21589676835754
 30
0.0
 10
6.397653983336546
 20
13.20919363530595
 30
0.0
 10
6.404709700379207
 20
13.20213791826333
 30
0.0
 10
6.405062284370281
 20
13.19084850184703
 30
0.0
 10
6.398359824188908
 20
13.18379278480432
 30
0.0
 10
6.168701146403442
 20
12.94037660266514
 30
0.0
 10
6.042406771969076
 20
12.62252348045723
 30
0.0
 10
6.042406771969076
 20
12.28809083622664
 30
0.0
 10
6.042406771969076
 20
12.27821310151503
 30
0.0
 10
6.034293302953223
 20
12.27009963249915
 30
0.0
 10
6.024415568241614
 20
12.27009963249915
 30
0.0
  0
SPLINE
  5
344
330
1F
100
AcDbEntity
  8
Livello 1
100
AcDbSpline
210
0.0
220
0.0
230
1.0
 70
     9
 71
     3
 72
    23
 73
    19
 74
     0
 42
0.000000001
 43
0.0000000001
 40
0.0
 40
0.0
 40
0.0
 40
0.0
 40
1.0
 40
1.0
 40
1.0
 40
2.0
 40
2.0
 40
2.0
 40
3.0
 40
3.0
 40
3.0
 40
4.0
 40
4.0
 40
4.0
 40
5.0
 40
5.0
 40
5.0
 40
6.0
 40
6.0
 40
6.0
 40
6.0
 10
5.169917499963617
 20
12.26988835125263
 30
0.0
 10
5.160039092381794
 20
12.26988835125263
 30
0.0
 10
5.15192562336594
 20
12.27800182026843
 30
0.0
 10
5.15192562336594
 20
12.28787955498015
 30
0.0
 10
5.15192562336594
 20
12.62231219921074
 30
0.0
 10
5.025631248931574
 20
12.94016532141853
 30
0.0
 10
4.795972571146108
 20
13.18358150355783
 30
0.0
 10
4.78927011096475
 20
13.19099115033194
 30
0.0
 10
4.789622694955816
 20
13.20227922100781
 30
0.0
 10
4.796678411998456
 20
13.20898235405943
 30
0.0
 10
4.80408671303217
 20
13.21568548711104
 30
0.0
 10
4.815375456578266
 20
13.21533155737953
 30
0.0
 10
4.822078589629846
 20
13.20827718607722
 30
0.0
 10
5.058086470735389
 20
12.95815652514602
 30
0.0
 10
5.187908703691071
 20
12.63148476594023
 30
0.0
 10
5.187908703691071
 20
12.28787955498015
 30
0.0
 10
5.187908703691071
 20
12.27800182026843
 30
0.0
 10
5.179795234675239
 20
12.26988835125263
 30
0.0
 10
5.169917499963617
 20
12.26988835125263
 30
0.0
  0
SPLINE
  5
345
330
1F
100
AcDbEntity
  8
Livello 1
100
AcDbSpline
210
0.0
220
0.0
230
1.0
 70
     9
 71
     3
 72
    26
 73
    22
 74
     0
 42
0.000000001
 43
0.0000000001
 40
0.0
 40
0.0
 40
0.0
 40
0.0
 40
1.0
 40
1.0
 40
1.0
 40
2.0
 40
2.0
 40
2.0
 40
3.0
 40
3.0
 40
3.0
 40
4.0
 40
4.0
 40
4.0
 40
5.0
 40
5.0
 40
5.0
 40
6.0
 40
6.0
 40
6.0
 40
7.0
 40
7.0
 40
7.0
 40
7.0
 10
6.385625082557304
 20
13.18090078863332
 30
0.0
 10
6.381743967174692
 20
13.18090078863332
 30
0.0
 10
6.377863524662302
 20
13.18231112459764
 30
0.0
 10
6.374335666140993
 20
13.18478055827552
 30
0.0
 10
6.366574781116213
 20
13.19113110733602
 30
0.0
 10
6.365516356272792
 20
13.20241917801192
 30
0.0
 10
6.371513648472017
 20
13.21018006303672
 30
0.0
 10
6.381038799192566
 20
13.22182206344413
 30
0.0
 10
6.390563949913108
 20
13.23346406385153
 30
0.0
 10
6.400441684624723
 20
13.24475348026783
 30
0.0
 10
6.406791560815008
 20
13.25251436529254
 30
0.0
 10
6.418080304361112
 20
13.25321953327472
 30
0.0
 10
6.425488605394832
 20
13.24686898421424
 30
0.0
 10
6.433249490419612
 20
13.24051978089414
 30
0.0
 10
6.43395533127196
 20
13.22923036447781
 30
0.0
 10
6.427605455081668
 20
13.22146947945302
 30
0.0
 10
6.418080304361112
 20
13.21053399276823
 30
0.0
 10
6.408908410501858
 20
13.19924457635193
 30
0.0
 10
6.399735843772376
 20
13.18760257594454
 30
0.0
 10
6.396207985251052
 20
13.18337022231122
 30
0.0
 10
6.390916533904174
 20
13.18090078863332
 30
0.0
 10
6.385625082557304
 20
13.18090078863332
 30
0.0
  0
SPLINE
  5
346
330
1F
100
AcDbEntity
  8
Livello 1
100
AcDbSpline
210
0.0
220
0.0
230
1.0
 70
     9
 71
     3
 72
    26
 73
    22
 74
     0
 42
0.000000001
 43
0.0000000001
 40
0.0
 40
0.0
 40
0.0
 40
0.0
 40
1.0
 40
1.0
 40
1.0
 40
2.0
 40
2.0
 40
2.0
 40
3.0
 40
3.0
 40
3.0
 40
4.0
 40
4.0
 40
4.0
 40
5.0
 40
5.0
 40
5.0
 40
6.0
 40
6.0
 40
6.0
 40
7.0
 40
7.0
 40
7.0
 40
7.0
 10
4.808638007145887
 20
13.18083081013131
 30
0.0
 10
4.803345882928795
 20
13.18083081013131
 30
0.0
 10
4.798054431581924
 20
13.18330024380924
 30
0.0
 10
4.794526573060608
 20
13.18753259744244
 30
0.0
 10
4.785707263192399
 20
13.19917459784983
 30
0.0
 10
4.776182112471857
 20
13.21046401426613
 30
0.0
 10
4.766656961751301
 20
13.22139950095104
 30
0.0
 10
4.760307085561017
 20
13.22880780198474
 30
0.0
 10
4.761012926413364
 20
13.24009721840105
 30
0.0
 10
4.768773811438144
 20
13.24679900571215
 30
0.0
 10
4.776182112471857
 20
13.25314955477265
 30
0.0
 10
4.787470856017961
 20
13.25244438679053
 30
0.0
 10
4.793820732208253
 20
13.24468350176573
 30
0.0
 10
4.803698466919868
 20
13.23339408534946
 30
0.0
 10
4.813223617640403
 20
13.22175208494204
 30
0.0
 10
4.822748768360959
 20
13.20975750054364
 30
0.0
 10
4.828746060560185
 20
13.20199661551882
 30
0.0
 10
4.827335051725697
 20
13.19070854484292
 30
0.0
 10
4.819573493830709
 20
13.18471057977353
 30
0.0
 10
4.816398892170667
 20
13.18224114609563
 30
0.0
 10
4.812518449658277
 20
13.18083081013131
 30
0.0
 10
4.808638007145887
 20
13.18083081013131
 30
0.0
  0
SPLINE
  5
347
330
1F
100
AcDbEntity
  8
Livello 1
100
AcDbSpline
210
0.0
220
0.0
230
1.0
 70
     9
 71
     3
 72
    23
 73
    19
 74
     0
 42
0.000000001
 43
0.0000000001
 40
0.0
 40
0.0
 40
0.0
 40
0.0
 40
1.0
 40
1.0
 40
1.0
 40
2.0
 40
2.0
 40
2.0
 40
3.0
 40
3.0
 40
3.0
 40
4.0
 40
4.0
 40
4.0
 40
5.0
 40
5.0
 40
5.0
 40
6.0
 40
6.0
 40
6.0
 40
6.0
 10
4.775653236485254
 20
13.21642564434412
 30
0.0
 10
4.771419537111583
 20
13.21642564434412
 30
0.0
 10
4.767186510608119
 20
13.21818856429954
 30
0.0
 10
4.764011236077863
 20
13.22206967968213
 30
0.0
 10
4.760483377556553
 20
13.22630337905582
 30
0.0
 10
4.758013943878644
 20
13.23053573268905
 30
0.0
 10
4.755897094191801
 20
13.23512201605373
 30
0.0
 10
4.752369235670492
 20
13.24429458278325
 30
0.0
 10
4.756955519035223
 20
13.25487748547692
 30
0.0
 10
4.766128085764712
 20
13.25840601686855
 30
0.0
 10
4.775299979623973
 20
13.26193320251966
 30
0.0
 10
4.785883555187936
 20
13.25734691915494
 30
0.0
 10
4.789411413709252
 20
13.24817435242545
 30
0.0
 10
4.795761289899552
 20
13.24041346740066
 30
0.0
 10
4.795761289899552
 20
13.22771371502003
 30
0.0
 10
4.788352988865831
 20
13.22136451169993
 30
0.0
 10
4.784472546353441
 20
13.21818856429954
 30
0.0
 10
4.779886262988718
 20
13.21642564434412
 30
0.0
 10
4.775653236485254
 20
13.21642564434412
 30
0.0
  0
SPLINE
  5
348
330
1F
100
AcDbEntity
  8
Livello 1
100
AcDbSpline
210
0.0
220
0.0
230
1.0
 70
     9
 71
     3
 72
    26
 73
    22
 74
     0
 42
0.000000001
 43
0.0000000001
 40
0.0
 40
0.0
 40
0.0
 40
0.0
 40
1.0
 40
1.0
 40
1.0
 40
2.0
 40
2.0
 40
2.0
 40
3.0
 40
3.0
 40
3.0
 40
4.0
 40
4.0
 40
4.0
 40
5.0
 40
5.0
 40
5.0
 40
6.0
 40
6.0
 40
6.0
 40
7.0
 40
7.0
 40
7.0
 40
7.0
 10
6.411130900811961
 20
13.21557917361753
 30
0.0
 10
6.407249785429364
 20
13.21557917361753
 30
0.0
 10
6.4030167589259
 20
13.21698950958182
 30
0.0
 10
6.399841484395651
 20
13.21981152725072
 30
0.0
 10
6.392080599370871
 20
13.22616207631122
 30
0.0
 10
6.391022174527456
 20
13.23745014698713
 30
0.0
 10
6.397372050717748
 20
13.24485844802083
 30
0.0
 10
6.398077891570096
 20
13.24591754573453
 30
0.0
 10
6.39913631641351
 20
13.24732788169874
 30
0.0
 10
6.399488900404584
 20
13.24873956340343
 30
0.0
 10
6.403721926908048
 20
13.25791213013295
 30
0.0
 10
6.414305502472004
 20
13.26214582950663
 30
0.0
 10
6.423124812340205
 20
13.25791213013295
 30
0.0
 10
6.43229737906968
 20
13.25403101475032
 30
0.0
 10
6.436530405573137
 20
13.24344811205662
 30
0.0
 10
6.432649963060754
 20
13.23462812931825
 30
0.0
 10
6.430533113373918
 20
13.23004184595345
 30
0.0
 10
6.428063679696002
 20
13.22580949232022
 30
0.0
 10
6.424889078035974
 20
13.22192837693762
 30
0.0
 10
6.42136121951465
 20
13.21769467756394
 30
0.0
 10
6.416422352158832
 20
13.21557917361753
 30
0.0
 10
6.411130900811961
 20
13.21557917361753
 30
0.0
  0
SPLINE
  5
349
330
1F
100
AcDbEntity
  8
Livello 1
100
AcDbSpline
210
0.0
220
0.0
230
1.0
 70
     9
 71
     3
 72
    23
 73
    19
 74
     0
 42
0.000000001
 43
0.0000000001
 40
0.0
 40
0.0
 40
0.0
 40
0.0
 40
1.0
 40
1.0
 40
1.0
 40
2.0
 40
2.0
 40
2.0
 40
3.0
 40
3.0
 40
3.0
 40
4.0
 40
4.0
 40
4.0
 40
5.0
 40
5.0
 40
5.0
 40
6.0
 40
6.0
 40
6.0
 40
6.0
 10
6.557145755418545
 20
14.15929579478052
 30
0.0
 10
6.557145755418545
 20
14.15929579478052
 30
0.0
 10
4.642620739748288
 20
14.15929579478052
 30
0.0
 10
4.642620739748288
 20
14.15929579478052
 30
0.0
 10
4.632743005036672
 20
14.15929579478052
 30
0.0
 10
4.624981447141685
 20
14.16740926379634
 30
0.0
 10
4.624981447141685
 20
14.17728699850795
 30
0.0
 10
4.624981447141685
 20
14.18716473321964
 30
0.0
 10
4.632743005036672
 20
14.19527820223544
 30
0.0
 10
4.642620739748288
 20
14.19527820223544
 30
0.0
 10
4.642620739748288
 20
14.19527820223544
 30
0.0
 10
6.557145755418545
 20
14.19527820223544
 30
0.0
 10
6.557145755418545
 20
14.19527820223544
 30
0.0
 10
6.567023490130168
 20
14.19527820223544
 30
0.0
 10
6.575136959146007
 20
14.18716473321964
 30
0.0
 10
6.575136959146007
 20
14.17728699850795
 30
0.0
 10
6.575136959146007
 20
14.16740926379634
 30
0.0
 10
6.567023490130168
 20
14.15929579478052
 30
0.0
 10
6.557145755418545
 20
14.15929579478052
 30
0.0
  0
SPLINE
  5
34A
330
1F
100
AcDbEntity
  8
Livello 1
100
AcDbSpline
210
0.0
220
0.0
230
1.0
 70
     9
 71
     3
 72
    32
 73
    28
 74
     0
 42
0.000000001
 43
0.0000000001
 40
0.0
 40
0.0
 40
0.0
 40
0.0
 40
1.0
 40
1.0
 40
1.0
 40
2.0
 40
2.0
 40
2.0
 40
3.0
 40
3.0
 40
3.0
 40
4.0
 40
4.0
 40
4.0
 40
5.0
 40
5.0
 40
5.0
 40
6.0
 40
6.0
 40
6.0
 40
7.0
 40
7.0
 40
7.0
 40
8.0
 40
8.0
 40
8.0
 40
9.0
 40
9.0
 40
9.0
 40
9.0
 10
6.419280031949043
 20
14.15929579478052
 30
0.0
 10
6.419280031949043
 20
14.15929579478052
 30
0.0
 10
6.418221607105621
 20
14.15929579478052
 30
0.0
 10
6.418221607105621
 20
14.15929579478052
 30
0.0
 10
6.418221607105621
 20
14.15929579478052
 30
0.0
 10
4.781332261074211
 20
14.15929579478052
 30
0.0
 10
4.781332261074211
 20
14.15929579478052
 30
0.0
 10
4.771454526362603
 20
14.15929579478052
 30
0.0
 10
4.763341057346757
 20
14.16740926379634
 30
0.0
 10
4.763341057346757
 20
14.17728699850795
 30
0.0
 10
4.763341057346757
 20
14.18716473321964
 30
0.0
 10
4.771454526362603
 20
14.19527820223544
 30
0.0
 10
4.781332261074211
 20
14.19527820223544
 30
0.0
 10
4.781332261074211
 20
14.19527820223544
 30
0.0
 10
6.418221607105621
 20
14.19527820223544
 30
0.0
 10
6.418221607105621
 20
14.19527820223544
 30
0.0
 10
6.418221607105621
 20
14.19527820223544
 30
0.0
 10
6.418926775087761
 20
14.19527820223544
 30
0.0
 10
6.418926775087761
 20
14.19527820223544
 30
0.0
 10
6.418926775087761
 20
14.19527820223544
 30
0.0
 10
6.419280031949043
 20
14.19527820223544
 30
0.0
 10
6.419280031949043
 20
14.19527820223544
 30
0.0
 10
6.429157766660665
 20
14.19527820223544
 30
0.0
 10
6.437271235676512
 20
14.18716473321964
 30
0.0
 10
6.437271235676512
 20
14.17728699850795
 30
0.0
 10
6.437271235676512
 20
14.16740926379634
 30
0.0
 10
6.429157766660665
 20
14.15929579478052
 30
0.0
 10
6.419280031949043
 20
14.15929579478052
 30
0.0
  0
SPLINE
  5
34B
330
1F
100
AcDbEntity
  8
Livello 1
100
AcDbSpline
210
0.0
220
0.0
230
1.0
 70
     9
 71
     3
 72
    23
 73
    19
 74
     0
 42
0.000000001
 43
0.0000000001
 40
0.0
 40
0.0
 40
0.0
 40
0.0
 40
1.0
 40
1.0
 40
1.0
 40
2.0
 40
2.0
 40
2.0
 40
3.0
 40
3.0
 40
3.0
 40
4.0
 40
4.0
 40
4.0
 40
5.0
 40
5.0
 40
5.0
 40
6.0
 40
6.0
 40
6.0
 40
6.0
 10
6.756852961458903
 20
14.33137966000913
 30
0.0
 10
6.74697455387708
 20
14.33137966000913
 30
0.0
 10
6.738861084861241
 20
14.33949312902501
 30
0.0
 10
6.738861084861241
 20
14.34937086373665
 30
0.0
 10
6.738861084861241
 20
14.34937086373665
 30
0.0
 10
6.738861084861241
 20
16.95710359352634
 30
0.0
 10
6.738861084861241
 20
16.95710359352634
 30
0.0
 10
6.738861084861241
 20
16.96733525796943
 30
0.0
 10
6.74697455387708
 20
16.97509614299423
 30
0.0
 10
6.756852961458903
 20
16.97509614299423
 30
0.0
 10
6.766730696170512
 20
16.97509614299423
 30
0.0
 10
6.774844165186372
 20
16.96733525796943
 30
0.0
 10
6.774844165186372
 20
16.95710359352634
 30
0.0
 10
6.774844165186372
 20
16.95710359352634
 30
0.0
 10
6.774844165186372
 20
14.34937086373665
 30
0.0
 10
6.774844165186372
 20
14.34937086373665
 30
0.0
 10
6.774844165186372
 20
14.33949312902501
 30
0.0
 10
6.766730696170512
 20
14.33137966000913
 30
0.0
 10
6.756852961458903
 20
14.33137966000913
 30
0.0
  0
SPLINE
  5
34C
330
1F
100
AcDbEntity
  8
Livello 1
100
AcDbSpline
210
0.0
220
0.0
230
1.0
 70
     9
 71
     3
 72
    23
 73
    19
 74
     0
 42
0.000000001
 43
0.0000000001
 40
0.0
 40
0.0
 40
0.0
 40
0.0
 40
1.0
 40
1.0
 40
1.0
 40
2.0
 40
2.0
 40
2.0
 40
3.0
 40
3.0
 40
3.0
 40
4.0
 40
4.0
 40
4.0
 40
5.0
 40
5.0
 40
5.0
 40
6.0
 40
6.0
 40
6.0
 40
6.0
 10
6.679171441228213
 20
15.24140566965914
 30
0.0
 10
6.66929303364639
 20
15.24140566965914
 30
0.0
 10
6.661179564630543
 20
15.24951913867502
 30
0.0
 10
6.661179564630543
 20
15.25939687338663
 30
0.0
 10
6.661179564630543
 20
15.25939687338663
 30
0.0
 10
6.661179564630543
 20
16.95731622051332
 30
0.0
 10
6.661179564630543
 20
16.95731622051332
 30
0.0
 10
6.661179564630543
 20
16.96719395522493
 30
0.0
 10
6.66929303364639
 20
16.97530742424075
 30
0.0
 10
6.679171441228213
 20
16.97530742424075
 30
0.0
 10
6.689049175939835
 20
16.97530742424075
 30
0.0
 10
6.697162644955682
 20
16.96719395522493
 30
0.0
 10
6.697162644955682
 20
16.95731622051332
 30
0.0
 10
6.697162644955682
 20
16.95731622051332
 30
0.0
 10
6.697162644955682
 20
15.25939687338663
 30
0.0
 10
6.697162644955682
 20
15.25939687338663
 30
0.0
 10
6.697162644955682
 20
15.24951913867502
 30
0.0
 10
6.689049175939835
 20
15.24140566965914
 30
0.0
 10
6.679171441228213
 20
15.24140566965914
 30
0.0
  0
SPLINE
  5
34D
330
1F
100
AcDbEntity
  8
Livello 1
100
AcDbSpline
210
0.0
220
0.0
230
1.0
 70
     9
 71
     3
 72
    23
 73
    19
 74
     0
 42
0.000000001
 43
0.0000000001
 40
0.0
 40
0.0
 40
0.0
 40
0.0
 40
1.0
 40
1.0
 40
1.0
 40
2.0
 40
2.0
 40
2.0
 40
3.0
 40
3.0
 40
3.0
 40
4.0
 40
4.0
 40
4.0
 40
5.0
 40
5.0
 40
5.0
 40
6.0
 40
6.0
 40
6.0
 40
6.0
 10
6.418397899101165
 20
14.15929579478052
 30
0.0
 10
6.408519491519335
 20
14.15929579478052
 30
0.0
 10
6.400406022503489
 20
14.16740926379634
 30
0.0
 10
6.400406022503489
 20
14.17728699850795
 30
0.0
 10
6.400406022503489
 20
14.17728699850795
 30
0.0
 10
6.400406022503489
 20
14.34944218797915
 30
0.0
 10
6.400406022503489
 20
14.34944218797915
 30
0.0
 10
6.400406022503489
 20
14.35931992269073
 30
0.0
 10
6.408519491519335
 20
14.36743339170653
 30
0.0
 10
6.418397899101165
 20
14.36743339170653
 30
0.0
 10
6.428275633812788
 20
14.36743339170653
 30
0.0
 10
6.43638910282862
 20
14.35931992269073
 30
0.0
 10
6.43638910282862
 20
14.34944218797915
 30
0.0
 10
6.43638910282862
 20
14.34944218797915
 30
0.0
 10
6.43638910282862
 20
14.17728699850795
 30
0.0
 10
6.43638910282862
 20
14.17728699850795
 30
0.0
 10
6.43638910282862
 20
14.16740926379634
 30
0.0
 10
6.428275633812788
 20
14.15929579478052
 30
0.0
 10
6.418397899101165
 20
14.15929579478052
 30
0.0
  0
SPLINE
  5
34E
330
1F
100
AcDbEntity
  8
Livello 1
100
AcDbSpline
210
0.0
220
0.0
230
1.0
 70
     9
 71
     3
 72
    23
 73
    19
 74
     0
 42
0.000000001
 43
0.0000000001
 40
0.0
 40
0.0
 40
0.0
 40
0.0
 40
1.0
 40
1.0
 40
1.0
 40
2.0
 40
2.0
 40
2.0
 40
3.0
 40
3.0
 40
3.0
 40
4.0
 40
4.0
 40
4.0
 40
5.0
 40
5.0
 40
5.0
 40
6.0
 40
6.0
 40
6.0
 40
6.0
 10
6.262999196518549
 20
14.33137966000913
 30
0.0
 10
6.253120788936726
 20
14.33137966000913
 30
0.0
 10
6.245007319920873
 20
14.33949312902501
 30
0.0
 10
6.245007319920873
 20
14.34937086373665
 30
0.0
 10
6.245007319920873
 20
14.34937086373665
 30
0.0
 10
6.245007319920873
 20
15.25918424639963
 30
0.0
 10
6.245007319920873
 20
15.25918424639963
 30
0.0
 10
6.245007319920873
 20
15.26941456510232
 30
0.0
 10
6.253120788936726
 20
15.27717679586755
 30
0.0
 10
6.262999196518549
 20
15.27717679586755
 30
0.0
 10
6.272876931230179
 20
15.27717679586755
 30
0.0
 10
6.280990400246011
 20
15.26941456510232
 30
0.0
 10
6.280990400246011
 20
15.25918424639963
 30
0.0
 10
6.280990400246011
 20
15.25918424639963
 30
0.0
 10
6.280990400246011
 20
14.34937086373665
 30
0.0
 10
6.280990400246011
 20
14.34937086373665
 30
0.0
 10
6.280990400246011
 20
14.33949312902501
 30
0.0
 10
6.272876931230179
 20
14.33137966000913
 30
0.0
 10
6.262999196518549
 20
14.33137966000913
 30
0.0
  0
SPLINE
  5
34F
330
1F
100
AcDbEntity
  8
Livello 1
100
AcDbSpline
210
0.0
220
0.0
230
1.0
 70
     9
 71
     3
 72
    26
 73
    22
 74
     0
 42
0.000000001
 43
0.0000000001
 40
0.0
 40
0.0
 40
0.0
 40
0.0
 40
1.0
 40
1.0
 40
1.0
 40
2.0
 40
2.0
 40
2.0
 40
3.0
 40
3.0
 40
3.0
 40
4.0
 40
4.0
 40
4.0
 40
5.0
 40
5.0
 40
5.0
 40
6.0
 40
6.0
 40
6.0
 40
7.0
 40
7.0
 40
7.0
 40
7.0
 10
5.663700613531716
 20
16.93929002753484
 30
0.0
 10
5.66193634783594
 20
16.93929002753484
 30
0.0
 10
5.660525339001459
 20
16.93964261152592
 30
0.0
 10
5.65876107330569
 20
16.93999519551693
 30
0.0
 10
5.65876107330569
 20
16.93999519551693
 30
0.0
 10
4.404636638830211
 20
17.30088644222232
 30
0.0
 10
4.404636638830211
 20
17.30088644222232
 30
0.0
 10
4.395111488109648
 20
17.30335587590022
 30
0.0
 10
4.389820036762785
 20
17.31323361061194
 30
0.0
 10
4.392289470440687
 20
17.32275876133243
 30
0.0
 10
4.395111488109648
 20
17.33228391205304
 30
0.0
 10
4.404989222821278
 20
17.33828053138202
 30
0.0
 10
4.41451437354182
 20
17.33510592972192
 30
0.0
 10
4.41451437354182
 20
17.33510592972192
 30
0.0
 10
5.668639480887513
 20
16.97456726700764
 30
0.0
 10
5.668639480887513
 20
16.97456726700764
 30
0.0
 10
5.678163958737854
 20
16.97174524933865
 30
0.0
 10
5.683808666946013
 20
16.96186751462704
 30
0.0
 10
5.680986649277038
 20
16.95234236390644
 30
0.0
 10
5.678517215599136
 20
16.94458147888173
 30
0.0
 10
5.671461498556496
 20
16.93929002753484
 30
0.0
 10
5.663700613531716
 20
16.93929002753484
 30
0.0
  0
SPLINE
  5
350
330
1F
100
AcDbEntity
  8
Livello 1
100
AcDbSpline
210
0.0
220
0.0
230
1.0
 70
     9
 71
     3
 72
    26
 73
    22
 74
     0
 42
0.000000001
 43
0.0000000001
 40
0.0
 40
0.0
 40
0.0
 40
0.0
 40
1.0
 40
1.0
 40
1.0
 40
2.0
 40
2.0
 40
2.0
 40
3.0
 40
3.0
 40
3.0
 40
4.0
 40
4.0
 40
4.0
 40
5.0
 40
5.0
 40
5.0
 40
6.0
 40
6.0
 40
6.0
 40
7.0
 40
7.0
 40
7.0
 40
7.0
 10
5.530562476171475
 20
16.93929002753484
 30
0.0
 10
5.528798210475706
 20
16.93929002753484
 30
0.0
 10
5.527387201641218
 20
16.93964261152592
 30
0.0
 10
5.525622935945456
 20
16.93999519551693
 30
0.0
 10
5.525622935945456
 20
16.93999519551693
 30
0.0
 10
4.404848592946976
 20
17.26172808736703
 30
0.0
 10
4.404848592946976
 20
17.26172808736703
 30
0.0
 10
4.395323442226427
 20
17.26455010503594
 30
0.0
 10
4.389678734018268
 20
17.27442783974751
 30
0.0
 10
4.392500751687244
 20
17.28395299046815
 30
0.0
 10
4.394970185365146
 20
17.29347814118864
 30
0.0
 10
4.404848592946976
 20
17.29912217652665
 30
0.0
 10
4.414373070797303
 20
17.29630015885763
 30
0.0
 10
4.414373070797303
 20
17.29630015885763
 30
0.0
 10
5.535501343527279
 20
16.97456726700764
 30
0.0
 10
5.535501343527279
 20
16.97456726700764
 30
0.0
 10
5.545025821377613
 20
16.97174524933865
 30
0.0
 10
5.550670529585779
 20
16.96186751462704
 30
0.0
 10
5.547848511916797
 20
16.95234236390644
 30
0.0
 10
5.545379078238894
 20
16.94458147888173
 30
0.0
 10
5.538323361196255
 20
16.93929002753484
 30
0.0
 10
5.530562476171475
 20
16.93929002753484
 30
0.0
  0
SPLINE
  5
351
330
1F
100
AcDbEntity
  8
Livello 1
100
AcDbSpline
210
0.0
220
0.0
230
1.0
 70
     9
 71
     3
 72
    23
 73
    19
 74
     0
 42
0.000000001
 43
0.0000000001
 40
0.0
 40
0.0
 40
0.0
 40
0.0
 40
1.0
 40
1.0
 40
1.0
 40
2.0
 40
2.0
 40
2.0
 40
3.0
 40
3.0
 40
3.0
 40
4.0
 40
4.0
 40
4.0
 40
5.0
 40
5.0
 40
5.0
 40
6.0
 40
6.0
 40
6.0
 40
6.0
 10
6.418397899101165
 20
14.15929579478052
 30
0.0
 10
6.418397899101165
 20
14.15929579478052
 30
0.0
 10
4.781508553069755
 20
14.15929579478052
 30
0.0
 10
4.781508553069755
 20
14.15929579478052
 30
0.0
 10
4.771630818358133
 20
14.15929579478052
 30
0.0
 10
4.763517349342293
 20
14.16740926379634
 30
0.0
 10
4.763517349342293
 20
14.17728699850795
 30
0.0
 10
4.763517349342293
 20
14.18716473321964
 30
0.0
 10
4.771630818358133
 20
14.19527820223544
 30
0.0
 10
4.781508553069755
 20
14.19527820223544
 30
0.0
 10
4.781508553069755
 20
14.19527820223544
 30
0.0
 10
6.418397899101165
 20
14.19527820223544
 30
0.0
 10
6.418397899101165
 20
14.19527820223544
 30
0.0
 10
6.428275633812788
 20
14.19527820223544
 30
0.0
 10
6.43638910282862
 20
14.18716473321964
 30
0.0
 10
6.43638910282862
 20
14.17728699850795
 30
0.0
 10
6.43638910282862
 20
14.16740926379634
 30
0.0
 10
6.428275633812788
 20
14.15929579478052
 30
0.0
 10
6.418397899101165
 20
14.15929579478052
 30
0.0
  0
SPLINE
  5
352
330
1F
100
AcDbEntity
  8
Livello 1
100
AcDbSpline
210
0.0
220
0.0
230
1.0
 70
     9
 71
     3
 72
    23
 73
    19
 74
     0
 42
0.000000001
 43
0.0000000001
 40
0.0
 40
0.0
 40
0.0
 40
0.0
 40
1.0
 40
1.0
 40
1.0
 40
2.0
 40
2.0
 40
2.0
 40
3.0
 40
3.0
 40
3.0
 40
4.0
 40
4.0
 40
4.0
 40
5.0
 40
5.0
 40
5.0
 40
6.0
 40
6.0
 40
6.0
 40
6.0
 10
4.631648918072031
 20
14.18155568713266
 30
0.0
 10
4.631648918072031
 20
14.18155568713266
 30
0.0
 10
4.442912187967507
 20
14.18155568713266
 30
0.0
 10
4.442912187967507
 20
14.18155568713266
 30
0.0
 10
4.433034453255885
 20
14.18155568713266
 30
0.0
 10
4.424920984240038
 20
14.18966915614854
 30
0.0
 10
4.424920984240038
 20
14.19954689086015
 30
0.0
 10
4.424920984240038
 20
14.20942462557173
 30
0.0
 10
4.433034453255885
 20
14.21753809458752
 30
0.0
 10
4.442912187967507
 20
14.21753809458752
 30
0.0
 10
4.442912187967507
 20
14.21753809458752
 30
0.0
 10
4.631648918072031
 20
14.21753809458752
 30
0.0
 10
4.631648918072031
 20
14.21753809458752
 30
0.0
 10
4.641526652783639
 20
14.21753809458752
 30
0.0
 10
4.649640121799485
 20
14.20942462557173
 30
0.0
 10
4.649640121799485
 20
14.19954689086015
 30
0.0
 10
4.649640121799485
 20
14.18966915614854
 30
0.0
 10
4.641526652783639
 20
14.18155568713266
 30
0.0
 10
4.631648918072031
 20
14.18155568713266
 30
0.0
  0
SPLINE
  5
353
330
1F
100
AcDbEntity
  8
Livello 1
100
AcDbSpline
210
0.0
220
0.0
230
1.0
 70
     9
 71
     3
 72
    23
 73
    19
 74
     0
 42
0.000000001
 43
0.0000000001
 40
0.0
 40
0.0
 40
0.0
 40
0.0
 40
1.0
 40
1.0
 40
1.0
 40
2.0
 40
2.0
 40
2.0
 40
3.0
 40
3.0
 40
3.0
 40
4.0
 40
4.0
 40
4.0
 40
5.0
 40
5.0
 40
5.0
 40
6.0
 40
6.0
 40
6.0
 40
6.0
 10
6.756852961458903
 20
14.33137966000913
 30
0.0
 10
6.756852961458903
 20
14.33137966000913
 30
0.0
 10
2.129114062961029
 20
14.33137966000913
 30
0.0
 10
2.129114062961029
 20
14.33137966000913
 30
0.0
 10
2.119236328249414
 20
14.33137966000913
 30
0.0
 10
2.11112252279846
 20
14.33949312902501
 30
0.0
 10
2.11112252279846
 20
14.34937086373665
 30
0.0
 10
2.11112252279846
 20
14.35924859844823
 30
0.0
 10
2.119236328249414
 20
14.36736206746414
 30
0.0
 10
2.129114062961029
 20
14.36736206746414
 30
0.0
 10
2.129114062961029
 20
14.36736206746414
 30
0.0
 10
6.756852961458903
 20
14.36736206746414
 30
0.0
 10
6.756852961458903
 20
14.36736206746414
 30
0.0
 10
6.766730696170512
 20
14.36736206746414
 30
0.0
 10
6.774844165186372
 20
14.35924859844823
 30
0.0
 10
6.774844165186372
 20
14.34937086373665
 30
0.0
 10
6.774844165186372
 20
14.33949312902501
 30
0.0
 10
6.766730696170512
 20
14.33137966000913
 30
0.0
 10
6.756852961458903
 20
14.33137966000913
 30
0.0
  0
SPLINE
  5
354
330
1F
100
AcDbEntity
  8
Livello 1
100
AcDbSpline
210
0.0
220
0.0
230
1.0
 70
     9
 71
     3
 72
    23
 73
    19
 74
     0
 42
0.000000001
 43
0.0000000001
 40
0.0
 40
0.0
 40
0.0
 40
0.0
 40
1.0
 40
1.0
 40
1.0
 40
2.0
 40
2.0
 40
2.0
 40
3.0
 40
3.0
 40
3.0
 40
4.0
 40
4.0
 40
4.0
 40
5.0
 40
5.0
 40
5.0
 40
6.0
 40
6.0
 40
6.0
 40
6.0
 10
2.6895368965815
 20
14.42564204800303
 30
0.0
 10
2.6895368965815
 20
14.42564204800303
 30
0.0
 10
1.918364383872145
 20
14.42564204800303
 30
0.0
 10
1.918364383872145
 20
14.42564204800303
 30
0.0
 10
1.908486649160529
 20
14.42564204800303
 30
0.0
 10
1.900372843709575
 20
14.43375551701882
 30
0.0
 10
1.900372843709575
 20
14.44363325173054
 30
0.0
 10
1.900372843709575
 20
14.45351098644215
 30
0.0
 10
1.908486649160529
 20
14.46162445545795
 30
0.0
 10
1.918364383872145
 20
14.46162445545795
 30
0.0
 10
1.918364383872145
 20
14.46162445545795
 30
0.0
 10
2.6895368965815
 20
14.46162445545795
 30
0.0
 10
2.6895368965815
 20
14.46162445545795
 30
0.0
 10
2.699414631293116
 20
14.46162445545795
 30
0.0
 10
2.707528436744063
 20
14.45351098644215
 30
0.0
 10
2.707528436744063
 20
14.44363325173054
 30
0.0
 10
2.707528436744063
 20
14.43375551701882
 30
0.0
 10
2.699414631293116
 20
14.42564204800303
 30
0.0
 10
2.6895368965815
 20
14.42564204800303
 30
0.0
  0
SPLINE
  5
355
330
1F
100
AcDbEntity
  8
Livello 1
100
AcDbSpline
210
0.0
220
0.0
230
1.0
 70
     9
 71
     3
 72
    23
 73
    19
 74
     0
 42
0.000000001
 43
0.0000000001
 40
0.0
 40
0.0
 40
0.0
 40
0.0
 40
1.0
 40
1.0
 40
1.0
 40
2.0
 40
2.0
 40
2.0
 40
3.0
 40
3.0
 40
3.0
 40
4.0
 40
4.0
 40
4.0
 40
5.0
 40
5.0
 40
5.0
 40
6.0
 40
6.0
 40
6.0
 40
6.0
 10
3.988006169506192
 20
14.49782083564034
 30
0.0
 10
3.988006169506192
 20
14.49782083564034
 30
0.0
 10
2.916972411186641
 20
14.49782083564034
 30
0.0
 10
2.916972411186641
 20
14.49782083564034
 30
0.0
 10
2.907094676475033
 20
14.49782083564034
 30
0.0
 10
2.898981207459179
 20
14.50593430465614
 30
0.0
 10
2.898981207459179
 20
14.51581203936774
 30
0.0
 10
2.898981207459179
 20
14.52568977407932
 30
0.0
 10
2.907094676475033
 20
14.53380324309523
 30
0.0
 10
2.916972411186641
 20
14.53380324309523
 30
0.0
 10
2.916972411186641
 20
14.53380324309523
 30
0.0
 10
3.988006169506192
 20
14.53380324309523
 30
0.0
 10
3.988006169506192
 20
14.53380324309523
 30
0.0
 10
3.9978839042178
 20
14.53380324309523
 30
0.0
 10
4.005997373233654
 20
14.52568977407932
 30
0.0
 10
4.005997373233654
 20
14.51581203936774
 30
0.0
 10
4.005997373233654
 20
14.50593430465614
 30
0.0
 10
3.9978839042178
 20
14.49782083564034
 30
0.0
 10
3.988006169506192
 20
14.49782083564034
 30
0.0
  0
SPLINE
  5
356
330
1F
100
AcDbEntity
  8
Livello 1
100
AcDbSpline
210
0.0
220
0.0
230
1.0
 70
     9
 71
     3
 72
    23
 73
    19
 74
     0
 42
0.000000001
 43
0.0000000001
 40
0.0
 40
0.0
 40
0.0
 40
0.0
 40
1.0
 40
1.0
 40
1.0
 40
2.0
 40
2.0
 40
2.0
 40
3.0
 40
3.0
 40
3.0
 40
4.0
 40
4.0
 40
4.0
 40
5.0
 40
5.0
 40
5.0
 40
6.0
 40
6.0
 40
6.0
 40
6.0
 10
3.988006169506192
 20
14.77524522403254
 30
0.0
 10
3.988006169506192
 20
14.77524522403254
 30
0.0
 10
2.916972411186641
 20
14.77524522403254
 30
0.0
 10
2.916972411186641
 20
14.77524522403254
 30
0.0
 10
2.907094676475033
 20
14.77524522403254
 30
0.0
 10
2.898981207459179
 20
14.78335869304842
 30
0.0
 10
2.898981207459179
 20
14.79323642776003
 30
0.0
 10
2.898981207459179
 20
14.80311416247164
 30
0.0
 10
2.907094676475033
 20
14.81122763148752
 30
0.0
 10
2.916972411186641
 20
14.81122763148752
 30
0.0
 10
2.916972411186641
 20
14.81122763148752
 30
0.0
 10
3.988006169506192
 20
14.81122763148752
 30
0.0
 10
3.988006169506192
 20
14.81122763148752
 30
0.0
 10
3.9978839042178
 20
14.81122763148752
 30
0.0
 10
4.005997373233654
 20
14.80311416247164
 30
0.0
 10
4.005997373233654
 20
14.79323642776003
 30
0.0
 10
4.005997373233654
 20
14.78335869304842
 30
0.0
 10
3.9978839042178
 20
14.77524522403254
 30
0.0
 10
3.988006169506192
 20
14.77524522403254
 30
0.0
  0
SPLINE
  5
357
330
1F
100
AcDbEntity
  8
Livello 1
100
AcDbSpline
210
0.0
220
0.0
230
1.0
 70
     9
 71
     3
 72
    23
 73
    19
 74
     0
 42
0.000000001
 43
0.0000000001
 40
0.0
 40
0.0
 40
0.0
 40
0.0
 40
1.0
 40
1.0
 40
1.0
 40
2.0
 40
2.0
 40
2.0
 40
3.0
 40
3.0
 40
3.0
 40
4.0
 40
4.0
 40
4.0
 40
5.0
 40
5.0
 40
5.0
 40
6.0
 40
6.0
 40
6.0
 40
6.0
 10
4.781438574567708
 20
14.15929579478052
 30
0.0
 10
4.771560166985892
 20
14.15929579478052
 30
0.0
 10
4.763446697970039
 20
14.16740926379634
 30
0.0
 10
4.763446697970039
 20
14.17728699850795
 30
0.0
 10
4.763446697970039
 20
14.17728699850795
 30
0.0
 10
4.763446697970039
 20
14.34944218797915
 30
0.0
 10
4.763446697970039
 20
14.34944218797915
 30
0.0
 10
4.763446697970039
 20
14.35931992269073
 30
0.0
 10
4.771560166985892
 20
14.36743339170653
 30
0.0
 10
4.781438574567708
 20
14.36743339170653
 30
0.0
 10
4.791316309279324
 20
14.36743339170653
 30
0.0
 10
4.79942977829517
 20
14.35931992269073
 30
0.0
 10
4.79942977829517
 20
14.34944218797915
 30
0.0
 10
4.79942977829517
 20
14.34944218797915
 30
0.0
 10
4.79942977829517
 20
14.17728699850795
 30
0.0
 10
4.79942977829517
 20
14.17728699850795
 30
0.0
 10
4.79942977829517
 20
14.16740926379634
 30
0.0
 10
4.791316309279324
 20
14.15929579478052
 30
0.0
 10
4.781438574567708
 20
14.15929579478052
 30
0.0
  0
SPLINE
  5
358
330
1F
100
AcDbEntity
  8
Livello 1
100
AcDbSpline
210
0.0
220
0.0
230
1.0
 70
     9
 71
     3
 72
    23
 73
    19
 74
     0
 42
0.000000001
 43
0.0000000001
 40
0.0
 40
0.0
 40
0.0
 40
0.0
 40
1.0
 40
1.0
 40
1.0
 40
2.0
 40
2.0
 40
2.0
 40
3.0
 40
3.0
 40
3.0
 40
4.0
 40
4.0
 40
4.0
 40
5.0
 40
5.0
 40
5.0
 40
6.0
 40
6.0
 40
6.0
 40
6.0
 10
4.631648918072031
 20
14.18155568713266
 30
0.0
 10
4.621770510490193
 20
14.18155568713266
 30
0.0
 10
4.613657041474347
 20
14.18966915614854
 30
0.0
 10
4.613657041474347
 20
14.19954689086015
 30
0.0
 10
4.613657041474347
 20
14.19954689086015
 30
0.0
 10
4.613657041474347
 20
14.34947717723014
 30
0.0
 10
4.613657041474347
 20
14.34947717723014
 30
0.0
 10
4.613657041474347
 20
14.35935491194175
 30
0.0
 10
4.621770510490193
 20
14.36711579696654
 30
0.0
 10
4.631648918072031
 20
14.36711579696654
 30
0.0
 10
4.641526652783639
 20
14.36711579696654
 30
0.0
 10
4.649640121799485
 20
14.35935491194175
 30
0.0
 10
4.649640121799485
 20
14.34947717723014
 30
0.0
 10
4.649640121799485
 20
14.34947717723014
 30
0.0
 10
4.649640121799485
 20
14.19954689086015
 30
0.0
 10
4.649640121799485
 20
14.19954689086015
 30
0.0
 10
4.649640121799485
 20
14.18966915614854
 30
0.0
 10
4.641526652783639
 20
14.18155568713266
 30
0.0
 10
4.631648918072031
 20
14.18155568713266
 30
0.0
  0
SPLINE
  5
359
330
1F
100
AcDbEntity
  8
Livello 1
100
AcDbSpline
210
0.0
220
0.0
230
1.0
 70
     9
 71
     3
 72
    23
 73
    19
 74
     0
 42
0.000000001
 43
0.0000000001
 40
0.0
 40
0.0
 40
0.0
 40
0.0
 40
1.0
 40
1.0
 40
1.0
 40
2.0
 40
2.0
 40
2.0
 40
3.0
 40
3.0
 40
3.0
 40
4.0
 40
4.0
 40
4.0
 40
5.0
 40
5.0
 40
5.0
 40
6.0
 40
6.0
 40
6.0
 40
6.0
 10
2.6895368965815
 20
15.15257603575665
 30
0.0
 10
2.6895368965815
 20
15.15257603575665
 30
0.0
 10
1.918364383872145
 20
15.15257603575665
 30
0.0
 10
1.918364383872145
 20
15.15257603575665
 30
0.0
 10
1.908486649160529
 20
15.15257603575665
 30
0.0
 10
1.900372843709575
 20
15.16068950477253
 30
0.0
 10
1.900372843709575
 20
15.17056723948414
 30
0.0
 10
1.900372843709575
 20
15.18044497419572
 30
0.0
 10
1.908486649160529
 20
15.18855844321163
 30
0.0
 10
1.918364383872145
 20
15.18855844321163
 30
0.0
 10
1.918364383872145
 20
15.18855844321163
 30
0.0
 10
2.6895368965815
 20
15.18855844321163
 30
0.0
 10
2.6895368965815
 20
15.18855844321163
 30
0.0
 10
2.699414631293116
 20
15.18855844321163
 30
0.0
 10
2.707528436744063
 20
15.18044497419572
 30
0.0
 10
2.707528436744063
 20
15.17056723948414
 30
0.0
 10
2.707528436744063
 20
15.16068950477253
 30
0.0
 10
2.699414631293116
 20
15.15257603575665
 30
0.0
 10
2.6895368965815
 20
15.15257603575665
 30
0.0
  0
SPLINE
  5
35A
330
1F
100
AcDbEntity
  8
Livello 1
100
AcDbSpline
210
0.0
220
0.0
230
1.0
 70
     9
 71
     3
 72
    23
 73
    19
 74
     0
 42
0.000000001
 43
0.0000000001
 40
0.0
 40
0.0
 40
0.0
 40
0.0
 40
1.0
 40
1.0
 40
1.0
 40
2.0
 40
2.0
 40
2.0
 40
3.0
 40
3.0
 40
3.0
 40
4.0
 40
4.0
 40
4.0
 40
5.0
 40
5.0
 40
5.0
 40
6.0
 40
6.0
 40
6.0
 40
6.0
 10
6.679171441228213
 20
15.24140566965914
 30
0.0
 10
6.679171441228213
 20
15.24140566965914
 30
0.0
 10
2.20136316553544
 20
15.24140566965914
 30
0.0
 10
2.20136316553544
 20
15.24140566965914
 30
0.0
 10
2.191485430823817
 20
15.24140566965914
 30
0.0
 10
2.183371288937763
 20
15.24951913867502
 30
0.0
 10
2.183371288937763
 20
15.25939687338663
 30
0.0
 10
2.183371288937763
 20
15.26927460809824
 30
0.0
 10
2.191485430823817
 20
15.27738807711415
 30
0.0
 10
2.20136316553544
 20
15.27738807711415
 30
0.0
 10
2.20136316553544
 20
15.27738807711415
 30
0.0
 10
6.679171441228213
 20
15.27738807711415
 30
0.0
 10
6.679171441228213
 20
15.27738807711415
 30
0.0
 10
6.689049175939835
 20
15.27738807711415
 30
0.0
 10
6.697162644955682
 20
15.26927460809824
 30
0.0
 10
6.697162644955682
 20
15.25939687338663
 30
0.0
 10
6.697162644955682
 20
15.24951913867502
 30
0.0
 10
6.689049175939835
 20
15.24140566965914
 30
0.0
 10
6.679171441228213
 20
15.24140566965914
 30
0.0
  0
SPLINE
  5
35B
330
1F
100
AcDbEntity
  8
Livello 1
100
AcDbSpline
210
0.0
220
0.0
230
1.0
 70
     9
 71
     3
 72
    23
 73
    19
 74
     0
 42
0.000000001
 43
0.0000000001
 40
0.0
 40
0.0
 40
0.0
 40
0.0
 40
1.0
 40
1.0
 40
1.0
 40
2.0
 40
2.0
 40
2.0
 40
3.0
 40
3.0
 40
3.0
 40
4.0
 40
4.0
 40
4.0
 40
5.0
 40
5.0
 40
5.0
 40
6.0
 40
6.0
 40
6.0
 40
6.0
 10
4.442983512209963
 20
14.18155568713266
 30
0.0
 10
4.43310510462814
 20
14.18155568713266
 30
0.0
 10
4.424991635612293
 20
14.18966915614854
 30
0.0
 10
4.424991635612293
 20
14.19954689086015
 30
0.0
 10
4.424991635612293
 20
14.19954689086015
 30
0.0
 10
4.424991635612293
 20
14.34947717723014
 30
0.0
 10
4.424991635612293
 20
14.34947717723014
 30
0.0
 10
4.424991635612293
 20
14.35935491194175
 30
0.0
 10
4.43310510462814
 20
14.36711579696654
 30
0.0
 10
4.442983512209963
 20
14.36711579696654
 30
0.0
 10
4.452861246921585
 20
14.36711579696654
 30
0.0
 10
4.460974715937432
 20
14.35935491194175
 30
0.0
 10
4.460974715937432
 20
14.34947717723014
 30
0.0
 10
4.460974715937432
 20
14.34947717723014
 30
0.0
 10
4.460974715937432
 20
14.19954689086015
 30
0.0
 10
4.460974715937432
 20
14.19954689086015
 30
0.0
 10
4.460974715937432
 20
14.18966915614854
 30
0.0
 10
4.452861246921585
 20
14.18155568713266
 30
0.0
 10
4.442983512209963
 20
14.18155568713266
 30
0.0
  0
SPLINE
  5
35C
330
1F
100
AcDbEntity
  8
Livello 1
100
AcDbSpline
210
0.0
220
0.0
230
1.0
 70
     9
 71
     3
 72
    23
 73
    19
 74
     0
 42
0.000000001
 43
0.0000000001
 40
0.0
 40
0.0
 40
0.0
 40
0.0
 40
1.0
 40
1.0
 40
1.0
 40
2.0
 40
2.0
 40
2.0
 40
3.0
 40
3.0
 40
3.0
 40
4.0
 40
4.0
 40
4.0
 40
5.0
 40
5.0
 40
5.0
 40
6.0
 40
6.0
 40
6.0
 40
6.0
 10
3.988006169506192
 20
14.49782083564034
 30
0.0
 10
3.978127761924362
 20
14.49782083564034
 30
0.0
 10
3.970014292908508
 20
14.50593430465614
 30
0.0
 10
3.970014292908508
 20
14.51581203936774
 30
0.0
 10
3.970014292908508
 20
14.51581203936774
 30
0.0
 10
3.970014292908508
 20
14.79309512501552
 30
0.0
 10
3.970014292908508
 20
14.79309512501552
 30
0.0
 10
3.970014292908508
 20
14.80297285972713
 30
0.0
 10
3.978127761924362
 20
14.81108632874304
 30
0.0
 10
3.988006169506192
 20
14.81108632874304
 30
0.0
 10
3.9978839042178
 20
14.81108632874304
 30
0.0
 10
4.005997373233654
 20
14.80297285972713
 30
0.0
 10
4.005997373233654
 20
14.79309512501552
 30
0.0
 10
4.005997373233654
 20
14.79309512501552
 30
0.0
 10
4.005997373233654
 20
14.51581203936774
 30
0.0
 10
4.005997373233654
 20
14.51581203936774
 30
0.0
 10
4.005997373233654
 20
14.50593430465614
 30
0.0
 10
3.9978839042178
 20
14.49782083564034
 30
0.0
 10
3.988006169506192
 20
14.49782083564034
 30
0.0
  0
SPLINE
  5
35D
330
1F
100
AcDbEntity
  8
Livello 1
100
AcDbSpline
210
0.0
220
0.0
230
1.0
 70
     9
 71
     3
 72
    23
 73
    19
 74
     0
 42
0.000000001
 43
0.0000000001
 40
0.0
 40
0.0
 40
0.0
 40
0.0
 40
1.0
 40
1.0
 40
1.0
 40
2.0
 40
2.0
 40
2.0
 40
3.0
 40
3.0
 40
3.0
 40
4.0
 40
4.0
 40
4.0
 40
5.0
 40
5.0
 40
5.0
 40
6.0
 40
6.0
 40
6.0
 40
6.0
 10
2.917043062558903
 20
14.49782083564034
 30
0.0
 10
2.907164654977073
 20
14.49782083564034
 30
0.0
 10
2.899051185961226
 20
14.50593430465614
 30
0.0
 10
2.899051185961226
 20
14.51581203936774
 30
0.0
 10
2.899051185961226
 20
14.51581203936774
 30
0.0
 10
2.899051185961226
 20
14.79309512501552
 30
0.0
 10
2.899051185961226
 20
14.79309512501552
 30
0.0
 10
2.899051185961226
 20
14.80297285972713
 30
0.0
 10
2.907164654977073
 20
14.81108632874304
 30
0.0
 10
2.917043062558903
 20
14.81108632874304
 30
0.0
 10
2.926920797270511
 20
14.81108632874304
 30
0.0
 10
2.935034266286365
 20
14.80297285972713
 30
0.0
 10
2.935034266286365
 20
14.79309512501552
 30
0.0
 10
2.935034266286365
 20
14.79309512501552
 30
0.0
 10
2.935034266286365
 20
14.51581203936774
 30
0.0
 10
2.935034266286365
 20
14.51581203936774
 30
0.0
 10
2.935034266286365
 20
14.50593430465614
 30
0.0
 10
2.926920797270511
 20
14.49782083564034
 30
0.0
 10
2.917043062558903
 20
14.49782083564034
 30
0.0
  0
SPLINE
  5
35E
330
1F
100
AcDbEntity
  8
Livello 1
100
AcDbSpline
210
0.0
220
0.0
230
1.0
 70
     9
 71
     3
 72
    23
 73
    19
 74
     0
 42
0.000000001
 43
0.0000000001
 40
0.0
 40
0.0
 40
0.0
 40
0.0
 40
1.0
 40
1.0
 40
1.0
 40
2.0
 40
2.0
 40
2.0
 40
3.0
 40
3.0
 40
3.0
 40
4.0
 40
4.0
 40
4.0
 40
5.0
 40
5.0
 40
5.0
 40
6.0
 40
6.0
 40
6.0
 40
6.0
 10
2.6895368965815
 20
14.42564204800303
 30
0.0
 10
2.679658825434785
 20
14.42564204800303
 30
0.0
 10
2.671545019983831
 20
14.43375551701882
 30
0.0
 10
2.671545019983831
 20
14.44363325173054
 30
0.0
 10
2.671545019983831
 20
14.44363325173054
 30
0.0
 10
2.671545019983831
 20
15.17035595823765
 30
0.0
 10
2.671545019983831
 20
15.17035595823765
 30
0.0
 10
2.671545019983831
 20
15.18023369294923
 30
0.0
 10
2.679658825434785
 20
15.18834716196503
 30
0.0
 10
2.6895368965815
 20
15.18834716196503
 30
0.0
 10
2.699414631293116
 20
15.18834716196503
 30
0.0
 10
2.707528436744063
 20
15.18023369294923
 30
0.0
 10
2.707528436744063
 20
15.17035595823765
 30
0.0
 10
2.707528436744063
 20
15.17035595823765
 30
0.0
 10
2.707528436744063
 20
14.44363325173054
 30
0.0
 10
2.707528436744063
 20
14.44363325173054
 30
0.0
 10
2.707528436744063
 20
14.43375551701882
 30
0.0
 10
2.699414631293116
 20
14.42564204800303
 30
0.0
 10
2.6895368965815
 20
14.42564204800303
 30
0.0
  0
SPLINE
  5
35F
330
1F
100
AcDbEntity
  8
Livello 1
100
AcDbSpline
210
0.0
220
0.0
230
1.0
 70
     9
 71
     3
 72
    23
 73
    19
 74
     0
 42
0.000000001
 43
0.0000000001
 40
0.0
 40
0.0
 40
0.0
 40
0.0
 40
1.0
 40
1.0
 40
1.0
 40
2.0
 40
2.0
 40
2.0
 40
3.0
 40
3.0
 40
3.0
 40
4.0
 40
4.0
 40
4.0
 40
5.0
 40
5.0
 40
5.0
 40
6.0
 40
6.0
 40
6.0
 40
6.0
 10
6.756852961458903
 20
16.93929002753484
 30
0.0
 10
6.756852961458903
 20
16.93929002753484
 30
0.0
 10
2.129114062961029
 20
16.93929002753484
 30
0.0
 10
2.129114062961029
 20
16.93929002753484
 30
0.0
 10
2.119236328249414
 20
16.93929002753484
 30
0.0
 10
2.11112252279846
 20
16.94740349655063
 30
0.0
 10
2.11112252279846
 20
16.95728123126221
 30
0.0
 10
2.11112252279846
 20
16.96715896597382
 30
0.0
 10
2.119236328249414
 20
16.97527243498973
 30
0.0
 10
2.129114062961029
 20
16.97527243498973
 30
0.0
 10
2.129114062961029
 20
16.97527243498973
 30
0.0
 10
6.756852961458903
 20
16.97527243498973
 30
0.0
 10
6.756852961458903
 20
16.97527243498973
 30
0.0
 10
6.766730696170512
 20
16.97527243498973
 30
0.0
 10
6.774844165186372
 20
16.96715896597382
 30
0.0
 10
6.774844165186372
 20
16.95728123126221
 30
0.0
 10
6.774844165186372
 20
16.94740349655063
 30
0.0
 10
6.766730696170512
 20
16.93929002753484
 30
0.0
 10
6.756852961458903
 20
16.93929002753484
 30
0.0
  0
SPLINE
  5
360
330
1F
100
AcDbEntity
  8
Livello 1
100
AcDbSpline
210
0.0
220
0.0
230
1.0
 70
     9
 71
     3
 72
    23
 73
    19
 74
     0
 42
0.000000001
 43
0.0000000001
 40
0.0
 40
0.0
 40
0.0
 40
0.0
 40
1.0
 40
1.0
 40
1.0
 40
2.0
 40
2.0
 40
2.0
 40
3.0
 40
3.0
 40
3.0
 40
4.0
 40
4.0
 40
4.0
 40
5.0
 40
5.0
 40
5.0
 40
6.0
 40
6.0
 40
6.0
 40
6.0
 10
2.623003153587511
 20
15.15257603575665
 30
0.0
 10
2.613125082440788
 20
15.15257603575665
 30
0.0
 10
2.605011276989834
 20
15.16068950477253
 30
0.0
 10
2.605011276989834
 20
15.17056723948414
 30
0.0
 10
2.605011276989834
 20
15.17056723948414
 30
0.0
 10
2.605011276989834
 20
15.25946685188873
 30
0.0
 10
2.605011276989834
 20
15.25946685188873
 30
0.0
 10
2.605011276989834
 20
15.26934458660031
 30
0.0
 10
2.613125082440788
 20
15.27745805561614
 30
0.0
 10
2.623003153587511
 20
15.27745805561614
 30
0.0
 10
2.632880888299119
 20
15.27745805561614
 30
0.0
 10
2.64099469375008
 20
15.26934458660031
 30
0.0
 10
2.64099469375008
 20
15.25946685188873
 30
0.0
 10
2.64099469375008
 20
15.25946685188873
 30
0.0
 10
2.64099469375008
 20
15.17056723948414
 30
0.0
 10
2.64099469375008
 20
15.17056723948414
 30
0.0
 10
2.64099469375008
 20
15.16068950477253
 30
0.0
 10
2.632880888299119
 20
15.15257603575665
 30
0.0
 10
2.623003153587511
 20
15.15257603575665
 30
0.0
  0
SPLINE
  5
361
330
1F
100
AcDbEntity
  8
Livello 1
100
AcDbSpline
210
0.0
220
0.0
230
1.0
 70
     9
 71
     3
 72
    23
 73
    19
 74
     0
 42
0.000000001
 43
0.0000000001
 40
0.0
 40
0.0
 40
0.0
 40
0.0
 40
1.0
 40
1.0
 40
1.0
 40
2.0
 40
2.0
 40
2.0
 40
3.0
 40
3.0
 40
3.0
 40
4.0
 40
4.0
 40
4.0
 40
5.0
 40
5.0
 40
5.0
 40
6.0
 40
6.0
 40
6.0
 40
6.0
 10
2.623003153587511
 20
14.33137966000913
 30
0.0
 10
2.613125082440788
 20
14.33137966000913
 30
0.0
 10
2.605011276989834
 20
14.33949312902501
 30
0.0
 10
2.605011276989834
 20
14.34937086373665
 30
0.0
 10
2.605011276989834
 20
14.34937086373665
 30
0.0
 10
2.605011276989834
 20
14.44356192748802
 30
0.0
 10
2.605011276989834
 20
14.44356192748802
 30
0.0
 10
2.605011276989834
 20
14.45343966219963
 30
0.0
 10
2.613125082440788
 20
14.46155447695594
 30
0.0
 10
2.623003153587511
 20
14.46155447695594
 30
0.0
 10
2.632880888299119
 20
14.46155447695594
 30
0.0
 10
2.64099469375008
 20
14.45343966219963
 30
0.0
 10
2.64099469375008
 20
14.44356192748802
 30
0.0
 10
2.64099469375008
 20
14.44356192748802
 30
0.0
 10
2.64099469375008
 20
14.34937086373665
 30
0.0
 10
2.64099469375008
 20
14.34937086373665
 30
0.0
 10
2.64099469375008
 20
14.33949312902501
 30
0.0
 10
2.632880888299119
 20
14.33137966000913
 30
0.0
 10
2.623003153587511
 20
14.33137966000913
 30
0.0
  0
SPLINE
  5
362
330
1F
100
AcDbEntity
  8
Livello 1
100
AcDbSpline
210
0.0
220
0.0
230
1.0
 70
     9
 71
     3
 72
    23
 73
    19
 74
     0
 42
0.000000001
 43
0.0000000001
 40
0.0
 40
0.0
 40
0.0
 40
0.0
 40
1.0
 40
1.0
 40
1.0
 40
2.0
 40
2.0
 40
2.0
 40
3.0
 40
3.0
 40
3.0
 40
4.0
 40
4.0
 40
4.0
 40
5.0
 40
5.0
 40
5.0
 40
6.0
 40
6.0
 40
6.0
 40
6.0
 10
2.20122186279093
 20
15.24140566965914
 30
0.0
 10
2.191343791644193
 20
15.24140566965914
 30
0.0
 10
2.183229986193246
 20
15.24951913867502
 30
0.0
 10
2.183229986193246
 20
15.25939687338663
 30
0.0
 10
2.183229986193246
 20
15.25939687338663
 30
0.0
 10
2.183229986193246
 20
16.95731622051332
 30
0.0
 10
2.183229986193246
 20
16.95731622051332
 30
0.0
 10
2.183229986193246
 20
16.96719395522493
 30
0.0
 10
2.191343791644193
 20
16.97530742424075
 30
0.0
 10
2.20122186279093
 20
16.97530742424075
 30
0.0
 10
2.211099597502538
 20
16.97530742424075
 30
0.0
 10
2.219213402953499
 20
16.96719395522493
 30
0.0
 10
2.219213402953499
 20
16.95731622051332
 30
0.0
 10
2.219213402953499
 20
16.95731622051332
 30
0.0
 10
2.219213402953499
 20
15.25939687338663
 30
0.0
 10
2.219213402953499
 20
15.25939687338663
 30
0.0
 10
2.219213402953499
 20
15.24951913867502
 30
0.0
 10
2.211099597502538
 20
15.24140566965914
 30
0.0
 10
2.20122186279093
 20
15.24140566965914
 30
0.0
  0
SPLINE
  5
363
330
1F
100
AcDbEntity
  8
Livello 1
100
AcDbSpline
210
0.0
220
0.0
230
1.0
 70
     9
 71
     3
 72
    23
 73
    19
 74
     0
 42
0.000000001
 43
0.0000000001
 40
0.0
 40
0.0
 40
0.0
 40
0.0
 40
1.0
 40
1.0
 40
1.0
 40
2.0
 40
2.0
 40
2.0
 40
3.0
 40
3.0
 40
3.0
 40
4.0
 40
4.0
 40
4.0
 40
5.0
 40
5.0
 40
5.0
 40
6.0
 40
6.0
 40
6.0
 40
6.0
 10
2.129079073710002
 20
15.15257603575665
 30
0.0
 10
2.119201002563286
 20
15.15257603575665
 30
0.0
 10
2.111087197112333
 20
15.16068950477253
 30
0.0
 10
2.111087197112333
 20
15.17056723948414
 30
0.0
 10
2.111087197112333
 20
15.17056723948414
 30
0.0
 10
2.111087197112333
 20
16.95738619901533
 30
0.0
 10
2.111087197112333
 20
16.95738619901533
 30
0.0
 10
2.111087197112333
 20
16.96726393372694
 30
0.0
 10
2.119201002563286
 20
16.97502481875173
 30
0.0
 10
2.129079073710002
 20
16.97502481875173
 30
0.0
 10
2.138956808421625
 20
16.97502481875173
 30
0.0
 10
2.147070613872578
 20
16.96726393372694
 30
0.0
 10
2.147070613872578
 20
16.95738619901533
 30
0.0
 10
2.147070613872578
 20
16.95738619901533
 30
0.0
 10
2.147070613872578
 20
15.17056723948414
 30
0.0
 10
2.147070613872578
 20
15.17056723948414
 30
0.0
 10
2.147070613872578
 20
15.16068950477253
 30
0.0
 10
2.138956808421625
 20
15.15257603575665
 30
0.0
 10
2.129079073710002
 20
15.15257603575665
 30
0.0
  0
SPLINE
  5
364
330
1F
100
AcDbEntity
  8
Livello 1
100
AcDbSpline
210
0.0
220
0.0
230
1.0
 70
     9
 71
     3
 72
    23
 73
    19
 74
     0
 42
0.000000001
 43
0.0000000001
 40
0.0
 40
0.0
 40
0.0
 40
0.0
 40
1.0
 40
1.0
 40
1.0
 40
2.0
 40
2.0
 40
2.0
 40
3.0
 40
3.0
 40
3.0
 40
4.0
 40
4.0
 40
4.0
 40
5.0
 40
5.0
 40
5.0
 40
6.0
 40
6.0
 40
6.0
 40
6.0
 10
2.129079073710002
 20
14.33137966000913
 30
0.0
 10
2.119201002563286
 20
14.33137966000913
 30
0.0
 10
2.111087197112333
 20
14.33949312902501
 30
0.0
 10
2.111087197112333
 20
14.34937086373665
 30
0.0
 10
2.111087197112333
 20
14.34937086373665
 30
0.0
 10
2.111087197112333
 20
14.44356192748802
 30
0.0
 10
2.111087197112333
 20
14.44356192748802
 30
0.0
 10
2.111087197112333
 20
14.45343966219963
 30
0.0
 10
2.119201002563286
 20
14.46155447695594
 30
0.0
 10
2.129079073710002
 20
14.46155447695594
 30
0.0
 10
2.138956808421625
 20
14.46155447695594
 30
0.0
 10
2.147070613872578
 20
14.45343966219963
 30
0.0
 10
2.147070613872578
 20
14.44356192748802
 30
0.0
 10
2.147070613872578
 20
14.44356192748802
 30
0.0
 10
2.147070613872578
 20
14.34937086373665
 30
0.0
 10
2.147070613872578
 20
14.34937086373665
 30
0.0
 10
2.147070613872578
 20
14.33949312902501
 30
0.0
 10
2.138956808421625
 20
14.33137966000913
 30
0.0
 10
2.129079073710002
 20
14.33137966000913
 30
0.0
  0
SPLINE
  5
365
330
1F
100
AcDbEntity
  8
Livello 1
100
AcDbSpline
210
0.0
220
0.0
230
1.0
 70
     9
 71
     3
 72
    23
 73
    19
 74
     0
 42
0.000000001
 43
0.0000000001
 40
0.0
 40
0.0
 40
0.0
 40
0.0
 40
1.0
 40
1.0
 40
1.0
 40
2.0
 40
2.0
 40
2.0
 40
3.0
 40
3.0
 40
3.0
 40
4.0
 40
4.0
 40
4.0
 40
5.0
 40
5.0
 40
5.0
 40
6.0
 40
6.0
 40
6.0
 40
6.0
 10
2.101315439459099
 20
14.42564204800303
 30
0.0
 10
2.091437368312391
 20
14.42564204800303
 30
0.0
 10
2.08332356286143
 20
14.43375551701882
 30
0.0
 10
2.08332356286143
 20
14.44363325173054
 30
0.0
 10
2.08332356286143
 20
14.44363325173054
 30
0.0
 10
2.08332356286143
 20
15.17035595823765
 30
0.0
 10
2.08332356286143
 20
15.17035595823765
 30
0.0
 10
2.08332356286143
 20
15.18023369294923
 30
0.0
 10
2.091437368312391
 20
15.18834716196503
 30
0.0
 10
2.101315439459099
 20
15.18834716196503
 30
0.0
 10
2.111193174170715
 20
15.18834716196503
 30
0.0
 10
2.119306979621669
 20
15.18023369294923
 30
0.0
 10
2.119306979621669
 20
15.17035595823765
 30
0.0
 10
2.119306979621669
 20
15.17035595823765
 30
0.0
 10
2.119306979621669
 20
14.44363325173054
 30
0.0
 10
2.119306979621669
 20
14.44363325173054
 30
0.0
 10
2.119306979621669
 20
14.43375551701882
 30
0.0
 10
2.111193174170715
 20
14.42564204800303
 30
0.0
 10
2.101315439459099
 20
14.42564204800303
 30
0.0
  0
SPLINE
  5
366
330
1F
100
AcDbEntity
  8
Livello 1
100
AcDbSpline
210
0.0
220
0.0
230
1.0
 70
     9
 71
     3
 72
    23
 73
    19
 74
     0
 42
0.000000001
 43
0.0000000001
 40
0.0
 40
0.0
 40
0.0
 40
0.0
 40
1.0
 40
1.0
 40
1.0
 40
2.0
 40
2.0
 40
2.0
 40
3.0
 40
3.0
 40
3.0
 40
4.0
 40
4.0
 40
4.0
 40
5.0
 40
5.0
 40
5.0
 40
6.0
 40
6.0
 40
6.0
 40
6.0
 10
1.91825907968397
 20
14.42564204800303
 30
0.0
 10
1.908381008537247
 20
14.42564204800303
 30
0.0
 10
1.900267203086293
 20
14.43375551701882
 30
0.0
 10
1.900267203086293
 20
14.44363325173054
 30
0.0
 10
1.900267203086293
 20
14.44363325173054
 30
0.0
 10
1.900267203086293
 20
15.17035595823765
 30
0.0
 10
1.900267203086293
 20
15.17035595823765
 30
0.0
 10
1.900267203086293
 20
15.18023369294923
 30
0.0
 10
1.908381008537247
 20
15.18834716196503
 30
0.0
 10
1.91825907968397
 20
15.18834716196503
 30
0.0
 10
1.928136814395578
 20
15.18834716196503
 30
0.0
 10
1.936250619846532
 20
15.18023369294923
 30
0.0
 10
1.936250619846532
 20
15.17035595823765
 30
0.0
 10
1.936250619846532
 20
15.17035595823765
 30
0.0
 10
1.936250619846532
 20
14.44363325173054
 30
0.0
 10
1.936250619846532
 20
14.44363325173054
 30
0.0
 10
1.936250619846532
 20
14.43375551701882
 30
0.0
 10
1.928136814395578
 20
14.42564204800303
 30
0.0
 10
1.91825907968397
 20
14.42564204800303
 30
0.0
  0
SPLINE
  5
367
330
1F
100
AcDbEntity
  8
Livello 1
100
AcDbSpline
210
0.0
220
0.0
230
1.0
 70
     9
 71
     3
 72
    32
 73
    28
 74
     0
 42
0.000000001
 43
0.0000000001
 40
0.0
 40
0.0
 40
0.0
 40
0.0
 40
1.0
 40
1.0
 40
1.0
 40
2.0
 40
2.0
 40
2.0
 40
3.0
 40
3.0
 40
3.0
 40
4.0
 40
4.0
 40
4.0
 40
5.0
 40
5.0
 40
5.0
 40
6.0
 40
6.0
 40
6.0
 40
7.0
 40
7.0
 40
7.0
 40
8.0
 40
8.0
 40
8.0
 40
9.0
 40
9.0
 40
9.0
 40
9.0
 10
23.28315186360856
 20
5.192520872951774
 30
0.0
 10
23.28315186360856
 20
5.192520872951774
 30
0.0
 10
11.73532367961264
 20
5.192520872951774
 30
0.0
 10
11.73532367961264
 20
5.192520872951774
 30
0.0
 10
11.72544594490102
 20
5.192520872951774
 30
0.0
 10
11.71733247588518
 20
5.200634678402678
 30
0.0
 10
11.71733247588518
 20
5.210512413114287
 30
0.0
 10
11.71733247588518
 20
5.210512413114287
 30
0.0
 10
11.71733247588518
 20
10.34095937567176
 30
0.0
 10
11.71733247588518
 20
10.34095937567176
 30
0.0
 10
11.71733247588518
 20
10.35119036724467
 30
0.0
 10
11.72544594490102
 20
10.35895125226946
 30
0.0
 10
11.73532367961264
 20
10.35895125226946
 30
0.0
 10
11.74520141432425
 20
10.35895125226946
 30
0.0
 10
11.75331622908053
 20
10.35119036724467
 30
0.0
 10
11.75331622908053
 20
10.34095937567176
 30
0.0
 10
11.75331622908053
 20
10.34095937567176
 30
0.0
 10
11.75331622908053
 20
5.228503953276856
 30
0.0
 10
11.75331622908053
 20
5.228503953276856
 30
0.0
 10
11.75331622908053
 20
5.228503953276856
 30
0.0
 10
23.28315186360856
 20
5.228503953276856
 30
0.0
 10
23.28315186360856
 20
5.228503953276856
 30
0.0
 10
23.29302959832017
 20
5.228503953276856
 30
0.0
 10
23.3011417215956
 20
5.22039014782598
 30
0.0
 10
23.3011417215956
 20
5.210512413114287
 30
0.0
 10
23.3011417215956
 20
5.200634678402678
 30
0.0
 10
23.29302959832017
 20
5.192520872951774
 30
0.0
 10
23.28315186360856
 20
5.192520872951774
 30
0.0
  0
SPLINE
  5
368
330
1F
100
AcDbEntity
  8
Livello 1
100
AcDbSpline
210
0.0
220
0.0
230
1.0
 70
     9
 71
     3
 72
    23
 73
    19
 74
     0
 42
0.000000001
 43
0.0000000001
 40
0.0
 40
0.0
 40
0.0
 40
0.0
 40
1.0
 40
1.0
 40
1.0
 40
2.0
 40
2.0
 40
2.0
 40
3.0
 40
3.0
 40
3.0
 40
4.0
 40
4.0
 40
4.0
 40
5.0
 40
5.0
 40
5.0
 40
6.0
 40
6.0
 40
6.0
 40
6.0
 10
23.28315186360856
 20
10.28014065582306
 30
0.0
 10
23.28315186360856
 20
10.28014065582306
 30
0.0
 10
20.68282608911214
 20
10.28014065582306
 30
0.0
 10
20.68282608911214
 20
10.28014065582306
 30
0.0
 10
20.67294835440053
 20
10.28014065582306
 30
0.0
 10
20.66483488538468
 20
10.28825412483897
 30
0.0
 10
20.66483488538468
 20
10.29813185955058
 30
0.0
 10
20.66483488538468
 20
10.30800959426219
 30
0.0
 10
20.67294835440053
 20
10.31612373614825
 30
0.0
 10
20.68282608911214
 20
10.31612373614825
 30
0.0
 10
20.68282608911214
 20
10.31612373614825
 30
0.0
 10
23.28315186360856
 20
10.31612373614825
 30
0.0
 10
23.28315186360856
 20
10.31612373614825
 30
0.0
 10
23.29302959832017
 20
10.31612373614825
 30
0.0
 10
23.3011417215956
 20
10.30800959426219
 30
0.0
 10
23.3011417215956
 20
10.29813185955058
 30
0.0
 10
23.3011417215956
 20
10.28825412483897
 30
0.0
 10
23.29302959832017
 20
10.28014065582306
 30
0.0
 10
23.28315186360856
 20
10.28014065582306
 30
0.0
  0
SPLINE
  5
369
330
1F
100
AcDbEntity
  8
Livello 1
100
AcDbSpline
210
0.0
220
0.0
230
1.0
 70
     9
 71
     3
 72
    23
 73
    19
 74
     0
 42
0.000000001
 43
0.0000000001
 40
0.0
 40
0.0
 40
0.0
 40
0.0
 40
1.0
 40
1.0
 40
1.0
 40
2.0
 40
2.0
 40
2.0
 40
3.0
 40
3.0
 40
3.0
 40
4.0
 40
4.0
 40
4.0
 40
5.0
 40
5.0
 40
5.0
 40
6.0
 40
6.0
 40
6.0
 40
6.0
 10
20.20371962060738
 20
10.32321511531208
 30
0.0
 10
20.20371962060738
 20
10.32321511531208
 30
0.0
 10
11.7352886903616
 20
10.32321511531208
 30
0.0
 10
11.7352886903616
 20
10.32321511531208
 30
0.0
 10
11.72541095565
 20
10.32321511531208
 30
0.0
 10
11.71729748663415
 20
10.33132858432799
 30
0.0
 10
11.71729748663415
 20
10.3412063190396
 30
0.0
 10
11.71729748663415
 20
10.35108405375118
 30
0.0
 10
11.72541095565
 20
10.35919819563725
 30
0.0
 10
11.7352886903616
 20
10.35919819563725
 30
0.0
 10
11.7352886903616
 20
10.35919819563725
 30
0.0
 10
20.20371962060738
 20
10.35919819563725
 30
0.0
 10
20.20371962060738
 20
10.35919819563725
 30
0.0
 10
20.21359735531899
 20
10.35919819563725
 30
0.0
 10
20.22171082433485
 20
10.35108405375118
 30
0.0
 10
20.22171082433485
 20
10.3412063190396
 30
0.0
 10
20.22171082433485
 20
10.33132858432799
 30
0.0
 10
20.21359735531899
 20
10.32321511531208
 30
0.0
 10
20.20371962060738
 20
10.32321511531208
 30
0.0
  0
SPLINE
  5
36A
330
1F
100
AcDbEntity
  8
Livello 1
100
AcDbSpline
210
0.0
220
0.0
230
1.0
 70
     9
 71
     3
 72
    23
 73
    19
 74
     0
 42
0.000000001
 43
0.0000000001
 40
0.0
 40
0.0
 40
0.0
 40
0.0
 40
1.0
 40
1.0
 40
1.0
 40
2.0
 40
2.0
 40
2.0
 40
3.0
 40
3.0
 40
3.0
 40
4.0
 40
4.0
 40
4.0
 40
5.0
 40
5.0
 40
5.0
 40
6.0
 40
6.0
 40
6.0
 40
6.0
 10
21.08121908421111
 20
12.19124412646548
 30
0.0
 10
21.08121908421111
 20
12.19124412646548
 30
0.0
 10
20.48361344267757
 20
12.19124412646548
 30
0.0
 10
20.48361344267757
 20
12.19124412646548
 30
0.0
 10
20.47373570796595
 20
12.19124412646548
 30
0.0
 10
20.46597347720075
 20
12.19935759548136
 30
0.0
 10
20.46597347720075
 20
12.20923533019297
 30
0.0
 10
20.46597347720075
 20
12.21911306490457
 30
0.0
 10
20.47373570796595
 20
12.22722653392048
 30
0.0
 10
20.48361344267757
 20
12.22722653392048
 30
0.0
 10
20.48361344267757
 20
12.22722653392048
 30
0.0
 10
21.08121908421111
 20
12.22722653392048
 30
0.0
 10
21.08121908421111
 20
12.22722653392048
 30
0.0
 10
21.09109681892274
 20
12.22722653392048
 30
0.0
 10
21.09920894219815
 20
12.21911306490457
 30
0.0
 10
21.09920894219815
 20
12.20923533019297
 30
0.0
 10
21.09920894219815
 20
12.19935759548136
 30
0.0
 10
21.09109681892274
 20
12.19124412646548
 30
0.0
 10
21.08121908421111
 20
12.19124412646548
 30
0.0
  0
SPLINE
  5
36B
330
1F
100
AcDbEntity
  8
Livello 1
100
AcDbSpline
210
0.0
220
0.0
230
1.0
 70
     9
 71
     3
 72
    23
 73
    19
 74
     0
 42
0.000000001
 43
0.0000000001
 40
0.0
 40
0.0
 40
0.0
 40
0.0
 40
1.0
 40
1.0
 40
1.0
 40
2.0
 40
2.0
 40
2.0
 40
3.0
 40
3.0
 40
3.0
 40
4.0
 40
4.0
 40
4.0
 40
5.0
 40
5.0
 40
5.0
 40
6.0
 40
6.0
 40
6.0
 40
6.0
 10
21.29122726032642
 20
12.34741864840248
 30
0.0
 10
21.29122726032642
 20
12.34741864840248
 30
0.0
 10
21.06509442245164
 20
12.34741864840248
 30
0.0
 10
21.06509442245164
 20
12.34741864840248
 30
0.0
 10
21.05521668774003
 20
12.34741864840248
 30
0.0
 10
21.04710456446459
 20
12.35553211741839
 30
0.0
 10
21.04710456446459
 20
12.36540985212997
 30
0.0
 10
21.04710456446459
 20
12.37528758684158
 30
0.0
 10
21.05521668774003
 20
12.38340105585746
 30
0.0
 10
21.06509442245164
 20
12.38340105585746
 30
0.0
 10
21.06509442245164
 20
12.38340105585746
 30
0.0
 10
21.29122726032642
 20
12.38340105585746
 30
0.0
 10
21.29122726032642
 20
12.38340105585746
 30
0.0
 10
21.30110499503804
 20
12.38340105585746
 30
0.0
 10
21.30921711831346
 20
12.37528758684158
 30
0.0
 10
21.30921711831346
 20
12.36540985212997
 30
0.0
 10
21.30921711831346
 20
12.35553211741839
 30
0.0
 10
21.30110499503804
 20
12.34741864840248
 30
0.0
 10
21.29122726032642
 20
12.34741864840248
 30
0.0
  0
SPLINE
  5
36C
330
1F
100
AcDbEntity
  8
Livello 1
100
AcDbSpline
210
0.0
220
0.0
230
1.0
 70
     9
 71
     3
 72
    23
 73
    19
 74
     0
 42
0.000000001
 43
0.0000000001
 40
0.0
 40
0.0
 40
0.0
 40
0.0
 40
1.0
 40
1.0
 40
1.0
 40
2.0
 40
2.0
 40
2.0
 40
3.0
 40
3.0
 40
3.0
 40
4.0
 40
4.0
 40
4.0
 40
5.0
 40
5.0
 40
5.0
 40
6.0
 40
6.0
 40
6.0
 40
6.0
 10
20.49444396160932
 20
12.34741864840248
 30
0.0
 10
20.49444396160932
 20
12.34741864840248
 30
0.0
 10
20.26831246947497
 20
12.34741864840248
 30
0.0
 10
20.26831246947497
 20
12.34741864840248
 30
0.0
 10
20.25843473476335
 20
12.34741864840248
 30
0.0
 10
20.25032126574751
 20
12.35553211741839
 30
0.0
 10
20.25032126574751
 20
12.36540985212997
 30
0.0
 10
20.25032126574751
 20
12.37528758684158
 30
0.0
 10
20.25843473476335
 20
12.38340105585746
 30
0.0
 10
20.26831246947497
 20
12.38340105585746
 30
0.0
 10
20.26831246947497
 20
12.38340105585746
 30
0.0
 10
20.49444396160932
 20
12.38340105585746
 30
0.0
 10
20.49444396160932
 20
12.38340105585746
 30
0.0
 10
20.50432169632095
 20
12.38340105585746
 30
0.0
 10
20.5124351653368
 20
12.37528758684158
 30
0.0
 10
20.5124351653368
 20
12.36540985212997
 30
0.0
 10
20.5124351653368
 20
12.35553211741839
 30
0.0
 10
20.50432169632095
 20
12.34741864840248
 30
0.0
 10
20.49444396160932
 20
12.34741864840248
 30
0.0
  0
SPLINE
  5
36D
330
1F
100
AcDbEntity
  8
Livello 1
100
AcDbSpline
210
0.0
220
0.0
230
1.0
 70
     9
 71
     3
 72
    26
 73
    22
 74
     0
 42
0.000000001
 43
0.0000000001
 40
0.0
 40
0.0
 40
0.0
 40
0.0
 40
1.0
 40
1.0
 40
1.0
 40
2.0
 40
2.0
 40
2.0
 40
3.0
 40
3.0
 40
3.0
 40
4.0
 40
4.0
 40
4.0
 40
5.0
 40
5.0
 40
5.0
 40
6.0
 40
6.0
 40
6.0
 40
7.0
 40
7.0
 40
7.0
 40
7.0
 10
21.61419688762605
 20
13.11721446865817
 30
0.0
 10
21.60961060426132
 20
13.11721446865817
 30
0.0
 10
21.60502432089657
 20
13.11897738861359
 30
0.0
 10
21.60149578950503
 20
13.12250592000509
 30
0.0
 10
21.59443872672197
 20
13.12956163704766
 30
0.0
 10
21.59443872672197
 20
13.14084970772356
 30
0.0
 10
21.60149578950503
 20
13.14790542476626
 30
0.0
 10
21.60149578950503
 20
13.14790542476626
 30
0.0
 10
21.69851021666584
 20
13.24491985192708
 30
0.0
 10
21.69851021666584
 20
13.24491985192708
 30
0.0
 10
21.70556458796807
 20
13.25162163923818
 30
0.0
 10
21.71685265864396
 20
13.25162163923818
 30
0.0
 10
21.72390972142703
 20
13.24491985192708
 30
0.0
 10
21.73096409272924
 20
13.23786413488437
 30
0.0
 10
21.73096409272924
 20
13.22622213447695
 30
0.0
 10
21.72390972142703
 20
13.21951900142548
 30
0.0
 10
21.72390972142703
 20
13.21951900142548
 30
0.0
 10
21.62689529426621
 20
13.12250592000509
 30
0.0
 10
21.62689529426621
 20
13.12250592000509
 30
0.0
 10
21.62336676287468
 20
13.11897738861359
 30
0.0
 10
21.61878047950993
 20
13.11721446865817
 30
0.0
 10
21.61419688762605
 20
13.11721446865817
 30
0.0
  0
SPLINE
  5
36E
330
1F
100
AcDbEntity
  8
Livello 1
100
AcDbSpline
210
0.0
220
0.0
230
1.0
 70
     9
 71
     3
 72
    23
 73
    19
 74
     0
 42
0.000000001
 43
0.0000000001
 40
0.0
 40
0.0
 40
0.0
 40
0.0
 40
1.0
 40
1.0
 40
1.0
 40
2.0
 40
2.0
 40
2.0
 40
3.0
 40
3.0
 40
3.0
 40
4.0
 40
4.0
 40
4.0
 40
5.0
 40
5.0
 40
5.0
 40
6.0
 40
6.0
 40
6.0
 40
6.0
 10
21.57655383648799
 20
13.10652525247096
 30
0.0
 10
21.57655383648799
 20
13.10652525247096
 30
0.0
 10
19.98834732316231
 20
13.10652525247096
 30
0.0
 10
19.98834732316231
 20
13.10652525247096
 30
0.0
 10
19.9784695884507
 20
13.10652525247096
 30
0.0
 10
19.97035611943484
 20
13.11463872148678
 30
0.0
 10
19.97035611943484
 20
13.12451645619839
 30
0.0
 10
19.97035611943484
 20
13.13439419091009
 30
0.0
 10
19.9784695884507
 20
13.14250765992588
 30
0.0
 10
19.98834732316231
 20
13.14250765992588
 30
0.0
 10
19.98834732316231
 20
13.14250765992588
 30
0.0
 10
21.57655383648799
 20
13.14250765992588
 30
0.0
 10
21.57655383648799
 20
13.14250765992588
 30
0.0
 10
21.58643157119961
 20
13.14250765992588
 30
0.0
 10
21.59454369447503
 20
13.13439419091009
 30
0.0
 10
21.59454369447503
 20
13.12451645619839
 30
0.0
 10
21.59454369447503
 20
13.11463872148678
 30
0.0
 10
21.58643157119961
 20
13.10652525247096
 30
0.0
 10
21.57655383648799
 20
13.10652525247096
 30
0.0
  0
SPLINE
  5
36F
330
1F
100
AcDbEntity
  8
Livello 1
100
AcDbSpline
210
0.0
220
0.0
230
1.0
 70
     9
 71
     3
 72
    23
 73
    19
 74
     0
 42
0.000000001
 43
0.0000000001
 40
0.0
 40
0.0
 40
0.0
 40
0.0
 40
1.0
 40
1.0
 40
1.0
 40
2.0
 40
2.0
 40
2.0
 40
3.0
 40
3.0
 40
3.0
 40
4.0
 40
4.0
 40
4.0
 40
5.0
 40
5.0
 40
5.0
 40
6.0
 40
6.0
 40
6.0
 40
6.0
 10
21.61419688762605
 20
13.11721446865817
 30
0.0
 10
21.61419688762605
 20
13.11721446865817
 30
0.0
 10
19.94520423091167
 20
13.11721446865817
 30
0.0
 10
19.94520423091167
 20
13.11721446865817
 30
0.0
 10
19.93532649620006
 20
13.11721446865817
 30
0.0
 10
19.92756561117528
 20
13.12532793767408
 30
0.0
 10
19.92756561117528
 20
13.13520567238567
 30
0.0
 10
19.92756561117528
 20
13.14508340709724
 30
0.0
 10
19.93532649620006
 20
13.15319687611318
 30
0.0
 10
19.94520423091167
 20
13.15319687611318
 30
0.0
 10
19.94520423091167
 20
13.15319687611318
 30
0.0
 10
21.61419688762605
 20
13.15319687611318
 30
0.0
 10
21.61419688762605
 20
13.15319687611318
 30
0.0
 10
21.62407462233766
 20
13.15319687611318
 30
0.0
 10
21.63218674561309
 20
13.14508340709724
 30
0.0
 10
21.63218674561309
 20
13.13520567238567
 30
0.0
 10
21.63218674561309
 20
13.12532793767408
 30
0.0
 10
21.62407462233766
 20
13.11721446865817
 30
0.0
 10
21.61419688762605
 20
13.11721446865817
 30
0.0
  0
SPLINE
  5
370
330
1F
100
AcDbEntity
  8
Livello 1
100
AcDbSpline
210
0.0
220
0.0
230
1.0
 70
     9
 71
     3
 72
    23
 73
    19
 74
     0
 42
0.000000001
 43
0.0000000001
 40
0.0
 40
0.0
 40
0.0
 40
0.0
 40
1.0
 40
1.0
 40
1.0
 40
2.0
 40
2.0
 40
2.0
 40
3.0
 40
3.0
 40
3.0
 40
4.0
 40
4.0
 40
4.0
 40
5.0
 40
5.0
 40
5.0
 40
6.0
 40
6.0
 40
6.0
 40
6.0
 10
19.84843741998887
 20
13.21412258232547
 30
0.0
 10
19.83855833953684
 20
13.21412258232547
 30
0.0
 10
19.83044487052098
 20
13.22223605134138
 30
0.0
 10
19.83044487052098
 20
13.23211378605296
 30
0.0
 10
19.83044487052098
 20
13.23211378605296
 30
0.0
 10
19.83044487052098
 20
14.04491408729566
 30
0.0
 10
19.83044487052098
 20
14.04491408729566
 30
0.0
 10
19.83044487052098
 20
14.05479182200727
 30
0.0
 10
19.83855833953684
 20
14.06290529102307
 30
0.0
 10
19.84843741998887
 20
14.06290529102307
 30
0.0
 10
19.85831515470049
 20
14.06290529102307
 30
0.0
 10
19.86642862371635
 20
14.05479182200727
 30
0.0
 10
19.86642862371635
 20
14.04491408729566
 30
0.0
 10
19.86642862371635
 20
14.04491408729566
 30
0.0
 10
19.86642862371635
 20
13.23211378605296
 30
0.0
 10
19.86642862371635
 20
13.23211378605296
 30
0.0
 10
19.86642862371635
 20
13.22223605134138
 30
0.0
 10
19.85831515470049
 20
13.21412258232547
 30
0.0
 10
19.84843741998887
 20
13.21412258232547
 30
0.0
  0
SPLINE
  5
371
330
1F
100
AcDbEntity
  8
Livello 1
100
AcDbSpline
210
0.0
220
0.0
230
1.0
 70
     9
 71
     3
 72
    23
 73
    19
 74
     0
 42
0.000000001
 43
0.0000000001
 40
0.0
 40
0.0
 40
0.0
 40
0.0
 40
1.0
 40
1.0
 40
1.0
 40
2.0
 40
2.0
 40
2.0
 40
3.0
 40
3.0
 40
3.0
 40
4.0
 40
4.0
 40
4.0
 40
5.0
 40
5.0
 40
5.0
 40
6.0
 40
6.0
 40
6.0
 40
6.0
 10
21.71113864480396
 20
13.21412258232547
 30
0.0
 10
21.71113864480396
 20
13.21412258232547
 30
0.0
 10
19.84847106349947
 20
13.21412258232547
 30
0.0
 10
19.84847106349947
 20
13.21412258232547
 30
0.0
 10
19.83859332878786
 20
13.21412258232547
 30
0.0
 10
19.83047985977201
 20
13.22223605134138
 30
0.0
 10
19.83047985977201
 20
13.23211378605296
 30
0.0
 10
19.83047985977201
 20
13.24199152076457
 30
0.0
 10
19.83859332878786
 20
13.25010498978048
 30
0.0
 10
19.84847106349947
 20
13.25010498978048
 30
0.0
 10
19.84847106349947
 20
13.25010498978048
 30
0.0
 10
21.71113864480396
 20
13.25010498978048
 30
0.0
 10
21.71113864480396
 20
13.25010498978048
 30
0.0
 10
21.72101637951557
 20
13.25010498978048
 30
0.0
 10
21.729128502791
 20
13.24199152076457
 30
0.0
 10
21.729128502791
 20
13.23211378605296
 30
0.0
 10
21.729128502791
 20
13.22223605134138
 30
0.0
 10
21.72101637951557
 20
13.21412258232547
 30
0.0
 10
21.71113864480396
 20
13.21412258232547
 30
0.0
  0
SPLINE
  5
372
330
1F
100
AcDbEntity
  8
Livello 1
100
AcDbSpline
210
0.0
220
0.0
230
1.0
 70
     9
 71
     3
 72
    23
 73
    19
 74
     0
 42
0.000000001
 43
0.0000000001
 40
0.0
 40
0.0
 40
0.0
 40
0.0
 40
1.0
 40
1.0
 40
1.0
 40
2.0
 40
2.0
 40
2.0
 40
3.0
 40
3.0
 40
3.0
 40
4.0
 40
4.0
 40
4.0
 40
5.0
 40
5.0
 40
5.0
 40
6.0
 40
6.0
 40
6.0
 40
6.0
 10
20.26834880446643
 20
10.31242025850159
 30
0.0
 10
20.25846972401438
 20
10.31242025850159
 30
0.0
 10
20.25035625499854
 20
10.32053372751736
 30
0.0
 10
20.25035625499854
 20
10.33041146222908
 30
0.0
 10
20.25035625499854
 20
10.33041146222908
 30
0.0
 10
20.25035625499854
 20
12.36523356013447
 30
0.0
 10
20.25035625499854
 20
12.36523356013447
 30
0.0
 10
20.25035625499854
 20
12.37511129484608
 30
0.0
 10
20.25846972401438
 20
12.38322476386187
 30
0.0
 10
20.26834880446643
 20
12.38322476386187
 30
0.0
 10
20.27822653917803
 20
12.38322476386187
 30
0.0
 10
20.28634000819389
 20
12.37511129484608
 30
0.0
 10
20.28634000819389
 20
12.36523356013447
 30
0.0
 10
20.28634000819389
 20
12.36523356013447
 30
0.0
 10
20.28634000819389
 20
10.33041146222908
 30
0.0
 10
20.28634000819389
 20
10.33041146222908
 30
0.0
 10
20.28634000819389
 20
10.32053372751736
 30
0.0
 10
20.27822653917803
 20
10.31242025850159
 30
0.0
 10
20.26834880446643
 20
10.31242025850159
 30
0.0
  0
SPLINE
  5
373
330
1F
100
AcDbEntity
  8
Livello 1
100
AcDbSpline
210
0.0
220
0.0
230
1.0
 70
     9
 71
     3
 72
    23
 73
    19
 74
     0
 42
0.000000001
 43
0.0000000001
 40
0.0
 40
0.0
 40
0.0
 40
0.0
 40
1.0
 40
1.0
 40
1.0
 40
2.0
 40
2.0
 40
2.0
 40
3.0
 40
3.0
 40
3.0
 40
4.0
 40
4.0
 40
4.0
 40
5.0
 40
5.0
 40
5.0
 40
6.0
 40
6.0
 40
6.0
 40
6.0
 10
20.48375474542209
 20
10.28539711791896
 30
0.0
 10
20.47387566497004
 20
10.28539711791896
 30
0.0
 10
20.4657621959542
 20
10.29351058693475
 30
0.0
 10
20.4657621959542
 20
10.30338832164636
 30
0.0
 10
20.4657621959542
 20
10.30338832164636
 30
0.0
 10
20.4657621959542
 20
12.20909402744849
 30
0.0
 10
20.4657621959542
 20
12.20909402744849
 30
0.0
 10
20.4657621959542
 20
12.21897176216009
 30
0.0
 10
20.47387566497004
 20
12.22708523117586
 30
0.0
 10
20.48375474542209
 20
12.22708523117586
 30
0.0
 10
20.4936324801337
 20
12.22708523117586
 30
0.0
 10
20.50174594914956
 20
12.21897176216009
 30
0.0
 10
20.50174594914956
 20
12.20909402744849
 30
0.0
 10
20.50174594914956
 20
12.20909402744849
 30
0.0
 10
20.50174594914956
 20
10.30338832164636
 30
0.0
 10
20.50174594914956
 20
10.30338832164636
 30
0.0
 10
20.50174594914956
 20
10.29351058693475
 30
0.0
 10
20.4936324801337
 20
10.28539711791896
 30
0.0
 10
20.48375474542209
 20
10.28539711791896
 30
0.0
  0
SPLINE
  5
374
330
1F
100
AcDbEntity
  8
Livello 1
100
AcDbSpline
210
0.0
220
0.0
230
1.0
 70
     9
 71
     3
 72
    26
 73
    22
 74
     0
 42
0.000000001
 43
0.0000000001
 40
0.0
 40
0.0
 40
0.0
 40
0.0
 40
1.0
 40
1.0
 40
1.0
 40
2.0
 40
2.0
 40
2.0
 40
3.0
 40
3.0
 40
3.0
 40
4.0
 40
4.0
 40
4.0
 40
5.0
 40
5.0
 40
5.0
 40
6.0
 40
6.0
 40
6.0
 40
7.0
 40
7.0
 40
7.0
 40
7.0
 10
19.94534553365618
 20
13.11721446865817
 30
0.0
 10
19.94075925029146
 20
13.11721446865817
 30
0.0
 10
19.93617296692671
 20
13.11897738861359
 30
0.0
 10
19.93264443553518
 20
13.12250592000509
 30
0.0
 10
19.93264443553518
 20
13.12250592000509
 30
0.0
 10
19.83563135411479
 20
13.21951900142548
 30
0.0
 10
19.83563135411479
 20
13.21951900142548
 30
0.0
 10
19.82857563707215
 20
13.22622213447695
 30
0.0
 10
19.82857563707215
 20
13.23786413488437
 30
0.0
 10
19.83563135411479
 20
13.24491985192708
 30
0.0
 10
19.84268707115745
 20
13.25162163923818
 30
0.0
 10
19.85397514183333
 20
13.25162163923818
 30
0.0
 10
19.86103085887596
 20
13.24491985192708
 30
0.0
 10
19.86103085887596
 20
13.24491985192708
 30
0.0
 10
19.95804528603678
 20
13.14790542476626
 30
0.0
 10
19.95804528603678
 20
13.14790542476626
 30
0.0
 10
19.96510100307942
 20
13.14084970772356
 30
0.0
 10
19.96510100307942
 20
13.12956163704766
 30
0.0
 10
19.95804528603678
 20
13.12250592000509
 30
0.0
 10
19.95451675464525
 20
13.11897738861359
 30
0.0
 10
19.9499304712805
 20
13.11721446865817
 30
0.0
 10
19.94534553365618
 20
13.11721446865817
 30
0.0
  0
SPLINE
  5
375
330
1F
100
AcDbEntity
  8
Livello 1
100
AcDbSpline
210
0.0
220
0.0
230
1.0
 70
     9
 71
     3
 72
    23
 73
    19
 74
     0
 42
0.000000001
 43
0.0000000001
 40
0.0
 40
0.0
 40
0.0
 40
0.0
 40
1.0
 40
1.0
 40
1.0
 40
2.0
 40
2.0
 40
2.0
 40
3.0
 40
3.0
 40
3.0
 40
4.0
 40
4.0
 40
4.0
 40
5.0
 40
5.0
 40
5.0
 40
6.0
 40
6.0
 40
6.0
 40
6.0
 10
21.08121908421111
 20
10.28014065582306
 30
0.0
 10
21.07133865801865
 20
10.28014065582306
 30
0.0
 10
21.06322653474324
 20
10.28825412483897
 30
0.0
 10
21.06322653474324
 20
10.29813185955058
 30
0.0
 10
21.06322653474324
 20
10.29813185955058
 30
0.0
 10
21.06322653474324
 20
12.20912901669945
 30
0.0
 10
21.06322653474324
 20
12.20912901669945
 30
0.0
 10
21.06322653474324
 20
12.21900675141106
 30
0.0
 10
21.07133865801865
 20
12.22712022042697
 30
0.0
 10
21.08121908421111
 20
12.22712022042697
 30
0.0
 10
21.09109681892274
 20
12.22712022042697
 30
0.0
 10
21.09920894219815
 20
12.21900675141106
 30
0.0
 10
21.09920894219815
 20
12.20912901669945
 30
0.0
 10
21.09920894219815
 20
12.20912901669945
 30
0.0
 10
21.09920894219815
 20
10.29813185955058
 30
0.0
 10
21.09920894219815
 20
10.29813185955058
 30
0.0
 10
21.09920894219815
 20
10.28825412483897
 30
0.0
 10
21.09109681892274
 20
10.28014065582306
 30
0.0
 10
21.08121908421111
 20
10.28014065582306
 30
0.0
  0
SPLINE
  5
376
330
1F
100
AcDbEntity
  8
Livello 1
100
AcDbSpline
210
0.0
220
0.0
230
1.0
 70
     9
 71
     3
 72
    23
 73
    19
 74
     0
 42
0.000000001
 43
0.0000000001
 40
0.0
 40
0.0
 40
0.0
 40
0.0
 40
1.0
 40
1.0
 40
1.0
 40
2.0
 40
2.0
 40
2.0
 40
3.0
 40
3.0
 40
3.0
 40
4.0
 40
4.0
 40
4.0
 40
5.0
 40
5.0
 40
5.0
 40
6.0
 40
6.0
 40
6.0
 40
6.0
 10
21.29122726032642
 20
10.28014065582306
 30
0.0
 10
21.28134683413396
 20
10.28014065582306
 30
0.0
 10
21.27323471085853
 20
10.28825412483897
 30
0.0
 10
21.27323471085853
 20
10.29813185955058
 30
0.0
 10
21.27323471085853
 20
10.29813185955058
 30
0.0
 10
21.27323471085853
 20
12.36540985212997
 30
0.0
 10
21.27323471085853
 20
12.36540985212997
 30
0.0
 10
21.27323471085853
 20
12.37528758684158
 30
0.0
 10
21.28134683413396
 20
12.38340105585746
 30
0.0
 10
21.29122726032642
 20
12.38340105585746
 30
0.0
 10
21.30110499503804
 20
12.38340105585746
 30
0.0
 10
21.30921711831346
 20
12.37528758684158
 30
0.0
 10
21.30921711831346
 20
12.36540985212997
 30
0.0
 10
21.30921711831346
 20
12.36540985212997
 30
0.0
 10
21.30921711831346
 20
10.29813185955058
 30
0.0
 10
21.30921711831346
 20
10.29813185955058
 30
0.0
 10
21.30921711831346
 20
10.28825412483897
 30
0.0
 10
21.30110499503804
 20
10.28014065582306
 30
0.0
 10
21.29122726032642
 20
10.28014065582306
 30
0.0
  0
SPLINE
  5
377
330
1F
100
AcDbEntity
  8
Livello 1
100
AcDbSpline
210
0.0
220
0.0
230
1.0
 70
     9
 71
     3
 72
    23
 73
    19
 74
     0
 42
0.000000001
 43
0.0000000001
 40
0.0
 40
0.0
 40
0.0
 40
0.0
 40
1.0
 40
1.0
 40
1.0
 40
2.0
 40
2.0
 40
2.0
 40
3.0
 40
3.0
 40
3.0
 40
4.0
 40
4.0
 40
4.0
 40
5.0
 40
5.0
 40
5.0
 40
6.0
 40
6.0
 40
6.0
 40
6.0
 10
21.71113864480396
 20
13.21412258232547
 30
0.0
 10
21.7012582186115
 20
13.21412258232547
 30
0.0
 10
21.69314609533607
 20
13.22223605134138
 30
0.0
 10
21.69314609533607
 20
13.23211378605296
 30
0.0
 10
21.69314609533607
 20
13.23211378605296
 30
0.0
 10
21.69314609533607
 20
14.04491408729566
 30
0.0
 10
21.69314609533607
 20
14.04491408729566
 30
0.0
 10
21.69314609533607
 20
14.05479182200727
 30
0.0
 10
21.7012582186115
 20
14.06290529102307
 30
0.0
 10
21.71113864480396
 20
14.06290529102307
 30
0.0
 10
21.72101637951557
 20
14.06290529102307
 30
0.0
 10
21.729128502791
 20
14.05479182200727
 30
0.0
 10
21.729128502791
 20
14.04491408729566
 30
0.0
 10
21.729128502791
 20
14.04491408729566
 30
0.0
 10
21.729128502791
 20
13.23211378605296
 30
0.0
 10
21.729128502791
 20
13.23211378605296
 30
0.0
 10
21.729128502791
 20
13.22223605134138
 30
0.0
 10
21.72101637951557
 20
13.21412258232547
 30
0.0
 10
21.71113864480396
 20
13.21412258232547
 30
0.0
  0
SPLINE
  5
378
330
1F
100
AcDbEntity
  8
Livello 1
100
AcDbSpline
210
0.0
220
0.0
230
1.0
 70
     9
 71
     3
 72
    23
 73
    19
 74
     0
 42
0.000000001
 43
0.0000000001
 40
0.0
 40
0.0
 40
0.0
 40
0.0
 40
1.0
 40
1.0
 40
1.0
 40
2.0
 40
2.0
 40
2.0
 40
3.0
 40
3.0
 40
3.0
 40
4.0
 40
4.0
 40
4.0
 40
5.0
 40
5.0
 40
5.0
 40
6.0
 40
6.0
 40
6.0
 40
6.0
 10
23.28315186360856
 20
5.192520872951774
 30
0.0
 10
23.27327143741609
 20
5.192520872951774
 30
0.0
 10
23.26515931414067
 20
5.200634678402678
 30
0.0
 10
23.26515931414067
 20
5.210512413114287
 30
0.0
 10
23.26515931414067
 20
5.210512413114287
 30
0.0
 10
23.26515931414067
 20
7.778381620066454
 30
0.0
 10
23.26515931414067
 20
7.778381620066454
 30
0.0
 10
23.26515931414067
 20
7.788259354778062
 30
0.0
 10
23.27327143741609
 20
7.796373496664187
 30
0.0
 10
23.28315186360856
 20
7.796373496664187
 30
0.0
 10
23.29302959832017
 20
7.796373496664187
 30
0.0
 10
23.3011417215956
 20
7.788259354778062
 30
0.0
 10
23.3011417215956
 20
7.778381620066454
 30
0.0
 10
23.3011417215956
 20
7.778381620066454
 30
0.0
 10
23.3011417215956
 20
5.210512413114287
 30
0.0
 10
23.3011417215956
 20
5.210512413114287
 30
0.0
 10
23.3011417215956
 20
5.200634678402678
 30
0.0
 10
23.29302959832017
 20
5.192520872951774
 30
0.0
 10
23.28315186360856
 20
5.192520872951774
 30
0.0
  0
SPLINE
  5
379
330
1F
100
AcDbEntity
  8
Livello 1
100
AcDbSpline
210
0.0
220
0.0
230
1.0
 70
     9
 71
     3
 72
    23
 73
    19
 74
     0
 42
0.000000001
 43
0.0000000001
 40
0.0
 40
0.0
 40
0.0
 40
0.0
 40
1.0
 40
1.0
 40
1.0
 40
2.0
 40
2.0
 40
2.0
 40
3.0
 40
3.0
 40
3.0
 40
4.0
 40
4.0
 40
4.0
 40
5.0
 40
5.0
 40
5.0
 40
6.0
 40
6.0
 40
6.0
 40
6.0
 10
23.28315186360856
 20
7.760531719083559
 30
0.0
 10
23.27327143741609
 20
7.760531719083559
 30
0.0
 10
23.26515931414067
 20
7.768645188099384
 30
0.0
 10
23.26515931414067
 20
7.778522922810964
 30
0.0
 10
23.26515931414067
 20
7.778522922810964
 30
0.0
 10
23.26515931414067
 20
10.29806188104845
 30
0.0
 10
23.26515931414067
 20
10.29806188104845
 30
0.0
 10
23.26515931414067
 20
10.30793961576006
 30
0.0
 10
23.27327143741609
 20
10.31605375764616
 30
0.0
 10
23.28315186360856
 20
10.31605375764616
 30
0.0
 10
23.29302959832017
 20
10.31605375764616
 30
0.0
 10
23.3011417215956
 20
10.30793961576006
 30
0.0
 10
23.3011417215956
 20
10.29806188104845
 30
0.0
 10
23.3011417215956
 20
10.29806188104845
 30
0.0
 10
23.3011417215956
 20
7.778522922810964
 30
0.0
 10
23.3011417215956
 20
7.778522922810964
 30
0.0
 10
23.3011417215956
 20
7.768645188099384
 30
0.0
 10
23.29302959832017
 20
7.760531719083559
 30
0.0
 10
23.28315186360856
 20
7.760531719083559
 30
0.0
  0
SPLINE
  5
37A
330
1F
100
AcDbEntity
  8
Livello 1
100
AcDbSpline
210
0.0
220
0.0
230
1.0
 70
     9
 71
     3
 72
    23
 73
    19
 74
     0
 42
0.000000001
 43
0.0000000001
 40
0.0
 40
0.0
 40
0.0
 40
0.0
 40
1.0
 40
1.0
 40
1.0
 40
2.0
 40
2.0
 40
2.0
 40
3.0
 40
3.0
 40
3.0
 40
4.0
 40
4.0
 40
4.0
 40
5.0
 40
5.0
 40
5.0
 40
6.0
 40
6.0
 40
6.0
 40
6.0
 10
21.29662637090722
 20
12.35013435257795
 30
0.0
 10
21.28674594471474
 20
12.35013435257795
 30
0.0
 10
21.27863382143932
 20
12.35824782159386
 30
0.0
 10
21.27863382143932
 20
12.36812555630547
 30
0.0
 10
21.27863382143932
 20
12.65105267729117
 30
0.0
 10
21.37987925649296
 20
12.92551374526996
 30
0.0
 10
21.56403037610296
 20
13.14070840497908
 30
0.0
 10
21.57037957942302
 20
13.14811670601276
 30
0.0
 10
21.58167034157976
 20
13.14917580372648
 30
0.0
 10
21.58942988086411
 20
13.14282525466595
 30
0.0
 10
21.59683952763825
 20
13.13612212161436
 30
0.0
 10
21.59754469562039
 20
13.12483405093846
 30
0.0
 10
21.59119549230031
 20
13.11742574990475
 30
0.0
 10
21.41268840802825
 20
12.90893422324717
 30
0.0
 10
21.31461622889425
 20
12.64258662428426
 30
0.0
 10
21.31461622889425
 20
12.36812555630547
 30
0.0
 10
21.31461622889425
 20
12.35824782159386
 30
0.0
 10
21.30650410561883
 20
12.35013435257795
 30
0.0
 10
21.29662637090722
 20
12.35013435257795
 30
0.0
  0
SPLINE
  5
37B
330
1F
100
AcDbEntity
  8
Livello 1
100
AcDbSpline
210
0.0
220
0.0
230
1.0
 70
     9
 71
     3
 72
    23
 73
    19
 74
     0
 42
0.000000001
 43
0.0000000001
 40
0.0
 40
0.0
 40
0.0
 40
0.0
 40
1.0
 40
1.0
 40
1.0
 40
2.0
 40
2.0
 40
2.0
 40
3.0
 40
3.0
 40
3.0
 40
4.0
 40
4.0
 40
4.0
 40
5.0
 40
5.0
 40
5.0
 40
6.0
 40
6.0
 40
6.0
 40
6.0
 10
20.26834880446643
 20
12.35020567682045
 30
0.0
 10
20.25846972401438
 20
12.35020567682045
 30
0.0
 10
20.25035625499854
 20
12.35831914583627
 30
0.0
 10
20.25035625499854
 20
12.36819688054788
 30
0.0
 10
20.25035625499854
 20
12.64265794852676
 30
0.0
 10
20.15228407586453
 20
12.90865161775818
 30
0.0
 10
19.97377833733289
 20
13.11749707414725
 30
0.0
 10
19.96742913401282
 20
13.12490537518096
 30
0.0
 10
19.96813430199496
 20
13.13619344585674
 30
0.0
 10
19.97554260302864
 20
13.14254399491736
 30
0.0
 10
19.98330348805343
 20
13.14924712796889
 30
0.0
 10
19.99459290446975
 20
13.14818803025528
 30
0.0
 10
20.00094210778982
 20
13.14077972922158
 30
0.0
 10
20.18473929766833
 20
12.92558506951246
 30
0.0
 10
20.28634000819389
 20
12.65112400153367
 30
0.0
 10
20.28634000819389
 20
12.36819688054788
 30
0.0
 10
20.28634000819389
 20
12.35831914583627
 30
0.0
 10
20.27822653917803
 20
12.35020567682045
 30
0.0
 10
20.26834880446643
 20
12.35020567682045
 30
0.0
  0
SPLINE
  5
37C
330
1F
100
AcDbEntity
  8
Livello 1
100
AcDbSpline
210
0.0
220
0.0
230
1.0
 70
     9
 71
     3
 72
    26
 73
    22
 74
     0
 42
0.000000001
 43
0.0000000001
 40
0.0
 40
0.0
 40
0.0
 40
0.0
 40
1.0
 40
1.0
 40
1.0
 40
2.0
 40
2.0
 40
2.0
 40
3.0
 40
3.0
 40
3.0
 40
4.0
 40
4.0
 40
4.0
 40
5.0
 40
5.0
 40
5.0
 40
6.0
 40
6.0
 40
6.0
 40
7.0
 40
7.0
 40
7.0
 40
7.0
 10
19.99014792384952
 20
13.11150045481815
 30
0.0
 10
19.98520771075329
 20
13.11150045481815
 30
0.0
 10
19.98026884339749
 20
13.11361595876468
 30
0.0
 10
19.97674165774639
 20
13.11749707414725
 30
0.0
 10
19.97286054236377
 20
13.12173077352088
 30
0.0
 10
19.97039110868588
 20
13.12631705688568
 30
0.0
 10
19.96827560473946
 20
13.13125592424146
 30
0.0
 10
19.96509965733899
 20
13.14077972922158
 30
0.0
 10
19.96968594070374
 20
13.15101139366467
 30
0.0
 10
19.97885850743321
 20
13.15453857931578
 30
0.0
 10
19.9880310741627
 20
13.15771318097577
 30
0.0
 10
19.99861397685645
 20
13.15312689761109
 30
0.0
 10
20.00214116250756
 20
13.14395567662208
 30
0.0
 10
20.00214116250756
 20
13.14289657890839
 30
0.0
 10
20.00284767623011
 20
13.14219141092627
 30
0.0
 10
20.00355284421225
 20
13.14113365895307
 30
0.0
 10
20.01025597726382
 20
13.13372535791939
 30
0.0
 10
20.00954946354125
 20
13.12243594150308
 30
0.0
 10
20.00214116250756
 20
13.11608539244258
 30
0.0
 10
19.99861397685645
 20
13.11291079078245
 30
0.0
 10
19.99438027748277
 20
13.11150045481815
 30
0.0
 10
19.99014792384952
 20
13.11150045481815
 30
0.0
  0
SPLINE
  5
37D
330
1F
100
AcDbEntity
  8
Livello 1
100
AcDbSpline
210
0.0
220
0.0
230
1.0
 70
     9
 71
     3
 72
    26
 73
    22
 74
     0
 42
0.000000001
 43
0.0000000001
 40
0.0
 40
0.0
 40
0.0
 40
0.0
 40
1.0
 40
1.0
 40
1.0
 40
2.0
 40
2.0
 40
2.0
 40
3.0
 40
3.0
 40
3.0
 40
4.0
 40
4.0
 40
4.0
 40
5.0
 40
5.0
 40
5.0
 40
6.0
 40
6.0
 40
6.0
 40
7.0
 40
7.0
 40
7.0
 40
7.0
 10
21.57482590578368
 20
13.11150045481815
 30
0.0
 10
21.57059220641
 20
13.11150045481815
 30
0.0
 10
21.56635850703633
 20
13.11291079078245
 30
0.0
 10
21.56318255963587
 20
13.11573280845147
 30
0.0
 10
21.55577560434258
 20
13.12243594150308
 30
0.0
 10
21.55471516088853
 20
13.13372535791939
 30
0.0
 10
21.56141963968054
 20
13.14113365895307
 30
0.0
 10
21.56212480766267
 20
13.14219141092627
 30
0.0
 10
21.5628299756448
 20
13.14289657890839
 30
0.0
 10
21.5628299756448
 20
13.14395567662208
 30
0.0
 10
21.56635850703633
 20
13.15312689761109
 30
0.0
 10
21.5769414097301
 20
13.15771318097577
 30
0.0
 10
21.58611397645957
 20
13.15453857931578
 30
0.0
 10
21.59528654318905
 20
13.15101139366467
 30
0.0
 10
21.59987282655378
 20
13.14077972922158
 30
0.0
 10
21.59669687915332
 20
13.13125592424146
 30
0.0
 10
21.59493395919797
 20
13.12666964087666
 30
0.0
 10
21.59211059578858
 20
13.12208335751197
 30
0.0
 10
21.58822948040599
 20
13.11784965813828
 30
0.0
 10
21.58470364049529
 20
13.11361595876468
 30
0.0
 10
21.57976477313948
 20
13.11150045481815
 30
0.0
 10
21.57482590578368
 20
13.11150045481815
 30
0.0
  0
SPLINE
  5
37E
330
1F
100
AcDbEntity
  8
Livello 1
100
AcDbSpline
210
0.0
220
0.0
230
1.0
 70
     9
 71
     3
 72
   314
 73
   310
 74
     0
 42
0.000000001
 43
0.0000000001
 40
0.0
 40
0.0
 40
0.0
 40
0.0
 40
1.0
 40
1.0
 40
1.0
 40
2.0
 40
2.0
 40
2.0
 40
3.0
 40
3.0
 40
3.0
 40
4.0
 40
4.0
 40
4.0
 40
5.0
 40
5.0
 40
5.0
 40
6.0
 40
6.0
 40
6.0
 40
7.0
 40
7.0
 40
7.0
 40
8.0
 40
8.0
 40
8.0
 40
9.0
 40
9.0
 40
9.0
 40
10.0
 40
10.0
 40
10.0
 40
11.0
 40
11.0
 40
11.0
 40
12.0
 40
12.0
 40
12.0
 40
13.0
 40
13.0
 40
13.0
 40
14.0
 40
14.0
 40
14.0
 40
15.0
 40
15.0
 40
15.0
 40
16.0
 40
16.0
 40
16.0
 40
17.0
 40
17.0
 40
17.0
 40
18.0
 40
18.0
 40
18.0
 40
19.0
 40
19.0
 40
19.0
 40
20.0
 40
20.0
 40
20.0
 40
21.0
 40
21.0
 40
21.0
 40
22.0
 40
22.0
 40
22.0
 40
23.0
 40
23.0
 40
23.0
 40
24.0
 40
24.0
 40
24.0
 40
25.0
 40
25.0
 40
25.0
 40
26.0
 40
26.0
 40
26.0
 40
27.0
 40
27.0
 40
27.0
 40
28.0
 40
28.0
 40
28.0
 40
29.0
 40
29.0
 40
29.0
 40
30.0
 40
30.0
 40
30.0
 40
31.0
 40
31.0
 40
31.0
 40
32.0
 40
32.0
 40
32.0
 40
33.0
 40
33.0
 40
33.0
 40
34.0
 40
34.0
 40
34.0
 40
35.0
 40
35.0
 40
35.0
 40
36.0
 40
36.0
 40
36.0
 40
37.0
 40
37.0
 40
37.0
 40
38.0
 40
38.0
 40
38.0
 40
39.0
 40
39.0
 40
39.0
 40
40.0
 40
40.0
 40
40.0
 40
41.0
 40
41.0
 40
41.0
 40
42.0
 40
42.0
 40
42.0
 40
43.0
 40
43.0
 40
43.0
 40
44.0
 40
44.0
 40
44.0
 40
45.0
 40
45.0
 40
45.0
 40
46.0
 40
46.0
 40
46.0
 40
47.0
 40
47.0
 40
47.0
 40
48.0
 40
48.0
 40
48.0
 40
49.0
 40
49.0
 40
49.0
 40
50.0
 40
50.0
 40
50.0
 40
51.0
 40
51.0
 40
51.0
 40
52.0
 40
52.0
 40
52.0
 40
53.0
 40
53.0
 40
53.0
 40
54.0
 40
54.0
 40
54.0
 40
55.0
 40
55.0
 40
55.0
 40
56.0
 40
56.0
 40
56.0
 40
57.0
 40
57.0
 40
57.0
 40
58.0
 40
58.0
 40
58.0
 40
59.0
 40
59.0
 40
59.0
 40
60.0
 40
60.0
 40
60.0
 40
61.0
 40
61.0
 40
61.0
 40
62.0
 40
62.0
 40
62.0
 40
63.0
 40
63.0
 40
63.0
 40
64.0
 40
64.0
 40
64.0
 40
65.0
 40
65.0
 40
65.0
 40
66.0
 40
66.0
 40
66.0
 40
67.0
 40
67.0
 40
67.0
 40
68.0
 40
68.0
 40
68.0
 40
69.0
 40
69.0
 40
69.0
 40
70.0
 40
70.0
 40
70.0
 40
71.0
 40
71.0
 40
71.0
 40
72.0
 40
72.0
 40
72.0
 40
73.0
 40
73.0
 40
73.0
 40
74.0
 40
74.0
 40
74.0
 40
75.0
 40
75.0
 40
75.0
 40
76.0
 40
76.0
 40
76.0
 40
77.0
 40
77.0
 40
77.0
 40
78.0
 40
78.0
 40
78.0
 40
79.0
 40
79.0
 40
79.0
 40
80.0
 40
80.0
 40
80.0
 40
81.0
 40
81.0
 40
81.0
 40
82.0
 40
82.0
 40
82.0
 40
83.0
 40
83.0
 40
83.0
 40
84.0
 40
84.0
 40
84.0
 40
85.0
 40
85.0
 40
85.0
 40
86.0
 40
86.0
 40
86.0
 40
87.0
 40
87.0
 40
87.0
 40
88.0
 40
88.0
 40
88.0
 40
89.0
 40
89.0
 40
89.0
 40
90.0
 40
90.0
 40
90.0
 40
91.0
 40
91.0
 40
91.0
 40
92.0
 40
92.0
 40
92.0
 40
93.0
 40
93.0
 40
93.0
 40
94.0
 40
94.0
 40
94.0
 40
95.0
 40
95.0
 40
95.0
 40
96.0
 40
96.0
 40
96.0
 40
97.0
 40
97.0
 40
97.0
 40
98.0
 40
98.0
 40
98.0
 40
99.0
 40
99.0
 40
99.0
 40
100.0
 40
100.0
 40
100.0
 40
101.0
 40
101.0
 40
101.0
 40
102.0
 40
102.0
 40
102.0
 40
103.0
 40
103.0
 40
103.0
 40
103.0
 10
21.08121908421111
 20
12.19124412646548
 30
0.0
 10
21.07239910147271
 20
12.19124412646548
 30
0.0
 10
21.0646368707075
 20
12.19759332978557
 30
0.0
 10
21.06357911873429
 20
12.20676589651506
 30
0.0
 10
21.06357911873429
 20
12.20676589651506
 30
0.0
 10
21.05793508339635
 20
12.24451256966577
 30
0.0
 10
21.05793508339635
 20
12.24451256966577
 30
0.0
 10
21.05793508339635
 20
12.24451256966577
 30
0.0
 10
21.05793508339635
 20
12.29002147358167
 30
0.0
 10
21.05793508339635
 20
12.29002147358167
 30
0.0
 10
21.05793508339635
 20
12.29002147358167
 30
0.0
 10
20.99902125911773
 20
12.66396505665875
 30
0.0
 10
20.99902125911773
 20
12.66396505665875
 30
0.0
 10
20.99902125911773
 20
12.66396505665875
 30
0.0
 10
20.96726985955563
 20
12.81707129042917
 30
0.0
 10
20.96726985955563
 20
12.81707129042917
 30
0.0
 10
20.96726985955563
 20
12.81707129042917
 30
0.0
 10
20.95739212484401
 20
12.83647417586138
 30
0.0
 10
20.95739212484401
 20
12.83647417586138
 30
0.0
 10
20.95668695686188
 20
12.83788451182556
 30
0.0
 10
20.95633437287081
 20
12.83929619353026
 30
0.0
 10
20.95598178887974
 20
12.8410604592261
 30
0.0
 10
20.95598178887974
 20
12.8410604592261
 30
0.0
 10
20.94539888618599
 20
12.88868486708836
 30
0.0
 10
20.94539888618599
 20
12.88868486708836
 30
0.0
 10
20.94539888618599
 20
12.88868486708836
 30
0.0
 10
20.8995360525386
 20
12.98993299362286
 30
0.0
 10
20.8995360525386
 20
12.98993299362286
 30
0.0
 10
20.8995360525386
 20
12.98993299362286
 30
0.0
 10
20.89107134527211
 20
12.99875163062089
 30
0.0
 10
20.89107134527211
 20
12.99875163062089
 30
0.0
 10
20.88930573383592
 20
13.00016331232558
 30
0.0
 10
20.88824798186271
 20
13.00157364828976
 30
0.0
 10
20.88754281388057
 20
13.00333791398557
 30
0.0
 10
20.88754281388057
 20
13.00333791398557
 30
0.0
 10
20.87801766316003
 20
13.02238821542667
 30
0.0
 10
20.87801766316003
 20
13.02238821542667
 30
0.0
 10
20.87801766316003
 20
13.02238821542667
 30
0.0
 10
20.87131587584888
 20
13.02909134847826
 30
0.0
 10
20.87131587584888
 20
13.02909134847826
 30
0.0
 10
20.87131587584888
 20
13.02909134847826
 30
0.0
 10
20.8632010610926
 20
13.03297111812048
 30
0.0
 10
20.8632010610926
 20
13.03297111812048
 30
0.0
 10
20.86143814113726
 20
13.03367628610258
 30
0.0
 10
20.86002511369215
 20
13.03508796780727
 30
0.0
 10
20.85861477772786
 20
13.03649964951197
 30
0.0
 10
20.85861477772786
 20
13.03649964951197
 30
0.0
 10
20.83462560893098
 20
13.06048747256847
 30
0.0
 10
20.83462560893098
 20
13.06048747256847
 30
0.0
 10
20.83462560893098
 20
13.06048747256847
 30
0.0
 10
20.80675532475146
 20
13.06895487131575
 30
0.0
 10
20.80675532475146
 20
13.06895487131575
 30
0.0
 10
20.80463982080506
 20
13.06895487131575
 30
0.0
 10
20.80287690084971
 20
13.06930745530687
 30
0.0
 10
20.80111128941353
 20
13.06966003929799
 30
0.0
 10
20.80111128941353
 20
13.06966003929799
 30
0.0
 10
20.78770771479122
 20
13.07424632266267
 30
0.0
 10
20.78770771479122
 20
13.07424632266267
 30
0.0
 10
20.78770771479122
 20
13.07424632266267
 30
0.0
 10
20.77183201501017
 20
13.07424632266267
 30
0.0
 10
20.77183201501017
 20
13.07424632266267
 30
0.0
 10
20.77183201501017
 20
13.07424632266267
 30
0.0
 10
20.75842709464745
 20
13.06966003929799
 30
0.0
 10
20.75842709464745
 20
13.06966003929799
 30
0.0
 10
20.75666282895167
 20
13.06930745530687
 30
0.0
 10
20.75489856325591
 20
13.06895487131575
 30
0.0
 10
20.75278171356909
 20
13.06895487131575
 30
0.0
 10
20.75278171356909
 20
13.06895487131575
 30
0.0
 10
20.74643251024899
 20
13.06895487131575
 30
0.0
 10
20.74643251024899
 20
13.06895487131575
 30
0.0
 10
20.74643251024899
 20
13.06895487131575
 30
0.0
 10
20.7312633241905
 20
13.06119398629096
 30
0.0
 10
20.7312633241905
 20
13.06119398629096
 30
0.0
 10
20.7312633241905
 20
13.06119398629096
 30
0.0
 10
20.72244334145211
 20
13.05237400355258
 30
0.0
 10
20.72244334145211
 20
13.05237400355258
 30
0.0
 10
20.72103165974739
 20
13.05096232184786
 30
0.0
 10
20.71962132378312
 20
13.04990456987468
 30
0.0
 10
20.71785705808736
 20
13.04919940189259
 30
0.0
 10
20.71785705808736
 20
13.04919940189259
 30
0.0
 10
20.70939100508045
 20
13.04496570251888
 30
0.0
 10
20.70939100508045
 20
13.04496570251888
 30
0.0
 10
20.70939100508045
 20
13.04496570251888
 30
0.0
 10
20.7009236063331
 20
13.03649964951197
 30
0.0
 10
20.7009236063331
 20
13.03649964951197
 30
0.0
 10
20.69951327036882
 20
13.03508796780727
 30
0.0
 10
20.69810158866414
 20
13.03403021583406
 30
0.0
 10
20.69633732296836
 20
13.03297111812048
 30
0.0
 10
20.69633732296836
 20
13.03297111812048
 30
0.0
 10
20.69069328763042
 20
13.03014910045147
 30
0.0
 10
20.69069328763042
 20
13.03014910045147
 30
0.0
 10
20.69069328763042
 20
13.03014910045147
 30
0.0
 10
20.68822385395251
 20
13.02485764910457
 30
0.0
 10
20.68822385395251
 20
13.02485764910457
 30
0.0
 10
20.68716610197931
 20
13.02309338340876
 30
0.0
 10
20.68610700426569
 20
13.02168304744458
 30
0.0
 10
20.6846966683014
 20
13.02027136573989
 30
0.0
 10
20.6846966683014
 20
13.02027136573989
 30
0.0
 10
20.67622926955406
 20
13.01145138300148
 30
0.0
 10
20.67622926955406
 20
13.01145138300148
 30
0.0
 10
20.67622926955406
 20
13.01145138300148
 30
0.0
 10
20.67199557018039
 20
13.00333791398557
 30
0.0
 10
20.67199557018039
 20
13.00333791398557
 30
0.0
 10
20.67093781820719
 20
13.00157364828976
 30
0.0
 10
20.66988006623398
 20
13.00016331232558
 30
0.0
 10
20.66846838452928
 20
12.99875163062089
 30
0.0
 10
20.66846838452928
 20
12.99875163062089
 30
0.0
 10
20.66000233152236
 20
12.98993299362286
 30
0.0
 10
20.66000233152236
 20
12.98993299362286
 30
0.0
 10
20.66000233152236
 20
12.98993299362286
 30
0.0
 10
20.64518572945495
 20
12.96029844374757
 30
0.0
 10
20.64518572945495
 20
12.96029844374757
 30
0.0
 10
20.64518572945495
 20
12.96029844374757
 30
0.0
 10
20.61343567563326
 20
12.88621543341045
 30
0.0
 10
20.61343567563326
 20
12.88621543341045
 30
0.0
 10
20.61343567563326
 20
12.88621543341045
 30
0.0
 10
20.60355794092165
 20
12.8410604592261
 30
0.0
 10
20.60355794092165
 20
12.8410604592261
 30
0.0
 10
20.60320401119015
 20
12.83929619353026
 30
0.0
 10
20.60249884320801
 20
12.83788451182556
 30
0.0
 10
20.60179367522589
 20
12.83647417586138
 30
0.0
 10
20.60179367522589
 20
12.83647417586138
 30
0.0
 10
20.59226852450533
 20
12.81707129042917
 30
0.0
 10
20.59226852450533
 20
12.81707129042917
 30
0.0
 10
20.59226852450533
 20
12.81707129042917
 30
0.0
 10
20.57110137337742
 20
12.71688226160836
 30
0.0
 10
20.57110137337742
 20
12.71688226160836
 30
0.0
 10
20.57110137337742
 20
12.71688226160836
 30
0.0
 10
20.5661625060216
 20
12.66502415437239
 30
0.0
 10
20.5661625060216
 20
12.66502415437239
 30
0.0
 10
20.5661625060216
 20
12.66502415437239
 30
0.0
 10
20.54429018691154
 20
12.56589287752476
 30
0.0
 10
20.54429018691154
 20
12.56589287752476
 30
0.0
 10
20.54429018691154
 20
12.56589287752476
 30
0.0
 10
20.50160464640503
 20
12.28755203990377
 30
0.0
 10
20.50160464640503
 20
12.28755203990377
 30
0.0
 10
20.50160464640503
 20
12.28755203990377
 30
0.0
 10
20.50160464640503
 20
12.20923533019297
 30
0.0
 10
20.50160464640503
 20
12.20923533019297
 30
0.0
 10
20.50160464640503
 20
12.19935759548136
 30
0.0
 10
20.4934911773892
 20
12.19124412646548
 30
0.0
 10
20.48361344267757
 20
12.19124412646548
 30
0.0
 10
20.47373570796595
 20
12.19124412646548
 30
0.0
 10
20.46597347720075
 20
12.19935759548136
 30
0.0
 10
20.46597347720075
 20
12.20923533019297
 30
0.0
 10
20.46597347720075
 20
12.20923533019297
 30
0.0
 10
20.46597347720075
 20
12.29002147358167
 30
0.0
 10
20.46597347720075
 20
12.29002147358167
 30
0.0
 10
20.46597347720075
 20
12.29002147358167
 30
0.0
 10
20.50901294743875
 20
12.57259601057626
 30
0.0
 10
20.50901294743875
 20
12.57259601057626
 30
0.0
 10
20.50901294743875
 20
12.57259601057626
 30
0.0
 10
20.53053268255775
 20
12.67066818971025
 30
0.0
 10
20.53053268255775
 20
12.67066818971025
 30
0.0
 10
20.53053268255775
 20
12.67066818971025
 30
0.0
 10
20.53582413390463
 20
12.72252629694628
 30
0.0
 10
20.53582413390463
 20
12.72252629694628
 30
0.0
 10
20.53582413390463
 20
12.72252629694628
 30
0.0
 10
20.55769645301468
 20
12.82659644114977
 30
0.0
 10
20.55769645301468
 20
12.82659644114977
 30
0.0
 10
20.55804903700575
 20
12.82800677711395
 30
0.0
 10
20.55840162099682
 20
12.82941845881868
 30
0.0
 10
20.55910678897896
 20
12.83083014052337
 30
0.0
 10
20.55910678897896
 20
12.83083014052337
 30
0.0
 10
20.56898452369058
 20
12.85023302595559
 30
0.0
 10
20.56898452369058
 20
12.85023302595559
 30
0.0
 10
20.56898452369058
 20
12.85023302595559
 30
0.0
 10
20.57956877212475
 20
12.89750484982676
 30
0.0
 10
20.57956877212475
 20
12.89750484982676
 30
0.0
 10
20.57956877212475
 20
12.89750484982676
 30
0.0
 10
20.59085684280064
 20
12.92643288597958
 30
0.0
 10
20.59085684280064
 20
12.92643288597958
 30
0.0
 10
20.59085684280064
 20
12.92643288597958
 30
0.0
 10
20.60214625921695
 20
12.94936295706276
 30
0.0
 10
20.60214625921695
 20
12.94936295706276
 30
0.0
 10
20.60214625921695
 20
12.94936295706276
 30
0.0
 10
20.6293100296739
 20
13.00862936533247
 30
0.0
 10
20.6293100296739
 20
13.00862936533247
 30
0.0
 10
20.63001519765604
 20
13.01039363102825
 30
0.0
 10
20.63107429536965
 20
13.01180396699246
 30
0.0
 10
20.63248463133393
 20
13.01321564869718
 30
0.0
 10
20.63248463133393
 20
13.01321564869718
 30
0.0
 10
20.64130461407235
 20
13.02203563143558
 30
0.0
 10
20.64130461407235
 20
13.02203563143558
 30
0.0
 10
20.64130461407235
 20
13.02203563143558
 30
0.0
 10
20.64553831344601
 20
13.03014910045147
 30
0.0
 10
20.64553831344601
 20
13.03014910045147
 30
0.0
 10
20.64624348142815
 20
13.03191336614725
 30
0.0
 10
20.64730123340135
 20
13.03332370211146
 30
0.0
 10
20.64871291510605
 20
13.03473538381618
 30
0.0
 10
20.64871291510605
 20
13.03473538381618
 30
0.0
 10
20.65717896811297
 20
13.04355402081415
 30
0.0
 10
20.65717896811297
 20
13.04355402081415
 30
0.0
 10
20.65717896811297
 20
13.04355402081415
 30
0.0
 10
20.66141266748664
 20
13.05166883557047
 30
0.0
 10
20.66141266748664
 20
13.05166883557047
 30
0.0
 10
20.6631769331824
 20
13.05519602122158
 30
0.0
 10
20.66599895085139
 20
13.05801803889059
 30
0.0
 10
20.66952613650249
 20
13.05978230458626
 30
0.0
 10
20.66952613650249
 20
13.05978230458626
 30
0.0
 10
20.67764095125876
 20
13.06366341996886
 30
0.0
 10
20.67764095125876
 20
13.06366341996886
 30
0.0
 10
20.67764095125876
 20
13.06366341996886
 30
0.0
 10
20.68610700426569
 20
13.07248205696686
 30
0.0
 10
20.68610700426569
 20
13.07248205696686
 30
0.0
 10
20.68751868597038
 20
13.07389373867158
 30
0.0
 10
20.68928295166614
 20
13.07495149064476
 30
0.0
 10
20.69104587162149
 20
13.07601058835848
 30
0.0
 10
20.69104587162149
 20
13.07601058835848
 30
0.0
 10
20.69916068637776
 20
13.07989035800068
 30
0.0
 10
20.69916068637776
 20
13.07989035800068
 30
0.0
 10
20.69916068637776
 20
13.07989035800068
 30
0.0
 10
20.70797932337574
 20
13.08871034073908
 30
0.0
 10
20.70797932337574
 20
13.08871034073908
 30
0.0
 10
20.70903842108938
 20
13.09012067670326
 30
0.0
 10
20.71080134104471
 20
13.09117977441698
 30
0.0
 10
20.71256560674049
 20
13.09188494239907
 30
0.0
 10
20.71256560674049
 20
13.09188494239907
 30
0.0
 10
20.73408534185947
 20
13.10282177482426
 30
0.0
 10
20.73408534185947
 20
13.10282177482426
 30
0.0
 10
20.73655477553738
 20
13.10387952679758
 30
0.0
 10
20.73937679320636
 20
13.10458469477967
 30
0.0
 10
20.74219881087532
 20
13.10458469477967
 30
0.0
 10
20.74219881087532
 20
13.10458469477967
 30
0.0
 10
20.7499596959001
 20
13.10458469477967
 30
0.0
 10
20.7499596959001
 20
13.10458469477967
 30
0.0
 10
20.7499596959001
 20
13.10458469477967
 30
0.0
 10
20.76336596200325
 20
13.10917097814436
 30
0.0
 10
20.76336596200325
 20
13.10917097814436
 30
0.0
 10
20.7651288819586
 20
13.10952356213545
 30
0.0
 10
20.76689314765436
 20
13.10987749186697
 30
0.0
 10
20.76900999734121
 20
13.10987749186697
 30
0.0
 10
20.76900999734121
 20
13.10987749186697
 30
0.0
 10
20.7905297324602
 20
13.10987749186697
 30
0.0
 10
20.7905297324602
 20
13.10987749186697
 30
0.0
 10
20.79229399815596
 20
13.10987749186697
 30
0.0
 10
20.79440950210238
 20
13.10952356213545
 30
0.0
 10
20.79617242205771
 20
13.10917097814436
 30
0.0
 10
20.79617242205771
 20
13.10917097814436
 30
0.0
 10
20.80957868816086
 20
13.10458469477967
 30
0.0
 10
20.80957868816086
 20
13.10458469477967
 30
0.0
 10
20.80957868816086
 20
13.10458469477967
 30
0.0
 10
20.81734091892606
 20
13.10458469477967
 30
0.0
 10
20.81734091892606
 20
13.10458469477967
 30
0.0
 10
20.82016159085461
 20
13.10458469477967
 30
0.0
 10
20.82298495426401
 20
13.10387952679758
 30
0.0
 10
20.8254530422015
 20
13.10282177482426
 30
0.0
 10
20.8254530422015
 20
13.10282177482426
 30
0.0
 10
20.85014737898054
 20
13.09294404011268
 30
0.0
 10
20.85014737898054
 20
13.09294404011268
 30
0.0
 10
20.85261815839885
 20
13.09223752639016
 30
0.0
 10
20.85508624633634
 20
13.09047460643475
 30
0.0
 10
20.8572044417636
 20
13.08871034073908
 30
0.0
 10
20.8572044417636
 20
13.08871034073908
 30
0.0
 10
20.88189877854263
 20
13.06366341996886
 30
0.0
 10
20.88189877854263
 20
13.06366341996886
 30
0.0
 10
20.88189877854263
 20
13.06366341996886
 30
0.0
 10
20.89001090181805
 20
13.05978230458626
 30
0.0
 10
20.89001090181805
 20
13.05978230458626
 30
0.0
 10
20.89177651325425
 20
13.05872455261308
 30
0.0
 10
20.8935394332096
 20
13.05766545489948
 30
0.0
 10
20.89459718518279
 20
13.05625511893518
 30
0.0
 10
20.89459718518279
 20
13.05625511893518
 30
0.0
 10
20.90553536334846
 20
13.04567087050108
 30
0.0
 10
20.90553536334846
 20
13.04567087050108
 30
0.0
 10
20.90694569931274
 20
13.04426053453676
 30
0.0
 10
20.90800345128595
 20
13.04249626884098
 30
0.0
 10
20.90870861926807
 20
13.04073200314528
 30
0.0
 10
20.90870861926807
 20
13.04073200314528
 30
0.0
 10
20.91823376998863
 20
13.02203563143558
 30
0.0
 10
20.91823376998863
 20
13.02203563143558
 30
0.0
 10
20.91823376998863
 20
13.02203563143558
 30
0.0
 10
20.92705375272704
 20
13.01321564869718
 30
0.0
 10
20.92705375272704
 20
13.01321564869718
 30
0.0
 10
20.92846408869131
 20
13.01180396699246
 30
0.0
 10
20.92952453214535
 20
13.01039363102825
 30
0.0
 10
20.93022970012749
 20
13.00862936533247
 30
0.0
 10
20.93022970012749
 20
13.00862936533247
 30
0.0
 10
20.94645663815919
 20
12.97617414352865
 30
0.0
 10
20.94645663815919
 20
12.97617414352865
 30
0.0
 10
20.94645663815919
 20
12.97617414352865
 30
0.0
 10
20.9792657896945
 20
12.89962169951369
 30
0.0
 10
20.9792657896945
 20
12.89962169951369
 30
0.0
 10
20.9792657896945
 20
12.89962169951369
 30
0.0
 10
20.99055386037039
 20
12.85023302595559
 30
0.0
 10
20.99055386037039
 20
12.85023302595559
 30
0.0
 10
20.99055386037039
 20
12.85023302595559
 30
0.0
 10
21.000431595082
 20
12.83083014052337
 30
0.0
 10
21.000431595082
 20
12.83083014052337
 30
0.0
 10
21.00113676306414
 20
12.82941845881868
 30
0.0
 10
21.00148934705521
 20
12.82800677711395
 30
0.0
 10
21.00184193104628
 20
12.82659644114977
 30
0.0
 10
21.00184193104628
 20
12.82659644114977
 30
0.0
 10
21.03429849859052
 20
12.67031560571928
 30
0.0
 10
21.03429849859052
 20
12.67031560571928
 30
0.0
 10
21.03429849859052
 20
12.67031560571928
 30
0.0
 10
21.09356490686022
 20
12.29249090725957
 30
0.0
 10
21.09356490686022
 20
12.29249090725957
 30
0.0
 10
21.09356490686022
 20
12.29249090725957
 30
0.0
 10
21.09391749085128
 20
12.24698200334367
 30
0.0
 10
21.09391749085128
 20
12.24698200334367
 30
0.0
 10
21.09391749085128
 20
12.24698200334367
 30
0.0
 10
21.09885635820708
 20
12.21170476387087
 30
0.0
 10
21.09885635820708
 20
12.21170476387087
 30
0.0
 10
21.10026669417136
 20
12.20182702915926
 30
0.0
 10
21.09356490686022
 20
12.19300704642086
 30
0.0
 10
21.08368717214859
 20
12.19159671045656
 30
0.0
 10
21.08298200416647
 20
12.19124412646548
 30
0.0
 10
21.08192425219325
 20
12.19124412646548
 30
0.0
 10
21.08121908421111
 20
12.19124412646548
 30
0.0
  0
SPLINE
  5
37F
330
1F
100
AcDbEntity
  8
Livello 1
100
AcDbSpline
210
0.0
220
0.0
230
1.0
 70
     9
 71
     3
 72
    53
 73
    49
 74
     0
 42
0.000000001
 43
0.0000000001
 40
0.0
 40
0.0
 40
0.0
 40
0.0
 40
1.0
 40
1.0
 40
1.0
 40
2.0
 40
2.0
 40
2.0
 40
3.0
 40
3.0
 40
3.0
 40
4.0
 40
4.0
 40
4.0
 40
5.0
 40
5.0
 40
5.0
 40
6.0
 40
6.0
 40
6.0
 40
7.0
 40
7.0
 40
7.0
 40
8.0
 40
8.0
 40
8.0
 40
9.0
 40
9.0
 40
9.0
 40
10.0
 40
10.0
 40
10.0
 40
11.0
 40
11.0
 40
11.0
 40
12.0
 40
12.0
 40
12.0
 40
13.0
 40
13.0
 40
13.0
 40
14.0
 40
14.0
 40
14.0
 40
15.0
 40
15.0
 40
15.0
 40
16.0
 40
16.0
 40
16.0
 40
16.0
 10
20.6828624241036
 20
10.28014065582306
 30
0.0
 10
20.6828624241036
 20
10.28014065582306
 30
0.0
 10
20.56432826182379
 20
10.28014065582306
 30
0.0
 10
20.56432826182379
 20
10.28014065582306
 30
0.0
 10
20.56432826182379
 20
10.28014065582306
 30
0.0
 10
20.37982590396315
 20
10.29636826672495
 30
0.0
 10
20.37982590396315
 20
10.29636826672495
 30
0.0
 10
20.37982590396315
 20
10.29636826672495
 30
0.0
 10
20.3187952299977
 20
10.30730442627998
 30
0.0
 10
20.3187952299977
 20
10.30730442627998
 30
0.0
 10
20.3187952299977
 20
10.30730442627998
 30
0.0
 10
20.26129174168335
 20
10.31259587762687
 30
0.0
 10
20.26129174168335
 20
10.31259587762687
 30
0.0
 10
20.26129174168335
 20
10.31259587762687
 30
0.0
 10
20.20061499744938
 20
10.32353203718196
 30
0.0
 10
20.20061499744938
 20
10.32353203718196
 30
0.0
 10
20.19144243071992
 20
10.32529563000747
 30
0.0
 10
20.1850918816594
 20
10.33340977189357
 30
0.0
 10
20.18579839538196
 20
10.34258166575276
 30
0.0
 10
20.18685614735517
 20
10.35210681647339
 30
0.0
 10
20.19461703237996
 20
10.35916253351595
 30
0.0
 10
20.20378959910943
 20
10.35916253351595
 30
0.0
 10
20.20378959910943
 20
10.35916253351595
 30
0.0
 10
20.20908105045631
 20
10.35916253351595
 30
0.0
 10
20.20908105045631
 20
10.35916253351595
 30
0.0
 10
20.21225565211634
 20
10.35916253351595
 30
0.0
 10
20.21543159951682
 20
10.35810410867256
 30
0.0
 10
20.21790103319471
 20
10.35669309983808
 30
0.0
 10
20.21790103319471
 20
10.35669309983808
 30
0.0
 10
20.26623060903915
 20
10.34787378996987
 30
0.0
 10
20.26623060903915
 20
10.34787378996987
 30
0.0
 10
20.26623060903915
 20
10.34787378996987
 30
0.0
 10
20.3237340973535
 20
10.34293492261406
 30
0.0
 10
20.3237340973535
 20
10.34293492261406
 30
0.0
 10
20.3237340973535
 20
10.34293492261406
 30
0.0
 10
20.38476477131895
 20
10.33164617906797
 30
0.0
 10
20.38476477131895
 20
10.33164617906797
 30
0.0
 10
20.38476477131895
 20
10.33164617906797
 30
0.0
 10
20.56609252751957
 20
10.31577115215717
 30
0.0
 10
20.56609252751957
 20
10.31577115215717
 30
0.0
 10
20.56609252751957
 20
10.31577115215717
 30
0.0
 10
20.6828624241036
 20
10.31612373614825
 30
0.0
 10
20.6828624241036
 20
10.31612373614825
 30
0.0
 10
20.69274015881521
 20
10.31612373614825
 30
0.0
 10
20.70085362783107
 20
10.30800959426219
 30
0.0
 10
20.70085362783107
 20
10.29813185955058
 30
0.0
 10
20.70085362783107
 20
10.28825412483897
 30
0.0
 10
20.69274015881521
 20
10.28014065582306
 30
0.0
 10
20.6828624241036
 20
10.28014065582306
 30
0.0
  0
SPLINE
  5
380
330
1F
100
AcDbEntity
  8
Livello 1
100
AcDbSpline
210
0.0
220
0.0
230
1.0
 70
     9
 71
     3
 72
    23
 73
    19
 74
     0
 42
0.000000001
 43
0.0000000001
 40
0.0
 40
0.0
 40
0.0
 40
0.0
 40
1.0
 40
1.0
 40
1.0
 40
2.0
 40
2.0
 40
2.0
 40
3.0
 40
3.0
 40
3.0
 40
4.0
 40
4.0
 40
4.0
 40
5.0
 40
5.0
 40
5.0
 40
6.0
 40
6.0
 40
6.0
 40
6.0
 10
21.71113864480396
 20
14.02702919706166
 30
0.0
 10
21.71113864480396
 20
14.02702919706166
 30
0.0
 10
19.84847106349947
 20
14.02702919706166
 30
0.0
 10
19.84847106349947
 20
14.02702919706166
 30
0.0
 10
19.83859332878786
 20
14.02702919706166
 30
0.0
 10
19.83047985977201
 20
14.03514266607746
 30
0.0
 10
19.83047985977201
 20
14.04502040078918
 30
0.0
 10
19.83047985977201
 20
14.05489813550076
 30
0.0
 10
19.83859332878786
 20
14.06301160451659
 30
0.0
 10
19.84847106349947
 20
14.06301160451659
 30
0.0
 10
19.84847106349947
 20
14.06301160451659
 30
0.0
 10
21.71113864480396
 20
14.06301160451659
 30
0.0
 10
21.71113864480396
 20
14.06301160451659
 30
0.0
 10
21.72101637951557
 20
14.06301160451659
 30
0.0
 10
21.729128502791
 20
14.05489813550076
 30
0.0
 10
21.729128502791
 20
14.04502040078918
 30
0.0
 10
21.729128502791
 20
14.03514266607746
 30
0.0
 10
21.72101637951557
 20
14.02702919706166
 30
0.0
 10
21.71113864480396
 20
14.02702919706166
 30
0.0
  0
SPLINE
  5
381
330
1F
100
AcDbEntity
  8
Livello 1
100
AcDbSpline
210
0.0
220
0.0
230
1.0
 70
     9
 71
     3
 72
    32
 73
    28
 74
     0
 42
0.000000001
 43
0.0000000001
 40
0.0
 40
0.0
 40
0.0
 40
0.0
 40
1.0
 40
1.0
 40
1.0
 40
2.0
 40
2.0
 40
2.0
 40
3.0
 40
3.0
 40
3.0
 40
4.0
 40
4.0
 40
4.0
 40
5.0
 40
5.0
 40
5.0
 40
6.0
 40
6.0
 40
6.0
 40
7.0
 40
7.0
 40
7.0
 40
8.0
 40
8.0
 40
8.0
 40
9.0
 40
9.0
 40
9.0
 40
9.0
 10
21.5774366422061
 20
14.02702919706166
 30
0.0
 10
21.5774366422061
 20
14.02702919706166
 30
0.0
 10
21.57637619875204
 20
14.02702919706166
 30
0.0
 10
21.57637619875204
 20
14.02702919706166
 30
0.0
 10
21.57637619875204
 20
14.02702919706166
 30
0.0
 10
19.98323350955139
 20
14.02702919706166
 30
0.0
 10
19.98323350955139
 20
14.02702919706166
 30
0.0
 10
19.97300319084871
 20
14.02702919706166
 30
0.0
 10
19.9652409600835
 20
14.03514266607746
 30
0.0
 10
19.9652409600835
 20
14.04502040078918
 30
0.0
 10
19.9652409600835
 20
14.05489813550076
 30
0.0
 10
19.97300319084871
 20
14.06301160451659
 30
0.0
 10
19.98323350955139
 20
14.06301160451659
 30
0.0
 10
19.98323350955139
 20
14.06301160451659
 30
0.0
 10
21.57637619875204
 20
14.06301160451659
 30
0.0
 10
21.57637619875204
 20
14.06301160451659
 30
0.0
 10
21.57672878274312
 20
14.06301160451659
 30
0.0
 10
21.57672878274312
 20
14.06301160451659
 30
0.0
 10
21.57708136673418
 20
14.06301160451659
 30
0.0
 10
21.57708136673418
 20
14.06301160451659
 30
0.0
 10
21.5774366422061
 20
14.06301160451659
 30
0.0
 10
21.5774366422061
 20
14.06301160451659
 30
0.0
 10
21.58731437691771
 20
14.06301160451659
 30
0.0
 10
21.59542650019314
 20
14.05489813550076
 30
0.0
 10
21.59542650019314
 20
14.04502040078918
 30
0.0
 10
21.59542650019314
 20
14.03514266607746
 30
0.0
 10
21.58731437691771
 20
14.02702919706166
 30
0.0
 10
21.5774366422061
 20
14.02702919706166
 30
0.0
  0
SPLINE
  5
382
330
1F
100
AcDbEntity
  8
Livello 1
100
AcDbSpline
210
0.0
220
0.0
230
1.0
 70
     9
 71
     3
 72
    23
 73
    19
 74
     0
 42
0.000000001
 43
0.0000000001
 40
0.0
 40
0.0
 40
0.0
 40
0.0
 40
1.0
 40
1.0
 40
1.0
 40
2.0
 40
2.0
 40
2.0
 40
3.0
 40
3.0
 40
3.0
 40
4.0
 40
4.0
 40
4.0
 40
5.0
 40
5.0
 40
5.0
 40
6.0
 40
6.0
 40
6.0
 40
6.0
 10
22.00726075064627
 20
14.28547326251487
 30
0.0
 10
21.99738032445381
 20
14.28547326251487
 30
0.0
 10
21.98926820117838
 20
14.29358673153078
 30
0.0
 10
21.98926820117838
 20
14.30346446624239
 30
0.0
 10
21.98926820117838
 20
14.30346446624239
 30
0.0
 10
21.98926820117838
 20
15.00866743763046
 30
0.0
 10
21.98926820117838
 20
15.00866743763046
 30
0.0
 10
21.98926820117838
 20
15.01854517234207
 30
0.0
 10
21.99738032445381
 20
15.02665864135798
 30
0.0
 10
22.00726075064627
 20
15.02665864135798
 30
0.0
 10
22.01713848535789
 20
15.02665864135798
 30
0.0
 10
22.02525060863331
 20
15.01854517234207
 30
0.0
 10
22.02525060863331
 20
15.00866743763046
 30
0.0
 10
22.02525060863331
 20
15.00866743763046
 30
0.0
 10
22.02525060863331
 20
14.30346446624239
 30
0.0
 10
22.02525060863331
 20
14.30346446624239
 30
0.0
 10
22.02525060863331
 20
14.29358673153078
 30
0.0
 10
22.01713848535789
 20
14.28547326251487
 30
0.0
 10
22.00726075064627
 20
14.28547326251487
 30
0.0
  0
SPLINE
  5
383
330
1F
100
AcDbEntity
  8
Livello 1
100
AcDbSpline
210
0.0
220
0.0
230
1.0
 70
     9
 71
     3
 72
    23
 73
    19
 74
     0
 42
0.000000001
 43
0.0000000001
 40
0.0
 40
0.0
 40
0.0
 40
0.0
 40
1.0
 40
1.0
 40
1.0
 40
2.0
 40
2.0
 40
2.0
 40
3.0
 40
3.0
 40
3.0
 40
4.0
 40
4.0
 40
4.0
 40
5.0
 40
5.0
 40
5.0
 40
6.0
 40
6.0
 40
6.0
 40
6.0
 10
21.99646522096554
 20
14.28547326251487
 30
0.0
 10
21.98658479477308
 20
14.28547326251487
 30
0.0
 10
21.97847267149765
 20
14.29358673153078
 30
0.0
 10
21.97847267149765
 20
14.30346446624239
 30
0.0
 10
21.97847267149765
 20
14.30346446624239
 30
0.0
 10
21.97847267149765
 20
15.00866743763046
 30
0.0
 10
21.97847267149765
 20
15.00866743763046
 30
0.0
 10
21.97847267149765
 20
15.01854517234207
 30
0.0
 10
21.98658479477308
 20
15.02665864135798
 30
0.0
 10
21.99646522096554
 20
15.02665864135798
 30
0.0
 10
22.00634295567716
 20
15.02665864135798
 30
0.0
 10
22.01445507895259
 20
15.01854517234207
 30
0.0
 10
22.01445507895259
 20
15.00866743763046
 30
0.0
 10
22.01445507895259
 20
15.00866743763046
 30
0.0
 10
22.01445507895259
 20
14.30346446624239
 30
0.0
 10
22.01445507895259
 20
14.30346446624239
 30
0.0
 10
22.01445507895259
 20
14.29358673153078
 30
0.0
 10
22.00634295567716
 20
14.28547326251487
 30
0.0
 10
21.99646522096554
 20
14.28547326251487
 30
0.0
  0
SPLINE
  5
384
330
1F
100
AcDbEntity
  8
Livello 1
100
AcDbSpline
210
0.0
220
0.0
230
1.0
 70
     9
 71
     3
 72
    23
 73
    19
 74
     0
 42
0.000000001
 43
0.0000000001
 40
0.0
 40
0.0
 40
0.0
 40
0.0
 40
1.0
 40
1.0
 40
1.0
 40
2.0
 40
2.0
 40
2.0
 40
3.0
 40
3.0
 40
3.0
 40
4.0
 40
4.0
 40
4.0
 40
5.0
 40
5.0
 40
5.0
 40
6.0
 40
6.0
 40
6.0
 40
6.0
 10
21.57655383648799
 20
14.02702919706166
 30
0.0
 10
21.57655383648799
 20
14.02702919706166
 30
0.0
 10
19.98305587181543
 20
14.02702919706166
 30
0.0
 10
19.98305587181543
 20
14.02702919706166
 30
0.0
 10
19.97317813710382
 20
14.02702919706166
 30
0.0
 10
19.96506466808797
 20
14.03514266607746
 30
0.0
 10
19.96506466808797
 20
14.04502040078918
 30
0.0
 10
19.96506466808797
 20
14.05489813550076
 30
0.0
 10
19.97317813710382
 20
14.06301160451659
 30
0.0
 10
19.98305587181543
 20
14.06301160451659
 30
0.0
 10
19.98305587181543
 20
14.06301160451659
 30
0.0
 10
21.57655383648799
 20
14.06301160451659
 30
0.0
 10
21.57655383648799
 20
14.06301160451659
 30
0.0
 10
21.58643157119961
 20
14.06301160451659
 30
0.0
 10
21.59454369447503
 20
14.05489813550076
 30
0.0
 10
21.59454369447503
 20
14.04502040078918
 30
0.0
 10
21.59454369447503
 20
14.03514266607746
 30
0.0
 10
21.58643157119961
 20
14.02702919706166
 30
0.0
 10
21.57655383648799
 20
14.02702919706166
 30
0.0
  0
SPLINE
  5
385
330
1F
100
AcDbEntity
  8
Livello 1
100
AcDbSpline
210
0.0
220
0.0
230
1.0
 70
     9
 71
     3
 72
    23
 73
    19
 74
     0
 42
0.000000001
 43
0.0000000001
 40
0.0
 40
0.0
 40
0.0
 40
0.0
 40
1.0
 40
1.0
 40
1.0
 40
2.0
 40
2.0
 40
2.0
 40
3.0
 40
3.0
 40
3.0
 40
4.0
 40
4.0
 40
4.0
 40
5.0
 40
5.0
 40
5.0
 40
6.0
 40
6.0
 40
6.0
 40
6.0
 10
20.7797705377709
 20
14.04861891068267
 30
0.0
 10
20.7797705377709
 20
14.04861891068267
 30
0.0
 10
20.58609426744036
 20
14.04861891068267
 30
0.0
 10
20.58609426744036
 20
14.04861891068267
 30
0.0
 10
20.57586394873768
 20
14.04861891068267
 30
0.0
 10
20.5681030637129
 20
14.05673237969859
 30
0.0
 10
20.5681030637129
 20
14.06661011441016
 30
0.0
 10
20.5681030637129
 20
14.07648784912177
 30
0.0
 10
20.57586394873768
 20
14.08460131813768
 30
0.0
 10
20.58609426744036
 20
14.08460131813768
 30
0.0
 10
20.58609426744036
 20
14.08460131813768
 30
0.0
 10
20.7797705377709
 20
14.08460131813768
 30
0.0
 10
20.7797705377709
 20
14.08460131813768
 30
0.0
 10
20.78964827248253
 20
14.08460131813768
 30
0.0
 10
20.79776039575795
 20
14.07648784912177
 30
0.0
 10
20.79776039575795
 20
14.06661011441016
 30
0.0
 10
20.79776039575795
 20
14.05673237969859
 30
0.0
 10
20.78964827248253
 20
14.04861891068267
 30
0.0
 10
20.7797705377709
 20
14.04861891068267
 30
0.0
  0
SPLINE
  5
386
330
1F
100
AcDbEntity
  8
Livello 1
100
AcDbSpline
210
0.0
220
0.0
230
1.0
 70
     9
 71
     3
 72
    23
 73
    19
 74
     0
 42
0.000000001
 43
0.0000000001
 40
0.0
 40
0.0
 40
0.0
 40
0.0
 40
1.0
 40
1.0
 40
1.0
 40
2.0
 40
2.0
 40
2.0
 40
3.0
 40
3.0
 40
3.0
 40
4.0
 40
4.0
 40
4.0
 40
5.0
 40
5.0
 40
5.0
 40
6.0
 40
6.0
 40
6.0
 40
6.0
 10
21.80801311496069
 20
14.19396291368795
 30
0.0
 10
21.80801311496069
 20
14.19396291368795
 30
0.0
 10
19.75167060906607
 20
14.19396291368795
 30
0.0
 10
19.75167060906607
 20
14.19396291368795
 30
0.0
 10
19.74179287435446
 20
14.19396291368795
 30
0.0
 10
19.7336794053386
 20
14.20207638270375
 30
0.0
 10
19.7336794053386
 20
14.21195411741539
 30
0.0
 10
19.7336794053386
 20
14.22183185212708
 30
0.0
 10
19.74179287435446
 20
14.22994532114288
 30
0.0
 10
19.75167060906607
 20
14.22994532114288
 30
0.0
 10
19.75167060906607
 20
14.22994532114288
 30
0.0
 10
21.80801311496069
 20
14.22994532114288
 30
0.0
 10
21.80801311496069
 20
14.22994532114288
 30
0.0
 10
21.81789084967229
 20
14.22994532114288
 30
0.0
 10
21.82600297294772
 20
14.22183185212708
 30
0.0
 10
21.82600297294772
 20
14.21195411741539
 30
0.0
 10
21.82600297294772
 20
14.20207638270375
 30
0.0
 10
21.81789084967229
 20
14.19396291368795
 30
0.0
 10
21.80801311496069
 20
14.19396291368795
 30
0.0
  0
SPLINE
  5
387
330
1F
100
AcDbEntity
  8
Livello 1
100
AcDbSpline
210
0.0
220
0.0
230
1.0
 70
     9
 71
     3
 72
    23
 73
    19
 74
     0
 42
0.000000001
 43
0.0000000001
 40
0.0
 40
0.0
 40
0.0
 40
0.0
 40
1.0
 40
1.0
 40
1.0
 40
2.0
 40
2.0
 40
2.0
 40
3.0
 40
3.0
 40
3.0
 40
4.0
 40
4.0
 40
4.0
 40
5.0
 40
5.0
 40
5.0
 40
6.0
 40
6.0
 40
6.0
 40
6.0
 10
22.00726075064627
 20
14.28547326251487
 30
0.0
 10
22.00726075064627
 20
14.28547326251487
 30
0.0
 10
21.2159788387822
 20
14.28547326251487
 30
0.0
 10
21.2159788387822
 20
14.28547326251487
 30
0.0
 10
21.2057485200795
 20
14.28547326251487
 30
0.0
 10
21.1979862893143
 20
14.29358673153078
 30
0.0
 10
21.1979862893143
 20
14.30346446624239
 30
0.0
 10
21.1979862893143
 20
14.31334220095397
 30
0.0
 10
21.2057485200795
 20
14.32145566996988
 30
0.0
 10
21.2159788387822
 20
14.32145566996988
 30
0.0
 10
21.2159788387822
 20
14.32145566996988
 30
0.0
 10
22.00726075064627
 20
14.32145566996988
 30
0.0
 10
22.00726075064627
 20
14.32145566996988
 30
0.0
 10
22.01713848535789
 20
14.32145566996988
 30
0.0
 10
22.02525060863331
 20
14.31334220095397
 30
0.0
 10
22.02525060863331
 20
14.30346446624239
 30
0.0
 10
22.02525060863331
 20
14.29358673153078
 30
0.0
 10
22.01713848535789
 20
14.28547326251487
 30
0.0
 10
22.00726075064627
 20
14.28547326251487
 30
0.0
  0
SPLINE
  5
388
330
1F
100
AcDbEntity
  8
Livello 1
100
AcDbSpline
210
0.0
220
0.0
230
1.0
 70
     9
 71
     3
 72
    23
 73
    19
 74
     0
 42
0.000000001
 43
0.0000000001
 40
0.0
 40
0.0
 40
0.0
 40
0.0
 40
1.0
 40
1.0
 40
1.0
 40
2.0
 40
2.0
 40
2.0
 40
3.0
 40
3.0
 40
3.0
 40
4.0
 40
4.0
 40
4.0
 40
5.0
 40
5.0
 40
5.0
 40
6.0
 40
6.0
 40
6.0
 40
6.0
 10
21.80801311496069
 20
14.99074755814547
 30
0.0
 10
21.79813268876821
 20
14.99074755814547
 30
0.0
 10
21.79002056549279
 20
14.99886102716127
 30
0.0
 10
21.79002056549279
 20
15.00873876187296
 30
0.0
 10
21.79002056549279
 20
15.00873876187296
 30
0.0
 10
21.79002056549279
 20
15.09481635660845
 30
0.0
 10
21.79002056549279
 20
15.09481635660845
 30
0.0
 10
21.79002056549279
 20
15.10469409132005
 30
0.0
 10
21.79813268876821
 20
15.11280756033596
 30
0.0
 10
21.80801311496069
 20
15.11280756033596
 30
0.0
 10
21.81789084967229
 20
15.11280756033596
 30
0.0
 10
21.82600297294772
 20
15.10469409132005
 30
0.0
 10
21.82600297294772
 20
15.09481635660845
 30
0.0
 10
21.82600297294772
 20
15.09481635660845
 30
0.0
 10
21.82600297294772
 20
15.00873876187296
 30
0.0
 10
21.82600297294772
 20
15.00873876187296
 30
0.0
 10
21.82600297294772
 20
14.99886102716127
 30
0.0
 10
21.81789084967229
 20
14.99074755814547
 30
0.0
 10
21.80801311496069
 20
14.99074755814547
 30
0.0
  0
SPLINE
  5
389
330
1F
100
AcDbEntity
  8
Livello 1
100
AcDbSpline
210
0.0
220
0.0
230
1.0
 70
     9
 71
     3
 72
    23
 73
    19
 74
     0
 42
0.000000001
 43
0.0000000001
 40
0.0
 40
0.0
 40
0.0
 40
0.0
 40
1.0
 40
1.0
 40
1.0
 40
2.0
 40
2.0
 40
2.0
 40
3.0
 40
3.0
 40
3.0
 40
4.0
 40
4.0
 40
4.0
 40
5.0
 40
5.0
 40
5.0
 40
6.0
 40
6.0
 40
6.0
 40
6.0
 10
21.80801311496069
 20
14.19396291368795
 30
0.0
 10
21.79813268876821
 20
14.19396291368795
 30
0.0
 10
21.79002056549279
 20
14.20207638270375
 30
0.0
 10
21.79002056549279
 20
14.21195411741539
 30
0.0
 10
21.79002056549279
 20
14.21195411741539
 30
0.0
 10
21.79002056549279
 20
14.30332316349788
 30
0.0
 10
21.79002056549279
 20
14.30332316349788
 30
0.0
 10
21.79002056549279
 20
14.31320089820946
 30
0.0
 10
21.79813268876821
 20
14.32131436722525
 30
0.0
 10
21.80801311496069
 20
14.32131436722525
 30
0.0
 10
21.81789084967229
 20
14.32131436722525
 30
0.0
 10
21.82600297294772
 20
14.31320089820946
 30
0.0
 10
21.82600297294772
 20
14.30332316349788
 30
0.0
 10
21.82600297294772
 20
14.30332316349788
 30
0.0
 10
21.82600297294772
 20
14.21195411741539
 30
0.0
 10
21.82600297294772
 20
14.21195411741539
 30
0.0
 10
21.82600297294772
 20
14.20207638270375
 30
0.0
 10
21.81789084967229
 20
14.19396291368795
 30
0.0
 10
21.80801311496069
 20
14.19396291368795
 30
0.0
  0
SPLINE
  5
38A
330
1F
100
AcDbEntity
  8
Livello 1
100
AcDbSpline
210
0.0
220
0.0
230
1.0
 70
     9
 71
     3
 72
    23
 73
    19
 74
     0
 42
0.000000001
 43
0.0000000001
 40
0.0
 40
0.0
 40
0.0
 40
0.0
 40
1.0
 40
1.0
 40
1.0
 40
2.0
 40
2.0
 40
2.0
 40
3.0
 40
3.0
 40
3.0
 40
4.0
 40
4.0
 40
4.0
 40
5.0
 40
5.0
 40
5.0
 40
6.0
 40
6.0
 40
6.0
 40
6.0
 10
21.69501667452534
 20
14.28547326251487
 30
0.0
 10
21.68513624833286
 20
14.28547326251487
 30
0.0
 10
21.67702412505744
 20
14.29358673153078
 30
0.0
 10
21.67702412505744
 20
14.30346446624239
 30
0.0
 10
21.67702412505744
 20
14.30346446624239
 30
0.0
 10
21.67702412505744
 20
15.00866743763046
 30
0.0
 10
21.67702412505744
 20
15.00866743763046
 30
0.0
 10
21.67702412505744
 20
15.01854517234207
 30
0.0
 10
21.68513624833286
 20
15.02665864135798
 30
0.0
 10
21.69501667452534
 20
15.02665864135798
 30
0.0
 10
21.70489440923695
 20
15.02665864135798
 30
0.0
 10
21.71300653251237
 20
15.01854517234207
 30
0.0
 10
21.71300653251237
 20
15.00866743763046
 30
0.0
 10
21.71300653251237
 20
15.00866743763046
 30
0.0
 10
21.71300653251237
 20
14.30346446624239
 30
0.0
 10
21.71300653251237
 20
14.30346446624239
 30
0.0
 10
21.71300653251237
 20
14.29358673153078
 30
0.0
 10
21.70489440923695
 20
14.28547326251487
 30
0.0
 10
21.69501667452534
 20
14.28547326251487
 30
0.0
  0
SPLINE
  5
38B
330
1F
100
AcDbEntity
  8
Livello 1
100
AcDbSpline
210
0.0
220
0.0
230
1.0
 70
     9
 71
     3
 72
    23
 73
    19
 74
     0
 42
0.000000001
 43
0.0000000001
 40
0.0
 40
0.0
 40
0.0
 40
0.0
 40
1.0
 40
1.0
 40
1.0
 40
2.0
 40
2.0
 40
2.0
 40
3.0
 40
3.0
 40
3.0
 40
4.0
 40
4.0
 40
4.0
 40
5.0
 40
5.0
 40
5.0
 40
6.0
 40
6.0
 40
6.0
 40
6.0
 10
19.75152930632155
 20
14.35546522196327
 30
0.0
 10
19.75152930632155
 20
14.35546522196327
 30
0.0
 10
19.67074316293288
 20
14.35546522196327
 30
0.0
 10
19.67074316293288
 20
14.35546522196327
 30
0.0
 10
19.66086408248083
 20
14.35546522196327
 30
0.0
 10
19.65275061346499
 20
14.36357869097918
 30
0.0
 10
19.65275061346499
 20
14.37345642569076
 30
0.0
 10
19.65275061346499
 20
14.38333416040237
 30
0.0
 10
19.66086408248083
 20
14.39144762941817
 30
0.0
 10
19.67074316293288
 20
14.39144762941817
 30
0.0
 10
19.67074316293288
 20
14.39144762941817
 30
0.0
 10
19.75152930632155
 20
14.39144762941817
 30
0.0
 10
19.75152930632155
 20
14.39144762941817
 30
0.0
 10
19.76140704103318
 20
14.39144762941817
 30
0.0
 10
19.76952051004903
 20
14.38333416040237
 30
0.0
 10
19.76952051004903
 20
14.37345642569076
 30
0.0
 10
19.76952051004903
 20
14.36357869097918
 30
0.0
 10
19.76140704103318
 20
14.35546522196327
 30
0.0
 10
19.75152930632155
 20
14.35546522196327
 30
0.0
  0
SPLINE
  5
38C
330
1F
100
AcDbEntity
  8
Livello 1
100
AcDbSpline
210
0.0
220
0.0
230
1.0
 70
     9
 71
     3
 72
    23
 73
    19
 74
     0
 42
0.000000001
 43
0.0000000001
 40
0.0
 40
0.0
 40
0.0
 40
0.0
 40
1.0
 40
1.0
 40
1.0
 40
2.0
 40
2.0
 40
2.0
 40
3.0
 40
3.0
 40
3.0
 40
4.0
 40
4.0
 40
4.0
 40
5.0
 40
5.0
 40
5.0
 40
6.0
 40
6.0
 40
6.0
 40
6.0
 10
21.57655383648799
 20
14.02702919706166
 30
0.0
 10
21.56667341029553
 20
14.02702919706166
 30
0.0
 10
21.5585612870201
 20
14.03514266607746
 30
0.0
 10
21.5585612870201
 20
14.04502040078918
 30
0.0
 10
21.5585612870201
 20
14.04502040078918
 30
0.0
 10
21.5585612870201
 20
14.21188413891337
 30
0.0
 10
21.5585612870201
 20
14.21188413891337
 30
0.0
 10
21.5585612870201
 20
14.22176187362495
 30
0.0
 10
21.56667341029553
 20
14.22987534264087
 30
0.0
 10
21.57655383648799
 20
14.22987534264087
 30
0.0
 10
21.58643157119961
 20
14.22987534264087
 30
0.0
 10
21.59454369447503
 20
14.22176187362495
 30
0.0
 10
21.59454369447503
 20
14.21188413891337
 30
0.0
 10
21.59454369447503
 20
14.21188413891337
 30
0.0
 10
21.59454369447503
 20
14.04502040078918
 30
0.0
 10
21.59454369447503
 20
14.04502040078918
 30
0.0
 10
21.59454369447503
 20
14.03514266607746
 30
0.0
 10
21.58643157119961
 20
14.02702919706166
 30
0.0
 10
21.57655383648799
 20
14.02702919706166
 30
0.0
  0
SPLINE
  5
38D
330
1F
100
AcDbEntity
  8
Livello 1
100
AcDbSpline
210
0.0
220
0.0
230
1.0
 70
     9
 71
     3
 72
    23
 73
    19
 74
     0
 42
0.000000001
 43
0.0000000001
 40
0.0
 40
0.0
 40
0.0
 40
0.0
 40
1.0
 40
1.0
 40
1.0
 40
2.0
 40
2.0
 40
2.0
 40
3.0
 40
3.0
 40
3.0
 40
4.0
 40
4.0
 40
4.0
 40
5.0
 40
5.0
 40
5.0
 40
6.0
 40
6.0
 40
6.0
 40
6.0
 10
19.75152930632155
 20
14.62466982784619
 30
0.0
 10
19.75152930632155
 20
14.62466982784619
 30
0.0
 10
19.67074316293288
 20
14.62466982784619
 30
0.0
 10
19.67074316293288
 20
14.62466982784619
 30
0.0
 10
19.66086408248083
 20
14.62466982784619
 30
0.0
 10
19.65275061346499
 20
14.63278329686207
 30
0.0
 10
19.65275061346499
 20
14.64266103157368
 30
0.0
 10
19.65275061346499
 20
14.65253876628526
 30
0.0
 10
19.66086408248083
 20
14.66065223530117
 30
0.0
 10
19.67074316293288
 20
14.66065223530117
 30
0.0
 10
19.67074316293288
 20
14.66065223530117
 30
0.0
 10
19.75152930632155
 20
14.66065223530117
 30
0.0
 10
19.75152930632155
 20
14.66065223530117
 30
0.0
 10
19.76140704103318
 20
14.66065223530117
 30
0.0
 10
19.76952051004903
 20
14.65253876628526
 30
0.0
 10
19.76952051004903
 20
14.64266103157368
 30
0.0
 10
19.76952051004903
 20
14.63278329686207
 30
0.0
 10
19.76140704103318
 20
14.62466982784619
 30
0.0
 10
19.75152930632155
 20
14.62466982784619
 30
0.0
  0
SPLINE
  5
38E
330
1F
100
AcDbEntity
  8
Livello 1
100
AcDbSpline
210
0.0
220
0.0
230
1.0
 70
     9
 71
     3
 72
    23
 73
    19
 74
     0
 42
0.000000001
 43
0.0000000001
 40
0.0
 40
0.0
 40
0.0
 40
0.0
 40
1.0
 40
1.0
 40
1.0
 40
2.0
 40
2.0
 40
2.0
 40
3.0
 40
3.0
 40
3.0
 40
4.0
 40
4.0
 40
4.0
 40
5.0
 40
5.0
 40
5.0
 40
6.0
 40
6.0
 40
6.0
 40
6.0
 10
21.21580389252707
 20
14.28547326251487
 30
0.0
 10
21.20592346633462
 20
14.28547326251487
 30
0.0
 10
21.1978113430592
 20
14.29358673153078
 30
0.0
 10
21.1978113430592
 20
14.30346446624239
 30
0.0
 10
21.1978113430592
 20
14.30346446624239
 30
0.0
 10
21.1978113430592
 20
15.00866743763046
 30
0.0
 10
21.1978113430592
 20
15.00866743763046
 30
0.0
 10
21.1978113430592
 20
15.01854517234207
 30
0.0
 10
21.20592346633462
 20
15.02665864135798
 30
0.0
 10
21.21580389252707
 20
15.02665864135798
 30
0.0
 10
21.2256816272387
 20
15.02665864135798
 30
0.0
 10
21.23379375051411
 20
15.01854517234207
 30
0.0
 10
21.23379375051411
 20
15.00866743763046
 30
0.0
 10
21.23379375051411
 20
15.00866743763046
 30
0.0
 10
21.23379375051411
 20
14.30346446624239
 30
0.0
 10
21.23379375051411
 20
14.30346446624239
 30
0.0
 10
21.23379375051411
 20
14.29358673153078
 30
0.0
 10
21.2256816272387
 20
14.28547326251487
 30
0.0
 10
21.21580389252707
 20
14.28547326251487
 30
0.0
  0
SPLINE
  5
38F
330
1F
100
AcDbEntity
  8
Livello 1
100
AcDbSpline
210
0.0
220
0.0
230
1.0
 70
     9
 71
     3
 72
    23
 73
    19
 74
     0
 42
0.000000001
 43
0.0000000001
 40
0.0
 40
0.0
 40
0.0
 40
0.0
 40
1.0
 40
1.0
 40
1.0
 40
2.0
 40
2.0
 40
2.0
 40
3.0
 40
3.0
 40
3.0
 40
4.0
 40
4.0
 40
4.0
 40
5.0
 40
5.0
 40
5.0
 40
6.0
 40
6.0
 40
6.0
 40
6.0
 10
21.21580389252707
 20
15.07689513138308
 30
0.0
 10
21.20592346633462
 20
15.07689513138308
 30
0.0
 10
21.1978113430592
 20
15.08500860039888
 30
0.0
 10
21.1978113430592
 20
15.09488633511046
 30
0.0
 10
21.1978113430592
 20
15.09488633511046
 30
0.0
 10
21.1978113430592
 20
16.74235791096547
 30
0.0
 10
21.1978113430592
 20
16.74235791096547
 30
0.0
 10
21.1978113430592
 20
16.75223564567707
 30
0.0
 10
21.20592346633462
 20
16.75999787644227
 30
0.0
 10
21.21580389252707
 20
16.75999787644227
 30
0.0
 10
21.2256816272387
 20
16.75999787644227
 30
0.0
 10
21.23379375051411
 20
16.75223564567707
 30
0.0
 10
21.23379375051411
 20
16.74235791096547
 30
0.0
 10
21.23379375051411
 20
16.74235791096547
 30
0.0
 10
21.23379375051411
 20
15.09488633511046
 30
0.0
 10
21.23379375051411
 20
15.09488633511046
 30
0.0
 10
21.23379375051411
 20
15.08500860039888
 30
0.0
 10
21.2256816272387
 20
15.07689513138308
 30
0.0
 10
21.21580389252707
 20
15.07689513138308
 30
0.0
  0
SPLINE
  5
390
330
1F
100
AcDbEntity
  8
Livello 1
100
AcDbSpline
210
0.0
220
0.0
230
1.0
 70
     9
 71
     3
 72
    23
 73
    19
 74
     0
 42
0.000000001
 43
0.0000000001
 40
0.0
 40
0.0
 40
0.0
 40
0.0
 40
1.0
 40
1.0
 40
1.0
 40
2.0
 40
2.0
 40
2.0
 40
3.0
 40
3.0
 40
3.0
 40
4.0
 40
4.0
 40
4.0
 40
5.0
 40
5.0
 40
5.0
 40
6.0
 40
6.0
 40
6.0
 40
6.0
 10
22.00726075064627
 20
14.99074755814547
 30
0.0
 10
22.00726075064627
 20
14.99074755814547
 30
0.0
 10
21.2159788387822
 20
14.99074755814547
 30
0.0
 10
21.2159788387822
 20
14.99074755814547
 30
0.0
 10
21.2057485200795
 20
14.99074755814547
 30
0.0
 10
21.1979862893143
 20
14.99886102716127
 30
0.0
 10
21.1979862893143
 20
15.00873876187296
 30
0.0
 10
21.1979862893143
 20
15.01861649658457
 30
0.0
 10
21.2057485200795
 20
15.02672996560036
 30
0.0
 10
21.2159788387822
 20
15.02672996560036
 30
0.0
 10
21.2159788387822
 20
15.02672996560036
 30
0.0
 10
22.00726075064627
 20
15.02672996560036
 30
0.0
 10
22.00726075064627
 20
15.02672996560036
 30
0.0
 10
22.01713848535789
 20
15.02672996560036
 30
0.0
 10
22.02525060863331
 20
15.01861649658457
 30
0.0
 10
22.02525060863331
 20
15.00873876187296
 30
0.0
 10
22.02525060863331
 20
14.99886102716127
 30
0.0
 10
22.01713848535789
 20
14.99074755814547
 30
0.0
 10
22.00726075064627
 20
14.99074755814547
 30
0.0
  0
SPLINE
  5
391
330
1F
100
AcDbEntity
  8
Livello 1
100
AcDbSpline
210
0.0
220
0.0
230
1.0
 70
     9
 71
     3
 72
    23
 73
    19
 74
     0
 42
0.000000001
 43
0.0000000001
 40
0.0
 40
0.0
 40
0.0
 40
0.0
 40
1.0
 40
1.0
 40
1.0
 40
2.0
 40
2.0
 40
2.0
 40
3.0
 40
3.0
 40
3.0
 40
4.0
 40
4.0
 40
4.0
 40
5.0
 40
5.0
 40
5.0
 40
6.0
 40
6.0
 40
6.0
 40
6.0
 10
20.3436672045127
 20
15.07689513138308
 30
0.0
 10
20.3436672045127
 20
15.07689513138308
 30
0.0
 10
19.75170559831709
 20
15.07689513138308
 30
0.0
 10
19.75170559831709
 20
15.07689513138308
 30
0.0
 10
19.74147527961441
 20
15.07689513138308
 30
0.0
 10
19.73371439458964
 20
15.08500860039888
 30
0.0
 10
19.73371439458964
 20
15.09488633511046
 30
0.0
 10
19.73371439458964
 20
15.10476406982218
 30
0.0
 10
19.74147527961441
 20
15.11287753883795
 30
0.0
 10
19.75170559831709
 20
15.11287753883795
 30
0.0
 10
19.75170559831709
 20
15.11287753883795
 30
0.0
 10
20.3436672045127
 20
15.11287753883795
 30
0.0
 10
20.3436672045127
 20
15.11287753883795
 30
0.0
 10
20.35354493922431
 20
15.11287753883795
 30
0.0
 10
20.36165840824015
 20
15.10476406982218
 30
0.0
 10
20.36165840824015
 20
15.09488633511046
 30
0.0
 10
20.36165840824015
 20
15.08500860039888
 30
0.0
 10
20.35354493922431
 20
15.07689513138308
 30
0.0
 10
20.3436672045127
 20
15.07689513138308
 30
0.0
  0
SPLINE
  5
392
330
1F
100
AcDbEntity
  8
Livello 1
100
AcDbSpline
210
0.0
220
0.0
230
1.0
 70
     9
 71
     3
 72
    23
 73
    19
 74
     0
 42
0.000000001
 43
0.0000000001
 40
0.0
 40
0.0
 40
0.0
 40
0.0
 40
1.0
 40
1.0
 40
1.0
 40
2.0
 40
2.0
 40
2.0
 40
3.0
 40
3.0
 40
3.0
 40
4.0
 40
4.0
 40
4.0
 40
5.0
 40
5.0
 40
5.0
 40
6.0
 40
6.0
 40
6.0
 40
6.0
 10
21.80801311496069
 20
15.07689513138308
 30
0.0
 10
21.80801311496069
 20
15.07689513138308
 30
0.0
 10
21.21569892477401
 20
15.07689513138308
 30
0.0
 10
21.21569892477401
 20
15.07689513138308
 30
0.0
 10
21.2058211900624
 20
15.07689513138308
 30
0.0
 10
21.19770637530613
 20
15.08500860039888
 30
0.0
 10
21.19770637530613
 20
15.09488633511046
 30
0.0
 10
21.19770637530613
 20
15.10476406982218
 30
0.0
 10
21.2058211900624
 20
15.11287753883795
 30
0.0
 10
21.21569892477401
 20
15.11287753883795
 30
0.0
 10
21.21569892477401
 20
15.11287753883795
 30
0.0
 10
21.80801311496069
 20
15.11287753883795
 30
0.0
 10
21.80801311496069
 20
15.11287753883795
 30
0.0
 10
21.81789084967229
 20
15.11287753883795
 30
0.0
 10
21.82600297294772
 20
15.10476406982218
 30
0.0
 10
21.82600297294772
 20
15.09488633511046
 30
0.0
 10
21.82600297294772
 20
15.08500860039888
 30
0.0
 10
21.81789084967229
 20
15.07689513138308
 30
0.0
 10
21.80801311496069
 20
15.07689513138308
 30
0.0
  0
SPLINE
  5
393
330
1F
100
AcDbEntity
  8
Livello 1
100
AcDbSpline
210
0.0
220
0.0
230
1.0
 70
     9
 71
     3
 72
    23
 73
    19
 74
     0
 42
0.000000001
 43
0.0000000001
 40
0.0
 40
0.0
 40
0.0
 40
0.0
 40
1.0
 40
1.0
 40
1.0
 40
2.0
 40
2.0
 40
2.0
 40
3.0
 40
3.0
 40
3.0
 40
4.0
 40
4.0
 40
4.0
 40
5.0
 40
5.0
 40
5.0
 40
6.0
 40
6.0
 40
6.0
 40
6.0
 10
19.91303161459689
 20
15.27071135871767
 30
0.0
 10
19.91303161459689
 20
15.27071135871767
 30
0.0
 10
19.81601718743608
 20
15.27071135871767
 30
0.0
 10
19.81601718743608
 20
15.27071135871767
 30
0.0
 10
19.80613945272446
 20
15.27071135871767
 30
0.0
 10
19.79837856769968
 20
15.27882482773359
 30
0.0
 10
19.79837856769968
 20
15.28870256244516
 30
0.0
 10
19.79837856769968
 20
15.29858029715677
 30
0.0
 10
19.80613945272446
 20
15.30669376617266
 30
0.0
 10
19.81601718743608
 20
15.30669376617266
 30
0.0
 10
19.81601718743608
 20
15.30669376617266
 30
0.0
 10
19.91303161459689
 20
15.30669376617266
 30
0.0
 10
19.91303161459689
 20
15.30669376617266
 30
0.0
 10
19.92290934930849
 20
15.30669376617266
 30
0.0
 10
19.93102281832435
 20
15.29858029715677
 30
0.0
 10
19.93102281832435
 20
15.28870256244516
 30
0.0
 10
19.93102281832435
 20
15.27882482773359
 30
0.0
 10
19.92290934930849
 20
15.27071135871767
 30
0.0
 10
19.91303161459689
 20
15.27071135871767
 30
0.0
  0
SPLINE
  5
394
330
1F
100
AcDbEntity
  8
Livello 1
100
AcDbSpline
210
0.0
220
0.0
230
1.0
 70
     9
 71
     3
 72
    23
 73
    19
 74
     0
 42
0.000000001
 43
0.0000000001
 40
0.0
 40
0.0
 40
0.0
 40
0.0
 40
1.0
 40
1.0
 40
1.0
 40
2.0
 40
2.0
 40
2.0
 40
3.0
 40
3.0
 40
3.0
 40
4.0
 40
4.0
 40
4.0
 40
5.0
 40
5.0
 40
5.0
 40
6.0
 40
6.0
 40
6.0
 40
6.0
 10
20.7797705377709
 20
16.72422675023398
 30
0.0
 10
20.76989145731887
 20
16.72422675023398
 30
0.0
 10
20.76177798830302
 20
16.73234021924975
 30
0.0
 10
20.76177798830302
 20
16.74221795396135
 30
0.0
 10
20.76177798830302
 20
16.74221795396135
 30
0.0
 10
20.76177798830302
 20
17.09217371398196
 30
0.0
 10
20.76177798830302
 20
17.09217371398196
 30
0.0
 10
20.76177798830302
 20
17.10205144869357
 30
0.0
 10
20.76989145731887
 20
17.11016491770945
 30
0.0
 10
20.7797705377709
 20
17.11016491770945
 30
0.0
 10
20.78964827248253
 20
17.11016491770945
 30
0.0
 10
20.79776039575795
 20
17.10205144869357
 30
0.0
 10
20.79776039575795
 20
17.09217371398196
 30
0.0
 10
20.79776039575795
 20
17.09217371398196
 30
0.0
 10
20.79776039575795
 20
16.74221795396135
 30
0.0
 10
20.79776039575795
 20
16.74221795396135
 30
0.0
 10
20.79776039575795
 20
16.73234021924975
 30
0.0
 10
20.78964827248253
 20
16.72422675023398
 30
0.0
 10
20.7797705377709
 20
16.72422675023398
 30
0.0
  0
SPLINE
  5
395
330
1F
100
AcDbEntity
  8
Livello 1
100
AcDbSpline
210
0.0
220
0.0
230
1.0
 70
     9
 71
     3
 72
    23
 73
    19
 74
     0
 42
0.000000001
 43
0.0000000001
 40
0.0
 40
0.0
 40
0.0
 40
0.0
 40
1.0
 40
1.0
 40
1.0
 40
2.0
 40
2.0
 40
2.0
 40
3.0
 40
3.0
 40
3.0
 40
4.0
 40
4.0
 40
4.0
 40
5.0
 40
5.0
 40
5.0
 40
6.0
 40
6.0
 40
6.0
 40
6.0
 10
20.7797705377709
 20
14.04861891068267
 30
0.0
 10
20.76989145731887
 20
14.04861891068267
 30
0.0
 10
20.76177798830302
 20
14.05673237969859
 30
0.0
 10
20.76177798830302
 20
14.06661011441016
 30
0.0
 10
20.76177798830302
 20
14.06661011441016
 30
0.0
 10
20.76177798830302
 20
14.21195411741539
 30
0.0
 10
20.76177798830302
 20
14.21195411741539
 30
0.0
 10
20.76177798830302
 20
14.22183185212708
 30
0.0
 10
20.76989145731887
 20
14.22994666688328
 30
0.0
 10
20.7797705377709
 20
14.22994666688328
 30
0.0
 10
20.78964827248253
 20
14.22994666688328
 30
0.0
 10
20.79776039575795
 20
14.22183185212708
 30
0.0
 10
20.79776039575795
 20
14.21195411741539
 30
0.0
 10
20.79776039575795
 20
14.21195411741539
 30
0.0
 10
20.79776039575795
 20
14.06661011441016
 30
0.0
 10
20.79776039575795
 20
14.06661011441016
 30
0.0
 10
20.79776039575795
 20
14.05673237969859
 30
0.0
 10
20.78964827248253
 20
14.04861891068267
 30
0.0
 10
20.7797705377709
 20
14.04861891068267
 30
0.0
  0
SPLINE
  5
396
330
1F
100
AcDbEntity
  8
Livello 1
100
AcDbSpline
210
0.0
220
0.0
230
1.0
 70
     9
 71
     3
 72
    23
 73
    19
 74
     0
 42
0.000000001
 43
0.0000000001
 40
0.0
 40
0.0
 40
0.0
 40
0.0
 40
1.0
 40
1.0
 40
1.0
 40
2.0
 40
2.0
 40
2.0
 40
3.0
 40
3.0
 40
3.0
 40
4.0
 40
4.0
 40
4.0
 40
5.0
 40
5.0
 40
5.0
 40
6.0
 40
6.0
 40
6.0
 40
6.0
 10
20.58595431043629
 20
14.04861891068267
 30
0.0
 10
20.57607522998424
 20
14.04861891068267
 30
0.0
 10
20.56796176096839
 20
14.05673237969859
 30
0.0
 10
20.56796176096839
 20
14.06661011441016
 30
0.0
 10
20.56796176096839
 20
14.06661011441016
 30
0.0
 10
20.56796176096839
 20
14.21195411741539
 30
0.0
 10
20.56796176096839
 20
14.21195411741539
 30
0.0
 10
20.56796176096839
 20
14.22183185212708
 30
0.0
 10
20.57607522998424
 20
14.22994666688328
 30
0.0
 10
20.58595431043629
 20
14.22994666688328
 30
0.0
 10
20.59583204514789
 20
14.22994666688328
 30
0.0
 10
20.60394551416375
 20
14.22183185212708
 30
0.0
 10
20.60394551416375
 20
14.21195411741539
 30
0.0
 10
20.60394551416375
 20
14.21195411741539
 30
0.0
 10
20.60394551416375
 20
14.06661011441016
 30
0.0
 10
20.60394551416375
 20
14.06661011441016
 30
0.0
 10
20.60394551416375
 20
14.05673237969859
 30
0.0
 10
20.59583204514789
 20
14.04861891068267
 30
0.0
 10
20.58595431043629
 20
14.04861891068267
 30
0.0
  0
SPLINE
  5
397
330
1F
100
AcDbEntity
  8
Livello 1
100
AcDbSpline
210
0.0
220
0.0
230
1.0
 70
     9
 71
     3
 72
    23
 73
    19
 74
     0
 42
0.000000001
 43
0.0000000001
 40
0.0
 40
0.0
 40
0.0
 40
0.0
 40
1.0
 40
1.0
 40
1.0
 40
2.0
 40
2.0
 40
2.0
 40
3.0
 40
3.0
 40
3.0
 40
4.0
 40
4.0
 40
4.0
 40
5.0
 40
5.0
 40
5.0
 40
6.0
 40
6.0
 40
6.0
 40
6.0
 10
20.39753584794202
 20
16.72422675023398
 30
0.0
 10
20.38765676748997
 20
16.72422675023398
 30
0.0
 10
20.37954329847412
 20
16.73234021924975
 30
0.0
 10
20.37954329847412
 20
16.74221795396135
 30
0.0
 10
20.37954329847412
 20
16.74221795396135
 30
0.0
 10
20.37954329847412
 20
17.09217371398196
 30
0.0
 10
20.37954329847412
 20
17.09217371398196
 30
0.0
 10
20.37954329847412
 20
17.10205144869357
 30
0.0
 10
20.38765676748997
 20
17.11016491770945
 30
0.0
 10
20.39753584794202
 20
17.11016491770945
 30
0.0
 10
20.40741358265363
 20
17.11016491770945
 30
0.0
 10
20.41552705166949
 20
17.10205144869357
 30
0.0
 10
20.41552705166949
 20
17.09217371398196
 30
0.0
 10
20.41552705166949
 20
17.09217371398196
 30
0.0
 10
20.41552705166949
 20
16.74221795396135
 30
0.0
 10
20.41552705166949
 20
16.74221795396135
 30
0.0
 10
20.41552705166949
 20
16.73234021924975
 30
0.0
 10
20.40741358265363
 20
16.72422675023398
 30
0.0
 10
20.39753584794202
 20
16.72422675023398
 30
0.0
  0
SPLINE
  5
398
330
1F
100
AcDbEntity
  8
Livello 1
100
AcDbSpline
210
0.0
220
0.0
230
1.0
 70
     9
 71
     3
 72
    23
 73
    19
 74
     0
 42
0.000000001
 43
0.0000000001
 40
0.0
 40
0.0
 40
0.0
 40
0.0
 40
1.0
 40
1.0
 40
1.0
 40
2.0
 40
2.0
 40
2.0
 40
3.0
 40
3.0
 40
3.0
 40
4.0
 40
4.0
 40
4.0
 40
5.0
 40
5.0
 40
5.0
 40
6.0
 40
6.0
 40
6.0
 40
6.0
 10
20.3436672045127
 20
15.07689513138308
 30
0.0
 10
20.33378812406064
 20
15.07689513138308
 30
0.0
 10
20.32567465504481
 20
15.08500860039888
 30
0.0
 10
20.32567465504481
 20
15.09488633511046
 30
0.0
 10
20.32567465504481
 20
15.09488633511046
 30
0.0
 10
20.32567465504481
 20
16.74235791096547
 30
0.0
 10
20.32567465504481
 20
16.74235791096547
 30
0.0
 10
20.32567465504481
 20
16.75223564567707
 30
0.0
 10
20.33378812406064
 20
16.75999787644227
 30
0.0
 10
20.3436672045127
 20
16.75999787644227
 30
0.0
 10
20.35354493922431
 20
16.75999787644227
 30
0.0
 10
20.36165840824015
 20
16.75223564567707
 30
0.0
 10
20.36165840824015
 20
16.74235791096547
 30
0.0
 10
20.36165840824015
 20
16.74235791096547
 30
0.0
 10
20.36165840824015
 20
15.09488633511046
 30
0.0
 10
20.36165840824015
 20
15.09488633511046
 30
0.0
 10
20.36165840824015
 20
15.08500860039888
 30
0.0
 10
20.35354493922431
 20
15.07689513138308
 30
0.0
 10
20.3436672045127
 20
15.07689513138308
 30
0.0
  0
SPLINE
  5
399
330
1F
100
AcDbEntity
  8
Livello 1
100
AcDbSpline
210
0.0
220
0.0
230
1.0
 70
     9
 71
     3
 72
    23
 73
    19
 74
     0
 42
0.000000001
 43
0.0000000001
 40
0.0
 40
0.0
 40
0.0
 40
0.0
 40
1.0
 40
1.0
 40
1.0
 40
2.0
 40
2.0
 40
2.0
 40
3.0
 40
3.0
 40
3.0
 40
4.0
 40
4.0
 40
4.0
 40
5.0
 40
5.0
 40
5.0
 40
6.0
 40
6.0
 40
6.0
 40
6.0
 10
19.98305721755586
 20
14.02702919706166
 30
0.0
 10
19.97317813710382
 20
14.02702919706166
 30
0.0
 10
19.96506466808797
 20
14.03514266607746
 30
0.0
 10
19.96506466808797
 20
14.04502040078918
 30
0.0
 10
19.96506466808797
 20
14.04502040078918
 30
0.0
 10
19.96506466808797
 20
14.21188413891337
 30
0.0
 10
19.96506466808797
 20
14.21188413891337
 30
0.0
 10
19.96506466808797
 20
14.22176187362495
 30
0.0
 10
19.97317813710382
 20
14.22987534264087
 30
0.0
 10
19.98305721755586
 20
14.22987534264087
 30
0.0
 10
19.99293495226747
 20
14.22987534264087
 30
0.0
 10
20.00104842128333
 20
14.22176187362495
 30
0.0
 10
20.00104842128333
 20
14.21188413891337
 30
0.0
 10
20.00104842128333
 20
14.21188413891337
 30
0.0
 10
20.00104842128333
 20
14.04502040078918
 30
0.0
 10
20.00104842128333
 20
14.04502040078918
 30
0.0
 10
20.00104842128333
 20
14.03514266607746
 30
0.0
 10
19.99293495226747
 20
14.02702919706166
 30
0.0
 10
19.98305721755586
 20
14.02702919706166
 30
0.0
  0
SPLINE
  5
39A
330
1F
100
AcDbEntity
  8
Livello 1
100
AcDbSpline
210
0.0
220
0.0
230
1.0
 70
     9
 71
     3
 72
    23
 73
    19
 74
     0
 42
0.000000001
 43
0.0000000001
 40
0.0
 40
0.0
 40
0.0
 40
0.0
 40
1.0
 40
1.0
 40
1.0
 40
2.0
 40
2.0
 40
2.0
 40
3.0
 40
3.0
 40
3.0
 40
4.0
 40
4.0
 40
4.0
 40
5.0
 40
5.0
 40
5.0
 40
6.0
 40
6.0
 40
6.0
 40
6.0
 10
19.91303161459689
 20
15.07689513138308
 30
0.0
 10
19.90315253414484
 20
15.07689513138308
 30
0.0
 10
19.89503906512899
 20
15.08500860039888
 30
0.0
 10
19.89503906512899
 20
15.09488633511046
 30
0.0
 10
19.89503906512899
 20
15.09488633511046
 30
0.0
 10
19.89503906512899
 20
15.28856125970068
 30
0.0
 10
19.89503906512899
 20
15.28856125970068
 30
0.0
 10
19.89503906512899
 20
15.29843899441226
 30
0.0
 10
19.90315253414484
 20
15.30655246342806
 30
0.0
 10
19.91303161459689
 20
15.30655246342806
 30
0.0
 10
19.92290934930849
 20
15.30655246342806
 30
0.0
 10
19.93102281832435
 20
15.29843899441226
 30
0.0
 10
19.93102281832435
 20
15.28856125970068
 30
0.0
 10
19.93102281832435
 20
15.28856125970068
 30
0.0
 10
19.93102281832435
 20
15.09488633511046
 30
0.0
 10
19.93102281832435
 20
15.09488633511046
 30
0.0
 10
19.93102281832435
 20
15.08500860039888
 30
0.0
 10
19.92290934930849
 20
15.07689513138308
 30
0.0
 10
19.91303161459689
 20
15.07689513138308
 30
0.0
  0
SPLINE
  5
39B
330
1F
100
AcDbEntity
  8
Livello 1
100
AcDbSpline
210
0.0
220
0.0
230
1.0
 70
     9
 71
     3
 72
    23
 73
    19
 74
     0
 42
0.000000001
 43
0.0000000001
 40
0.0
 40
0.0
 40
0.0
 40
0.0
 40
1.0
 40
1.0
 40
1.0
 40
2.0
 40
2.0
 40
2.0
 40
3.0
 40
3.0
 40
3.0
 40
4.0
 40
4.0
 40
4.0
 40
5.0
 40
5.0
 40
5.0
 40
6.0
 40
6.0
 40
6.0
 40
6.0
 10
19.81615849018059
 20
15.07689513138308
 30
0.0
 10
19.80627940972856
 20
15.07689513138308
 30
0.0
 10
19.79816594071271
 20
15.08500860039888
 30
0.0
 10
19.79816594071271
 20
15.09488633511046
 30
0.0
 10
19.79816594071271
 20
15.09488633511046
 30
0.0
 10
19.79816594071271
 20
15.28856125970068
 30
0.0
 10
19.79816594071271
 20
15.28856125970068
 30
0.0
 10
19.79816594071271
 20
15.29843899441226
 30
0.0
 10
19.80627940972856
 20
15.30655246342806
 30
0.0
 10
19.81615849018059
 20
15.30655246342806
 30
0.0
 10
19.8260362248922
 20
15.30655246342806
 30
0.0
 10
19.83414969390806
 20
15.29843899441226
 30
0.0
 10
19.83414969390806
 20
15.28856125970068
 30
0.0
 10
19.83414969390806
 20
15.28856125970068
 30
0.0
 10
19.83414969390806
 20
15.09488633511046
 30
0.0
 10
19.83414969390806
 20
15.09488633511046
 30
0.0
 10
19.83414969390806
 20
15.08500860039888
 30
0.0
 10
19.8260362248922
 20
15.07689513138308
 30
0.0
 10
19.81615849018059
 20
15.07689513138308
 30
0.0
  0
SPLINE
  5
39C
330
1F
100
AcDbEntity
  8
Livello 1
100
AcDbSpline
210
0.0
220
0.0
230
1.0
 70
     9
 71
     3
 72
    23
 73
    19
 74
     0
 42
0.000000001
 43
0.0000000001
 40
0.0
 40
0.0
 40
0.0
 40
0.0
 40
1.0
 40
1.0
 40
1.0
 40
2.0
 40
2.0
 40
2.0
 40
3.0
 40
3.0
 40
3.0
 40
4.0
 40
4.0
 40
4.0
 40
5.0
 40
5.0
 40
5.0
 40
6.0
 40
6.0
 40
6.0
 40
6.0
 10
19.75152930632155
 20
14.19396291368795
 30
0.0
 10
19.74165022586953
 20
14.19396291368795
 30
0.0
 10
19.73353675685367
 20
14.20207638270375
 30
0.0
 10
19.73353675685367
 20
14.21195411741539
 30
0.0
 10
19.73353675685367
 20
14.21195411741539
 30
0.0
 10
19.73353675685367
 20
15.09495631361255
 30
0.0
 10
19.73353675685367
 20
15.09495631361255
 30
0.0
 10
19.73353675685367
 20
15.10483404832416
 30
0.0
 10
19.74165022586953
 20
15.11259627908936
 30
0.0
 10
19.75152930632155
 20
15.11259627908936
 30
0.0
 10
19.76140704103318
 20
15.11259627908936
 30
0.0
 10
19.76952051004903
 20
15.10483404832416
 30
0.0
 10
19.76952051004903
 20
15.09495631361255
 30
0.0
 10
19.76952051004903
 20
15.09495631361255
 30
0.0
 10
19.76952051004903
 20
14.21195411741539
 30
0.0
 10
19.76952051004903
 20
14.21195411741539
 30
0.0
 10
19.76952051004903
 20
14.20207638270375
 30
0.0
 10
19.76140704103318
 20
14.19396291368795
 30
0.0
 10
19.75152930632155
 20
14.19396291368795
 30
0.0
  0
SPLINE
  5
39D
330
1F
100
AcDbEntity
  8
Livello 1
100
AcDbSpline
210
0.0
220
0.0
230
1.0
 70
     9
 71
     3
 72
    23
 73
    19
 74
     0
 42
0.000000001
 43
0.0000000001
 40
0.0
 40
0.0
 40
0.0
 40
0.0
 40
1.0
 40
1.0
 40
1.0
 40
2.0
 40
2.0
 40
2.0
 40
3.0
 40
3.0
 40
3.0
 40
4.0
 40
4.0
 40
4.0
 40
5.0
 40
5.0
 40
5.0
 40
6.0
 40
6.0
 40
6.0
 40
6.0
 10
19.67081448717535
 20
14.35546522196327
 30
0.0
 10
19.6609354067233
 20
14.35546522196327
 30
0.0
 10
19.65282193770746
 20
14.36357869097918
 30
0.0
 10
19.65282193770746
 20
14.37345642569076
 30
0.0
 10
19.65282193770746
 20
14.37345642569076
 30
0.0
 10
19.65282193770746
 20
14.64262604232266
 30
0.0
 10
19.65282193770746
 20
14.64262604232266
 30
0.0
 10
19.65282193770746
 20
14.65250377703427
 30
0.0
 10
19.6609354067233
 20
14.66061724605018
 30
0.0
 10
19.67081448717535
 20
14.66061724605018
 30
0.0
 10
19.68069222188695
 20
14.66061724605018
 30
0.0
 10
19.68880569090281
 20
14.65250377703427
 30
0.0
 10
19.68880569090281
 20
14.64262604232266
 30
0.0
 10
19.68880569090281
 20
14.64262604232266
 30
0.0
 10
19.68880569090281
 20
14.37345642569076
 30
0.0
 10
19.68880569090281
 20
14.37345642569076
 30
0.0
 10
19.68880569090281
 20
14.36357869097918
 30
0.0
 10
19.68069222188695
 20
14.35546522196327
 30
0.0
 10
19.67081448717535
 20
14.35546522196327
 30
0.0
  0
SPLINE
  5
39E
330
1F
100
AcDbEntity
  8
Livello 1
100
AcDbSpline
210
0.0
220
0.0
230
1.0
 70
     9
 71
     3
 72
    23
 73
    19
 74
     0
 42
0.000000001
 43
0.0000000001
 40
0.0
 40
0.0
 40
0.0
 40
0.0
 40
1.0
 40
1.0
 40
1.0
 40
2.0
 40
2.0
 40
2.0
 40
3.0
 40
3.0
 40
3.0
 40
4.0
 40
4.0
 40
4.0
 40
5.0
 40
5.0
 40
5.0
 40
6.0
 40
6.0
 40
6.0
 40
6.0
 10
21.21580389252707
 20
16.72422675023398
 30
0.0
 10
21.21580389252707
 20
16.72422675023398
 30
0.0
 10
20.34373718301474
 20
16.72422675023398
 30
0.0
 10
20.34373718301474
 20
16.72422675023398
 30
0.0
 10
20.33385944830312
 20
16.72422675023398
 30
0.0
 10
20.32574463354684
 20
16.73234021924975
 30
0.0
 10
20.32574463354684
 20
16.74221795396135
 30
0.0
 10
20.32574463354684
 20
16.75209568867296
 30
0.0
 10
20.33385944830312
 20
16.76020915768887
 30
0.0
 10
20.34373718301474
 20
16.76020915768887
 30
0.0
 10
20.34373718301474
 20
16.76020915768887
 30
0.0
 10
21.21580389252707
 20
16.76020915768887
 30
0.0
 10
21.21580389252707
 20
16.76020915768887
 30
0.0
 10
21.2256816272387
 20
16.76020915768887
 30
0.0
 10
21.23379375051411
 20
16.75209568867296
 30
0.0
 10
21.23379375051411
 20
16.74221795396135
 30
0.0
 10
21.23379375051411
 20
16.73234021924975
 30
0.0
 10
21.2256816272387
 20
16.72422675023398
 30
0.0
 10
21.21580389252707
 20
16.72422675023398
 30
0.0
  0
SPLINE
  5
39F
330
1F
100
AcDbEntity
  8
Livello 1
100
AcDbSpline
210
0.0
220
0.0
230
1.0
 70
     9
 71
     3
 72
    23
 73
    19
 74
     0
 42
0.000000001
 43
0.0000000001
 40
0.0
 40
0.0
 40
0.0
 40
0.0
 40
1.0
 40
1.0
 40
1.0
 40
2.0
 40
2.0
 40
2.0
 40
3.0
 40
3.0
 40
3.0
 40
4.0
 40
4.0
 40
4.0
 40
5.0
 40
5.0
 40
5.0
 40
6.0
 40
6.0
 40
6.0
 40
6.0
 10
20.7797705377709
 20
17.03650581560589
 30
0.0
 10
20.7797705377709
 20
17.03650581560589
 30
0.0
 10
20.39735821020606
 20
17.03650581560589
 30
0.0
 10
20.39735821020606
 20
17.03650581560589
 30
0.0
 10
20.38748047549445
 20
17.03650581560589
 30
0.0
 10
20.37971959046966
 20
17.04461928462177
 30
0.0
 10
20.37971959046966
 20
17.05449701933338
 30
0.0
 10
20.37971959046966
 20
17.06437475404496
 30
0.0
 10
20.38748047549445
 20
17.07248822306079
 30
0.0
 10
20.39735821020606
 20
17.07248822306079
 30
0.0
 10
20.39735821020606
 20
17.07248822306079
 30
0.0
 10
20.7797705377709
 20
17.07248822306079
 30
0.0
 10
20.7797705377709
 20
17.07248822306079
 30
0.0
 10
20.78964827248253
 20
17.07248822306079
 30
0.0
 10
20.79776039575795
 20
17.06437475404496
 30
0.0
 10
20.79776039575795
 20
17.05449701933338
 30
0.0
 10
20.79776039575795
 20
17.04461928462177
 30
0.0
 10
20.78964827248253
 20
17.03650581560589
 30
0.0
 10
20.7797705377709
 20
17.03650581560589
 30
0.0
  0
SPLINE
  5
3A0
330
1F
100
AcDbEntity
  8
Livello 1
100
AcDbSpline
210
0.0
220
0.0
230
1.0
 70
     9
 71
     3
 72
    23
 73
    19
 74
     0
 42
0.000000001
 43
0.0000000001
 40
0.0
 40
0.0
 40
0.0
 40
0.0
 40
1.0
 40
1.0
 40
1.0
 40
2.0
 40
2.0
 40
2.0
 40
3.0
 40
3.0
 40
3.0
 40
4.0
 40
4.0
 40
4.0
 40
5.0
 40
5.0
 40
5.0
 40
6.0
 40
6.0
 40
6.0
 40
6.0
 10
20.7797705377709
 20
17.07414752100348
 30
0.0
 10
20.7797705377709
 20
17.07414752100348
 30
0.0
 10
20.39735821020606
 20
17.07414752100348
 30
0.0
 10
20.39735821020606
 20
17.07414752100348
 30
0.0
 10
20.38748047549445
 20
17.07414752100348
 30
0.0
 10
20.37971959046966
 20
17.08226099001936
 30
0.0
 10
20.37971959046966
 20
17.09213872473097
 30
0.0
 10
20.37971959046966
 20
17.10201645944258
 30
0.0
 10
20.38748047549445
 20
17.11012992845846
 30
0.0
 10
20.39735821020606
 20
17.11012992845846
 30
0.0
 10
20.39735821020606
 20
17.11012992845846
 30
0.0
 10
20.7797705377709
 20
17.11012992845846
 30
0.0
 10
20.7797705377709
 20
17.11012992845846
 30
0.0
 10
20.78964827248253
 20
17.11012992845846
 30
0.0
 10
20.79776039575795
 20
17.10201645944258
 30
0.0
 10
20.79776039575795
 20
17.09213872473097
 30
0.0
 10
20.79776039575795
 20
17.08226099001936
 30
0.0
 10
20.78964827248253
 20
17.07414752100348
 30
0.0
 10
20.7797705377709
 20
17.07414752100348
 30
0.0
  0
POLYLINE
  5
3A1
330
1F
100
AcDbEntity
  8
Livello 1
100
AcDb2dPolyline
 66
     1
 10
0.0
 20
0.0
 30
0.0
  0
VERTEX
  5
3A2
330
3A1
100
AcDbEntity
  8
Livello 1
100
AcDbVertex
100
AcDb2dVertex
 10
24.40470178568058
 20
13.76954649042443
 30
0.0
  0
VERTEX
  5
3A3
330
3A1
100
AcDbEntity
  8
Livello 1
100
AcDbVertex
100
AcDb2dVertex
 10
24.40470178568058
 20
5.270777188061629
 30
0.0
  0
SEQEND
  5
3A4
330
3A1
100
AcDbEntity
  8
Livello 1
  0
POLYLINE
  5
3A5
330
1F
100
AcDbEntity
  8
Livello 1
100
AcDb2dPolyline
 66
     1
 10
0.0
 20
0.0
 30
0.0
  0
VERTEX
  5
3A6
330
3A5
100
AcDbEntity
  8
Livello 1
100
AcDbVertex
100
AcDb2dVertex
 10
23.20497688923165
 20
4.055704458512906
 30
0.0
  0
VERTEX
  5
3A7
330
3A5
100
AcDbEntity
  8
Livello 1
100
AcDbVertex
100
AcDb2dVertex
 10
11.94184009191723
 20
4.055704458512906
 30
0.0
  0
SEQEND
  5
3A8
330
3A5
100
AcDbEntity
  8
Livello 1
  0
MTEXT
  5
3A9
330
1F
100
AcDbEntity
  8
Livello 1
100
AcDbMText
 10
27.50813007570818
 20
4.706402370405129
 30
0.0
 40
2.123016666135912
 41
0.0
 46
0.0
 71
     7
 72
     1
  1
\fSource Sans Pro Light|b0|i0|c0|p34;\W1;140 mm
 11
-0.0000000000000002
 21
1.0
 31
0.0
 73
     1
 44
1.0
  0
MTEXT
  5
3AA
330
1F
100
AcDbEntity
  8
Livello 1
100
AcDbMText
 10
12.75920260272441
 20
0.9521741608941454
 30
0.0
 40
2.123016666135912
 41
0.0
 46
0.0
 71
     7
 72
     1
  1
\fSource Sans Pro Light|b0|i0|c0|p34;\W1;180 mm
 73
     1
 44
1.0
  0
POLYLINE
  5
3AB
330
1F
100
AcDbEntity
  8
Livello 1
100
AcDb2dPolyline
 66
     1
 10
0.0
 20
0.0
 30
0.0
  0
VERTEX
  5
3AC
330
3AB
100
AcDbEntity
  8
Livello 1
100
AcDbVertex
100
AcDb2dVertex
 10
2.09796387293332
 20
18.41224329373422
 30
0.0
  0
VERTEX
  5
3AD
330
3AB
100
AcDbEntity
  8
Livello 1
100
AcDbVertex
100
AcDb2dVertex
 10
6.740166453072433
 20
18.41224329373422
 30
0.0
  0
SEQEND
  5
3AE
330
3AB
100
AcDbEntity
  8
Livello 1
  0
MTEXT
  5
3AF
330
1F
100
AcDbEntity
  8
Livello 1
100
AcDbMText
 10
0.3081107547087072
 20
19.26664627003082
 30
0.0
 40
2.123016666135912
 41
0.0
 46
0.0
 71
     7
 72
     1
  1
\fSource Sans Pro Light|b0|i0|c0|p34;\W1;87 mm
 73
     1
 44
1.0
  0
ENDSEC
  0
SECTION
  2
OBJECTS
  0
DICTIONARY
  5
C
330
0
100
AcDbDictionary
281
     1
  3
ACAD_CIP_PREVIOUS_PRODUCT_INFO
350
216
  3
ACAD_COLOR
350
6B
  3
ACAD_DETAILVIEWSTYLE
350
21B
  3
ACAD_GROUP
350
D
  3
ACAD_LAYOUT
350
1A
  3
ACAD_MATERIAL
350
6A
  3
ACAD_MLEADERSTYLE
350
12D
  3
ACAD_MLINESTYLE
350
17
  3
ACAD_PLOTSETTINGS
350
19
  3
ACAD_PLOTSTYLENAME
350
E
  3
ACAD_SCALELIST
350
10C
  3
ACAD_SECTIONVIEWSTYLE
350
219
  3
ACAD_TABLESTYLE
350
7E
  3
ACAD_VISUALSTYLE
350
EF
  3
ACDB_RECOMPOSE_DATA
350
3B1
  3
AcDbVariableDictionary
350
5E
  3
AcDsDecomposeData
350
3B7
  0
DICTIONARY
  5
1FF
330
2
100
AcDbDictionary
280
     1
281
     1
  3
ACAD_LAYERSTATES
360
200
  0
DICTIONARY
  5
13C
330
10
100
AcDbDictionary
280
     1
281
     1
  0
DICTIONARY
  5
1CE
330
1F
100
AcDbDictionary
280
     1
281
     1
  0
XRECORD
  5
216
102
{ACAD_REACTORS
330
C
102
}
330
C
100
AcDbXrecord
280
     1
300
ACD
300
2020
300

  0
DICTIONARY
  5
6B
102
{ACAD_REACTORS
330
C
102
}
330
C
100
AcDbDictionary
281
     1
  0
DICTIONARY
  5
21B
102
{ACAD_REACTORS
330
C
102
}
330
C
100
AcDbDictionary
281
     1
  3
Imperial24
350
28F
  3
Metric50
350
21C
  0
DICTIONARY
  5
D
102
{ACAD_REACTORS
330
C
102
}
330
C
100
AcDbDictionary
281
     1
  0
DICTIONARY
  5
1A
102
{ACAD_REACTORS
330
C
102
}
330
C
100
AcDbDictionary
281
     1
  3
Layout1
350
D3
  3
Layout2
350
D7
  3
Model
350
22
  0
DICTIONARY
  5
6A
102
{ACAD_REACTORS
330
C
102
}
330
C
100
AcDbDictionary
281
     1
  3
ByBlock
350
ED
  3
ByLayer
350
EC
  3
Global
350
EE
  0
DICTIONARY
  5
12D
102
{ACAD_REACTORS
330
C
102
}
330
C
100
AcDbDictionary
281
     1
  3
Annotativa
350
13B
  3
Standard
350
12E
  0
DICTIONARY
  5
17
102
{ACAD_REACTORS
330
C
102
}
330
C
100
AcDbDictionary
281
     1
  3
Standard
350
18
  0
DICTIONARY
  5
19
102
{ACAD_REACTORS
330
C
102
}
330
C
100
AcDbDictionary
281
     1
  0
ACDBDICTIONARYWDFLT
  5
E
102
{ACAD_REACTORS
330
C
102
}
330
C
100
AcDbDictionary
281
     1
  3
Normal
350
F
100
AcDbDictionaryWithDefault
340
F
  0
DICTIONARY
  5
10C
102
{ACAD_REACTORS
330
C
102
}
330
C
100
AcDbDictionary
281
     1
  3
A0
350
10D
  3
A1
350
1BE
  3
A2
350
1BF
  3
A3
350
1C0
  3
A4
350
1C1
  3
A5
350
1C2
  3
A6
350
1C3
  3
A7
350
1C4
  3
A8
350
1C5
  3
A9
350
1C6
  3
B0
350
1C7
  3
B1
350
1C8
  3
B2
350
1C9
  3
B3
350
1CA
  3
B4
350
1CB
  3
B5
350
1CC
  3
B6
350
1CD
  0
DICTIONARY
  5
219
102
{ACAD_REACTORS
330
C
102
}
330
C
100
AcDbDictionary
281
     1
  3
Imperial24
350
28E
  3
Metric50
350
21A
  0
DICTIONARY
  5
7E
102
{ACAD_REACTORS
330
C
102
}
330
C
100
AcDbDictionary
281
     1
  3
Standard
350
7F
  0
DICTIONARY
  5
EF
102
{ACAD_REACTORS
330
C
102
}
330
C
100
AcDbDictionary
281
     1
  3
2dWireframe
350
F5
  3
Basic
350
F4
  3
Brighten
350
FB
  3
ColorChange
350
FF
  3
Conceptual
350
F8
  3
Dim
350
FA
  3
EdgeColorOff
350
1E6
  3
Facepattern
350
FE
  3
Flat
350
F0
  3
FlatWithEdges
350
F1
  3
Gouraud
350
F2
  3
GouraudWithEdges
350
F3
  3
Hidden
350
F7
  3
JitterOff
350
1E4
  3
Linepattern
350
FD
  3
OverhangOff
350
1E5
  3
Realistic
350
F9
  3
Shaded
350
1F3
  3
Shaded with edges
350
1F2
  3
Shades of Gray
350
1EF
  3
Sketchy
350
1F0
  3
Thicken
350
FC
  3
Wireframe
350
F6
  3
X-Ray
350
1F1
  0
XRECORD
  5
3B1
102
{ACAD_REACTORS
330
C
102
}
330
C
100
AcDbXrecord
280
     1
 90
        1
330
7F
  0
DICTIONARY
  5
5E
102
{ACAD_REACTORS
330
C
102
}
330
C
100
AcDbDictionary
281
     1
  3
CANNOSCALE
350
146
  3
CENTEREXE
350
259
  3
CENTERLTYPEFILE
350
25A
  3
CMLEADERSTYLE
350
145
  3
CTABLESTYLE
350
84
  3
CVIEWDETAILSTYLE
350
227
  3
CVIEWSECTIONSTYLE
350
228
  3
DIMASSOC
350
5F
  3
HIDETEXT
350
63
  3
LAYEREVAL
350
1AE
  3
LAYERNOTIFY
350
1AF
  0
DICTIONARY
  5
3B7
102
{ACAD_REACTORS
330
C
102
}
330
C
100
AcDbDictionary
281
     1
  3
AcDsRecords
350
3B9
  3
AcDsSchemas
350
3B8
1001
ACAD
1070
     2
  0
DICTIONARY
  5
200
102
{ACAD_REACTORS
330
1FF
102
}
330
1FF
100
AcDbDictionary
281
     1
  0
ACDBDETAILVIEWSTYLE
  5
28F
102
{ACAD_XDICTIONARY
360
3C0
102
}
102
{ACAD_REACTORS
330
21B
102
}
330
21B
100
AcDbModelDocViewStyle
 70
     0
  3
Imperial24
290
     0
100
AcDbDetailViewStyle
 70
     0
 71
     0
 90
        3
 71
     1
340
11
 62
   256
 40
0.24
340
0
 62
   256
 40
0.24
300

 40
0.36
280
     3
 71
     2
340
16
 90
       25
 62
   256
 71
     3
340
11
 62
   256
 40
0.24
 90
        1
 40
0.75
 90
        1
300
%<\AcVar ViewType \f "%tc1">% %<\AcVar ViewDetailId>%\PSCALA %<\AcVar ViewScale \f "%sn">%
 71
     4
340
16
 90
       25
 62
   256
340
16
 90
       25
 62
   256
280
     0
  0
ACDBDETAILVIEWSTYLE
  5
21C
102
{ACAD_XDICTIONARY
360
3BC
102
}
102
{ACAD_REACTORS
330
21B
102
}
330
21B
100
AcDbModelDocViewStyle
 70
     0
  3
Metric50
290
     0
100
AcDbDetailViewStyle
 70
     0
 71
     0
 90
        3
 71
     1
340
11
 62
   256
 40
5.0
340
0
 62
   256
 40
5.0
300

 40
0.0
280
     1
 71
     2
340
16
 90
       25
 62
   256
 71
     3
340
11
 62
   256
 40
5.0
 90
        0
 40
15.0
 90
        1
300
%<\AcVar ViewDetailId>% (%<\AcVar ViewScale \f "%sn">%)
 71
     4
340
16
 90
       25
 62
   256
340
16
 90
       25
 62
   256
280
     0
  0
LAYOUT
  5
D3
102
{ACAD_REACTORS
330
1A
102
}
330
1A
100
AcDbPlotSettings
  1

  2
C:\Documents and Settings\basas\Application Data\Autodesk\AutoCAD 2005\R16.1\enu\plotters\Default Windows System Printer.pc3
  4

  6

 40
0.0
 41
0.0
 42
0.0
 43
0.0
 44
0.0
 45
0.0
 46
0.0
 47
0.0
 48
0.0
 49
0.0
140
0.0
141
0.0
142
1.0
143
1.0
 70
   688
 72
     0
 73
     0
 74
     5
  7

 75
    16
147
1.0
 76
     0
 77
     2
 78
   300
148
0.0
149
0.0
100
AcDbLayout
  1
Layout1
 70
     1
 71
     1
 10
0.0
 20
0.0
 11
12.0
 21
9.0
 12
0.0
 22
0.0
 32
0.0
 14
0.0
 24
0.0
 34
0.0
 15
0.0
 25
0.0
 35
0.0
146
0.0
 13
0.0
 23
0.0
 33
0.0
 16
1.0
 26
0.0
 36
0.0
 17
0.0
 27
1.0
 37
0.0
 76
     0
330
D2
  0
LAYOUT
  5
D7
102
{ACAD_REACTORS
330
1A
102
}
330
1A
100
AcDbPlotSettings
  1

  2
C:\Documents and Settings\basas\Application Data\Autodesk\AutoCAD 2005\R16.1\enu\plotters\Default Windows System Printer.pc3
  4

  6

 40
0.0
 41
0.0
 42
0.0
 43
0.0
 44
0.0
 45
0.0
 46
0.0
 47
0.0
 48
0.0
 49
0.0
140
0.0
141
0.0
142
1.0
143
1.0
 70
   688
 72
     0
 73
     0
 74
     5
  7

 75
    16
147
1.0
 76
     0
 77
     2
 78
   300
148
0.0
149
0.0
100
AcDbLayout
  1
Layout2
 70
     1
 71
     2
 10
0.0
 20
0.0
 11
12.0
 21
9.0
 12
0.0
 22
0.0
 32
0.0
 14
0.0
 24
0.0
 34
0.0
 15
0.0
 25
0.0
 35
0.0
146
0.0
 13
0.0
 23
0.0
 33
0.0
 16
1.0
 26
0.0
 36
0.0
 17
0.0
 27
1.0
 37
0.0
 76
     0
330
D6
  0
LAYOUT
  5
22
102
{ACAD_XDICTIONARY
360
205
102
}
102
{ACAD_REACTORS
330
1A
102
}
330
1A
100
AcDbPlotSettings
  1

  2
none_device
  4
ISO_A4_(210.00_x_297.00_MM)
  6

 40
7.5
 41
20.0
 42
7.5
 43
20.0
 44
210.0
 45
297.0
 46
11.54999923706054
 47
-13.65000009536743
 48
0.0
 49
0.0
140
0.0
141
0.0
142
1.0
143
8.704084754739808
 70
 11952
 72
     1
 73
     0
 74
     0
  7

 75
     0
147
0.1148885871608098
 76
     0
 77
     2
 78
   300
148
0.0
149
0.0
100
AcDbLayout
  1
Model
 70
     1
 71
     0
 10
0.0
 20
0.0
 11
12.0
 21
9.0
 12
0.0
 22
0.0
 32
0.0
 14
0.0
 24
0.0
 34
0.0
 15
0.0
 25
0.0
 35
0.0
146
0.0
 13
0.0
 23
0.0
 33
0.0
 16
1.0
 26
0.0
 36
0.0
 17
0.0
 27
1.0
 37
0.0
 76
     0
330
1F
331
EA
1001
ACAD_PSEXT
1000
None
1000
None
1000
Not applicable
1000
The layout will not be plotted unless a new plotter configuration name is selected.
1070
     0
  0
MATERIAL
  5
ED
102
{ACAD_XDICTIONARY
360
1F9
102
}
102
{ACAD_REACTORS
330
6A
102
}
330
6A
100
AcDbMaterial
  1
ByBlock
 94
       63
  0
MATERIAL
  5
EC
102
{ACAD_XDICTIONARY
360
1F7
102
}
102
{ACAD_REACTORS
330
6A
102
}
330
6A
100
AcDbMaterial
  1
ByLayer
 94
       63
  0
MATERIAL
  5
EE
102
{ACAD_XDICTIONARY
360
173
102
}
102
{ACAD_REACTORS
330
6A
102
}
330
6A
100
AcDbMaterial
  1
Global
 43
0.0007999999797903
 43
0.0
 43
0.0
 43
0.0
 43
0.0
 43
0.0007999999797903
 43
0.0
 43
0.0
 43
0.0
 43
0.0
 43
1.0
 43
0.0
 43
0.0
 43
0.0
 43
0.0
 43
1.0
 49
0.0007999999797903
 49
0.0
 49
0.0
 49
0.0
 49
0.0
 49
0.0007999999797903
 49
0.0
 49
0.0
 49
0.0
 49
0.0
 49
1.0
 49
0.0
 49
0.0
 49
0.0
 49
0.0
 49
1.0
142
0.0007999999797903
142
0.0
142
0.0
142
0.0
142
0.0
142
0.0007999999797903
142
0.0
142
0.0
142
0.0
142
0.0
142
1.0
142
0.0
142
0.0
142
0.0
142
0.0
142
1.0
144
0.0007999999797903
144
0.0
144
0.0
144
0.0
144
0.0
144
0.0007999999797903
144
0.0
144
0.0
144
0.0
144
0.0
144
1.0
144
0.0
144
0.0
144
0.0
144
0.0
144
1.0
 94
       63
1001
ACAD
1070
    -1
1070
     3
1070
     0
1000

1071
        0
1070
     0
  0
MLEADERSTYLE
  5
13B
102
{ACAD_REACTORS
330
12D
102
}
330
12D
100
AcDbMLeaderStyle
179
     2
170
     2
171
     1
172
     0
 90
        2
 40
0.0
 41
0.0
173
     1
 91
-1056964608
340
14
 92
       -2
290
     1
 42
2.0
291
     1
 43
8.0
  3
Standard
 44
4.0
300

342
11
174
     1
178
     1
175
     1
176
     0
 93
-1056964608
 45
4.0
292
     0
297
     0
 46
4.0
 94
-1056964608
 47
1.0
 49
1.0
140
1.0
293
     1
141
0.0
294
     1
177
     0
142
1.0
295
     0
296
     1
143
3.75
271
     0
272
     9
273
     9
298
     0
  0
MLEADERSTYLE
  5
12E
102
{ACAD_REACTORS
330
12D
102
}
330
12D
100
AcDbMLeaderStyle
179
     2
170
     2
171
     1
172
     0
 90
        2
 40
0.0
 41
0.0
173
     1
 91
-1056964608
340
14
 92
       -2
290
     1
 42
2.0
291
     1
 43
8.0
  3
Standard
 44
4.0
300

342
11
174
     1
178
     1
175
     1
176
     0
 93
-1056964608
 45
4.0
292
     0
297
     0
 46
4.0
 94
-1056964608
 47
1.0
 49
1.0
140
1.0
293
     1
141
0.0
294
     1
177
     0
142
1.0
295
     0
296
     0
143
3.75
271
     0
272
     9
273
     9
298
     0
  0
MLINESTYLE
  5
18
102
{ACAD_REACTORS
330
17
102
}
330
17
100
AcDbMlineStyle
  2
STANDARD
 70
     0
  3

 62
   256
 51
90.0
 52
90.0
 71
     2
 49
0.5
 62
   256
  6
BYLAYER
 49
-0.5
 62
   256
  6
BYLAYER
  0
ACDBPLACEHOLDER
  5
F
102
{ACAD_REACTORS
330
E
102
}
330
E
  0
SCALE
  5
10D
102
{ACAD_REACTORS
330
10C
102
}
330
10C
100
AcDbScale
 70
     0
300
1:1
140
1.0
141
1.0
290
     1
  0
SCALE
  5
1BE
102
{ACAD_REACTORS
330
10C
102
}
330
10C
100
AcDbScale
 70
     0
300
1:2
140
1.0
141
2.0
290
     0
  0
SCALE
  5
1BF
102
{ACAD_REACTORS
330
10C
102
}
330
10C
100
AcDbScale
 70
     0
300
1:4
140
1.0
141
4.0
290
     0
  0
SCALE
  5
1C0
102
{ACAD_REACTORS
330
10C
102
}
330
10C
100
AcDbScale
 70
     0
300
1:5
140
1.0
141
5.0
290
     0
  0
SCALE
  5
1C1
102
{ACAD_REACTORS
330
10C
102
}
330
10C
100
AcDbScale
 70
     0
300
1:8
140
1.0
141
8.0
290
     0
  0
SCALE
  5
1C2
102
{ACAD_REACTORS
330
10C
102
}
330
10C
100
AcDbScale
 70
     0
300
1:10
140
1.0
141
10.0
290
     0
  0
SCALE
  5
1C3
102
{ACAD_REACTORS
330
10C
102
}
330
10C
100
AcDbScale
 70
     0
300
1:16
140
1.0
141
16.0
290
     0
  0
SCALE
  5
1C4
102
{ACAD_REACTORS
330
10C
102
}
330
10C
100
AcDbScale
 70
     0
300
1:20
140
1.0
141
20.0
290
     0
  0
SCALE
  5
1C5
102
{ACAD_REACTORS
330
10C
102
}
330
10C
100
AcDbScale
 70
     0
300
1:30
140
1.0
141
30.0
290
     0
  0
SCALE
  5
1C6
102
{ACAD_REACTORS
330
10C
102
}
330
10C
100
AcDbScale
 70
     0
300
1:40
140
1.0
141
40.0
290
     0
  0
SCALE
  5
1C7
102
{ACAD_REACTORS
330
10C
102
}
330
10C
100
AcDbScale
 70
     0
300
1:50
140
1.0
141
50.0
290
     0
  0
SCALE
  5
1C8
102
{ACAD_REACTORS
330
10C
102
}
330
10C
100
AcDbScale
 70
     0
300
1:100
140
1.0
141
100.0
290
     0
  0
SCALE
  5
1C9
102
{ACAD_REACTORS
330
10C
102
}
330
10C
100
AcDbScale
 70
     0
300
2:1
140
2.0
141
1.0
290
     0
  0
SCALE
  5
1CA
102
{ACAD_REACTORS
330
10C
102
}
330
10C
100
AcDbScale
 70
     0
300
4:1
140
4.0
141
1.0
290
     0
  0
SCALE
  5
1CB
102
{ACAD_REACTORS
330
10C
102
}
330
10C
100
AcDbScale
 70
     0
300
8:1
140
8.0
141
1.0
290
     0
  0
SCALE
  5
1CC
102
{ACAD_REACTORS
330
10C
102
}
330
10C
100
AcDbScale
 70
     0
300
10:1
140
10.0
141
1.0
290
     0
  0
SCALE
  5
1CD
102
{ACAD_REACTORS
330
10C
102
}
330
10C
100
AcDbScale
 70
     0
300
100:1
140
100.0
141
1.0
290
     0
  0
ACDBSECTIONVIEWSTYLE
  5
28E
102
{ACAD_XDICTIONARY
360
3BE
102
}
102
{ACAD_REACTORS
330
219
102
}
330
219
100
AcDbModelDocViewStyle
 70
     0
  3
Imperial24
290
     0
100
AcDbSectionViewStyle
 70
     0
 71
     0
 90
       78
 71
     1
340
11
 62
   256
 40
0.24
340
0
340
0
 62
   256
 40
0.24
300
I, O, Q, S, X, Z
 40
0.48
 90
        3
 40
0.18
 90
        1
 71
     2
340
16
 90
       25
 62
   256
340
16
 90
       50
 62
   256
 40
0.24
 40
0.0
 40
0.24
 71
     3
340
11
 62
   256
 40
0.24
 90
        1
 40
0.75
 90
        1
300
%<\AcVar ViewType \f "%tc1">% %<\AcVar ViewSectionStartId>%-%<\AcVar ViewSectionEndId>%\PSCALA %<\AcVar ViewScale \f "%sn">%
 71
     4
 62
   256
 62
   257
300
ANSI31
 40
1.0
 90
        0
290
     0
290
     0
 90
        6
 40
0.0
 40
1.570796326794896
 40
0.2617993877991494
 40
1.308996938995747
 40
-0.2617993877991494
 40
1.832595714594046
  0
ACDBSECTIONVIEWSTYLE
  5
21A
102
{ACAD_XDICTIONARY
360
3BA
102
}
102
{ACAD_REACTORS
330
219
102
}
330
219
100
AcDbModelDocViewStyle
 70
     0
  3
Metric50
290
     0
100
AcDbSectionViewStyle
 70
     0
 71
     0
 90
      102
 71
     1
340
11
 62
   256
 40
5.0
340
0
340
0
 62
   256
 40
5.0
300
I, O, Q, S, X, Z
 40
10.0
 90
        0
 40
2.5
 90
        0
 71
     2
340
16
 90
       25
 62
   256
340
16
 90
       50
 62
   256
 40
5.0
 40
2.5
 40
5.0
 71
     3
340
11
 62
   256
 40
5.0
 90
        0
 40
15.0
 90
        1
300
%<\AcVar ViewSectionStartId>%-%<\AcVar ViewSectionEndId>% (%<\AcVar ViewScale \f "%sn">%)
 71
     4
 62
   256
 62
   257
300
ANSI31
 40
1.0
 90
        0
290
     0
290
     0
 90
        6
 40
0.0
 40
1.570796326794896
 40
0.2617993877991494
 40
1.308996938995747
 40
-0.2617993877991494
 40
1.832595714594046
  0
TABLESTYLE
  5
7F
102
{ACAD_XDICTIONARY
360
162
102
}
102
{ACAD_REACTORS
330
7E
102
}
330
7E
100
AcDbTableStyle
280
     0
  3
Standard
 70
     0
 71
     0
 40
1.5
 41
1.5
280
     0
281
     0
  7
Standard
140
4.5
170
     2
 62
     0
 63
     7
283
     0
 90
      512
 91
        0
  1

274
    -2
284
     1
 64
     0
275
    -2
285
     1
 65
     0
276
    -2
286
     1
 66
     0
277
    -2
287
     1
 67
     0
278
    -2
288
     1
 68
     0
279
    -2
289
     1
 69
     0
  7
Standard
140
6.0
170
     5
 62
     0
 63
     7
283
     0
 90
      512
 91
        0
  1

274
    -2
284
     1
 64
     0
275
    -2
285
     1
 65
     0
276
    -2
286
     1
 66
     0
277
    -2
287
     1
 67
     0
278
    -2
288
     1
 68
     0
279
    -2
289
     1
 69
     0
  7
Standard
140
4.5
170
     5
 62
     0
 63
     7
283
     0
 90
      512
 91
        0
  1

274
    -2
284
     1
 64
     0
275
    -2
285
     1
 65
     0
276
    -2
286
     1
 66
     0
277
    -2
287
     1
 67
     0
278
    -2
288
     1
 68
     0
279
    -2
289
     1
 69
     0
  0
VISUALSTYLE
  5
F5
102
{ACAD_REACTORS
330
EF
102
}
330
EF
100
AcDbVisualStyle
  2
2dWireframe
 70
     4
177
     3
291
     0
 70
    58
 90
        0
176
     1
 90
        2
176
     1
 90
        1
176
     1
 90
        0
176
     1
 40
0.6
176
     1
 40
30.0
176
     1
 62
     7
420
 16777215
176
     1
 90
        1
176
     1
 90
        4
176
     1
 62
     7
176
     1
 62
   257
176
     1
 90
        1
176
     1
 90
        1
176
     1
 40
1.0
176
     1
 90
        0
176
     1
 62
   257
176
     1
 40
1.0
176
     1
 90
        1
176
     1
 90
        6
176
     1
 90
        2
176
     1
 62
     7
176
     1
 90
        5
176
     1
 90
        0
176
     1
 90
        0
176
     1
290
     0
176
     1
 90
        1
176
     1
 40
0.0
176
     1
 90
        0
176
     1
290
     1
176
     1
290
     1
176
     1
290
     0
176
     1
290
     0
176
     1
290
     0
176
     1
290
     0
176
     1
290
     0
176
     1
290
     0
176
     1
290
     0
176
     1
 90
       50
176
     1
 40
0.0
176
     1
 40
1.0
176
     1
 90
        0
176
     1
 62
    18
420
        0
176
     1
 90
       50
176
     1
 90
        3
176
     1
 62
     5
420
      255
176
     1
290
     0
176
     1
 90
       50
176
     1
 90
       50
176
     1
 90
       50
176
     1
290
     0
176
     1
 90
       50
176
     1
 62
   256
176
     0
 40
1.0
176
     0
 90
        2
176
     1
  1
strokes_ogs.tif
176
     1
290
     0
176
     1
 40
1.0
176
     1
 40
1.0
176
     1
1001
ACAD
1000
AcDbSavedByObjectVersion
1070
     0
  0
VISUALSTYLE
  5
F4
102
{ACAD_REACTORS
330
EF
102
}
330
EF
100
AcDbVisualStyle
  2
Basic
 70
     7
177
     3
291
     1
 70
    58
 90
        1
176
     1
 90
        0
176
     1
 90
        1
176
     1
 90
        0
176
     1
 40
0.6
176
     1
 40
30.0
176
     1
 62
     7
420
 16777215
176
     1
 90
        0
176
     1
 90
        4
176
     1
 62
     7
176
     1
 62
   257
176
     1
 90
        1
176
     1
 90
        1
176
     1
 40
1.0
176
     1
 90
        8
176
     1
 62
     7
176
     1
 40
1.0
176
     1
 90
        1
176
     1
 90
        6
176
     1
 90
        2
176
     1
 62
     7
176
     1
 90
        5
176
     1
 90
        0
176
     1
 90
        0
176
     1
290
     0
176
     1
 90
        1
176
     1
 40
0.0
176
     1
 90
        0
176
     1
290
     0
176
     1
290
     1
176
     1
290
     1
176
     1
290
     0
176
     1
290
     0
176
     1
290
     0
176
     1
290
     0
176
     1
290
     0
176
     1
290
     0
176
     1
 90
       50
176
     1
 40
0.0
176
     1
 40
1.0
176
     1
 90
        0
176
     1
 62
    18
420
        0
176
     1
 90
       50
176
     1
 90
        3
176
     1
 62
     5
420
      255
176
     1
290
     0
176
     1
 90
       50
176
     1
 90
       50
176
     1
 90
       50
176
     1
290
     0
176
     1
 90
       50
176
     1
 62
   256
176
     0
 40
1.0
176
     0
 90
        2
176
     1
  1
strokes_ogs.tif
176
     1
290
     0
176
     1
 40
1.0
176
     1
 40
1.0
176
     1
1001
ACAD
1000
AcDbSavedByObjectVersion
1070
     0
  0
VISUALSTYLE
  5
FB
102
{ACAD_REACTORS
330
EF
102
}
330
EF
100
AcDbVisualStyle
  2
Brighten
 70
    12
177
     3
291
     1
 70
    58
 90
        2
176
     1
 90
        2
176
     1
 90
        1
176
     1
 90
        0
176
     1
 40
0.6
176
     1
 40
30.0
176
     1
 62
     7
420
 16777215
176
     1
 90
        1
176
     1
 90
        4
176
     1
 62
     7
176
     1
 62
   257
176
     1
 90
        1
176
     1
 90
        1
176
     1
 40
1.0
176
     1
 90
        8
176
     1
 62
     7
176
     1
 40
1.0
176
     1
 90
        1
176
     1
 90
        6
176
     1
 90
        2
176
     1
 62
     7
176
     1
 90
        5
176
     1
 90
        0
176
     1
 90
        0
176
     1
290
     0
176
     1
 90
        1
176
     1
 40
50.0
176
     1
 90
        0
176
     1
290
     0
176
     1
290
     1
176
     1
290
     1
176
     1
290
     0
176
     1
290
     0
176
     1
290
     0
176
     1
290
     0
176
     1
290
     0
176
     1
290
     0
176
     1
 90
       50
176
     1
 40
0.0
176
     1
 40
1.0
176
     1
 90
        0
176
     1
 62
    18
420
        0
176
     1
 90
       50
176
     1
 90
        3
176
     1
 62
     5
420
      255
176
     1
290
     0
176
     1
 90
       50
176
     1
 90
       50
176
     1
 90
       50
176
     1
290
     0
176
     1
 90
       50
176
     1
 62
   256
176
     0
 40
1.0
176
     0
 90
        2
176
     1
  1
strokes_ogs.tif
176
     1
290
     0
176
     1
 40
1.0
176
     1
 40
1.0
176
     1
1001
ACAD
1000
AcDbSavedByObjectVersion
1070
     0
  0
VISUALSTYLE
  5
FF
102
{ACAD_REACTORS
330
EF
102
}
330
EF
100
AcDbVisualStyle
  2
ColorChange
 70
    16
177
     3
291
     1
 70
    58
 90
        2
176
     1
 90
        2
176
     1
 90
        3
176
     1
 90
        0
176
     1
 40
0.6
176
     1
 40
30.0
176
     1
 62
     8
420
  8421504
176
     1
 90
        1
176
     1
 90
        4
176
     1
 62
     7
176
     1
 62
   257
176
     1
 90
        1
176
     1
 90
        1
176
     1
 40
1.0
176
     1
 90
        8
176
     1
 62
     8
420
  8421504
176
     1
 40
1.0
176
     1
 90
        1
176
     1
 90
        6
176
     1
 90
        2
176
     1
 62
     7
176
     1
 90
        5
176
     1
 90
        0
176
     1
 90
        0
176
     1
290
     0
176
     1
 90
        1
176
     1
 40
0.0
176
     1
 90
        0
176
     1
290
     0
176
     1
290
     1
176
     1
290
     1
176
     1
290
     0
176
     1
290
     0
176
     1
290
     0
176
     1
290
     0
176
     1
290
     0
176
     1
290
     0
176
     1
 90
       50
176
     1
 40
0.0
176
     1
 40
1.0
176
     1
 90
        0
176
     1
 62
    18
420
        0
176
     1
 90
       50
176
     1
 90
        3
176
     1
 62
     5
420
      255
176
     1
290
     0
176
     1
 90
       50
176
     1
 90
       50
176
     1
 90
       50
176
     1
290
     0
176
     1
 90
       50
176
     1
 62
   256
176
     0
 40
1.0
176
     0
 90
        2
176
     1
  1
strokes_ogs.tif
176
     1
290
     0
176
     1
 40
1.0
176
     1
 40
1.0
176
     1
1001
ACAD
1000
AcDbSavedByObjectVersion
1070
     0
  0
VISUALSTYLE
  5
F8
102
{ACAD_REACTORS
330
EF
102
}
330
EF
100
AcDbVisualStyle
  2
Conceptual
 70
     9
177
     3
291
     0
 70
    58
 90
        3
176
     1
 90
        2
176
     1
 90
        1
176
     1
 90
        0
176
     1
 40
0.6
176
     1
 40
30.0
176
     1
 62
     7
420
 16777215
176
     1
 90
        2
176
     1
 90
        2
176
     1
 62
     7
176
     1
 62
   257
176
     1
 90
        1
176
     1
 90
        1
176
     1
 40
40.0
176
     1
 90
        8
176
     1
 62
     7
176
     1
 40
1.0
176
     1
 90
        1
176
     1
 90
        6
176
     1
 90
        2
176
     1
 62
     7
176
     1
 90
        3
176
     1
 90
        0
176
     1
 90
        0
176
     1
290
     0
176
     1
 90
        1
176
     1
 40
0.0
176
     1
 90
        0
176
     1
290
     0
176
     1
290
     1
176
     1
290
     1
176
     1
290
     0
176
     1
290
     0
176
     1
290
     0
176
     1
290
     0
176
     1
290
     0
176
     1
290
     0
176
     1
 90
       50
176
     1
 40
0.0
176
     1
 40
1.0
176
     1
 90
        0
176
     1
 62
    18
420
        0
176
     1
 90
       50
176
     1
 90
        3
176
     1
 62
     5
420
      255
176
     1
290
     0
176
     1
 90
       50
176
     1
 90
       50
176
     1
 90
       50
176
     1
290
     0
176
     1
 90
       50
176
     1
 62
   256
176
     0
 40
1.0
176
     0
 90
        2
176
     1
  1
strokes_ogs.tif
176
     1
290
     0
176
     1
 40
1.0
176
     1
 40
1.0
176
     1
1001
ACAD
1000
AcDbSavedByObjectVersion
1070
     0
  0
VISUALSTYLE
  5
FA
102
{ACAD_REACTORS
330
EF
102
}
330
EF
100
AcDbVisualStyle
  2
Dim
 70
    11
177
     3
291
     1
 70
    58
 90
        2
176
     1
 90
        2
176
     1
 90
        1
176
     1
 90
        0
176
     1
 40
0.6
176
     1
 40
30.0
176
     1
 62
     7
420
 16777215
176
     1
 90
        1
176
     1
 90
        4
176
     1
 62
     7
176
     1
 62
   257
176
     1
 90
        1
176
     1
 90
        1
176
     1
 40
1.0
176
     1
 90
        8
176
     1
 62
     7
176
     1
 40
1.0
176
     1
 90
        1
176
     1
 90
        6
176
     1
 90
        2
176
     1
 62
     7
176
     1
 90
        5
176
     1
 90
        0
176
     1
 90
        0
176
     1
290
     0
176
     1
 90
        1
176
     1
 40
-50.0
176
     1
 90
        0
176
     1
290
     0
176
     1
290
     1
176
     1
290
     1
176
     1
290
     0
176
     1
290
     0
176
     1
290
     0
176
     1
290
     0
176
     1
290
     0
176
     1
290
     0
176
     1
 90
       50
176
     1
 40
0.0
176
     1
 40
1.0
176
     1
 90
        0
176
     1
 62
    18
420
        0
176
     1
 90
       50
176
     1
 90
        3
176
     1
 62
     5
420
      255
176
     1
290
     0
176
     1
 90
       50
176
     1
 90
       50
176
     1
 90
       50
176
     1
290
     0
176
     1
 90
       50
176
     1
 62
   256
176
     0
 40
1.0
176
     0
 90
        2
176
     1
  1
strokes_ogs.tif
176
     1
290
     0
176
     1
 40
1.0
176
     1
 40
1.0
176
     1
1001
ACAD
1000
AcDbSavedByObjectVersion
1070
     0
  0
VISUALSTYLE
  5
1E6
102
{ACAD_REACTORS
330
EF
102
}
330
EF
100
AcDbVisualStyle
  2
EdgeColorOff
 70
    22
177
     3
291
     1
 70
    58
 90
        2
176
     0
 90
        2
176
     0
 90
        0
176
     0
 90
        0
176
     0
 40
0.6
176
     0
 40
30.0
176
     0
 62
     7
420
 16777215
176
     0
 90
        1
176
     0
 90
        4
176
     0
 62
     7
176
     0
 62
   257
176
     0
 90
        1
176
     0
 90
        1
176
     0
 40
1.0
176
     0
 90
        8
176
     2
 62
     7
176
     0
 40
1.0
176
     0
 90
        1
176
     0
 90
        6
176
     0
 90
        2
176
     0
 62
     7
176
     0
 90
        5
176
     0
 90
        0
176
     0
 90
        0
176
     0
290
     0
176
     0
 90
        1
176
     0
 40
0.0
176
     0
 90
        0
176
     0
290
     0
176
     1
290
     1
176
     1
290
     1
176
     1
290
     0
176
     1
290
     0
176
     1
290
     0
176
     1
290
     0
176
     1
290
     0
176
     1
290
     0
176
     1
 90
       50
176
     1
 40
0.0
176
     1
 40
1.0
176
     1
 90
        0
176
     1
 62
    18
420
        0
176
     1
 90
       50
176
     1
 90
        3
176
     1
 62
     5
420
      255
176
     1
290
     0
176
     1
 90
       50
176
     1
 90
       50
176
     1
 90
       50
176
     1
290
     0
176
     1
 90
       50
176
     1
 62
   256
176
     0
 40
1.0
176
     0
 90
        2
176
     1
  1
strokes_ogs.tif
176
     1
290
     0
176
     1
 40
1.0
176
     1
 40
1.0
176
     1
1001
ACAD
1000
AcDbSavedByObjectVersion
1070
     0
  0
VISUALSTYLE
  5
FE
102
{ACAD_REACTORS
330
EF
102
}
330
EF
100
AcDbVisualStyle
  2
Facepattern
 70
    15
177
     3
291
     1
 70
    58
 90
        2
176
     1
 90
        2
176
     1
 90
        1
176
     1
 90
        0
176
     1
 40
0.6
176
     1
 40
30.0
176
     1
 62
     7
420
 16777215
176
     1
 90
        1
176
     1
 90
        4
176
     1
 62
     7
176
     1
 62
   257
176
     1
 90
        1
176
     1
 90
        1
176
     1
 40
1.0
176
     1
 90
        8
176
     1
 62
     7
176
     1
 40
1.0
176
     1
 90
        1
176
     1
 90
        6
176
     1
 90
        2
176
     1
 62
     7
176
     1
 90
        5
176
     1
 90
        0
176
     1
 90
        0
176
     1
290
     0
176
     1
 90
        1
176
     1
 40
0.0
176
     1
 90
        0
176
     1
290
     0
176
     1
290
     1
176
     1
290
     1
176
     1
290
     0
176
     1
290
     0
176
     1
290
     0
176
     1
290
     0
176
     1
290
     0
176
     1
290
     0
176
     1
 90
       50
176
     1
 40
0.0
176
     1
 40
1.0
176
     1
 90
        0
176
     1
 62
    18
420
        0
176
     1
 90
       50
176
     1
 90
        3
176
     1
 62
     5
420
      255
176
     1
290
     0
176
     1
 90
       50
176
     1
 90
       50
176
     1
 90
       50
176
     1
290
     0
176
     1
 90
       50
176
     1
 62
   256
176
     0
 40
1.0
176
     0
 90
        2
176
     1
  1
strokes_ogs.tif
176
     1
290
     0
176
     1
 40
1.0
176
     1
 40
1.0
176
     1
1001
ACAD
1000
AcDbSavedByObjectVersion
1070
     0
  0
VISUALSTYLE
  5
F0
102
{ACAD_REACTORS
330
EF
102
}
330
EF
100
AcDbVisualStyle
  2
Flat
 70
     0
177
     3
291
     1
 70
    58
 90
        2
176
     1
 90
        1
176
     1
 90
        1
176
     1
 90
        2
176
     1
 40
0.6
176
     1
 40
30.0
176
     1
 62
     7
420
 16777215
176
     1
 90
        0
176
     1
 90
        0
176
     1
 62
     7
176
     1
 62
   257
176
     1
 90
        1
176
     1
 90
        1
176
     1
 40
1.0
176
     1
 90
        8
176
     1
 62
     7
176
     1
 40
1.0
176
     1
 90
        1
176
     1
 90
        6
176
     1
 90
        2
176
     1
 62
     7
176
     1
 90
        5
176
     1
 90
        0
176
     1
 90
        0
176
     1
290
     0
176
     1
 90
       13
176
     1
 40
0.0
176
     1
 90
        0
176
     1
290
     0
176
     1
290
     1
176
     1
290
     1
176
     1
290
     0
176
     1
290
     0
176
     1
290
     0
176
     1
290
     0
176
     1
290
     0
176
     1
290
     0
176
     1
 90
       50
176
     1
 40
0.0
176
     1
 40
1.0
176
     1
 90
        0
176
     1
 62
    18
420
        0
176
     1
 90
       50
176
     1
 90
        3
176
     1
 62
     5
420
      255
176
     1
290
     0
176
     1
 90
       50
176
     1
 90
       50
176
     1
 90
       50
176
     1
290
     0
176
     1
 90
       50
176
     1
 62
   256
176
     0
 40
1.0
176
     0
 90
        2
176
     1
  1
strokes_ogs.tif
176
     1
290
     0
176
     1
 40
1.0
176
     1
 40
1.0
176
     1
1001
ACAD
1000
AcDbSavedByObjectVersion
1070
     0
  0
VISUALSTYLE
  5
F1
102
{ACAD_REACTORS
330
EF
102
}
330
EF
100
AcDbVisualStyle
  2
FlatWithEdges
 70
     1
177
     3
291
     1
 70
    58
 90
        2
176
     1
 90
        1
176
     1
 90
        1
176
     1
 90
        2
176
     1
 40
0.6
176
     1
 40
30.0
176
     1
 62
     7
420
 16777215
176
     1
 90
        1
176
     1
 90
        0
176
     1
 62
     7
176
     1
 62
   257
176
     1
 90
        1
176
     1
 90
        1
176
     1
 40
1.0
176
     1
 90
        0
176
     1
 62
   257
176
     1
 40
1.0
176
     1
 90
        1
176
     1
 90
        6
176
     1
 90
        2
176
     1
 62
     7
176
     1
 90
        5
176
     1
 90
        0
176
     1
 90
        0
176
     1
290
     0
176
     1
 90
       13
176
     1
 40
0.0
176
     1
 90
        0
176
     1
290
     0
176
     1
290
     1
176
     1
290
     1
176
     1
290
     0
176
     1
290
     0
176
     1
290
     0
176
     1
290
     0
176
     1
290
     0
176
     1
290
     0
176
     1
 90
       50
176
     1
 40
0.0
176
     1
 40
1.0
176
     1
 90
        0
176
     1
 62
    18
420
        0
176
     1
 90
       50
176
     1
 90
        3
176
     1
 62
     5
420
      255
176
     1
290
     0
176
     1
 90
       50
176
     1
 90
       50
176
     1
 90
       50
176
     1
290
     0
176
     1
 90
       50
176
     1
 62
   256
176
     0
 40
1.0
176
     0
 90
        2
176
     1
  1
strokes_ogs.tif
176
     1
290
     0
176
     1
 40
1.0
176
     1
 40
1.0
176
     1
1001
ACAD
1000
AcDbSavedByObjectVersion
1070
     0
  0
VISUALSTYLE
  5
F2
102
{ACAD_REACTORS
330
EF
102
}
330
EF
100
AcDbVisualStyle
  2
Gouraud
 70
     2
177
     3
291
     1
 70
    58
 90
        2
176
     1
 90
        2
176
     1
 90
        1
176
     1
 90
        2
176
     1
 40
0.6
176
     1
 40
30.0
176
     1
 62
     7
420
 16777215
176
     1
 90
        0
176
     1
 90
        0
176
     1
 62
     7
176
     1
 62
   257
176
     1
 90
        1
176
     1
 90
        1
176
     1
 40
1.0
176
     1
 90
        0
176
     1
 62
     7
176
     1
 40
1.0
176
     1
 90
        1
176
     1
 90
        6
176
     1
 90
        2
176
     1
 62
     7
176
     1
 90
        5
176
     1
 90
        0
176
     1
 90
        0
176
     1
290
     0
176
     1
 90
       13
176
     1
 40
0.0
176
     1
 90
        0
176
     1
290
     0
176
     1
290
     1
176
     1
290
     1
176
     1
290
     0
176
     1
290
     0
176
     1
290
     0
176
     1
290
     0
176
     1
290
     0
176
     1
290
     0
176
     1
 90
       50
176
     1
 40
0.0
176
     1
 40
1.0
176
     1
 90
        0
176
     1
 62
    18
420
        0
176
     1
 90
       50
176
     1
 90
        3
176
     1
 62
     5
420
      255
176
     1
290
     0
176
     1
 90
       50
176
     1
 90
       50
176
     1
 90
       50
176
     1
290
     0
176
     1
 90
       50
176
     1
 62
   256
176
     0
 40
1.0
176
     0
 90
        2
176
     1
  1
strokes_ogs.tif
176
     1
290
     0
176
     1
 40
1.0
176
     1
 40
1.0
176
     1
1001
ACAD
1000
AcDbSavedByObjectVersion
1070
     0
  0
VISUALSTYLE
  5
F3
102
{ACAD_REACTORS
330
EF
102
}
330
EF
100
AcDbVisualStyle
  2
GouraudWithEdges
 70
     3
177
     3
291
     1
 70
    58
 90
        2
176
     1
 90
        2
176
     1
 90
        1
176
     1
 90
        2
176
     1
 40
0.6
176
     1
 40
30.0
176
     1
 62
     7
420
 16777215
176
     1
 90
        1
176
     1
 90
        0
176
     1
 62
     7
176
     1
 62
   257
176
     1
 90
        1
176
     1
 90
        1
176
     1
 40
1.0
176
     1
 90
        0
176
     1
 62
   257
176
     1
 40
1.0
176
     1
 90
        1
176
     1
 90
        6
176
     1
 90
        2
176
     1
 62
     7
176
     1
 90
        5
176
     1
 90
        0
176
     1
 90
        0
176
     1
290
     0
176
     1
 90
       13
176
     1
 40
0.0
176
     1
 90
        0
176
     1
290
     0
176
     1
290
     1
176
     1
290
     1
176
     1
290
     0
176
     1
290
     0
176
     1
290
     0
176
     1
290
     0
176
     1
290
     0
176
     1
290
     0
176
     1
 90
       50
176
     1
 40
0.0
176
     1
 40
1.0
176
     1
 90
        0
176
     1
 62
    18
420
        0
176
     1
 90
       50
176
     1
 90
        3
176
     1
 62
     5
420
      255
176
     1
290
     0
176
     1
 90
       50
176
     1
 90
       50
176
     1
 90
       50
176
     1
290
     0
176
     1
 90
       50
176
     1
 62
   256
176
     0
 40
1.0
176
     0
 90
        2
176
     1
  1
strokes_ogs.tif
176
     1
290
     0
176
     1
 40
1.0
176
     1
 40
1.0
176
     1
1001
ACAD
1000
AcDbSavedByObjectVersion
1070
     0
  0
VISUALSTYLE
  5
F7
102
{ACAD_REACTORS
330
EF
102
}
330
EF
100
AcDbVisualStyle
  2
Hidden
 70
     6
177
     3
291
     0
 70
    58
 90
        1
176
     1
 90
        2
176
     1
 90
        2
176
     1
 90
        0
176
     1
 40
0.6
176
     1
 40
30.0
176
     1
 62
     7
420
 16777215
176
     1
 90
        2
176
     1
 90
        2
176
     1
 62
     7
176
     1
 62
   257
176
     1
 90
        2
176
     1
 90
        1
176
     1
 40
40.0
176
     1
 90
        0
176
     1
 62
   257
176
     1
 40
1.0
176
     1
 90
        1
176
     1
 90
        6
176
     1
 90
        2
176
     1
 62
     7
176
     1
 90
        3
176
     1
 90
        0
176
     1
 90
        0
176
     1
290
     0
176
     1
 90
        1
176
     1
 40
0.0
176
     1
 90
        0
176
     1
290
     0
176
     1
290
     1
176
     1
290
     1
176
     1
290
     0
176
     1
290
     0
176
     1
290
     0
176
     1
290
     0
176
     1
290
     0
176
     1
290
     0
176
     1
 90
       50
176
     1
 40
0.0
176
     1
 40
1.0
176
     1
 90
        0
176
     1
 62
    18
420
        0
176
     1
 90
       50
176
     1
 90
        3
176
     1
 62
     5
420
      255
176
     1
290
     0
176
     1
 90
       50
176
     1
 90
       50
176
     1
 90
       50
176
     1
290
     0
176
     1
 90
       50
176
     1
 62
   256
176
     0
 40
1.0
176
     0
 90
        2
176
     1
  1
strokes_ogs.tif
176
     1
290
     0
176
     1
 40
1.0
176
     1
 40
1.0
176
     1
1001
ACAD
1000
AcDbSavedByObjectVersion
1070
     0
  0
VISUALSTYLE
  5
1E4
102
{ACAD_REACTORS
330
EF
102
}
330
EF
100
AcDbVisualStyle
  2
JitterOff
 70
    20
177
     3
291
     1
 70
    58
 90
        2
176
     0
 90
        2
176
     0
 90
        0
176
     0
 90
        0
176
     0
 40
0.6
176
     0
 40
30.0
176
     0
 62
     7
420
 16777215
176
     0
 90
        1
176
     0
 90
        4
176
     0
 62
     7
176
     0
 62
   257
176
     0
 90
        1
176
     0
 90
        1
176
     0
 40
1.0
176
     0
 90
       10
176
     2
 62
     7
176
     0
 40
1.0
176
     0
 90
        1
176
     0
 90
        6
176
     0
 90
        2
176
     0
 62
     7
176
     0
 90
        5
176
     0
 90
        0
176
     0
 90
        0
176
     0
290
     0
176
     0
 90
        1
176
     0
 40
0.0
176
     0
 90
        0
176
     0
290
     0
176
     1
290
     1
176
     1
290
     1
176
     1
290
     0
176
     1
290
     0
176
     1
290
     0
176
     1
290
     0
176
     1
290
     0
176
     1
290
     0
176
     1
 90
       50
176
     1
 40
0.0
176
     1
 40
1.0
176
     1
 90
        0
176
     1
 62
    18
420
        0
176
     1
 90
       50
176
     1
 90
        3
176
     1
 62
     5
420
      255
176
     1
290
     0
176
     1
 90
       50
176
     1
 90
       50
176
     1
 90
       50
176
     1
290
     0
176
     1
 90
       50
176
     1
 62
   256
176
     0
 40
1.0
176
     0
 90
        2
176
     1
  1
strokes_ogs.tif
176
     1
290
     0
176
     1
 40
1.0
176
     1
 40
1.0
176
     1
1001
ACAD
1000
AcDbSavedByObjectVersion
1070
     0
  0
VISUALSTYLE
  5
FD
102
{ACAD_REACTORS
330
EF
102
}
330
EF
100
AcDbVisualStyle
  2
Linepattern
 70
    14
177
     3
291
     1
 70
    58
 90
        2
176
     1
 90
        2
176
     1
 90
        1
176
     1
 90
        0
176
     1
 40
0.6
176
     1
 40
30.0
176
     1
 62
     7
420
 16777215
176
     1
 90
        1
176
     1
 90
        4
176
     1
 62
     7
176
     1
 62
   257
176
     1
 90
        7
176
     1
 90
        7
176
     1
 40
1.0
176
     1
 90
        8
176
     1
 62
     7
176
     1
 40
1.0
176
     1
 90
        1
176
     1
 90
        6
176
     1
 90
        2
176
     1
 62
     7
176
     1
 90
        5
176
     1
 90
        0
176
     1
 90
        0
176
     1
290
     0
176
     1
 90
        1
176
     1
 40
0.0
176
     1
 90
        0
176
     1
290
     0
176
     1
290
     1
176
     1
290
     1
176
     1
290
     0
176
     1
290
     0
176
     1
290
     0
176
     1
290
     0
176
     1
290
     0
176
     1
290
     0
176
     1
 90
       50
176
     1
 40
0.0
176
     1
 40
1.0
176
     1
 90
        0
176
     1
 62
    18
420
        0
176
     1
 90
       50
176
     1
 90
        3
176
     1
 62
     5
420
      255
176
     1
290
     0
176
     1
 90
       50
176
     1
 90
       50
176
     1
 90
       50
176
     1
290
     0
176
     1
 90
       50
176
     1
 62
   256
176
     0
 40
1.0
176
     0
 90
        2
176
     1
  1
strokes_ogs.tif
176
     1
290
     0
176
     1
 40
1.0
176
     1
 40
1.0
176
     1
1001
ACAD
1000
AcDbSavedByObjectVersion
1070
     0
  0
VISUALSTYLE
  5
1E5
102
{ACAD_REACTORS
330
EF
102
}
330
EF
100
AcDbVisualStyle
  2
OverhangOff
 70
    21
177
     3
291
     1
 70
    58
 90
        2
176
     0
 90
        2
176
     0
 90
        0
176
     0
 90
        0
176
     0
 40
0.6
176
     0
 40
30.0
176
     0
 62
     7
420
 16777215
176
     0
 90
        1
176
     0
 90
        4
176
     0
 62
     7
176
     0
 62
   257
176
     0
 90
        1
176
     0
 90
        1
176
     0
 40
1.0
176
     0
 90
        9
176
     2
 62
     7
176
     0
 40
1.0
176
     0
 90
        1
176
     0
 90
        6
176
     0
 90
        2
176
     0
 62
     7
176
     0
 90
        5
176
     0
 90
        0
176
     0
 90
        0
176
     0
290
     0
176
     0
 90
        1
176
     0
 40
0.0
176
     0
 90
        0
176
     0
290
     0
176
     1
290
     1
176
     1
290
     1
176
     1
290
     0
176
     1
290
     0
176
     1
290
     0
176
     1
290
     0
176
     1
290
     0
176
     1
290
     0
176
     1
 90
       50
176
     1
 40
0.0
176
     1
 40
1.0
176
     1
 90
        0
176
     1
 62
    18
420
        0
176
     1
 90
       50
176
     1
 90
        3
176
     1
 62
     5
420
      255
176
     1
290
     0
176
     1
 90
       50
176
     1
 90
       50
176
     1
 90
       50
176
     1
290
     0
176
     1
 90
       50
176
     1
 62
   256
176
     0
 40
1.0
176
     0
 90
        2
176
     1
  1
strokes_ogs.tif
176
     1
290
     0
176
     1
 40
1.0
176
     1
 40
1.0
176
     1
1001
ACAD
1000
AcDbSavedByObjectVersion
1070
     0
  0
VISUALSTYLE
  5
F9
102
{ACAD_REACTORS
330
EF
102
}
330
EF
100
AcDbVisualStyle
  2
Realistic
 70
     8
177
     3
291
     0
 70
    58
 90
        2
176
     1
 90
        3
176
     1
 90
        0
176
     1
 90
        2
176
     1
 40
0.6
176
     1
 40
30.0
176
     1
 62
     7
420
 16777215
176
     1
 90
        0
176
     1
 90
        0
176
     1
 62
     7
176
     1
 62
   257
176
     1
 90
        1
176
     1
 90
        1
176
     1
 40
1.0
176
     1
 90
        8
176
     1
 62
   257
176
     1
 40
1.0
176
     1
 90
        1
176
     1
 90
        6
176
     1
 90
        2
176
     1
 62
     7
176
     1
 90
        3
176
     1
 90
        0
176
     1
 90
        0
176
     1
290
     0
176
     1
 90
       13
176
     1
 40
0.0
176
     1
 90
        0
176
     1
290
     0
176
     1
290
     1
176
     1
290
     1
176
     1
290
     0
176
     1
290
     0
176
     1
290
     0
176
     1
290
     0
176
     1
290
     0
176
     1
290
     0
176
     1
 90
       50
176
     1
 40
0.0
176
     1
 40
1.0
176
     1
 90
        0
176
     1
 62
    18
420
        0
176
     1
 90
       50
176
     1
 90
        3
176
     1
 62
     5
420
      255
176
     1
290
     0
176
     1
 90
       50
176
     1
 90
       50
176
     1
 90
       50
176
     1
290
     0
176
     1
 90
       50
176
     1
 62
   256
176
     0
 40
1.0
176
     0
 90
        2
176
     1
  1
strokes_ogs.tif
176
     1
290
     0
176
     1
 40
1.0
176
     1
 40
1.0
176
     1
1001
ACAD
1000
AcDbSavedByObjectVersion
1070
     0
  0
VISUALSTYLE
  5
1F3
102
{ACAD_REACTORS
330
EF
102
}
330
EF
100
AcDbVisualStyle
  2
Shaded
 70
    27
177
     3
291
     0
 70
    58
 90
        2
176
     1
 90
        2
176
     1
 90
        1
176
     1
 90
        2
176
     1
 40
0.6
176
     1
 40
30.0
176
     1
 62
     7
420
 16777215
176
     1
 90
        0
176
     1
 90
        4
176
     1
 62
     7
176
     1
 62
   257
176
     1
 90
        1
176
     1
 90
        1
176
     1
 40
1.0
176
     1
 90
        8
176
     1
 62
   257
176
     1
 40
1.0
176
     1
 90
        1
176
     1
 90
        6
176
     1
 90
        2
176
     1
 62
     8
420
  7895160
176
     1
 90
        3
176
     1
 90
        0
176
     1
 90
        0
176
     1
290
     0
176
     1
 90
        5
176
     1
 40
0.0
176
     1
 90
        0
176
     1
290
     0
176
     1
290
     1
176
     1
290
     1
176
     1
290
     0
176
     1
290
     0
176
     1
290
     0
176
     1
290
     0
176
     1
290
     0
176
     1
290
     0
176
     1
 90
       50
176
     1
 40
0.0
176
     1
 40
1.0
176
     1
 90
        0
176
     1
 62
    18
420
        0
176
     1
 90
       50
176
     1
 90
        3
176
     1
 62
     5
420
      255
176
     1
290
     0
176
     1
 90
       50
176
     1
 90
       50
176
     1
 90
       50
176
     1
290
     0
176
     1
 90
       50
176
     1
 62
   256
176
     0
 40
1.0
176
     0
 90
        2
176
     1
  1
strokes_ogs.tif
176
     1
290
     0
176
     1
 40
1.0
176
     1
 40
1.0
176
     1
1001
ACAD
1000
AcDbSavedByObjectVersion
1070
     0
  0
VISUALSTYLE
  5
1F2
102
{ACAD_REACTORS
330
EF
102
}
330
EF
100
AcDbVisualStyle
  2
Shaded with edges
 70
    26
177
     3
291
     0
 70
    58
 90
        2
176
     1
 90
        2
176
     1
 90
        1
176
     1
 90
        2
176
     1
 40
0.6
176
     1
 40
30.0
176
     1
 62
     7
420
 16777215
176
     1
 90
        1
176
     1
 90
        2
176
     1
 62
     7
176
     1
 62
   257
176
     1
 90
        2
176
     1
 90
        1
176
     1
 40
1.0
176
     1
 90
        8
176
     1
 62
   257
176
     1
 40
1.0
176
     1
 90
        1
176
     1
 90
        6
176
     1
 90
        2
176
     1
 62
     7
176
     1
 90
        3
176
     1
 90
        0
176
     1
 90
        0
176
     1
290
     0
176
     1
 90
        5
176
     1
 40
0.0
176
     1
 90
        0
176
     1
290
     0
176
     1
290
     1
176
     1
290
     1
176
     1
290
     0
176
     1
290
     0
176
     1
290
     0
176
     1
290
     0
176
     1
290
     0
176
     1
290
     0
176
     1
 90
       50
176
     1
 40
0.0
176
     1
 40
1.0
176
     1
 90
        0
176
     1
 62
    18
420
        0
176
     1
 90
       50
176
     1
 90
        3
176
     1
 62
     5
420
      255
176
     1
290
     0
176
     1
 90
       50
176
     1
 90
       50
176
     1
 90
       50
176
     1
290
     0
176
     1
 90
       50
176
     1
 62
   256
176
     0
 40
1.0
176
     0
 90
        2
176
     1
  1
strokes_ogs.tif
176
     1
290
     0
176
     1
 40
1.0
176
     1
 40
1.0
176
     1
1001
ACAD
1000
AcDbSavedByObjectVersion
1070
     0
  0
VISUALSTYLE
  5
1EF
102
{ACAD_REACTORS
330
EF
102
}
330
EF
100
AcDbVisualStyle
  2
Shades of Gray
 70
    23
177
     3
291
     0
 70
    58
 90
        2
176
     1
 90
        2
176
     1
 90
        3
176
     1
 90
        0
176
     1
 40
0.6
176
     1
 40
30.0
176
     1
 62
     7
420
 16777215
176
     1
 90
        2
176
     1
 90
        2
176
     1
 62
     7
176
     1
 62
     7
176
     1
 90
        1
176
     1
 90
        1
176
     1
 40
40.0
176
     1
 90
        8
176
     1
 62
     7
176
     1
 40
1.0
176
     1
 90
        1
176
     1
 90
        6
176
     1
 90
        2
176
     1
 62
     7
176
     1
 90
        3
176
     1
 90
        0
176
     1
 90
        0
176
     1
290
     0
176
     1
 90
        1
176
     1
 40
0.0
176
     1
 90
        0
176
     1
290
     0
176
     1
290
     1
176
     1
290
     1
176
     1
290
     0
176
     1
290
     0
176
     1
290
     0
176
     1
290
     0
176
     1
290
     0
176
     1
290
     0
176
     1
 90
       50
176
     1
 40
0.0
176
     1
 40
1.0
176
     1
 90
        0
176
     1
 62
    18
420
        0
176
     1
 90
       50
176
     1
 90
        3
176
     1
 62
     5
420
      255
176
     1
290
     0
176
     1
 90
       50
176
     1
 90
       50
176
     1
 90
       50
176
     1
290
     0
176
     1
 90
       50
176
     1
 62
   256
176
     0
 40
1.0
176
     0
 90
        2
176
     1
  1
strokes_ogs.tif
176
     1
290
     0
176
     1
 40
1.0
176
     1
 40
1.0
176
     1
1001
ACAD
1000
AcDbSavedByObjectVersion
1070
     0
  0
VISUALSTYLE
  5
1F0
102
{ACAD_REACTORS
330
EF
102
}
330
EF
100
AcDbVisualStyle
  2
Sketchy
 70
    24
177
     3
291
     0
 70
    58
 90
        1
176
     1
 90
        2
176
     1
 90
        2
176
     1
 90
        0
176
     1
 40
0.6
176
     1
 40
30.0
176
     1
 62
     7
420
 16777215
176
     1
 90
        2
176
     1
 90
        2
176
     1
 62
     7
176
     1
 62
     7
176
     1
 90
        1
176
     1
 90
        1
176
     1
 40
40.0
176
     1
 90
       11
176
     1
 62
     7
176
     1
 40
1.0
176
     1
 90
        1
176
     1
 90
        6
176
     1
 90
        2
176
     1
 62
     7
176
     1
 90
        6
176
     1
 90
        0
176
     1
 90
        0
176
     1
290
     0
176
     1
 90
        1
176
     1
 40
0.0
176
     1
 90
        0
176
     1
290
     0
176
     1
290
     1
176
     1
290
     1
176
     1
290
     0
176
     1
290
     0
176
     1
290
     0
176
     1
290
     0
176
     1
290
     0
176
     1
290
     0
176
     1
 90
       50
176
     1
 40
0.0
176
     1
 40
1.0
176
     1
 90
        0
176
     1
 62
    18
420
        0
176
     1
 90
       50
176
     1
 90
        3
176
     1
 62
     5
420
      255
176
     1
290
     0
176
     1
 90
       50
176
     1
 90
       50
176
     1
 90
       50
176
     1
290
     0
176
     1
 90
       50
176
     1
 62
   256
176
     0
 40
1.0
176
     0
 90
        2
176
     1
  1
strokes_ogs.tif
176
     1
290
     0
176
     1
 40
1.0
176
     1
 40
1.0
176
     1
1001
ACAD
1000
AcDbSavedByObjectVersion
1070
     0
  0
VISUALSTYLE
  5
FC
102
{ACAD_REACTORS
330
EF
102
}
330
EF
100
AcDbVisualStyle
  2
Thicken
 70
    13
177
     3
291
     1
 70
    58
 90
        2
176
     1
 90
        2
176
     1
 90
        1
176
     1
 90
        0
176
     1
 40
0.6
176
     1
 40
30.0
176
     1
 62
     7
420
 16777215
176
     1
 90
        1
176
     1
 90
        4
176
     1
 62
     7
176
     1
 62
   257
176
     1
 90
        1
176
     1
 90
        1
176
     1
 40
1.0
176
     1
 90
       12
176
     1
 62
     7
176
     1
 40
1.0
176
     1
 90
        1
176
     1
 90
        6
176
     1
 90
        2
176
     1
 62
     7
176
     1
 90
        5
176
     1
 90
        0
176
     1
 90
        0
176
     1
290
     0
176
     1
 90
        1
176
     1
 40
0.0
176
     1
 90
        0
176
     1
290
     0
176
     1
290
     1
176
     1
290
     1
176
     1
290
     0
176
     1
290
     0
176
     1
290
     0
176
     1
290
     0
176
     1
290
     0
176
     1
290
     0
176
     1
 90
       50
176
     1
 40
0.0
176
     1
 40
1.0
176
     1
 90
        0
176
     1
 62
    18
420
        0
176
     1
 90
       50
176
     1
 90
        3
176
     1
 62
     5
420
      255
176
     1
290
     0
176
     1
 90
       50
176
     1
 90
       50
176
     1
 90
       50
176
     1
290
     0
176
     1
 90
       50
176
     1
 62
   256
176
     0
 40
1.0
176
     0
 90
        2
176
     1
  1
strokes_ogs.tif
176
     1
290
     0
176
     1
 40
1.0
176
     1
 40
1.0
176
     1
1001
ACAD
1000
AcDbSavedByObjectVersion
1070
     0
  0
VISUALSTYLE
  5
F6
102
{ACAD_REACTORS
330
EF
102
}
330
EF
100
AcDbVisualStyle
  2
Wireframe
 70
     5
177
     3
291
     0
 70
    58
 90
        0
176
     1
 90
        2
176
     1
 90
        0
176
     1
 90
        0
176
     1
 40
0.6
176
     1
 40
30.0
176
     1
 62
     7
420
 16777215
176
     1
 90
        1
176
     1
 90
        4
176
     1
 62
     7
176
     1
 62
   257
176
     1
 90
        1
176
     1
 90
        1
176
     1
 40
1.0
176
     1
 90
        0
176
     1
 62
   257
176
     1
 40
1.0
176
     1
 90
        1
176
     1
 90
        6
176
     1
 90
        2
176
     1
 62
     7
176
     1
 90
        3
176
     1
 90
        0
176
     1
 90
        0
176
     1
290
     0
176
     1
 90
        1
176
     1
 40
0.0
176
     1
 90
        0
176
     1
290
     0
176
     1
290
     1
176
     1
290
     1
176
     1
290
     0
176
     1
290
     0
176
     1
290
     0
176
     1
290
     0
176
     1
290
     0
176
     1
290
     0
176
     1
 90
       50
176
     1
 40
0.0
176
     1
 40
1.0
176
     1
 90
        0
176
     1
 62
    18
420
        0
176
     1
 90
       50
176
     1
 90
        3
176
     1
 62
     5
420
      255
176
     1
290
     0
176
     1
 90
       50
176
     1
 90
       50
176
     1
 90
       50
176
     1
290
     0
176
     1
 90
       50
176
     1
 62
   256
176
     0
 40
1.0
176
     0
 90
        2
176
     1
  1
strokes_ogs.tif
176
     1
290
     0
176
     1
 40
1.0
176
     1
 40
1.0
176
     1
1001
ACAD
1000
AcDbSavedByObjectVersion
1070
     0
  0
VISUALSTYLE
  5
1F1
102
{ACAD_REACTORS
330
EF
102
}
330
EF
100
AcDbVisualStyle
  2
X-Ray
 70
    25
177
     3
291
     0
 70
    58
 90
        2
176
     1
 90
        2
176
     1
 90
        1
176
     1
 90
        1
176
     1
 40
0.5
176
     1
 40
30.0
176
     1
 62
     7
420
 16777215
176
     1
 90
        1
176
     1
 90
        0
176
     1
 62
     7
176
     1
 62
   257
176
     1
 90
        1
176
     1
 90
        1
176
     1
 40
1.0
176
     1
 90
        8
176
     1
 62
     7
176
     1
 40
1.0
176
     1
 90
        1
176
     1
 90
        6
176
     1
 90
        2
176
     1
 62
     7
176
     1
 90
        3
176
     1
 90
        0
176
     1
 90
        0
176
     1
290
     0
176
     1
 90
       13
176
     1
 40
0.0
176
     1
 90
        0
176
     1
290
     0
176
     1
290
     1
176
     1
290
     1
176
     1
290
     0
176
     1
290
     0
176
     1
290
     0
176
     1
290
     0
176
     1
290
     0
176
     1
290
     0
176
     1
 90
       50
176
     1
 40
0.0
176
     1
 40
1.0
176
     1
 90
        0
176
     1
 62
    18
420
        0
176
     1
 90
       50
176
     1
 90
        3
176
     1
 62
     5
420
      255
176
     1
290
     0
176
     1
 90
       50
176
     1
 90
       50
176
     1
 90
       50
176
     1
290
     0
176
     1
 90
       50
176
     1
 62
   256
176
     0
 40
1.0
176
     0
 90
        2
176
     1
  1
strokes_ogs.tif
176
     1
290
     0
176
     1
 40
1.0
176
     1
 40
1.0
176
     1
1001
ACAD
1000
AcDbSavedByObjectVersion
1070
     0
  0
DICTIONARYVAR
  5
146
102
{ACAD_REACTORS
330
5E
102
}
330
5E
100
DictionaryVariables
280
     0
  1
1:1
  0
DICTIONARYVAR
  5
259
102
{ACAD_REACTORS
330
5E
102
}
330
5E
100
DictionaryVariables
280
     0
  1
3.500000
  0
DICTIONARYVAR
  5
25A
102
{ACAD_REACTORS
330
5E
102
}
330
5E
100
DictionaryVariables
280
     0
  1
acadiso.lin
  0
DICTIONARYVAR
  5
145
102
{ACAD_REACTORS
330
5E
102
}
330
5E
100
DictionaryVariables
280
     0
  1
STANDARD
  0
DICTIONARYVAR
  5
84
102
{ACAD_REACTORS
330
5E
102
}
330
5E
100
DictionaryVariables
280
     0
  1
STANDARD
  0
DICTIONARYVAR
  5
227
102
{ACAD_REACTORS
330
5E
102
}
330
5E
100
DictionaryVariables
280
     0
  1
Metric50
  0
DICTIONARYVAR
  5
228
102
{ACAD_REACTORS
330
5E
102
}
330
5E
100
DictionaryVariables
280
     0
  1
Metric50
  0
DICTIONARYVAR
  5
5F
102
{ACAD_REACTORS
330
5E
102
}
330
5E
100
DictionaryVariables
280
     0
  1
2
  0
DICTIONARYVAR
  5
63
102
{ACAD_REACTORS
330
5E
102
}
330
5E
100
DictionaryVariables
280
     0
  1
1
  0
DICTIONARYVAR
  5
1AE
102
{ACAD_REACTORS
330
5E
102
}
330
5E
100
DictionaryVariables
280
     0
  1
0
  0
DICTIONARYVAR
  5
1AF
102
{ACAD_REACTORS
330
5E
102
}
330
5E
100
DictionaryVariables
280
     0
  1
0
  0
DICTIONARY
  5
3B9
102
{ACAD_REACTORS
330
3B7
102
}
330
3B7
100
AcDbDictionary
281
     1
  0
DICTIONARY
  5
3B8
102
{ACAD_REACTORS
330
3B7
102
}
330
3B7
100
AcDbDictionary
281
     1
  3
2058026897440
350
3B2
  3
2058026897456
350
3B3
  3
2058026897472
350
3B4
  3
2058026897488
350
3B5
  3
2058026897504
350
3B6
  0
DICTIONARY
  5
3C0
330
28F
100
AcDbDictionary
280
     1
281
     1
  3
ACAD_XREC_ROUNDTRIP
360
3C1
  0
DICTIONARY
  5
3BC
330
21C
100
AcDbDictionary
280
     1
281
     1
  3
ACAD_XREC_ROUNDTRIP
360
3BD
  0
DICTIONARY
  5
205
330
22
100
AcDbDictionary
280
     1
281
     1
  0
DICTIONARY
  5
1F9
330
ED
100
AcDbDictionary
280
     1
281
     1
  3
FBXASSET
360
1FA
  0
DICTIONARY
  5
1F7
330
EC
100
AcDbDictionary
280
     1
281
     1
  3
FBXASSET
360
1F8
  0
DICTIONARY
  5
173
330
EE
100
AcDbDictionary
280
     1
281
     1
  3
BUMPTILE
360
175
  3
DIFFUSETILE
360
174
  3
FBXASSET
360
1FB
  3
OPACITYTILE
360
176
  3
REFLECTIONTILE
360
177
  0
DICTIONARY
  5
3BE
330
28E
100
AcDbDictionary
280
     1
281
     1
  3
ACAD_XREC_ROUNDTRIP
360
3BF
  0
DICTIONARY
  5
3BA
330
21A
100
AcDbDictionary
280
     1
281
     1
  3
ACAD_XREC_ROUNDTRIP
360
3BB
  0
DICTIONARY
  5
162
330
7F
100
AcDbDictionary
280
     1
281
     1
  3
ACAD_ROUNDTRIP_2008_TABLESTYLE_CELLSTYLEMAP
360
3B0
  0
XRECORD
  5
3B2
102
{ACAD_REACTORS
330
3B8
102
}
330
3B8
100
AcDbXrecord
280
     1
  1
AcDb_Thumbnail_Schema
102
{ATTRRECORD
341
3B3
  2
AcDbDs::TreatedAsObjectData
280
     1
291
     1
102
ATTRRECORD}
102
{ATTRRECORD
341
3B4
  2
AcDbDs::Legacy
280
     1
291
     1
102
ATTRRECORD}
  2
AcDbDs::ID
280
    10
 91
        8
102
{ATTRRECORD
341
3B5
  2
AcDs:Indexable
280
     1
291
     1
102
ATTRRECORD}
102
{ATTRRECORD
341
3B6
  2
AcDbDs::HandleAttribute
280
     7
282
     1
102
ATTRRECORD}
  2
Thumbnail_Data
280
    15
 91
        0
  0
XRECORD
  5
3B3
102
{ACAD_REACTORS
330
3B8
102
}
330
3B8
100
AcDbXrecord
280
     1
  1
AcDbDs::TreatedAsObjectDataSchema
  2
AcDbDs::TreatedAsObjectData
280
     1
 91
        0
  0
XRECORD
  5
3B4
102
{ACAD_REACTORS
330
3B8
102
}
330
3B8
100
AcDbXrecord
280
     1
  1
AcDbDs::LegacySchema
  2
AcDbDs::Legacy
280
     1
 91
        0
  0
XRECORD
  5
3B5
102
{ACAD_REACTORS
330
3B8
102
}
330
3B8
100
AcDbXrecord
280
     1
  1
AcDbDs::IndexedPropertySchema
  2
AcDs:Indexable
280
     1
 91
        0
  0
XRECORD
  5
3B6
102
{ACAD_REACTORS
330
3B8
102
}
330
3B8
100
AcDbXrecord
280
     1
  1
AcDbDs::HandleAttributeSchema
  2
AcDbDs::HandleAttribute
280
     7
 91
        1
284
     1
  0
XRECORD
  5
3C1
102
{ACAD_REACTORS
330
3C0
102
}
330
3C0
100
AcDbXrecord
280
     1
102
DISPLAYNAME
  1
Imperial24
102
FLAGS
 90
        0
  0
XRECORD
  5
3BD
102
{ACAD_REACTORS
330
3BC
102
}
330
3BC
100
AcDbXrecord
280
     1
102
DISPLAYNAME
  1
Metric50
102
FLAGS
 90
        0
  0
XRECORD
  5
1FA
102
{ACAD_REACTORS
330
1F9
102
}
330
1F9
100
AcDbXrecord
280
     1
 70
     1
 90
429727718
  1
D62C5603-E3A1-4AEA-B7FB-FE5D8D0755AF
310
504B03040A0000080000CC70623B3DEE336E79000000790000001B0000006175746F6465736B2D64657369676E2D7061636B6167652E786D6C3C3F786D6C2076657273696F6E3D22312E302220656E636F64696E673D227574662D3822203F3E3C666F726D6174733E3C666F726D61743E687474703A2F2F736368656D612E
310
6175746F6465736B2E636F6D2F64657369676E2D7061636B6167652F323030393C2F666F726D61743E3C2F666F726D6174733E504B0304140006080800CC70623BD486FD9CA0000000F4000000130000005B436F6E74656E745F54797065735D2E786D6C7D8EC10E82300C865F65E91D8A1E8C310C0EEA1BF002731658846E
310
D98AC1B77784ABF1D8FE5FBFBF75BBCE937A534CCEB38643598122B6FEE978D0B0485F9C41B54DDD7D022595594E1A469170414C76A4D9A4D207E29CF43ECE46F218070CC6BECC4078ACAA135ACF422C856C0E68EA1BF5669944DDD7BCDE7B1F8E415D77AECB980613C2E4AC91FC167A2B244592486606FC29C8FD7F045B9A
310
EF7053A7E60B504B0304140006080800CC70623B853B8169EB0000007C01000008000000636F72652E786D6C8D90416EC3201045AF62CDB6C206821CC7C244919D9CA01740401C94182C03558F5F9C3852BBEB6A467FFE9B197D7EFC9E1EC5975982F5AE035262288C535E5B377690E21535501C055FBC8FBF6C503839990E
310
5619041F179FE64D52DE45E362569DD7661365082642A11EB9E920A89B99642953CC8E702F67A9EE7234257977194EC9EAE275C4EABCCF5EAD5940D4AC6F0E35A568B8F43562CD7046CD199FD07E60174276A7BE677B5EADB0E0D14EEFFB6A31321A0D82627C4084204C3F096B71DD52F6819B16635EADF63F509AF53FA164
310
5DDCD1EDDD17164090FCC8732078B56691CB33A85CD7DCC40F504B0304140006080800CC70623B55019EA25F0000007C00000007000000636E782E786D6C4DCB3B0E80201045D1AD90E915ED2CF8AC45050C11660C8261F98AB1B07AC9C97D42D718D865D3E909258CFD00CCE24AC6E326A164D74DC0B4128928FF32603847
310
2BA13128B1252AC747C6BAB984FC68F0B87FE8960A5C09FE86CFB69FBA01504B0304140006080800CC70623BDBABAAF470010000D40300000C0000006662782F636F72652E786D6CC553D16E823014FD95A6AF4B694182CC941A83FA05FB810A9511A125A5257EFE2E82712ECEB8A7F100CD39F7F69E734AF9FADC366850B6
310
AF8DCE7018308C942E4C59EB2AC3DE1D498AD15A706B8CFB56869196ADCAF00863C12B6B7C374385D14E6907A836A59A41D9F7CA615434B0C8705F7CAA5606D23BA8E84F41278B93AC54100640439DE0BDB320004D43C63716C7C399D30917DCFBBA9CD9BA8469F5B156168B24CED3F7248AC8769F27244EB73B92EED8862C
310
B7F13E0C179B3C8F979C8ECD82BBBABDAA2BAC924E9558448CBD9330242CFA08E3154B5651FCC6D215639C8EE5774DBE2B5F6CF2B5768B68963BB5F5588420E442FC700B1139D4CB01F450C1E918227C2E09DF070D8140C84E1E9AAB8F1340832A9CB13130A5F1376A908D57309505ECF2A0DF179C4E9D30F5B239B87E3823
310
7A79C6F31DE1A8A5AEC08474B03C7837EAE4938639B44E5932B833D2C6B6B279CDC613877FA26EE21F4A2A4C63EC7F29A2F301D1F9F7A0E37D145F504B0304140006080800CC70623B9C113CC27E0000009D0000000B0000006662782F636E782E786D6C4DCCDF0A83201C86E15B91DFB94BFB330DD428C8FB886521330DA7
310
6397BF1A1DECE883878F57749FCDA1B7892F1BBC047A23808C7F84D9FA55424E0BE6803A256208E9EF06C84F9B91703228B1C690F78B66B34CD9A5439DF5CF0BFBF65E35BCA1B8D6A5C6F540381E886698B5741C695F9503EBA150A2F8958E3DC3EA0B504B0304140006080800CC70623B7DF2F77C2A010000120200003100
310
00006662782F41393633353835312D344632462D344230382D423046372D3739314545314133324237412F636F72652E786D6C8D51DB8EC22014FC15C2939B0D2DB4B45643319AE817EC0F6041255A68B86CFCFC856D4D76DF7CE190393373060EDB3DC707F856CE6B6B7A480A0C81328395DA5C7B18C3057510EC3873D686
310
3F34088C18550F330C39BB3A1BA7051AAC09CA84841A2BD5020AEF55806078A44B0FFD7053A328440C89E1EFC52486BBB8AA8214A99D789CF9E05200300FC927E4FB4D5B375D43103D5527440FB843077C5AA3F5861C8F645F5787F59E95B390B318B55CE45AA638FAA2957BD7248B390B7A7CC51F9C124149C82B8C378810
310
84AB2F42B7B8DD56F413775B8C5999E9FF4471926F8AA236A1AE96B8B3CC434E5839373893369E1FAF30EA395917409EB7F26AF8801C171837A4A6AC9C89E9F9C9B1A58BA30FD6A5EF5DDDCF894B9AD9B6A59C957943A9FCAE2FD5BC4DFE03504B0304140006080800CC70623BAD7543B64E01000033030000300000006662
310
782F41393633353835312D344632462D344230382D423046372D3739314545314133324237412F636E782E786D6CD593CD6EC32010845F0571AD6CE3D48AD20813A9873E410FBD12D82434182C7EAAE6EDBB2424CD25871E7B41D6EC30B3FA84F9E67BB2E40B4234DE8DB46F1925E094D7C6ED479AD3AE5951B2113C789FEE
310
6C943839C1488B4C05DF079FE72A69D8C96C13AAD6B8631503449F83828872B949AC57D26200B826A308D316B4064D6E46FCDA41C05550DC9E483A00797BFD207EFB092A45DE9514C1BBD22178396BD39D891265658C238DEA00936C654E5E433CB65A26D9F6EDB5EBC14EBF49A45CB856E66048291F6939A9A81BB5C89177
310
38143CA680F4AA299D66A042CEB3354A2684DC9D8D178FE0D9B8B41CAAD720F880EE7EF93C0C18769E099ECC04D5A102C8049A8A05632F4DDF376CF1DE0F6BB65C2F8627B65A33C6BB62177CEBBDAD973006829F89F22E814B54F4BC2BE347F8AA8F681390B50FA73F804400B5F542E796F19FF974E7F78DB802FE05E20750
310
4B0304140006080800CC70623BE75B7789680500003C100000340000006662782F41393633353835312D344632462D344230382D423046372D3739314545314133324237412F6F626A656374732E786D6CAD575B8F9B3818FD2B887D06C22499CB8AA1CA655245D5B455A356FB305264C061D8018C6C3393D95FBFC7600890
310
A4CD5EF210B0B1BFEBF98E3F7B1FF6596ABC522E1296DF9BAE3D320D9A872C4AF2F8DE2CE5CEBA358D0FBEC719939D65A691938CDE9B6ADAF4BD98B3B2D05311DD91329583D9D5FC0F438434A7A611A644887B5384CF34233629258BA878B12322891DEFF6B66BD70BFB62634E8AE781D082709A4B588AF91C528CDA28B73F
310
1C998EEF39EABBEFA97FBD6A7C7E9553F9D3D79FE442923C3C523610337627CB87ABE99D359D4CC6D6E4FACAB5E6ABF9D2726FC6A3C5F56271377BB88362213924694B38DD99FE47C48627A1E7D49F5A8BB5E1A74C0A599ED3B0F21F1E56366B89112D681E218F0915D0D6F17AD41FBA2A369DCF6335D62ABBD39779D5DDD1
310
11D4D8DE3CBB96B2E04FB8202E41051754A1AA8E8F76B4C6DFE810B580B1547F4B84911149794252234D024EF8BBE963A95AE27B3D310A9D5C215C7960FAEE415ED75694C6AFB17BCACA5D99A60A9AA65F217B0BFC53292ACB92BF283FAD0D3621576592CB5BED907C2FA8E9DF794E35E97BEA31BED21FEB401ABB94C44839
310
DCACBF0E1C5DA8DA5B2F4DFFD32AD86F543D9E565E7056502E157C00AD2671CD534549AB752FCA9CDA00677A313F04E51B22FF19E57B300579E3C97EB29F682D92935CEC18CF901B7B54FD8C51F362B56FC72FE0B3C1EAE335EDCCBF5AEC39ADB17DC238973F804BA5E6F6BFE7AF1FB32E523BE9F3BD571418E3631DCA4D48
310
5250CF639223210A9446CA30052EDF057BD35F8329C1ECD84552BF0DC8D18BE7BCE23BFE6BD960AB4A7DE79923A103BEBD80F911CBAA2C60DB19B01CF164A5583B772EE6D3FFA56666CBCDA74DC97724A48F9A58967497E489C4D979006FD7A05E227A1EBDD0F737C623387A9C844D3709995625106D157315F8B8392CD4E0
310
A0B9A720C4BE9829CEF37EA1E13111214D53925356365ADA634861B52519DD27A00AEB808EAF0628E6F435519D446F45CF2C9CF5214F0A15B2F6D06B79DA3EE3CBF7F56780D2F4E7EF73A0F5E5B02A38D07DC852C6B7C1FBB6664213E0C39E3EBA7FF4E1AD23EA2829407C85E586727488B751B2DB9502BC7B228A3FD68B6E
310
A65A22397E690AA8D158D7E404EC8CDA235CC3B7D1898680131CEC2CDF2638C65196279577750F15884AEE19F94199155B92B13297978469D4F8D358DF0AEF7631E28DC8F0D9F437D5D39A83B2231A1D52D543813A824EF8D44BCFF2FA6A31BD1E8DAD87F1CCB526B3879935BF59CDADD5C37479BB1CDD4CA7B3556B516589
310
EF352754B706114D9C885EC9131DE6EFEB43D99AFE2391C2F958179413D7CFEF6B1B6DB1E7600F00DE6E5C67454A339A4BA2E0FBA85ED26F045D454F463DBFCE484C2F90F2E5E3666003662ED8F755951A7D1BECD5B30B550B2785C8E7320B7292A4838DDA71BBC863ED7613CAF659337A3354231D4FF4A182A54904C2898C
310
98B28C4AD0CE056CCF332A80986E571EE9DBC305BB5FEB7E509220A58D25CF042D712A806AC0AD0C657FDEF80D2D9CEAA2EE4D1C76F60BFE74219A06527D6F82DF6412526107381E55E353090704D085B52408A8913C4ED159D79BDA71BB4BC506F4831350EB6F975CD22D69BF7AC49B91A2C0A9DDA3D5CA36AD20FC478E37
310
E61844E2352865EBCB61A275A65283CAAA9DD27703B4102F5AF51EF5F573B75CBB5AD38BC845F7A49F82A0966A49C2E3EA5EA0ECD326CD965F1DB402C6FA8B51A4658C5C5E2EC9E214602E55810345408596591009A82E7E7FFACA19EEA299B14A0081A705CB3296EBC14CDF658DCD336EA6D1136881AAEB87B81AB9EE53D5
310
F5EB8BC8362082DA24122F98680A4E7930C01A0079749CEA14382A0783E5EBA5A10F8C098456A03D6A4AEB6BB881E2513747552A5DB22C7EDAF83BD5528081A365F7FF06504B0304140006080000CC70623B000000000000000000000000350000006662782F41393633353835312D344632462D344230382D423046372D37
310
39314545314133324237412F76657274696365732E62696E504B0304140006080800CC70623BF270F1330600000004000000360000006662782F41393633353835312D344632462D344230382D423046372D3739314545314133324237412F747269616E676C65732E62696E636660600000504B0304140006080000CC7062
310
3B000000000000000000000000370000006662782F41393633353835312D344632462D344230382D423046372D3739314545314133324237412F617474726962757465732E62696E504B0304140006080800CC70623B08DA0BD19000000041010000360000006662782F41393633353835312D344632462D344230382D4230
310
46372D3739314545314133324237412F6469726563746F72792E786D6C858F410AC3201045AF22B36F53E9A60B35CBEEBAE80D244E44489C6234F4F835464A48035D0DF398FF9F8AF63D0E6CC63039F212F8F9020C7D47C6792B21C5FE7403D62A1188E2E60C98D7234A5830286103A55745067B9D86B8A3CF9C7F90C11DE6
310
07FB144396D7B6A82D282E9A152AD114D5EF2CB866EEE831B8EEA07A7BB5A8D7D61A2BAAEB7FD5F70921FF497D00504B0304140006080800CC70623BEDD1DC58FD000000A00100003B0000006662782F41393633353835312D344632462D344230382D423046372D3739314545314133324237412F7265736F75726365732F
310
636F72652E786D6C8D504B6E833010BD0A9A6D65B00922041947112427E8052C33A156828DFCA97AFC9A40A576D7CDCCE87D344F8F9FBFE667F689CE6B6B3A6039850C8DB2A336530731DC4903D95970676DF82583CCC8193B5861107C72362E3BA4AC096842428D1D7107A5F7182053CF7474E0D507CE32973124857FE48B
310
540F3961CEF244279DE03EB81420DB9EAC1384436FA353E879B1B182C7A8C75DA3C7F453DF353A1075D537A7BA6464B8F535A99AE14A9A2BBD90E350DD183B5CFABE3AF262350B1EF4FC9351399401471025A527C218A1E53BAB5A5AB765F5469B96525EACF23FA6B88CFF34456DC2A1DCE36E360F82A5202F42F062ED2BAD
310
579969AFDD8A6F504B010214000A0000080000CC70623B3DEE336E79000000790000001B00000000000000000000000000000000006175746F6465736B2D64657369676E2D7061636B6167652E786D6C504B01021400140006080800CC70623BD486FD9CA0000000F40000001300000000000000000000000000B20000005B
310
436F6E74656E745F54797065735D2E786D6C504B01021400140006080800CC70623B853B8169EB0000007C010000080000000000000000000000000083010000636F72652E786D6C504B01021400140006080800CC70623B55019EA25F0000007C000000070000000000000000000000000094020000636E782E786D6C504B
310
01021400140006080800CC70623BDBABAAF470010000D40300000C00000000000000000000000000180300006662782F636F72652E786D6C504B01021400140006080800CC70623B9C113CC27E0000009D0000000B00000000000000000000000000B20400006662782F636E782E786D6C504B01021400140006080800CC70
310
623B7DF2F77C2A010000120200003100000000000000000000000000590500006662782F41393633353835312D344632462D344230382D423046372D3739314545314133324237412F636F72652E786D6C504B01021400140006080800CC70623BAD7543B64E010000330300003000000000000000000000000000D2060000
310
6662782F41393633353835312D344632462D344230382D423046372D3739314545314133324237412F636E782E786D6C504B01021400140006080800CC70623BE75B7789680500003C10000034000000000000000000000000006E0800006662782F41393633353835312D344632462D344230382D423046372D3739314545
310
314133324237412F6F626A656374732E786D6C504B01021400140006080000CC70623B0000000000000000000000003500000000000000000000000000280E00006662782F41393633353835312D344632462D344230382D423046372D3739314545314133324237412F76657274696365732E62696E504B01021400140006
310
080800CC70623BF270F133060000000400000036000000000000000000000000007B0E00006662782F41393633353835312D344632462D344230382D423046372D3739314545314133324237412F747269616E676C65732E62696E504B01021400140006080000CC70623B0000000000000000000000003700000000000000
310
000000000000D50E00006662782F41393633353835312D344632462D344230382D423046372D3739314545314133324237412F617474726962757465732E62696E504B01021400140006080800CC70623B08DA0BD1900000004101000036000000000000000000000000002A0F00006662782F41393633353835312D344632
310
462D344230382D423046372D3739314545314133324237412F6469726563746F72792E786D6C504B01021400140006080800CC70623BEDD1DC58FD000000A00100003B000000000000000000000000000E1000006662782F41393633353835312D344632462D344230382D423046372D3739314545314133324237412F7265
310
736F75726365732F636F72652E786D6C504B0506000000000E000E0080040000641100000000
  0
XRECORD
  5
1F8
102
{ACAD_REACTORS
330
1F7
102
}
330
1F7
100
AcDbXrecord
280
     1
 70
     1
 90
429727718
  1
30362254-06B7-45E0-A893-8CFA70E3D6BC
310
504B03040A0000080000CC70623B3DEE336E79000000790000001B0000006175746F6465736B2D64657369676E2D7061636B6167652E786D6C3C3F786D6C2076657273696F6E3D22312E302220656E636F64696E673D227574662D3822203F3E3C666F726D6174733E3C666F726D61743E687474703A2F2F736368656D612E
310
6175746F6465736B2E636F6D2F64657369676E2D7061636B6167652F323030393C2F666F726D61743E3C2F666F726D6174733E504B0304140006080800CC70623BD486FD9CA0000000F4000000130000005B436F6E74656E745F54797065735D2E786D6C7D8EC10E82300C865F65E91D8A1E8C310C0EEA1BF002731658846E
310
D98AC1B77784ABF1D8FE5FBFBF75BBCE937A534CCEB38643598122B6FEE978D0B0485F9C41B54DDD7D022595594E1A469170414C76A4D9A4D207E29CF43ECE46F218070CC6BECC4078ACAA135ACF422C856C0E68EA1BF5669944DDD7BCDE7B1F8E415D77AECB980613C2E4AC91FC167A2B244592486606FC29C8FD7F045B9A
310
EF7053A7E60B504B0304140006080800CC70623B1EC5D7A3EB0000007C01000008000000636F72652E786D6C8D90416EC3201045AF82665B6103C6756C6122AB4D4ED00B204C5C94182C03558F5F9C3852BBEB6A467FFE9B197D71FC9E6FE8CBACC17AD7032D0820E3B41FAD9B7A48F1820F808E52ACDEC75F36404ECDA687
310
4D0629A6D5A76597B477D1B89855E747B38B2A041301E95B6E7A08FAD3CCAA50296647B8168BD2573599823EBB0CA76447F43862C7BCCF5EAC59410E4DDD9C7973C2755553CCCFA4C603E3040F1565ED3B1FDE4E432BCA0D9622DAF9795FAF464533826484B498524CD807E51D79ED187F21878E10516EF63F505AC67F42C9
310
BA58B1FDDD071640D2FCC87D2045B96591CB3DA85CB7DCE40F504B0304140006080800CC70623B55019EA25F0000007C00000007000000636E782E786D6C4DCB3B0E80201045D1AD90E915ED2CF8AC45050C11660C8261F98AB1B07AC9C97D42D718D865D3E909258CFD00CCE24AC6E326A164D74DC0B4128928FF32603847
310
2BA13128B1252AC747C6BAB984FC68F0B87FE8960A5C09FE86CFB69FBA01504B0304140006080800CC70623B8C9102E971010000D40300000C0000006662782F636F72652E786D6CC5535B6E833010BC8AE5DF0A6C08340F1947A84D4ED00B38C6A128602363A31CBFCB234A53A551FA553EC09AD9F5CE8C31DB9E9B1AF5CA
310
7695D1198E428A91D2D214952E33ECDD315861B4E5CC1AE3BE9561A445A3323CC098B3D21ADFCE9034DA29ED00D5A6503328BA4E398C640D8B0C77F253352214DE4145770A5B214FA2546114020D759C75CE8200340D19DE981F0F6746269C33EFAB6266AB02A655C74A59CCF365BADC27CB5D902ED22848F6340DF238A141
310
BE88E2F57B92BFEDF23523433367AE6A2EEAA455C2A902F398D2751045018D3FA264435F3771F242571B4A1919CA6F9A7C5B3CD9E42BED16F12C776AEB308F40C848FC700B1139D4891EF410CEC810227CC6846F8386402064270EF5C5C709A05E49676C024C61FC95EA45ED154CA5211D1FF4FB8291A913A68E9B83EBBB33
310
E2A7673CDE118E5AE8124C0807CB8377834E366998436B950D7A7746DAD846D4CFD978E0F04FD455FC5D49D2D4C6FE9722321F10997F0F32DC47FE05504B0304140006080800CC70623BFFEA85907E0000009D0000000B0000006662782F636E782E786D6C4DCCD10A83201886E15B91FFDC95D95A811AB6F23E625948A6C3
310
E9D8E5AF46073BFAE0E1E365ED67B3E8ADC3CB78C7815C7240DA3DFC64DCC221C519D7805AC182F7F1EF06C88D9BE6703008B6049F9E274D7A1E938DBB5AE3D6131B2589BA0D3D965551E0B2EA732C9B9A624AAEB41E3A557677029960D9AFB4EF11165F504B0304140006080800CC70623B4FEEA4082C0100001202000031
310
0000006662782F39464131463745442D413632322D343644302D413938332D3331353338454246344243312F636F72652E786D6C8D515B6EC32010BC0AE2AB55850DD871ED0813254D72825EC00192A2C460F1A872FC42ED48ED5F7E00CDCECCCEB26C731F6FE05B39AFADE921293004CA082BB5B9F43086336A21D870E6AC
310
0D7F68109861543DCC30E4ECE26C9C164858139409093556AA051CBC570102714B8F1E7AF1A5C6A11862480C7F2DA6415C878B2A4891CA89C7990F2E050073937C42DE1DB7E4F87ED8A36D4329AA9B3D46DBAEAD504556557BD81DEBDD0761E52CE42C462D17B996298E3E6BE59E35C962CE821E1FF18553435012728A7187
310
0841987E927A8D9B35ADDF70BBC6989599FE4F1427F9A4286A132ABAC49D651EF234CD5CE04CDA78BA3DC2A8FB645D00B9DF8B57E215725C60BCA2A463E54C4CE327C7A65E1C7DB02E7DEFCBF594B864C5CA6CDBD49C957943E9FA5D5FBAF336F90F504B0304140006080800CC70623BAD7543B64E01000033030000300000
310
006662782F39464131463745442D413632322D343644302D413938332D3331353338454246344243312F636E782E786D6CD593CD6EC32010845F0571AD6CE3D48AD20813A9873E410FBD12D82434182C7EAAE6EDBB2424CD25871E7B41D6EC30B3FA84F9E67BB2E40B4234DE8DB46F1925E094D7C6ED479AD3AE5951B2113C
310
789FEE6C943839C1488B4C05DF079FE72A69D8C96C13AAD6B8631503449F83828872B949AC57D26200B826A308D316B4064D6E46FCDA41C05550DC9E483A00797BFD207EFB092A45DE9514C1BBD22178396BD39D891265658C238DEA00936C654E5E433CB65A26D9F6EDB5EBC14EBF49A45CB856E66048291F6939A9A81BB5
310
C8917738143CA680F4AA299D66A042CEB3354A2684DC9D8D178FE0D9B8B41CAAD720F880EE7EF93C0C18769E099ECC04D5A102C8049A8A05632F4DDF376CF1DE0F6BB65C2F8627B65A33C6BB62177CEBBDAD973006829F89F22E814B54F4BC2BE347F8AA8F681390B50FA73F804400B5F542E796F19FF974E7F78DB802FE05
310
E207504B0304140006080800CC70623B16AB87BA640500003C100000340000006662782F39464131463745442D413632322D343644302D413938332D3331353338454246344243312F6F626A656374732E786D6CAD575B6FA33818FD2B887DE6924B3BED8A326A92B68A663B534DD4D13E548A0C38942D60649B369D5FBFC7
310
600890A493BDE42160637FD7F31D7FF63E6FB3D478A55C242CBF3247B66B1A340F5994E4F19559CA8D75611A9F7D8F33263BCB4C232719BD32D5B4E97B316765A1A722BA21652A07B3B7B33F0D11D29C9A46981221AE4C113ED38CD8A4942CA2E2C58E882476BCD9DA23BB5ED8171B73523C0F841684D35CC252CCE79062D4
310
468DFA43D7747CCF51DF7D4FFDEB5593E3AB9CCA9FBEFE241792E4E19EB28198C968BAB8199F5D5A67D3E9C49A9E8F47D6EC76B6B0469F26EEFC7C3EBFBCBEB98462213924694B38DD98FE1D62C393D073EA4FADC5DAF04326852CCF6958F90F0F2B9BB5C48816348F90C7840A68EB78EDF68723159BCEE7891A6B95DDE9D3
310
BCEAEEE8086A6C6F9E5D4B59F0175C10A7A0820BAA5055C7473B5AE3CFDD452D602CD5DF12616444529E90D448938013FE6EFA58AA96F85E4F8C42275708571E98FE6827AF6B2B4AE3D7D83D64E5A64C53054DD3AF90BD06FEA9149565C94FCA0F6B834DC85599E4F2423B24DF0B6AFA979E534DFA9E7A4CC6FA631D486393
310
921829879BF5D781A373557BCB85E97FB90DB62B558F8795179C15944B051F40AB495CF35451D26A4727654E6D8033BD98EF82F21D91FF8AF2DD9982BCF1643BDD4EB516C9492E368C67C88DED563FC36D5EACF66DFF057C3658BDBFA69DF9578B3DA735B64F18C7F20770A9D45CFCF7FCF563D6456A277DBEF78A02637CA2
310
43B90A490AEAB94F72244481D24819A6C0E59B606BFA4B3025981DBB48EAB701D97BF19C577CC77F2D1B6C55A9EF3C732474C0B727303F625995056C3B02963D9EAC146BE78EC5FCEC7FA999EBC5EACBAAE41B12D27B4D2C0BBA49F244E2ECDC81B76B502F113D8F5EE8FB1BE3111CDD4FC2AA9B844CAB1288B68AB90A7CDC
310
1C166AB0D3DC5310625FCC14E779BFD0709F8890A629C9292B1B2DED31A4B0DA928CEE135085754027E3018A397D4D5427D15BD1330B677DC8934285AC3DF45A9EB68FF8F2B8FC0A509AFEECFD0FF2DE25CC6047F7214B195F07EFEB9A094D800F7BFAE8FED187B78EA8A3A400F115961BCAD1215E47C966530AF0EE8128FE
310
58CEBB996A8964FFA529A046635D9353B0336A8F700DDF46271A024E70B0B37C9DE01847591E54DED53D54202AB947E4076556AC49C6CA5C9E1226B7F1A7B1BE15DEED62C41B91E1B3E9AFAAA735036547343A925075041DF0A9979E893B391F8FCFA6967B3EFB644DCF6E5CEBFAE272625DCC6FAF3FB93793C5F90CE1EF57
310
407342756B10D1C489E8953CD1617E5CEECAD6F4EF8914CE5D5D504E5C3F1F9736DA62CFC11E00BCDDB8CC8A9466349744C1F75EBDA4DF09BA8A9E8C7A7E9991989E20E5DBDD6A6003664ED8F7A04A8DBE0DF6EAD9B9AA858342E47399053949D2C146EDB85DE4B176BB0965FBAC19BD19AA918E27FA50C1D22402E144464C
310
59462568E704B6E71915404CB72B8FF4EDE184DDAF753F284990D2C6926782963815403548A70C657FDEF80D2D9CEAA2AE4C1C76F60BFE74219A06527D6582DF6412526107381E55E353090704D085B52408D0933C4ED159D79BDA71BB4BC506F4831350EB6F979CD22D69BF7AC49B91A2C0A9DDA3D5CA36AD20FC478E37E6
310
1844E2352865EBCB6EA275A652E3836BE04EFB400BF1A2556F515F1FBB35B2AB35BD889C744FFA1004B5544B121E57F70215746DD2F5E2C1412B602CBF19455AC6C8E5E9922C4E01E65215385004546899059180EAFCF7A707CE7017CD8CDB0410789AB32C63B91E5CEBBBACB17AC6CD347A022D5075FD106377347AAABA7E
310
7D11590744509B44E205134DC1290F06580320F78E537D3D73540E06CB970B431F185308AD40BBD794D6D77003C5A36E8EAA54BA64597CD8F83BD552A080A365F7FF06504B0304140006080000CC70623B000000000000000000000000350000006662782F39464131463745442D413632322D343644302D413938332D3331
310
353338454246344243312F76657274696365732E62696E504B0304140006080800CC70623BF270F1330600000004000000360000006662782F39464131463745442D413632322D343644302D413938332D3331353338454246344243312F747269616E676C65732E62696E636660600000504B0304140006080000CC70623B
310
000000000000000000000000370000006662782F39464131463745442D413632322D343644302D413938332D3331353338454246344243312F617474726962757465732E62696E504B0304140006080800CC70623B08DA0BD19000000041010000360000006662782F39464131463745442D413632322D343644302D413938
310
332D3331353338454246344243312F6469726563746F72792E786D6C858F410AC3201045AF22B36F53E9A60B35CBEEBAE80D244E44489C6234F4F835464A48035D0DF398FF9F8AF63D0E6CC63039F212F8F9020C7D47C6792B21C5FE7403D62A1188E2E60C98D7234A5830286103A55745067B9D86B8A3CF9C7F90C11DE607
310
FB144396D7B6A82D282E9A152AD114D5EF2CB866EEE831B8EEA07A7BB5A8D7D61A2BAAEB7FD5F70921FF497D00504B0304140006080800CC70623B0D6EF93BFE000000A00100003B0000006662782F39464131463745442D413632322D343644302D413938332D3331353338454246344243312F7265736F75726365732F63
310
6F72652E786D6C8D50596E833010BD0A9ADFCA60B334011947A8694ED00B586642AC041B79A97AFC9A40A5F6AF3F33A3B7689E1E3F7DCD8FEC139DD7D6F4C0720A191A65476DA61E62B892236427C19DB5E1970C322367EC618541F0C9D9B8EC90B226A009093576C41D94DE63804C3DD2D18357379C652E63480A7FCF17A9
310
EE72C29CE5894E3AC17D702940B63D59270887DE46A7D0F36263058F518FBB468FE9A7BE6A7420864373B8D4873369AA8691FA421B3294352543C5CAF65C0F6FEF43CB8BD52C78D0F34F46E550061C419494B6843142CB0F5677F4B52BEB177AEC28E5C52AFF638ACBF84F53D42654E51E77B379102C05791282176B5F693D
310
CB4C7BED567C03504B010214000A0000080000CC70623B3DEE336E79000000790000001B00000000000000000000000000000000006175746F6465736B2D64657369676E2D7061636B6167652E786D6C504B01021400140006080800CC70623BD486FD9CA0000000F40000001300000000000000000000000000B20000005B
310
436F6E74656E745F54797065735D2E786D6C504B01021400140006080800CC70623B1EC5D7A3EB0000007C010000080000000000000000000000000083010000636F72652E786D6C504B01021400140006080800CC70623B55019EA25F0000007C000000070000000000000000000000000094020000636E782E786D6C504B
310
01021400140006080800CC70623B8C9102E971010000D40300000C00000000000000000000000000180300006662782F636F72652E786D6C504B01021400140006080800CC70623BFFEA85907E0000009D0000000B00000000000000000000000000B30400006662782F636E782E786D6C504B01021400140006080800CC70
310
623B4FEEA4082C0100001202000031000000000000000000000000005A0500006662782F39464131463745442D413632322D343644302D413938332D3331353338454246344243312F636F72652E786D6C504B01021400140006080800CC70623BAD7543B64E010000330300003000000000000000000000000000D5060000
310
6662782F39464131463745442D413632322D343644302D413938332D3331353338454246344243312F636E782E786D6C504B01021400140006080800CC70623B16AB87BA640500003C1000003400000000000000000000000000710800006662782F39464131463745442D413632322D343644302D413938332D3331353338
310
454246344243312F6F626A656374732E786D6C504B01021400140006080000CC70623B0000000000000000000000003500000000000000000000000000270E00006662782F39464131463745442D413632322D343644302D413938332D3331353338454246344243312F76657274696365732E62696E504B01021400140006
310
080800CC70623BF270F133060000000400000036000000000000000000000000007A0E00006662782F39464131463745442D413632322D343644302D413938332D3331353338454246344243312F747269616E676C65732E62696E504B01021400140006080000CC70623B0000000000000000000000003700000000000000
310
000000000000D40E00006662782F39464131463745442D413632322D343644302D413938332D3331353338454246344243312F617474726962757465732E62696E504B01021400140006080800CC70623B08DA0BD190000000410100003600000000000000000000000000290F00006662782F39464131463745442D413632
310
322D343644302D413938332D3331353338454246344243312F6469726563746F72792E786D6C504B01021400140006080800CC70623B0D6EF93BFE000000A00100003B000000000000000000000000000D1000006662782F39464131463745442D413632322D343644302D413938332D3331353338454246344243312F7265
310
736F75726365732F636F72652E786D6C504B0506000000000E000E0080040000641100000000
  0
XRECORD
  5
175
102
{ACAD_REACTORS
330
173
102
}
330
173
100
AcDbXrecord
280
     1
270
     1
271
     1
  0
XRECORD
  5
174
102
{ACAD_REACTORS
330
173
102
}
330
173
100
AcDbXrecord
280
     1
270
     1
271
     1
  0
XRECORD
  5
1FB
102
{ACAD_REACTORS
330
173
102
}
330
173
100
AcDbXrecord
280
     1
 70
     0
 90
1673772943
  1
ECE7A1D2-D628-4531-984C-D00F80459256
310
504B03040A0000080000CC70623B3DEE336E79000000790000001B0000006175746F6465736B2D64657369676E2D7061636B6167652E786D6C3C3F786D6C2076657273696F6E3D22312E302220656E636F64696E673D227574662D3822203F3E3C666F726D6174733E3C666F726D61743E687474703A2F2F736368656D612E
310
6175746F6465736B2E636F6D2F64657369676E2D7061636B6167652F323030393C2F666F726D61743E3C2F666F726D6174733E504B0304140006080800CC70623BD486FD9CA0000000F4000000130000005B436F6E74656E745F54797065735D2E786D6C7D8EC10E82300C865F65E91D8A1E8C310C0EEA1BF002731658846E
310
D98AC1B77784ABF1D8FE5FBFBF75BBCE937A534CCEB38643598122B6FEE978D0B0485F9C41B54DDD7D022595594E1A469170414C76A4D9A4D207E29CF43ECE46F218070CC6BECC4078ACAA135ACF422C856C0E68EA1BF5669944DDD7BCDE7B1F8E415D77AECB980613C2E4AC91FC167A2B244592486606FC29C8FD7F045B9A
310
EF7053A7E60B504B0304140006080800CC70623BD9DDAED0EC0000007C01000008000000636F72652E786D6C8D90416EC3201045AF82665B61836D9CD8C2444DD39CA01740405C94182C03558F5F9C3852BBEB6A467FFE9B197D7EF89E6EE8CB2CC17A37002D0820E394D7D68D03A478C17B4007C117EFE32F1B20272733C0
310
2A83E0E3E2D3BC49CABB685CCCAAF3DA6CA20CC14440EA969B0182FA34932C648AD911AEC52CD5558EA6A0CF2EC329598D1E47ACCEFBECC59A050463A7EA5833865FEBDD0E37353BE3EE8DBDE3F6786A48D375FBF6CC78B9C282473B3DEFABC5C86834888A900E538A49F5419B9EB47DD5BC907D4F082F57FB1F28CDFA9F50
310
B22ED6D5F6EE030B20687EE43E10BC5CB3C8E51E54AE6B6EE207504B0304140006080800CC70623B55019EA25F0000007C00000007000000636E782E786D6C4DCB3B0E80201045D1AD90E915ED2CF8AC45050C11660C8261F98AB1B07AC9C97D42D718D865D3E909258CFD00CCE24AC6E326A164D74DC0B4128928FF326038
310
472BA13128B1252AC747C6BAB984FC68F0B87FE8960A5C09FE86CFB69FBA01504B0304140006080800CC70623BA24EB22D72010000D40300000C0000006662782F636F72652E786D6CC5535B6E833010BC8AE5DF0A6C5E49888CA3A6694ED00B38E05014B091B1518EDFE511A5A9D228FD2A1F60CDEC7A67C6986DCE4D8D7A
310
69BA4AAB0C073EC548AA5C17952A33ECECD15B61B4E1CC686DBF9561A44423333CC098B3D268D7CE50AE9595CA02AA74216750749DB418E5352C32DCE59FB211BE70162ABA93DF8AFC244AE9073ED050C759670D0840D390E18DF9F1706664C23973AE2A66B62A605A75ACA4C13C4976E1364A12EF355A2EBD384AF65EFA96
310
BC7B8BED2EA6719AAE16FB8491A199335B351775B991C2CA02F390D2D40B028F861F41BCA68B7518BFD0D59A524686F29B26D7164F36B94AD9289CE54E6D1DE6010819891F6E21228B3AD1831EC219194284CF98F06DD01008846CC5A1BEF83801D4CBDC6A1303536877A57A513B0953A94FC707FDBE6064EA84A9E3E6E0FA
310
EE8CF0E9198F7784A316AA0413C2C2F2E0ECA0934D1AE6D05A69BCDE9E91D2A611F573361E38FC1375157F5752AE6B6DFE4B11990F88CCBF0719EE23FF02504B0304140006080800CC70623B408A7D3B7C0000009D0000000B0000006662782F636E782E786D6C4DCCD10A83201886E15B91FFDC552A92A0064DBC8F581632
310
D3703A76F9ABD1C18E3E78F878E5F0D9027ABBFCF2292AE86E2D20171F69F6715550CB827B40839639A5F2770314A7CD293819B45C73AAFB45B35BA61ACAA1C1C7E7855C58C15BC331339661262CC762340413D68D77DA5B42298546CBE6573AF60CEB2F504B0304140006080800CC70623B449FB9BD290100001202000031
310
0000006662782F36394639363044362D344446342D343946362D394244322D3234314243333846323333332F636F72652E786D6C8D515B6EC32010BC0AE22B55850D98B871848994463E412FE002495162B07854397EA176A4F62F3F2C9A9D991D587EB84F37F0AD7D30CEF6905418026DA553C65E7A98E219ED203808EE9D
310
8B7F6810D871D23D2C3014FCE25D9A57483A1BB58D19B54EE9151C43D0110279CB971E06F9A5A7B11A53CC8C70ADE6515EC78BAE4895DB992778883E0700CB907242D17643D7E2538BD869608875438BBAE38922CAC8F1BDD90DB4691A5E2F42C153326A951B95E398B3D1FE599322163C9AE9115F7A3D46ADA0A018778810
310
84E907617BDCEE297BC5BB3DC6BC2EF47FA234AB2745C9D8D8D035EE220B50105E2F0DC1954B9FB747187D9F9D8FA0CCDB042D5FA0C015C65B42DF78BD10F3F3B363CB56C7109DCFDFBBB97E662ED92EB62D13BC2E1BCAE5777DB9966D8A1F504B0304140006080800CC70623BAD7543B64E01000033030000300000006662
310
782F36394639363044362D344446342D343946362D394244322D3234314243333846323333332F636E782E786D6CD593CD6EC32010845F0571AD6CE3D48AD20813A9873E410FBD12D82434182C7EAAE6EDBB2424CD25871E7B41D6EC30B3FA84F9E67BB2E40B4234DE8DB46F1925E094D7C6ED479AD3AE5951B2113C789FEE
310
6C943839C1488B4C05DF079FE72A69D8C96C13AAD6B8631503449F83828872B949AC57D26200B826A308D316B4064D6E46FCDA41C05550DC9E483A00797BFD207EFB092A45DE9514C1BBD22178396BD39D891265658C238DEA00936C654E5E433CB65A26D9F6EDB5EBC14EBF49A45CB856E66048291F6939A9A81BB5C89177
310
38143CA680F4AA299D66A042CEB3354A2684DC9D8D178FE0D9B8B41CAAD720F880EE7EF93C0C18769E099ECC04D5A102C8049A8A05632F4DDF376CF1DE0F6BB65C2F8627B65A33C6BB62177CEBBDAD973006829F89F22E814B54F4BC2BE347F8AA8F681390B50FA73F804400B5F542E796F19FF974E7F78DB802FE05E20750
310
4B0304140006080800CC70623B8D05915C650500003B100000340000006662782F36394639363044362D344446342D343946362D394244322D3234314243333846323333332F6F626A656374732E786D6CAD575B6FA33814FE2B887D06429276DA1565D4266D158D3A339A6846FB502932E050B66023DB74D2FDF5FB190C01
310
9276B2973C046C8ECFF53B17071F77456EBD502133CEAE6CDF9DD81665314F32965ED995DA3A17B6F5310C04E7AA47665B8C14F4CAD6DB7618A48257A5D94AE89654B91AEDDEDDFC61C998326A5B714EA4BCB265FC440BE2924AF184CA6737218AB8E976E7FA6E4338649B0A523E8D98964450A6A029F619B8588D52FE7039
310
B1BD30F0F4F730D0FF866AF6369557DB33949F31A9088B0F848DD8CCFCF9F2767A76E99CCDE733677E3EF59D9BBB9BA5E37F984D16E78BC5E5F5ED25044B25C0C96822E8D60EEFE11B91C581D77CEA34368A1F5329E68CD1B8B61F16D63A1B8E092D294B10C78C4A48EB593D192E7DED9BDEE7995E1B91FDEDD3ACEA9FE831
310
6A756F9F7D4D79F4274C90A7A04248AA51D5F8C718DAE06FB2F75AC4796EBE65D22A88A22223B995679120E2D50E41AA49C260C046A35368846B0BECD0DFF3EBEB8AD4F835768F69B9ADF25C43D30E6B646F807FAA64AD59F61715C7A54127C4AACA98BA3006A9D792DAE165E0D59B61A01FB3A9F9D838D2DAE62445C86166
310
F37564E842E7DE6A69879FEEA2DD5AE7E371E1A5E025154AC307D06A03D73EB5978C58FFA4C8E9033066E0F3BD53BEC1F39F91BE7B55103791EDE6BBB991A2046172CB4581D8B893FA674DDA17A77B3B7C413D1B511FD2743BFF8A38F03A658705E3ADF8015C3A3417FF3D7E439FF591DA0B5F18BC20C1B8981957AE6392A3
310
F43C640C01D1A0B4728E2DD4F26DB4B3C3152A252A3B4E913CEC1C72F012782FF88EFF8637AA552DBEF76408E8A8DE9E50F9E1CB3A2DA0DB1B6039A893B56063DC5B3E3FFB5F72E67AB9FEB4AEC496C4F4C1149625DD662C53E89D7BF0F6151A046260D1337DFDC94502430F83B0EE07A130A224BCAD7DAE1D9FB6CD422FF6
310
920702629C4BB9AE79C12F243C6432A6794E18E5552BA56B431AAB5D91317302B2B071E86C3A42B1A02F999E24061403B5D0EB639195DA655DD3EBEAB4FB862DDF579F014AD0E73C22F99E28DA57FB98E75C6CA2D74D53086D600F4786E0FE3144B771A8A7B900F03594DB8A633CBC49B2EDB69228BB479CF863B5E807AAAB
310
23872F6DFEB4129B949CA33823F58830E86D65621E10047D9DB34D862E8EAC3C2ABC2F7B2C40D67CDFE01F5545B92105AF983AC54D93D69E56FB8E797F88913F898A9FEC705D3F9D1B54EC8426FB500D40A03BD0119B06E1B95DDC7EB8F6975367793EBD70E66733DFB9BC982F9CE564727731999F5D4ECFCE3B8D6A4DC2A0
310
6D50FD148437D110834A64C6CDDF57FBACB5C307A2A477DFE4939736CFEF2B175371E0E10CF0DD1D5C15654E0BCA14D1E87DD02FF93782A162C0A3D95F1524A52770F972BF1EE9809D13CE7DD599467F8ECE9ADD85CE85A34CD45355448C64F9E8A031DC2D596ACC6E5DD93D9B82DE2EF5CAF81363A8E47996A0DE24564A79
310
4115AACE09C55E14540231FDA13C319787134EBF34E3A022514E5B4D9E0826E25C02D5805B15ABE1BEF51B26383D445DD9E875EE33FE4C22DA16427D65A3BCA92CA6D28DD01DF5DC53330704308475351050232CCD31583787BA75774AFB06E5070DD0C8EF484E19968C5D83BA5B90B244D31E54D55A372320FE4786B7EA58
310
44E135AA5467CB7EA333A61683CC6A8C3257034C10CF46F40EF9F5BE59BE5BD30C3C72D235E95D10345C1D45445A5F0BB47E46A5EBE5570F9380B5FA629579952296A773720405982B9DE04011506178964401AA8BDF1FBF0A8EAB6861DD6580C0E38217056766716DAEB2D6FA0917D3E4116581EADB879C4E7CFFB11EFACD
310
3D641311495D92C8676CB409A72D18610D803CE8A626049E8EC1887CB5B44CC39883690DDA8399B4B9855B481E7D71D4A9D22F96E5BB73BF5793020C02137BF837504B0304140006080000CC70623B000000000000000000000000350000006662782F36394639363044362D344446342D343946362D394244322D32343142
310
43333846323333332F76657274696365732E62696E504B0304140006080800CC70623BF270F1330600000004000000360000006662782F36394639363044362D344446342D343946362D394244322D3234314243333846323333332F747269616E676C65732E62696E636660600000504B0304140006080000CC70623B0000
310
00000000000000000000370000006662782F36394639363044362D344446342D343946362D394244322D3234314243333846323333332F617474726962757465732E62696E504B0304140006080800CC70623B08DA0BD19000000041010000360000006662782F36394639363044362D344446342D343946362D394244322D
310
3234314243333846323333332F6469726563746F72792E786D6C858F410AC3201045AF22B36F53E9A60B35CBEEBAE80D244E44489C6234F4F835464A48035D0DF398FF9F8AF63D0E6CC63039F212F8F9020C7D47C6792B21C5FE7403D62A1188E2E60C98D7234A5830286103A55745067B9D86B8A3CF9C7F90C11DE607FB14
310
4396D7B6A82D282E9A152AD114D5EF2CB866EEE831B8EEA07A7BB5A8D7D61A2BAAEB7FD5F70921FF497D00504B0304140006080800CC70623BCA768048FE000000A00100003B0000006662782F36394639363044362D344446342D343946362D394244322D3234314243333846323333332F7265736F75726365732F636F72
310
652E786D6C8D50596E833010BD0A9ADFCA60D600328E9AA639412F609909B1126CE4A5EAF16B0295DABFFECC8CDEA2797AECF8353F924FB44E193D409E5248504B332A3D0D10FC95B4901C39B3C6F85F3248B49871801506CE266BC2B243D2688FDA47549B11775038871E12F988C7004EDE7016A9083E2ADC3D5D84BC8B09
310
D33C8D74D471E6BC8D0192EDC93A815B742658898E651BCB59086ADC356A8C3FD555A1055ED7E7E254D615792D0F075295F585746FF53B694EE78A565DD736979A65AB9933AFE69F8CD2A2F038022F28ED489E135A7CE4554F9BBEA85E68DB53CAB255FEC71496F19FA6A0B42F8B3DEE6673C0F318E4497096AD7DC5F52C33
310
EEB55BFE0D504B010214000A0000080000CC70623B3DEE336E79000000790000001B00000000000000000000000000000000006175746F6465736B2D64657369676E2D7061636B6167652E786D6C504B01021400140006080800CC70623BD486FD9CA0000000F40000001300000000000000000000000000B20000005B436F
310
6E74656E745F54797065735D2E786D6C504B01021400140006080800CC70623BD9DDAED0EC0000007C010000080000000000000000000000000083010000636F72652E786D6C504B01021400140006080800CC70623B55019EA25F0000007C000000070000000000000000000000000095020000636E782E786D6C504B0102
310
1400140006080800CC70623BA24EB22D72010000D40300000C00000000000000000000000000190300006662782F636F72652E786D6C504B01021400140006080800CC70623B408A7D3B7C0000009D0000000B00000000000000000000000000B50400006662782F636E782E786D6C504B01021400140006080800CC70623B
310
449FB9BD290100001202000031000000000000000000000000005A0500006662782F36394639363044362D344446342D343946362D394244322D3234314243333846323333332F636F72652E786D6C504B01021400140006080800CC70623BAD7543B64E010000330300003000000000000000000000000000D20600006662
310
782F36394639363044362D344446342D343946362D394244322D3234314243333846323333332F636E782E786D6C504B01021400140006080800CC70623B8D05915C650500003B10000034000000000000000000000000006E0800006662782F36394639363044362D344446342D343946362D394244322D32343142433338
310
46323333332F6F626A656374732E786D6C504B01021400140006080000CC70623B0000000000000000000000003500000000000000000000000000250E00006662782F36394639363044362D344446342D343946362D394244322D3234314243333846323333332F76657274696365732E62696E504B010214001400060808
310
00CC70623BF270F13306000000040000003600000000000000000000000000780E00006662782F36394639363044362D344446342D343946362D394244322D3234314243333846323333332F747269616E676C65732E62696E504B01021400140006080000CC70623B00000000000000000000000037000000000000000000
310
00000000D20E00006662782F36394639363044362D344446342D343946362D394244322D3234314243333846323333332F617474726962757465732E62696E504B01021400140006080800CC70623B08DA0BD190000000410100003600000000000000000000000000270F00006662782F36394639363044362D344446342D
310
343946362D394244322D3234314243333846323333332F6469726563746F72792E786D6C504B01021400140006080800CC70623BCA768048FE000000A00100003B000000000000000000000000000B1000006662782F36394639363044362D344446342D343946362D394244322D3234314243333846323333332F7265736F
310
75726365732F636F72652E786D6C504B0506000000000E000E0080040000621100000000
  0
XRECORD
  5
176
102
{ACAD_REACTORS
330
173
102
}
330
173
100
AcDbXrecord
280
     1
270
     1
271
     1
  0
XRECORD
  5
177
102
{ACAD_REACTORS
330
173
102
}
330
173
100
AcDbXrecord
280
     1
270
     1
271
     1
  0
XRECORD
  5
3BF
102
{ACAD_REACTORS
330
3BE
102
}
330
3BE
100
AcDbXrecord
280
     1
102
DISPLAYNAME
  1
Imperial24
102
FLAGS
 90
        0
  0
XRECORD
  5
3BB
102
{ACAD_REACTORS
330
3BA
102
}
330
3BA
100
AcDbXrecord
280
     1
102
DISPLAYNAME
  1
Metric50
102
FLAGS
 90
        0
  0
CELLSTYLEMAP
  5
3B0
102
{ACAD_REACTORS
330
162
102
}
330
162
100
AcDbCellStyleMap
 90
        3
300
CELLSTYLE
  1
TABLEFORMAT_BEGIN
 90
        5
170
     1
 91
        0
 92
    32768
 62
   257
 93
        1
300
CONTENTFORMAT
  1
CONTENTFORMAT_BEGIN
 90
        0
 91
        0
 92
      512
 93
        0
300

 40
0.0
140
1.0
 94
        5
 62
     0
340
11
144
6.0
309
CONTENTFORMAT_END
171
     1
301
MARGIN
  1
CELLMARGIN_BEGIN
 40
1.5
 40
1.5
 40
1.5
 40
1.5
 40
4.5
 40
4.5
309
CELLMARGIN_END
 94
        6
 95
        1
302
GRIDFORMAT
  1
GRIDFORMAT_BEGIN
 90
        0
 91
        1
 62
     0
 92
       -2
340
14
 93
        0
 40
1.125
309
GRIDFORMAT_END
 95
        2
302
GRIDFORMAT
  1
GRIDFORMAT_BEGIN
 90
        0
 91
        1
 62
     0
 92
       -2
340
14
 93
        0
 40
1.125
309
GRIDFORMAT_END
 95
        4
302
GRIDFORMAT
  1
GRIDFORMAT_BEGIN
 90
        0
 91
        1
 62
     0
 92
       -2
340
14
 93
        0
 40
1.125
309
GRIDFORMAT_END
 95
        8
302
GRIDFORMAT
  1
GRIDFORMAT_BEGIN
 90
        0
 91
        1
 62
     0
 92
       -2
340
14
 93
        0
 40
1.125
309
GRIDFORMAT_END
 95
       16
302
GRIDFORMAT
  1
GRIDFORMAT_BEGIN
 90
        0
 91
        1
 62
     0
 92
       -2
340
14
 93
        0
 40
1.125
309
GRIDFORMAT_END
 95
       32
302
GRIDFORMAT
  1
GRIDFORMAT_BEGIN
 90
        0
 91
        1
 62
     0
 92
       -2
340
14
 93
        0
 40
1.125
309
GRIDFORMAT_END
309
TABLEFORMAT_END
  1
CELLSTYLE_BEGIN
 90
        1
 91
        1
300
_TITLE
309
CELLSTYLE_END
300
CELLSTYLE
  1
TABLEFORMAT_BEGIN
 90
        5
170
     1
 91
        0
 92
        0
 62
   257
 93
        1
300
CONTENTFORMAT
  1
CONTENTFORMAT_BEGIN
 90
        0
 91
        0
 92
      512
 93
        0
300

 40
0.0
140
1.0
 94
        5
 62
     0
340
11
144
4.5
309
CONTENTFORMAT_END
171
     1
301
MARGIN
  1
CELLMARGIN_BEGIN
 40
1.5
 40
1.5
 40
1.5
 40
1.5
 40
4.5
 40
4.5
309
CELLMARGIN_END
 94
        6
 95
        1
302
GRIDFORMAT
  1
GRIDFORMAT_BEGIN
 90
        0
 91
        1
 62
     0
 92
       -2
340
14
 93
        0
 40
1.125
309
GRIDFORMAT_END
 95
        2
302
GRIDFORMAT
  1
GRIDFORMAT_BEGIN
 90
        0
 91
        1
 62
     0
 92
       -2
340
14
 93
        0
 40
1.125
309
GRIDFORMAT_END
 95
        4
302
GRIDFORMAT
  1
GRIDFORMAT_BEGIN
 90
        0
 91
        1
 62
     0
 92
       -2
340
14
 93
        0
 40
1.125
309
GRIDFORMAT_END
 95
        8
302
GRIDFORMAT
  1
GRIDFORMAT_BEGIN
 90
        0
 91
        1
 62
     0
 92
       -2
340
14
 93
        0
 40
1.125
309
GRIDFORMAT_END
 95
       16
302
GRIDFORMAT
  1
GRIDFORMAT_BEGIN
 90
        0
 91
        1
 62
     0
 92
       -2
340
14
 93
        0
 40
1.125
309
GRIDFORMAT_END
 95
       32
302
GRIDFORMAT
  1
GRIDFORMAT_BEGIN
 90
        0
 91
        1
 62
     0
 92
       -2
340
14
 93
        0
 40
1.125
309
GRIDFORMAT_END
309
TABLEFORMAT_END
  1
CELLSTYLE_BEGIN
 90
        2
 91
        1
300
_HEADER
309
CELLSTYLE_END
300
CELLSTYLE
  1
TABLEFORMAT_BEGIN
 90
        5
170
     1
 91
        0
 92
        0
 62
   257
 93
        1
300
CONTENTFORMAT
  1
CONTENTFORMAT_BEGIN
 90
        0
 91
        0
 92
      512
 93
        0
300

 40
0.0
140
1.0
 94
        2
 62
     0
340
11
144
4.5
309
CONTENTFORMAT_END
171
     1
301
MARGIN
  1
CELLMARGIN_BEGIN
 40
1.5
 40
1.5
 40
1.5
 40
1.5
 40
4.5
 40
4.5
309
CELLMARGIN_END
 94
        6
 95
        1
302
GRIDFORMAT
  1
GRIDFORMAT_BEGIN
 90
        0
 91
        1
 62
     0
 92
       -2
340
14
 93
        0
 40
1.125
309
GRIDFORMAT_END
 95
        2
302
GRIDFORMAT
  1
GRIDFORMAT_BEGIN
 90
        0
 91
        1
 62
     0
 92
       -2
340
14
 93
        0
 40
1.125
309
GRIDFORMAT_END
 95
        4
302
GRIDFORMAT
  1
GRIDFORMAT_BEGIN
 90
        0
 91
        1
 62
     0
 92
       -2
340
14
 93
        0
 40
1.125
309
GRIDFORMAT_END
 95
        8
302
GRIDFORMAT
  1
GRIDFORMAT_BEGIN
 90
        0
 91
        1
 62
     0
 92
       -2
340
14
 93
        0
 40
1.125
309
GRIDFORMAT_END
 95
       16
302
GRIDFORMAT
  1
GRIDFORMAT_BEGIN
 90
        0
 91
        1
 62
     0
 92
       -2
340
14
 93
        0
 40
1.125
309
GRIDFORMAT_END
 95
       32
302
GRIDFORMAT
  1
GRIDFORMAT_BEGIN
 90
        0
 91
        1
 62
     0
 92
       -2
340
14
 93
        0
 40
1.125
309
GRIDFORMAT_END
309
TABLEFORMAT_END
  1
CELLSTYLE_BEGIN
 90
        3
 91
        2
300
_DATA
309
CELLSTYLE_END
  0
ENDSEC
  0
SECTION
  2
ACDSDATA
 70
     2
 71
     8
  0
ACDSSCHEMA
 90
        0
  1
AcDb_Thumbnail_Schema
  2
AcDbDs::ID
280
    10
 91
        8
  2
Thumbnail_Data
280
    15
 91
        0
101
ACDSRECORD
 95
        0
 90
        1
  2
AcDbDs::TreatedAsObjectData
280
     1
291
     1
101
ACDSRECORD
 95
        0
 90
        2
  2
AcDbDs::Legacy
280
     1
291
     1
101
ACDSRECORD
  1
AcDbDs::ID
 90
        3
  2
AcDs:Indexable
280
     1
291
     1
101
ACDSRECORD
  1
AcDbDs::ID
 90
        4
  2
AcDbDs::HandleAttribute
280
     7
282
     1
  0
ACDSSCHEMA
 90
        1
  1
AcDbDs::TreatedAsObjectDataSchema
  2
AcDbDs::TreatedAsObjectData
280
     1
 91
        0
  0
ACDSSCHEMA
 90
        2
  1
AcDbDs::LegacySchema
  2
AcDbDs::Legacy
280
     1
 91
        0
  0
ACDSSCHEMA
 90
        3
  1
AcDbDs::IndexedPropertySchema
  2
AcDs:Indexable
280
     1
 91
        0
  0
ACDSSCHEMA
 90
        4
  1
AcDbDs::HandleAttributeSchema
  2
AcDbDs::HandleAttribute
280
     7
 91
        1
284
     1
  0
ACDSRECORD
 90
        0
  2
AcDbDs::ID
280
    10
320
22
  2
Thumbnail_Data
280
    15
 94
      896
310
89504E470D0A1A0A0000000D49484452000001000000009108030000001BE1960600000300504C5445212830FFFFFF2128300000000000000000000000000000000000000000000000000000330000660000990000CC0000FF0033000033330033660033990033CC0033FF0066000066330066660066990066CC0066FF0099
310
000099330099660099990099CC0099FF00CC0000CC3300CC6600CC9900CCCC00CCFF00FF0000FF3300FF6600FF9900FFCC00FFFF3300003300333300663300993300CC3300FF3333003333333333663333993333CC3333FF3366003366333366663366993366CC3366FF3399003399333399663399993399CC3399FF33CC00
310
33CC3333CC6633CC9933CCCC33CCFF33FF0033FF3333FF6633FF9933FFCC33FFFF6600006600336600666600996600CC6600FF6633006633336633666633996633CC6633FF6666006666336666666666996666CC6666FF6699006699336699666699996699CC6699FF66CC0066CC3366CC6666CC9966CCCC66CCFF66FF0066
310
FF3366FF6666FF9966FFCC66FFFF9900009900339900669900999900CC9900FF9933009933339933669933999933CC9933FF9966009966339966669966999966CC9966FF9999009999339999669999999999CC9999FF99CC0099CC3399CC6699CC9999CCCC99CCFF99FF0099FF3399FF6699FF9999FFCC99FFFFCC0000CC00
310
33CC0066CC0099CC00CCCC00FFCC3300CC3333CC3366CC3399CC33CCCC33FFCC6600CC6633CC6666CC6699CC66CCCC66FFCC9900CC9933CC9966CC9999CC99CCCC99FFCCCC00CCCC33CCCC66CCCC99CCCCCCCCCCFFCCFF00CCFF33CCFF66CCFF99CCFFCCCCFFFFFF0000FF0033FF0066FF0099FF00CCFF00FFFF3300FF3333
310
FF3366FF3399FF33CCFF33FFFF6600FF6633FF6666FF6699FF66CCFF66FFFF9900FF9933FF9966FF9999FF99CCFF99FFFFCC00FFCC33FFCC66FFCC99FFCCCCFFCCFFFFFF00FFFF33FFFF66FFFF99FFFFCCFFFFFF0000000D0D0D1A1A1A2828283535354343435050505D5D5D6B6B6B787878868686939393A1A1A1AEAEAEBB
310
BBBBC9C9C9D6D6D6E4E4E4F1F1F1FFFFFF0000000000000000000000000000000000000000000000000000000000002E4550F10000003B4944415478DAEDC13101000000C2A0F54F6D0B2FA0000000000000000000000000000000000000000000000000000000000000000000000000CE06919100016C9A5B1B0000000049
310
454E44AE426082
  0
ENDSEC
  0
EOF
