  0
SECTION
  2
HEADER
  9
$ACADVER
  1
AC1027
  9
$ACADMAINTVER
 70
   125
  9
$DWGCODEPAGE
  3
ANSI_1252
  9
$LASTSAVEDBY
  1
andrea.ragusa
  9
$REQUIREDVERSIONS
160
                 0
  9
$INSBASE
 10
0.0
 20
0.0
 30
0.0
  9
$EXTMIN
 10
0.1794443374726597
 20
0.0135962725775016
 30
-0.0015258207003583
  9
$EXTMAX
 10
15.07965138540567
 20
22.8315128235048
 30
0.0000000349246037
  9
$LIMMIN
 10
0.0
 20
0.0
  9
$LIMMAX
 10
420.0
 20
297.0
  9
$ORTHOMODE
 70
     0
  9
$REGENMODE
 70
     1
  9
$FILLMODE
 70
     1
  9
$QTEXTMODE
 70
     0
  9
$MIRRTEXT
 70
     0
  9
$LTSCALE
 40
1.0
  9
$ATTMODE
 70
     1
  9
$TEXTSIZE
 40
2.5
  9
$TRACEWID
 40
1.0
  9
$TEXTSTYLE
  7
Standard
  9
$CLAYER
  8
0
  9
$CELTYPE
  6
ByLayer
  9
$CECOLOR
 62
   256
  9
$CELTSCALE
 40
1.0
  9
$DISPSILH
 70
     0
  9
$DIMSCALE
 40
1.0
  9
$DIMASZ
 40
2.5
  9
$DIMEXO
 40
0.625
  9
$DIMDLI
 40
3.75
  9
$DIMRND
 40
0.0
  9
$DIMDLE
 40
0.0
  9
$DIMEXE
 40
1.25
  9
$DIMTP
 40
0.0
  9
$DIMTM
 40
0.0
  9
$DIMTXT
 40
2.5
  9
$DIMCEN
 40
2.5
  9
$DIMTSZ
 40
0.0
  9
$DIMTOL
 70
     0
  9
$DIMLIM
 70
     0
  9
$DIMTIH
 70
     0
  9
$DIMTOH
 70
     0
  9
$DIMSE1
 70
     0
  9
$DIMSE2
 70
     0
  9
$DIMTAD
 70
     1
  9
$DIMZIN
 70
     8
  9
$DIMBLK
  1

  9
$DIMASO
 70
     1
  9
$DIMSHO
 70
     1
  9
$DIMPOST
  1

  9
$DIMAPOST
  1

  9
$DIMALT
 70
     0
  9
$DIMALTD
 70
     3
  9
$DIMALTF
 40
0.03937007874016
  9
$DIMLFAC
 40
1.0
  9
$DIMTOFL
 70
     1
  9
$DIMTVP
 40
0.0
  9
$DIMTIX
 70
     0
  9
$DIMSOXD
 70
     0
  9
$DIMSAH
 70
     0
  9
$DIMBLK1
  1

  9
$DIMBLK2
  1

  9
$DIMSTYLE
  2
ISO-25
  9
$DIMCLRD
 70
     0
  9
$DIMCLRE
 70
     0
  9
$DIMCLRT
 70
     0
  9
$DIMTFAC
 40
1.0
  9
$DIMGAP
 40
0.625
  9
$DIMJUST
 70
     0
  9
$DIMSD1
 70
     0
  9
$DIMSD2
 70
     0
  9
$DIMTOLJ
 70
     0
  9
$DIMTZIN
 70
     8
  9
$DIMALTZ
 70
     0
  9
$DIMALTTZ
 70
     0
  9
$DIMUPT
 70
     0
  9
$DIMDEC
 70
     2
  9
$DIMTDEC
 70
     2
  9
$DIMALTU
 70
     2
  9
$DIMALTTD
 70
     3
  9
$DIMTXSTY
  7
Standard
  9
$DIMAUNIT
 70
     0
  9
$DIMADEC
 70
     0
  9
$DIMALTRND
 40
0.0
  9
$DIMAZIN
 70
     0
  9
$DIMDSEP
 70
    44
  9
$DIMATFIT
 70
     3
  9
$DIMFRAC
 70
     0
  9
$DIMLDRBLK
  1

  9
$DIMLUNIT
 70
     2
  9
$DIMLWD
 70
    -2
  9
$DIMLWE
 70
    -2
  9
$DIMTMOVE
 70
     0
  9
$DIMFXL
 40
1.0
  9
$DIMFXLON
 70
     0
  9
$DIMJOGANG
 40
0.7853981633974483
  9
$DIMTFILL
 70
     0
  9
$DIMTFILLCLR
 70
     0
  9
$DIMARCSYM
 70
     0
  9
$DIMLTYPE
  6

  9
$DIMLTEX1
  6

  9
$DIMLTEX2
  6

  9
$DIMTXTDIRECTION
 70
     0
  9
$LUNITS
 70
     2
  9
$LUPREC
 70
     4
  9
$SKETCHINC
 40
1.0
  9
$FILLETRAD
 40
0.0
  9
$AUNITS
 70
     0
  9
$AUPREC
 70
     0
  9
$MENU
  1
.
  9
$ELEVATION
 40
0.0
  9
$PELEVATION
 40
0.0
  9
$THICKNESS
 40
0.0
  9
$LIMCHECK
 70
     0
  9
$CHAMFERA
 40
0.0
  9
$CHAMFERB
 40
0.0
  9
$CHAMFERC
 40
0.0
  9
$CHAMFERD
 40
0.0
  9
$SKPOLY
 70
     0
  9
$TDCREATE
 40
2459020.494386574
  9
$TDUCREATE
 40
2459020.411053241
  9
$TDUPDATE
 40
2459020.494571759
  9
$TDUUPDATE
 40
2459020.411238426
  9
$TDINDWG
 40
0.0001851852
  9
$TDUSRTIMER
 40
0.0001851852
  9
$USRTIMER
 70
     1
  9
$ANGBASE
 50
0.0
  9
$ANGDIR
 70
     0
  9
$PDMODE
 70
     0
  9
$PDSIZE
 40
0.0
  9
$PLINEWID
 40
0.0
  9
$SPLFRAME
 70
     0
  9
$SPLINETYPE
 70
     6
  9
$SPLINESEGS
 70
     8
  9
$HANDSEED
  5
5FB
  9
$SURFTAB1
 70
     6
  9
$SURFTAB2
 70
     6
  9
$SURFTYPE
 70
     6
  9
$SURFU
 70
     6
  9
$SURFV
 70
     6
  9
$UCSBASE
  2

  9
$UCSNAME
  2

  9
$UCSORG
 10
0.0
 20
0.0
 30
0.0
  9
$UCSXDIR
 10
1.0
 20
0.0
 30
0.0
  9
$UCSYDIR
 10
0.0
 20
1.0
 30
0.0
  9
$UCSORTHOREF
  2

  9
$UCSORTHOVIEW
 70
     0
  9
$UCSORGTOP
 10
0.0
 20
0.0
 30
0.0
  9
$UCSORGBOTTOM
 10
0.0
 20
0.0
 30
0.0
  9
$UCSORGLEFT
 10
0.0
 20
0.0
 30
0.0
  9
$UCSORGRIGHT
 10
0.0
 20
0.0
 30
0.0
  9
$UCSORGFRONT
 10
0.0
 20
0.0
 30
0.0
  9
$UCSORGBACK
 10
0.0
 20
0.0
 30
0.0
  9
$PUCSBASE
  2

  9
$PUCSNAME
  2

  9
$PUCSORG
 10
0.0
 20
0.0
 30
0.0
  9
$PUCSXDIR
 10
1.0
 20
0.0
 30
0.0
  9
$PUCSYDIR
 10
0.0
 20
1.0
 30
0.0
  9
$PUCSORTHOREF
  2

  9
$PUCSORTHOVIEW
 70
     0
  9
$PUCSORGTOP
 10
0.0
 20
0.0
 30
0.0
  9
$PUCSORGBOTTOM
 10
0.0
 20
0.0
 30
0.0
  9
$PUCSORGLEFT
 10
0.0
 20
0.0
 30
0.0
  9
$PUCSORGRIGHT
 10
0.0
 20
0.0
 30
0.0
  9
$PUCSORGFRONT
 10
0.0
 20
0.0
 30
0.0
  9
$PUCSORGBACK
 10
0.0
 20
0.0
 30
0.0
  9
$USERI1
 70
     0
  9
$USERI2
 70
     0
  9
$USERI3
 70
     0
  9
$USERI4
 70
     0
  9
$USERI5
 70
     0
  9
$USERR1
 40
0.0
  9
$USERR2
 40
0.0
  9
$USERR3
 40
0.0
  9
$USERR4
 40
0.0
  9
$USERR5
 40
0.0
  9
$WORLDVIEW
 70
     1
  9
$SHADEDGE
 70
     3
  9
$SHADEDIF
 70
    70
  9
$TILEMODE
 70
     1
  9
$MAXACTVP
 70
    64
  9
$PINSBASE
 10
0.0
 20
0.0
 30
0.0
  9
$PLIMCHECK
 70
     0
  9
$PEXTMIN
 10
0.0
 20
0.0
 30
0.0
  9
$PEXTMAX
 10
0.0
 20
0.0
 30
0.0
  9
$PLIMMIN
 10
0.0
 20
0.0
  9
$PLIMMAX
 10
12.0
 20
9.0
  9
$UNITMODE
 70
     0
  9
$VISRETAIN
 70
     1
  9
$PLINEGEN
 70
     0
  9
$PSLTSCALE
 70
     1
  9
$TREEDEPTH
 70
  3020
  9
$CMLSTYLE
  2
Standard
  9
$CMLJUST
 70
     0
  9
$CMLSCALE
 40
20.0
  9
$PROXYGRAPHICS
 70
     1
  9
$MEASUREMENT
 70
     1
  9
$CELWEIGHT
370
    -1
  9
$ENDCAPS
280
     0
  9
$JOINSTYLE
280
     0
  9
$LWDISPLAY
290
     0
  9
$INSUNITS
 70
     4
  9
$HYPERLINKBASE
  1

  9
$STYLESHEET
  1

  9
$XEDIT
290
     1
  9
$CEPSNTYPE
380
     0
  9
$PSTYLEMODE
290
     1
  9
$FINGERPRINTGUID
  2
{91AF4408-36AE-364C-80EB-963B721B2015}
  9
$VERSIONGUID
  2
{38214C7E-E04A-294D-B136-372185A0F876}
  9
$EXTNAMES
290
     1
  9
$PSVPSCALE
 40
0.0
  9
$OLESTARTUP
290
     0
  9
$SORTENTS
280
   127
  9
$INDEXCTL
280
     0
  9
$HIDETEXT
280
     1
  9
$XCLIPFRAME
280
     2
  9
$HALOGAP
280
     0
  9
$OBSCOLOR
 70
   257
  9
$OBSLTYPE
280
     0
  9
$INTERSECTIONDISPLAY
280
     0
  9
$INTERSECTIONCOLOR
 70
   257
  9
$DIMASSOC
280
     2
  9
$PROJECTNAME
  1

  9
$CAMERADISPLAY
290
     0
  9
$LENSLENGTH
 40
50.0
  9
$CAMERAHEIGHT
 40
0.0
  9
$STEPSPERSEC
 40
2.0
  9
$STEPSIZE
 40
6.0
  9
$3DDWFPREC
 40
2.0
  9
$PSOLWIDTH
 40
5.0
  9
$PSOLHEIGHT
 40
80.0
  9
$LOFTANG1
 40
1.570796326794896
  9
$LOFTANG2
 40
1.570796326794896
  9
$LOFTMAG1
 40
0.0
  9
$LOFTMAG2
 40
0.0
  9
$LOFTPARAM
 70
     7
  9
$LOFTNORMALS
280
     1
  9
$LATITUDE
 40
37.795
  9
$LONGITUDE
 40
-122.394
  9
$NORTHDIRECTION
 40
0.0
  9
$TIMEZONE
 70
 -8000
  9
$LIGHTGLYPHDISPLAY
280
     1
  9
$TILEMODELIGHTSYNCH
280
     1
  9
$CMATERIAL
347
EC
  9
$SOLIDHIST
280
     0
  9
$SHOWHIST
280
     1
  9
$DWFFRAME
280
     2
  9
$DGNFRAME
280
     0
  9
$REALWORLDSCALE
290
     1
  9
$INTERFERECOLOR
 62
     1
  9
$INTERFEREOBJVS
345
F9
  9
$INTERFEREVPVS
346
F6
  9
$CSHADOW
280
     0
  9
$SHADOWPLANELOCATION
 40
0.0
  0
ENDSEC
  0
SECTION
  2
CLASSES
  0
CLASS
  1
ACDBDICTIONARYWDFLT
  2
AcDbDictionaryWithDefault
  3
ObjectDBX Classes
 90
        0
 91
        1
280
     0
281
     0
  0
CLASS
  1
DICTIONARYVAR
  2
AcDbDictionaryVar
  3
ObjectDBX Classes
 90
        0
 91
       11
280
     0
281
     0
  0
CLASS
  1
TABLESTYLE
  2
AcDbTableStyle
  3
ObjectDBX Classes
 90
     4095
 91
        1
280
     0
281
     0
  0
CLASS
  1
MATERIAL
  2
AcDbMaterial
  3
ObjectDBX Classes
 90
     1153
 91
        3
280
     0
281
     0
  0
CLASS
  1
VISUALSTYLE
  2
AcDbVisualStyle
  3
ObjectDBX Classes
 90
     4095
 91
       24
280
     0
281
     0
  0
CLASS
  1
SCALE
  2
AcDbScale
  3
ObjectDBX Classes
 90
     1153
 91
       17
280
     0
281
     0
  0
CLASS
  1
MLEADERSTYLE
  2
AcDbMLeaderStyle
  3
ACDB_MLEADERSTYLE_CLASS
 90
     4095
 91
        2
280
     0
281
     0
  0
CLASS
  1
CELLSTYLEMAP
  2
AcDbCellStyleMap
  3
ObjectDBX Classes
 90
     1152
 91
        1
280
     0
281
     0
  0
CLASS
  1
EXACXREFPANELOBJECT
  2
ExAcXREFPanelObject
  3
EXAC_ESW
 90
     1025
 91
        0
280
     0
281
     0
  0
CLASS
  1
NPOCOLLECTION
  2
AcDbImpNonPersistentObjectsCollection
  3
ObjectDBX Classes
 90
     1153
 91
        0
280
     0
281
     0
  0
CLASS
  1
LAYER_INDEX
  2
AcDbLayerIndex
  3
ObjectDBX Classes
 90
        0
 91
        0
280
     0
281
     0
  0
CLASS
  1
SPATIAL_INDEX
  2
AcDbSpatialIndex
  3
ObjectDBX Classes
 90
        0
 91
        0
280
     0
281
     0
  0
CLASS
  1
IDBUFFER
  2
AcDbIdBuffer
  3
ObjectDBX Classes
 90
        0
 91
        0
280
     0
281
     0
  0
CLASS
  1
ACDBSECTIONVIEWSTYLE
  2
AcDbSectionViewStyle
  3
ObjectDBX Classes
 90
     1025
 91
        2
280
     0
281
     0
  0
CLASS
  1
ACDBDETAILVIEWSTYLE
  2
AcDbDetailViewStyle
  3
ObjectDBX Classes
 90
     1025
 91
        2
280
     0
281
     0
  0
CLASS
  1
SORTENTSTABLE
  2
AcDbSortentsTable
  3
ObjectDBX Classes
 90
        0
 91
        1
280
     0
281
     0
  0
ENDSEC
  0
SECTION
  2
TABLES
  0
TABLE
  2
VPORT
  5
8
330
0
100
AcDbSymbolTable
 70
     1
1001
ACAD
1000
DbSaveVer
1071
      208
  0
VPORT
  5
EA
330
8
100
AcDbSymbolTableRecord
100
AcDbViewportTableRecord
  2
*Active
 70
     0
 10
0.0
 20
0.0
 11
1.0
 21
1.0
 12
7.629547861439164
 22
11.42255454804115
 13
0.0
 23
0.0
 14
10.0
 24
10.0
 15
10.0
 25
10.0
 16
0.0
 26
0.0
 36
1.0
 17
0.0
 27
0.0
 37
0.0
 40
23.02919355602847
 41
2.452859350850077
 42
50.0
 43
0.0
 44
0.0
 50
0.0
 51
0.0
 71
     0
 72
  1000
 73
     1
 74
     3
 75
     0
 76
     1
 77
     0
 78
     0
281
     0
 65
     1
110
0.0
120
0.0
130
0.0
111
1.0
121
0.0
131
0.0
112
0.0
122
1.0
132
0.0
 79
     0
146
0.0
348
F5
 60
     3
 61
     5
292
     1
282
     1
141
0.0
142
0.0
 63
   250
421
  3355443
1001
ACAD_NAV_VCDISPLAY
1070
     3
  0
ENDTAB
  0
TABLE
  2
LTYPE
  5
5
330
0
100
AcDbSymbolTable
 70
     1
  0
LTYPE
  5
14
330
5
100
AcDbSymbolTableRecord
100
AcDbLinetypeTableRecord
  2
ByBlock
 70
     0
  3

 72
    65
 73
     0
 40
0.0
  0
LTYPE
  5
15
330
5
100
AcDbSymbolTableRecord
100
AcDbLinetypeTableRecord
  2
ByLayer
 70
     0
  3

 72
    65
 73
     0
 40
0.0
  0
LTYPE
  5
16
330
5
100
AcDbSymbolTableRecord
100
AcDbLinetypeTableRecord
  2
Continuous
 70
     0
  3
Solid line
 72
    65
 73
     0
 40
0.0
  0
ENDTAB
  0
TABLE
  2
LAYER
  5
2
102
{ACAD_XDICTIONARY
360
1FF
102
}
330
0
100
AcDbSymbolTable
 70
     2
  0
LAYER
  5
10
102
{ACAD_XDICTIONARY
360
13C
102
}
330
2
100
AcDbSymbolTableRecord
100
AcDbLayerTableRecord
  2
0
 70
     0
 62
     7
  6
Continuous
370
    -3
390
F
347
EE
348
0
  0
LAYER
  5
28C
330
2
100
AcDbSymbolTableRecord
100
AcDbLayerTableRecord
  2
Livello 1
 70
     0
 62
     7
  6
Continuous
370
    -3
390
F
347
EE
348
0
  0
ENDTAB
  0
TABLE
  2
STYLE
  5
3
330
0
100
AcDbSymbolTable
 70
     3
  0
STYLE
  5
11
330
3
100
AcDbSymbolTableRecord
100
AcDbTextStyleTableRecord
  2
Standard
 70
     0
 40
0.0
 41
1.0
 50
0.0
 71
     0
 42
2.5
  3
arial.ttf
  4

1001
ACAD
1000
Arial
1071
       34
  0
STYLE
  5
132
330
3
100
AcDbSymbolTableRecord
100
AcDbTextStyleTableRecord
  2
Annotativa
 70
     0
 40
0.0
 41
1.0
 50
0.0
 71
     0
 42
2.5
  3
arial.ttf
  4

1001
AcadAnnotative
1000
AnnotativeData
1002
{
1070
     1
1070
     1
1002
}
1001
ACAD
1000
Arial
1071
       34
  0
STYLE
  5
28D
330
3
100
AcDbSymbolTableRecord
100
AcDbTextStyleTableRecord
  2
MtXpl_Source_Sans_Pr
 70
     0
 40
0.0
 41
1.0
 50
0.0
 71
     0
 42
0.2
  3

  4

1001
ACAD
1000
Source Sans Pro Light
1071
       34
  0
ENDTAB
  0
TABLE
  2
VIEW
  5
6
330
0
100
AcDbSymbolTable
 70
     0
  0
ENDTAB
  0
TABLE
  2
UCS
  5
7
330
0
100
AcDbSymbolTable
 70
     0
  0
ENDTAB
  0
TABLE
  2
APPID
  5
9
330
0
100
AcDbSymbolTable
 70
     8
  0
APPID
  5
12
330
9
100
AcDbSymbolTableRecord
100
AcDbRegAppTableRecord
  2
ACAD
 70
     0
  0
APPID
  5
9E
330
9
100
AcDbSymbolTableRecord
100
AcDbRegAppTableRecord
  2
ACAD_PSEXT
 70
     0
  0
APPID
  5
133
330
9
100
AcDbSymbolTableRecord
100
AcDbRegAppTableRecord
  2
AcadAnnoPO
 70
     0
  0
APPID
  5
134
330
9
100
AcDbSymbolTableRecord
100
AcDbRegAppTableRecord
  2
AcadAnnotative
 70
     0
  0
APPID
  5
135
330
9
100
AcDbSymbolTableRecord
100
AcDbRegAppTableRecord
  2
ACAD_DSTYLE_DIMJAG
 70
     0
  0
APPID
  5
136
330
9
100
AcDbSymbolTableRecord
100
AcDbRegAppTableRecord
  2
ACAD_DSTYLE_DIMTALN
 70
     0
  0
APPID
  5
165
330
9
100
AcDbSymbolTableRecord
100
AcDbRegAppTableRecord
  2
ACAD_MLEADERVER
 70
     0
  0
APPID
  5
217
330
9
100
AcDbSymbolTableRecord
100
AcDbRegAppTableRecord
  2
ACAD_NAV_VCDISPLAY
 70
     0
  0
ENDTAB
  0
TABLE
  2
DIMSTYLE
  5
A
330
0
100
AcDbSymbolTable
 70
     3
100
AcDbDimStyleTable
 71
     2
340
27
340
137
  0
DIMSTYLE
105
1B0
330
A
100
AcDbSymbolTableRecord
100
AcDbDimStyleTableRecord
  2
Standard
 70
     0
340
11
  0
DIMSTYLE
105
137
330
A
100
AcDbSymbolTableRecord
100
AcDbDimStyleTableRecord
  2
Annotativa
 70
     0
 40
0.0
 41
2.5
 42
0.625
 43
3.75
 44
1.25
 73
     0
 74
     0
 77
     1
 78
     8
140
2.5
141
2.5
143
0.03937007874016
147
0.625
171
     3
172
     1
271
     2
272
     2
274
     3
278
    44
283
     0
284
     8
340
11
1001
AcadAnnotative
1000
AnnotativeData
1002
{
1070
     1
1070
     1
1002
}
1001
ACAD_DSTYLE_DIMJAG
1070
   388
1040
1.5
1001
ACAD_DSTYLE_DIMTALN
1070
   392
1070
     0
  0
DIMSTYLE
105
27
330
A
100
AcDbSymbolTableRecord
100
AcDbDimStyleTableRecord
  2
ISO-25
 70
     0
 41
2.5
 42
0.625
 43
3.75
 44
1.25
 73
     0
 74
     0
 77
     1
 78
     8
140
2.5
141
2.5
143
0.03937007874016
147
0.625
171
     3
172
     1
271
     2
272
     2
274
     3
278
    44
283
     0
284
     8
340
11
  0
ENDTAB
  0
TABLE
  2
BLOCK_RECORD
  5
1
330
0
100
AcDbSymbolTable
 70
     2
  0
BLOCK_RECORD
  5
1F
102
{ACAD_XDICTIONARY
360
1CE
102
}
330
1
100
AcDbSymbolTableRecord
100
AcDbBlockTableRecord
  2
*Model_Space
340
22
 70
     0
280
     1
281
     0
  0
BLOCK_RECORD
  5
D2
330
1
100
AcDbSymbolTableRecord
100
AcDbBlockTableRecord
  2
*Paper_Space
340
D3
 70
     0
280
     1
281
     0
  0
BLOCK_RECORD
  5
D6
330
1
100
AcDbSymbolTableRecord
100
AcDbBlockTableRecord
  2
*Paper_Space0
340
D7
 70
     0
280
     1
281
     0
  0
ENDTAB
  0
ENDSEC
  0
SECTION
  2
BLOCKS
  0
BLOCK
  5
20
330
1F
100
AcDbEntity
  8
0
100
AcDbBlockBegin
  2
*Model_Space
 70
     0
 10
0.0
 20
0.0
 30
0.0
  3
*Model_Space
  1

  0
ENDBLK
  5
21
330
1F
100
AcDbEntity
  8
0
100
AcDbBlockEnd
  0
BLOCK
  5
D4
330
D2
100
AcDbEntity
 67
     1
  8
0
100
AcDbBlockBegin
  2
*Paper_Space
 70
     0
 10
0.0
 20
0.0
 30
0.0
  3
*Paper_Space
  1

  0
ENDBLK
  5
D5
330
D2
100
AcDbEntity
 67
     1
  8
0
100
AcDbBlockEnd
  0
BLOCK
  5
D8
330
D6
100
AcDbEntity
 67
     1
  8
0
100
AcDbBlockBegin
  2
*Paper_Space0
 70
     0
 10
0.0
 20
0.0
 30
0.0
  3
*Paper_Space0
  1

  0
ENDBLK
  5
D9
330
D6
100
AcDbEntity
 67
     1
  8
0
100
AcDbBlockEnd
  0
ENDSEC
  0
SECTION
  2
ENTITIES
  0
LINE
  5
440
330
1F
100
AcDbEntity
  8
Livello 1
100
AcDbLine
 10
11.07246581263246
 20
6.531324056184061
 30
0.0
 11
11.07246581263246
 21
2.488488355358271
 31
0.0
  0
LINE
  5
441
330
1F
100
AcDbEntity
  8
Livello 1
100
AcDbLine
 10
9.995860016087632
 20
11.86387969856838
 30
0.0
 11
0.5943317023640873
 21
11.86387969856838
 31
0.0
  0
TEXT
  5
442
330
1F
100
AcDbEntity
  8
Livello 1
100
AcDbText
 10
14.17266565134082
 20
0.034498708944497
 30
0.0
 40
2.123016666135912
  1
71 mm
 50
90.00000000000003
  7
MtXpl_Source_Sans_Pr
100
AcDbText
  0
TEXT
  5
443
330
1F
100
AcDbEntity
  8
Livello 1
100
AcDbText
 10
0.2101108104980653
 20
8.763570854885713
 30
0.0
 40
2.123016666135912
  1
144 mm
  7
MtXpl_Source_Sans_Pr
100
AcDbText
  0
SPLINE
  5
444
330
1F
100
AcDbEntity
  8
Livello 1
100
AcDbSpline
210
0.0
220
0.0
230
1.0
 70
    11
 71
     3
 72
    17
 73
    13
 74
     0
 42
0.000000001
 43
0.0000000001
 40
0.0
 40
0.0
 40
0.0
 40
0.0
 40
1.0
 40
1.0
 40
1.0
 40
2.0
 40
2.0
 40
2.0
 40
3.0
 40
3.0
 40
3.0
 40
4.0
 40
4.0
 40
4.0
 40
4.0
 10
5.17628043719749
 20
13.11893523839093
 30
0.0
 10
2.49869705070391
 20
13.11893523839093
 30
0.0
 10
0.3199406128873363
 20
15.29733370925473
 30
0.0
 10
0.3199406128873363
 20
17.97492113296951
 30
0.0
 10
0.3199406128873363
 20
20.65250317372269
 30
0.0
 10
2.49869705070391
 20
22.83125692005842
 30
0.0
 10
5.17628043719749
 20
22.83125692005842
 30
0.0
 10
7.853863823691028
 20
22.83125692005842
 30
0.0
 10
10.03261757002674
 20
20.65250317372269
 30
0.0
 10
10.03261757002674
 20
17.97492113296951
 30
0.0
 10
10.03261757002674
 20
15.29733370925473
 30
0.0
 10
7.853863823691028
 20
13.11893523839093
 30
0.0
 10
5.17628043719749
 20
13.11893523839093
 30
0.0
  0
SPLINE
  5
445
330
1F
100
AcDbEntity
  8
Livello 1
100
AcDbSpline
210
0.0
220
0.0
230
1.0
 70
     9
 71
     3
 72
    17
 73
    13
 74
     0
 42
0.000000001
 43
0.0000000001
 40
0.0
 40
0.0
 40
0.0
 40
0.0
 40
1.0
 40
1.0
 40
1.0
 40
2.0
 40
2.0
 40
2.0
 40
3.0
 40
3.0
 40
3.0
 40
4.0
 40
4.0
 40
4.0
 40
4.0
 10
5.17628043719749
 20
22.72613306110304
 30
0.0
 10
2.556551777268907
 20
22.72613306110304
 30
0.0
 10
0.4250685090639763
 20
20.59464710141726
 30
0.0
 10
0.4250685090639763
 20
17.97492113296951
 30
0.0
 10
0.4250685090639763
 20
15.35518978156012
 30
0.0
 10
2.556551777268907
 20
13.22370920483602
 30
0.0
 10
5.17628043719749
 20
13.22370920483602
 30
0.0
 10
7.796007751385602
 20
13.22370920483602
 30
0.0
 10
9.927491019590533
 20
15.35518978156012
 30
0.0
 10
9.927491019590533
 20
17.97492113296951
 30
0.0
 10
9.927491019590533
 20
20.59464710141726
 30
0.0
 10
7.796007751385602
 20
22.72613306110304
 30
0.0
 10
5.17628043719749
 20
22.72613306110304
 30
0.0
  0
SPLINE
  5
446
330
1F
100
AcDbEntity
  8
Livello 1
100
AcDbSpline
210
0.0
220
0.0
230
1.0
 70
     9
 71
     3
 72
    17
 73
    13
 74
     0
 42
0.000000001
 43
0.0000000001
 40
0.0
 40
0.0
 40
0.0
 40
0.0
 40
1.0
 40
1.0
 40
1.0
 40
2.0
 40
2.0
 40
2.0
 40
3.0
 40
3.0
 40
3.0
 40
4.0
 40
4.0
 40
4.0
 40
4.0
 10
5.17628043719749
 20
14.41970101734902
 30
0.0
 10
3.21589326075005
 20
14.41970101734902
 30
0.0
 10
1.620984960113204
 20
16.01460797224543
 30
0.0
 10
1.620984960113204
 20
17.97499111147162
 30
0.0
 10
1.620984960113204
 20
19.93537963365945
 30
0.0
 10
3.21589326075005
 20
21.53028658855588
 30
0.0
 10
5.17628043719749
 20
21.53028658855588
 30
0.0
 10
7.136666267904487
 20
21.53028658855588
 30
0.0
 10
8.731574568541347
 20
19.93537963365945
 30
0.0
 10
8.731574568541347
 20
17.97499111147162
 30
0.0
 10
8.731574568541347
 20
16.01460797224543
 30
0.0
 10
7.136666267904487
 20
14.41970101734902
 30
0.0
 10
5.17628043719749
 20
14.41970101734902
 30
0.0
  0
SPLINE
  5
447
330
1F
100
AcDbEntity
  8
Livello 1
100
AcDbSpline
210
0.0
220
0.0
230
1.0
 70
     9
 71
     3
 72
    17
 73
    13
 74
     0
 42
0.000000001
 43
0.0000000001
 40
0.0
 40
0.0
 40
0.0
 40
0.0
 40
1.0
 40
1.0
 40
1.0
 40
2.0
 40
2.0
 40
2.0
 40
3.0
 40
3.0
 40
3.0
 40
4.0
 40
4.0
 40
4.0
 40
4.0
 10
5.17628043719749
 20
21.42516272960047
 30
0.0
 10
3.273749333055462
 20
21.42516272960047
 30
0.0
 10
1.726112856289887
 20
19.87752356135405
 30
0.0
 10
1.726112856289887
 20
17.97499111147162
 30
0.0
 10
1.726112856289887
 20
16.07246404455082
 30
0.0
 10
3.273749333055462
 20
14.52482487630443
 30
0.0
 10
5.17628043719749
 20
14.52482487630443
 30
0.0
 10
7.078810195599089
 20
14.52482487630443
 30
0.0
 10
8.626445326624249
 20
16.07246404455082
 30
0.0
 10
8.626445326624249
 20
17.97499111147162
 30
0.0
 10
8.626445326624249
 20
19.87752356135405
 30
0.0
 10
7.078810195599089
 20
21.42516272960047
 30
0.0
 10
5.17628043719749
 20
21.42516272960047
 30
0.0
  0
SPLINE
  5
448
330
1F
100
AcDbEntity
  8
Livello 1
100
AcDbSpline
210
0.0
220
0.0
230
1.0
 70
     9
 71
     3
 72
    17
 73
    13
 74
     0
 42
0.000000001
 43
0.0000000001
 40
0.0
 40
0.0
 40
0.0
 40
0.0
 40
1.0
 40
1.0
 40
1.0
 40
2.0
 40
2.0
 40
2.0
 40
3.0
 40
3.0
 40
3.0
 40
4.0
 40
4.0
 40
4.0
 40
4.0
 10
5.17628043719749
 20
14.71991417408003
 30
0.0
 10
3.38134666290999
 20
14.71991417408003
 30
0.0
 10
1.921199462584695
 20
16.18005868292452
 30
0.0
 10
1.921199462584695
 20
17.97499649443333
 30
0.0
 10
1.921199462584695
 20
19.76957364750839
 30
0.0
 10
3.38134666290999
 20
21.2300734318248
 30
0.0
 10
5.17628043719749
 20
21.2300734318248
 30
0.0
 10
6.971212865744519
 20
21.2300734318248
 30
0.0
 10
8.431358720329427
 20
19.76957364750839
 30
0.0
 10
8.431358720329427
 20
17.97499649443333
 30
0.0
 10
8.431358720329427
 20
16.18005868292452
 30
0.0
 10
6.971212865744519
 20
14.71991417408003
 30
0.0
 10
5.17628043719749
 20
14.71991417408003
 30
0.0
  0
SPLINE
  5
449
330
1F
100
AcDbEntity
  8
Livello 1
100
AcDbSpline
210
0.0
220
0.0
230
1.0
 70
    11
 71
     3
 72
    17
 73
    13
 74
     0
 42
0.000000001
 43
0.0000000001
 40
0.0
 40
0.0
 40
0.0
 40
0.0
 40
1.0
 40
1.0
 40
1.0
 40
2.0
 40
2.0
 40
2.0
 40
3.0
 40
3.0
 40
3.0
 40
4.0
 40
4.0
 40
4.0
 40
4.0
 10
5.17628043719749
 20
21.12494957286946
 30
0.0
 10
3.439202735215431
 20
21.12494957286946
 30
0.0
 10
2.026327358761321
 20
19.71171757520301
 30
0.0
 10
2.026327358761321
 20
17.97499649443333
 30
0.0
 10
2.026327358761321
 20
16.23791475523004
 30
0.0
 10
3.439202735215431
 20
14.82504341599713
 30
0.0
 10
5.17628043719749
 20
14.82504341599713
 30
0.0
 10
6.913358139179521
 20
14.82504341599713
 30
0.0
 10
8.326232169893202
 20
16.23791475523004
 30
0.0
 10
8.326232169893202
 20
17.97499649443333
 30
0.0
 10
8.326232169893202
 20
19.71171757520301
 30
0.0
 10
6.913358139179521
 20
21.12494957286946
 30
0.0
 10
5.17628043719749
 20
21.12494957286946
 30
0.0
  0
SPLINE
  5
44A
330
1F
100
AcDbEntity
  8
Livello 1
100
AcDbSpline
210
0.0
220
0.0
230
1.0
 70
     8
 71
     3
 72
     8
 73
     4
 74
     0
 42
0.000000001
 43
0.0000000001
 40
0.0
 40
0.0
 40
0.0
 40
0.0
 40
1.0
 40
1.0
 40
1.0
 40
1.0
 10
0.4802425207045218
 20
2.263378280205671
 30
0.0
 10
0.4513144845518156
 20
2.263378280205671
 30
0.0
 10
0.4276792454864023
 20
2.286659589539681
 30
0.0
 10
0.4276792454864023
 20
2.315942901164262
 30
0.0
  0
SPLINE
  5
44B
330
1F
100
AcDbEntity
  8
Livello 1
100
AcDbSpline
210
0.0
220
0.0
230
1.0
 70
    24
 71
     3
 72
     8
 73
     4
 74
     0
 42
0.000000001
 43
0.0000000001
 40
1.0
 40
1.0
 40
1.0
 40
1.0
 40
2.0
 40
2.0
 40
2.0
 40
2.0
 10
0.4276792454864023
 20
2.315942901164262
 30
0.0
 10
0.4276792454864023
 20
2.315942901164262
 30
0.0
 10
0.4276792454864023
 20
2.443293008961177
 30
0.0
 10
0.4276792454864023
 20
2.443293008961177
 30
0.0
  0
SPLINE
  5
44C
330
1F
100
AcDbEntity
  8
Livello 1
100
AcDbSpline
210
0.0
220
0.0
230
1.0
 70
     8
 71
     3
 72
    11
 73
     7
 74
     0
 42
0.000000001
 43
0.0000000001
 40
2.0
 40
2.0
 40
2.0
 40
2.0
 40
3.0
 40
3.0
 40
3.0
 40
4.0
 40
4.0
 40
4.0
 40
4.0
 10
0.4276792454864023
 20
2.443293008961177
 30
0.0
 10
0.4276792454864023
 20
2.472221045113869
 30
0.0
 10
0.4513144845518156
 20
2.495507737409482
 30
0.0
 10
0.4802425207045218
 20
2.495507737409482
 30
0.0
 10
0.509170556857228
 20
2.495507737409482
 30
0.0
 10
0.5328071416630423
 20
2.472221045113869
 30
0.0
 10
0.5328071416630423
 20
2.443293008961177
 30
0.0
  0
SPLINE
  5
44D
330
1F
100
AcDbEntity
  8
Livello 1
100
AcDbSpline
210
0.0
220
0.0
230
1.0
 70
    24
 71
     3
 72
     8
 73
     4
 74
     0
 42
0.000000001
 43
0.0000000001
 40
4.0
 40
4.0
 40
4.0
 40
4.0
 40
5.0
 40
5.0
 40
5.0
 40
5.0
 10
0.5328071416630423
 20
2.443293008961177
 30
0.0
 10
0.5328071416630423
 20
2.443293008961177
 30
0.0
 10
0.5328071416630423
 20
2.315942901164262
 30
0.0
 10
0.5328071416630423
 20
2.315942901164262
 30
0.0
  0
SPLINE
  5
44E
330
1F
100
AcDbEntity
  8
Livello 1
100
AcDbSpline
210
0.0
220
0.0
230
1.0
 70
     8
 71
     3
 72
     8
 73
     4
 74
     0
 42
0.000000001
 43
0.0000000001
 40
5.0
 40
5.0
 40
5.0
 40
5.0
 40
6.0
 40
6.0
 40
6.0
 40
6.0
 10
0.5328071416630423
 20
2.315942901164262
 30
0.0
 10
0.5328071416630423
 20
2.286659589539681
 30
0.0
 10
0.509170556857228
 20
2.263378280205671
 30
0.0
 10
0.4802425207045218
 20
2.263378280205671
 30
0.0
  0
SPLINE
  5
44F
330
1F
100
AcDbEntity
  8
Livello 1
100
AcDbSpline
210
0.0
220
0.0
230
1.0
 70
     8
 71
     3
 72
     8
 73
     4
 74
     0
 42
0.000000001
 43
0.0000000001
 40
0.0
 40
0.0
 40
0.0
 40
0.0
 40
1.0
 40
1.0
 40
1.0
 40
1.0
 10
1.142759951586114
 20
4.055845312296071
 30
0.0
 10
1.113831915433422
 20
4.055845312296071
 30
0.0
 10
1.090195330627565
 20
4.079476514140267
 30
0.0
 10
1.090195330627565
 20
4.108404550292974
 30
0.0
  0
SPLINE
  5
450
330
1F
100
AcDbEntity
  8
Livello 1
100
AcDbSpline
210
0.0
220
0.0
230
1.0
 70
    24
 71
     3
 72
     8
 73
     4
 74
     0
 42
0.000000001
 43
0.0000000001
 40
1.0
 40
1.0
 40
1.0
 40
1.0
 40
2.0
 40
2.0
 40
2.0
 40
2.0
 10
1.090195330627565
 20
4.108404550292974
 30
0.0
 10
1.090195330627565
 20
4.108404550292974
 30
0.0
 10
1.090195330627565
 20
5.985534803933376
 30
0.0
 10
1.090195330627565
 20
5.985534803933376
 30
0.0
  0
SPLINE
  5
451
330
1F
100
AcDbEntity
  8
Livello 1
100
AcDbSpline
210
0.0
220
0.0
230
1.0
 70
     8
 71
     3
 72
    11
 73
     7
 74
     0
 42
0.000000001
 43
0.0000000001
 40
2.0
 40
2.0
 40
2.0
 40
2.0
 40
3.0
 40
3.0
 40
3.0
 40
4.0
 40
4.0
 40
4.0
 40
4.0
 10
1.090195330627565
 20
5.985534803933376
 30
0.0
 10
1.090195330627565
 20
6.014462840086054
 30
0.0
 10
1.113831915433422
 20
6.038099424891868
 30
0.0
 10
1.142759951586114
 20
6.038099424891868
 30
0.0
 10
1.171686641998419
 20
6.038099424891868
 30
0.0
 10
1.195323226804248
 20
6.014462840086054
 30
0.0
 10
1.195323226804248
 20
5.985534803933376
 30
0.0
  0
SPLINE
  5
452
330
1F
100
AcDbEntity
  8
Livello 1
100
AcDbSpline
210
0.0
220
0.0
230
1.0
 70
    24
 71
     3
 72
     8
 73
     4
 74
     0
 42
0.000000001
 43
0.0000000001
 40
4.0
 40
4.0
 40
4.0
 40
4.0
 40
5.0
 40
5.0
 40
5.0
 40
5.0
 10
1.195323226804248
 20
5.985534803933376
 30
0.0
 10
1.195323226804248
 20
5.985534803933376
 30
0.0
 10
1.195323226804248
 20
4.108404550292974
 30
0.0
 10
1.195323226804248
 20
4.108404550292974
 30
0.0
  0
SPLINE
  5
453
330
1F
100
AcDbEntity
  8
Livello 1
100
AcDbSpline
210
0.0
220
0.0
230
1.0
 70
     8
 71
     3
 72
     8
 73
     4
 74
     0
 42
0.000000001
 43
0.0000000001
 40
5.0
 40
5.0
 40
5.0
 40
5.0
 40
6.0
 40
6.0
 40
6.0
 40
6.0
 10
1.195323226804248
 20
4.108404550292974
 30
0.0
 10
1.195323226804248
 20
4.079476514140267
 30
0.0
 10
1.171686641998419
 20
4.055845312296071
 30
0.0
 10
1.142759951586114
 20
4.055845312296071
 30
0.0
  0
SPLINE
  5
454
330
1F
100
AcDbEntity
  8
Livello 1
100
AcDbSpline
210
0.0
220
0.0
230
1.0
 70
    24
 71
     3
 72
     8
 73
     4
 74
     0
 42
0.000000001
 43
0.0000000001
 40
0.0
 40
0.0
 40
0.0
 40
0.0
 40
1.0
 40
1.0
 40
1.0
 40
1.0
 10
1.411294378737949
 20
5.933153203672461
 30
0.0
 10
1.411294378737949
 20
5.933153203672461
 30
0.0
 10
1.393303175010473
 20
5.933153203672461
 30
0.0
 10
1.393303175010473
 20
5.933153203672461
 30
0.0
  0
SPLINE
  5
455
330
1F
100
AcDbEntity
  8
Livello 1
100
AcDbSpline
210
0.0
220
0.0
230
1.0
 70
     8
 71
     3
 72
    11
 73
     7
 74
     0
 42
0.000000001
 43
0.0000000001
 40
1.0
 40
1.0
 40
1.0
 40
1.0
 40
2.0
 40
2.0
 40
2.0
 40
3.0
 40
3.0
 40
3.0
 40
3.0
 10
1.393303175010473
 20
5.933153203672461
 30
0.0
 10
1.364375138857766
 20
5.933153203672461
 30
0.0
 10
1.340739899792396
 20
5.956784405516685
 30
0.0
 10
1.340739899792396
 20
5.985712441669363
 30
0.0
 10
1.340739899792396
 20
6.014640477822055
 30
0.0
 10
1.364375138857766
 20
6.038277062627869
 30
0.0
 10
1.393303175010473
 20
6.038277062627869
 30
0.0
  0
SPLINE
  5
456
330
1F
100
AcDbEntity
  8
Livello 1
100
AcDbSpline
210
0.0
220
0.0
230
1.0
 70
    24
 71
     3
 72
     8
 73
     4
 74
     0
 42
0.000000001
 43
0.0000000001
 40
3.0
 40
3.0
 40
3.0
 40
3.0
 40
4.0
 40
4.0
 40
4.0
 40
4.0
 10
1.393303175010473
 20
6.038277062627869
 30
0.0
 10
1.393303175010473
 20
6.038277062627869
 30
0.0
 10
1.411294378737949
 20
6.038277062627869
 30
0.0
 10
1.411294378737949
 20
6.038277062627869
 30
0.0
  0
SPLINE
  5
457
330
1F
100
AcDbEntity
  8
Livello 1
100
AcDbSpline
210
0.0
220
0.0
230
1.0
 70
     8
 71
     3
 72
    11
 73
     7
 74
     0
 42
0.000000001
 43
0.0000000001
 40
4.0
 40
4.0
 40
4.0
 40
4.0
 40
5.0
 40
5.0
 40
5.0
 40
6.0
 40
6.0
 40
6.0
 40
6.0
 10
1.411294378737949
 20
6.038277062627869
 30
0.0
 10
1.440222414890683
 20
6.038277062627869
 30
0.0
 10
1.463506415705424
 20
6.014640477822055
 30
0.0
 10
1.463506415705424
 20
5.985712441669363
 30
0.0
 10
1.463506415705424
 20
5.956784405516685
 30
0.0
 10
1.440222414890683
 20
5.933153203672461
 30
0.0
 10
1.411294378737949
 20
5.933153203672461
 30
0.0
  0
SPLINE
  5
458
330
1F
100
AcDbEntity
  8
Livello 1
100
AcDbSpline
210
0.0
220
0.0
230
1.0
 70
     8
 71
     3
 72
     8
 73
     4
 74
     0
 42
0.000000001
 43
0.0000000001
 40
0.0
 40
0.0
 40
0.0
 40
0.0
 40
1.0
 40
1.0
 40
1.0
 40
1.0
 10
1.250076021692095
 20
5.933153203672461
 30
0.0
 10
1.221147985539346
 20
5.933153203672461
 30
0.0
 10
1.19751140073356
 20
5.956784405516685
 30
0.0
 10
1.19751140073356
 20
5.985712441669363
 30
0.0
  0
SPLINE
  5
459
330
1F
100
AcDbEntity
  8
Livello 1
100
AcDbSpline
210
0.0
220
0.0
230
1.0
 70
    24
 71
     3
 72
     8
 73
     4
 74
     0
 42
0.000000001
 43
0.0000000001
 40
1.0
 40
1.0
 40
1.0
 40
1.0
 40
2.0
 40
2.0
 40
2.0
 40
2.0
 10
1.19751140073356
 20
5.985712441669363
 30
0.0
 10
1.19751140073356
 20
5.985712441669363
 30
0.0
 10
1.19751140073356
 20
6.110952428481553
 30
0.0
 10
1.19751140073356
 20
6.110952428481553
 30
0.0
  0
SPLINE
  5
45A
330
1F
100
AcDbEntity
  8
Livello 1
100
AcDbSpline
210
0.0
220
0.0
230
1.0
 70
     8
 71
     3
 72
    11
 73
     7
 74
     0
 42
0.000000001
 43
0.0000000001
 40
2.0
 40
2.0
 40
2.0
 40
2.0
 40
3.0
 40
3.0
 40
3.0
 40
4.0
 40
4.0
 40
4.0
 40
4.0
 10
1.19751140073356
 20
6.110952428481553
 30
0.0
 10
1.19751140073356
 20
6.140230357144474
 30
0.0
 10
1.221147985539346
 20
6.163517049440059
 30
0.0
 10
1.250076021692095
 20
6.163517049440059
 30
0.0
 10
1.279002712104372
 20
6.163517049440059
 30
0.0
 10
1.3026392969102
 20
6.140230357144474
 30
0.0
 10
1.3026392969102
 20
6.110952428481553
 30
0.0
  0
SPLINE
  5
45B
330
1F
100
AcDbEntity
  8
Livello 1
100
AcDbSpline
210
0.0
220
0.0
230
1.0
 70
    24
 71
     3
 72
     8
 73
     4
 74
     0
 42
0.000000001
 43
0.0000000001
 40
4.0
 40
4.0
 40
4.0
 40
4.0
 40
5.0
 40
5.0
 40
5.0
 40
5.0
 10
1.3026392969102
 20
6.110952428481553
 30
0.0
 10
1.3026392969102
 20
6.110952428481553
 30
0.0
 10
1.3026392969102
 20
5.985712441669363
 30
0.0
 10
1.3026392969102
 20
5.985712441669363
 30
0.0
  0
SPLINE
  5
45C
330
1F
100
AcDbEntity
  8
Livello 1
100
AcDbSpline
210
0.0
220
0.0
230
1.0
 70
     8
 71
     3
 72
     8
 73
     4
 74
     0
 42
0.000000001
 43
0.0000000001
 40
5.0
 40
5.0
 40
5.0
 40
5.0
 40
6.0
 40
6.0
 40
6.0
 40
6.0
 10
1.3026392969102
 20
5.985712441669363
 30
0.0
 10
1.3026392969102
 20
5.956784405516685
 30
0.0
 10
1.279002712104372
 20
5.933153203672461
 30
0.0
 10
1.250076021692095
 20
5.933153203672461
 30
0.0
  0
SPLINE
  5
45D
330
1F
100
AcDbEntity
  8
Livello 1
100
AcDbSpline
210
0.0
220
0.0
230
1.0
 70
     8
 71
     3
 72
     8
 73
     4
 74
     0
 42
0.000000001
 43
0.0000000001
 40
0.0
 40
0.0
 40
0.0
 40
0.0
 40
1.0
 40
1.0
 40
1.0
 40
1.0
 10
1.142759951586114
 20
3.807879181783562
 30
0.0
 10
1.113831915433422
 20
3.807879181783562
 30
0.0
 10
1.090195330627565
 20
3.831510383627673
 30
0.0
 10
1.090195330627565
 20
3.860438419780365
 30
0.0
  0
SPLINE
  5
45E
330
1F
100
AcDbEntity
  8
Livello 1
100
AcDbSpline
210
0.0
220
0.0
230
1.0
 70
    24
 71
     3
 72
     8
 73
     4
 74
     0
 42
0.000000001
 43
0.0000000001
 40
1.0
 40
1.0
 40
1.0
 40
1.0
 40
2.0
 40
2.0
 40
2.0
 40
2.0
 10
1.090195330627565
 20
3.860438419780365
 30
0.0
 10
1.090195330627565
 20
3.860438419780365
 30
0.0
 10
1.090195330627565
 20
4.113383789861472
 30
0.0
 10
1.090195330627565
 20
4.113383789861472
 30
0.0
  0
SPLINE
  5
45F
330
1F
100
AcDbEntity
  8
Livello 1
100
AcDbSpline
210
0.0
220
0.0
230
1.0
 70
     8
 71
     3
 72
    11
 73
     7
 74
     0
 42
0.000000001
 43
0.0000000001
 40
2.0
 40
2.0
 40
2.0
 40
2.0
 40
3.0
 40
3.0
 40
3.0
 40
4.0
 40
4.0
 40
4.0
 40
4.0
 10
1.090195330627565
 20
4.113383789861472
 30
0.0
 10
1.090195330627565
 20
4.142661718524379
 30
0.0
 10
1.113831915433422
 20
4.165948410820064
 30
0.0
 10
1.142759951586114
 20
4.165948410820064
 30
0.0
 10
1.171686641998419
 20
4.165948410820064
 30
0.0
 10
1.195323226804248
 20
4.142661718524379
 30
0.0
 10
1.195323226804248
 20
4.113383789861472
 30
0.0
  0
SPLINE
  5
460
330
1F
100
AcDbEntity
  8
Livello 1
100
AcDbSpline
210
0.0
220
0.0
230
1.0
 70
    24
 71
     3
 72
     8
 73
     4
 74
     0
 42
0.000000001
 43
0.0000000001
 40
4.0
 40
4.0
 40
4.0
 40
4.0
 40
5.0
 40
5.0
 40
5.0
 40
5.0
 10
1.195323226804248
 20
4.113383789861472
 30
0.0
 10
1.195323226804248
 20
4.113383789861472
 30
0.0
 10
1.195323226804248
 20
3.860438419780365
 30
0.0
 10
1.195323226804248
 20
3.860438419780365
 30
0.0
  0
SPLINE
  5
461
330
1F
100
AcDbEntity
  8
Livello 1
100
AcDbSpline
210
0.0
220
0.0
230
1.0
 70
     8
 71
     3
 72
     8
 73
     4
 74
     0
 42
0.000000001
 43
0.0000000001
 40
5.0
 40
5.0
 40
5.0
 40
5.0
 40
6.0
 40
6.0
 40
6.0
 40
6.0
 10
1.195323226804248
 20
3.860438419780365
 30
0.0
 10
1.195323226804248
 20
3.831510383627673
 30
0.0
 10
1.171686641998419
 20
3.807879181783562
 30
0.0
 10
1.142759951586114
 20
3.807879181783562
 30
0.0
  0
SPLINE
  5
462
330
1F
100
AcDbEntity
  8
Livello 1
100
AcDbSpline
210
0.0
220
0.0
230
1.0
 70
    24
 71
     3
 72
     8
 73
     4
 74
     0
 42
0.000000001
 43
0.0000000001
 40
0.0
 40
0.0
 40
0.0
 40
0.0
 40
1.0
 40
1.0
 40
1.0
 40
1.0
 10
9.879652639000838
 20
2.263555917941658
 30
0.0
 10
9.879652639000838
 20
2.263555917941658
 30
0.0
 10
0.4802438664449653
 20
2.263555917941658
 30
0.0
 10
0.4802438664449653
 20
2.263555917941658
 30
0.0
  0
SPLINE
  5
463
330
1F
100
AcDbEntity
  8
Livello 1
100
AcDbSpline
210
0.0
220
0.0
230
1.0
 70
     8
 71
     3
 72
    11
 73
     7
 74
     0
 42
0.000000001
 43
0.0000000001
 40
1.0
 40
1.0
 40
1.0
 40
1.0
 40
2.0
 40
2.0
 40
2.0
 40
3.0
 40
3.0
 40
3.0
 40
3.0
 10
0.4802438664449653
 20
2.263555917941658
 30
0.0
 10
0.4513158302922591
 20
2.263555917941658
 30
0.0
 10
0.4276792454864023
 20
2.286837227275555
 30
0.0
 10
0.4276792454864023
 20
2.315765263428261
 30
0.0
 10
0.4276792454864023
 20
2.344693299580967
 30
0.0
 10
0.4513158302922591
 20
2.368329884386881
 30
0.0
 10
0.4802438664449653
 20
2.368329884386881
 30
0.0
  0
SPLINE
  5
464
330
1F
100
AcDbEntity
  8
Livello 1
100
AcDbSpline
210
0.0
220
0.0
230
1.0
 70
    24
 71
     3
 72
     8
 73
     4
 74
     0
 42
0.000000001
 43
0.0000000001
 40
3.0
 40
3.0
 40
3.0
 40
3.0
 40
4.0
 40
4.0
 40
4.0
 40
4.0
 10
0.4802438664449653
 20
2.368329884386881
 30
0.0
 10
0.4802438664449653
 20
2.368329884386881
 30
0.0
 10
9.879652639000838
 20
2.368329884386881
 30
0.0
 10
9.879652639000838
 20
2.368329884386881
 30
0.0
  0
SPLINE
  5
465
330
1F
100
AcDbEntity
  8
Livello 1
100
AcDbSpline
210
0.0
220
0.0
230
1.0
 70
     8
 71
     3
 72
    11
 73
     7
 74
     0
 42
0.000000001
 43
0.0000000001
 40
4.0
 40
4.0
 40
4.0
 40
4.0
 40
5.0
 40
5.0
 40
5.0
 40
6.0
 40
6.0
 40
6.0
 40
6.0
 10
9.879652639000838
 20
2.368329884386881
 30
0.0
 10
9.908580675153544
 20
2.368329884386881
 30
0.0
 10
9.932217259959344
 20
2.344693299580967
 30
0.0
 10
9.932217259959344
 20
2.315765263428261
 30
0.0
 10
9.932217259959344
 20
2.286837227275555
 30
0.0
 10
9.908580675153544
 20
2.263555917941658
 30
0.0
 10
9.879652639000838
 20
2.263555917941658
 30
0.0
  0
SPLINE
  5
466
330
1F
100
AcDbEntity
  8
Livello 1
100
AcDbSpline
210
0.0
220
0.0
230
1.0
 70
     8
 71
     3
 72
     8
 73
     4
 74
     0
 42
0.000000001
 43
0.0000000001
 40
0.0
 40
0.0
 40
0.0
 40
0.0
 40
1.0
 40
1.0
 40
1.0
 40
1.0
 10
9.235129103327551
 20
2.381383566498868
 30
0.0
 10
9.22419361664275
 20
2.381383566498868
 30
0.0
 10
9.21396329794004
 20
2.384909406409562
 30
0.0
 10
9.20549589919274
 20
2.390556133228372
 30
0.0
  0
SPLINE
  5
467
330
1F
100
AcDbEntity
  8
Livello 1
100
AcDbSpline
210
0.0
220
0.0
230
1.0
 70
    24
 71
     3
 72
     8
 73
     4
 74
     0
 42
0.000000001
 43
0.0000000001
 40
1.0
 40
1.0
 40
1.0
 40
1.0
 40
2.0
 40
2.0
 40
2.0
 40
2.0
 10
9.20549589919274
 20
2.390556133228372
 30
0.0
 10
9.20549589919274
 20
2.390556133228372
 30
0.0
 10
0.4802438664449653
 20
2.390556133228372
 30
0.0
 10
0.4802438664449653
 20
2.390556133228372
 30
0.0
  0
SPLINE
  5
468
330
1F
100
AcDbEntity
  8
Livello 1
100
AcDbSpline
210
0.0
220
0.0
230
1.0
 70
     8
 71
     3
 72
    11
 73
     7
 74
     0
 42
0.000000001
 43
0.0000000001
 40
2.0
 40
2.0
 40
2.0
 40
2.0
 40
3.0
 40
3.0
 40
3.0
 40
4.0
 40
4.0
 40
4.0
 40
4.0
 10
0.4802438664449653
 20
2.390556133228372
 30
0.0
 10
0.4513158302922591
 20
2.390556133228372
 30
0.0
 10
0.4276792454864023
 20
2.414192718034172
 30
0.0
 10
0.4276792454864023
 20
2.443120754186978
 30
0.0
 10
0.4276792454864023
 20
2.472048790339684
 30
0.0
 10
0.4513158302922591
 20
2.49568537514547
 30
0.0
 10
0.4802438664449653
 20
2.49568537514547
 30
0.0
  0
SPLINE
  5
469
330
1F
100
AcDbEntity
  8
Livello 1
100
AcDbSpline
210
0.0
220
0.0
230
1.0
 70
    24
 71
     3
 72
     8
 73
     4
 74
     0
 42
0.000000001
 43
0.0000000001
 40
4.0
 40
4.0
 40
4.0
 40
4.0
 40
5.0
 40
5.0
 40
5.0
 40
5.0
 10
0.4802438664449653
 20
2.49568537514547
 30
0.0
 10
0.4802438664449653
 20
2.49568537514547
 30
0.0
 10
1.081024109638534
 20
2.49568537514547
 30
0.0
 10
1.081024109638534
 20
2.49568537514547
 30
0.0
  0
SPLINE
  5
46A
330
1F
100
AcDbEntity
  8
Livello 1
100
AcDbSpline
210
0.0
220
0.0
230
1.0
 70
    24
 71
     3
 72
     8
 73
     4
 74
     0
 42
0.000000001
 43
0.0000000001
 40
5.0
 40
5.0
 40
5.0
 40
5.0
 40
6.0
 40
6.0
 40
6.0
 40
6.0
 10
1.081024109638534
 20
2.49568537514547
 30
0.0
 10
1.081024109638534
 20
2.49568537514547
 30
0.0
 10
1.081024109638534
 20
3.845059298215772
 30
0.0
 10
1.081024109638534
 20
3.845059298215772
 30
0.0
  0
SPLINE
  5
46B
330
1F
100
AcDbEntity
  8
Livello 1
100
AcDbSpline
210
0.0
220
0.0
230
1.0
 70
     8
 71
     3
 72
     8
 73
     4
 74
     0
 42
0.000000001
 43
0.0000000001
 40
6.0
 40
6.0
 40
6.0
 40
6.0
 40
7.0
 40
7.0
 40
7.0
 40
7.0
 10
1.081024109638534
 20
3.845059298215772
 30
0.0
 10
1.081024109638534
 20
3.873987334368479
 30
0.0
 10
1.104659348703933
 20
3.897268643702375
 30
0.0
 10
1.133587384856639
 20
3.897268643702375
 30
0.0
  0
SPLINE
  5
46C
330
1F
100
AcDbEntity
  8
Livello 1
100
AcDbSpline
210
0.0
220
0.0
230
1.0
 70
    24
 71
     3
 72
     8
 73
     4
 74
     0
 42
0.000000001
 43
0.0000000001
 40
7.0
 40
7.0
 40
7.0
 40
7.0
 40
8.0
 40
8.0
 40
8.0
 40
8.0
 10
1.133587384856639
 20
3.897268643702375
 30
0.0
 10
1.133587384856639
 20
3.897268643702375
 30
0.0
 10
9.235129103327551
 20
3.897268643702375
 30
0.0
 10
9.235129103327551
 20
3.897268643702375
 30
0.0
  0
SPLINE
  5
46D
330
1F
100
AcDbEntity
  8
Livello 1
100
AcDbSpline
210
0.0
220
0.0
230
1.0
 70
     8
 71
     3
 72
     8
 73
     4
 74
     0
 42
0.000000001
 43
0.0000000001
 40
8.0
 40
8.0
 40
8.0
 40
8.0
 40
9.0
 40
9.0
 40
9.0
 40
9.0
 10
9.235129103327551
 20
3.897268643702375
 30
0.0
 10
9.264057139480257
 20
3.897268643702375
 30
0.0
 10
9.287693724286043
 20
3.873987334368479
 30
0.0
 10
9.287693724286043
 20
3.845059298215772
 30
0.0
  0
SPLINE
  5
46E
330
1F
100
AcDbEntity
  8
Livello 1
100
AcDbSpline
210
0.0
220
0.0
230
1.0
 70
    24
 71
     3
 72
     8
 73
     4
 74
     0
 42
0.000000001
 43
0.0000000001
 40
9.0
 40
9.0
 40
9.0
 40
9.0
 40
10.0
 40
10.0
 40
10.0
 40
10.0
 10
9.287693724286043
 20
3.845059298215772
 30
0.0
 10
9.287693724286043
 20
3.845059298215772
 30
0.0
 10
9.287693724286043
 20
2.49568537514547
 30
0.0
 10
9.287693724286043
 20
2.49568537514547
 30
0.0
  0
SPLINE
  5
46F
330
1F
100
AcDbEntity
  8
Livello 1
100
AcDbSpline
210
0.0
220
0.0
230
1.0
 70
    24
 71
     3
 72
     8
 73
     4
 74
     0
 42
0.000000001
 43
0.0000000001
 40
10.0
 40
10.0
 40
10.0
 40
10.0
 40
11.0
 40
11.0
 40
11.0
 40
11.0
 10
9.287693724286043
 20
2.49568537514547
 30
0.0
 10
9.287693724286043
 20
2.49568537514547
 30
0.0
 10
9.879652639000838
 20
2.49568537514547
 30
0.0
 10
9.879652639000838
 20
2.49568537514547
 30
0.0
  0
SPLINE
  5
470
330
1F
100
AcDbEntity
  8
Livello 1
100
AcDbSpline
210
0.0
220
0.0
230
1.0
 70
     8
 71
     3
 72
    11
 73
     7
 74
     0
 42
0.000000001
 43
0.0000000001
 40
11.0
 40
11.0
 40
11.0
 40
11.0
 40
12.0
 40
12.0
 40
12.0
 40
13.0
 40
13.0
 40
13.0
 40
13.0
 10
9.879652639000838
 20
2.49568537514547
 30
0.0
 10
9.908580675153544
 20
2.49568537514547
 30
0.0
 10
9.932217259959344
 20
2.472048790339684
 30
0.0
 10
9.932217259959344
 20
2.443120754186978
 30
0.0
 10
9.932217259959344
 20
2.414192718034172
 30
0.0
 10
9.908580675153544
 20
2.390556133228372
 30
0.0
 10
9.879652639000838
 20
2.390556133228372
 30
0.0
  0
SPLINE
  5
471
330
1F
100
AcDbEntity
  8
Livello 1
100
AcDbSpline
210
0.0
220
0.0
230
1.0
 70
    24
 71
     3
 72
     8
 73
     4
 74
     0
 42
0.000000001
 43
0.0000000001
 40
13.0
 40
13.0
 40
13.0
 40
13.0
 40
14.0
 40
14.0
 40
14.0
 40
14.0
 10
9.879652639000838
 20
2.390556133228372
 30
0.0
 10
9.879652639000838
 20
2.390556133228372
 30
0.0
 10
9.264762307462333
 20
2.390556133228372
 30
0.0
 10
9.264762307462333
 20
2.390556133228372
 30
0.0
  0
SPLINE
  5
472
330
1F
100
AcDbEntity
  8
Livello 1
100
AcDbSpline
210
0.0
220
0.0
230
1.0
 70
     8
 71
     3
 72
     8
 73
     4
 74
     0
 42
0.000000001
 43
0.0000000001
 40
14.0
 40
14.0
 40
14.0
 40
14.0
 40
15.0
 40
15.0
 40
15.0
 40
15.0
 10
9.264762307462333
 20
2.390556133228372
 30
0.0
 10
9.256294908715048
 20
2.384909406409562
 30
0.0
 10
9.246064590012352
 20
2.381383566498868
 30
0.0
 10
9.235129103327551
 20
2.381383566498868
 30
0.0
  0
LINE
  5
473
330
1F
100
AcDbEntity
  8
Livello 1
100
AcDbLine
 10
1.186152005815188
 20
2.49568537514547
 30
0.0
 11
9.182917066360047
 21
2.49568537514547
 31
0.0
  0
LINE
  5
474
330
1F
100
AcDbEntity
  8
Livello 1
100
AcDbLine
 10
9.182917066360047
 20
2.49568537514547
 30
0.0
 11
9.182917066360047
 21
3.792494677257266
 31
0.0
  0
LINE
  5
475
330
1F
100
AcDbEntity
  8
Livello 1
100
AcDbLine
 10
9.182917066360047
 20
3.792494677257266
 30
0.0
 11
1.186152005815188
 21
3.792494677257266
 31
0.0
  0
LINE
  5
476
330
1F
100
AcDbEntity
  8
Livello 1
100
AcDbLine
 10
1.186152005815188
 20
3.792494677257266
 30
0.0
 11
1.186152005815188
 21
2.49568537514547
 31
0.0
  0
SPLINE
  5
477
330
1F
100
AcDbEntity
  8
Livello 1
100
AcDbSpline
210
0.0
220
0.0
230
1.0
 70
    24
 71
     3
 72
     8
 73
     4
 74
     0
 42
0.000000001
 43
0.0000000001
 40
0.0
 40
0.0
 40
0.0
 40
0.0
 40
1.0
 40
1.0
 40
1.0
 40
1.0
 10
2.431809714413532
 20
4.060959125907061
 30
0.0
 10
2.431809714413532
 20
4.060959125907061
 30
0.0
 10
2.431457130422487
 20
4.060959125907061
 30
0.0
 10
2.431457130422487
 20
4.060959125907061
 30
0.0
  0
SPLINE
  5
478
330
1F
100
AcDbEntity
  8
Livello 1
100
AcDbSpline
210
0.0
220
0.0
230
1.0
 70
    24
 71
     3
 72
     8
 73
     4
 74
     0
 42
0.000000001
 43
0.0000000001
 40
1.0
 40
1.0
 40
1.0
 40
1.0
 40
2.0
 40
2.0
 40
2.0
 40
2.0
 10
2.431457130422487
 20
4.060959125907061
 30
0.0
 10
2.431457130422487
 20
4.060959125907061
 30
0.0
 10
1.948857119777215
 20
4.060959125907061
 30
0.0
 10
1.948857119777215
 20
4.060959125907061
 30
0.0
  0
SPLINE
  5
479
330
1F
100
AcDbEntity
  8
Livello 1
100
AcDbSpline
210
0.0
220
0.0
230
1.0
 70
    24
 71
     3
 72
     8
 73
     4
 74
     0
 42
0.000000001
 43
0.0000000001
 40
2.0
 40
2.0
 40
2.0
 40
2.0
 40
3.0
 40
3.0
 40
3.0
 40
3.0
 10
1.948857119777215
 20
4.060959125907061
 30
0.0
 10
1.948857119777215
 20
4.060959125907061
 30
0.0
 10
1.948504535786128
 20
4.060959125907061
 30
0.0
 10
1.948504535786128
 20
4.060959125907061
 30
0.0
  0
SPLINE
  5
47A
330
1F
100
AcDbEntity
  8
Livello 1
100
AcDbSpline
210
0.0
220
0.0
230
1.0
 70
    24
 71
     3
 72
     8
 73
     4
 74
     0
 42
0.000000001
 43
0.0000000001
 40
3.0
 40
3.0
 40
3.0
 40
3.0
 40
4.0
 40
4.0
 40
4.0
 40
4.0
 10
1.948504535786128
 20
4.060959125907061
 30
0.0
 10
1.948504535786128
 20
4.060959125907061
 30
0.0
 10
1.142759951586114
 20
4.060959125907061
 30
0.0
 10
1.142759951586114
 20
4.060959125907061
 30
0.0
  0
SPLINE
  5
47B
330
1F
100
AcDbEntity
  8
Livello 1
100
AcDbSpline
210
0.0
220
0.0
230
1.0
 70
     8
 71
     3
 72
    11
 73
     7
 74
     0
 42
0.000000001
 43
0.0000000001
 40
4.0
 40
4.0
 40
4.0
 40
4.0
 40
5.0
 40
5.0
 40
5.0
 40
6.0
 40
6.0
 40
6.0
 40
6.0
 10
1.142759951586114
 20
4.060959125907061
 30
0.0
 10
1.113831915433422
 20
4.060959125907061
 30
0.0
 10
1.090195330627565
 20
4.084595710712875
 30
0.0
 10
1.090195330627565
 20
4.113523746865553
 30
0.0
 10
1.090195330627565
 20
4.142451783018259
 30
0.0
 10
1.113831915433422
 20
4.166088367824059
 30
0.0
 10
1.142759951586114
 20
4.166088367824059
 30
0.0
  0
SPLINE
  5
47C
330
1F
100
AcDbEntity
  8
Livello 1
100
AcDbSpline
210
0.0
220
0.0
230
1.0
 70
    24
 71
     3
 72
     8
 73
     4
 74
     0
 42
0.000000001
 43
0.0000000001
 40
6.0
 40
6.0
 40
6.0
 40
6.0
 40
7.0
 40
7.0
 40
7.0
 40
7.0
 10
1.142759951586114
 20
4.166088367824059
 30
0.0
 10
1.142759951586114
 20
4.166088367824059
 30
0.0
 10
1.574559606968605
 20
4.166088367824059
 30
0.0
 10
1.574559606968605
 20
4.166088367824059
 30
0.0
  0
SPLINE
  5
47D
330
1F
100
AcDbEntity
  8
Livello 1
100
AcDbSpline
210
0.0
220
0.0
230
1.0
 70
    24
 71
     3
 72
     8
 73
     4
 74
     0
 42
0.000000001
 43
0.0000000001
 40
7.0
 40
7.0
 40
7.0
 40
7.0
 40
8.0
 40
8.0
 40
8.0
 40
8.0
 10
1.574559606968605
 20
4.166088367824059
 30
0.0
 10
1.574559606968605
 20
4.166088367824059
 30
0.0
 10
1.609484262450337
 20
6.219607510309273
 30
0.0
 10
1.609484262450337
 20
6.219607510309273
 30
0.0
  0
SPLINE
  5
47E
330
1F
100
AcDbEntity
  8
Livello 1
100
AcDbSpline
210
0.0
220
0.0
230
1.0
 70
     8
 71
     3
 72
     8
 73
     4
 74
     0
 42
0.000000001
 43
0.0000000001
 40
8.0
 40
8.0
 40
8.0
 40
8.0
 40
9.0
 40
9.0
 40
9.0
 40
9.0
 10
1.609484262450337
 20
6.219607510309273
 30
0.0
 10
1.610190776172899
 20
6.248535546462051
 30
0.0
 10
1.638412298603043
 20
6.271111687813757
 30
0.0
 10
1.663106635382092
 20
6.271111687813757
 30
0.0
  0
SPLINE
  5
47F
330
1F
100
AcDbEntity
  8
Livello 1
100
AcDbSpline
210
0.0
220
0.0
230
1.0
 70
     8
 71
     3
 72
     8
 73
     4
 74
     0
 42
0.000000001
 43
0.0000000001
 40
9.0
 40
9.0
 40
9.0
 40
9.0
 40
10.0
 40
10.0
 40
10.0
 40
10.0
 10
1.663106635382092
 20
6.271111687813757
 30
0.0
 10
1.692034671534813
 20
6.270406519831681
 30
0.0
 10
1.71496474261805
 20
6.246414659553963
 30
0.0
 10
1.714612158626991
 20
6.217492006362874
 30
0.0
  0
SPLINE
  5
480
330
1F
100
AcDbEntity
  8
Livello 1
100
AcDbSpline
210
0.0
220
0.0
230
1.0
 70
    24
 71
     3
 72
     8
 73
     4
 74
     0
 42
0.000000001
 43
0.0000000001
 40
10.0
 40
10.0
 40
10.0
 40
10.0
 40
11.0
 40
11.0
 40
11.0
 40
11.0
 10
1.714612158626991
 20
6.217492006362874
 30
0.0
 10
1.714612158626991
 20
6.217492006362874
 30
0.0
 10
1.679687503145288
 20
4.166088367824059
 30
0.0
 10
1.679687503145288
 20
4.166088367824059
 30
0.0
  0
SPLINE
  5
481
330
1F
100
AcDbEntity
  8
Livello 1
100
AcDbSpline
210
0.0
220
0.0
230
1.0
 70
    24
 71
     3
 72
     8
 73
     4
 74
     0
 42
0.000000001
 43
0.0000000001
 40
11.0
 40
11.0
 40
11.0
 40
11.0
 40
12.0
 40
12.0
 40
12.0
 40
12.0
 10
1.679687503145288
 20
4.166088367824059
 30
0.0
 10
1.679687503145288
 20
4.166088367824059
 30
0.0
 10
1.897351596532274
 20
4.166088367824059
 30
0.0
 10
1.897351596532274
 20
4.166088367824059
 30
0.0
  0
SPLINE
  5
482
330
1F
100
AcDbEntity
  8
Livello 1
100
AcDbSpline
210
0.0
220
0.0
230
1.0
 70
    24
 71
     3
 72
     8
 73
     4
 74
     0
 42
0.000000001
 43
0.0000000001
 40
12.0
 40
12.0
 40
12.0
 40
12.0
 40
13.0
 40
13.0
 40
13.0
 40
13.0
 10
1.897351596532274
 20
4.166088367824059
 30
0.0
 10
1.897351596532274
 20
4.166088367824059
 30
0.0
 10
1.949562287759334
 20
6.291572325219178
 30
0.0
 10
1.949562287759334
 20
6.291572325219178
 30
0.0
  0
SPLINE
  5
483
330
1F
100
AcDbEntity
  8
Livello 1
100
AcDbSpline
210
0.0
220
0.0
230
1.0
 70
     8
 71
     3
 72
     8
 73
     4
 74
     0
 42
0.000000001
 43
0.0000000001
 40
13.0
 40
13.0
 40
13.0
 40
13.0
 40
14.0
 40
14.0
 40
14.0
 40
14.0
 10
1.949562287759334
 20
6.291572325219178
 30
0.0
 10
1.950268801481882
 20
6.320500361371884
 30
0.0
 10
1.971787190860467
 20
6.341316274249166
 30
0.0
 10
2.003537244682149
 20
6.342726610213475
 30
0.0
  0
SPLINE
  5
484
330
1F
100
AcDbEntity
  8
Livello 1
100
AcDbSpline
210
0.0
220
0.0
230
1.0
 70
     8
 71
     3
 72
     8
 73
     4
 74
     0
 42
0.000000001
 43
0.0000000001
 40
14.0
 40
14.0
 40
14.0
 40
14.0
 40
15.0
 40
15.0
 40
15.0
 40
15.0
 10
2.003537244682149
 20
6.342726610213475
 30
0.0
 10
2.032465280834841
 20
6.342021442231271
 30
0.0
 10
2.055395351918136
 20
6.31767968944338
 30
0.0
 10
2.054690183935974
 20
6.28875165329056
 30
0.0
  0
SPLINE
  5
485
330
1F
100
AcDbEntity
  8
Livello 1
100
AcDbSpline
210
0.0
220
0.0
230
1.0
 70
    24
 71
     3
 72
     8
 73
     4
 74
     0
 42
0.000000001
 43
0.0000000001
 40
15.0
 40
15.0
 40
15.0
 40
15.0
 40
16.0
 40
16.0
 40
16.0
 40
16.0
 10
2.054690183935974
 20
6.28875165329056
 30
0.0
 10
2.054690183935974
 20
6.28875165329056
 30
0.0
 10
2.002479492708957
 20
4.166088367824059
 30
0.0
 10
2.002479492708957
 20
4.166088367824059
 30
0.0
  0
SPLINE
  5
486
330
1F
100
AcDbEntity
  8
Livello 1
100
AcDbSpline
210
0.0
220
0.0
230
1.0
 70
    24
 71
     3
 72
     8
 73
     4
 74
     0
 42
0.000000001
 43
0.0000000001
 40
16.0
 40
16.0
 40
16.0
 40
16.0
 40
17.0
 40
17.0
 40
17.0
 40
17.0
 10
2.002479492708957
 20
4.166088367824059
 30
0.0
 10
2.002479492708957
 20
4.166088367824059
 30
0.0
 10
2.380656775159707
 20
4.166088367824059
 30
0.0
 10
2.380656775159707
 20
4.166088367824059
 30
0.0
  0
SPLINE
  5
487
330
1F
100
AcDbEntity
  8
Livello 1
100
AcDbSpline
210
0.0
220
0.0
230
1.0
 70
    24
 71
     3
 72
     8
 73
     4
 74
     0
 42
0.000000001
 43
0.0000000001
 40
17.0
 40
17.0
 40
17.0
 40
17.0
 40
18.0
 40
18.0
 40
18.0
 40
18.0
 10
2.380656775159707
 20
4.166088367824059
 30
0.0
 10
2.380656775159707
 20
4.166088367824059
 30
0.0
 10
2.432868812127182
 20
6.380827213095656
 30
0.0
 10
2.432868812127182
 20
6.380827213095656
 30
0.0
  0
SPLINE
  5
488
330
1F
100
AcDbEntity
  8
Livello 1
100
AcDbSpline
210
0.0
220
0.0
230
1.0
 70
     8
 71
     3
 72
     8
 73
     4
 74
     0
 42
0.000000001
 43
0.0000000001
 40
18.0
 40
18.0
 40
18.0
 40
18.0
 40
19.0
 40
19.0
 40
19.0
 40
19.0
 10
2.432868812127182
 20
6.380827213095656
 30
0.0
 10
2.433573980109315
 20
6.409755249248362
 30
0.0
 10
2.461442918548385
 20
6.431270947146074
 30
0.0
 10
2.486843769049983
 20
6.432331390600069
 30
0.0
  0
SPLINE
  5
489
330
1F
100
AcDbEntity
  8
Livello 1
100
AcDbSpline
210
0.0
220
0.0
230
1.0
 70
     8
 71
     3
 72
     8
 73
     4
 74
     0
 42
0.000000001
 43
0.0000000001
 40
19.0
 40
19.0
 40
19.0
 40
19.0
 40
20.0
 40
20.0
 40
20.0
 40
20.0
 10
2.486843769049983
 20
6.432331390600069
 30
0.0
 10
2.515770459462288
 20
6.431270947146074
 30
0.0
 10
2.538701876285955
 20
6.407634362340175
 30
0.0
 10
2.537995362563407
 20
6.378356433677268
 30
0.0
  0
SPLINE
  5
48A
330
1F
100
AcDbEntity
  8
Livello 1
100
AcDbSpline
210
0.0
220
0.0
230
1.0
 70
    24
 71
     3
 72
     8
 73
     4
 74
     0
 42
0.000000001
 43
0.0000000001
 40
20.0
 40
20.0
 40
20.0
 40
20.0
 40
21.0
 40
21.0
 40
21.0
 40
21.0
 10
2.537995362563407
 20
6.378356433677268
 30
0.0
 10
2.537995362563407
 20
6.378356433677268
 30
0.0
 10
2.484374335372095
 20
4.112113410901258
 30
0.0
 10
2.484374335372095
 20
4.112113410901258
 30
0.0
  0
SPLINE
  5
48B
330
1F
100
AcDbEntity
  8
Livello 1
100
AcDbSpline
210
0.0
220
0.0
230
1.0
 70
     8
 71
     3
 72
     8
 73
     4
 74
     0
 42
0.000000001
 43
0.0000000001
 40
21.0
 40
21.0
 40
21.0
 40
21.0
 40
22.0
 40
22.0
 40
22.0
 40
22.0
 10
2.484374335372095
 20
4.112113410901258
 30
0.0
 10
2.484020405640606
 20
4.105761516100372
 30
0.0
 10
2.482962653667385
 20
4.099764896771375
 30
0.0
 10
2.480493219989483
 20
4.094118169952565
 30
0.0
  0
SPLINE
  5
48C
330
1F
100
AcDbEntity
  8
Livello 1
100
AcDbSpline
210
0.0
220
0.0
230
1.0
 70
     8
 71
     3
 72
     8
 73
     4
 74
     0
 42
0.000000001
 43
0.0000000001
 40
22.0
 40
22.0
 40
22.0
 40
22.0
 40
23.0
 40
23.0
 40
23.0
 40
23.0
 10
2.480493219989483
 20
4.094118169952565
 30
0.0
 10
2.47837637030264
 20
4.088826718605673
 30
0.0
 10
2.475554352633693
 20
4.084240435240971
 30
0.0
 10
2.47202716698257
 20
4.080009427348173
 30
0.0
  0
SPLINE
  5
48D
330
1F
100
AcDbEntity
  8
Livello 1
100
AcDbSpline
210
0.0
220
0.0
230
1.0
 70
    24
 71
     3
 72
     8
 73
     4
 74
     0
 42
0.000000001
 43
0.0000000001
 40
23.0
 40
23.0
 40
23.0
 40
23.0
 40
24.0
 40
24.0
 40
24.0
 40
24.0
 10
2.47202716698257
 20
4.080009427348173
 30
0.0
 10
2.47202716698257
 20
4.080009427348173
 30
0.0
 10
2.47202716698257
 20
4.079654151876184
 30
0.0
 10
2.47202716698257
 20
4.079654151876184
 30
0.0
  0
SPLINE
  5
48E
330
1F
100
AcDbEntity
  8
Livello 1
100
AcDbSpline
210
0.0
220
0.0
230
1.0
 70
    24
 71
     3
 72
     8
 73
     4
 74
     0
 42
0.000000001
 43
0.0000000001
 40
24.0
 40
24.0
 40
24.0
 40
24.0
 40
25.0
 40
25.0
 40
25.0
 40
25.0
 10
2.47202716698257
 20
4.079654151876184
 30
0.0
 10
2.47202716698257
 20
4.079654151876184
 30
0.0
 10
2.471673237251067
 20
4.079654151876184
 30
0.0
 10
2.471673237251067
 20
4.079654151876184
 30
0.0
  0
SPLINE
  5
48F
330
1F
100
AcDbEntity
  8
Livello 1
100
AcDbSpline
210
0.0
220
0.0
230
1.0
 70
    24
 71
     3
 72
     8
 73
     4
 74
     0
 42
0.000000001
 43
0.0000000001
 40
25.0
 40
25.0
 40
25.0
 40
25.0
 40
26.0
 40
26.0
 40
26.0
 40
26.0
 10
2.471673237251067
 20
4.079654151876184
 30
0.0
 10
2.471673237251067
 20
4.079654151876184
 30
0.0
 10
2.471673237251067
 20
4.079304259365983
 30
0.0
 10
2.471673237251067
 20
4.079304259365983
 30
0.0
  0
SPLINE
  5
490
330
1F
100
AcDbEntity
  8
Livello 1
100
AcDbSpline
210
0.0
220
0.0
230
1.0
 70
     8
 71
     3
 72
     8
 73
     4
 74
     0
 42
0.000000001
 43
0.0000000001
 40
26.0
 40
26.0
 40
26.0
 40
26.0
 40
27.0
 40
27.0
 40
27.0
 40
27.0
 10
2.471673237251067
 20
4.079304259365983
 30
0.0
 10
2.465324033930997
 20
4.071897304072663
 30
0.0
 10
2.456856635183655
 20
4.066250577253867
 30
0.0
 10
2.447331484463106
 20
4.063429905325378
 30
0.0
  0
SPLINE
  5
491
330
1F
100
AcDbEntity
  8
Livello 1
100
AcDbSpline
210
0.0
220
0.0
230
1.0
 70
     8
 71
     3
 72
     8
 73
     4
 74
     0
 42
0.000000001
 43
0.0000000001
 40
27.0
 40
27.0
 40
27.0
 40
27.0
 40
28.0
 40
28.0
 40
28.0
 40
28.0
 10
2.447331484463106
 20
4.063429905325378
 30
0.0
 10
2.442392617107302
 20
4.06166429388918
 30
0.0
 10
2.437101165760424
 20
4.060959125907061
 30
0.0
 10
2.431809714413532
 20
4.060959125907061
 30
0.0
  0
SPLINE
  5
492
330
1F
100
AcDbEntity
  8
Livello 1
100
AcDbSpline
210
0.0
220
0.0
230
1.0
 70
    24
 71
     3
 72
     8
 73
     4
 74
     0
 42
0.000000001
 43
0.0000000001
 40
0.0
 40
0.0
 40
0.0
 40
0.0
 40
1.0
 40
1.0
 40
1.0
 40
1.0
 10
9.217489137850748
 20
4.060959125907061
 30
0.0
 10
9.217489137850748
 20
4.060959125907061
 30
0.0
 10
7.928440720763731
 20
4.060959125907061
 30
0.0
 10
7.928440720763731
 20
4.060959125907061
 30
0.0
  0
SPLINE
  5
493
330
1F
100
AcDbEntity
  8
Livello 1
100
AcDbSpline
210
0.0
220
0.0
230
1.0
 70
     8
 71
     3
 72
    11
 73
     7
 74
     0
 42
0.000000001
 43
0.0000000001
 40
1.0
 40
1.0
 40
1.0
 40
1.0
 40
2.0
 40
2.0
 40
2.0
 40
3.0
 40
3.0
 40
3.0
 40
3.0
 10
7.928440720763731
 20
4.060959125907061
 30
0.0
 10
7.899512684611025
 20
4.060959125907061
 30
0.0
 10
7.875877445545611
 20
4.084595710712875
 30
0.0
 10
7.875877445545611
 20
4.113523746865553
 30
0.0
 10
7.875877445545611
 20
4.142451783018259
 30
0.0
 10
7.899512684611025
 20
4.166088367824059
 30
0.0
 10
7.928440720763731
 20
4.166088367824059
 30
0.0
  0
SPLINE
  5
494
330
1F
100
AcDbEntity
  8
Livello 1
100
AcDbSpline
210
0.0
220
0.0
230
1.0
 70
    24
 71
     3
 72
     8
 73
     4
 74
     0
 42
0.000000001
 43
0.0000000001
 40
3.0
 40
3.0
 40
3.0
 40
3.0
 40
4.0
 40
4.0
 40
4.0
 40
4.0
 10
7.928440720763731
 20
4.166088367824059
 30
0.0
 10
7.928440720763731
 20
4.166088367824059
 30
0.0
 10
9.217489137850748
 20
4.166088367824059
 30
0.0
 10
9.217489137850748
 20
4.166088367824059
 30
0.0
  0
SPLINE
  5
495
330
1F
100
AcDbEntity
  8
Livello 1
100
AcDbSpline
210
0.0
220
0.0
230
1.0
 70
     8
 71
     3
 72
    11
 73
     7
 74
     0
 42
0.000000001
 43
0.0000000001
 40
4.0
 40
4.0
 40
4.0
 40
4.0
 40
5.0
 40
5.0
 40
5.0
 40
6.0
 40
6.0
 40
6.0
 40
6.0
 10
9.217489137850748
 20
4.166088367824059
 30
0.0
 10
9.246417174003454
 20
4.166088367824059
 30
0.0
 10
9.269701174818138
 20
4.142451783018259
 30
0.0
 10
9.269701174818138
 20
4.113523746865553
 30
0.0
 10
9.269701174818138
 20
4.084595710712875
 30
0.0
 10
9.246417174003454
 20
4.060959125907061
 30
0.0
 10
9.217489137850748
 20
4.060959125907061
 30
0.0
  0
SPLINE
  5
496
330
1F
100
AcDbEntity
  8
Livello 1
100
AcDbSpline
210
0.0
220
0.0
230
1.0
 70
    24
 71
     3
 72
     8
 73
     4
 74
     0
 42
0.000000001
 43
0.0000000001
 40
0.0
 40
0.0
 40
0.0
 40
0.0
 40
1.0
 40
1.0
 40
1.0
 40
1.0
 10
1.411224400235909
 20
5.933153203672461
 30
0.0
 10
1.411224400235909
 20
5.933153203672461
 30
0.0
 10
1.393231850768046
 20
5.933153203672461
 30
0.0
 10
1.393231850768046
 20
5.933153203672461
 30
0.0
  0
SPLINE
  5
497
330
1F
100
AcDbEntity
  8
Livello 1
100
AcDbSpline
210
0.0
220
0.0
230
1.0
 70
     8
 71
     3
 72
     8
 73
     4
 74
     0
 42
0.000000001
 43
0.0000000001
 40
1.0
 40
1.0
 40
1.0
 40
1.0
 40
2.0
 40
2.0
 40
2.0
 40
2.0
 10
1.393231850768046
 20
5.933153203672461
 30
0.0
 10
1.390409833099056
 20
5.933153203672461
 30
0.0
 10
1.387235231439007
 20
5.933503096182676
 30
0.0
 10
1.384413213770059
 20
5.933858371654679
 30
0.0
  0
SPLINE
  5
498
330
1F
100
AcDbEntity
  8
Livello 1
100
AcDbSpline
210
0.0
220
0.0
230
1.0
 70
     8
 71
     3
 72
     8
 73
     4
 74
     0
 42
0.000000001
 43
0.0000000001
 40
2.0
 40
2.0
 40
2.0
 40
2.0
 40
3.0
 40
3.0
 40
3.0
 40
3.0
 10
1.384413213770059
 20
5.933858371654679
 30
0.0
 10
1.381589850360626
 20
5.933503096182676
 30
0.0
 10
1.378415248700605
 20
5.933153203672461
 30
0.0
 10
1.375593231031615
 20
5.933153203672461
 30
0.0
  0
SPLINE
  5
499
330
1F
100
AcDbEntity
  8
Livello 1
100
AcDbSpline
210
0.0
220
0.0
230
1.0
 70
    24
 71
     3
 72
     8
 73
     4
 74
     0
 42
0.000000001
 43
0.0000000001
 40
3.0
 40
3.0
 40
3.0
 40
3.0
 40
4.0
 40
4.0
 40
4.0
 40
4.0
 10
1.375593231031615
 20
5.933153203672461
 30
0.0
 10
1.375593231031615
 20
5.933153203672461
 30
0.0
 10
1.357602027304167
 20
5.933153203672461
 30
0.0
 10
1.357602027304167
 20
5.933153203672461
 30
0.0
  0
SPLINE
  5
49A
330
1F
100
AcDbEntity
  8
Livello 1
100
AcDbSpline
210
0.0
220
0.0
230
1.0
 70
     8
 71
     3
 72
    11
 73
     7
 74
     0
 42
0.000000001
 43
0.0000000001
 40
4.0
 40
4.0
 40
4.0
 40
4.0
 40
5.0
 40
5.0
 40
5.0
 40
6.0
 40
6.0
 40
6.0
 40
6.0
 10
1.357602027304167
 20
5.933153203672461
 30
0.0
 10
1.328673991151461
 20
5.933153203672461
 30
0.0
 10
1.305037406345647
 20
5.956784405516685
 30
0.0
 10
1.305037406345647
 20
5.985712441669363
 30
0.0
 10
1.305037406345647
 20
6.014640477822055
 30
0.0
 10
1.328673991151461
 20
6.038277062627869
 30
0.0
 10
1.357602027304167
 20
6.038277062627869
 30
0.0
  0
SPLINE
  5
49B
330
1F
100
AcDbEntity
  8
Livello 1
100
AcDbSpline
210
0.0
220
0.0
230
1.0
 70
    24
 71
     3
 72
     8
 73
     4
 74
     0
 42
0.000000001
 43
0.0000000001
 40
6.0
 40
6.0
 40
6.0
 40
6.0
 40
7.0
 40
7.0
 40
7.0
 40
7.0
 10
1.357602027304167
 20
6.038277062627869
 30
0.0
 10
1.357602027304167
 20
6.038277062627869
 30
0.0
 10
1.375593231031615
 20
6.038277062627869
 30
0.0
 10
1.375593231031615
 20
6.038277062627869
 30
0.0
  0
SPLINE
  5
49C
330
1F
100
AcDbEntity
  8
Livello 1
100
AcDbSpline
210
0.0
220
0.0
230
1.0
 70
     8
 71
     3
 72
     8
 73
     4
 74
     0
 42
0.000000001
 43
0.0000000001
 40
7.0
 40
7.0
 40
7.0
 40
7.0
 40
8.0
 40
8.0
 40
8.0
 40
8.0
 10
1.375593231031615
 20
6.038277062627869
 30
0.0
 10
1.378415248700605
 20
6.038277062627869
 30
0.0
 10
1.381589850360626
 20
6.037927170117683
 30
0.0
 10
1.384413213770059
 20
6.037222002135564
 30
0.0
  0
SPLINE
  5
49D
330
1F
100
AcDbEntity
  8
Livello 1
100
AcDbSpline
210
0.0
220
0.0
230
1.0
 70
     8
 71
     3
 72
     8
 73
     4
 74
     0
 42
0.000000001
 43
0.0000000001
 40
8.0
 40
8.0
 40
8.0
 40
8.0
 40
9.0
 40
9.0
 40
9.0
 40
9.0
 10
1.384413213770059
 20
6.037222002135564
 30
0.0
 10
1.387235231439007
 20
6.037927170117683
 30
0.0
 10
1.390409833099056
 20
6.038277062627869
 30
0.0
 10
1.393231850768046
 20
6.038277062627869
 30
0.0
  0
SPLINE
  5
49E
330
1F
100
AcDbEntity
  8
Livello 1
100
AcDbSpline
210
0.0
220
0.0
230
1.0
 70
    24
 71
     3
 72
     8
 73
     4
 74
     0
 42
0.000000001
 43
0.0000000001
 40
9.0
 40
9.0
 40
9.0
 40
9.0
 40
10.0
 40
10.0
 40
10.0
 40
10.0
 10
1.393231850768046
 20
6.038277062627869
 30
0.0
 10
1.393231850768046
 20
6.038277062627869
 30
0.0
 10
1.411224400235909
 20
6.038277062627869
 30
0.0
 10
1.411224400235909
 20
6.038277062627869
 30
0.0
  0
SPLINE
  5
49F
330
1F
100
AcDbEntity
  8
Livello 1
100
AcDbSpline
210
0.0
220
0.0
230
1.0
 70
     8
 71
     3
 72
    11
 73
     7
 74
     0
 42
0.000000001
 43
0.0000000001
 40
10.0
 40
10.0
 40
10.0
 40
10.0
 40
11.0
 40
11.0
 40
11.0
 40
12.0
 40
12.0
 40
12.0
 40
12.0
 10
1.411224400235909
 20
6.038277062627869
 30
0.0
 10
1.4401510906482
 20
6.038277062627869
 30
0.0
 10
1.463787675454028
 20
6.014640477822055
 30
0.0
 10
1.463787675454028
 20
5.985712441669363
 30
0.0
 10
1.463787675454028
 20
5.956784405516685
 30
0.0
 10
1.4401510906482
 20
5.933153203672461
 30
0.0
 10
1.411224400235909
 20
5.933153203672461
 30
0.0
  0
SPLINE
  5
4A0
330
1F
100
AcDbEntity
  8
Livello 1
100
AcDbSpline
210
0.0
220
0.0
230
1.0
 70
    24
 71
     3
 72
     8
 73
     4
 74
     0
 42
0.000000001
 43
0.0000000001
 40
0.0
 40
0.0
 40
0.0
 40
0.0
 40
1.0
 40
1.0
 40
1.0
 40
1.0
 10
9.217349180846639
 20
4.079024345357765
 30
0.0
 10
9.217349180846639
 20
4.079024345357765
 30
0.0
 10
8.966522006192846
 20
4.079024345357765
 30
0.0
 10
8.966522006192846
 20
4.079024345357765
 30
0.0
  0
SPLINE
  5
4A1
330
1F
100
AcDbEntity
  8
Livello 1
100
AcDbSpline
210
0.0
220
0.0
230
1.0
 70
     8
 71
     3
 72
    11
 73
     7
 74
     0
 42
0.000000001
 43
0.0000000001
 40
1.0
 40
1.0
 40
1.0
 40
1.0
 40
2.0
 40
2.0
 40
2.0
 40
3.0
 40
3.0
 40
3.0
 40
3.0
 10
8.966522006192846
 20
4.079024345357765
 30
0.0
 10
8.93759397004014
 20
4.079024345357765
 30
0.0
 10
8.914312660706244
 20
4.102655547201976
 30
0.0
 10
8.914312660706244
 20
4.131583583354682
 30
0.0
 10
8.914312660706244
 20
4.160511619507374
 30
0.0
 10
8.93759397004014
 20
4.184148204313174
 30
0.0
 10
8.966522006192846
 20
4.184148204313174
 30
0.0
  0
SPLINE
  5
4A2
330
1F
100
AcDbEntity
  8
Livello 1
100
AcDbSpline
210
0.0
220
0.0
230
1.0
 70
    24
 71
     3
 72
     8
 73
     4
 74
     0
 42
0.000000001
 43
0.0000000001
 40
3.0
 40
3.0
 40
3.0
 40
3.0
 40
4.0
 40
4.0
 40
4.0
 40
4.0
 10
8.966522006192846
 20
4.184148204313174
 30
0.0
 10
8.966522006192846
 20
4.184148204313174
 30
0.0
 10
9.217349180846639
 20
4.184148204313174
 30
0.0
 10
9.217349180846639
 20
4.184148204313174
 30
0.0
  0
SPLINE
  5
4A3
330
1F
100
AcDbEntity
  8
Livello 1
100
AcDbSpline
210
0.0
220
0.0
230
1.0
 70
     8
 71
     3
 72
    11
 73
     7
 74
     0
 42
0.000000001
 43
0.0000000001
 40
4.0
 40
4.0
 40
4.0
 40
4.0
 40
5.0
 40
5.0
 40
5.0
 40
6.0
 40
6.0
 40
6.0
 40
6.0
 10
9.217349180846639
 20
4.184148204313174
 30
0.0
 10
9.246274525518543
 20
4.184148204313174
 30
0.0
 10
9.269911110324329
 20
4.160511619507374
 30
0.0
 10
9.269911110324329
 20
4.131583583354682
 30
0.0
 10
9.269911110324329
 20
4.102655547201976
 30
0.0
 10
9.246274525518543
 20
4.079024345357765
 30
0.0
 10
9.217349180846639
 20
4.079024345357765
 30
0.0
  0
SPLINE
  5
4A4
330
1F
100
AcDbEntity
  8
Livello 1
100
AcDbSpline
210
0.0
220
0.0
230
1.0
 70
    24
 71
     3
 72
     8
 73
     4
 74
     0
 42
0.000000001
 43
0.0000000001
 40
0.0
 40
0.0
 40
0.0
 40
0.0
 40
1.0
 40
1.0
 40
1.0
 40
1.0
 10
9.073909400541253
 20
4.168376126544757
 30
0.0
 10
9.073909400541253
 20
4.168376126544757
 30
0.0
 10
8.966664654677742
 20
4.168376126544757
 30
0.0
 10
8.966664654677742
 20
4.168376126544757
 30
0.0
  0
SPLINE
  5
4A5
330
1F
100
AcDbEntity
  8
Livello 1
100
AcDbSpline
210
0.0
220
0.0
230
1.0
 70
     8
 71
     3
 72
    11
 73
     7
 74
     0
 42
0.000000001
 43
0.0000000001
 40
1.0
 40
1.0
 40
1.0
 40
1.0
 40
2.0
 40
2.0
 40
2.0
 40
3.0
 40
3.0
 40
3.0
 40
3.0
 10
8.966664654677742
 20
4.168376126544757
 30
0.0
 10
8.93773661852505
 20
4.168376126544757
 30
0.0
 10
8.914100033719236
 20
4.192012711350557
 30
0.0
 10
8.914100033719236
 20
4.220940747503377
 30
0.0
 10
8.914100033719236
 20
4.249868783656054
 30
0.0
 10
8.93773661852505
 20
4.273505368461869
 30
0.0
 10
8.966664654677742
 20
4.273505368461869
 30
0.0
  0
SPLINE
  5
4A6
330
1F
100
AcDbEntity
  8
Livello 1
100
AcDbSpline
210
0.0
220
0.0
230
1.0
 70
    24
 71
     3
 72
     8
 73
     4
 74
     0
 42
0.000000001
 43
0.0000000001
 40
3.0
 40
3.0
 40
3.0
 40
3.0
 40
4.0
 40
4.0
 40
4.0
 40
4.0
 10
8.966664654677742
 20
4.273505368461869
 30
0.0
 10
8.966664654677742
 20
4.273505368461869
 30
0.0
 10
9.073909400541253
 20
4.273505368461869
 30
0.0
 10
9.073909400541253
 20
4.273505368461869
 30
0.0
  0
SPLINE
  5
4A7
330
1F
100
AcDbEntity
  8
Livello 1
100
AcDbSpline
210
0.0
220
0.0
230
1.0
 70
     8
 71
     3
 72
    11
 73
     7
 74
     0
 42
0.000000001
 43
0.0000000001
 40
4.0
 40
4.0
 40
4.0
 40
4.0
 40
5.0
 40
5.0
 40
5.0
 40
6.0
 40
6.0
 40
6.0
 40
6.0
 10
9.073909400541253
 20
4.273505368461869
 30
0.0
 10
9.102837436693945
 20
4.273505368461869
 30
0.0
 10
9.12647402149976
 20
4.249868783656054
 30
0.0
 10
9.12647402149976
 20
4.220940747503377
 30
0.0
 10
9.12647402149976
 20
4.192012711350557
 30
0.0
 10
9.102837436693945
 20
4.168376126544757
 30
0.0
 10
9.073909400541253
 20
4.168376126544757
 30
0.0
  0
SPLINE
  5
4A8
330
1F
100
AcDbEntity
  8
Livello 1
100
AcDbSpline
210
0.0
220
0.0
230
1.0
 70
    24
 71
     3
 72
     8
 73
     4
 74
     0
 42
0.000000001
 43
0.0000000001
 40
0.0
 40
0.0
 40
0.0
 40
0.0
 40
1.0
 40
1.0
 40
1.0
 40
1.0
 10
9.073909400541253
 20
4.68731516585737
 30
0.0
 10
9.073909400541253
 20
4.68731516585737
 30
0.0
 10
8.948672105209837
 20
4.68731516585737
 30
0.0
 10
8.948672105209837
 20
4.68731516585737
 30
0.0
  0
SPLINE
  5
4A9
330
1F
100
AcDbEntity
  8
Livello 1
100
AcDbSpline
210
0.0
220
0.0
230
1.0
 70
     8
 71
     3
 72
    11
 73
     7
 74
     0
 42
0.000000001
 43
0.0000000001
 40
1.0
 40
1.0
 40
1.0
 40
1.0
 40
2.0
 40
2.0
 40
2.0
 40
3.0
 40
3.0
 40
3.0
 40
3.0
 10
8.948672105209837
 20
4.68731516585737
 30
0.0
 10
8.919744069057145
 20
4.68731516585737
 30
0.0
 10
8.896110175732147
 20
4.71095175066317
 30
0.0
 10
8.896110175732147
 20
4.739879786815876
 30
0.0
 10
8.896110175732147
 20
4.768807822968554
 30
0.0
 10
8.919744069057145
 20
4.792444407774368
 30
0.0
 10
8.948672105209837
 20
4.792444407774368
 30
0.0
  0
SPLINE
  5
4AA
330
1F
100
AcDbEntity
  8
Livello 1
100
AcDbSpline
210
0.0
220
0.0
230
1.0
 70
    24
 71
     3
 72
     8
 73
     4
 74
     0
 42
0.000000001
 43
0.0000000001
 40
3.0
 40
3.0
 40
3.0
 40
3.0
 40
4.0
 40
4.0
 40
4.0
 40
4.0
 10
8.948672105209837
 20
4.792444407774368
 30
0.0
 10
8.948672105209837
 20
4.792444407774368
 30
0.0
 10
9.073909400541253
 20
4.792444407774368
 30
0.0
 10
9.073909400541253
 20
4.792444407774368
 30
0.0
  0
SPLINE
  5
4AB
330
1F
100
AcDbEntity
  8
Livello 1
100
AcDbSpline
210
0.0
220
0.0
230
1.0
 70
     8
 71
     3
 72
    11
 73
     7
 74
     0
 42
0.000000001
 43
0.0000000001
 40
4.0
 40
4.0
 40
4.0
 40
4.0
 40
5.0
 40
5.0
 40
5.0
 40
6.0
 40
6.0
 40
6.0
 40
6.0
 10
9.073909400541253
 20
4.792444407774368
 30
0.0
 10
9.102837436693945
 20
4.792444407774368
 30
0.0
 10
9.12647402149976
 20
4.768807822968554
 30
0.0
 10
9.12647402149976
 20
4.739879786815876
 30
0.0
 10
9.12647402149976
 20
4.71095175066317
 30
0.0
 10
9.102837436693945
 20
4.68731516585737
 30
0.0
 10
9.073909400541253
 20
4.68731516585737
 30
0.0
  0
SPLINE
  5
4AC
330
1F
100
AcDbEntity
  8
Livello 1
100
AcDbSpline
210
0.0
220
0.0
230
1.0
 70
    24
 71
     3
 72
     8
 73
     4
 74
     0
 42
0.000000001
 43
0.0000000001
 40
0.0
 40
0.0
 40
0.0
 40
0.0
 40
1.0
 40
1.0
 40
1.0
 40
1.0
 10
7.874465763840916
 20
4.884519967579379
 30
0.0
 10
7.874465763840916
 20
4.884519967579379
 30
0.0
 10
2.485432087345287
 20
4.884519967579379
 30
0.0
 10
2.485432087345287
 20
4.884519967579379
 30
0.0
  0
SPLINE
  5
4AD
330
1F
100
AcDbEntity
  8
Livello 1
100
AcDbSpline
210
0.0
220
0.0
230
1.0
 70
     8
 71
     3
 72
    11
 73
     7
 74
     0
 42
0.000000001
 43
0.0000000001
 40
1.0
 40
1.0
 40
1.0
 40
1.0
 40
2.0
 40
2.0
 40
2.0
 40
3.0
 40
3.0
 40
3.0
 40
3.0
 10
2.485432087345287
 20
4.884519967579379
 30
0.0
 10
2.456504051192553
 20
4.884519967579379
 30
0.0
 10
2.432867466386753
 20
4.908151169423561
 30
0.0
 10
2.432867466386753
 20
4.937079205576267
 30
0.0
 10
2.432867466386753
 20
4.966007241728974
 30
0.0
 10
2.456504051192553
 20
4.989643826534759
 30
0.0
 10
2.485432087345287
 20
4.989643826534759
 30
0.0
  0
SPLINE
  5
4AE
330
1F
100
AcDbEntity
  8
Livello 1
100
AcDbSpline
210
0.0
220
0.0
230
1.0
 70
    24
 71
     3
 72
     8
 73
     4
 74
     0
 42
0.000000001
 43
0.0000000001
 40
3.0
 40
3.0
 40
3.0
 40
3.0
 40
4.0
 40
4.0
 40
4.0
 40
4.0
 10
2.485432087345287
 20
4.989643826534759
 30
0.0
 10
2.485432087345287
 20
4.989643826534759
 30
0.0
 10
7.874465763840916
 20
4.989643826534759
 30
0.0
 10
7.874465763840916
 20
4.989643826534759
 30
0.0
  0
SPLINE
  5
4AF
330
1F
100
AcDbEntity
  8
Livello 1
100
AcDbSpline
210
0.0
220
0.0
230
1.0
 70
     8
 71
     3
 72
    11
 73
     7
 74
     0
 42
0.000000001
 43
0.0000000001
 40
4.0
 40
4.0
 40
4.0
 40
4.0
 40
5.0
 40
5.0
 40
5.0
 40
6.0
 40
6.0
 40
6.0
 40
6.0
 10
7.874465763840916
 20
4.989643826534759
 30
0.0
 10
7.903392454253207
 20
4.989643826534759
 30
0.0
 10
7.927029039059036
 20
4.966007241728974
 30
0.0
 10
7.927029039059036
 20
4.937079205576267
 30
0.0
 10
7.927029039059036
 20
4.908151169423561
 30
0.0
 10
7.903392454253207
 20
4.884519967579379
 30
0.0
 10
7.874465763840916
 20
4.884519967579379
 30
0.0
  0
SPLINE
  5
4B0
330
1F
100
AcDbEntity
  8
Livello 1
100
AcDbSpline
210
0.0
220
0.0
230
1.0
 70
    24
 71
     3
 72
     8
 73
     4
 74
     0
 42
0.000000001
 43
0.0000000001
 40
0.0
 40
0.0
 40
0.0
 40
0.0
 40
1.0
 40
1.0
 40
1.0
 40
1.0
 10
1.429250593214391
 20
5.933153203672461
 30
0.0
 10
1.429250593214391
 20
5.933153203672461
 30
0.0
 10
1.142794940837148
 20
5.933153203672461
 30
0.0
 10
1.142794940837148
 20
5.933153203672461
 30
0.0
  0
SPLINE
  5
4B1
330
1F
100
AcDbEntity
  8
Livello 1
100
AcDbSpline
210
0.0
220
0.0
230
1.0
 70
     8
 71
     3
 72
    11
 73
     7
 74
     0
 42
0.000000001
 43
0.0000000001
 40
1.0
 40
1.0
 40
1.0
 40
1.0
 40
2.0
 40
2.0
 40
2.0
 40
3.0
 40
3.0
 40
3.0
 40
3.0
 10
1.142794940837148
 20
5.933153203672461
 30
0.0
 10
1.113866904684456
 20
5.933153203672461
 30
0.0
 10
1.0902303198786
 20
5.956784405516685
 30
0.0
 10
1.0902303198786
 20
5.985712441669363
 30
0.0
 10
1.0902303198786
 20
6.014640477822055
 30
0.0
 10
1.113866904684456
 20
6.038277062627869
 30
0.0
 10
1.142794940837148
 20
6.038277062627869
 30
0.0
  0
SPLINE
  5
4B2
330
1F
100
AcDbEntity
  8
Livello 1
100
AcDbSpline
210
0.0
220
0.0
230
1.0
 70
    24
 71
     3
 72
     8
 73
     4
 74
     0
 42
0.000000001
 43
0.0000000001
 40
3.0
 40
3.0
 40
3.0
 40
3.0
 40
4.0
 40
4.0
 40
4.0
 40
4.0
 10
1.142794940837148
 20
6.038277062627869
 30
0.0
 10
1.142794940837148
 20
6.038277062627869
 30
0.0
 10
1.429250593214391
 20
6.038277062627869
 30
0.0
 10
1.429250593214391
 20
6.038277062627869
 30
0.0
  0
SPLINE
  5
4B3
330
1F
100
AcDbEntity
  8
Livello 1
100
AcDbSpline
210
0.0
220
0.0
230
1.0
 70
     8
 71
     3
 72
    11
 73
     7
 74
     0
 42
0.000000001
 43
0.0000000001
 40
4.0
 40
4.0
 40
4.0
 40
4.0
 40
5.0
 40
5.0
 40
5.0
 40
6.0
 40
6.0
 40
6.0
 40
6.0
 10
1.429250593214391
 20
6.038277062627869
 30
0.0
 10
1.458177283626682
 20
6.038277062627869
 30
0.0
 10
1.481813868432496
 20
6.014640477822055
 30
0.0
 10
1.481813868432496
 20
5.985712441669363
 30
0.0
 10
1.481813868432496
 20
5.956784405516685
 30
0.0
 10
1.458177283626682
 20
5.933153203672461
 30
0.0
 10
1.429250593214391
 20
5.933153203672461
 30
0.0
  0
SPLINE
  5
4B4
330
1F
100
AcDbEntity
  8
Livello 1
100
AcDbSpline
210
0.0
220
0.0
230
1.0
 70
    24
 71
     3
 72
     8
 73
     4
 74
     0
 42
0.000000001
 43
0.0000000001
 40
0.0
 40
0.0
 40
0.0
 40
0.0
 40
1.0
 40
1.0
 40
1.0
 40
1.0
 10
9.217349180846639
 20
5.933153203672461
 30
0.0
 10
9.217349180846639
 20
5.933153203672461
 30
0.0
 10
8.930892182728953
 20
5.933153203672461
 30
0.0
 10
8.930892182728953
 20
5.933153203672461
 30
0.0
  0
SPLINE
  5
4B5
330
1F
100
AcDbEntity
  8
Livello 1
100
AcDbSpline
210
0.0
220
0.0
230
1.0
 70
     8
 71
     3
 72
    11
 73
     7
 74
     0
 42
0.000000001
 43
0.0000000001
 40
1.0
 40
1.0
 40
1.0
 40
1.0
 40
2.0
 40
2.0
 40
2.0
 40
3.0
 40
3.0
 40
3.0
 40
3.0
 10
8.930892182728953
 20
5.933153203672461
 30
0.0
 10
8.901964146576247
 20
5.933153203672461
 30
0.0
 10
8.878327561770447
 20
5.956784405516685
 30
0.0
 10
8.878327561770447
 20
5.985712441669363
 30
0.0
 10
8.878327561770447
 20
6.014640477822055
 30
0.0
 10
8.901964146576247
 20
6.038277062627869
 30
0.0
 10
8.930892182728953
 20
6.038277062627869
 30
0.0
  0
SPLINE
  5
4B6
330
1F
100
AcDbEntity
  8
Livello 1
100
AcDbSpline
210
0.0
220
0.0
230
1.0
 70
    24
 71
     3
 72
     8
 73
     4
 74
     0
 42
0.000000001
 43
0.0000000001
 40
3.0
 40
3.0
 40
3.0
 40
3.0
 40
4.0
 40
4.0
 40
4.0
 40
4.0
 10
8.930892182728953
 20
6.038277062627869
 30
0.0
 10
8.930892182728953
 20
6.038277062627869
 30
0.0
 10
9.217349180846639
 20
6.038277062627869
 30
0.0
 10
9.217349180846639
 20
6.038277062627869
 30
0.0
  0
SPLINE
  5
4B7
330
1F
100
AcDbEntity
  8
Livello 1
100
AcDbSpline
210
0.0
220
0.0
230
1.0
 70
     8
 71
     3
 72
    11
 73
     7
 74
     0
 42
0.000000001
 43
0.0000000001
 40
4.0
 40
4.0
 40
4.0
 40
4.0
 40
5.0
 40
5.0
 40
5.0
 40
6.0
 40
6.0
 40
6.0
 40
6.0
 10
9.217349180846639
 20
6.038277062627869
 30
0.0
 10
9.246274525518543
 20
6.038277062627869
 30
0.0
 10
9.269911110324329
 20
6.014640477822055
 30
0.0
 10
9.269911110324329
 20
5.985712441669363
 30
0.0
 10
9.269911110324329
 20
5.956784405516685
 30
0.0
 10
9.246274525518543
 20
5.933153203672461
 30
0.0
 10
9.217349180846639
 20
5.933153203672461
 30
0.0
  0
SPLINE
  5
4B8
330
1F
100
AcDbEntity
  8
Livello 1
100
AcDbSpline
210
0.0
220
0.0
230
1.0
 70
     8
 71
     3
 72
     8
 73
     4
 74
     0
 42
0.000000001
 43
0.0000000001
 40
0.0
 40
0.0
 40
0.0
 40
0.0
 40
1.0
 40
1.0
 40
1.0
 40
1.0
 10
7.928229439517167
 20
4.061029104409058
 30
0.0
 10
7.900006571346622
 20
4.061029104409058
 30
0.0
 10
7.876723916272254
 20
4.083610628722567
 30
0.0
 10
7.876017402549692
 20
4.111828113931466
 30
0.0
  0
SPLINE
  5
4B9
330
1F
100
AcDbEntity
  8
Livello 1
100
AcDbSpline
210
0.0
220
0.0
230
1.0
 70
    24
 71
     3
 72
     8
 73
     4
 74
     0
 42
0.000000001
 43
0.0000000001
 40
1.0
 40
1.0
 40
1.0
 40
1.0
 40
2.0
 40
2.0
 40
2.0
 40
2.0
 10
7.876017402549692
 20
4.111828113931466
 30
0.0
 10
7.876017402549692
 20
4.111828113931466
 30
0.0
 10
7.804051241899429
 20
6.610555869383176
 30
0.0
 10
7.804051241899429
 20
6.610555869383176
 30
0.0
  0
SPLINE
  5
4BA
330
1F
100
AcDbEntity
  8
Livello 1
100
AcDbSpline
210
0.0
220
0.0
230
1.0
 70
     8
 71
     3
 72
     8
 73
     4
 74
     0
 42
0.000000001
 43
0.0000000001
 40
2.0
 40
2.0
 40
2.0
 40
2.0
 40
3.0
 40
3.0
 40
3.0
 40
3.0
 10
7.804051241899429
 20
6.610555869383176
 30
0.0
 10
7.804051241899429
 20
6.617962824676467
 30
0.0
 10
7.80546292360411
 20
6.625019887459473
 30
0.0
 10
7.807578427550538
 20
6.631366399298755
 30
0.0
  0
SPLINE
  5
4BB
330
1F
100
AcDbEntity
  8
Livello 1
100
AcDbSpline
210
0.0
220
0.0
230
1.0
 70
    24
 71
     3
 72
     8
 73
     4
 74
     0
 42
0.000000001
 43
0.0000000001
 40
3.0
 40
3.0
 40
3.0
 40
3.0
 40
4.0
 40
4.0
 40
4.0
 40
4.0
 10
7.807578427550538
 20
6.631366399298755
 30
0.0
 10
7.807578427550538
 20
6.631366399298755
 30
0.0
 10
3.636687450945686
 20
6.631366399298755
 30
0.0
 10
3.636687450945686
 20
6.631366399298755
 30
0.0
  0
SPLINE
  5
4BC
330
1F
100
AcDbEntity
  8
Livello 1
100
AcDbSpline
210
0.0
220
0.0
230
1.0
 70
    24
 71
     3
 72
     8
 73
     4
 74
     0
 42
0.000000001
 43
0.0000000001
 40
4.0
 40
4.0
 40
4.0
 40
4.0
 40
5.0
 40
5.0
 40
5.0
 40
5.0
 10
3.636687450945686
 20
6.631366399298755
 30
0.0
 10
3.636687450945686
 20
6.631366399298755
 30
0.0
 10
1.332343825287509
 20
6.167112867852878
 30
0.0
 10
1.332343825287509
 20
6.167112867852878
 30
0.0
  0
SPLINE
  5
4BD
330
1F
100
AcDbEntity
  8
Livello 1
100
AcDbSpline
210
0.0
220
0.0
230
1.0
 70
     8
 71
     3
 72
     8
 73
     4
 74
     0
 42
0.000000001
 43
0.0000000001
 40
5.0
 40
5.0
 40
5.0
 40
5.0
 40
6.0
 40
6.0
 40
6.0
 40
6.0
 10
1.332343825287509
 20
6.167112867852878
 30
0.0
 10
1.304120957116921
 20
6.161471523995757
 30
0.0
 10
1.276252018677837
 20
6.179811274492962
 30
0.0
 10
1.270254053608425
 20
6.208034142663549
 30
0.0
  0
SPLINE
  5
4BE
330
1F
100
AcDbEntity
  8
Livello 1
100
AcDbSpline
210
0.0
220
0.0
230
1.0
 70
     8
 71
     3
 72
     8
 73
     4
 74
     0
 42
0.000000001
 43
0.0000000001
 40
6.0
 40
6.0
 40
6.0
 40
6.0
 40
7.0
 40
7.0
 40
7.0
 40
7.0
 10
1.270254053608425
 20
6.208034142663549
 30
0.0
 10
1.264610018270488
 20
6.236612286306055
 30
0.0
 10
1.282953805989009
 20
6.264479879004667
 30
0.0
 10
1.311529258150642
 20
6.270126605823477
 30
0.0
  0
SPLINE
  5
4BF
330
1F
100
AcDbEntity
  8
Livello 1
100
AcDbSpline
210
0.0
220
0.0
230
1.0
 70
    24
 71
     3
 72
     8
 73
     4
 74
     0
 42
0.000000001
 43
0.0000000001
 40
7.0
 40
7.0
 40
7.0
 40
7.0
 40
8.0
 40
8.0
 40
8.0
 40
8.0
 10
1.311529258150642
 20
6.270126605823477
 30
0.0
 10
1.311529258150642
 20
6.270126605823477
 30
0.0
 10
3.62010658318249
 20
6.735085305251558
 30
0.0
 10
3.62010658318249
 20
6.735085305251558
 30
0.0
  0
SPLINE
  5
4C0
330
1F
100
AcDbEntity
  8
Livello 1
100
AcDbSpline
210
0.0
220
0.0
230
1.0
 70
     8
 71
     3
 72
     8
 73
     4
 74
     0
 42
0.000000001
 43
0.0000000001
 40
8.0
 40
8.0
 40
8.0
 40
8.0
 40
9.0
 40
9.0
 40
9.0
 40
9.0
 10
3.62010658318249
 20
6.735085305251558
 30
0.0
 10
3.622223432869333
 20
6.735440580723476
 30
0.0
 10
3.624340282556175
 20
6.736145748705553
 30
0.0
 10
3.62645713224299
 20
6.736145748705553
 30
0.0
  0
SPLINE
  5
4C1
330
1F
100
AcDbEntity
  8
Livello 1
100
AcDbSpline
210
0.0
220
0.0
230
1.0
 70
     8
 71
     3
 72
     8
 73
     4
 74
     0
 42
0.000000001
 43
0.0000000001
 40
9.0
 40
9.0
 40
9.0
 40
9.0
 40
10.0
 40
10.0
 40
10.0
 40
10.0
 10
3.62645713224299
 20
6.736145748705553
 30
0.0
 10
3.628573981929847
 20
6.736495641215768
 30
0.0
 10
3.6303369018852
 20
6.736495641215768
 30
0.0
 10
3.632453751572001
 20
6.736495641215768
 30
0.0
  0
SPLINE
  5
4C2
330
1F
100
AcDbEntity
  8
Livello 1
100
AcDbSpline
210
0.0
220
0.0
230
1.0
 70
    24
 71
     3
 72
     8
 73
     4
 74
     0
 42
0.000000001
 43
0.0000000001
 40
10.0
 40
10.0
 40
10.0
 40
10.0
 40
11.0
 40
11.0
 40
11.0
 40
11.0
 10
3.632453751572001
 20
6.736495641215768
 30
0.0
 10
3.632453751572001
 20
6.736495641215768
 30
0.0
 10
8.841217423840248
 20
6.736495641215768
 30
0.0
 10
8.841217423840248
 20
6.736495641215768
 30
0.0
  0
SPLINE
  5
4C3
330
1F
100
AcDbEntity
  8
Livello 1
100
AcDbSpline
210
0.0
220
0.0
230
1.0
 70
     8
 71
     3
 72
    11
 73
     7
 74
     0
 42
0.000000001
 43
0.0000000001
 40
11.0
 40
11.0
 40
11.0
 40
11.0
 40
12.0
 40
12.0
 40
12.0
 40
13.0
 40
13.0
 40
13.0
 40
13.0
 10
8.841217423840248
 20
6.736495641215768
 30
0.0
 10
8.870145459992954
 20
6.736495641215768
 30
0.0
 10
8.89378204479874
 20
6.712859056409968
 30
0.0
 10
8.89378204479874
 20
6.683931020257261
 30
0.0
 10
8.89378204479874
 20
6.655002984104555
 30
0.0
 10
8.870145459992954
 20
6.631366399298755
 30
0.0
 10
8.841217423840248
 20
6.631366399298755
 30
0.0
  0
SPLINE
  5
4C4
330
1F
100
AcDbEntity
  8
Livello 1
100
AcDbSpline
210
0.0
220
0.0
230
1.0
 70
    24
 71
     3
 72
     8
 73
     4
 74
     0
 42
0.000000001
 43
0.0000000001
 40
13.0
 40
13.0
 40
13.0
 40
13.0
 40
14.0
 40
14.0
 40
14.0
 40
14.0
 10
8.841217423840248
 20
6.631366399298755
 30
0.0
 10
8.841217423840248
 20
6.631366399298755
 30
0.0
 10
7.905650606684545
 20
6.631366399298755
 30
0.0
 10
7.905650606684545
 20
6.631366399298755
 30
0.0
  0
SPLINE
  5
4C5
330
1F
100
AcDbEntity
  8
Livello 1
100
AcDbSpline
210
0.0
220
0.0
230
1.0
 70
     8
 71
     3
 72
     8
 73
     4
 74
     0
 42
0.000000001
 43
0.0000000001
 40
14.0
 40
14.0
 40
14.0
 40
14.0
 40
15.0
 40
15.0
 40
15.0
 40
15.0
 10
7.905650606684545
 20
6.631366399298755
 30
0.0
 10
7.90776745637136
 20
6.626074947951863
 30
0.0
 10
7.908826554084996
 20
6.620078328622867
 30
0.0
 10
7.909179138076083
 20
6.613731816783555
 30
0.0
  0
SPLINE
  5
4C6
330
1F
100
AcDbEntity
  8
Livello 1
100
AcDbSpline
210
0.0
220
0.0
230
1.0
 70
    24
 71
     3
 72
     8
 73
     4
 74
     0
 42
0.000000001
 43
0.0000000001
 40
15.0
 40
15.0
 40
15.0
 40
15.0
 40
16.0
 40
16.0
 40
16.0
 40
16.0
 10
7.909179138076083
 20
6.613731816783555
 30
0.0
 10
7.909179138076083
 20
6.613731816783555
 30
0.0
 10
7.980792714735287
 20
4.115004061331887
 30
0.0
 10
7.980792714735287
 20
4.115004061331887
 30
0.0
  0
SPLINE
  5
4C7
330
1F
100
AcDbEntity
  8
Livello 1
100
AcDbSpline
210
0.0
220
0.0
230
1.0
 70
     8
 71
     3
 72
     8
 73
     4
 74
     0
 42
0.000000001
 43
0.0000000001
 40
16.0
 40
16.0
 40
16.0
 40
16.0
 40
17.0
 40
17.0
 40
17.0
 40
17.0
 10
7.980792714735287
 20
4.115004061331887
 30
0.0
 10
7.981497882717405
 20
4.086076025179181
 30
0.0
 10
7.958920395625199
 20
4.061734272391262
 30
0.0
 10
7.929639775481462
 20
4.061029104409058
 30
0.0
  0
SPLINE
  5
4C8
330
1F
100
AcDbEntity
  8
Livello 1
100
AcDbSpline
210
0.0
220
0.0
230
1.0
 70
    24
 71
     3
 72
     8
 73
     4
 74
     0
 42
0.000000001
 43
0.0000000001
 40
17.0
 40
17.0
 40
17.0
 40
17.0
 40
18.0
 40
18.0
 40
18.0
 40
18.0
 10
7.929639775481462
 20
4.061029104409058
 30
0.0
 10
7.929639775481462
 20
4.061029104409058
 30
0.0
 10
7.928229439517167
 20
4.061029104409058
 30
0.0
 10
7.928229439517167
 20
4.061029104409058
 30
0.0
  0
SPLINE
  5
4C9
330
1F
100
AcDbEntity
  8
Livello 1
100
AcDbSpline
210
0.0
220
0.0
230
1.0
 70
    24
 71
     3
 72
     8
 73
     4
 74
     0
 42
0.000000001
 43
0.0000000001
 40
0.0
 40
0.0
 40
0.0
 40
0.0
 40
1.0
 40
1.0
 40
1.0
 40
1.0
 10
1.42935690670788
 20
5.933223182174572
 30
0.0
 10
1.42935690670788
 20
5.933223182174572
 30
0.0
 10
1.250146000194121
 20
5.933223182174572
 30
0.0
 10
1.250146000194121
 20
5.933223182174572
 30
0.0
  0
SPLINE
  5
4CA
330
1F
100
AcDbEntity
  8
Livello 1
100
AcDbSpline
210
0.0
220
0.0
230
1.0
 70
     8
 71
     3
 72
    11
 73
     7
 74
     0
 42
0.000000001
 43
0.0000000001
 40
1.0
 40
1.0
 40
1.0
 40
1.0
 40
2.0
 40
2.0
 40
2.0
 40
3.0
 40
3.0
 40
3.0
 40
3.0
 10
1.250146000194121
 20
5.933223182174572
 30
0.0
 10
1.220865380050341
 20
5.933223182174572
 30
0.0
 10
1.197582724976001
 20
5.956504491508468
 30
0.0
 10
1.197582724976001
 20
5.985787803133064
 30
0.0
 10
1.197582724976001
 20
6.01471583928577
 30
0.0
 10
1.220865380050341
 20
6.037997148619666
 30
0.0
 10
1.250146000194121
 20
6.037997148619666
 30
0.0
  0
SPLINE
  5
4CB
330
1F
100
AcDbEntity
  8
Livello 1
100
AcDbSpline
210
0.0
220
0.0
230
1.0
 70
    24
 71
     3
 72
     8
 73
     4
 74
     0
 42
0.000000001
 43
0.0000000001
 40
3.0
 40
3.0
 40
3.0
 40
3.0
 40
4.0
 40
4.0
 40
4.0
 40
4.0
 10
1.250146000194121
 20
6.037997148619666
 30
0.0
 10
1.250146000194121
 20
6.037997148619666
 30
0.0
 10
1.42935690670788
 20
6.037997148619666
 30
0.0
 10
1.42935690670788
 20
6.037997148619666
 30
0.0
  0
SPLINE
  5
4CC
330
1F
100
AcDbEntity
  8
Livello 1
100
AcDbSpline
210
0.0
220
0.0
230
1.0
 70
     8
 71
     3
 72
    11
 73
     7
 74
     0
 42
0.000000001
 43
0.0000000001
 40
4.0
 40
4.0
 40
4.0
 40
4.0
 40
5.0
 40
5.0
 40
5.0
 40
6.0
 40
6.0
 40
6.0
 40
6.0
 10
1.42935690670788
 20
6.037997148619666
 30
0.0
 10
1.458284942860615
 20
6.037997148619666
 30
0.0
 10
1.481921527666429
 20
6.01471583928577
 30
0.0
 10
1.481921527666429
 20
5.985787803133064
 30
0.0
 10
1.481921527666429
 20
5.956504491508468
 30
0.0
 10
1.458284942860615
 20
5.933223182174572
 30
0.0
 10
1.42935690670788
 20
5.933223182174572
 30
0.0
  0
SPLINE
  5
4CD
330
1F
100
AcDbEntity
  8
Livello 1
100
AcDbSpline
210
0.0
220
0.0
230
1.0
 70
     8
 71
     3
 72
     8
 73
     4
 74
     0
 42
0.000000001
 43
0.0000000001
 40
0.0
 40
0.0
 40
0.0
 40
0.0
 40
1.0
 40
1.0
 40
1.0
 40
1.0
 10
9.020429676094451
 20
6.166057807360473
 30
0.0
 10
9.017606312685046
 20
6.166057807360473
 30
0.0
 10
9.014782949275641
 20
6.166407699870674
 30
0.0
 10
9.011609693356049
 20
6.166762975342564
 30
0.0
  0
SPLINE
  5
4CE
330
1F
100
AcDbEntity
  8
Livello 1
100
AcDbSpline
210
0.0
220
0.0
230
1.0
 70
    24
 71
     3
 72
     8
 73
     4
 74
     0
 42
0.000000001
 43
0.0000000001
 40
1.0
 40
1.0
 40
1.0
 40
1.0
 40
2.0
 40
2.0
 40
2.0
 40
2.0
 10
9.011609693356049
 20
6.166762975342564
 30
0.0
 10
9.011609693356049
 20
6.166762975342564
 30
0.0
 10
8.904364947492553
 20
6.184752833329682
 30
0.0
 10
8.904364947492553
 20
6.184752833329682
 30
0.0
  0
SPLINE
  5
4CF
330
1F
100
AcDbEntity
  8
Livello 1
100
AcDbSpline
210
0.0
220
0.0
230
1.0
 70
     8
 71
     3
 72
     8
 73
     4
 74
     0
 42
0.000000001
 43
0.0000000001
 40
2.0
 40
2.0
 40
2.0
 40
2.0
 40
3.0
 40
3.0
 40
3.0
 40
3.0
 10
8.904364947492553
 20
6.184752833329682
 30
0.0
 10
8.875789495330835
 20
6.18933911669437
 30
0.0
 10
8.856386609898748
 20
6.216501541410877
 30
0.0
 10
8.860972893263451
 20
6.245079685053383
 30
0.0
  0
SPLINE
  5
4D0
330
1F
100
AcDbEntity
  8
Livello 1
100
AcDbSpline
210
0.0
220
0.0
230
1.0
 70
     8
 71
     3
 72
     8
 73
     4
 74
     0
 42
0.000000001
 43
0.0000000001
 40
3.0
 40
3.0
 40
3.0
 40
3.0
 40
4.0
 40
4.0
 40
4.0
 40
4.0
 10
8.860972893263451
 20
6.245079685053383
 30
0.0
 10
8.865911760619255
 20
6.273652445734171
 30
0.0
 10
8.892369017353644
 20
6.29305263968547
 30
0.0
 10
8.921649637497452
 20
6.288116463810553
 30
0.0
  0
SPLINE
  5
4D1
330
1F
100
AcDbEntity
  8
Livello 1
100
AcDbSpline
210
0.0
220
0.0
230
1.0
 70
    24
 71
     3
 72
     8
 73
     4
 74
     0
 42
0.000000001
 43
0.0000000001
 40
4.0
 40
4.0
 40
4.0
 40
4.0
 40
5.0
 40
5.0
 40
5.0
 40
5.0
 10
8.921649637497452
 20
6.288116463810553
 30
0.0
 10
8.921649637497452
 20
6.288116463810553
 30
0.0
 10
9.028894383360949
 20
6.270126605823477
 30
0.0
 10
9.028894383360949
 20
6.270126605823477
 30
0.0
  0
SPLINE
  5
4D2
330
1F
100
AcDbEntity
  8
Livello 1
100
AcDbSpline
210
0.0
220
0.0
230
1.0
 70
     8
 71
     3
 72
     8
 73
     4
 74
     0
 42
0.000000001
 43
0.0000000001
 40
5.0
 40
5.0
 40
5.0
 40
5.0
 40
6.0
 40
6.0
 40
6.0
 40
6.0
 10
9.028894383360949
 20
6.270126605823477
 30
0.0
 10
9.057469835522539
 20
6.265540322458761
 30
0.0
 10
9.076872720954753
 20
6.238372514780564
 30
0.0
 10
9.071933853598949
 20
6.209799754099762
 30
0.0
  0
SPLINE
  5
4D3
330
1F
100
AcDbEntity
  8
Livello 1
100
AcDbSpline
210
0.0
220
0.0
230
1.0
 70
     8
 71
     3
 72
     8
 73
     4
 74
     0
 42
0.000000001
 43
0.0000000001
 40
6.0
 40
6.0
 40
6.0
 40
6.0
 40
7.0
 40
7.0
 40
7.0
 40
7.0
 10
9.071933853598949
 20
6.209799754099762
 30
0.0
 10
9.067700154225249
 20
6.184397557857764
 30
0.0
 10
9.045476596864531
 20
6.166057807360473
 30
0.0
 10
9.020429676094451
 20
6.166057807360473
 30
0.0
  0
SPLINE
  5
4D4
330
1F
100
AcDbEntity
  8
Livello 1
100
AcDbSpline
210
0.0
220
0.0
230
1.0
 70
     8
 71
     3
 72
     8
 73
     4
 74
     0
 42
0.000000001
 43
0.0000000001
 40
0.0
 40
0.0
 40
0.0
 40
0.0
 40
1.0
 40
1.0
 40
1.0
 40
1.0
 10
8.411815877893175
 20
4.060964508868764
 30
0.0
 10
8.383240425731557
 20
4.060964508868764
 30
0.0
 10
8.359956424916774
 20
4.08354065022047
 30
0.0
 10
8.359251256934626
 20
4.111763518391057
 30
0.0
  0
SPLINE
  5
4D5
330
1F
100
AcDbEntity
  8
Livello 1
100
AcDbSpline
210
0.0
220
0.0
230
1.0
 70
    24
 71
     3
 72
     8
 73
     4
 74
     0
 42
0.000000001
 43
0.0000000001
 40
1.0
 40
1.0
 40
1.0
 40
1.0
 40
2.0
 40
2.0
 40
2.0
 40
2.0
 10
8.359251256934626
 20
4.111763518391057
 30
0.0
 10
8.359251256934626
 20
4.111763518391057
 30
0.0
 10
8.287636334534994
 20
6.610841166352969
 30
0.0
 10
8.287636334534994
 20
6.610841166352969
 30
0.0
  0
SPLINE
  5
4D6
330
1F
100
AcDbEntity
  8
Livello 1
100
AcDbSpline
210
0.0
220
0.0
230
1.0
 70
     8
 71
     3
 72
     8
 73
     4
 74
     0
 42
0.000000001
 43
0.0000000001
 40
2.0
 40
2.0
 40
2.0
 40
2.0
 40
3.0
 40
3.0
 40
3.0
 40
3.0
 10
8.287636334534994
 20
6.610841166352969
 30
0.0
 10
8.286578582561801
 20
6.639769202505661
 30
0.0
 10
8.309509999385483
 20
6.664110955293679
 30
0.0
 10
8.338438035538203
 20
6.66481612327577
 30
0.0
  0
SPLINE
  5
4D7
330
1F
100
AcDbEntity
  8
Livello 1
100
AcDbSpline
210
0.0
220
0.0
230
1.0
 70
     8
 71
     3
 72
     8
 73
     4
 74
     0
 42
0.000000001
 43
0.0000000001
 40
3.0
 40
3.0
 40
3.0
 40
3.0
 40
4.0
 40
4.0
 40
4.0
 40
4.0
 10
8.338438035538203
 20
6.66481612327577
 30
0.0
 10
8.36877640765519
 20
6.665166015786056
 30
0.0
 10
8.391707824478885
 20
6.642589874434264
 30
0.0
 10
8.392412992461004
 20
6.613661838281558
 30
0.0
  0
SPLINE
  5
4D8
330
1F
100
AcDbEntity
  8
Livello 1
100
AcDbSpline
210
0.0
220
0.0
230
1.0
 70
    24
 71
     3
 72
     8
 73
     4
 74
     0
 42
0.000000001
 43
0.0000000001
 40
4.0
 40
4.0
 40
4.0
 40
4.0
 40
5.0
 40
5.0
 40
5.0
 40
5.0
 10
8.392412992461004
 20
6.613661838281558
 30
0.0
 10
8.392412992461004
 20
6.613661838281558
 30
0.0
 10
8.464025223379806
 20
4.114939465791564
 30
0.0
 10
8.464025223379806
 20
4.114939465791564
 30
0.0
  0
SPLINE
  5
4D9
330
1F
100
AcDbEntity
  8
Livello 1
100
AcDbSpline
210
0.0
220
0.0
230
1.0
 70
     8
 71
     3
 72
     8
 73
     4
 74
     0
 42
0.000000001
 43
0.0000000001
 40
5.0
 40
5.0
 40
5.0
 40
5.0
 40
6.0
 40
6.0
 40
6.0
 40
6.0
 10
8.464025223379806
 20
4.114939465791564
 30
0.0
 10
8.464733082842784
 20
4.086011429638887
 30
0.0
 10
8.442154250010176
 20
4.061669676850868
 30
0.0
 10
8.413226213857456
 20
4.060964508868764
 30
0.0
  0
SPLINE
  5
4DA
330
1F
100
AcDbEntity
  8
Livello 1
100
AcDbSpline
210
0.0
220
0.0
230
1.0
 70
    24
 71
     3
 72
     8
 73
     4
 74
     0
 42
0.000000001
 43
0.0000000001
 40
6.0
 40
6.0
 40
6.0
 40
6.0
 40
7.0
 40
7.0
 40
7.0
 40
7.0
 10
8.413226213857456
 20
4.060964508868764
 30
0.0
 10
8.413226213857456
 20
4.060964508868764
 30
0.0
 10
8.411815877893175
 20
4.060964508868764
 30
0.0
 10
8.411815877893175
 20
4.060964508868764
 30
0.0
  0
SPLINE
  5
4DB
330
1F
100
AcDbEntity
  8
Livello 1
100
AcDbSpline
210
0.0
220
0.0
230
1.0
 70
     8
 71
     3
 72
     8
 73
     4
 74
     0
 42
0.000000001
 43
0.0000000001
 40
0.0
 40
0.0
 40
0.0
 40
0.0
 40
1.0
 40
1.0
 40
1.0
 40
1.0
 10
8.966734633179839
 20
4.060964508868764
 30
0.0
 10
8.938159181018136
 20
4.060964508868764
 30
0.0
 10
8.914875180203353
 20
4.08389054273077
 30
0.0
 10
8.914170012221248
 20
4.112113410901258
 30
0.0
  0
SPLINE
  5
4DC
330
1F
100
AcDbEntity
  8
Livello 1
100
AcDbSpline
210
0.0
220
0.0
230
1.0
 70
    24
 71
     3
 72
     8
 73
     4
 74
     0
 42
0.000000001
 43
0.0000000001
 40
1.0
 40
1.0
 40
1.0
 40
1.0
 40
2.0
 40
2.0
 40
2.0
 40
2.0
 10
8.914170012221248
 20
4.112113410901258
 30
0.0
 10
8.914170012221248
 20
4.112113410901258
 30
0.0
 10
8.860547639289535
 20
6.611191058863255
 30
0.0
 10
8.860547639289535
 20
6.611191058863255
 30
0.0
  0
SPLINE
  5
4DD
330
1F
100
AcDbEntity
  8
Livello 1
100
AcDbSpline
210
0.0
220
0.0
230
1.0
 70
     8
 71
     3
 72
     8
 73
     4
 74
     0
 42
0.000000001
 43
0.0000000001
 40
2.0
 40
2.0
 40
2.0
 40
2.0
 40
3.0
 40
3.0
 40
3.0
 40
3.0
 10
8.860547639289535
 20
6.611191058863255
 30
0.0
 10
8.859842471307345
 20
6.640119095015961
 30
0.0
 10
8.882773888131055
 20
6.664110955293679
 30
0.0
 10
8.911701924283747
 20
6.66481612327577
 30
0.0
  0
SPLINE
  5
4DE
330
1F
100
AcDbEntity
  8
Livello 1
100
AcDbSpline
210
0.0
220
0.0
230
1.0
 70
     8
 71
     3
 72
     8
 73
     4
 74
     0
 42
0.000000001
 43
0.0000000001
 40
3.0
 40
3.0
 40
3.0
 40
3.0
 40
4.0
 40
4.0
 40
4.0
 40
4.0
 10
8.911701924283747
 20
6.66481612327577
 30
0.0
 10
8.939216932991342
 20
6.663050511839671
 30
0.0
 10
8.964619129233355
 20
6.642589874434264
 30
0.0
 10
8.965324297215545
 20
6.613306562809668
 30
0.0
  0
SPLINE
  5
4DF
330
1F
100
AcDbEntity
  8
Livello 1
100
AcDbSpline
210
0.0
220
0.0
230
1.0
 70
    24
 71
     3
 72
     8
 73
     4
 74
     0
 42
0.000000001
 43
0.0000000001
 40
4.0
 40
4.0
 40
4.0
 40
4.0
 40
5.0
 40
5.0
 40
5.0
 40
5.0
 10
8.965324297215545
 20
6.613306562809668
 30
0.0
 10
8.965324297215545
 20
6.613306562809668
 30
0.0
 10
8.97767011986464
 20
6.038282445589558
 30
0.0
 10
8.97767011986464
 20
6.038282445589558
 30
0.0
  0
SPLINE
  5
4E0
330
1F
100
AcDbEntity
  8
Livello 1
100
AcDbSpline
210
0.0
220
0.0
230
1.0
 70
    24
 71
     3
 72
     8
 73
     4
 74
     0
 42
0.000000001
 43
0.0000000001
 40
5.0
 40
5.0
 40
5.0
 40
5.0
 40
6.0
 40
6.0
 40
6.0
 40
6.0
 10
8.97767011986464
 20
6.038282445589558
 30
0.0
 10
8.97767011986464
 20
6.038282445589558
 30
0.0
 10
8.984374598656643
 20
6.038282445589558
 30
0.0
 10
8.984374598656643
 20
6.038282445589558
 30
0.0
  0
SPLINE
  5
4E1
330
1F
100
AcDbEntity
  8
Livello 1
100
AcDbSpline
210
0.0
220
0.0
230
1.0
 70
     8
 71
     3
 72
    11
 73
     7
 74
     0
 42
0.000000001
 43
0.0000000001
 40
6.0
 40
6.0
 40
6.0
 40
6.0
 40
7.0
 40
7.0
 40
7.0
 40
8.0
 40
8.0
 40
8.0
 40
8.0
 10
8.984374598656643
 20
6.038282445589558
 30
0.0
 10
9.013302634809349
 20
6.038282445589558
 30
0.0
 10
9.036936528134333
 20
6.014645860783772
 30
0.0
 10
9.036936528134333
 20
5.985717824631066
 30
0.0
 10
9.036936528134333
 20
5.956789788478261
 30
0.0
 10
9.013302634809349
 20
5.933153203672461
 30
0.0
 10
8.984374598656643
 20
5.933153203672461
 30
0.0
  0
SPLINE
  5
4E2
330
1F
100
AcDbEntity
  8
Livello 1
100
AcDbSpline
210
0.0
220
0.0
230
1.0
 70
    24
 71
     3
 72
     8
 73
     4
 74
     0
 42
0.000000001
 43
0.0000000001
 40
8.0
 40
8.0
 40
8.0
 40
8.0
 40
9.0
 40
9.0
 40
9.0
 40
9.0
 10
8.984374598656643
 20
5.933153203672461
 30
0.0
 10
8.984374598656643
 20
5.933153203672461
 30
0.0
 10
8.980140899282957
 20
5.933153203672461
 30
0.0
 10
8.980140899282957
 20
5.933153203672461
 30
0.0
  0
SPLINE
  5
4E3
330
1F
100
AcDbEntity
  8
Livello 1
100
AcDbSpline
210
0.0
220
0.0
230
1.0
 70
    24
 71
     3
 72
     8
 73
     4
 74
     0
 42
0.000000001
 43
0.0000000001
 40
9.0
 40
9.0
 40
9.0
 40
9.0
 40
10.0
 40
10.0
 40
10.0
 40
10.0
 10
8.980140899282957
 20
5.933153203672461
 30
0.0
 10
8.980140899282957
 20
5.933153203672461
 30
0.0
 10
9.019299254138346
 20
4.114584190319675
 30
0.0
 10
9.019299254138346
 20
4.114584190319675
 30
0.0
  0
SPLINE
  5
4E4
330
1F
100
AcDbEntity
  8
Livello 1
100
AcDbSpline
210
0.0
220
0.0
230
1.0
 70
     8
 71
     3
 72
     8
 73
     4
 74
     0
 42
0.000000001
 43
0.0000000001
 40
10.0
 40
10.0
 40
10.0
 40
10.0
 40
11.0
 40
11.0
 40
11.0
 40
11.0
 10
9.019299254138346
 20
4.114584190319675
 30
0.0
 10
9.02000442212045
 20
4.085656154166869
 30
0.0
 10
8.996720421305738
 20
4.061669676850868
 30
0.0
 10
8.96779238515306
 20
4.060964508868764
 30
0.0
  0
SPLINE
  5
4E5
330
1F
100
AcDbEntity
  8
Livello 1
100
AcDbSpline
210
0.0
220
0.0
230
1.0
 70
    24
 71
     3
 72
     8
 73
     4
 74
     0
 42
0.000000001
 43
0.0000000001
 40
11.0
 40
11.0
 40
11.0
 40
11.0
 40
12.0
 40
12.0
 40
12.0
 40
12.0
 10
8.96779238515306
 20
4.060964508868764
 30
0.0
 10
8.96779238515306
 20
4.060964508868764
 30
0.0
 10
8.966734633179839
 20
4.060964508868764
 30
0.0
 10
8.966734633179839
 20
4.060964508868764
 30
0.0
  0
SPLINE
  5
4E6
330
1F
100
AcDbEntity
  8
Livello 1
100
AcDbSpline
210
0.0
220
0.0
230
1.0
 70
     8
 71
     3
 72
     8
 73
     4
 74
     0
 42
0.000000001
 43
0.0000000001
 40
0.0
 40
0.0
 40
0.0
 40
0.0
 40
1.0
 40
1.0
 40
1.0
 40
1.0
 10
8.733902699474739
 20
4.060964508868764
 30
0.0
 10
8.70532724731305
 20
4.060964508868764
 30
0.0
 10
8.682043246498309
 20
4.08389054273077
 30
0.0
 10
8.681338078516162
 20
4.112113410901258
 30
0.0
  0
SPLINE
  5
4E7
330
1F
100
AcDbEntity
  8
Livello 1
100
AcDbSpline
210
0.0
220
0.0
230
1.0
 70
    24
 71
     3
 72
     8
 73
     4
 74
     0
 42
0.000000001
 43
0.0000000001
 40
1.0
 40
1.0
 40
1.0
 40
1.0
 40
2.0
 40
2.0
 40
2.0
 40
2.0
 10
8.681338078516162
 20
4.112113410901258
 30
0.0
 10
8.681338078516162
 20
4.112113410901258
 30
0.0
 10
8.627715705584463
 20
6.611191058863255
 30
0.0
 10
8.627715705584463
 20
6.611191058863255
 30
0.0
  0
SPLINE
  5
4E8
330
1F
100
AcDbEntity
  8
Livello 1
100
AcDbSpline
210
0.0
220
0.0
230
1.0
 70
     8
 71
     3
 72
     8
 73
     4
 74
     0
 42
0.000000001
 43
0.0000000001
 40
2.0
 40
2.0
 40
2.0
 40
2.0
 40
3.0
 40
3.0
 40
3.0
 40
3.0
 10
8.627715705584463
 20
6.611191058863255
 30
0.0
 10
8.627010537602274
 20
6.640119095015961
 30
0.0
 10
8.649939262945125
 20
6.664110955293679
 30
0.0
 10
8.679219883088919
 20
6.66481612327577
 30
0.0
  0
SPLINE
  5
4E9
330
1F
100
AcDbEntity
  8
Livello 1
100
AcDbSpline
210
0.0
220
0.0
230
1.0
 70
     8
 71
     3
 72
     8
 73
     4
 74
     0
 42
0.000000001
 43
0.0000000001
 40
3.0
 40
3.0
 40
3.0
 40
3.0
 40
4.0
 40
4.0
 40
4.0
 40
4.0
 10
8.679219883088919
 20
6.66481612327577
 30
0.0
 10
8.707795335250537
 20
6.663050511839671
 30
0.0
 10
8.732137088038541
 20
6.642589874434264
 30
0.0
 10
8.732489672029544
 20
6.613306562809668
 30
0.0
  0
SPLINE
  5
4EA
330
1F
100
AcDbEntity
  8
Livello 1
100
AcDbSpline
210
0.0
220
0.0
230
1.0
 70
    24
 71
     3
 72
     8
 73
     4
 74
     0
 42
0.000000001
 43
0.0000000001
 40
4.0
 40
4.0
 40
4.0
 40
4.0
 40
5.0
 40
5.0
 40
5.0
 40
5.0
 10
8.732489672029544
 20
6.613306562809668
 30
0.0
 10
8.732489672029544
 20
6.613306562809668
 30
0.0
 10
8.786464628952458
 20
4.114584190319675
 30
0.0
 10
8.786464628952458
 20
4.114584190319675
 30
0.0
  0
SPLINE
  5
4EB
330
1F
100
AcDbEntity
  8
Livello 1
100
AcDbSpline
210
0.0
220
0.0
230
1.0
 70
     8
 71
     3
 72
     8
 73
     4
 74
     0
 42
0.000000001
 43
0.0000000001
 40
5.0
 40
5.0
 40
5.0
 40
5.0
 40
6.0
 40
6.0
 40
6.0
 40
6.0
 10
8.786464628952458
 20
4.114584190319675
 30
0.0
 10
8.787169796934534
 20
4.085656154166869
 30
0.0
 10
8.763888487600638
 20
4.061669676850868
 30
0.0
 10
8.734960451447946
 20
4.060964508868764
 30
0.0
  0
SPLINE
  5
4EC
330
1F
100
AcDbEntity
  8
Livello 1
100
AcDbSpline
210
0.0
220
0.0
230
1.0
 70
    24
 71
     3
 72
     8
 73
     4
 74
     0
 42
0.000000001
 43
0.0000000001
 40
6.0
 40
6.0
 40
6.0
 40
6.0
 40
7.0
 40
7.0
 40
7.0
 40
7.0
 10
8.734960451447946
 20
4.060964508868764
 30
0.0
 10
8.734960451447946
 20
4.060964508868764
 30
0.0
 10
8.733902699474739
 20
4.060964508868764
 30
0.0
 10
8.733902699474739
 20
4.060964508868764
 30
0.0
  0
SPLINE
  5
4ED
330
1F
100
AcDbEntity
  8
Livello 1
100
AcDbSpline
210
0.0
220
0.0
230
1.0
 70
    24
 71
     3
 72
     8
 73
     4
 74
     0
 42
0.000000001
 43
0.0000000001
 40
0.0
 40
0.0
 40
0.0
 40
0.0
 40
1.0
 40
1.0
 40
1.0
 40
1.0
 10
8.984444577158626
 20
5.933153203672461
 30
0.0
 10
8.984444577158626
 20
5.933153203672461
 30
0.0
 10
8.966804611681851
 20
5.933153203672461
 30
0.0
 10
8.966804611681851
 20
5.933153203672461
 30
0.0
  0
SPLINE
  5
4EE
330
1F
100
AcDbEntity
  8
Livello 1
100
AcDbSpline
210
0.0
220
0.0
230
1.0
 70
     8
 71
     3
 72
    11
 73
     7
 74
     0
 42
0.000000001
 43
0.0000000001
 40
1.0
 40
1.0
 40
1.0
 40
1.0
 40
2.0
 40
2.0
 40
2.0
 40
3.0
 40
3.0
 40
3.0
 40
3.0
 10
8.966804611681851
 20
5.933153203672461
 30
0.0
 10
8.937876575529145
 20
5.933153203672461
 30
0.0
 10
8.914239990723345
 20
5.956784405516685
 30
0.0
 10
8.914239990723345
 20
5.985712441669363
 30
0.0
 10
8.914239990723345
 20
6.014640477822055
 30
0.0
 10
8.937876575529145
 20
6.038277062627869
 30
0.0
 10
8.966804611681851
 20
6.038277062627869
 30
0.0
  0
SPLINE
  5
4EF
330
1F
100
AcDbEntity
  8
Livello 1
100
AcDbSpline
210
0.0
220
0.0
230
1.0
 70
    24
 71
     3
 72
     8
 73
     4
 74
     0
 42
0.000000001
 43
0.0000000001
 40
3.0
 40
3.0
 40
3.0
 40
3.0
 40
4.0
 40
4.0
 40
4.0
 40
4.0
 10
8.966804611681851
 20
6.038277062627869
 30
0.0
 10
8.966804611681851
 20
6.038277062627869
 30
0.0
 10
8.984444577158626
 20
6.038277062627869
 30
0.0
 10
8.984444577158626
 20
6.038277062627869
 30
0.0
  0
SPLINE
  5
4F0
330
1F
100
AcDbEntity
  8
Livello 1
100
AcDbSpline
210
0.0
220
0.0
230
1.0
 70
     8
 71
     3
 72
    11
 73
     7
 74
     0
 42
0.000000001
 43
0.0000000001
 40
4.0
 40
4.0
 40
4.0
 40
4.0
 40
5.0
 40
5.0
 40
5.0
 40
6.0
 40
6.0
 40
6.0
 40
6.0
 10
8.984444577158626
 20
6.038277062627869
 30
0.0
 10
9.013369921830545
 20
6.038277062627869
 30
0.0
 10
9.037006506636345
 20
6.014640477822055
 30
0.0
 10
9.037006506636345
 20
5.985712441669363
 30
0.0
 10
9.037006506636345
 20
5.956784405516685
 30
0.0
 10
9.013369921830545
 20
5.933153203672461
 30
0.0
 10
8.984444577158626
 20
5.933153203672461
 30
0.0
  0
SPLINE
  5
4F1
330
1F
100
AcDbEntity
  8
Livello 1
100
AcDbSpline
210
0.0
220
0.0
230
1.0
 70
     8
 71
     3
 72
     8
 73
     4
 74
     0
 42
0.000000001
 43
0.0000000001
 40
0.0
 40
0.0
 40
0.0
 40
0.0
 40
1.0
 40
1.0
 40
1.0
 40
1.0
 10
9.217136553859646
 20
3.900094698592681
 30
0.0
 10
9.188208517706954
 20
3.900094698592681
 30
0.0
 10
9.164927208373043
 20
3.923376007926563
 30
0.0
 10
9.164927208373043
 20
3.952304044079269
 30
0.0
  0
SPLINE
  5
4F2
330
1F
100
AcDbEntity
  8
Livello 1
100
AcDbSpline
210
0.0
220
0.0
230
1.0
 70
    24
 71
     3
 72
     8
 73
     4
 74
     0
 42
0.000000001
 43
0.0000000001
 40
1.0
 40
1.0
 40
1.0
 40
1.0
 40
2.0
 40
2.0
 40
2.0
 40
2.0
 10
9.164927208373043
 20
3.952304044079269
 30
0.0
 10
9.164927208373043
 20
3.952304044079269
 30
0.0
 10
9.164927208373043
 20
4.113523746865553
 30
0.0
 10
9.164927208373043
 20
4.113523746865553
 30
0.0
  0
SPLINE
  5
4F3
330
1F
100
AcDbEntity
  8
Livello 1
100
AcDbSpline
210
0.0
220
0.0
230
1.0
 70
     8
 71
     3
 72
     8
 73
     4
 74
     0
 42
0.000000001
 43
0.0000000001
 40
2.0
 40
2.0
 40
2.0
 40
2.0
 40
3.0
 40
3.0
 40
3.0
 40
3.0
 10
9.164927208373043
 20
4.113523746865553
 30
0.0
 10
9.164927208373043
 20
4.11634441879417
 30
0.0
 10
9.164927208373043
 20
4.119520366194564
 30
0.0
 10
9.165632376355148
 20
4.122341038123167
 30
0.0
  0
SPLINE
  5
4F4
330
1F
100
AcDbEntity
  8
Livello 1
100
AcDbSpline
210
0.0
220
0.0
230
1.0
 70
     8
 71
     3
 72
     8
 73
     4
 74
     0
 42
0.000000001
 43
0.0000000001
 40
3.0
 40
3.0
 40
3.0
 40
3.0
 40
4.0
 40
4.0
 40
4.0
 40
4.0
 10
9.165632376355148
 20
4.122341038123167
 30
0.0
 10
9.164927208373043
 20
4.12551698552356
 30
0.0
 10
9.164927208373043
 20
4.128337657452178
 30
0.0
 10
9.164927208373043
 20
4.131513604852557
 30
0.0
  0
SPLINE
  5
4F5
330
1F
100
AcDbEntity
  8
Livello 1
100
AcDbSpline
210
0.0
220
0.0
230
1.0
 70
    24
 71
     3
 72
     8
 73
     4
 74
     0
 42
0.000000001
 43
0.0000000001
 40
4.0
 40
4.0
 40
4.0
 40
4.0
 40
5.0
 40
5.0
 40
5.0
 40
5.0
 10
9.164927208373043
 20
4.131513604852557
 30
0.0
 10
9.164927208373043
 20
4.131513604852557
 30
0.0
 10
9.164927208373043
 20
5.985712441669363
 30
0.0
 10
9.164927208373043
 20
5.985712441669363
 30
0.0
  0
SPLINE
  5
4F6
330
1F
100
AcDbEntity
  8
Livello 1
100
AcDbSpline
210
0.0
220
0.0
230
1.0
 70
     8
 71
     3
 72
    11
 73
     7
 74
     0
 42
0.000000001
 43
0.0000000001
 40
5.0
 40
5.0
 40
5.0
 40
5.0
 40
6.0
 40
6.0
 40
6.0
 40
7.0
 40
7.0
 40
7.0
 40
7.0
 10
9.164927208373043
 20
5.985712441669363
 30
0.0
 10
9.164927208373043
 20
6.014640477822055
 30
0.0
 10
9.188208517706954
 20
6.038277062627869
 30
0.0
 10
9.217136553859646
 20
6.038277062627869
 30
0.0
 10
9.246417174003454
 20
6.038277062627869
 30
0.0
 10
9.269701174818138
 20
6.014640477822055
 30
0.0
 10
9.269701174818138
 20
5.985712441669363
 30
0.0
  0
SPLINE
  5
4F7
330
1F
100
AcDbEntity
  8
Livello 1
100
AcDbSpline
210
0.0
220
0.0
230
1.0
 70
    24
 71
     3
 72
     8
 73
     4
 74
     0
 42
0.000000001
 43
0.0000000001
 40
7.0
 40
7.0
 40
7.0
 40
7.0
 40
8.0
 40
8.0
 40
8.0
 40
8.0
 10
9.269701174818138
 20
5.985712441669363
 30
0.0
 10
9.269701174818138
 20
5.985712441669363
 30
0.0
 10
9.269701174818138
 20
4.131513604852557
 30
0.0
 10
9.269701174818138
 20
4.131513604852557
 30
0.0
  0
SPLINE
  5
4F8
330
1F
100
AcDbEntity
  8
Livello 1
100
AcDbSpline
210
0.0
220
0.0
230
1.0
 70
     8
 71
     3
 72
     8
 73
     4
 74
     0
 42
0.000000001
 43
0.0000000001
 40
8.0
 40
8.0
 40
8.0
 40
8.0
 40
9.0
 40
9.0
 40
9.0
 40
9.0
 10
9.269701174818138
 20
4.131513604852557
 30
0.0
 10
9.269701174818138
 20
4.128337657452178
 30
0.0
 10
9.269701174818138
 20
4.12551698552356
 30
0.0
 10
9.268996006836047
 20
4.122341038123167
 30
0.0
  0
SPLINE
  5
4F9
330
1F
100
AcDbEntity
  8
Livello 1
100
AcDbSpline
210
0.0
220
0.0
230
1.0
 70
     8
 71
     3
 72
     8
 73
     4
 74
     0
 42
0.000000001
 43
0.0000000001
 40
9.0
 40
9.0
 40
9.0
 40
9.0
 40
10.0
 40
10.0
 40
10.0
 40
10.0
 10
9.268996006836047
 20
4.122341038123167
 30
0.0
 10
9.269701174818138
 20
4.119520366194564
 30
0.0
 10
9.269701174818138
 20
4.11634441879417
 30
0.0
 10
9.269701174818138
 20
4.113523746865553
 30
0.0
  0
SPLINE
  5
4FA
330
1F
100
AcDbEntity
  8
Livello 1
100
AcDbSpline
210
0.0
220
0.0
230
1.0
 70
    24
 71
     3
 72
     8
 73
     4
 74
     0
 42
0.000000001
 43
0.0000000001
 40
10.0
 40
10.0
 40
10.0
 40
10.0
 40
11.0
 40
11.0
 40
11.0
 40
11.0
 10
9.269701174818138
 20
4.113523746865553
 30
0.0
 10
9.269701174818138
 20
4.113523746865553
 30
0.0
 10
9.269701174818138
 20
3.952304044079269
 30
0.0
 10
9.269701174818138
 20
3.952304044079269
 30
0.0
  0
SPLINE
  5
4FB
330
1F
100
AcDbEntity
  8
Livello 1
100
AcDbSpline
210
0.0
220
0.0
230
1.0
 70
     8
 71
     3
 72
     8
 73
     4
 74
     0
 42
0.000000001
 43
0.0000000001
 40
11.0
 40
11.0
 40
11.0
 40
11.0
 40
12.0
 40
12.0
 40
12.0
 40
12.0
 10
9.269701174818138
 20
3.952304044079269
 30
0.0
 10
9.269701174818138
 20
3.923376007926563
 30
0.0
 10
9.246417174003454
 20
3.900094698592681
 30
0.0
 10
9.217136553859646
 20
3.900094698592681
 30
0.0
  0
SPLINE
  5
4FC
330
1F
100
AcDbEntity
  8
Livello 1
100
AcDbSpline
210
0.0
220
0.0
230
1.0
 70
     8
 71
     3
 72
     8
 73
     4
 74
     0
 42
0.000000001
 43
0.0000000001
 40
0.0
 40
0.0
 40
0.0
 40
0.0
 40
1.0
 40
1.0
 40
1.0
 40
1.0
 10
9.073909400541253
 20
4.060959125907061
 30
0.0
 10
9.044981364388547
 20
4.060959125907061
 30
0.0
 10
9.021344779582761
 20
4.084595710712875
 30
0.0
 10
9.021344779582761
 20
4.113523746865553
 30
0.0
  0
SPLINE
  5
4FD
330
1F
100
AcDbEntity
  8
Livello 1
100
AcDbSpline
210
0.0
220
0.0
230
1.0
 70
    24
 71
     3
 72
     8
 73
     4
 74
     0
 42
0.000000001
 43
0.0000000001
 40
1.0
 40
1.0
 40
1.0
 40
1.0
 40
2.0
 40
2.0
 40
2.0
 40
2.0
 10
9.021344779582761
 20
4.113523746865553
 30
0.0
 10
9.021344779582761
 20
4.113523746865553
 30
0.0
 10
9.021344779582761
 20
4.131513604852557
 30
0.0
 10
9.021344779582761
 20
4.131513604852557
 30
0.0
  0
SPLINE
  5
4FE
330
1F
100
AcDbEntity
  8
Livello 1
100
AcDbSpline
210
0.0
220
0.0
230
1.0
 70
     8
 71
     3
 72
     8
 73
     4
 74
     0
 42
0.000000001
 43
0.0000000001
 40
2.0
 40
2.0
 40
2.0
 40
2.0
 40
3.0
 40
3.0
 40
3.0
 40
3.0
 10
9.021344779582761
 20
4.131513604852557
 30
0.0
 10
9.021344779582761
 20
4.150563906293683
 30
0.0
 10
9.031577789766245
 20
4.166793535806277
 30
0.0
 10
9.046394391833644
 20
4.176315995045968
 30
0.0
  0
SPLINE
  5
4FF
330
1F
100
AcDbEntity
  8
Livello 1
100
AcDbSpline
210
0.0
220
0.0
230
1.0
 70
     8
 71
     3
 72
     8
 73
     4
 74
     0
 42
0.000000001
 43
0.0000000001
 40
3.0
 40
3.0
 40
3.0
 40
3.0
 40
4.0
 40
4.0
 40
4.0
 40
4.0
 10
9.046394391833644
 20
4.176315995045968
 30
0.0
 10
9.031577789766245
 20
4.185488561775471
 30
0.0
 10
9.021344779582761
 20
4.202068083798181
 30
0.0
 10
9.021344779582761
 20
4.220768492729064
 30
0.0
  0
SPLINE
  5
500
330
1F
100
AcDbEntity
  8
Livello 1
100
AcDbSpline
210
0.0
220
0.0
230
1.0
 70
    24
 71
     3
 72
     8
 73
     4
 74
     0
 42
0.000000001
 43
0.0000000001
 40
4.0
 40
4.0
 40
4.0
 40
4.0
 40
5.0
 40
5.0
 40
5.0
 40
5.0
 10
9.021344779582761
 20
4.220768492729064
 30
0.0
 10
9.021344779582761
 20
4.220768492729064
 30
0.0
 10
9.021344779582761
 20
4.740057424551864
 30
0.0
 10
9.021344779582761
 20
4.740057424551864
 30
0.0
  0
SPLINE
  5
501
330
1F
100
AcDbEntity
  8
Livello 1
100
AcDbSpline
210
0.0
220
0.0
230
1.0
 70
     8
 71
     3
 72
    11
 73
     7
 74
     0
 42
0.000000001
 43
0.0000000001
 40
5.0
 40
5.0
 40
5.0
 40
5.0
 40
6.0
 40
6.0
 40
6.0
 40
7.0
 40
7.0
 40
7.0
 40
7.0
 10
9.021344779582761
 20
4.740057424551864
 30
0.0
 10
9.021344779582761
 20
4.768985460704556
 30
0.0
 10
9.044981364388547
 20
4.79262204551037
 30
0.0
 10
9.073909400541253
 20
4.79262204551037
 30
0.0
 10
9.103190020685048
 20
4.79262204551037
 30
0.0
 10
9.12647402149976
 20
4.768985460704556
 30
0.0
 10
9.12647402149976
 20
4.740057424551864
 30
0.0
  0
SPLINE
  5
502
330
1F
100
AcDbEntity
  8
Livello 1
100
AcDbSpline
210
0.0
220
0.0
230
1.0
 70
    24
 71
     3
 72
     8
 73
     4
 74
     0
 42
0.000000001
 43
0.0000000001
 40
7.0
 40
7.0
 40
7.0
 40
7.0
 40
8.0
 40
8.0
 40
8.0
 40
8.0
 10
9.12647402149976
 20
4.740057424551864
 30
0.0
 10
9.12647402149976
 20
4.740057424551864
 30
0.0
 10
9.12647402149976
 20
4.220768492729064
 30
0.0
 10
9.12647402149976
 20
4.220768492729064
 30
0.0
  0
SPLINE
  5
503
330
1F
100
AcDbEntity
  8
Livello 1
100
AcDbSpline
210
0.0
220
0.0
230
1.0
 70
     8
 71
     3
 72
     8
 73
     4
 74
     0
 42
0.000000001
 43
0.0000000001
 40
8.0
 40
8.0
 40
8.0
 40
8.0
 40
9.0
 40
9.0
 40
9.0
 40
9.0
 10
9.12647402149976
 20
4.220768492729064
 30
0.0
 10
9.12647402149976
 20
4.202068083798181
 30
0.0
 10
9.116243702797035
 20
4.185488561775471
 30
0.0
 10
9.101427100729651
 20
4.176315995045968
 30
0.0
  0
SPLINE
  5
504
330
1F
100
AcDbEntity
  8
Livello 1
100
AcDbSpline
210
0.0
220
0.0
230
1.0
 70
     8
 71
     3
 72
     8
 73
     4
 74
     0
 42
0.000000001
 43
0.0000000001
 40
9.0
 40
9.0
 40
9.0
 40
9.0
 40
10.0
 40
10.0
 40
10.0
 40
10.0
 10
9.101427100729651
 20
4.176315995045968
 30
0.0
 10
9.116243702797035
 20
4.166793535806277
 30
0.0
 10
9.12647402149976
 20
4.150563906293683
 30
0.0
 10
9.12647402149976
 20
4.131513604852557
 30
0.0
  0
SPLINE
  5
505
330
1F
100
AcDbEntity
  8
Livello 1
100
AcDbSpline
210
0.0
220
0.0
230
1.0
 70
    24
 71
     3
 72
     8
 73
     4
 74
     0
 42
0.000000001
 43
0.0000000001
 40
10.0
 40
10.0
 40
10.0
 40
10.0
 40
11.0
 40
11.0
 40
11.0
 40
11.0
 10
9.12647402149976
 20
4.131513604852557
 30
0.0
 10
9.12647402149976
 20
4.131513604852557
 30
0.0
 10
9.12647402149976
 20
4.113523746865553
 30
0.0
 10
9.12647402149976
 20
4.113523746865553
 30
0.0
  0
SPLINE
  5
506
330
1F
100
AcDbEntity
  8
Livello 1
100
AcDbSpline
210
0.0
220
0.0
230
1.0
 70
     8
 71
     3
 72
     8
 73
     4
 74
     0
 42
0.000000001
 43
0.0000000001
 40
11.0
 40
11.0
 40
11.0
 40
11.0
 40
12.0
 40
12.0
 40
12.0
 40
12.0
 10
9.12647402149976
 20
4.113523746865553
 30
0.0
 10
9.12647402149976
 20
4.084595710712875
 30
0.0
 10
9.103190020685048
 20
4.060959125907061
 30
0.0
 10
9.073909400541253
 20
4.060959125907061
 30
0.0
  0
SPLINE
  5
507
330
1F
100
AcDbEntity
  8
Livello 1
100
AcDbSpline
210
0.0
220
0.0
230
1.0
 70
     8
 71
     3
 72
     8
 73
     4
 74
     0
 42
0.000000001
 43
0.0000000001
 40
0.0
 40
0.0
 40
0.0
 40
0.0
 40
1.0
 40
1.0
 40
1.0
 40
1.0
 10
9.10989449947705
 20
5.933153203672461
 30
0.0
 10
9.080966463324344
 20
5.933153203672461
 30
0.0
 10
9.057329878518459
 20
5.956784405516685
 30
0.0
 10
9.057329878518459
 20
5.985712441669363
 30
0.0
  0
SPLINE
  5
508
330
1F
100
AcDbEntity
  8
Livello 1
100
AcDbSpline
210
0.0
220
0.0
230
1.0
 70
    24
 71
     3
 72
     8
 73
     4
 74
     0
 42
0.000000001
 43
0.0000000001
 40
1.0
 40
1.0
 40
1.0
 40
1.0
 40
2.0
 40
2.0
 40
2.0
 40
2.0
 10
9.057329878518459
 20
5.985712441669363
 30
0.0
 10
9.057329878518459
 20
5.985712441669363
 30
0.0
 10
9.057329878518459
 20
6.110952428481553
 30
0.0
 10
9.057329878518459
 20
6.110952428481553
 30
0.0
  0
SPLINE
  5
509
330
1F
100
AcDbEntity
  8
Livello 1
100
AcDbSpline
210
0.0
220
0.0
230
1.0
 70
     8
 71
     3
 72
    11
 73
     7
 74
     0
 42
0.000000001
 43
0.0000000001
 40
2.0
 40
2.0
 40
2.0
 40
2.0
 40
3.0
 40
3.0
 40
3.0
 40
4.0
 40
4.0
 40
4.0
 40
4.0
 10
9.057329878518459
 20
6.110952428481553
 30
0.0
 10
9.057329878518459
 20
6.140230357144474
 30
0.0
 10
9.080966463324344
 20
6.163517049440059
 30
0.0
 10
9.10989449947705
 20
6.163517049440059
 30
0.0
 10
9.138819844148841
 20
6.163517049440059
 30
0.0
 10
9.16245642895474
 20
6.140230357144474
 30
0.0
 10
9.16245642895474
 20
6.110952428481553
 30
0.0
  0
SPLINE
  5
50A
330
1F
100
AcDbEntity
  8
Livello 1
100
AcDbSpline
210
0.0
220
0.0
230
1.0
 70
    24
 71
     3
 72
     8
 73
     4
 74
     0
 42
0.000000001
 43
0.0000000001
 40
4.0
 40
4.0
 40
4.0
 40
4.0
 40
5.0
 40
5.0
 40
5.0
 40
5.0
 10
9.16245642895474
 20
6.110952428481553
 30
0.0
 10
9.16245642895474
 20
6.110952428481553
 30
0.0
 10
9.16245642895474
 20
5.985712441669363
 30
0.0
 10
9.16245642895474
 20
5.985712441669363
 30
0.0
  0
SPLINE
  5
50B
330
1F
100
AcDbEntity
  8
Livello 1
100
AcDbSpline
210
0.0
220
0.0
230
1.0
 70
     8
 71
     3
 72
     8
 73
     4
 74
     0
 42
0.000000001
 43
0.0000000001
 40
5.0
 40
5.0
 40
5.0
 40
5.0
 40
6.0
 40
6.0
 40
6.0
 40
6.0
 10
9.16245642895474
 20
5.985712441669363
 30
0.0
 10
9.16245642895474
 20
5.956784405516685
 30
0.0
 10
9.138819844148841
 20
5.933153203672461
 30
0.0
 10
9.10989449947705
 20
5.933153203672461
 30
0.0
  0
SPLINE
  5
50C
330
1F
100
AcDbEntity
  8
Livello 1
100
AcDbSpline
210
0.0
220
0.0
230
1.0
 70
     8
 71
     3
 72
     8
 73
     4
 74
     0
 42
0.000000001
 43
0.0000000001
 40
0.0
 40
0.0
 40
0.0
 40
0.0
 40
1.0
 40
1.0
 40
1.0
 40
1.0
 10
9.217349180846639
 20
3.782267050035386
 30
0.0
 10
9.188421144693961
 20
3.782267050035386
 30
0.0
 10
9.164784559888147
 20
3.805898251879554
 30
0.0
 10
9.164784559888147
 20
3.83482628803226
 30
0.0
  0
SPLINE
  5
50D
330
1F
100
AcDbEntity
  8
Livello 1
100
AcDbSpline
210
0.0
220
0.0
230
1.0
 70
    24
 71
     3
 72
     8
 73
     4
 74
     0
 42
0.000000001
 43
0.0000000001
 40
1.0
 40
1.0
 40
1.0
 40
1.0
 40
2.0
 40
2.0
 40
2.0
 40
2.0
 10
9.164784559888147
 20
3.83482628803226
 30
0.0
 10
9.164784559888147
 20
3.83482628803226
 30
0.0
 10
9.164784559888147
 20
3.952304044079269
 30
0.0
 10
9.164784559888147
 20
3.952304044079269
 30
0.0
  0
SPLINE
  5
50E
330
1F
100
AcDbEntity
  8
Livello 1
100
AcDbSpline
210
0.0
220
0.0
230
1.0
 70
     8
 71
     3
 72
    11
 73
     7
 74
     0
 42
0.000000001
 43
0.0000000001
 40
2.0
 40
2.0
 40
2.0
 40
2.0
 40
3.0
 40
3.0
 40
3.0
 40
4.0
 40
4.0
 40
4.0
 40
4.0
 10
9.164784559888147
 20
3.952304044079269
 30
0.0
 10
9.164784559888147
 20
3.981232080231976
 30
0.0
 10
9.188421144693961
 20
4.004868665037761
 30
0.0
 10
9.217349180846639
 20
4.004868665037761
 30
0.0
 10
9.246274525518543
 20
4.004868665037761
 30
0.0
 10
9.269911110324329
 20
3.981232080231976
 30
0.0
 10
9.269911110324329
 20
3.952304044079269
 30
0.0
  0
SPLINE
  5
50F
330
1F
100
AcDbEntity
  8
Livello 1
100
AcDbSpline
210
0.0
220
0.0
230
1.0
 70
    24
 71
     3
 72
     8
 73
     4
 74
     0
 42
0.000000001
 43
0.0000000001
 40
4.0
 40
4.0
 40
4.0
 40
4.0
 40
5.0
 40
5.0
 40
5.0
 40
5.0
 10
9.269911110324329
 20
3.952304044079269
 30
0.0
 10
9.269911110324329
 20
3.952304044079269
 30
0.0
 10
9.269911110324329
 20
3.83482628803226
 30
0.0
 10
9.269911110324329
 20
3.83482628803226
 30
0.0
  0
SPLINE
  5
510
330
1F
100
AcDbEntity
  8
Livello 1
100
AcDbSpline
210
0.0
220
0.0
230
1.0
 70
     8
 71
     3
 72
     8
 73
     4
 74
     0
 42
0.000000001
 43
0.0000000001
 40
5.0
 40
5.0
 40
5.0
 40
5.0
 40
6.0
 40
6.0
 40
6.0
 40
6.0
 10
9.269911110324329
 20
3.83482628803226
 30
0.0
 10
9.269911110324329
 20
3.805898251879554
 30
0.0
 10
9.246274525518543
 20
3.782267050035386
 30
0.0
 10
9.217349180846639
 20
3.782267050035386
 30
0.0
  0
SPLINE
  5
511
330
1F
100
AcDbEntity
  8
Livello 1
100
AcDbSpline
210
0.0
220
0.0
230
1.0
 70
     8
 71
     3
 72
     8
 73
     4
 74
     0
 42
0.000000001
 43
0.0000000001
 40
0.0
 40
0.0
 40
0.0
 40
0.0
 40
1.0
 40
1.0
 40
1.0
 40
1.0
 10
9.879512681996757
 20
2.263421343899267
 30
0.0
 10
9.850584645844051
 20
2.263421343899267
 30
0.0
 10
9.826948061038251
 20
2.287052545743463
 30
0.0
 10
9.826948061038251
 20
2.31598058189617
 30
0.0
  0
SPLINE
  5
512
330
1F
100
AcDbEntity
  8
Livello 1
100
AcDbSpline
210
0.0
220
0.0
230
1.0
 70
    24
 71
     3
 72
     8
 73
     4
 74
     0
 42
0.000000001
 43
0.0000000001
 40
1.0
 40
1.0
 40
1.0
 40
1.0
 40
2.0
 40
2.0
 40
2.0
 40
2.0
 10
9.826948061038251
 20
2.31598058189617
 30
0.0
 10
9.826948061038251
 20
2.31598058189617
 30
0.0
 10
9.826948061038251
 20
2.442980797182883
 30
0.0
 10
9.826948061038251
 20
2.442980797182883
 30
0.0
  0
SPLINE
  5
513
330
1F
100
AcDbEntity
  8
Livello 1
100
AcDbSpline
210
0.0
220
0.0
230
1.0
 70
     8
 71
     3
 72
    11
 73
     7
 74
     0
 42
0.000000001
 43
0.0000000001
 40
2.0
 40
2.0
 40
2.0
 40
2.0
 40
3.0
 40
3.0
 40
3.0
 40
4.0
 40
4.0
 40
4.0
 40
4.0
 10
9.826948061038251
 20
2.442980797182883
 30
0.0
 10
9.826948061038251
 20
2.472264108807465
 30
0.0
 10
9.850584645844051
 20
2.495545418141375
 30
0.0
 10
9.879512681996757
 20
2.495545418141375
 30
0.0
 10
9.908438026668633
 20
2.495545418141375
 30
0.0
 10
9.932074611474448
 20
2.472264108807465
 30
0.0
 10
9.932074611474448
 20
2.442980797182883
 30
0.0
  0
SPLINE
  5
514
330
1F
100
AcDbEntity
  8
Livello 1
100
AcDbSpline
210
0.0
220
0.0
230
1.0
 70
    24
 71
     3
 72
     8
 73
     4
 74
     0
 42
0.000000001
 43
0.0000000001
 40
4.0
 40
4.0
 40
4.0
 40
4.0
 40
5.0
 40
5.0
 40
5.0
 40
5.0
 10
9.932074611474448
 20
2.442980797182883
 30
0.0
 10
9.932074611474448
 20
2.442980797182883
 30
0.0
 10
9.932074611474448
 20
2.31598058189617
 30
0.0
 10
9.932074611474448
 20
2.31598058189617
 30
0.0
  0
SPLINE
  5
515
330
1F
100
AcDbEntity
  8
Livello 1
100
AcDbSpline
210
0.0
220
0.0
230
1.0
 70
     8
 71
     3
 72
     8
 73
     4
 74
     0
 42
0.000000001
 43
0.0000000001
 40
5.0
 40
5.0
 40
5.0
 40
5.0
 40
6.0
 40
6.0
 40
6.0
 40
6.0
 10
9.932074611474448
 20
2.31598058189617
 30
0.0
 10
9.932074611474448
 20
2.287052545743463
 30
0.0
 10
9.908438026668633
 20
2.263421343899267
 30
0.0
 10
9.879512681996757
 20
2.263421343899267
 30
0.0
  0
SPLINE
  5
516
330
1F
100
AcDbEntity
  8
Livello 1
100
AcDbSpline
210
0.0
220
0.0
230
1.0
 70
    24
 71
     3
 72
     8
 73
     4
 74
     0
 42
0.000000001
 43
0.0000000001
 40
0.0
 40
0.0
 40
0.0
 40
0.0
 40
1.0
 40
1.0
 40
1.0
 40
1.0
 10
1.429250593214391
 20
5.933153203672461
 30
0.0
 10
1.429250593214391
 20
5.933153203672461
 30
0.0
 10
1.411258043746542
 20
5.933153203672461
 30
0.0
 10
1.411258043746542
 20
5.933153203672461
 30
0.0
  0
SPLINE
  5
517
330
1F
100
AcDbEntity
  8
Livello 1
100
AcDbSpline
210
0.0
220
0.0
230
1.0
 70
     8
 71
     3
 72
    11
 73
     7
 74
     0
 42
0.000000001
 43
0.0000000001
 40
1.0
 40
1.0
 40
1.0
 40
1.0
 40
2.0
 40
2.0
 40
2.0
 40
3.0
 40
3.0
 40
3.0
 40
3.0
 10
1.411258043746542
 20
5.933153203672461
 30
0.0
 10
1.382330007593807
 20
5.933153203672461
 30
0.0
 10
1.358694768528408
 20
5.956784405516685
 30
0.0
 10
1.358694768528408
 20
5.985712441669363
 30
0.0
 10
1.358694768528408
 20
6.014640477822055
 30
0.0
 10
1.382330007593807
 20
6.038277062627869
 30
0.0
 10
1.411258043746542
 20
6.038277062627869
 30
0.0
  0
SPLINE
  5
518
330
1F
100
AcDbEntity
  8
Livello 1
100
AcDbSpline
210
0.0
220
0.0
230
1.0
 70
    24
 71
     3
 72
     8
 73
     4
 74
     0
 42
0.000000001
 43
0.0000000001
 40
3.0
 40
3.0
 40
3.0
 40
3.0
 40
4.0
 40
4.0
 40
4.0
 40
4.0
 10
1.411258043746542
 20
6.038277062627869
 30
0.0
 10
1.411258043746542
 20
6.038277062627869
 30
0.0
 10
1.429250593214391
 20
6.038277062627869
 30
0.0
 10
1.429250593214391
 20
6.038277062627869
 30
0.0
  0
SPLINE
  5
519
330
1F
100
AcDbEntity
  8
Livello 1
100
AcDbSpline
210
0.0
220
0.0
230
1.0
 70
     8
 71
     3
 72
    11
 73
     7
 74
     0
 42
0.000000001
 43
0.0000000001
 40
4.0
 40
4.0
 40
4.0
 40
4.0
 40
5.0
 40
5.0
 40
5.0
 40
6.0
 40
6.0
 40
6.0
 40
6.0
 10
1.429250593214391
 20
6.038277062627869
 30
0.0
 10
1.458177283626682
 20
6.038277062627869
 30
0.0
 10
1.481813868432496
 20
6.014640477822055
 30
0.0
 10
1.481813868432496
 20
5.985712441669363
 30
0.0
 10
1.481813868432496
 20
5.956784405516685
 30
0.0
 10
1.458177283626682
 20
5.933153203672461
 30
0.0
 10
1.429250593214391
 20
5.933153203672461
 30
0.0
  0
SPLINE
  5
51A
330
1F
100
AcDbEntity
  8
Livello 1
100
AcDbSpline
210
0.0
220
0.0
230
1.0
 70
    24
 71
     3
 72
     8
 73
     4
 74
     0
 42
0.000000001
 43
0.0000000001
 40
0.0
 40
0.0
 40
0.0
 40
0.0
 40
1.0
 40
1.0
 40
1.0
 40
1.0
 10
8.966702335409635
 20
5.933153203672461
 30
0.0
 10
8.966702335409635
 20
5.933153203672461
 30
0.0
 10
8.948709785941744
 20
5.933153203672461
 30
0.0
 10
8.948709785941744
 20
5.933153203672461
 30
0.0
  0
SPLINE
  5
51B
330
1F
100
AcDbEntity
  8
Livello 1
100
AcDbSpline
210
0.0
220
0.0
230
1.0
 70
     8
 71
     3
 72
    11
 73
     7
 74
     0
 42
0.000000001
 43
0.0000000001
 40
1.0
 40
1.0
 40
1.0
 40
1.0
 40
2.0
 40
2.0
 40
2.0
 40
3.0
 40
3.0
 40
3.0
 40
3.0
 10
8.948709785941744
 20
5.933153203672461
 30
0.0
 10
8.919781749789052
 20
5.933153203672461
 30
0.0
 10
8.896145164983153
 20
5.956784405516685
 30
0.0
 10
8.896145164983153
 20
5.985712441669363
 30
0.0
 10
8.896145164983153
 20
6.014640477822055
 30
0.0
 10
8.919781749789052
 20
6.038277062627869
 30
0.0
 10
8.948709785941744
 20
6.038277062627869
 30
0.0
  0
SPLINE
  5
51C
330
1F
100
AcDbEntity
  8
Livello 1
100
AcDbSpline
210
0.0
220
0.0
230
1.0
 70
    24
 71
     3
 72
     8
 73
     4
 74
     0
 42
0.000000001
 43
0.0000000001
 40
3.0
 40
3.0
 40
3.0
 40
3.0
 40
4.0
 40
4.0
 40
4.0
 40
4.0
 10
8.948709785941744
 20
6.038277062627869
 30
0.0
 10
8.948709785941744
 20
6.038277062627869
 30
0.0
 10
8.966702335409635
 20
6.038277062627869
 30
0.0
 10
8.966702335409635
 20
6.038277062627869
 30
0.0
  0
SPLINE
  5
51D
330
1F
100
AcDbEntity
  8
Livello 1
100
AcDbSpline
210
0.0
220
0.0
230
1.0
 70
     8
 71
     3
 72
    11
 73
     7
 74
     0
 42
0.000000001
 43
0.0000000001
 40
4.0
 40
4.0
 40
4.0
 40
4.0
 40
5.0
 40
5.0
 40
5.0
 40
6.0
 40
6.0
 40
6.0
 40
6.0
 10
8.966702335409635
 20
6.038277062627869
 30
0.0
 10
8.995627680081454
 20
6.038277062627869
 30
0.0
 10
9.01926426488734
 20
6.014640477822055
 30
0.0
 10
9.01926426488734
 20
5.985712441669363
 30
0.0
 10
9.01926426488734
 20
5.956784405516685
 30
0.0
 10
8.995627680081454
 20
5.933153203672461
 30
0.0
 10
8.966702335409635
 20
5.933153203672461
 30
0.0
  0
SPLINE
  5
51E
330
1F
100
AcDbEntity
  8
Livello 1
100
AcDbSpline
210
0.0
220
0.0
230
1.0
 70
     8
 71
     3
 72
     8
 73
     4
 74
     0
 42
0.000000001
 43
0.0000000001
 40
0.0
 40
0.0
 40
0.0
 40
0.0
 40
1.0
 40
1.0
 40
1.0
 40
1.0
 10
9.10989449947705
 20
6.058635423760961
 30
0.0
 10
9.086257914671136
 20
6.058635423760961
 30
0.0
 10
9.065089417802838
 20
6.074509777801665
 30
0.0
 10
9.059092798473841
 20
6.098146362607479
 30
0.0
  0
SPLINE
  5
51F
330
1F
100
AcDbEntity
  8
Livello 1
100
AcDbSpline
210
0.0
220
0.0
230
1.0
 70
    24
 71
     3
 72
     8
 73
     4
 74
     0
 42
0.000000001
 43
0.0000000001
 40
1.0
 40
1.0
 40
1.0
 40
1.0
 40
2.0
 40
2.0
 40
2.0
 40
2.0
 10
9.059092798473841
 20
6.098146362607479
 30
0.0
 10
9.059092798473841
 20
6.098146362607479
 30
0.0
 10
9.046746975824746
 20
6.14647459271147
 30
0.0
 10
9.046746975824746
 20
6.14647459271147
 30
0.0
  0
SPLINE
  5
520
330
1F
100
AcDbEntity
  8
Livello 1
100
AcDbSpline
210
0.0
220
0.0
230
1.0
 70
    24
 71
     3
 72
     8
 73
     4
 74
     0
 42
0.000000001
 43
0.0000000001
 40
2.0
 40
2.0
 40
2.0
 40
2.0
 40
3.0
 40
3.0
 40
3.0
 40
3.0
 10
9.046746975824746
 20
6.14647459271147
 30
0.0
 10
9.046746975824746
 20
6.14647459271147
 30
0.0
 10
8.997003026794743
 20
6.171521513481565
 30
0.0
 10
8.997003026794743
 20
6.171521513481565
 30
0.0
  0
SPLINE
  5
521
330
1F
100
AcDbEntity
  8
Livello 1
100
AcDbSpline
210
0.0
220
0.0
230
1.0
 70
     8
 71
     3
 72
     8
 73
     4
 74
     0
 42
0.000000001
 43
0.0000000001
 40
3.0
 40
3.0
 40
3.0
 40
3.0
 40
4.0
 40
4.0
 40
4.0
 40
4.0
 10
8.997003026794743
 20
6.171521513481565
 30
0.0
 10
8.970898354051442
 20
6.18457519559368
 30
0.0
 10
8.960315451357644
 20
6.215974011164661
 30
0.0
 10
8.973369133469745
 20
6.242075992427174
 30
0.0
  0
SPLINE
  5
522
330
1F
100
AcDbEntity
  8
Livello 1
100
AcDbSpline
210
0.0
220
0.0
230
1.0
 70
     8
 71
     3
 72
     8
 73
     4
 74
     0
 42
0.000000001
 43
0.0000000001
 40
4.0
 40
4.0
 40
4.0
 40
4.0
 40
5.0
 40
5.0
 40
5.0
 40
5.0
 10
8.973369133469745
 20
6.242075992427174
 30
0.0
 10
8.986420124100959
 20
6.267828081179459
 30
0.0
 10
9.018171523663056
 20
6.278410983873172
 30
0.0
 10
9.043923612415341
 20
6.265362684722759
 30
0.0
  0
SPLINE
  5
523
330
1F
100
AcDbEntity
  8
Livello 1
100
AcDbSpline
210
0.0
220
0.0
230
1.0
 70
    24
 71
     3
 72
     8
 73
     4
 74
     0
 42
0.000000001
 43
0.0000000001
 40
5.0
 40
5.0
 40
5.0
 40
5.0
 40
6.0
 40
6.0
 40
6.0
 40
6.0
 10
9.043923612415341
 20
6.265362684722759
 30
0.0
 10
9.043923612415341
 20
6.265362684722759
 30
0.0
 10
9.115538534814959
 20
6.229727478297263
 30
0.0
 10
9.115538534814959
 20
6.229727478297263
 30
0.0
  0
SPLINE
  5
524
330
1F
100
AcDbEntity
  8
Livello 1
100
AcDbSpline
210
0.0
220
0.0
230
1.0
 70
     8
 71
     3
 72
     8
 73
     4
 74
     0
 42
0.000000001
 43
0.0000000001
 40
6.0
 40
6.0
 40
6.0
 40
6.0
 40
7.0
 40
7.0
 40
7.0
 40
7.0
 10
9.115538534814959
 20
6.229727478297263
 30
0.0
 10
9.129294693428334
 20
6.222675798475876
 30
0.0
 10
9.139172428139957
 20
6.210327284345964
 30
0.0
 10
9.142700959531453
 20
6.195507990797665
 30
0.0
  0
SPLINE
  5
525
330
1F
100
AcDbEntity
  8
Livello 1
100
AcDbSpline
210
0.0
220
0.0
230
1.0
 70
    24
 71
     3
 72
     8
 73
     4
 74
     0
 42
0.000000001
 43
0.0000000001
 40
7.0
 40
7.0
 40
7.0
 40
7.0
 40
8.0
 40
8.0
 40
8.0
 40
8.0
 10
9.142700959531453
 20
6.195507990797665
 30
0.0
 10
9.142700959531453
 20
6.195507990797665
 30
0.0
 10
9.160693508999344
 20
6.123898451359764
 30
0.0
 10
9.160693508999344
 20
6.123898451359764
 30
0.0
  0
SPLINE
  5
526
330
1F
100
AcDbEntity
  8
Livello 1
100
AcDbSpline
210
0.0
220
0.0
230
1.0
 70
     8
 71
     3
 72
     8
 73
     4
 74
     0
 42
0.000000001
 43
0.0000000001
 40
8.0
 40
8.0
 40
8.0
 40
8.0
 40
9.0
 40
9.0
 40
9.0
 40
9.0
 10
9.160693508999344
 20
6.123898451359764
 30
0.0
 10
9.167747880301547
 20
6.095675583189176
 30
0.0
 10
9.15081577428775
 20
6.067097439546685
 30
0.0
 10
9.122592906117148
 20
6.060045759725269
 30
0.0
  0
SPLINE
  5
527
330
1F
100
AcDbEntity
  8
Livello 1
100
AcDbSpline
210
0.0
220
0.0
230
1.0
 70
     8
 71
     3
 72
     8
 73
     4
 74
     0
 42
0.000000001
 43
0.0000000001
 40
9.0
 40
9.0
 40
9.0
 40
9.0
 40
10.0
 40
10.0
 40
10.0
 40
10.0
 10
9.122592906117148
 20
6.060045759725269
 30
0.0
 10
9.118359206743548
 20
6.058985316271261
 30
0.0
 10
9.114125507369848
 20
6.058635423760961
 30
0.0
 10
9.10989449947705
 20
6.058635423760961
 30
0.0
  0
SPLINE
  5
528
330
1F
100
AcDbEntity
  8
Livello 1
100
AcDbSpline
210
0.0
220
0.0
230
1.0
 70
     8
 71
     3
 72
     8
 73
     4
 74
     0
 42
0.000000001
 43
0.0000000001
 40
0.0
 40
0.0
 40
0.0
 40
0.0
 40
1.0
 40
1.0
 40
1.0
 40
1.0
 10
1.250076021692095
 20
6.058635423760961
 30
0.0
 10
1.245842322318409
 20
6.058635423760961
 30
0.0
 10
1.241608622944724
 20
6.058985316271261
 30
0.0
 10
1.237374923571067
 20
6.060045759725269
 30
0.0
  0
SPLINE
  5
529
330
1F
100
AcDbEntity
  8
Livello 1
100
AcDbSpline
210
0.0
220
0.0
230
1.0
 70
     8
 71
     3
 72
     8
 73
     4
 74
     0
 42
0.000000001
 43
0.0000000001
 40
1.0
 40
1.0
 40
1.0
 40
1.0
 40
2.0
 40
2.0
 40
2.0
 40
2.0
 10
1.237374923571067
 20
6.060045759725269
 30
0.0
 10
1.209153401140923
 20
6.067097439546685
 30
0.0
 10
1.192219949386668
 20
6.095675583189176
 30
0.0
 10
1.199275666429286
 20
6.123898451359764
 30
0.0
  0
SPLINE
  5
52A
330
1F
100
AcDbEntity
  8
Livello 1
100
AcDbSpline
210
0.0
220
0.0
230
1.0
 70
    24
 71
     3
 72
     8
 73
     4
 74
     0
 42
0.000000001
 43
0.0000000001
 40
2.0
 40
2.0
 40
2.0
 40
2.0
 40
3.0
 40
3.0
 40
3.0
 40
3.0
 10
1.199275666429286
 20
6.123898451359764
 30
0.0
 10
1.199275666429286
 20
6.123898451359764
 30
0.0
 10
1.216914286165703
 20
6.195507990797665
 30
0.0
 10
1.216914286165703
 20
6.195507990797665
 30
0.0
  0
SPLINE
  5
52B
330
1F
100
AcDbEntity
  8
Livello 1
100
AcDbSpline
210
0.0
220
0.0
230
1.0
 70
     8
 71
     3
 72
     8
 73
     4
 74
     0
 42
0.000000001
 43
0.0000000001
 40
3.0
 40
3.0
 40
3.0
 40
3.0
 40
4.0
 40
4.0
 40
4.0
 40
4.0
 10
1.216914286165703
 20
6.195507990797665
 30
0.0
 10
1.220088887825724
 20
6.208211780399565
 30
0.0
 10
1.227849772850518
 20
6.219144575603465
 30
0.0
 10
1.238786605275777
 20
6.226201638386569
 30
0.0
  0
SPLINE
  5
52C
330
1F
100
AcDbEntity
  8
Livello 1
100
AcDbSpline
210
0.0
220
0.0
230
1.0
 70
    24
 71
     3
 72
     8
 73
     4
 74
     0
 42
0.000000001
 43
0.0000000001
 40
4.0
 40
4.0
 40
4.0
 40
4.0
 40
5.0
 40
5.0
 40
5.0
 40
5.0
 10
1.238786605275777
 20
6.226201638386569
 30
0.0
 10
1.238786605275777
 20
6.226201638386569
 30
0.0
 10
1.292761562198577
 20
6.262186737322366
 30
0.0
 10
1.292761562198577
 20
6.262186737322366
 30
0.0
  0
SPLINE
  5
52D
330
1F
100
AcDbEntity
  8
Livello 1
100
AcDbSpline
210
0.0
220
0.0
230
1.0
 70
     8
 71
     3
 72
     8
 73
     4
 74
     0
 42
0.000000001
 43
0.0000000001
 40
5.0
 40
5.0
 40
5.0
 40
5.0
 40
6.0
 40
6.0
 40
6.0
 40
6.0
 10
1.292761562198577
 20
6.262186737322366
 30
0.0
 10
1.316750730995494
 20
6.278061091362971
 30
0.0
 10
1.349205952799266
 20
6.272064472033974
 30
0.0
 10
1.365434236571402
 20
6.24772271924597
 30
0.0
  0
SPLINE
  5
52E
330
1F
100
AcDbEntity
  8
Livello 1
100
AcDbSpline
210
0.0
220
0.0
230
1.0
 70
     8
 71
     3
 72
     8
 73
     4
 74
     0
 42
0.000000001
 43
0.0000000001
 40
6.0
 40
6.0
 40
6.0
 40
6.0
 40
7.0
 40
7.0
 40
7.0
 40
7.0
 10
1.365434236571402
 20
6.24772271924597
 30
0.0
 10
1.381661174603109
 20
6.22338096645798
 30
0.0
 10
1.374958041551522
 20
6.190927090394566
 30
0.0
 10
1.350970218495049
 20
6.174697460882072
 30
0.0
  0
SPLINE
  5
52F
330
1F
100
AcDbEntity
  8
Livello 1
100
AcDbSpline
210
0.0
220
0.0
230
1.0
 70
    24
 71
     3
 72
     8
 73
     4
 74
     0
 42
0.000000001
 43
0.0000000001
 40
7.0
 40
7.0
 40
7.0
 40
7.0
 40
8.0
 40
8.0
 40
8.0
 40
8.0
 10
1.350970218495049
 20
6.174697460882072
 30
0.0
 10
1.350970218495049
 20
6.174697460882072
 30
0.0
 10
1.313928713326504
 20
6.150355708094068
 30
0.0
 10
1.313928713326504
 20
6.150355708094068
 30
0.0
  0
SPLINE
  5
530
330
1F
100
AcDbEntity
  8
Livello 1
100
AcDbSpline
210
0.0
220
0.0
230
1.0
 70
    24
 71
     3
 72
     8
 73
     4
 74
     0
 42
0.000000001
 43
0.0000000001
 40
8.0
 40
8.0
 40
8.0
 40
8.0
 40
9.0
 40
9.0
 40
9.0
 40
9.0
 10
1.313928713326504
 20
6.150355708094068
 30
0.0
 10
1.313928713326504
 20
6.150355708094068
 30
0.0
 10
1.300875031214417
 20
6.09849625511768
 30
0.0
 10
1.300875031214417
 20
6.09849625511768
 30
0.0
  0
SPLINE
  5
531
330
1F
100
AcDbEntity
  8
Livello 1
100
AcDbSpline
210
0.0
220
0.0
230
1.0
 70
     8
 71
     3
 72
     8
 73
     4
 74
     0
 42
0.000000001
 43
0.0000000001
 40
9.0
 40
9.0
 40
9.0
 40
9.0
 40
10.0
 40
10.0
 40
10.0
 40
10.0
 10
1.300875031214417
 20
6.09849625511768
 30
0.0
 10
1.295230995876494
 20
6.074509777801665
 30
0.0
 10
1.273711260757494
 20
6.058635423760961
 30
0.0
 10
1.250076021692095
 20
6.058635423760961
 30
0.0
  0
SPLINE
  5
532
330
1F
100
AcDbEntity
  8
Livello 1
100
AcDbSpline
210
0.0
220
0.0
230
1.0
 70
     8
 71
     3
 72
     8
 73
     4
 74
     0
 42
0.000000001
 43
0.0000000001
 40
0.0
 40
0.0
 40
0.0
 40
0.0
 40
1.0
 40
1.0
 40
1.0
 40
1.0
 10
2.002056930215829
 20
6.237705027530267
 30
0.0
 10
1.996411549137462
 20
6.237705027530267
 30
0.0
 10
1.990767513799525
 20
6.238410195512372
 30
0.0
 10
1.985476062452647
 20
6.240170423986867
 30
0.0
  0
SPLINE
  5
533
330
1F
100
AcDbEntity
  8
Livello 1
100
AcDbSpline
210
0.0
220
0.0
230
1.0
 70
     8
 71
     3
 72
     8
 73
     4
 74
     0
 42
0.000000001
 43
0.0000000001
 40
1.0
 40
1.0
 40
1.0
 40
1.0
 40
2.0
 40
2.0
 40
2.0
 40
2.0
 10
1.985476062452647
 20
6.240170423986867
 30
0.0
 10
1.957959708004636
 20
6.249698266188261
 30
0.0
 10
1.943141760196809
 20
6.279331470323185
 30
0.0
 10
1.952314326926256
 20
6.306849170511569
 30
0.0
  0
SPLINE
  5
534
330
1F
100
AcDbEntity
  8
Livello 1
100
AcDbSpline
210
0.0
220
0.0
230
1.0
 70
    24
 71
     3
 72
     8
 73
     4
 74
     0
 42
0.000000001
 43
0.0000000001
 40
2.0
 40
2.0
 40
2.0
 40
2.0
 40
3.0
 40
3.0
 40
3.0
 40
3.0
 10
1.952314326926256
 20
6.306849170511569
 30
0.0
 10
1.952314326926256
 20
6.306849170511569
 30
0.0
 10
1.970306876394161
 20
6.360468851962465
 30
0.0
 10
1.970306876394161
 20
6.360468851962465
 30
0.0
  0
SPLINE
  5
535
330
1F
100
AcDbEntity
  8
Livello 1
100
AcDbSpline
210
0.0
220
0.0
230
1.0
 70
     8
 71
     3
 72
     8
 73
     4
 74
     0
 42
0.000000001
 43
0.0000000001
 40
3.0
 40
3.0
 40
3.0
 40
3.0
 40
4.0
 40
4.0
 40
4.0
 40
4.0
 10
1.970306876394161
 20
6.360468851962465
 30
0.0
 10
1.974539230027403
 20
6.373872426584753
 30
0.0
 10
1.984064380747952
 20
6.384455329278566
 30
0.0
 10
1.996764133128536
 20
6.39080722407948
 30
0.0
  0
SPLINE
  5
536
330
1F
100
AcDbEntity
  8
Livello 1
100
AcDbSpline
210
0.0
220
0.0
230
1.0
 70
    24
 71
     3
 72
     8
 73
     4
 74
     0
 42
0.000000001
 43
0.0000000001
 40
4.0
 40
4.0
 40
4.0
 40
4.0
 40
5.0
 40
5.0
 40
5.0
 40
5.0
 10
1.996764133128536
 20
6.39080722407948
 30
0.0
 10
1.996764133128536
 20
6.39080722407948
 30
0.0
 10
2.032395302332815
 20
6.40844718955627
 30
0.0
 10
2.032395302332815
 20
6.40844718955627
 30
0.0
  0
SPLINE
  5
537
330
1F
100
AcDbEntity
  8
Livello 1
100
AcDbSpline
210
0.0
220
0.0
230
1.0
 70
     8
 71
     3
 72
     8
 73
     4
 74
     0
 42
0.000000001
 43
0.0000000001
 40
5.0
 40
5.0
 40
5.0
 40
5.0
 40
6.0
 40
6.0
 40
6.0
 40
6.0
 10
2.032395302332815
 20
6.40844718955627
 30
0.0
 10
2.058147391085043
 20
6.421500871668371
 30
0.0
 10
2.089897444906753
 20
6.410917968974573
 30
0.0
 10
2.102951127018798
 20
6.384810604750455
 30
0.0
  0
SPLINE
  5
538
330
1F
100
AcDbEntity
  8
Livello 1
100
AcDbSpline
210
0.0
220
0.0
230
1.0
 70
     8
 71
     3
 72
     8
 73
     4
 74
     0
 42
0.000000001
 43
0.0000000001
 40
6.0
 40
6.0
 40
6.0
 40
6.0
 40
7.0
 40
7.0
 40
7.0
 40
7.0
 10
2.102951127018798
 20
6.384810604750455
 30
0.0
 10
2.11565087939941
 20
6.358703240526267
 30
0.0
 10
2.10506797670564
 20
6.327309807916961
 30
0.0
 10
2.078961958221924
 20
6.314256125804874
 30
0.0
  0
SPLINE
  5
539
330
1F
100
AcDbEntity
  8
Livello 1
100
AcDbSpline
210
0.0
220
0.0
230
1.0
 70
    24
 71
     3
 72
     8
 73
     4
 74
     0
 42
0.000000001
 43
0.0000000001
 40
7.0
 40
7.0
 40
7.0
 40
7.0
 40
8.0
 40
8.0
 40
8.0
 40
8.0
 10
2.078961958221924
 20
6.314256125804874
 30
0.0
 10
2.078961958221924
 20
6.314256125804874
 30
0.0
 10
2.062733674449816
 20
6.306493895039665
 30
0.0
 10
2.062733674449816
 20
6.306493895039665
 30
0.0
  0
SPLINE
  5
53A
330
1F
100
AcDbEntity
  8
Livello 1
100
AcDbSpline
210
0.0
220
0.0
230
1.0
 70
    24
 71
     3
 72
     8
 73
     4
 74
     0
 42
0.000000001
 43
0.0000000001
 40
8.0
 40
8.0
 40
8.0
 40
8.0
 40
9.0
 40
9.0
 40
9.0
 40
9.0
 10
2.062733674449816
 20
6.306493895039665
 30
0.0
 10
2.062733674449816
 20
6.306493895039665
 30
0.0
 10
2.051798187764973
 20
6.273684743504375
 30
0.0
 10
2.051798187764973
 20
6.273684743504375
 30
0.0
  0
SPLINE
  5
53B
330
1F
100
AcDbEntity
  8
Livello 1
100
AcDbSpline
210
0.0
220
0.0
230
1.0
 70
     8
 71
     3
 72
     8
 73
     4
 74
     0
 42
0.000000001
 43
0.0000000001
 40
9.0
 40
9.0
 40
9.0
 40
9.0
 40
10.0
 40
10.0
 40
10.0
 40
10.0
 10
2.051798187764973
 20
6.273684743504375
 30
0.0
 10
2.044389886731266
 20
6.251458494662756
 30
0.0
 10
2.023927903585487
 20
6.237705027530267
 30
0.0
 10
2.002056930215829
 20
6.237705027530267
 30
0.0
  0
SPLINE
  5
53C
330
1F
100
AcDbEntity
  8
Livello 1
100
AcDbSpline
210
0.0
220
0.0
230
1.0
 70
     8
 71
     3
 72
     8
 73
     4
 74
     0
 42
0.000000001
 43
0.0000000001
 40
0.0
 40
0.0
 40
0.0
 40
0.0
 40
1.0
 40
1.0
 40
1.0
 40
1.0
 10
1.6620488834089
 20
6.166057807360473
 30
0.0
 10
1.65675608632155
 20
6.166057807360473
 30
0.0
 10
1.651112050983641
 20
6.166762975342564
 30
0.0
 10
1.64546801564569
 20
6.168523203817059
 30
0.0
  0
SPLINE
  5
53D
330
1F
100
AcDbEntity
  8
Livello 1
100
AcDbSpline
210
0.0
220
0.0
230
1.0
 70
     8
 71
     3
 72
     8
 73
     4
 74
     0
 42
0.000000001
 43
0.0000000001
 40
1.0
 40
1.0
 40
1.0
 40
1.0
 40
2.0
 40
2.0
 40
2.0
 40
2.0
 10
1.64546801564569
 20
6.168523203817059
 30
0.0
 10
1.617951661197693
 20
6.177695770546563
 30
0.0
 10
1.603133713389837
 20
6.207684250153363
 30
0.0
 10
1.612306280119327
 20
6.234846674869885
 30
0.0
  0
SPLINE
  5
53E
330
1F
100
AcDbEntity
  8
Livello 1
100
AcDbSpline
210
0.0
220
0.0
230
1.0
 70
    24
 71
     3
 72
     8
 73
     4
 74
     0
 42
0.000000001
 43
0.0000000001
 40
2.0
 40
2.0
 40
2.0
 40
2.0
 40
3.0
 40
3.0
 40
3.0
 40
3.0
 10
1.612306280119327
 20
6.234846674869885
 30
0.0
 10
1.612306280119327
 20
6.234846674869885
 30
0.0
 10
1.629944899855743
 20
6.288821631792671
 30
0.0
 10
1.629944899855743
 20
6.288821631792671
 30
0.0
  0
SPLINE
  5
53F
330
1F
100
AcDbEntity
  8
Livello 1
100
AcDbSpline
210
0.0
220
0.0
230
1.0
 70
     8
 71
     3
 72
     8
 73
     4
 74
     0
 42
0.000000001
 43
0.0000000001
 40
3.0
 40
3.0
 40
3.0
 40
3.0
 40
4.0
 40
4.0
 40
4.0
 40
4.0
 10
1.629944899855743
 20
6.288821631792671
 30
0.0
 10
1.635237696943008
 20
6.304346093323061
 30
0.0
 10
1.647230935601029
 20
6.316689224491383
 30
0.0
 10
1.663106635382092
 20
6.321980675838162
 30
0.0
  0
SPLINE
  5
540
330
1F
100
AcDbEntity
  8
Livello 1
100
AcDbSpline
210
0.0
220
0.0
230
1.0
 70
    24
 71
     3
 72
     8
 73
     4
 74
     0
 42
0.000000001
 43
0.0000000001
 40
4.0
 40
4.0
 40
4.0
 40
4.0
 40
5.0
 40
5.0
 40
5.0
 40
5.0
 10
1.663106635382092
 20
6.321980675838162
 30
0.0
 10
1.663106635382092
 20
6.321980675838162
 30
0.0
 10
1.716729008313834
 20
6.339975916786968
 30
0.0
 10
1.716729008313834
 20
6.339975916786968
 30
0.0
  0
SPLINE
  5
541
330
1F
100
AcDbEntity
  8
Livello 1
100
AcDbSpline
210
0.0
220
0.0
230
1.0
 70
     8
 71
     3
 72
     8
 73
     4
 74
     0
 42
0.000000001
 43
0.0000000001
 40
5.0
 40
5.0
 40
5.0
 40
5.0
 40
6.0
 40
6.0
 40
6.0
 40
6.0
 10
1.716729008313834
 20
6.339975916786968
 30
0.0
 10
1.744597946752904
 20
6.349498376026673
 30
0.0
 10
1.774231150887771
 20
6.334329189968158
 30
0.0
 10
1.783403717617247
 20
6.306811489779676
 30
0.0
  0
SPLINE
  5
542
330
1F
100
AcDbEntity
  8
Livello 1
100
AcDbSpline
210
0.0
220
0.0
230
1.0
 70
     8
 71
     3
 72
     8
 73
     4
 74
     0
 42
0.000000001
 43
0.0000000001
 40
6.0
 40
6.0
 40
6.0
 40
6.0
 40
7.0
 40
7.0
 40
7.0
 40
7.0
 10
1.783403717617247
 20
6.306811489779676
 30
0.0
 10
1.792576284346708
 20
6.279299172552967
 30
0.0
 10
1.777759682279295
 20
6.24966596841817
 30
0.0
 10
1.75024332783127
 20
6.240493401688667
 30
0.0
  0
SPLINE
  5
543
330
1F
100
AcDbEntity
  8
Livello 1
100
AcDbSpline
210
0.0
220
0.0
230
1.0
 70
    24
 71
     3
 72
     8
 73
     4
 74
     0
 42
0.000000001
 43
0.0000000001
 40
7.0
 40
7.0
 40
7.0
 40
7.0
 40
8.0
 40
8.0
 40
8.0
 40
8.0
 10
1.75024332783127
 20
6.240493401688667
 30
0.0
 10
1.75024332783127
 20
6.240493401688667
 30
0.0
 10
1.721315291678564
 20
6.230615666977058
 30
0.0
 10
1.721315291678564
 20
6.230615666977058
 30
0.0
  0
SPLINE
  5
544
330
1F
100
AcDbEntity
  8
Livello 1
100
AcDbSpline
210
0.0
220
0.0
230
1.0
 70
    24
 71
     3
 72
     8
 73
     4
 74
     0
 42
0.000000001
 43
0.0000000001
 40
8.0
 40
8.0
 40
8.0
 40
8.0
 40
9.0
 40
9.0
 40
9.0
 40
9.0
 10
1.721315291678564
 20
6.230615666977058
 30
0.0
 10
1.721315291678564
 20
6.230615666977058
 30
0.0
 10
1.711790140958029
 20
6.202037523334553
 30
0.0
 10
1.711790140958029
 20
6.202037523334553
 30
0.0
  0
SPLINE
  5
545
330
1F
100
AcDbEntity
  8
Livello 1
100
AcDbSpline
210
0.0
220
0.0
230
1.0
 70
     8
 71
     3
 72
     8
 73
     4
 74
     0
 42
0.000000001
 43
0.0000000001
 40
9.0
 40
9.0
 40
9.0
 40
9.0
 40
10.0
 40
10.0
 40
10.0
 40
10.0
 10
1.711790140958029
 20
6.202037523334553
 30
0.0
 10
1.704381839924309
 20
6.18016654996488
 30
0.0
 10
1.68391985677853
 20
6.166057807360473
 30
0.0
 10
1.6620488834089
 20
6.166057807360473
 30
0.0
  0
SPLINE
  5
546
330
1F
100
AcDbEntity
  8
Livello 1
100
AcDbSpline
210
0.0
220
0.0
230
1.0
 70
     8
 71
     3
 72
     8
 73
     4
 74
     0
 42
0.000000001
 43
0.0000000001
 40
0.0
 40
0.0
 40
0.0
 40
0.0
 40
1.0
 40
1.0
 40
1.0
 40
1.0
 10
8.680210348040915
 20
6.559794540592662
 30
0.0
 10
8.658336683190455
 20
6.559794540592662
 30
0.0
 10
8.637523461794003
 20
6.573903283197054
 30
0.0
 10
8.630466399010956
 20
6.59577425656677
 30
0.0
  0
SPLINE
  5
547
330
1F
100
AcDbEntity
  8
Livello 1
100
AcDbSpline
210
0.0
220
0.0
230
1.0
 70
    24
 71
     3
 72
     8
 73
     4
 74
     0
 42
0.000000001
 43
0.0000000001
 40
1.0
 40
1.0
 40
1.0
 40
1.0
 40
2.0
 40
2.0
 40
2.0
 40
2.0
 10
8.630466399010956
 20
6.59577425656677
 30
0.0
 10
8.630466399010956
 20
6.59577425656677
 30
0.0
 10
8.620941248290407
 20
6.624702292719476
 30
0.0
 10
8.620941248290407
 20
6.624702292719476
 30
0.0
  0
SPLINE
  5
548
330
1F
100
AcDbEntity
  8
Livello 1
100
AcDbSpline
210
0.0
220
0.0
230
1.0
 70
    24
 71
     3
 72
     8
 73
     4
 74
     0
 42
0.000000001
 43
0.0000000001
 40
2.0
 40
2.0
 40
2.0
 40
2.0
 40
3.0
 40
3.0
 40
3.0
 40
3.0
 10
8.620941248290407
 20
6.624702292719476
 30
0.0
 10
8.620941248290407
 20
6.624702292719476
 30
0.0
 10
8.592015903618531
 20
6.634230134920883
 30
0.0
 10
8.592015903618531
 20
6.634230134920883
 30
0.0
  0
SPLINE
  5
549
330
1F
100
AcDbEntity
  8
Livello 1
100
AcDbSpline
210
0.0
220
0.0
230
1.0
 70
     8
 71
     3
 72
     8
 73
     4
 74
     0
 42
0.000000001
 43
0.0000000001
 40
3.0
 40
3.0
 40
3.0
 40
3.0
 40
4.0
 40
4.0
 40
4.0
 40
4.0
 10
8.592015903618531
 20
6.634230134920883
 30
0.0
 10
8.56449820343009
 20
6.643047426178384
 30
0.0
 10
8.549681601362692
 20
6.672680630313266
 30
0.0
 10
8.558501584101094
 20
6.700198330501663
 30
0.0
  0
SPLINE
  5
54A
330
1F
100
AcDbEntity
  8
Livello 1
100
AcDbSpline
210
0.0
220
0.0
230
1.0
 70
     8
 71
     3
 72
     8
 73
     4
 74
     0
 42
0.000000001
 43
0.0000000001
 40
4.0
 40
4.0
 40
4.0
 40
4.0
 40
5.0
 40
5.0
 40
5.0
 40
5.0
 10
8.558501584101094
 20
6.700198330501663
 30
0.0
 10
8.567674150830569
 20
6.727716030690061
 30
0.0
 10
8.597307354965408
 20
6.743235109258762
 30
0.0
 10
8.62482236367299
 20
6.733712650019072
 30
0.0
  0
SPLINE
  5
54B
330
1F
100
AcDbEntity
  8
Livello 1
100
AcDbSpline
210
0.0
220
0.0
230
1.0
 70
    24
 71
     3
 72
     8
 73
     4
 74
     0
 42
0.000000001
 43
0.0000000001
 40
5.0
 40
5.0
 40
5.0
 40
5.0
 40
6.0
 40
6.0
 40
6.0
 40
6.0
 10
8.62482236367299
 20
6.733712650019072
 30
0.0
 10
8.62482236367299
 20
6.733712650019072
 30
0.0
 10
8.678797320595805
 20
6.716072684542268
 30
0.0
 10
8.678797320595805
 20
6.716072684542268
 30
0.0
  0
SPLINE
  5
54C
330
1F
100
AcDbEntity
  8
Livello 1
100
AcDbSpline
210
0.0
220
0.0
230
1.0
 70
     8
 71
     3
 72
     8
 73
     4
 74
     0
 42
0.000000001
 43
0.0000000001
 40
6.0
 40
6.0
 40
6.0
 40
6.0
 40
7.0
 40
7.0
 40
7.0
 40
7.0
 10
8.678797320595805
 20
6.716072684542268
 30
0.0
 10
8.694671674636452
 20
6.710781233195376
 30
0.0
 10
8.707020188766335
 20
6.698432719065479
 30
0.0
 10
8.712311640113242
 20
6.682558365024874
 30
0.0
  0
SPLINE
  5
54D
330
1F
100
AcDbEntity
  8
Livello 1
100
AcDbSpline
210
0.0
220
0.0
230
1.0
 70
    24
 71
     3
 72
     8
 73
     4
 74
     0
 42
0.000000001
 43
0.0000000001
 40
7.0
 40
7.0
 40
7.0
 40
7.0
 40
8.0
 40
8.0
 40
8.0
 40
8.0
 10
8.712311640113242
 20
6.682558365024874
 30
0.0
 10
8.712311640113242
 20
6.682558365024874
 30
0.0
 10
8.729951605590045
 20
6.628583408102073
 30
0.0
 10
8.729951605590045
 20
6.628583408102073
 30
0.0
  0
SPLINE
  5
54E
330
1F
100
AcDbEntity
  8
Livello 1
100
AcDbSpline
210
0.0
220
0.0
230
1.0
 70
     8
 71
     3
 72
     8
 73
     4
 74
     0
 42
0.000000001
 43
0.0000000001
 40
8.0
 40
8.0
 40
8.0
 40
8.0
 40
9.0
 40
9.0
 40
9.0
 40
9.0
 10
8.729951605590045
 20
6.628583408102073
 30
0.0
 10
8.739124172319549
 20
6.601420983385565
 30
0.0
 10
8.724307570252136
 20
6.571432503778765
 30
0.0
 10
8.696789870063696
 20
6.562259937049276
 30
0.0
  0
SPLINE
  5
54F
330
1F
100
AcDbEntity
  8
Livello 1
100
AcDbSpline
210
0.0
220
0.0
230
1.0
 70
     8
 71
     3
 72
     8
 73
     4
 74
     0
 42
0.000000001
 43
0.0000000001
 40
9.0
 40
9.0
 40
9.0
 40
9.0
 40
10.0
 40
10.0
 40
10.0
 40
10.0
 10
8.696789870063696
 20
6.562259937049276
 30
0.0
 10
8.691145834725745
 20
6.560499708574766
 30
0.0
 10
8.685501799387807
 20
6.559794540592662
 30
0.0
 10
8.680210348040915
 20
6.559794540592662
 30
0.0
  0
SPLINE
  5
550
330
1F
100
AcDbEntity
  8
Livello 1
100
AcDbSpline
210
0.0
220
0.0
230
1.0
 70
     8
 71
     3
 72
     8
 73
     4
 74
     0
 42
0.000000001
 43
0.0000000001
 40
0.0
 40
0.0
 40
0.0
 40
0.0
 40
1.0
 40
1.0
 40
1.0
 40
1.0
 10
8.339991019987422
 20
6.559794540592662
 30
0.0
 10
8.318117355136919
 20
6.559794540592662
 30
0.0
 10
8.297304133740496
 20
6.573903283197054
 30
0.0
 10
8.290247070957406
 20
6.59577425656677
 30
0.0
  0
SPLINE
  5
551
330
1F
100
AcDbEntity
  8
Livello 1
100
AcDbSpline
210
0.0
220
0.0
230
1.0
 70
    24
 71
     3
 72
     8
 73
     4
 74
     0
 42
0.000000001
 43
0.0000000001
 40
1.0
 40
1.0
 40
1.0
 40
1.0
 40
2.0
 40
2.0
 40
2.0
 40
2.0
 10
8.290247070957406
 20
6.59577425656677
 30
0.0
 10
8.290247070957406
 20
6.59577425656677
 30
0.0
 10
8.280721920236885
 20
6.624702292719476
 30
0.0
 10
8.280721920236885
 20
6.624702292719476
 30
0.0
  0
SPLINE
  5
552
330
1F
100
AcDbEntity
  8
Livello 1
100
AcDbSpline
210
0.0
220
0.0
230
1.0
 70
    24
 71
     3
 72
     8
 73
     4
 74
     0
 42
0.000000001
 43
0.0000000001
 40
2.0
 40
2.0
 40
2.0
 40
2.0
 40
3.0
 40
3.0
 40
3.0
 40
3.0
 10
8.280721920236885
 20
6.624702292719476
 30
0.0
 10
8.280721920236885
 20
6.624702292719476
 30
0.0
 10
8.252149159556097
 20
6.634230134920883
 30
0.0
 10
8.252149159556097
 20
6.634230134920883
 30
0.0
  0
SPLINE
  5
553
330
1F
100
AcDbEntity
  8
Livello 1
100
AcDbSpline
210
0.0
220
0.0
230
1.0
 70
     8
 71
     3
 72
     8
 73
     4
 74
     0
 42
0.000000001
 43
0.0000000001
 40
3.0
 40
3.0
 40
3.0
 40
3.0
 40
4.0
 40
4.0
 40
4.0
 40
4.0
 10
8.252149159556097
 20
6.634230134920883
 30
0.0
 10
8.224278875376597
 20
6.643047426178384
 30
0.0
 10
8.209462273309156
 20
6.672680630313266
 30
0.0
 10
8.218634840038632
 20
6.700198330501663
 30
0.0
  0
SPLINE
  5
554
330
1F
100
AcDbEntity
  8
Livello 1
100
AcDbSpline
210
0.0
220
0.0
230
1.0
 70
     8
 71
     3
 72
     8
 73
     4
 74
     0
 42
0.000000001
 43
0.0000000001
 40
4.0
 40
4.0
 40
4.0
 40
4.0
 40
5.0
 40
5.0
 40
5.0
 40
5.0
 10
8.218634840038632
 20
6.700198330501663
 30
0.0
 10
8.227807406768121
 20
6.728065923200375
 30
0.0
 10
8.257088026911901
 20
6.743235109258762
 30
0.0
 10
8.28495561961057
 20
6.733712650019072
 30
0.0
  0
SPLINE
  5
555
330
1F
100
AcDbEntity
  8
Livello 1
100
AcDbSpline
210
0.0
220
0.0
230
1.0
 70
    24
 71
     3
 72
     8
 73
     4
 74
     0
 42
0.000000001
 43
0.0000000001
 40
5.0
 40
5.0
 40
5.0
 40
5.0
 40
6.0
 40
6.0
 40
6.0
 40
6.0
 10
8.28495561961057
 20
6.733712650019072
 30
0.0
 10
8.28495561961057
 20
6.733712650019072
 30
0.0
 10
8.338577992542269
 20
6.716072684542268
 30
0.0
 10
8.338577992542269
 20
6.716072684542268
 30
0.0
  0
SPLINE
  5
556
330
1F
100
AcDbEntity
  8
Livello 1
100
AcDbSpline
210
0.0
220
0.0
230
1.0
 70
     8
 71
     3
 72
     8
 73
     4
 74
     0
 42
0.000000001
 43
0.0000000001
 40
6.0
 40
6.0
 40
6.0
 40
6.0
 40
7.0
 40
7.0
 40
7.0
 40
7.0
 10
8.338577992542269
 20
6.716072684542268
 30
0.0
 10
8.354452346582917
 20
6.710781233195376
 30
0.0
 10
8.366800860712857
 20
6.698432719065479
 30
0.0
 10
8.372092312059734
 20
6.682558365024874
 30
0.0
  0
SPLINE
  5
557
330
1F
100
AcDbEntity
  8
Livello 1
100
AcDbSpline
210
0.0
220
0.0
230
1.0
 70
    24
 71
     3
 72
     8
 73
     4
 74
     0
 42
0.000000001
 43
0.0000000001
 40
7.0
 40
7.0
 40
7.0
 40
7.0
 40
8.0
 40
8.0
 40
8.0
 40
8.0
 10
8.372092312059734
 20
6.682558365024874
 30
0.0
 10
8.372092312059734
 20
6.682558365024874
 30
0.0
 10
8.389732277536552
 20
6.628583408102073
 30
0.0
 10
8.389732277536552
 20
6.628583408102073
 30
0.0
  0
SPLINE
  5
558
330
1F
100
AcDbEntity
  8
Livello 1
100
AcDbSpline
210
0.0
220
0.0
230
1.0
 70
     8
 71
     3
 72
     8
 73
     4
 74
     0
 42
0.000000001
 43
0.0000000001
 40
8.0
 40
8.0
 40
8.0
 40
8.0
 40
9.0
 40
9.0
 40
9.0
 40
9.0
 10
8.389732277536552
 20
6.628583408102073
 30
0.0
 10
8.398904844266041
 20
6.601065707913562
 30
0.0
 10
8.384088242198615
 20
6.571432503778765
 30
0.0
 10
8.356217958019129
 20
6.562259937049276
 30
0.0
  0
SPLINE
  5
559
330
1F
100
AcDbEntity
  8
Livello 1
100
AcDbSpline
210
0.0
220
0.0
230
1.0
 70
     8
 71
     3
 72
     8
 73
     4
 74
     0
 42
0.000000001
 43
0.0000000001
 40
9.0
 40
9.0
 40
9.0
 40
9.0
 40
10.0
 40
10.0
 40
10.0
 40
10.0
 10
8.356217958019129
 20
6.562259937049276
 30
0.0
 10
8.350926506672252
 20
6.560499708574766
 30
0.0
 10
8.345282471334272
 20
6.559794540592662
 30
0.0
 10
8.339991019987422
 20
6.559794540592662
 30
0.0
  0
SPLINE
  5
55A
330
1F
100
AcDbEntity
  8
Livello 1
100
AcDbSpline
210
0.0
220
0.0
230
1.0
 70
     8
 71
     3
 72
     8
 73
     4
 74
     0
 42
0.000000001
 43
0.0000000001
 40
0.0
 40
0.0
 40
0.0
 40
0.0
 40
1.0
 40
1.0
 40
1.0
 40
1.0
 10
2.485468422336737
 20
6.327207531644759
 30
0.0
 10
2.480175625249415
 20
6.327207531644759
 30
0.0
 10
2.474531589911492
 20
6.327912699626878
 30
0.0
 10
2.468887554573541
 20
6.329672928101359
 30
0.0
  0
SPLINE
  5
55B
330
1F
100
AcDbEntity
  8
Livello 1
100
AcDbSpline
210
0.0
220
0.0
230
1.0
 70
     8
 71
     3
 72
     8
 73
     4
 74
     0
 42
0.000000001
 43
0.0000000001
 40
1.0
 40
1.0
 40
1.0
 40
1.0
 40
2.0
 40
2.0
 40
2.0
 40
2.0
 10
2.468887554573541
 20
6.329672928101359
 30
0.0
 10
2.441371200125544
 20
6.338845494830877
 30
0.0
 10
2.426553252317688
 20
6.368833974437563
 30
0.0
 10
2.435725819047178
 20
6.395996399154071
 30
0.0
  0
SPLINE
  5
55C
330
1F
100
AcDbEntity
  8
Livello 1
100
AcDbSpline
210
0.0
220
0.0
230
1.0
 70
    24
 71
     3
 72
     8
 73
     4
 74
     0
 42
0.000000001
 43
0.0000000001
 40
2.0
 40
2.0
 40
2.0
 40
2.0
 40
3.0
 40
3.0
 40
3.0
 40
3.0
 10
2.435725819047178
 20
6.395996399154071
 30
0.0
 10
2.435725819047178
 20
6.395996399154071
 30
0.0
 10
2.453364438783552
 20
6.449971356076957
 30
0.0
 10
2.453364438783552
 20
6.449971356076957
 30
0.0
  0
SPLINE
  5
55D
330
1F
100
AcDbEntity
  8
Livello 1
100
AcDbSpline
210
0.0
220
0.0
230
1.0
 70
     8
 71
     3
 72
     8
 73
     4
 74
     0
 42
0.000000001
 43
0.0000000001
 40
3.0
 40
3.0
 40
3.0
 40
3.0
 40
4.0
 40
4.0
 40
4.0
 40
4.0
 10
2.453364438783552
 20
6.449971356076957
 30
0.0
 10
2.457245554166178
 20
6.460909534242574
 30
0.0
 10
2.464653855199856
 20
6.470787268954182
 30
0.0
 10
2.474179005920404
 20
6.477133780793479
 30
0.0
  0
SPLINE
  5
55E
330
1F
100
AcDbEntity
  8
Livello 1
100
AcDbSpline
210
0.0
220
0.0
230
1.0
 70
    24
 71
     3
 72
     8
 73
     4
 74
     0
 42
0.000000001
 43
0.0000000001
 40
4.0
 40
4.0
 40
4.0
 40
4.0
 40
5.0
 40
5.0
 40
5.0
 40
5.0
 10
2.474179005920404
 20
6.477133780793479
 30
0.0
 10
2.474179005920404
 20
6.477133780793479
 30
0.0
 10
2.528153962843248
 20
6.512763604257258
 30
0.0
 10
2.528153962843248
 20
6.512763604257258
 30
0.0
  0
SPLINE
  5
55F
330
1F
100
AcDbEntity
  8
Livello 1
100
AcDbSpline
210
0.0
220
0.0
230
1.0
 70
     8
 71
     3
 72
     8
 73
     4
 74
     0
 42
0.000000001
 43
0.0000000001
 40
5.0
 40
5.0
 40
5.0
 40
5.0
 40
6.0
 40
6.0
 40
6.0
 40
6.0
 10
2.528153962843248
 20
6.512763604257258
 30
0.0
 10
2.552495715631209
 20
6.528993233769867
 30
0.0
 10
2.584950937435024
 20
6.52229144645868
 30
0.0
 10
2.601179221207132
 20
6.497949693670676
 30
0.0
  0
SPLINE
  5
560
330
1F
100
AcDbEntity
  8
Livello 1
100
AcDbSpline
210
0.0
220
0.0
230
1.0
 70
     8
 71
     3
 72
     8
 73
     4
 74
     0
 42
0.000000001
 43
0.0000000001
 40
6.0
 40
6.0
 40
6.0
 40
6.0
 40
7.0
 40
7.0
 40
7.0
 40
7.0
 10
2.601179221207132
 20
6.497949693670676
 30
0.0
 10
2.61705357524778
 20
6.473957833392958
 30
0.0
 10
2.610350442196207
 20
6.441154064819372
 30
0.0
 10
2.586362619139734
 20
6.425279710778767
 30
0.0
  0
SPLINE
  5
561
330
1F
100
AcDbEntity
  8
Livello 1
100
AcDbSpline
210
0.0
220
0.0
230
1.0
 70
    24
 71
     3
 72
     8
 73
     4
 74
     0
 42
0.000000001
 43
0.0000000001
 40
7.0
 40
7.0
 40
7.0
 40
7.0
 40
8.0
 40
8.0
 40
8.0
 40
8.0
 10
2.586362619139734
 20
6.425279710778767
 30
0.0
 10
2.586362619139734
 20
6.425279710778767
 30
0.0
 10
2.547556848275377
 20
6.399522239064765
 30
0.0
 10
2.547556848275377
 20
6.399522239064765
 30
0.0
  0
SPLINE
  5
562
330
1F
100
AcDbEntity
  8
Livello 1
100
AcDbSpline
210
0.0
220
0.0
230
1.0
 70
    24
 71
     3
 72
     8
 73
     4
 74
     0
 42
0.000000001
 43
0.0000000001
 40
8.0
 40
8.0
 40
8.0
 40
8.0
 40
9.0
 40
9.0
 40
9.0
 40
9.0
 10
2.547556848275377
 20
6.399522239064765
 30
0.0
 10
2.547556848275377
 20
6.399522239064765
 30
0.0
 10
2.535209679885895
 20
6.363187247618768
 30
0.0
 10
2.535209679885895
 20
6.363187247618768
 30
0.0
  0
SPLINE
  5
563
330
1F
100
AcDbEntity
  8
Livello 1
100
AcDbSpline
210
0.0
220
0.0
230
1.0
 70
     8
 71
     3
 72
     8
 73
     4
 74
     0
 42
0.000000001
 43
0.0000000001
 40
9.0
 40
9.0
 40
9.0
 40
9.0
 40
10.0
 40
10.0
 40
10.0
 40
10.0
 10
2.535209679885895
 20
6.363187247618768
 30
0.0
 10
2.52780137885216
 20
6.341316274249166
 30
0.0
 10
2.507339395706353
 20
6.327207531644759
 30
0.0
 10
2.485468422336737
 20
6.327207531644759
 30
0.0
  0
SPLINE
  5
564
330
1F
100
AcDbEntity
  8
Livello 1
100
AcDbSpline
210
0.0
220
0.0
230
1.0
 70
     8
 71
     3
 72
     8
 73
     4
 74
     0
 42
0.000000001
 43
0.0000000001
 40
0.0
 40
0.0
 40
0.0
 40
0.0
 40
1.0
 40
1.0
 40
1.0
 40
1.0
 10
7.856650852108984
 20
6.559794540592662
 30
0.0
 10
7.83477853299891
 20
6.559794540592662
 30
0.0
 10
7.814316549853117
 20
6.573548007725179
 30
0.0
 10
7.806908248819411
 20
6.59577425656677
 30
0.0
  0
SPLINE
  5
565
330
1F
100
AcDbEntity
  8
Livello 1
100
AcDbSpline
210
0.0
220
0.0
230
1.0
 70
    24
 71
     3
 72
     8
 73
     4
 74
     0
 42
0.000000001
 43
0.0000000001
 40
1.0
 40
1.0
 40
1.0
 40
1.0
 40
2.0
 40
2.0
 40
2.0
 40
2.0
 10
7.806908248819411
 20
6.59577425656677
 30
0.0
 10
7.806908248819411
 20
6.59577425656677
 30
0.0
 10
7.79738309809889
 20
6.624702292719476
 30
0.0
 10
7.79738309809889
 20
6.624702292719476
 30
0.0
  0
SPLINE
  5
566
330
1F
100
AcDbEntity
  8
Livello 1
100
AcDbSpline
210
0.0
220
0.0
230
1.0
 70
    24
 71
     3
 72
     8
 73
     4
 74
     0
 42
0.000000001
 43
0.0000000001
 40
2.0
 40
2.0
 40
2.0
 40
2.0
 40
3.0
 40
3.0
 40
3.0
 40
3.0
 10
7.79738309809889
 20
6.624702292719476
 30
0.0
 10
7.79738309809889
 20
6.624702292719476
 30
0.0
 10
7.768456407686585
 20
6.634230134920883
 30
0.0
 10
7.768456407686585
 20
6.634230134920883
 30
0.0
  0
SPLINE
  5
567
330
1F
100
AcDbEntity
  8
Livello 1
100
AcDbSpline
210
0.0
220
0.0
230
1.0
 70
     8
 71
     3
 72
     8
 73
     4
 74
     0
 42
0.000000001
 43
0.0000000001
 40
3.0
 40
3.0
 40
3.0
 40
3.0
 40
4.0
 40
4.0
 40
4.0
 40
4.0
 10
7.768456407686585
 20
6.634230134920883
 30
0.0
 10
7.740938707498173
 20
6.643402701650273
 30
0.0
 10
7.726122105430732
 20
6.673035905785184
 30
0.0
 10
7.735294672160193
 20
6.700548223011878
 30
0.0
  0
SPLINE
  5
568
330
1F
100
AcDbEntity
  8
Livello 1
100
AcDbSpline
210
0.0
220
0.0
230
1.0
 70
     8
 71
     3
 72
     8
 73
     4
 74
     0
 42
0.000000001
 43
0.0000000001
 40
4.0
 40
4.0
 40
4.0
 40
4.0
 40
5.0
 40
5.0
 40
5.0
 40
5.0
 10
7.735294672160193
 20
6.700548223011878
 30
0.0
 10
7.744467238889683
 20
6.728065923200375
 30
0.0
 10
7.774100443024522
 20
6.743235109258762
 30
0.0
 10
7.801616797472547
 20
6.733712650019072
 30
0.0
  0
SPLINE
  5
569
330
1F
100
AcDbEntity
  8
Livello 1
100
AcDbSpline
210
0.0
220
0.0
230
1.0
 70
    24
 71
     3
 72
     8
 73
     4
 74
     0
 42
0.000000001
 43
0.0000000001
 40
5.0
 40
5.0
 40
5.0
 40
5.0
 40
6.0
 40
6.0
 40
6.0
 40
6.0
 10
7.801616797472547
 20
6.733712650019072
 30
0.0
 10
7.801616797472547
 20
6.733712650019072
 30
0.0
 10
7.855239170404288
 20
6.716072684542268
 30
0.0
 10
7.855239170404288
 20
6.716072684542268
 30
0.0
  0
SPLINE
  5
56A
330
1F
100
AcDbEntity
  8
Livello 1
100
AcDbSpline
210
0.0
220
0.0
230
1.0
 70
     8
 71
     3
 72
     8
 73
     4
 74
     0
 42
0.000000001
 43
0.0000000001
 40
6.0
 40
6.0
 40
6.0
 40
6.0
 40
7.0
 40
7.0
 40
7.0
 40
7.0
 10
7.855239170404288
 20
6.716072684542268
 30
0.0
 10
7.870760940453848
 20
6.710781233195376
 30
0.0
 10
7.883108108843359
 20
6.698432719065479
 30
0.0
 10
7.888399560190251
 20
6.682913640496764
 30
0.0
  0
SPLINE
  5
56B
330
1F
100
AcDbEntity
  8
Livello 1
100
AcDbSpline
210
0.0
220
0.0
230
1.0
 70
    24
 71
     3
 72
     8
 73
     4
 74
     0
 42
0.000000001
 43
0.0000000001
 40
7.0
 40
7.0
 40
7.0
 40
7.0
 40
8.0
 40
8.0
 40
8.0
 40
8.0
 10
7.888399560190251
 20
6.682913640496764
 30
0.0
 10
7.888399560190251
 20
6.682913640496764
 30
0.0
 10
7.906392109658114
 20
6.628938683573963
 30
0.0
 10
7.906392109658114
 20
6.628938683573963
 30
0.0
  0
SPLINE
  5
56C
330
1F
100
AcDbEntity
  8
Livello 1
100
AcDbSpline
210
0.0
220
0.0
230
1.0
 70
     8
 71
     3
 72
     8
 73
     4
 74
     0
 42
0.000000001
 43
0.0000000001
 40
8.0
 40
8.0
 40
8.0
 40
8.0
 40
9.0
 40
9.0
 40
9.0
 40
9.0
 10
7.906392109658114
 20
6.628938683573963
 30
0.0
 10
7.915564676387603
 20
6.601420983385565
 30
0.0
 10
7.900748074320176
 20
6.571787779250684
 30
0.0
 10
7.87323037413175
 20
6.562259937049276
 30
0.0
  0
SPLINE
  5
56D
330
1F
100
AcDbEntity
  8
Livello 1
100
AcDbSpline
210
0.0
220
0.0
230
1.0
 70
     8
 71
     3
 72
     8
 73
     4
 74
     0
 42
0.000000001
 43
0.0000000001
 40
9.0
 40
9.0
 40
9.0
 40
9.0
 40
10.0
 40
10.0
 40
10.0
 40
10.0
 10
7.87323037413175
 20
6.562259937049276
 30
0.0
 10
7.867938922784887
 20
6.560499708574766
 30
0.0
 10
7.862294887446921
 20
6.559794540592662
 30
0.0
 10
7.856650852108984
 20
6.559794540592662
 30
0.0
  0
SPLINE
  5
56E
330
1F
100
AcDbEntity
  8
Livello 1
100
AcDbSpline
210
0.0
220
0.0
230
1.0
 70
     8
 71
     3
 72
     8
 73
     4
 74
     0
 42
0.000000001
 43
0.0000000001
 40
0.0
 40
0.0
 40
0.0
 40
0.0
 40
1.0
 40
1.0
 40
1.0
 40
1.0
 10
8.912902324741949
 20
6.559794540592662
 30
0.0
 10
8.89102865989146
 20
6.559794540592662
 30
0.0
 10
8.870215438494952
 20
6.573903283197054
 30
0.0
 10
8.863158375711947
 20
6.59577425656677
 30
0.0
  0
SPLINE
  5
56F
330
1F
100
AcDbEntity
  8
Livello 1
100
AcDbSpline
210
0.0
220
0.0
230
1.0
 70
    24
 71
     3
 72
     8
 73
     4
 74
     0
 42
0.000000001
 43
0.0000000001
 40
1.0
 40
1.0
 40
1.0
 40
1.0
 40
2.0
 40
2.0
 40
2.0
 40
2.0
 10
8.863158375711947
 20
6.59577425656677
 30
0.0
 10
8.863158375711947
 20
6.59577425656677
 30
0.0
 10
8.853633224991355
 20
6.624702292719476
 30
0.0
 10
8.853633224991355
 20
6.624702292719476
 30
0.0
  0
SPLINE
  5
570
330
1F
100
AcDbEntity
  8
Livello 1
100
AcDbSpline
210
0.0
220
0.0
230
1.0
 70
    24
 71
     3
 72
     8
 73
     4
 74
     0
 42
0.000000001
 43
0.0000000001
 40
2.0
 40
2.0
 40
2.0
 40
2.0
 40
3.0
 40
3.0
 40
3.0
 40
3.0
 10
8.853633224991355
 20
6.624702292719476
 30
0.0
 10
8.853633224991355
 20
6.624702292719476
 30
0.0
 10
8.82470788031955
 20
6.634230134920883
 30
0.0
 10
8.82470788031955
 20
6.634230134920883
 30
0.0
  0
SPLINE
  5
571
330
1F
100
AcDbEntity
  8
Livello 1
100
AcDbSpline
210
0.0
220
0.0
230
1.0
 70
     8
 71
     3
 72
     8
 73
     4
 74
     0
 42
0.000000001
 43
0.0000000001
 40
3.0
 40
3.0
 40
3.0
 40
3.0
 40
4.0
 40
4.0
 40
4.0
 40
4.0
 10
8.82470788031955
 20
6.634230134920883
 30
0.0
 10
8.797190180131039
 20
6.643047426178384
 30
0.0
 10
8.782373578063655
 20
6.672680630313266
 30
0.0
 10
8.79154614479313
 20
6.700198330501663
 30
0.0
  0
SPLINE
  5
572
330
1F
100
AcDbEntity
  8
Livello 1
100
AcDbSpline
210
0.0
220
0.0
230
1.0
 70
     8
 71
     3
 72
     8
 73
     4
 74
     0
 42
0.000000001
 43
0.0000000001
 40
4.0
 40
4.0
 40
4.0
 40
4.0
 40
5.0
 40
5.0
 40
5.0
 40
5.0
 10
8.79154614479313
 20
6.700198330501663
 30
0.0
 10
8.800718711522648
 20
6.728065923200375
 30
0.0
 10
8.830351915657459
 20
6.743235109258762
 30
0.0
 10
8.857514340373938
 20
6.733712650019072
 30
0.0
  0
SPLINE
  5
573
330
1F
100
AcDbEntity
  8
Livello 1
100
AcDbSpline
210
0.0
220
0.0
230
1.0
 70
    24
 71
     3
 72
     8
 73
     4
 74
     0
 42
0.000000001
 43
0.0000000001
 40
5.0
 40
5.0
 40
5.0
 40
5.0
 40
6.0
 40
6.0
 40
6.0
 40
6.0
 10
8.857514340373938
 20
6.733712650019072
 30
0.0
 10
8.857514340373938
 20
6.733712650019072
 30
0.0
 10
8.911489297296739
 20
6.716072684542268
 30
0.0
 10
8.911489297296739
 20
6.716072684542268
 30
0.0
  0
SPLINE
  5
574
330
1F
100
AcDbEntity
  8
Livello 1
100
AcDbSpline
210
0.0
220
0.0
230
1.0
 70
     8
 71
     3
 72
     8
 73
     4
 74
     0
 42
0.000000001
 43
0.0000000001
 40
6.0
 40
6.0
 40
6.0
 40
6.0
 40
7.0
 40
7.0
 40
7.0
 40
7.0
 10
8.911489297296739
 20
6.716072684542268
 30
0.0
 10
8.927363651337458
 20
6.710781233195376
 30
0.0
 10
8.939712165467341
 20
6.698432719065479
 30
0.0
 10
8.945003616814247
 20
6.682558365024874
 30
0.0
  0
SPLINE
  5
575
330
1F
100
AcDbEntity
  8
Livello 1
100
AcDbSpline
210
0.0
220
0.0
230
1.0
 70
    24
 71
     3
 72
     8
 73
     4
 74
     0
 42
0.000000001
 43
0.0000000001
 40
7.0
 40
7.0
 40
7.0
 40
7.0
 40
8.0
 40
8.0
 40
8.0
 40
8.0
 10
8.945003616814247
 20
6.682558365024874
 30
0.0
 10
8.945003616814247
 20
6.682558365024874
 30
0.0
 10
8.962643582291036
 20
6.628583408102073
 30
0.0
 10
8.962643582291036
 20
6.628583408102073
 30
0.0
  0
SPLINE
  5
576
330
1F
100
AcDbEntity
  8
Livello 1
100
AcDbSpline
210
0.0
220
0.0
230
1.0
 70
     8
 71
     3
 72
     8
 73
     4
 74
     0
 42
0.000000001
 43
0.0000000001
 40
8.0
 40
8.0
 40
8.0
 40
8.0
 40
9.0
 40
9.0
 40
9.0
 40
9.0
 10
8.962643582291036
 20
6.628583408102073
 30
0.0
 10
8.97181614902054
 20
6.601420983385565
 30
0.0
 10
8.956999546953127
 20
6.571432503778765
 30
0.0
 10
8.929481846764645
 20
6.562259937049276
 30
0.0
  0
SPLINE
  5
577
330
1F
100
AcDbEntity
  8
Livello 1
100
AcDbSpline
210
0.0
220
0.0
230
1.0
 70
     8
 71
     3
 72
     8
 73
     4
 74
     0
 42
0.000000001
 43
0.0000000001
 40
9.0
 40
9.0
 40
9.0
 40
9.0
 40
10.0
 40
10.0
 40
10.0
 40
10.0
 10
8.929481846764645
 20
6.562259937049276
 30
0.0
 10
8.92383781142675
 20
6.560499708574766
 30
0.0
 10
8.918193776088841
 20
6.559794540592662
 30
0.0
 10
8.912902324741949
 20
6.559794540592662
 30
0.0
  0
SPLINE
  5
578
330
1F
100
AcDbEntity
  8
Livello 1
100
AcDbSpline
210
0.0
220
0.0
230
1.0
 70
    24
 71
     3
 72
     8
 73
     4
 74
     0
 42
0.000000001
 43
0.0000000001
 40
0.0
 40
0.0
 40
0.0
 40
0.0
 40
1.0
 40
1.0
 40
1.0
 40
1.0
 10
8.966702335409635
 20
5.933153203672461
 30
0.0
 10
8.966702335409635
 20
5.933153203672461
 30
0.0
 10
8.931069820464941
 20
5.933153203672461
 30
0.0
 10
8.931069820464941
 20
5.933153203672461
 30
0.0
  0
SPLINE
  5
579
330
1F
100
AcDbEntity
  8
Livello 1
100
AcDbSpline
210
0.0
220
0.0
230
1.0
 70
     8
 71
     3
 72
    11
 73
     7
 74
     0
 42
0.000000001
 43
0.0000000001
 40
1.0
 40
1.0
 40
1.0
 40
1.0
 40
2.0
 40
2.0
 40
2.0
 40
3.0
 40
3.0
 40
3.0
 40
3.0
 10
8.931069820464941
 20
5.933153203672461
 30
0.0
 10
8.901789200321147
 20
5.933153203672461
 30
0.0
 10
8.878507890987251
 20
5.956784405516685
 30
0.0
 10
8.878507890987251
 20
5.985712441669363
 30
0.0
 10
8.878507890987251
 20
6.014640477822055
 30
0.0
 10
8.901789200321147
 20
6.038277062627869
 30
0.0
 10
8.931069820464941
 20
6.038277062627869
 30
0.0
  0
SPLINE
  5
57A
330
1F
100
AcDbEntity
  8
Livello 1
100
AcDbSpline
210
0.0
220
0.0
230
1.0
 70
    24
 71
     3
 72
     8
 73
     4
 74
     0
 42
0.000000001
 43
0.0000000001
 40
3.0
 40
3.0
 40
3.0
 40
3.0
 40
4.0
 40
4.0
 40
4.0
 40
4.0
 10
8.931069820464941
 20
6.038277062627869
 30
0.0
 10
8.931069820464941
 20
6.038277062627869
 30
0.0
 10
8.966702335409635
 20
6.038277062627869
 30
0.0
 10
8.966702335409635
 20
6.038277062627869
 30
0.0
  0
SPLINE
  5
57B
330
1F
100
AcDbEntity
  8
Livello 1
100
AcDbSpline
210
0.0
220
0.0
230
1.0
 70
     8
 71
     3
 72
    11
 73
     7
 74
     0
 42
0.000000001
 43
0.0000000001
 40
4.0
 40
4.0
 40
4.0
 40
4.0
 40
5.0
 40
5.0
 40
5.0
 40
6.0
 40
6.0
 40
6.0
 40
6.0
 10
8.966702335409635
 20
6.038277062627869
 30
0.0
 10
8.995627680081454
 20
6.038277062627869
 30
0.0
 10
9.01926426488734
 20
6.014640477822055
 30
0.0
 10
9.01926426488734
 20
5.985712441669363
 30
0.0
 10
9.01926426488734
 20
5.956784405516685
 30
0.0
 10
8.995627680081454
 20
5.933153203672461
 30
0.0
 10
8.966702335409635
 20
5.933153203672461
 30
0.0
  0
SPLINE
  5
57C
330
1F
100
AcDbEntity
  8
Livello 1
100
AcDbSpline
210
0.0
220
0.0
230
1.0
 70
    24
 71
     3
 72
     8
 73
     4
 74
     0
 42
0.000000001
 43
0.0000000001
 40
0.0
 40
0.0
 40
0.0
 40
0.0
 40
1.0
 40
1.0
 40
1.0
 40
1.0
 10
1.447101839937772
 20
5.933153203672461
 30
0.0
 10
1.447101839937772
 20
5.933153203672461
 30
0.0
 10
1.429109290469881
 20
5.933153203672461
 30
0.0
 10
1.429109290469881
 20
5.933153203672461
 30
0.0
  0
SPLINE
  5
57D
330
1F
100
AcDbEntity
  8
Livello 1
100
AcDbSpline
210
0.0
220
0.0
230
1.0
 70
     8
 71
     3
 72
    11
 73
     7
 74
     0
 42
0.000000001
 43
0.0000000001
 40
1.0
 40
1.0
 40
1.0
 40
1.0
 40
2.0
 40
2.0
 40
2.0
 40
3.0
 40
3.0
 40
3.0
 40
3.0
 10
1.429109290469881
 20
5.933153203672461
 30
0.0
 10
1.400181254317175
 20
5.933153203672461
 30
0.0
 10
1.376898599242849
 20
5.956784405516685
 30
0.0
 10
1.376898599242849
 20
5.985712441669363
 30
0.0
 10
1.376898599242849
 20
6.014640477822055
 30
0.0
 10
1.400181254317175
 20
6.038277062627869
 30
0.0
 10
1.429109290469881
 20
6.038277062627869
 30
0.0
  0
SPLINE
  5
57E
330
1F
100
AcDbEntity
  8
Livello 1
100
AcDbSpline
210
0.0
220
0.0
230
1.0
 70
    24
 71
     3
 72
     8
 73
     4
 74
     0
 42
0.000000001
 43
0.0000000001
 40
3.0
 40
3.0
 40
3.0
 40
3.0
 40
4.0
 40
4.0
 40
4.0
 40
4.0
 10
1.429109290469881
 20
6.038277062627869
 30
0.0
 10
1.429109290469881
 20
6.038277062627869
 30
0.0
 10
1.447101839937772
 20
6.038277062627869
 30
0.0
 10
1.447101839937772
 20
6.038277062627869
 30
0.0
  0
SPLINE
  5
57F
330
1F
100
AcDbEntity
  8
Livello 1
100
AcDbSpline
210
0.0
220
0.0
230
1.0
 70
     8
 71
     3
 72
    11
 73
     7
 74
     0
 42
0.000000001
 43
0.0000000001
 40
4.0
 40
4.0
 40
4.0
 40
4.0
 40
5.0
 40
5.0
 40
5.0
 40
6.0
 40
6.0
 40
6.0
 40
6.0
 10
1.447101839937772
 20
6.038277062627869
 30
0.0
 10
1.476028530350049
 20
6.038277062627869
 30
0.0
 10
1.499665115155892
 20
6.014640477822055
 30
0.0
 10
1.499665115155892
 20
5.985712441669363
 30
0.0
 10
1.499665115155892
 20
5.956784405516685
 30
0.0
 10
1.476028530350049
 20
5.933153203672461
 30
0.0
 10
1.447101839937772
 20
5.933153203672461
 30
0.0
  0
SPLINE
  5
580
330
1F
100
AcDbEntity
  8
Livello 1
100
AcDbSpline
210
0.0
220
0.0
230
1.0
 70
    24
 71
     3
 72
     8
 73
     4
 74
     0
 42
0.000000001
 43
0.0000000001
 40
0.0
 40
0.0
 40
0.0
 40
0.0
 40
1.0
 40
1.0
 40
1.0
 40
1.0
 10
1.411224400235909
 20
5.933153203672461
 30
0.0
 10
1.411224400235909
 20
5.933153203672461
 30
0.0
 10
1.393231850768046
 20
5.933153203672461
 30
0.0
 10
1.393231850768046
 20
5.933153203672461
 30
0.0
  0
SPLINE
  5
581
330
1F
100
AcDbEntity
  8
Livello 1
100
AcDbSpline
210
0.0
220
0.0
230
1.0
 70
     8
 71
     3
 72
    11
 73
     7
 74
     0
 42
0.000000001
 43
0.0000000001
 40
1.0
 40
1.0
 40
1.0
 40
1.0
 40
2.0
 40
2.0
 40
2.0
 40
3.0
 40
3.0
 40
3.0
 40
3.0
 10
1.393231850768046
 20
5.933153203672461
 30
0.0
 10
1.36430381461534
 20
5.933153203672461
 30
0.0
 10
1.341021159540986
 20
5.956784405516685
 30
0.0
 10
1.341021159540986
 20
5.985712441669363
 30
0.0
 10
1.341021159540986
 20
6.014640477822055
 30
0.0
 10
1.36430381461534
 20
6.038277062627869
 30
0.0
 10
1.393231850768046
 20
6.038277062627869
 30
0.0
  0
SPLINE
  5
582
330
1F
100
AcDbEntity
  8
Livello 1
100
AcDbSpline
210
0.0
220
0.0
230
1.0
 70
    24
 71
     3
 72
     8
 73
     4
 74
     0
 42
0.000000001
 43
0.0000000001
 40
3.0
 40
3.0
 40
3.0
 40
3.0
 40
4.0
 40
4.0
 40
4.0
 40
4.0
 10
1.393231850768046
 20
6.038277062627869
 30
0.0
 10
1.393231850768046
 20
6.038277062627869
 30
0.0
 10
1.411224400235909
 20
6.038277062627869
 30
0.0
 10
1.411224400235909
 20
6.038277062627869
 30
0.0
  0
SPLINE
  5
583
330
1F
100
AcDbEntity
  8
Livello 1
100
AcDbSpline
210
0.0
220
0.0
230
1.0
 70
     8
 71
     3
 72
    11
 73
     7
 74
     0
 42
0.000000001
 43
0.0000000001
 40
4.0
 40
4.0
 40
4.0
 40
4.0
 40
5.0
 40
5.0
 40
5.0
 40
6.0
 40
6.0
 40
6.0
 40
6.0
 10
1.411224400235909
 20
6.038277062627869
 30
0.0
 10
1.4401510906482
 20
6.038277062627869
 30
0.0
 10
1.463787675454028
 20
6.014640477822055
 30
0.0
 10
1.463787675454028
 20
5.985712441669363
 30
0.0
 10
1.463787675454028
 20
5.956784405516685
 30
0.0
 10
1.4401510906482
 20
5.933153203672461
 30
0.0
 10
1.411224400235909
 20
5.933153203672461
 30
0.0
  0
SPLINE
  5
584
330
1F
100
AcDbEntity
  8
Livello 1
100
AcDbSpline
210
0.0
220
0.0
230
1.0
 70
     8
 71
     3
 72
     8
 73
     4
 74
     0
 42
0.000000001
 43
0.0000000001
 40
0.0
 40
0.0
 40
0.0
 40
0.0
 40
1.0
 40
1.0
 40
1.0
 40
1.0
 10
9.091971928511128
 20
4.079024345357765
 30
0.0
 10
9.078565662408053
 20
4.079024345357765
 30
0.0
 10
9.065159396304849
 20
4.083960521232768
 30
0.0
 10
9.054929077602153
 20
4.094193531416266
 30
0.0
  0
SPLINE
  5
585
330
1F
100
AcDbEntity
  8
Livello 1
100
AcDbSpline
210
0.0
220
0.0
230
1.0
 70
    24
 71
     3
 72
     8
 73
     4
 74
     0
 42
0.000000001
 43
0.0000000001
 40
1.0
 40
1.0
 40
1.0
 40
1.0
 40
2.0
 40
2.0
 40
2.0
 40
2.0
 10
9.054929077602153
 20
4.094193531416266
 30
0.0
 10
9.054929077602153
 20
4.094193531416266
 30
0.0
 10
9.03728911212535
 20
4.111828113931466
 30
0.0
 10
9.03728911212535
 20
4.111828113931466
 30
0.0
  0
SPLINE
  5
586
330
1F
100
AcDbEntity
  8
Livello 1
100
AcDbSpline
210
0.0
220
0.0
230
1.0
 70
     8
 71
     3
 72
     8
 73
     4
 74
     0
 42
0.000000001
 43
0.0000000001
 40
2.0
 40
2.0
 40
2.0
 40
2.0
 40
3.0
 40
3.0
 40
3.0
 40
3.0
 10
9.03728911212535
 20
4.111828113931466
 30
0.0
 10
9.027058793422739
 20
4.121705848643074
 30
0.0
 10
9.021414758084745
 20
4.135114806227065
 30
0.0
 10
9.021414758084745
 20
4.149223548831457
 30
0.0
  0
SPLINE
  5
587
330
1F
100
AcDbEntity
  8
Livello 1
100
AcDbSpline
210
0.0
220
0.0
230
1.0
 70
    24
 71
     3
 72
     8
 73
     4
 74
     0
 42
0.000000001
 43
0.0000000001
 40
3.0
 40
3.0
 40
3.0
 40
3.0
 40
4.0
 40
4.0
 40
4.0
 40
4.0
 10
9.021414758084745
 20
4.149223548831457
 30
0.0
 10
9.021414758084745
 20
4.149223548831457
 30
0.0
 10
9.021414758084745
 20
4.221193746703065
 30
0.0
 10
9.021414758084745
 20
4.221193746703065
 30
0.0
  0
SPLINE
  5
588
330
1F
100
AcDbEntity
  8
Livello 1
100
AcDbSpline
210
0.0
220
0.0
230
1.0
 70
     8
 71
     3
 72
    11
 73
     7
 74
     0
 42
0.000000001
 43
0.0000000001
 40
4.0
 40
4.0
 40
4.0
 40
4.0
 40
5.0
 40
5.0
 40
5.0
 40
6.0
 40
6.0
 40
6.0
 40
6.0
 10
9.021414758084745
 20
4.221193746703065
 30
0.0
 10
9.021414758084745
 20
4.250116399894068
 30
0.0
 10
9.045051342890545
 20
4.273403092189667
 30
0.0
 10
9.073979379043251
 20
4.273403092189667
 30
0.0
 10
9.102907415196042
 20
4.273403092189667
 30
0.0
 10
9.126544000001842
 20
4.250116399894068
 30
0.0
 10
9.126544000001842
 20
4.221193746703065
 30
0.0
  0
SPLINE
  5
589
330
1F
100
AcDbEntity
  8
Livello 1
100
AcDbSpline
210
0.0
220
0.0
230
1.0
 70
    24
 71
     3
 72
     8
 73
     4
 74
     0
 42
0.000000001
 43
0.0000000001
 40
6.0
 40
6.0
 40
6.0
 40
6.0
 40
7.0
 40
7.0
 40
7.0
 40
7.0
 10
9.126544000001842
 20
4.221193746703065
 30
0.0
 10
9.126544000001842
 20
4.221193746703065
 30
0.0
 10
9.129012087939344
 20
4.168629125744473
 30
0.0
 10
9.129012087939344
 20
4.168629125744473
 30
0.0
  0
SPLINE
  5
58A
330
1F
100
AcDbEntity
  8
Livello 1
100
AcDbSpline
210
0.0
220
0.0
230
1.0
 70
     8
 71
     3
 72
     8
 73
     4
 74
     0
 42
0.000000001
 43
0.0000000001
 40
7.0
 40
7.0
 40
7.0
 40
7.0
 40
8.0
 40
8.0
 40
8.0
 40
8.0
 10
9.129012087939344
 20
4.168629125744473
 30
0.0
 10
9.149472725344651
 20
4.148518380849381
 30
0.0
 10
9.149825309335753
 20
4.115359336803763
 30
0.0
 10
9.129364671930346
 20
4.094543423926566
 30
0.0
  0
SPLINE
  5
58B
330
1F
100
AcDbEntity
  8
Livello 1
100
AcDbSpline
210
0.0
220
0.0
230
1.0
 70
     8
 71
     3
 72
     8
 73
     4
 74
     0
 42
0.000000001
 43
0.0000000001
 40
8.0
 40
8.0
 40
8.0
 40
8.0
 40
9.0
 40
9.0
 40
9.0
 40
9.0
 10
9.129364671930346
 20
4.094543423926566
 30
0.0
 10
9.119134353227636
 20
4.084315796704672
 30
0.0
 10
9.105375503133458
 20
4.079024345357765
 30
0.0
 10
9.091971928511128
 20
4.079024345357765
 30
0.0
  0
SPLINE
  5
58C
330
1F
100
AcDbEntity
  8
Livello 1
100
AcDbSpline
210
0.0
220
0.0
230
1.0
 70
     8
 71
     3
 72
     8
 73
     4
 74
     0
 42
0.000000001
 43
0.0000000001
 40
0.0
 40
0.0
 40
0.0
 40
0.0
 40
1.0
 40
1.0
 40
1.0
 40
1.0
 10
1.458955121591728
 20
4.066923447465882
 30
0.0
 10
1.430027085439007
 20
4.066923447465882
 30
0.0
 10
1.406390500633165
 20
4.090554649309979
 30
0.0
 10
1.406390500633165
 20
4.119482685462671
 30
0.0
  0
SPLINE
  5
58D
330
1F
100
AcDbEntity
  8
Livello 1
100
AcDbSpline
210
0.0
220
0.0
230
1.0
 70
    24
 71
     3
 72
     8
 73
     4
 74
     0
 42
0.000000001
 43
0.0000000001
 40
1.0
 40
1.0
 40
1.0
 40
1.0
 40
2.0
 40
2.0
 40
2.0
 40
2.0
 10
1.406390500633165
 20
4.119482685462671
 30
0.0
 10
1.406390500633165
 20
4.119482685462671
 30
0.0
 10
1.406390500633165
 20
5.989205983809867
 30
0.0
 10
1.406390500633165
 20
5.989205983809867
 30
0.0
  0
SPLINE
  5
58E
330
1F
100
AcDbEntity
  8
Livello 1
100
AcDbSpline
210
0.0
220
0.0
230
1.0
 70
     8
 71
     3
 72
    11
 73
     7
 74
     0
 42
0.000000001
 43
0.0000000001
 40
2.0
 40
2.0
 40
2.0
 40
2.0
 40
3.0
 40
3.0
 40
3.0
 40
4.0
 40
4.0
 40
4.0
 40
4.0
 10
1.406390500633165
 20
5.989205983809867
 30
0.0
 10
1.406390500633165
 20
6.018489295434477
 30
0.0
 10
1.430027085439007
 20
6.041770604768373
 30
0.0
 10
1.458955121591728
 20
6.041770604768373
 30
0.0
 10
1.487881812003976
 20
6.041770604768373
 30
0.0
 10
1.511518396809819
 20
6.018489295434477
 30
0.0
 10
1.511518396809819
 20
5.989205983809867
 30
0.0
  0
SPLINE
  5
58F
330
1F
100
AcDbEntity
  8
Livello 1
100
AcDbSpline
210
0.0
220
0.0
230
1.0
 70
    24
 71
     3
 72
     8
 73
     4
 74
     0
 42
0.000000001
 43
0.0000000001
 40
4.0
 40
4.0
 40
4.0
 40
4.0
 40
5.0
 40
5.0
 40
5.0
 40
5.0
 10
1.511518396809819
 20
5.989205983809867
 30
0.0
 10
1.511518396809819
 20
5.989205983809867
 30
0.0
 10
1.511518396809819
 20
4.119482685462671
 30
0.0
 10
1.511518396809819
 20
4.119482685462671
 30
0.0
  0
SPLINE
  5
590
330
1F
100
AcDbEntity
  8
Livello 1
100
AcDbSpline
210
0.0
220
0.0
230
1.0
 70
     8
 71
     3
 72
     8
 73
     4
 74
     0
 42
0.000000001
 43
0.0000000001
 40
5.0
 40
5.0
 40
5.0
 40
5.0
 40
6.0
 40
6.0
 40
6.0
 40
6.0
 10
1.511518396809819
 20
4.119482685462671
 30
0.0
 10
1.511518396809819
 20
4.090554649309979
 30
0.0
 10
1.487881812003976
 20
4.066923447465882
 30
0.0
 10
1.458955121591728
 20
4.066923447465882
 30
0.0
  0
SPLINE
  5
591
330
1F
100
AcDbEntity
  8
Livello 1
100
AcDbSpline
210
0.0
220
0.0
230
1.0
 70
     8
 71
     3
 72
     8
 73
     4
 74
     0
 42
0.000000001
 43
0.0000000001
 40
0.0
 40
0.0
 40
0.0
 40
0.0
 40
1.0
 40
1.0
 40
1.0
 40
1.0
 10
9.218762208291749
 20
4.829280014658067
 30
0.0
 10
9.211352561517642
 20
4.829280014658067
 30
0.0
 10
9.20394291474345
 20
4.830690350622361
 30
0.0
 10
9.197241127432334
 20
4.833860915061165
 30
0.0
  0
SPLINE
  5
592
330
1F
100
AcDbEntity
  8
Livello 1
100
AcDbSpline
210
0.0
220
0.0
230
1.0
 70
     8
 71
     3
 72
     8
 73
     4
 74
     0
 42
0.000000001
 43
0.0000000001
 40
1.0
 40
1.0
 40
1.0
 40
1.0
 40
2.0
 40
2.0
 40
2.0
 40
2.0
 10
9.197241127432334
 20
4.833860915061165
 30
0.0
 10
9.170783870697945
 20
4.845859536680862
 30
0.0
 10
9.159140524550139
 20
4.876903076779967
 30
0.0
 10
9.171136454689047
 20
4.903360333514385
 30
0.0
  0
SPLINE
  5
593
330
1F
100
AcDbEntity
  8
Livello 1
100
AcDbSpline
210
0.0
220
0.0
230
1.0
 70
    24
 71
     3
 72
     8
 73
     4
 74
     0
 42
0.000000001
 43
0.0000000001
 40
2.0
 40
2.0
 40
2.0
 40
2.0
 40
3.0
 40
3.0
 40
3.0
 40
3.0
 10
9.171136454689047
 20
4.903360333514385
 30
0.0
 10
9.171136454689047
 20
4.903360333514385
 30
0.0
 10
9.179603853436347
 20
4.941105660924677
 30
0.0
 10
9.179603853436347
 20
4.941105660924677
 30
0.0
  0
SPLINE
  5
594
330
1F
100
AcDbEntity
  8
Livello 1
100
AcDbSpline
210
0.0
220
0.0
230
1.0
 70
    24
 71
     3
 72
     8
 73
     4
 74
     0
 42
0.000000001
 43
0.0000000001
 40
3.0
 40
3.0
 40
3.0
 40
3.0
 40
4.0
 40
4.0
 40
4.0
 40
4.0
 10
9.179603853436347
 20
4.941105660924677
 30
0.0
 10
9.179603853436347
 20
4.941105660924677
 30
0.0
 10
9.175017570071645
 20
4.955219786490758
 30
0.0
 10
9.175017570071645
 20
4.955219786490758
 30
0.0
  0
SPLINE
  5
595
330
1F
100
AcDbEntity
  8
Livello 1
100
AcDbSpline
210
0.0
220
0.0
230
1.0
 70
     8
 71
     3
 72
     8
 73
     4
 74
     0
 42
0.000000001
 43
0.0000000001
 40
4.0
 40
4.0
 40
4.0
 40
4.0
 40
5.0
 40
5.0
 40
5.0
 40
5.0
 10
9.175017570071645
 20
4.955219786490758
 30
0.0
 10
9.172899374644345
 20
4.959100901873384
 30
0.0
 10
9.171136454689047
 20
4.963687185238057
 30
0.0
 10
9.170078702715841
 20
4.967918193130969
 30
0.0
  0
SPLINE
  5
596
330
1F
100
AcDbEntity
  8
Livello 1
100
AcDbSpline
210
0.0
220
0.0
230
1.0
 70
    24
 71
     3
 72
     8
 73
     4
 74
     0
 42
0.000000001
 43
0.0000000001
 40
5.0
 40
5.0
 40
5.0
 40
5.0
 40
6.0
 40
6.0
 40
6.0
 40
6.0
 10
9.170078702715841
 20
4.967918193130969
 30
0.0
 10
9.170078702715841
 20
4.967918193130969
 30
0.0
 10
9.165845003342141
 20
4.979206263806759
 30
0.0
 10
9.165845003342141
 20
4.979206263806759
 30
0.0
  0
SPLINE
  5
597
330
1F
100
AcDbEntity
  8
Livello 1
100
AcDbSpline
210
0.0
220
0.0
230
1.0
 70
     8
 71
     3
 72
     8
 73
     4
 74
     0
 42
0.000000001
 43
0.0000000001
 40
6.0
 40
6.0
 40
6.0
 40
6.0
 40
7.0
 40
7.0
 40
7.0
 40
7.0
 10
9.165845003342141
 20
4.979206263806759
 30
0.0
 10
9.152438737239052
 20
5.004608460048885
 30
0.0
 10
9.162316471950632
 20
5.036357168130066
 30
0.0
 10
9.188068560702845
 20
5.049766125714072
 30
0.0
  0
SPLINE
  5
598
330
1F
100
AcDbEntity
  8
Livello 1
100
AcDbSpline
210
0.0
220
0.0
230
1.0
 70
     8
 71
     3
 72
     8
 73
     4
 74
     0
 42
0.000000001
 43
0.0000000001
 40
7.0
 40
7.0
 40
7.0
 40
7.0
 40
8.0
 40
8.0
 40
8.0
 40
8.0
 10
9.188068560702845
 20
5.049766125714072
 30
0.0
 10
9.213468065464041
 20
5.063169700336374
 30
0.0
 10
9.245572049017241
 20
5.053291965624765
 30
0.0
 10
9.258978315120344
 20
5.027539876872552
 30
0.0
  0
SPLINE
  5
599
330
1F
100
AcDbEntity
  8
Livello 1
100
AcDbSpline
210
0.0
220
0.0
230
1.0
 70
    24
 71
     3
 72
     8
 73
     4
 74
     0
 42
0.000000001
 43
0.0000000001
 40
8.0
 40
8.0
 40
8.0
 40
8.0
 40
9.0
 40
9.0
 40
9.0
 40
9.0
 10
9.258978315120344
 20
5.027539876872552
 30
0.0
 10
9.258978315120344
 20
5.027539876872552
 30
0.0
 10
9.264974934449341
 20
5.015546638214473
 30
0.0
 10
9.264974934449341
 20
5.015546638214473
 30
0.0
  0
SPLINE
  5
59A
330
1F
100
AcDbEntity
  8
Livello 1
100
AcDbSpline
210
0.0
220
0.0
230
1.0
 70
     8
 71
     3
 72
     8
 73
     4
 74
     0
 42
0.000000001
 43
0.0000000001
 40
9.0
 40
9.0
 40
9.0
 40
9.0
 40
10.0
 40
10.0
 40
10.0
 40
10.0
 10
9.264974934449341
 20
5.015546638214473
 30
0.0
 10
9.267090438395754
 20
5.011665522831876
 30
0.0
 10
9.268856049831953
 20
5.007429131977389
 30
0.0
 10
9.269561217814143
 20
5.003198124084562
 30
0.0
  0
SPLINE
  5
59B
330
1F
100
AcDbEntity
  8
Livello 1
100
AcDbSpline
210
0.0
220
0.0
230
1.0
 70
    24
 71
     3
 72
     8
 73
     4
 74
     0
 42
0.000000001
 43
0.0000000001
 40
10.0
 40
10.0
 40
10.0
 40
10.0
 40
11.0
 40
11.0
 40
11.0
 40
11.0
 10
9.269561217814143
 20
5.003198124084562
 30
0.0
 10
9.269561217814143
 20
5.003198124084562
 30
0.0
 10
9.273794917187757
 20
4.992615221390764
 30
0.0
 10
9.273794917187757
 20
4.992615221390764
 30
0.0
  0
SPLINE
  5
59C
330
1F
100
AcDbEntity
  8
Livello 1
100
AcDbSpline
210
0.0
220
0.0
230
1.0
 70
     8
 71
     3
 72
     8
 73
     4
 74
     0
 42
0.000000001
 43
0.0000000001
 40
11.0
 40
11.0
 40
11.0
 40
11.0
 40
12.0
 40
12.0
 40
12.0
 40
12.0
 10
9.273794917187757
 20
4.992615221390764
 30
0.0
 10
9.276263005125244
 20
4.988028938026062
 30
0.0
 10
9.278028616561456
 20
4.983442654661374
 30
0.0
 10
9.278733784543547
 20
4.978501095824682
 30
0.0
  0
SPLINE
  5
59D
330
1F
100
AcDbEntity
  8
Livello 1
100
AcDbSpline
210
0.0
220
0.0
230
1.0
 70
    24
 71
     3
 72
     8
 73
     4
 74
     0
 42
0.000000001
 43
0.0000000001
 40
12.0
 40
12.0
 40
12.0
 40
12.0
 40
13.0
 40
13.0
 40
13.0
 40
13.0
 10
9.278733784543547
 20
4.978501095824682
 30
0.0
 10
9.278733784543547
 20
4.978501095824682
 30
0.0
 10
9.283672651899351
 20
4.956274846983163
 30
0.0
 10
9.283672651899351
 20
4.956274846983163
 30
0.0
  0
SPLINE
  5
59E
330
1F
100
AcDbEntity
  8
Livello 1
100
AcDbSpline
210
0.0
220
0.0
230
1.0
 70
     8
 71
     3
 72
     8
 73
     4
 74
     0
 42
0.000000001
 43
0.0000000001
 40
13.0
 40
13.0
 40
13.0
 40
13.0
 40
14.0
 40
14.0
 40
14.0
 40
14.0
 10
9.283672651899351
 20
4.956274846983163
 30
0.0
 10
9.285082987863646
 20
4.950983395636271
 30
0.0
 10
9.285435571854748
 20
4.94498677630726
 30
0.0
 10
9.285082987863646
 20
4.939695324960382
 30
0.0
  0
SPLINE
  5
59F
330
1F
100
AcDbEntity
  8
Livello 1
100
AcDbSpline
210
0.0
220
0.0
230
1.0
 70
    24
 71
     3
 72
     8
 73
     4
 74
     0
 42
0.000000001
 43
0.0000000001
 40
14.0
 40
14.0
 40
14.0
 40
14.0
 40
15.0
 40
15.0
 40
15.0
 40
15.0
 10
9.285082987863646
 20
4.939695324960382
 30
0.0
 10
9.285082987863646
 20
4.939695324960382
 30
0.0
 10
9.281201872481048
 20
4.901949997550062
 30
0.0
 10
9.281201872481048
 20
4.901949997550062
 30
0.0
  0
SPLINE
  5
5A0
330
1F
100
AcDbEntity
  8
Livello 1
100
AcDbSpline
210
0.0
220
0.0
230
1.0
 70
     8
 71
     3
 72
     8
 73
     4
 74
     0
 42
0.000000001
 43
0.0000000001
 40
15.0
 40
15.0
 40
15.0
 40
15.0
 40
16.0
 40
16.0
 40
16.0
 40
16.0
 10
9.281201872481048
 20
4.901949997550062
 30
0.0
 10
9.28084928848996
 20
4.89771360669556
 30
0.0
 10
9.279791536516853
 20
4.893482598802776
 30
0.0
 10
9.278381200552544
 20
4.889251590909978
 30
0.0
  0
SPLINE
  5
5A1
330
1F
100
AcDbEntity
  8
Livello 1
100
AcDbSpline
210
0.0
220
0.0
230
1.0
 70
    24
 71
     3
 72
     8
 73
     4
 74
     0
 42
0.000000001
 43
0.0000000001
 40
16.0
 40
16.0
 40
16.0
 40
16.0
 40
17.0
 40
17.0
 40
17.0
 40
17.0
 10
9.278381200552544
 20
4.889251590909978
 30
0.0
 10
9.278381200552544
 20
4.889251590909978
 30
0.0
 10
9.266385270413636
 20
4.859968279285254
 30
0.0
 10
9.266385270413636
 20
4.859968279285254
 30
0.0
  0
SPLINE
  5
5A2
330
1F
100
AcDbEntity
  8
Livello 1
100
AcDbSpline
210
0.0
220
0.0
230
1.0
 70
     8
 71
     3
 72
     8
 73
     4
 74
     0
 42
0.000000001
 43
0.0000000001
 40
17.0
 40
17.0
 40
17.0
 40
17.0
 40
18.0
 40
18.0
 40
18.0
 40
18.0
 10
9.266385270413636
 20
4.859968279285254
 30
0.0
 10
9.25791787166635
 20
4.84056808533397
 30
0.0
 10
9.238870261706054
 20
4.829280014658067
 30
0.0
 10
9.218762208291749
 20
4.829280014658067
 30
0.0
  0
SPLINE
  5
5A3
330
1F
100
AcDbEntity
  8
Livello 1
100
AcDbSpline
210
0.0
220
0.0
230
1.0
 70
     8
 71
     3
 72
     8
 73
     4
 74
     0
 42
0.000000001
 43
0.0000000001
 40
0.0
 40
0.0
 40
0.0
 40
0.0
 40
1.0
 40
1.0
 40
1.0
 40
1.0
 10
9.238022445238968
 20
4.759253065958674
 30
0.0
 10
9.228497294518462
 20
4.759253065958674
 30
0.0
 10
9.218619559806853
 20
4.761718462415373
 30
0.0
 10
9.209799577068451
 20
4.767365189234183
 30
0.0
  0
SPLINE
  5
5A4
330
1F
100
AcDbEntity
  8
Livello 1
100
AcDbSpline
210
0.0
220
0.0
230
1.0
 70
     8
 71
     3
 72
     8
 73
     4
 74
     0
 42
0.000000001
 43
0.0000000001
 40
1.0
 40
1.0
 40
1.0
 40
1.0
 40
2.0
 40
2.0
 40
2.0
 40
2.0
 10
9.209799577068451
 20
4.767365189234183
 30
0.0
 10
9.185457824280462
 20
4.78288426780287
 30
0.0
 10
9.17804817750634
 20
4.815343526827874
 30
0.0
 10
9.193569947555843
 20
4.840035172126064
 30
0.0
  0
SPLINE
  5
5A5
330
1F
100
AcDbEntity
  8
Livello 1
100
AcDbSpline
210
0.0
220
0.0
230
1.0
 70
    24
 71
     3
 72
     8
 73
     4
 74
     0
 42
0.000000001
 43
0.0000000001
 40
2.0
 40
2.0
 40
2.0
 40
2.0
 40
3.0
 40
3.0
 40
3.0
 40
3.0
 10
9.193569947555843
 20
4.840035172126064
 30
0.0
 10
9.193569947555843
 20
4.840035172126064
 30
0.0
 10
9.228142019046543
 20
4.898596412413667
 30
0.0
 10
9.228142019046543
 20
4.898596412413667
 30
0.0
  0
SPLINE
  5
5A6
330
1F
100
AcDbEntity
  8
Livello 1
100
AcDbSpline
210
0.0
220
0.0
230
1.0
 70
    24
 71
     3
 72
     8
 73
     4
 74
     0
 42
0.000000001
 43
0.0000000001
 40
3.0
 40
3.0
 40
3.0
 40
3.0
 40
4.0
 40
4.0
 40
4.0
 40
4.0
 10
9.228142019046543
 20
4.898596412413667
 30
0.0
 10
9.228142019046543
 20
4.898596412413667
 30
0.0
 10
9.229555046491626
 20
4.910944926543564
 30
0.0
 10
9.229555046491626
 20
4.910944926543564
 30
0.0
  0
SPLINE
  5
5A7
330
1F
100
AcDbEntity
  8
Livello 1
100
AcDbSpline
210
0.0
220
0.0
230
1.0
 70
     8
 71
     3
 72
     8
 73
     4
 74
     0
 42
0.000000001
 43
0.0000000001
 40
4.0
 40
4.0
 40
4.0
 40
4.0
 40
5.0
 40
5.0
 40
5.0
 40
5.0
 10
9.229555046491626
 20
4.910944926543564
 30
0.0
 10
9.229907630482756
 20
4.915175934436476
 30
0.0
 10
9.230965382455948
 20
4.919412325290963
 30
0.0
 10
9.232375718420129
 20
4.92329344067356
 30
0.0
  0
SPLINE
  5
5A8
330
1F
100
AcDbEntity
  8
Livello 1
100
AcDbSpline
210
0.0
220
0.0
230
1.0
 70
    24
 71
     3
 72
     8
 73
     4
 74
     0
 42
0.000000001
 43
0.0000000001
 40
5.0
 40
5.0
 40
5.0
 40
5.0
 40
6.0
 40
6.0
 40
6.0
 40
6.0
 10
9.232375718420129
 20
4.92329344067356
 30
0.0
 10
9.232375718420129
 20
4.92329344067356
 30
0.0
 10
9.233436161874251
 20
4.926819280584254
 30
0.0
 10
9.233436161874251
 20
4.926819280584254
 30
0.0
  0
SPLINE
  5
5A9
330
1F
100
AcDbEntity
  8
Livello 1
100
AcDbSpline
210
0.0
220
0.0
230
1.0
 70
    24
 71
     3
 72
     8
 73
     4
 74
     0
 42
0.000000001
 43
0.0000000001
 40
6.0
 40
6.0
 40
6.0
 40
6.0
 40
7.0
 40
7.0
 40
7.0
 40
7.0
 10
9.233436161874251
 20
4.926819280584254
 30
0.0
 10
9.233436161874251
 20
4.926819280584254
 30
0.0
 10
9.218264284334949
 20
4.993492644147167
 30
0.0
 10
9.218264284334949
 20
4.993492644147167
 30
0.0
  0
SPLINE
  5
5AA
330
1F
100
AcDbEntity
  8
Livello 1
100
AcDbSpline
210
0.0
220
0.0
230
1.0
 70
    24
 71
     3
 72
     8
 73
     4
 74
     0
 42
0.000000001
 43
0.0000000001
 40
7.0
 40
7.0
 40
7.0
 40
7.0
 40
8.0
 40
8.0
 40
8.0
 40
8.0
 10
9.218264284334949
 20
4.993492644147167
 30
0.0
 10
9.218264284334949
 20
4.993492644147167
 30
0.0
 10
9.197451062938455
 20
5.023125848282063
 30
0.0
 10
9.197451062938455
 20
5.023125848282063
 30
0.0
  0
SPLINE
  5
5AB
330
1F
100
AcDbEntity
  8
Livello 1
100
AcDbSpline
210
0.0
220
0.0
230
1.0
 70
    24
 71
     3
 72
     8
 73
     4
 74
     0
 42
0.000000001
 43
0.0000000001
 40
8.0
 40
8.0
 40
8.0
 40
8.0
 40
9.0
 40
9.0
 40
9.0
 40
9.0
 10
9.197451062938455
 20
5.023125848282063
 30
0.0
 10
9.197451062938455
 20
5.023125848282063
 30
0.0
 10
9.183692212844249
 20
5.035829637883864
 30
0.0
 10
9.183692212844249
 20
5.035829637883864
 30
0.0
  0
SPLINE
  5
5AC
330
1F
100
AcDbEntity
  8
Livello 1
100
AcDbSpline
210
0.0
220
0.0
230
1.0
 70
     8
 71
     3
 72
     8
 73
     4
 74
     0
 42
0.000000001
 43
0.0000000001
 40
9.0
 40
9.0
 40
9.0
 40
9.0
 40
10.0
 40
10.0
 40
10.0
 40
10.0
 10
9.183692212844249
 20
5.035829637883864
 30
0.0
 10
9.162526407456752
 20
5.055585107307166
 30
0.0
 10
9.161468655483545
 20
5.08874415135267
 30
0.0
 10
9.180871540915745
 20
5.109909956740168
 30
0.0
  0
SPLINE
  5
5AD
330
1F
100
AcDbEntity
  8
Livello 1
100
AcDbSpline
210
0.0
220
0.0
230
1.0
 70
     8
 71
     3
 72
     8
 73
     4
 74
     0
 42
0.000000001
 43
0.0000000001
 40
10.0
 40
10.0
 40
10.0
 40
10.0
 40
11.0
 40
11.0
 40
11.0
 40
11.0
 10
9.180871540915745
 20
5.109909956740168
 30
0.0
 10
9.200627010338948
 20
5.131431037599568
 30
0.0
 10
9.233788745865339
 20
5.132491481053676
 30
0.0
 10
9.255307135243839
 20
5.112736011630374
 30
0.0
  0
SPLINE
  5
5AE
330
1F
100
AcDbEntity
  8
Livello 1
100
AcDbSpline
210
0.0
220
0.0
230
1.0
 70
    24
 71
     3
 72
     8
 73
     4
 74
     0
 42
0.000000001
 43
0.0000000001
 40
11.0
 40
11.0
 40
11.0
 40
11.0
 40
12.0
 40
12.0
 40
12.0
 40
12.0
 10
9.255307135243839
 20
5.112736011630374
 30
0.0
 10
9.255307135243839
 20
5.112736011630374
 30
0.0
 10
9.28282483543235
 20
5.087333815388376
 30
0.0
 10
9.28282483543235
 20
5.087333815388376
 30
0.0
  0
SPLINE
  5
5AF
330
1F
100
AcDbEntity
  8
Livello 1
100
AcDbSpline
210
0.0
220
0.0
230
1.0
 70
     8
 71
     3
 72
     8
 73
     4
 74
     0
 42
0.000000001
 43
0.0000000001
 40
12.0
 40
12.0
 40
12.0
 40
12.0
 40
13.0
 40
13.0
 40
13.0
 40
13.0
 10
9.28282483543235
 20
5.087333815388376
 30
0.0
 10
9.286350675343044
 20
5.084157867987968
 30
0.0
 10
9.289526622743437
 20
5.080276752605385
 30
0.0
 10
9.29199740216184
 20
5.076045744712459
 30
0.0
  0
SPLINE
  5
5B0
330
1F
100
AcDbEntity
  8
Livello 1
100
AcDbSpline
210
0.0
220
0.0
230
1.0
 70
    24
 71
     3
 72
     8
 73
     4
 74
     0
 42
0.000000001
 43
0.0000000001
 40
13.0
 40
13.0
 40
13.0
 40
13.0
 40
14.0
 40
14.0
 40
14.0
 40
14.0
 10
9.29199740216184
 20
5.076045744712459
 30
0.0
 10
9.29199740216184
 20
5.076045744712459
 30
0.0
 10
9.327979809616749
 20
5.007251494241458
 30
0.0
 10
9.327979809616749
 20
5.007251494241458
 30
0.0
  0
SPLINE
  5
5B1
330
1F
100
AcDbEntity
  8
Livello 1
100
AcDbSpline
210
0.0
220
0.0
230
1.0
 70
     8
 71
     3
 72
     8
 73
     4
 74
     0
 42
0.000000001
 43
0.0000000001
 40
14.0
 40
14.0
 40
14.0
 40
14.0
 40
15.0
 40
15.0
 40
15.0
 40
15.0
 10
9.327979809616749
 20
5.007251494241458
 30
0.0
 10
9.329390145581044
 20
5.004075546840965
 30
0.0
 10
9.330095313563148
 20
5.000199814420071
 30
0.0
 10
9.330800481545253
 20
4.996668591547674
 30
0.0
  0
SPLINE
  5
5B2
330
1F
100
AcDbEntity
  8
Livello 1
100
AcDbSpline
210
0.0
220
0.0
230
1.0
 70
    24
 71
     3
 72
     8
 73
     4
 74
     0
 42
0.000000001
 43
0.0000000001
 40
15.0
 40
15.0
 40
15.0
 40
15.0
 40
16.0
 40
16.0
 40
16.0
 40
16.0
 10
9.330800481545253
 20
4.996668591547674
 30
0.0
 10
9.330800481545253
 20
4.996668591547674
 30
0.0
 10
9.339267880292638
 20
4.925053669148056
 30
0.0
 10
9.339267880292638
 20
4.925053669148056
 30
0.0
  0
SPLINE
  5
5B3
330
1F
100
AcDbEntity
  8
Livello 1
100
AcDbSpline
210
0.0
220
0.0
230
1.0
 70
     8
 71
     3
 72
     8
 73
     4
 74
     0
 42
0.000000001
 43
0.0000000001
 40
16.0
 40
16.0
 40
16.0
 40
16.0
 40
17.0
 40
17.0
 40
17.0
 40
17.0
 10
9.339267880292638
 20
4.925053669148056
 30
0.0
 10
9.339973048274757
 20
4.917646713854765
 30
0.0
 10
9.33891529630155
 20
4.909884483089555
 30
0.0
 10
9.336447208364035
 20
4.902477527796264
 30
0.0
  0
SPLINE
  5
5B4
330
1F
100
AcDbEntity
  8
Livello 1
100
AcDbSpline
210
0.0
220
0.0
230
1.0
 70
    24
 71
     3
 72
     8
 73
     4
 74
     0
 42
0.000000001
 43
0.0000000001
 40
17.0
 40
17.0
 40
17.0
 40
17.0
 40
18.0
 40
18.0
 40
18.0
 40
18.0
 10
9.336447208364035
 20
4.902477527796264
 30
0.0
 10
9.336447208364035
 20
4.902477527796264
 30
0.0
 10
9.331860924999347
 20
4.881311722408767
 30
0.0
 10
9.331860924999347
 20
4.881311722408767
 30
0.0
  0
SPLINE
  5
5B5
330
1F
100
AcDbEntity
  8
Livello 1
100
AcDbSpline
210
0.0
220
0.0
230
1.0
 70
     8
 71
     3
 72
     8
 73
     4
 74
     0
 42
0.000000001
 43
0.0000000001
 40
18.0
 40
18.0
 40
18.0
 40
18.0
 40
19.0
 40
19.0
 40
19.0
 40
19.0
 10
9.331860924999347
 20
4.881311722408767
 30
0.0
 10
9.331508341008259
 20
4.877080714515969
 30
0.0
 10
9.33044789755425
 20
4.873199599133371
 30
0.0
 10
9.329037561589956
 20
4.86931848375076
 30
0.0
  0
SPLINE
  5
5B6
330
1F
100
AcDbEntity
  8
Livello 1
100
AcDbSpline
210
0.0
220
0.0
230
1.0
 70
    24
 71
     3
 72
     8
 73
     4
 74
     0
 42
0.000000001
 43
0.0000000001
 40
19.0
 40
19.0
 40
19.0
 40
19.0
 40
20.0
 40
20.0
 40
20.0
 40
20.0
 10
9.329037561589956
 20
4.86931848375076
 30
0.0
 10
9.329037561589956
 20
4.86931848375076
 30
0.0
 10
9.306106144766246
 20
4.815343526827874
 30
0.0
 10
9.306106144766246
 20
4.815343526827874
 30
0.0
  0
SPLINE
  5
5B7
330
1F
100
AcDbEntity
  8
Livello 1
100
AcDbSpline
210
0.0
220
0.0
230
1.0
 70
     8
 71
     3
 72
     8
 73
     4
 74
     0
 42
0.000000001
 43
0.0000000001
 40
20.0
 40
20.0
 40
20.0
 40
20.0
 40
21.0
 40
21.0
 40
21.0
 40
21.0
 10
9.306106144766246
 20
4.815343526827874
 30
0.0
 10
9.303990640819847
 20
4.811462411445276
 30
0.0
 10
9.301519861401544
 20
4.807581296062778
 30
0.0
 10
9.298346605481839
 20
4.804055456152056
 30
0.0
  0
SPLINE
  5
5B8
330
1F
100
AcDbEntity
  8
Livello 1
100
AcDbSpline
210
0.0
220
0.0
230
1.0
 70
    24
 71
     3
 72
     8
 73
     4
 74
     0
 42
0.000000001
 43
0.0000000001
 40
21.0
 40
21.0
 40
21.0
 40
21.0
 40
22.0
 40
22.0
 40
22.0
 40
22.0
 10
9.298346605481839
 20
4.804055456152056
 30
0.0
 10
9.298346605481839
 20
4.804055456152056
 30
0.0
 10
9.282472251441262
 20
4.783589435784961
 30
0.0
 10
9.282472251441262
 20
4.783589435784961
 30
0.0
  0
SPLINE
  5
5B9
330
1F
100
AcDbEntity
  8
Livello 1
100
AcDbSpline
210
0.0
220
0.0
230
1.0
 70
     8
 71
     3
 72
     8
 73
     4
 74
     0
 42
0.000000001
 43
0.0000000001
 40
22.0
 40
22.0
 40
22.0
 40
22.0
 40
23.0
 40
23.0
 40
23.0
 40
23.0
 10
9.282472251441262
 20
4.783589435784961
 30
0.0
 10
9.27223924125775
 20
4.767715081744384
 30
0.0
 10
9.255307135243839
 20
4.759253065958674
 30
0.0
 10
9.238022445238968
 20
4.759253065958674
 30
0.0
  0
SPLINE
  5
5BA
330
1F
100
AcDbEntity
  8
Livello 1
100
AcDbSpline
210
0.0
220
0.0
230
1.0
 70
     8
 71
     3
 72
     8
 73
     4
 74
     0
 42
0.000000001
 43
0.0000000001
 40
0.0
 40
0.0
 40
0.0
 40
0.0
 40
1.0
 40
1.0
 40
1.0
 40
1.0
 10
9.911511697796854
 20
2.285362295770966
 30
0.0
 10
9.888580280973144
 20
2.285362295770966
 30
0.0
 10
9.868119643567737
 20
2.300176206357548
 30
0.0
 10
9.861062580784746
 20
2.322752347709268
 30
0.0
  0
SPLINE
  5
5BB
330
1F
100
AcDbEntity
  8
Livello 1
100
AcDbSpline
210
0.0
220
0.0
230
1.0
 70
    24
 71
     3
 72
     8
 73
     4
 74
     0
 42
0.000000001
 43
0.0000000001
 40
1.0
 40
1.0
 40
1.0
 40
1.0
 40
2.0
 40
2.0
 40
2.0
 40
2.0
 10
9.861062580784746
 20
2.322752347709268
 30
0.0
 10
9.861062580784746
 20
2.322752347709268
 30
0.0
 10
9.171381379446131
 20
4.622515072964475
 30
0.0
 10
9.171381379446131
 20
4.622515072964475
 30
0.0
  0
SPLINE
  5
5BC
330
1F
100
AcDbEntity
  8
Livello 1
100
AcDbSpline
210
0.0
220
0.0
230
1.0
 70
     8
 71
     3
 72
     8
 73
     4
 74
     0
 42
0.000000001
 43
0.0000000001
 40
2.0
 40
2.0
 40
2.0
 40
2.0
 40
3.0
 40
3.0
 40
3.0
 40
3.0
 10
9.171381379446131
 20
4.622515072964475
 30
0.0
 10
9.163269256170764
 20
4.650027390191169
 30
0.0
 10
9.17914361021134
 20
4.679310701815779
 30
0.0
 10
9.20701389439084
 20
4.687778100563178
 30
0.0
  0
SPLINE
  5
5BD
330
1F
100
AcDbEntity
  8
Livello 1
100
AcDbSpline
210
0.0
220
0.0
230
1.0
 70
     8
 71
     3
 72
     8
 73
     4
 74
     0
 42
0.000000001
 43
0.0000000001
 40
3.0
 40
3.0
 40
3.0
 40
3.0
 40
4.0
 40
4.0
 40
4.0
 40
4.0
 10
9.20701389439084
 20
4.687778100563178
 30
0.0
 10
9.208424230355134
 20
4.688127993073365
 30
0.0
 10
9.209834566319457
 20
4.688483268545269
 30
0.0
 10
9.211600177755627
 20
4.68883316105547
 30
0.0
  0
SPLINE
  5
5BE
330
1F
100
AcDbEntity
  8
Livello 1
100
AcDbSpline
210
0.0
220
0.0
230
1.0
 70
    24
 71
     3
 72
     8
 73
     4
 74
     0
 42
0.000000001
 43
0.0000000001
 40
4.0
 40
4.0
 40
4.0
 40
4.0
 40
5.0
 40
5.0
 40
5.0
 40
5.0
 10
9.211600177755627
 20
4.68883316105547
 30
0.0
 10
9.211600177755627
 20
4.68883316105547
 30
0.0
 10
9.184787645549349
 20
4.777382880949872
 30
0.0
 10
9.184787645549349
 20
4.777382880949872
 30
0.0
  0
SPLINE
  5
5BF
330
1F
100
AcDbEntity
  8
Livello 1
100
AcDbSpline
210
0.0
220
0.0
230
1.0
 70
     8
 71
     3
 72
     8
 73
     4
 74
     0
 42
0.000000001
 43
0.0000000001
 40
5.0
 40
5.0
 40
5.0
 40
5.0
 40
6.0
 40
6.0
 40
6.0
 40
6.0
 10
9.184787645549349
 20
4.777382880949872
 30
0.0
 10
9.176320246801964
 20
4.805250473648456
 30
0.0
 10
9.192197292323442
 20
4.834533785273052
 30
0.0
 10
9.219712301031051
 20
4.843001184020465
 30
0.0
  0
SPLINE
  5
5C0
330
1F
100
AcDbEntity
  8
Livello 1
100
AcDbSpline
210
0.0
220
0.0
230
1.0
 70
     8
 71
     3
 72
     8
 73
     4
 74
     0
 42
0.000000001
 43
0.0000000001
 40
6.0
 40
6.0
 40
6.0
 40
6.0
 40
7.0
 40
7.0
 40
7.0
 40
7.0
 10
9.219712301031051
 20
4.843001184020465
 30
0.0
 10
9.247935169201653
 20
4.851113307295875
 30
0.0
 10
9.276863205354331
 20
4.835588845765471
 30
0.0
 10
9.285330604101645
 20
4.807721253066773
 30
0.0
  0
SPLINE
  5
5C1
330
1F
100
AcDbEntity
  8
Livello 1
100
AcDbSpline
210
0.0
220
0.0
230
1.0
 70
    24
 71
     3
 72
     8
 73
     4
 74
     0
 42
0.000000001
 43
0.0000000001
 40
7.0
 40
7.0
 40
7.0
 40
7.0
 40
8.0
 40
8.0
 40
8.0
 40
8.0
 10
9.285330604101645
 20
4.807721253066773
 30
0.0
 10
9.285330604101645
 20
4.807721253066773
 30
0.0
 10
10.02122453159785
 20
2.362618562027677
 30
0.0
 10
10.02122453159785
 20
2.362618562027677
 30
0.0
  0
SPLINE
  5
5C2
330
1F
100
AcDbEntity
  8
Livello 1
100
AcDbSpline
210
0.0
220
0.0
230
1.0
 70
     8
 71
     3
 72
     8
 73
     4
 74
     0
 42
0.000000001
 43
0.0000000001
 40
8.0
 40
8.0
 40
8.0
 40
8.0
 40
9.0
 40
9.0
 40
9.0
 40
9.0
 10
10.02122453159785
 20
2.362618562027677
 30
0.0
 10
10.02581081496255
 20
2.34815454395138
 30
0.0
 10
10.02334003554425
 20
2.332630082420976
 30
0.0
 10
10.01558049625984
 20
2.319576400308875
 30
0.0
  0
SPLINE
  5
5C3
330
1F
100
AcDbEntity
  8
Livello 1
100
AcDbSpline
210
0.0
220
0.0
230
1.0
 70
     8
 71
     3
 72
     8
 73
     4
 74
     0
 42
0.000000001
 43
0.0000000001
 40
9.0
 40
9.0
 40
9.0
 40
9.0
 40
10.0
 40
10.0
 40
10.0
 40
10.0
 10
10.01558049625984
 20
2.319576400308875
 30
0.0
 10
10.00746568150364
 20
2.306877993668663
 30
0.0
 10
9.994411999391545
 20
2.298060702411177
 30
0.0
 10
9.979595397324132
 20
2.29558992299276
 30
0.0
  0
SPLINE
  5
5C4
330
1F
100
AcDbEntity
  8
Livello 1
100
AcDbSpline
210
0.0
220
0.0
230
1.0
 70
    24
 71
     3
 72
     8
 73
     4
 74
     0
 42
0.000000001
 43
0.0000000001
 40
10.0
 40
10.0
 40
10.0
 40
10.0
 40
11.0
 40
11.0
 40
11.0
 40
11.0
 10
9.979595397324132
 20
2.29558992299276
 30
0.0
 10
9.979595397324132
 20
2.29558992299276
 30
0.0
 10
9.919976405063351
 20
2.28606746375307
 30
0.0
 10
9.919976405063351
 20
2.28606746375307
 30
0.0
  0
SPLINE
  5
5C5
330
1F
100
AcDbEntity
  8
Livello 1
100
AcDbSpline
210
0.0
220
0.0
230
1.0
 70
     8
 71
     3
 72
     8
 73
     4
 74
     0
 42
0.000000001
 43
0.0000000001
 40
11.0
 40
11.0
 40
11.0
 40
11.0
 40
12.0
 40
12.0
 40
12.0
 40
12.0
 10
9.919976405063351
 20
2.28606746375307
 30
0.0
 10
9.917155733134748
 20
2.285712188281166
 30
0.0
 10
9.914332369725443
 20
2.285362295770966
 30
0.0
 10
9.911511697796854
 20
2.285362295770966
 30
0.0
  0
SPLINE
  5
5C6
330
1F
100
AcDbEntity
  8
Livello 1
100
AcDbSpline
210
0.0
220
0.0
230
1.0
 70
     8
 71
     3
 72
     8
 73
     4
 74
     0
 42
0.000000001
 43
0.0000000001
 40
0.0
 40
0.0
 40
0.0
 40
0.0
 40
1.0
 40
1.0
 40
1.0
 40
1.0
 10
1.11453842915597
 20
4.730039732836047
 30
0.0
 10
1.097251047670241
 20
4.730039732836047
 30
0.0
 10
1.080318941656386
 20
4.738501748621771
 30
0.0
 10
1.070441206944764
 20
4.754026210152161
 30
0.0
  0
SPLINE
  5
5C7
330
1F
100
AcDbEntity
  8
Livello 1
100
AcDbSpline
210
0.0
220
0.0
230
1.0
 70
    24
 71
     3
 72
     8
 73
     4
 74
     0
 42
0.000000001
 43
0.0000000001
 40
1.0
 40
1.0
 40
1.0
 40
1.0
 40
2.0
 40
2.0
 40
2.0
 40
2.0
 10
1.070441206944764
 20
4.754026210152161
 30
0.0
 10
1.070441206944764
 20
4.754026210152161
 30
0.0
 10
1.054212923172642
 20
4.775192015539658
 30
0.0
 10
1.054212923172642
 20
4.775192015539658
 30
0.0
  0
SPLINE
  5
5C8
330
1F
100
AcDbEntity
  8
Livello 1
100
AcDbSpline
210
0.0
220
0.0
230
1.0
 70
     8
 71
     3
 72
     8
 73
     4
 74
     0
 42
0.000000001
 43
0.0000000001
 40
2.0
 40
2.0
 40
2.0
 40
2.0
 40
3.0
 40
3.0
 40
3.0
 40
3.0
 10
1.054212923172642
 20
4.775192015539658
 30
0.0
 10
1.051038321512606
 20
4.77836796294018
 30
0.0
 10
1.048568887834733
 20
4.781893802850873
 30
0.0
 10
1.04645203814789
 20
4.786130193705361
 30
0.0
  0
SPLINE
  5
5C9
330
1F
100
AcDbEntity
  8
Livello 1
100
AcDbSpline
210
0.0
220
0.0
230
1.0
 70
    24
 71
     3
 72
     8
 73
     4
 74
     0
 42
0.000000001
 43
0.0000000001
 40
3.0
 40
3.0
 40
3.0
 40
3.0
 40
4.0
 40
4.0
 40
4.0
 40
4.0
 10
1.04645203814789
 20
4.786130193705361
 30
0.0
 10
1.04645203814789
 20
4.786130193705361
 30
0.0
 10
1.023520621324166
 20
4.839749875156272
 30
0.0
 10
1.023520621324166
 20
4.839749875156272
 30
0.0
  0
SPLINE
  5
5CA
330
1F
100
AcDbEntity
  8
Livello 1
100
AcDbSpline
210
0.0
220
0.0
230
1.0
 70
     8
 71
     3
 72
     8
 73
     4
 74
     0
 42
0.000000001
 43
0.0000000001
 40
4.0
 40
4.0
 40
4.0
 40
4.0
 40
5.0
 40
5.0
 40
5.0
 40
5.0
 10
1.023520621324166
 20
4.839749875156272
 30
0.0
 10
1.022110285359929
 20
4.843630990538883
 30
0.0
 10
1.021051187646278
 20
4.847867381393371
 30
0.0
 10
1.020698603655191
 20
4.852098389286169
 30
0.0
  0
SPLINE
  5
5CB
330
1F
100
AcDbEntity
  8
Livello 1
100
AcDbSpline
210
0.0
220
0.0
230
1.0
 70
    24
 71
     3
 72
     8
 73
     4
 74
     0
 42
0.000000001
 43
0.0000000001
 40
5.0
 40
5.0
 40
5.0
 40
5.0
 40
6.0
 40
6.0
 40
6.0
 40
6.0
 10
1.020698603655191
 20
4.852098389286169
 30
0.0
 10
1.020698603655191
 20
4.852098389286169
 30
0.0
 10
1.016112320290474
 20
4.872914302163465
 30
0.0
 10
1.016112320290474
 20
4.872914302163465
 30
0.0
  0
SPLINE
  5
5CC
330
1F
100
AcDbEntity
  8
Livello 1
100
AcDbSpline
210
0.0
220
0.0
230
1.0
 70
     8
 71
     3
 72
     8
 73
     4
 74
     0
 42
0.000000001
 43
0.0000000001
 40
6.0
 40
6.0
 40
6.0
 40
6.0
 40
7.0
 40
7.0
 40
7.0
 40
7.0
 10
1.016112320290474
 20
4.872914302163465
 30
0.0
 10
1.013642886612558
 20
4.880321257456756
 30
0.0
 10
1.012585134639365
 20
4.888083488221965
 30
0.0
 10
1.013290302621484
 20
4.895840336025472
 30
0.0
  0
SPLINE
  5
5CD
330
1F
100
AcDbEntity
  8
Livello 1
100
AcDbSpline
210
0.0
220
0.0
230
1.0
 70
    24
 71
     3
 72
     8
 73
     4
 74
     0
 42
0.000000001
 43
0.0000000001
 40
7.0
 40
7.0
 40
7.0
 40
7.0
 40
8.0
 40
8.0
 40
8.0
 40
8.0
 10
1.013290302621484
 20
4.895840336025472
 30
0.0
 10
1.013290302621484
 20
4.895840336025472
 30
0.0
 10
1.021757701368841
 20
4.966750090442957
 30
0.0
 10
1.021757701368841
 20
4.966750090442957
 30
0.0
  0
SPLINE
  5
5CE
330
1F
100
AcDbEntity
  8
Livello 1
100
AcDbSpline
210
0.0
220
0.0
230
1.0
 70
     8
 71
     3
 72
     8
 73
     4
 74
     0
 42
0.000000001
 43
0.0000000001
 40
8.0
 40
8.0
 40
8.0
 40
8.0
 40
9.0
 40
9.0
 40
9.0
 40
9.0
 10
1.021757701368841
 20
4.966750090442957
 30
0.0
 10
1.022110285359929
 20
4.970631205825554
 30
0.0
 10
1.023168037333121
 20
4.974512321208166
 30
0.0
 10
1.024579719037802
 20
4.978038161118874
 30
0.0
  0
SPLINE
  5
5CF
330
1F
100
AcDbEntity
  8
Livello 1
100
AcDbSpline
210
0.0
220
0.0
230
1.0
 70
    24
 71
     3
 72
     8
 73
     4
 74
     0
 42
0.000000001
 43
0.0000000001
 40
9.0
 40
9.0
 40
9.0
 40
9.0
 40
10.0
 40
10.0
 40
10.0
 40
10.0
 10
1.024579719037802
 20
4.978038161118874
 30
0.0
 10
1.024579719037802
 20
4.978038161118874
 30
0.0
 10
1.060562126492754
 20
5.04683241158996
 30
0.0
 10
1.060562126492754
 20
5.04683241158996
 30
0.0
  0
SPLINE
  5
5D0
330
1F
100
AcDbEntity
  8
Livello 1
100
AcDbSpline
210
0.0
220
0.0
230
1.0
 70
     8
 71
     3
 72
     8
 73
     4
 74
     0
 42
0.000000001
 43
0.0000000001
 40
10.0
 40
10.0
 40
10.0
 40
10.0
 40
11.0
 40
11.0
 40
11.0
 40
11.0
 10
1.060562126492754
 20
5.04683241158996
 30
0.0
 10
1.063031560170642
 20
5.051063419482758
 30
0.0
 10
1.066207507571121
 20
5.054944534865384
 30
0.0
 10
1.070087277213275
 20
5.058120482265877
 30
0.0
  0
SPLINE
  5
5D1
330
1F
100
AcDbEntity
  8
Livello 1
100
AcDbSpline
210
0.0
220
0.0
230
1.0
 70
    24
 71
     3
 72
     8
 73
     4
 74
     0
 42
0.000000001
 43
0.0000000001
 40
11.0
 40
11.0
 40
11.0
 40
11.0
 40
12.0
 40
12.0
 40
12.0
 40
12.0
 10
1.070087277213275
 20
5.058120482265877
 30
0.0
 10
1.070087277213275
 20
5.058120482265877
 30
0.0
 10
1.097251047670241
 20
5.083522678507875
 30
0.0
 10
1.097251047670241
 20
5.083522678507875
 30
0.0
  0
SPLINE
  5
5D2
330
1F
100
AcDbEntity
  8
Livello 1
100
AcDbSpline
210
0.0
220
0.0
230
1.0
 70
     8
 71
     3
 72
     8
 73
     4
 74
     0
 42
0.000000001
 43
0.0000000001
 40
12.0
 40
12.0
 40
12.0
 40
12.0
 40
13.0
 40
13.0
 40
13.0
 40
13.0
 10
1.097251047670241
 20
5.083522678507875
 30
0.0
 10
1.118418198798124
 20
5.103278147931064
 30
0.0
 10
1.151579934324544
 20
5.101862429005066
 30
0.0
 10
1.171335403747761
 20
5.081051899089473
 30
0.0
  0
SPLINE
  5
5D3
330
1F
100
AcDbEntity
  8
Livello 1
100
AcDbSpline
210
0.0
220
0.0
230
1.0
 70
     8
 71
     3
 72
     8
 73
     4
 74
     0
 42
0.000000001
 43
0.0000000001
 40
13.0
 40
13.0
 40
13.0
 40
13.0
 40
14.0
 40
14.0
 40
14.0
 40
14.0
 10
1.171335403747761
 20
5.081051899089473
 30
0.0
 10
1.191090873170992
 20
5.059886093701976
 30
0.0
 10
1.190031775457356
 20
5.026721666694768
 30
0.0
 10
1.16886597006983
 20
5.006966197271552
 30
0.0
  0
SPLINE
  5
5D4
330
1F
100
AcDbEntity
  8
Livello 1
100
AcDbSpline
210
0.0
220
0.0
230
1.0
 70
    24
 71
     3
 72
     8
 73
     4
 74
     0
 42
0.000000001
 43
0.0000000001
 40
14.0
 40
14.0
 40
14.0
 40
14.0
 40
15.0
 40
15.0
 40
15.0
 40
15.0
 10
1.16886597006983
 20
5.006966197271552
 30
0.0
 10
1.16886597006983
 20
5.006966197271552
 30
0.0
 10
1.135704234543482
 20
4.966750090442957
 30
0.0
 10
1.135704234543482
 20
4.966750090442957
 30
0.0
  0
SPLINE
  5
5D5
330
1F
100
AcDbEntity
  8
Livello 1
100
AcDbSpline
210
0.0
220
0.0
230
1.0
 70
    24
 71
     3
 72
     8
 73
     4
 74
     0
 42
0.000000001
 43
0.0000000001
 40
15.0
 40
15.0
 40
15.0
 40
15.0
 40
16.0
 40
16.0
 40
16.0
 40
16.0
 10
1.135704234543482
 20
4.966750090442957
 30
0.0
 10
1.135704234543482
 20
4.966750090442957
 30
0.0
 10
1.12370965014503
 20
4.937116886308061
 30
0.0
 10
1.12370965014503
 20
4.937116886308061
 30
0.0
  0
SPLINE
  5
5D6
330
1F
100
AcDbEntity
  8
Livello 1
100
AcDbSpline
210
0.0
220
0.0
230
1.0
 70
    24
 71
     3
 72
     8
 73
     4
 74
     0
 42
0.000000001
 43
0.0000000001
 40
16.0
 40
16.0
 40
16.0
 40
16.0
 40
17.0
 40
17.0
 40
17.0
 40
17.0
 10
1.12370965014503
 20
4.937116886308061
 30
0.0
 10
1.12370965014503
 20
4.937116886308061
 30
0.0
 10
1.119123366780286
 20
4.897605947461684
 30
0.0
 10
1.119123366780286
 20
4.897605947461684
 30
0.0
  0
SPLINE
  5
5D7
330
1F
100
AcDbEntity
  8
Livello 1
100
AcDbSpline
210
0.0
220
0.0
230
1.0
 70
    24
 71
     3
 72
     8
 73
     4
 74
     0
 42
0.000000001
 43
0.0000000001
 40
17.0
 40
17.0
 40
17.0
 40
17.0
 40
18.0
 40
18.0
 40
18.0
 40
18.0
 10
1.119123366780286
 20
4.897605947461684
 30
0.0
 10
1.119123366780286
 20
4.897605947461684
 30
0.0
 10
1.120535048484995
 20
4.894080107550962
 30
0.0
 10
1.120535048484995
 20
4.894080107550962
 30
0.0
  0
SPLINE
  5
5D8
330
1F
100
AcDbEntity
  8
Livello 1
100
AcDbSpline
210
0.0
220
0.0
230
1.0
 70
     8
 71
     3
 72
     8
 73
     4
 74
     0
 42
0.000000001
 43
0.0000000001
 40
18.0
 40
18.0
 40
18.0
 40
18.0
 40
19.0
 40
19.0
 40
19.0
 40
19.0
 10
1.120535048484995
 20
4.894080107550962
 30
0.0
 10
1.121946730189691
 20
4.889843716696475
 30
0.0
 10
1.122651898171838
 20
4.885962601313877
 30
0.0
 10
1.123004482162883
 20
4.881731593421051
 30
0.0
  0
SPLINE
  5
5D9
330
1F
100
AcDbEntity
  8
Livello 1
100
AcDbSpline
210
0.0
220
0.0
230
1.0
 70
    24
 71
     3
 72
     8
 73
     4
 74
     0
 42
0.000000001
 43
0.0000000001
 40
19.0
 40
19.0
 40
19.0
 40
19.0
 40
20.0
 40
20.0
 40
20.0
 40
20.0
 10
1.123004482162883
 20
4.881731593421051
 30
0.0
 10
1.123004482162883
 20
4.881731593421051
 30
0.0
 10
1.135351650552408
 20
4.841865379102671
 30
0.0
 10
1.135351650552408
 20
4.841865379102671
 30
0.0
  0
SPLINE
  5
5DA
330
1F
100
AcDbEntity
  8
Livello 1
100
AcDbSpline
210
0.0
220
0.0
230
1.0
 70
    24
 71
     3
 72
     8
 73
     4
 74
     0
 42
0.000000001
 43
0.0000000001
 40
20.0
 40
20.0
 40
20.0
 40
20.0
 40
21.0
 40
21.0
 40
21.0
 40
21.0
 10
1.135351650552408
 20
4.841865379102671
 30
0.0
 10
1.135351650552408
 20
4.841865379102671
 30
0.0
 10
1.158635651367177
 20
4.810821839003565
 30
0.0
 10
1.158635651367177
 20
4.810821839003565
 30
0.0
  0
SPLINE
  5
5DB
330
1F
100
AcDbEntity
  8
Livello 1
100
AcDbSpline
210
0.0
220
0.0
230
1.0
 70
     8
 71
     3
 72
     8
 73
     4
 74
     0
 42
0.000000001
 43
0.0000000001
 40
21.0
 40
21.0
 40
21.0
 40
21.0
 40
22.0
 40
22.0
 40
22.0
 40
22.0
 10
1.158635651367177
 20
4.810821839003565
 30
0.0
 10
1.174510005407825
 20
4.786480086215576
 30
0.0
 10
1.167454288365163
 20
4.754026210152161
 30
0.0
 10
1.143112535577188
 20
4.738151856111556
 30
0.0
  0
SPLINE
  5
5DC
330
1F
100
AcDbEntity
  8
Livello 1
100
AcDbSpline
210
0.0
220
0.0
230
1.0
 70
     8
 71
     3
 72
     8
 73
     4
 74
     0
 42
0.000000001
 43
0.0000000001
 40
22.0
 40
22.0
 40
22.0
 40
22.0
 40
23.0
 40
23.0
 40
23.0
 40
23.0
 10
1.143112535577188
 20
4.738151856111556
 30
0.0
 10
1.134293898579201
 20
4.732505129292775
 30
0.0
 10
1.124416163867621
 20
4.730039732836047
 30
0.0
 10
1.11453842915597
 20
4.730039732836047
 30
0.0
  0
SPLINE
  5
5DD
330
1F
100
AcDbEntity
  8
Livello 1
100
AcDbSpline
210
0.0
220
0.0
230
1.0
 70
     8
 71
     3
 72
     8
 73
     4
 74
     0
 42
0.000000001
 43
0.0000000001
 40
0.0
 40
0.0
 40
0.0
 40
0.0
 40
1.0
 40
1.0
 40
1.0
 40
1.0
 10
0.4411918250830525
 20
2.256009005644258
 30
0.0
 10
0.4387210456647353
 20
2.256009005644258
 30
0.0
 10
0.4355464440046717
 20
2.256358898154473
 30
0.0
 10
0.4327244263357102
 20
2.256714173626477
 30
0.0
  0
SPLINE
  5
5DE
330
1F
100
AcDbEntity
  8
Livello 1
100
AcDbSpline
210
0.0
220
0.0
230
1.0
 70
    24
 71
     3
 72
     8
 73
     4
 74
     0
 42
0.000000001
 43
0.0000000001
 40
1.0
 40
1.0
 40
1.0
 40
1.0
 40
2.0
 40
2.0
 40
2.0
 40
2.0
 10
0.4327244263357102
 20
2.256714173626477
 30
0.0
 10
0.4327244263357102
 20
2.256714173626477
 30
0.0
 10
0.373458018065989
 20
2.266236632866167
 30
0.0
 10
0.373458018065989
 20
2.266236632866167
 30
0.0
  0
SPLINE
  5
5DF
330
1F
100
AcDbEntity
  8
Livello 1
100
AcDbSpline
210
0.0
220
0.0
230
1.0
 70
     8
 71
     3
 72
     8
 73
     4
 74
     0
 42
0.000000001
 43
0.0000000001
 40
2.0
 40
2.0
 40
2.0
 40
2.0
 40
3.0
 40
3.0
 40
3.0
 40
3.0
 10
0.373458018065989
 20
2.266236632866167
 30
0.0
 10
0.3582888320075312
 20
2.26870741228447
 30
0.0
 10
0.3452351498954442
 20
2.277174811031756
 30
0.0
 10
0.3371216808796049
 20
2.290223110182168
 30
0.0
  0
SPLINE
  5
5E0
330
1F
100
AcDbEntity
  8
Livello 1
100
AcDbSpline
210
0.0
220
0.0
230
1.0
 70
     8
 71
     3
 72
     8
 73
     4
 74
     0
 42
0.000000001
 43
0.0000000001
 40
3.0
 40
3.0
 40
3.0
 40
3.0
 40
4.0
 40
4.0
 40
4.0
 40
4.0
 10
0.3371216808796049
 20
2.290223110182168
 30
0.0
 10
0.329360795854825
 20
2.302926899784068
 30
0.0
 10
0.3268913621769229
 20
2.318801253824673
 30
0.0
 10
0.3314776455416393
 20
2.333265271901069
 30
0.0
  0
SPLINE
  5
5E1
330
1F
100
AcDbEntity
  8
Livello 1
100
AcDbSpline
210
0.0
220
0.0
230
1.0
 70
    24
 71
     3
 72
     8
 73
     4
 74
     0
 42
0.000000001
 43
0.0000000001
 40
4.0
 40
4.0
 40
4.0
 40
4.0
 40
5.0
 40
5.0
 40
5.0
 40
5.0
 10
0.3314776455416393
 20
2.333265271901069
 30
0.0
 10
0.3314776455416393
 20
2.333265271901069
 30
0.0
 10
1.067371573037803
 20
4.77836796294018
 30
0.0
 10
1.067371573037803
 20
4.77836796294018
 30
0.0
  0
SPLINE
  5
5E2
330
1F
100
AcDbEntity
  8
Livello 1
100
AcDbSpline
210
0.0
220
0.0
230
1.0
 70
     8
 71
     3
 72
     8
 73
     4
 74
     0
 42
0.000000001
 43
0.0000000001
 40
5.0
 40
5.0
 40
5.0
 40
5.0
 40
6.0
 40
6.0
 40
6.0
 40
6.0
 10
1.067371573037803
 20
4.77836796294018
 30
0.0
 10
1.075838971785131
 20
4.806235555638764
 30
0.0
 10
1.104765662197422
 20
4.821760017169168
 30
0.0
 10
1.132988530367995
 20
4.813647893893772
 30
0.0
  0
SPLINE
  5
5E3
330
1F
100
AcDbEntity
  8
Livello 1
100
AcDbSpline
210
0.0
220
0.0
230
1.0
 70
     8
 71
     3
 72
     8
 73
     4
 74
     0
 42
0.000000001
 43
0.0000000001
 40
6.0
 40
6.0
 40
6.0
 40
6.0
 40
7.0
 40
7.0
 40
7.0
 40
7.0
 10
1.132988530367995
 20
4.813647893893772
 30
0.0
 10
1.160504884816006
 20
4.805180495146458
 30
0.0
 10
1.17638058459704
 20
4.775897183521763
 30
0.0
 10
1.167913185849727
 20
4.748029590823165
 30
0.0
  0
SPLINE
  5
5E4
330
1F
100
AcDbEntity
  8
Livello 1
100
AcDbSpline
210
0.0
220
0.0
230
1.0
 70
    24
 71
     3
 72
     8
 73
     4
 74
     0
 42
0.000000001
 43
0.0000000001
 40
7.0
 40
7.0
 40
7.0
 40
7.0
 40
8.0
 40
8.0
 40
8.0
 40
8.0
 10
1.167913185849727
 20
4.748029590823165
 30
0.0
 10
1.167913185849727
 20
4.748029590823165
 30
0.0
 10
1.141101999383835
 20
4.659479870928876
 30
0.0
 10
1.141101999383835
 20
4.659479870928876
 30
0.0
  0
SPLINE
  5
5E5
330
1F
100
AcDbEntity
  8
Livello 1
100
AcDbSpline
210
0.0
220
0.0
230
1.0
 70
     8
 71
     3
 72
     8
 73
     4
 74
     0
 42
0.000000001
 43
0.0000000001
 40
8.0
 40
8.0
 40
8.0
 40
8.0
 40
9.0
 40
9.0
 40
9.0
 40
9.0
 10
1.141101999383835
 20
4.659479870928876
 30
0.0
 10
1.142866265079604
 20
4.659129978418562
 30
0.0
 10
1.144277946784328
 20
4.658774702946686
 30
0.0
 10
1.145688282748551
 20
4.658424810436471
 30
0.0
  0
SPLINE
  5
5E6
330
1F
100
AcDbEntity
  8
Livello 1
100
AcDbSpline
210
0.0
220
0.0
230
1.0
 70
     8
 71
     3
 72
     8
 73
     4
 74
     0
 42
0.000000001
 43
0.0000000001
 40
9.0
 40
9.0
 40
9.0
 40
9.0
 40
10.0
 40
10.0
 40
10.0
 40
10.0
 10
1.145688282748551
 20
4.658424810436471
 30
0.0
 10
1.173557221187678
 20
4.649957411689172
 30
0.0
 10
1.189432920968727
 20
4.620674100064562
 30
0.0
 10
1.18096552222137
 20
4.593161782837768
 30
0.0
  0
SPLINE
  5
5E7
330
1F
100
AcDbEntity
  8
Livello 1
100
AcDbSpline
210
0.0
220
0.0
230
1.0
 70
    24
 71
     3
 72
     8
 73
     4
 74
     0
 42
0.000000001
 43
0.0000000001
 40
10.0
 40
10.0
 40
10.0
 40
10.0
 40
11.0
 40
11.0
 40
11.0
 40
11.0
 10
1.18096552222137
 20
4.593161782837768
 30
0.0
 10
1.18096552222137
 20
4.593161782837768
 30
0.0
 10
0.4916382506143293
 20
2.293399057582675
 30
0.0
 10
0.4916382506143293
 20
2.293399057582675
 30
0.0
  0
SPLINE
  5
5E8
330
1F
100
AcDbEntity
  8
Livello 1
100
AcDbSpline
210
0.0
220
0.0
230
1.0
 70
     8
 71
     3
 72
     8
 73
     4
 74
     0
 42
0.000000001
 43
0.0000000001
 40
11.0
 40
11.0
 40
11.0
 40
11.0
 40
12.0
 40
12.0
 40
12.0
 40
12.0
 10
0.4916382506143293
 20
2.293399057582675
 30
0.0
 10
0.4845825335716967
 20
2.270822916230869
 30
0.0
 10
0.4641218961663327
 20
2.256009005644258
 30
0.0
 10
0.4411918250830525
 20
2.256009005644258
 30
0.0
  0
ENDSEC
  0
SECTION
  2
OBJECTS
  0
DICTIONARY
  5
C
330
0
100
AcDbDictionary
281
     1
  3
ACAD_CIP_PREVIOUS_PRODUCT_INFO
350
216
  3
ACAD_COLOR
350
6B
  3
ACAD_DETAILVIEWSTYLE
350
21B
  3
ACAD_GROUP
350
D
  3
ACAD_LAYOUT
350
1A
  3
ACAD_MATERIAL
350
6A
  3
ACAD_MLEADERSTYLE
350
12D
  3
ACAD_MLINESTYLE
350
17
  3
ACAD_PLOTSETTINGS
350
19
  3
ACAD_PLOTSTYLENAME
350
E
  3
ACAD_SCALELIST
350
10C
  3
ACAD_SECTIONVIEWSTYLE
350
219
  3
ACAD_TABLESTYLE
350
7E
  3
ACAD_VISUALSTYLE
350
EF
  3
ACDB_RECOMPOSE_DATA
350
5EA
  3
AcDbVariableDictionary
350
5E
  3
AcDsDecomposeData
350
5F0
  0
DICTIONARY
  5
1FF
330
2
100
AcDbDictionary
280
     1
281
     1
  3
ACAD_LAYERSTATES
360
200
  0
DICTIONARY
  5
13C
330
10
100
AcDbDictionary
280
     1
281
     1
  0
DICTIONARY
  5
1CE
330
1F
100
AcDbDictionary
280
     1
281
     1
  0
XRECORD
  5
216
102
{ACAD_REACTORS
330
C
102
}
330
C
100
AcDbXrecord
280
     1
300
ACD
300
2020
300

  0
DICTIONARY
  5
6B
102
{ACAD_REACTORS
330
C
102
}
330
C
100
AcDbDictionary
281
     1
  0
DICTIONARY
  5
21B
102
{ACAD_REACTORS
330
C
102
}
330
C
100
AcDbDictionary
281
     1
  3
Imperial24
350
28F
  3
Metric50
350
21C
  0
DICTIONARY
  5
D
102
{ACAD_REACTORS
330
C
102
}
330
C
100
AcDbDictionary
281
     1
  0
DICTIONARY
  5
1A
102
{ACAD_REACTORS
330
C
102
}
330
C
100
AcDbDictionary
281
     1
  3
Layout1
350
D3
  3
Layout2
350
D7
  3
Model
350
22
  0
DICTIONARY
  5
6A
102
{ACAD_REACTORS
330
C
102
}
330
C
100
AcDbDictionary
281
     1
  3
ByBlock
350
ED
  3
ByLayer
350
EC
  3
Global
350
EE
  0
DICTIONARY
  5
12D
102
{ACAD_REACTORS
330
C
102
}
330
C
100
AcDbDictionary
281
     1
  3
Annotativa
350
13B
  3
Standard
350
12E
  0
DICTIONARY
  5
17
102
{ACAD_REACTORS
330
C
102
}
330
C
100
AcDbDictionary
281
     1
  3
Standard
350
18
  0
DICTIONARY
  5
19
102
{ACAD_REACTORS
330
C
102
}
330
C
100
AcDbDictionary
281
     1
  0
ACDBDICTIONARYWDFLT
  5
E
102
{ACAD_REACTORS
330
C
102
}
330
C
100
AcDbDictionary
281
     1
  3
Normal
350
F
100
AcDbDictionaryWithDefault
340
F
  0
DICTIONARY
  5
10C
102
{ACAD_REACTORS
330
C
102
}
330
C
100
AcDbDictionary
281
     1
  3
A0
350
10D
  3
A1
350
1BE
  3
A2
350
1BF
  3
A3
350
1C0
  3
A4
350
1C1
  3
A5
350
1C2
  3
A6
350
1C3
  3
A7
350
1C4
  3
A8
350
1C5
  3
A9
350
1C6
  3
B0
350
1C7
  3
B1
350
1C8
  3
B2
350
1C9
  3
B3
350
1CA
  3
B4
350
1CB
  3
B5
350
1CC
  3
B6
350
1CD
  0
DICTIONARY
  5
219
102
{ACAD_REACTORS
330
C
102
}
330
C
100
AcDbDictionary
281
     1
  3
Imperial24
350
28E
  3
Metric50
350
21A
  0
DICTIONARY
  5
7E
102
{ACAD_REACTORS
330
C
102
}
330
C
100
AcDbDictionary
281
     1
  3
Standard
350
7F
  0
DICTIONARY
  5
EF
102
{ACAD_REACTORS
330
C
102
}
330
C
100
AcDbDictionary
281
     1
  3
2dWireframe
350
F5
  3
Basic
350
F4
  3
Brighten
350
FB
  3
ColorChange
350
FF
  3
Conceptual
350
F8
  3
Dim
350
FA
  3
EdgeColorOff
350
1E6
  3
Facepattern
350
FE
  3
Flat
350
F0
  3
FlatWithEdges
350
F1
  3
Gouraud
350
F2
  3
GouraudWithEdges
350
F3
  3
Hidden
350
F7
  3
JitterOff
350
1E4
  3
Linepattern
350
FD
  3
OverhangOff
350
1E5
  3
Realistic
350
F9
  3
Shaded
350
1F3
  3
Shaded with edges
350
1F2
  3
Shades of Gray
350
1EF
  3
Sketchy
350
1F0
  3
Thicken
350
FC
  3
Wireframe
350
F6
  3
X-Ray
350
1F1
  0
XRECORD
  5
5EA
102
{ACAD_REACTORS
330
C
102
}
330
C
100
AcDbXrecord
280
     1
 90
        1
330
7F
  0
DICTIONARY
  5
5E
102
{ACAD_REACTORS
330
C
102
}
330
C
100
AcDbDictionary
281
     1
  3
CANNOSCALE
350
146
  3
CENTEREXE
350
259
  3
CENTERLTYPEFILE
350
25A
  3
CMLEADERSTYLE
350
145
  3
CTABLESTYLE
350
84
  3
CVIEWDETAILSTYLE
350
227
  3
CVIEWSECTIONSTYLE
350
228
  3
DIMASSOC
350
5F
  3
HIDETEXT
350
63
  3
LAYEREVAL
350
1AE
  3
LAYERNOTIFY
350
1AF
  0
DICTIONARY
  5
5F0
102
{ACAD_REACTORS
330
C
102
}
330
C
100
AcDbDictionary
281
     1
  3
AcDsRecords
350
5F2
  3
AcDsSchemas
350
5F1
1001
ACAD
1070
     2
  0
DICTIONARY
  5
200
102
{ACAD_REACTORS
330
1FF
102
}
330
1FF
100
AcDbDictionary
281
     1
  0
ACDBDETAILVIEWSTYLE
  5
28F
102
{ACAD_XDICTIONARY
360
5F9
102
}
102
{ACAD_REACTORS
330
21B
102
}
330
21B
100
AcDbModelDocViewStyle
 70
     0
  3
Imperial24
290
     0
100
AcDbDetailViewStyle
 70
     0
 71
     0
 90
        3
 71
     1
340
11
 62
   256
 40
0.24
340
0
 62
   256
 40
0.24
300

 40
0.36
280
     3
 71
     2
340
16
 90
       25
 62
   256
 71
     3
340
11
 62
   256
 40
0.24
 90
        1
 40
0.75
 90
        1
300
%<\AcVar ViewType \f "%tc1">% %<\AcVar ViewDetailId>%\PSCALA %<\AcVar ViewScale \f "%sn">%
 71
     4
340
16
 90
       25
 62
   256
340
16
 90
       25
 62
   256
280
     0
  0
ACDBDETAILVIEWSTYLE
  5
21C
102
{ACAD_XDICTIONARY
360
5F5
102
}
102
{ACAD_REACTORS
330
21B
102
}
330
21B
100
AcDbModelDocViewStyle
 70
     0
  3
Metric50
290
     0
100
AcDbDetailViewStyle
 70
     0
 71
     0
 90
        3
 71
     1
340
11
 62
   256
 40
5.0
340
0
 62
   256
 40
5.0
300

 40
0.0
280
     1
 71
     2
340
16
 90
       25
 62
   256
 71
     3
340
11
 62
   256
 40
5.0
 90
        0
 40
15.0
 90
        1
300
%<\AcVar ViewDetailId>% (%<\AcVar ViewScale \f "%sn">%)
 71
     4
340
16
 90
       25
 62
   256
340
16
 90
       25
 62
   256
280
     0
  0
LAYOUT
  5
D3
102
{ACAD_REACTORS
330
1A
102
}
330
1A
100
AcDbPlotSettings
  1

  2
C:\Documents and Settings\basas\Application Data\Autodesk\AutoCAD 2005\R16.1\enu\plotters\Default Windows System Printer.pc3
  4

  6

 40
0.0
 41
0.0
 42
0.0
 43
0.0
 44
0.0
 45
0.0
 46
0.0
 47
0.0
 48
0.0
 49
0.0
140
0.0
141
0.0
142
1.0
143
1.0
 70
   688
 72
     0
 73
     0
 74
     5
  7

 75
    16
147
1.0
 76
     0
 77
     2
 78
   300
148
0.0
149
0.0
100
AcDbLayout
  1
Layout1
 70
     1
 71
     1
 10
0.0
 20
0.0
 11
12.0
 21
9.0
 12
0.0
 22
0.0
 32
0.0
 14
0.0
 24
0.0
 34
0.0
 15
0.0
 25
0.0
 35
0.0
146
0.0
 13
0.0
 23
0.0
 33
0.0
 16
1.0
 26
0.0
 36
0.0
 17
0.0
 27
1.0
 37
0.0
 76
     0
330
D2
  0
LAYOUT
  5
D7
102
{ACAD_REACTORS
330
1A
102
}
330
1A
100
AcDbPlotSettings
  1

  2
C:\Documents and Settings\basas\Application Data\Autodesk\AutoCAD 2005\R16.1\enu\plotters\Default Windows System Printer.pc3
  4

  6

 40
0.0
 41
0.0
 42
0.0
 43
0.0
 44
0.0
 45
0.0
 46
0.0
 47
0.0
 48
0.0
 49
0.0
140
0.0
141
0.0
142
1.0
143
1.0
 70
   688
 72
     0
 73
     0
 74
     5
  7

 75
    16
147
1.0
 76
     0
 77
     2
 78
   300
148
0.0
149
0.0
100
AcDbLayout
  1
Layout2
 70
     1
 71
     2
 10
0.0
 20
0.0
 11
12.0
 21
9.0
 12
0.0
 22
0.0
 32
0.0
 14
0.0
 24
0.0
 34
0.0
 15
0.0
 25
0.0
 35
0.0
146
0.0
 13
0.0
 23
0.0
 33
0.0
 16
1.0
 26
0.0
 36
0.0
 17
0.0
 27
1.0
 37
0.0
 76
     0
330
D6
  0
LAYOUT
  5
22
102
{ACAD_XDICTIONARY
360
205
102
}
102
{ACAD_REACTORS
330
1A
102
}
330
1A
100
AcDbPlotSettings
  1

  2
none_device
  4
ISO_A4_(210.00_x_297.00_MM)
  6

 40
7.5
 41
20.0
 42
7.5
 43
20.0
 44
210.0
 45
297.0
 46
11.54999923706054
 47
-13.65000009536743
 48
0.0
 49
0.0
140
0.0
141
0.0
142
1.0
143
8.704084754739808
 70
 11952
 72
     1
 73
     0
 74
     0
  7

 75
     0
147
0.1148885871608098
 76
     0
 77
     2
 78
   300
148
0.0
149
0.0
100
AcDbLayout
  1
Model
 70
     1
 71
     0
 10
0.0
 20
0.0
 11
12.0
 21
9.0
 12
0.0
 22
0.0
 32
0.0
 14
0.0
 24
0.0
 34
0.0
 15
0.0
 25
0.0
 35
0.0
146
0.0
 13
0.0
 23
0.0
 33
0.0
 16
1.0
 26
0.0
 36
0.0
 17
0.0
 27
1.0
 37
0.0
 76
     0
330
1F
331
EA
1001
ACAD_PSEXT
1000
None
1000
None
1000
Not applicable
1000
The layout will not be plotted unless a new plotter configuration name is selected.
1070
     0
  0
MATERIAL
  5
ED
102
{ACAD_XDICTIONARY
360
1F9
102
}
102
{ACAD_REACTORS
330
6A
102
}
330
6A
100
AcDbMaterial
  1
ByBlock
 94
       63
  0
MATERIAL
  5
EC
102
{ACAD_XDICTIONARY
360
1F7
102
}
102
{ACAD_REACTORS
330
6A
102
}
330
6A
100
AcDbMaterial
  1
ByLayer
 94
       63
  0
MATERIAL
  5
EE
102
{ACAD_XDICTIONARY
360
173
102
}
102
{ACAD_REACTORS
330
6A
102
}
330
6A
100
AcDbMaterial
  1
Global
 43
0.0007999999797903
 43
0.0
 43
0.0
 43
0.0
 43
0.0
 43
0.0007999999797903
 43
0.0
 43
0.0
 43
0.0
 43
0.0
 43
1.0
 43
0.0
 43
0.0
 43
0.0
 43
0.0
 43
1.0
 49
0.0007999999797903
 49
0.0
 49
0.0
 49
0.0
 49
0.0
 49
0.0007999999797903
 49
0.0
 49
0.0
 49
0.0
 49
0.0
 49
1.0
 49
0.0
 49
0.0
 49
0.0
 49
0.0
 49
1.0
142
0.0007999999797903
142
0.0
142
0.0
142
0.0
142
0.0
142
0.0007999999797903
142
0.0
142
0.0
142
0.0
142
0.0
142
1.0
142
0.0
142
0.0
142
0.0
142
0.0
142
1.0
144
0.0007999999797903
144
0.0
144
0.0
144
0.0
144
0.0
144
0.0007999999797903
144
0.0
144
0.0
144
0.0
144
0.0
144
1.0
144
0.0
144
0.0
144
0.0
144
0.0
144
1.0
 94
       63
1001
ACAD
1070
    -1
1070
     3
1070
     0
1000

1071
        0
1070
     0
  0
MLEADERSTYLE
  5
13B
102
{ACAD_REACTORS
330
12D
102
}
330
12D
100
AcDbMLeaderStyle
179
     2
170
     2
171
     1
172
     0
 90
        2
 40
0.0
 41
0.0
173
     1
 91
-1056964608
340
14
 92
       -2
290
     1
 42
2.0
291
     1
 43
8.0
  3
Standard
 44
4.0
300

342
11
174
     1
178
     1
175
     1
176
     0
 93
-1056964608
 45
4.0
292
     0
297
     0
 46
4.0
 94
-1056964608
 47
1.0
 49
1.0
140
1.0
293
     1
141
0.0
294
     1
177
     0
142
1.0
295
     0
296
     1
143
3.75
271
     0
272
     9
273
     9
298
     0
  0
MLEADERSTYLE
  5
12E
102
{ACAD_REACTORS
330
12D
102
}
330
12D
100
AcDbMLeaderStyle
179
     2
170
     2
171
     1
172
     0
 90
        2
 40
0.0
 41
0.0
173
     1
 91
-1056964608
340
14
 92
       -2
290
     1
 42
2.0
291
     1
 43
8.0
  3
Standard
 44
4.0
300

342
11
174
     1
178
     1
175
     1
176
     0
 93
-1056964608
 45
4.0
292
     0
297
     0
 46
4.0
 94
-1056964608
 47
1.0
 49
1.0
140
1.0
293
     1
141
0.0
294
     1
177
     0
142
1.0
295
     0
296
     0
143
3.75
271
     0
272
     9
273
     9
298
     0
  0
MLINESTYLE
  5
18
102
{ACAD_REACTORS
330
17
102
}
330
17
100
AcDbMlineStyle
  2
STANDARD
 70
     0
  3

 62
   256
 51
90.0
 52
90.0
 71
     2
 49
0.5
 62
   256
  6
BYLAYER
 49
-0.5
 62
   256
  6
BYLAYER
  0
ACDBPLACEHOLDER
  5
F
102
{ACAD_REACTORS
330
E
102
}
330
E
  0
SCALE
  5
10D
102
{ACAD_REACTORS
330
10C
102
}
330
10C
100
AcDbScale
 70
     0
300
1:1
140
1.0
141
1.0
290
     1
  0
SCALE
  5
1BE
102
{ACAD_REACTORS
330
10C
102
}
330
10C
100
AcDbScale
 70
     0
300
1:2
140
1.0
141
2.0
290
     0
  0
SCALE
  5
1BF
102
{ACAD_REACTORS
330
10C
102
}
330
10C
100
AcDbScale
 70
     0
300
1:4
140
1.0
141
4.0
290
     0
  0
SCALE
  5
1C0
102
{ACAD_REACTORS
330
10C
102
}
330
10C
100
AcDbScale
 70
     0
300
1:5
140
1.0
141
5.0
290
     0
  0
SCALE
  5
1C1
102
{ACAD_REACTORS
330
10C
102
}
330
10C
100
AcDbScale
 70
     0
300
1:8
140
1.0
141
8.0
290
     0
  0
SCALE
  5
1C2
102
{ACAD_REACTORS
330
10C
102
}
330
10C
100
AcDbScale
 70
     0
300
1:10
140
1.0
141
10.0
290
     0
  0
SCALE
  5
1C3
102
{ACAD_REACTORS
330
10C
102
}
330
10C
100
AcDbScale
 70
     0
300
1:16
140
1.0
141
16.0
290
     0
  0
SCALE
  5
1C4
102
{ACAD_REACTORS
330
10C
102
}
330
10C
100
AcDbScale
 70
     0
300
1:20
140
1.0
141
20.0
290
     0
  0
SCALE
  5
1C5
102
{ACAD_REACTORS
330
10C
102
}
330
10C
100
AcDbScale
 70
     0
300
1:30
140
1.0
141
30.0
290
     0
  0
SCALE
  5
1C6
102
{ACAD_REACTORS
330
10C
102
}
330
10C
100
AcDbScale
 70
     0
300
1:40
140
1.0
141
40.0
290
     0
  0
SCALE
  5
1C7
102
{ACAD_REACTORS
330
10C
102
}
330
10C
100
AcDbScale
 70
     0
300
1:50
140
1.0
141
50.0
290
     0
  0
SCALE
  5
1C8
102
{ACAD_REACTORS
330
10C
102
}
330
10C
100
AcDbScale
 70
     0
300
1:100
140
1.0
141
100.0
290
     0
  0
SCALE
  5
1C9
102
{ACAD_REACTORS
330
10C
102
}
330
10C
100
AcDbScale
 70
     0
300
2:1
140
2.0
141
1.0
290
     0
  0
SCALE
  5
1CA
102
{ACAD_REACTORS
330
10C
102
}
330
10C
100
AcDbScale
 70
     0
300
4:1
140
4.0
141
1.0
290
     0
  0
SCALE
  5
1CB
102
{ACAD_REACTORS
330
10C
102
}
330
10C
100
AcDbScale
 70
     0
300
8:1
140
8.0
141
1.0
290
     0
  0
SCALE
  5
1CC
102
{ACAD_REACTORS
330
10C
102
}
330
10C
100
AcDbScale
 70
     0
300
10:1
140
10.0
141
1.0
290
     0
  0
SCALE
  5
1CD
102
{ACAD_REACTORS
330
10C
102
}
330
10C
100
AcDbScale
 70
     0
300
100:1
140
100.0
141
1.0
290
     0
  0
ACDBSECTIONVIEWSTYLE
  5
28E
102
{ACAD_XDICTIONARY
360
5F7
102
}
102
{ACAD_REACTORS
330
219
102
}
330
219
100
AcDbModelDocViewStyle
 70
     0
  3
Imperial24
290
     0
100
AcDbSectionViewStyle
 70
     0
 71
     0
 90
       78
 71
     1
340
11
 62
   256
 40
0.24
340
0
340
0
 62
   256
 40
0.24
300
I, O, Q, S, X, Z
 40
0.48
 90
        3
 40
0.18
 90
        1
 71
     2
340
16
 90
       25
 62
   256
340
16
 90
       50
 62
   256
 40
0.24
 40
0.0
 40
0.24
 71
     3
340
11
 62
   256
 40
0.24
 90
        1
 40
0.75
 90
        1
300
%<\AcVar ViewType \f "%tc1">% %<\AcVar ViewSectionStartId>%-%<\AcVar ViewSectionEndId>%\PSCALA %<\AcVar ViewScale \f "%sn">%
 71
     4
 62
   256
 62
   257
300
ANSI31
 40
1.0
 90
        0
290
     0
290
     0
 90
        6
 40
0.0
 40
1.570796326794896
 40
0.2617993877991494
 40
1.308996938995747
 40
-0.2617993877991494
 40
1.832595714594046
  0
ACDBSECTIONVIEWSTYLE
  5
21A
102
{ACAD_XDICTIONARY
360
5F3
102
}
102
{ACAD_REACTORS
330
219
102
}
330
219
100
AcDbModelDocViewStyle
 70
     0
  3
Metric50
290
     0
100
AcDbSectionViewStyle
 70
     0
 71
     0
 90
      102
 71
     1
340
11
 62
   256
 40
5.0
340
0
340
0
 62
   256
 40
5.0
300
I, O, Q, S, X, Z
 40
10.0
 90
        0
 40
2.5
 90
        0
 71
     2
340
16
 90
       25
 62
   256
340
16
 90
       50
 62
   256
 40
5.0
 40
2.5
 40
5.0
 71
     3
340
11
 62
   256
 40
5.0
 90
        0
 40
15.0
 90
        1
300
%<\AcVar ViewSectionStartId>%-%<\AcVar ViewSectionEndId>% (%<\AcVar ViewScale \f "%sn">%)
 71
     4
 62
   256
 62
   257
300
ANSI31
 40
1.0
 90
        0
290
     0
290
     0
 90
        6
 40
0.0
 40
1.570796326794896
 40
0.2617993877991494
 40
1.308996938995747
 40
-0.2617993877991494
 40
1.832595714594046
  0
TABLESTYLE
  5
7F
102
{ACAD_XDICTIONARY
360
162
102
}
102
{ACAD_REACTORS
330
7E
102
}
330
7E
100
AcDbTableStyle
280
     0
  3
Standard
 70
     0
 71
     0
 40
1.5
 41
1.5
280
     0
281
     0
  7
Standard
140
4.5
170
     2
 62
     0
 63
     7
283
     0
 90
      512
 91
        0
  1

274
    -2
284
     1
 64
     0
275
    -2
285
     1
 65
     0
276
    -2
286
     1
 66
     0
277
    -2
287
     1
 67
     0
278
    -2
288
     1
 68
     0
279
    -2
289
     1
 69
     0
  7
Standard
140
6.0
170
     5
 62
     0
 63
     7
283
     0
 90
      512
 91
        0
  1

274
    -2
284
     1
 64
     0
275
    -2
285
     1
 65
     0
276
    -2
286
     1
 66
     0
277
    -2
287
     1
 67
     0
278
    -2
288
     1
 68
     0
279
    -2
289
     1
 69
     0
  7
Standard
140
4.5
170
     5
 62
     0
 63
     7
283
     0
 90
      512
 91
        0
  1

274
    -2
284
     1
 64
     0
275
    -2
285
     1
 65
     0
276
    -2
286
     1
 66
     0
277
    -2
287
     1
 67
     0
278
    -2
288
     1
 68
     0
279
    -2
289
     1
 69
     0
  0
VISUALSTYLE
  5
F5
102
{ACAD_REACTORS
330
EF
102
}
330
EF
100
AcDbVisualStyle
  2
2dWireframe
 70
     4
177
     3
291
     0
 70
    58
 90
        0
176
     1
 90
        2
176
     1
 90
        1
176
     1
 90
        0
176
     1
 40
0.6
176
     1
 40
30.0
176
     1
 62
     7
420
 16777215
176
     1
 90
        1
176
     1
 90
        4
176
     1
 62
     7
176
     1
 62
   257
176
     1
 90
        1
176
     1
 90
        1
176
     1
 40
1.0
176
     1
 90
        0
176
     1
 62
   257
176
     1
 40
1.0
176
     1
 90
        1
176
     1
 90
        6
176
     1
 90
        2
176
     1
 62
     7
176
     1
 90
        5
176
     1
 90
        0
176
     1
 90
        0
176
     1
290
     0
176
     1
 90
        1
176
     1
 40
0.0
176
     1
 90
        0
176
     1
290
     1
176
     1
290
     1
176
     1
290
     0
176
     1
290
     0
176
     1
290
     0
176
     1
290
     0
176
     1
290
     0
176
     1
290
     0
176
     1
290
     0
176
     1
 90
       50
176
     1
 40
0.0
176
     1
 40
1.0
176
     1
 90
        0
176
     1
 62
    18
420
        0
176
     1
 90
       50
176
     1
 90
        3
176
     1
 62
     5
420
      255
176
     1
290
     0
176
     1
 90
       50
176
     1
 90
       50
176
     1
 90
       50
176
     1
290
     0
176
     1
 90
       50
176
     1
 62
   256
176
     0
 40
1.0
176
     0
 90
        2
176
     1
  1
strokes_ogs.tif
176
     1
290
     0
176
     1
 40
1.0
176
     1
 40
1.0
176
     1
1001
ACAD
1000
AcDbSavedByObjectVersion
1070
     0
  0
VISUALSTYLE
  5
F4
102
{ACAD_REACTORS
330
EF
102
}
330
EF
100
AcDbVisualStyle
  2
Basic
 70
     7
177
     3
291
     1
 70
    58
 90
        1
176
     1
 90
        0
176
     1
 90
        1
176
     1
 90
        0
176
     1
 40
0.6
176
     1
 40
30.0
176
     1
 62
     7
420
 16777215
176
     1
 90
        0
176
     1
 90
        4
176
     1
 62
     7
176
     1
 62
   257
176
     1
 90
        1
176
     1
 90
        1
176
     1
 40
1.0
176
     1
 90
        8
176
     1
 62
     7
176
     1
 40
1.0
176
     1
 90
        1
176
     1
 90
        6
176
     1
 90
        2
176
     1
 62
     7
176
     1
 90
        5
176
     1
 90
        0
176
     1
 90
        0
176
     1
290
     0
176
     1
 90
        1
176
     1
 40
0.0
176
     1
 90
        0
176
     1
290
     0
176
     1
290
     1
176
     1
290
     1
176
     1
290
     0
176
     1
290
     0
176
     1
290
     0
176
     1
290
     0
176
     1
290
     0
176
     1
290
     0
176
     1
 90
       50
176
     1
 40
0.0
176
     1
 40
1.0
176
     1
 90
        0
176
     1
 62
    18
420
        0
176
     1
 90
       50
176
     1
 90
        3
176
     1
 62
     5
420
      255
176
     1
290
     0
176
     1
 90
       50
176
     1
 90
       50
176
     1
 90
       50
176
     1
290
     0
176
     1
 90
       50
176
     1
 62
   256
176
     0
 40
1.0
176
     0
 90
        2
176
     1
  1
strokes_ogs.tif
176
     1
290
     0
176
     1
 40
1.0
176
     1
 40
1.0
176
     1
1001
ACAD
1000
AcDbSavedByObjectVersion
1070
     0
  0
VISUALSTYLE
  5
FB
102
{ACAD_REACTORS
330
EF
102
}
330
EF
100
AcDbVisualStyle
  2
Brighten
 70
    12
177
     3
291
     1
 70
    58
 90
        2
176
     1
 90
        2
176
     1
 90
        1
176
     1
 90
        0
176
     1
 40
0.6
176
     1
 40
30.0
176
     1
 62
     7
420
 16777215
176
     1
 90
        1
176
     1
 90
        4
176
     1
 62
     7
176
     1
 62
   257
176
     1
 90
        1
176
     1
 90
        1
176
     1
 40
1.0
176
     1
 90
        8
176
     1
 62
     7
176
     1
 40
1.0
176
     1
 90
        1
176
     1
 90
        6
176
     1
 90
        2
176
     1
 62
     7
176
     1
 90
        5
176
     1
 90
        0
176
     1
 90
        0
176
     1
290
     0
176
     1
 90
        1
176
     1
 40
50.0
176
     1
 90
        0
176
     1
290
     0
176
     1
290
     1
176
     1
290
     1
176
     1
290
     0
176
     1
290
     0
176
     1
290
     0
176
     1
290
     0
176
     1
290
     0
176
     1
290
     0
176
     1
 90
       50
176
     1
 40
0.0
176
     1
 40
1.0
176
     1
 90
        0
176
     1
 62
    18
420
        0
176
     1
 90
       50
176
     1
 90
        3
176
     1
 62
     5
420
      255
176
     1
290
     0
176
     1
 90
       50
176
     1
 90
       50
176
     1
 90
       50
176
     1
290
     0
176
     1
 90
       50
176
     1
 62
   256
176
     0
 40
1.0
176
     0
 90
        2
176
     1
  1
strokes_ogs.tif
176
     1
290
     0
176
     1
 40
1.0
176
     1
 40
1.0
176
     1
1001
ACAD
1000
AcDbSavedByObjectVersion
1070
     0
  0
VISUALSTYLE
  5
FF
102
{ACAD_REACTORS
330
EF
102
}
330
EF
100
AcDbVisualStyle
  2
ColorChange
 70
    16
177
     3
291
     1
 70
    58
 90
        2
176
     1
 90
        2
176
     1
 90
        3
176
     1
 90
        0
176
     1
 40
0.6
176
     1
 40
30.0
176
     1
 62
     8
420
  8421504
176
     1
 90
        1
176
     1
 90
        4
176
     1
 62
     7
176
     1
 62
   257
176
     1
 90
        1
176
     1
 90
        1
176
     1
 40
1.0
176
     1
 90
        8
176
     1
 62
     8
420
  8421504
176
     1
 40
1.0
176
     1
 90
        1
176
     1
 90
        6
176
     1
 90
        2
176
     1
 62
     7
176
     1
 90
        5
176
     1
 90
        0
176
     1
 90
        0
176
     1
290
     0
176
     1
 90
        1
176
     1
 40
0.0
176
     1
 90
        0
176
     1
290
     0
176
     1
290
     1
176
     1
290
     1
176
     1
290
     0
176
     1
290
     0
176
     1
290
     0
176
     1
290
     0
176
     1
290
     0
176
     1
290
     0
176
     1
 90
       50
176
     1
 40
0.0
176
     1
 40
1.0
176
     1
 90
        0
176
     1
 62
    18
420
        0
176
     1
 90
       50
176
     1
 90
        3
176
     1
 62
     5
420
      255
176
     1
290
     0
176
     1
 90
       50
176
     1
 90
       50
176
     1
 90
       50
176
     1
290
     0
176
     1
 90
       50
176
     1
 62
   256
176
     0
 40
1.0
176
     0
 90
        2
176
     1
  1
strokes_ogs.tif
176
     1
290
     0
176
     1
 40
1.0
176
     1
 40
1.0
176
     1
1001
ACAD
1000
AcDbSavedByObjectVersion
1070
     0
  0
VISUALSTYLE
  5
F8
102
{ACAD_REACTORS
330
EF
102
}
330
EF
100
AcDbVisualStyle
  2
Conceptual
 70
     9
177
     3
291
     0
 70
    58
 90
        3
176
     1
 90
        2
176
     1
 90
        1
176
     1
 90
        0
176
     1
 40
0.6
176
     1
 40
30.0
176
     1
 62
     7
420
 16777215
176
     1
 90
        2
176
     1
 90
        2
176
     1
 62
     7
176
     1
 62
   257
176
     1
 90
        1
176
     1
 90
        1
176
     1
 40
40.0
176
     1
 90
        8
176
     1
 62
     7
176
     1
 40
1.0
176
     1
 90
        1
176
     1
 90
        6
176
     1
 90
        2
176
     1
 62
     7
176
     1
 90
        3
176
     1
 90
        0
176
     1
 90
        0
176
     1
290
     0
176
     1
 90
        1
176
     1
 40
0.0
176
     1
 90
        0
176
     1
290
     0
176
     1
290
     1
176
     1
290
     1
176
     1
290
     0
176
     1
290
     0
176
     1
290
     0
176
     1
290
     0
176
     1
290
     0
176
     1
290
     0
176
     1
 90
       50
176
     1
 40
0.0
176
     1
 40
1.0
176
     1
 90
        0
176
     1
 62
    18
420
        0
176
     1
 90
       50
176
     1
 90
        3
176
     1
 62
     5
420
      255
176
     1
290
     0
176
     1
 90
       50
176
     1
 90
       50
176
     1
 90
       50
176
     1
290
     0
176
     1
 90
       50
176
     1
 62
   256
176
     0
 40
1.0
176
     0
 90
        2
176
     1
  1
strokes_ogs.tif
176
     1
290
     0
176
     1
 40
1.0
176
     1
 40
1.0
176
     1
1001
ACAD
1000
AcDbSavedByObjectVersion
1070
     0
  0
VISUALSTYLE
  5
FA
102
{ACAD_REACTORS
330
EF
102
}
330
EF
100
AcDbVisualStyle
  2
Dim
 70
    11
177
     3
291
     1
 70
    58
 90
        2
176
     1
 90
        2
176
     1
 90
        1
176
     1
 90
        0
176
     1
 40
0.6
176
     1
 40
30.0
176
     1
 62
     7
420
 16777215
176
     1
 90
        1
176
     1
 90
        4
176
     1
 62
     7
176
     1
 62
   257
176
     1
 90
        1
176
     1
 90
        1
176
     1
 40
1.0
176
     1
 90
        8
176
     1
 62
     7
176
     1
 40
1.0
176
     1
 90
        1
176
     1
 90
        6
176
     1
 90
        2
176
     1
 62
     7
176
     1
 90
        5
176
     1
 90
        0
176
     1
 90
        0
176
     1
290
     0
176
     1
 90
        1
176
     1
 40
-50.0
176
     1
 90
        0
176
     1
290
     0
176
     1
290
     1
176
     1
290
     1
176
     1
290
     0
176
     1
290
     0
176
     1
290
     0
176
     1
290
     0
176
     1
290
     0
176
     1
290
     0
176
     1
 90
       50
176
     1
 40
0.0
176
     1
 40
1.0
176
     1
 90
        0
176
     1
 62
    18
420
        0
176
     1
 90
       50
176
     1
 90
        3
176
     1
 62
     5
420
      255
176
     1
290
     0
176
     1
 90
       50
176
     1
 90
       50
176
     1
 90
       50
176
     1
290
     0
176
     1
 90
       50
176
     1
 62
   256
176
     0
 40
1.0
176
     0
 90
        2
176
     1
  1
strokes_ogs.tif
176
     1
290
     0
176
     1
 40
1.0
176
     1
 40
1.0
176
     1
1001
ACAD
1000
AcDbSavedByObjectVersion
1070
     0
  0
VISUALSTYLE
  5
1E6
102
{ACAD_REACTORS
330
EF
102
}
330
EF
100
AcDbVisualStyle
  2
EdgeColorOff
 70
    22
177
     3
291
     1
 70
    58
 90
        2
176
     0
 90
        2
176
     0
 90
        0
176
     0
 90
        0
176
     0
 40
0.6
176
     0
 40
30.0
176
     0
 62
     7
420
 16777215
176
     0
 90
        1
176
     0
 90
        4
176
     0
 62
     7
176
     0
 62
   257
176
     0
 90
        1
176
     0
 90
        1
176
     0
 40
1.0
176
     0
 90
        8
176
     2
 62
     7
176
     0
 40
1.0
176
     0
 90
        1
176
     0
 90
        6
176
     0
 90
        2
176
     0
 62
     7
176
     0
 90
        5
176
     0
 90
        0
176
     0
 90
        0
176
     0
290
     0
176
     0
 90
        1
176
     0
 40
0.0
176
     0
 90
        0
176
     0
290
     0
176
     1
290
     1
176
     1
290
     1
176
     1
290
     0
176
     1
290
     0
176
     1
290
     0
176
     1
290
     0
176
     1
290
     0
176
     1
290
     0
176
     1
 90
       50
176
     1
 40
0.0
176
     1
 40
1.0
176
     1
 90
        0
176
     1
 62
    18
420
        0
176
     1
 90
       50
176
     1
 90
        3
176
     1
 62
     5
420
      255
176
     1
290
     0
176
     1
 90
       50
176
     1
 90
       50
176
     1
 90
       50
176
     1
290
     0
176
     1
 90
       50
176
     1
 62
   256
176
     0
 40
1.0
176
     0
 90
        2
176
     1
  1
strokes_ogs.tif
176
     1
290
     0
176
     1
 40
1.0
176
     1
 40
1.0
176
     1
1001
ACAD
1000
AcDbSavedByObjectVersion
1070
     0
  0
VISUALSTYLE
  5
FE
102
{ACAD_REACTORS
330
EF
102
}
330
EF
100
AcDbVisualStyle
  2
Facepattern
 70
    15
177
     3
291
     1
 70
    58
 90
        2
176
     1
 90
        2
176
     1
 90
        1
176
     1
 90
        0
176
     1
 40
0.6
176
     1
 40
30.0
176
     1
 62
     7
420
 16777215
176
     1
 90
        1
176
     1
 90
        4
176
     1
 62
     7
176
     1
 62
   257
176
     1
 90
        1
176
     1
 90
        1
176
     1
 40
1.0
176
     1
 90
        8
176
     1
 62
     7
176
     1
 40
1.0
176
     1
 90
        1
176
     1
 90
        6
176
     1
 90
        2
176
     1
 62
     7
176
     1
 90
        5
176
     1
 90
        0
176
     1
 90
        0
176
     1
290
     0
176
     1
 90
        1
176
     1
 40
0.0
176
     1
 90
        0
176
     1
290
     0
176
     1
290
     1
176
     1
290
     1
176
     1
290
     0
176
     1
290
     0
176
     1
290
     0
176
     1
290
     0
176
     1
290
     0
176
     1
290
     0
176
     1
 90
       50
176
     1
 40
0.0
176
     1
 40
1.0
176
     1
 90
        0
176
     1
 62
    18
420
        0
176
     1
 90
       50
176
     1
 90
        3
176
     1
 62
     5
420
      255
176
     1
290
     0
176
     1
 90
       50
176
     1
 90
       50
176
     1
 90
       50
176
     1
290
     0
176
     1
 90
       50
176
     1
 62
   256
176
     0
 40
1.0
176
     0
 90
        2
176
     1
  1
strokes_ogs.tif
176
     1
290
     0
176
     1
 40
1.0
176
     1
 40
1.0
176
     1
1001
ACAD
1000
AcDbSavedByObjectVersion
1070
     0
  0
VISUALSTYLE
  5
F0
102
{ACAD_REACTORS
330
EF
102
}
330
EF
100
AcDbVisualStyle
  2
Flat
 70
     0
177
     3
291
     1
 70
    58
 90
        2
176
     1
 90
        1
176
     1
 90
        1
176
     1
 90
        2
176
     1
 40
0.6
176
     1
 40
30.0
176
     1
 62
     7
420
 16777215
176
     1
 90
        0
176
     1
 90
        0
176
     1
 62
     7
176
     1
 62
   257
176
     1
 90
        1
176
     1
 90
        1
176
     1
 40
1.0
176
     1
 90
        8
176
     1
 62
     7
176
     1
 40
1.0
176
     1
 90
        1
176
     1
 90
        6
176
     1
 90
        2
176
     1
 62
     7
176
     1
 90
        5
176
     1
 90
        0
176
     1
 90
        0
176
     1
290
     0
176
     1
 90
       13
176
     1
 40
0.0
176
     1
 90
        0
176
     1
290
     0
176
     1
290
     1
176
     1
290
     1
176
     1
290
     0
176
     1
290
     0
176
     1
290
     0
176
     1
290
     0
176
     1
290
     0
176
     1
290
     0
176
     1
 90
       50
176
     1
 40
0.0
176
     1
 40
1.0
176
     1
 90
        0
176
     1
 62
    18
420
        0
176
     1
 90
       50
176
     1
 90
        3
176
     1
 62
     5
420
      255
176
     1
290
     0
176
     1
 90
       50
176
     1
 90
       50
176
     1
 90
       50
176
     1
290
     0
176
     1
 90
       50
176
     1
 62
   256
176
     0
 40
1.0
176
     0
 90
        2
176
     1
  1
strokes_ogs.tif
176
     1
290
     0
176
     1
 40
1.0
176
     1
 40
1.0
176
     1
1001
ACAD
1000
AcDbSavedByObjectVersion
1070
     0
  0
VISUALSTYLE
  5
F1
102
{ACAD_REACTORS
330
EF
102
}
330
EF
100
AcDbVisualStyle
  2
FlatWithEdges
 70
     1
177
     3
291
     1
 70
    58
 90
        2
176
     1
 90
        1
176
     1
 90
        1
176
     1
 90
        2
176
     1
 40
0.6
176
     1
 40
30.0
176
     1
 62
     7
420
 16777215
176
     1
 90
        1
176
     1
 90
        0
176
     1
 62
     7
176
     1
 62
   257
176
     1
 90
        1
176
     1
 90
        1
176
     1
 40
1.0
176
     1
 90
        0
176
     1
 62
   257
176
     1
 40
1.0
176
     1
 90
        1
176
     1
 90
        6
176
     1
 90
        2
176
     1
 62
     7
176
     1
 90
        5
176
     1
 90
        0
176
     1
 90
        0
176
     1
290
     0
176
     1
 90
       13
176
     1
 40
0.0
176
     1
 90
        0
176
     1
290
     0
176
     1
290
     1
176
     1
290
     1
176
     1
290
     0
176
     1
290
     0
176
     1
290
     0
176
     1
290
     0
176
     1
290
     0
176
     1
290
     0
176
     1
 90
       50
176
     1
 40
0.0
176
     1
 40
1.0
176
     1
 90
        0
176
     1
 62
    18
420
        0
176
     1
 90
       50
176
     1
 90
        3
176
     1
 62
     5
420
      255
176
     1
290
     0
176
     1
 90
       50
176
     1
 90
       50
176
     1
 90
       50
176
     1
290
     0
176
     1
 90
       50
176
     1
 62
   256
176
     0
 40
1.0
176
     0
 90
        2
176
     1
  1
strokes_ogs.tif
176
     1
290
     0
176
     1
 40
1.0
176
     1
 40
1.0
176
     1
1001
ACAD
1000
AcDbSavedByObjectVersion
1070
     0
  0
VISUALSTYLE
  5
F2
102
{ACAD_REACTORS
330
EF
102
}
330
EF
100
AcDbVisualStyle
  2
Gouraud
 70
     2
177
     3
291
     1
 70
    58
 90
        2
176
     1
 90
        2
176
     1
 90
        1
176
     1
 90
        2
176
     1
 40
0.6
176
     1
 40
30.0
176
     1
 62
     7
420
 16777215
176
     1
 90
        0
176
     1
 90
        0
176
     1
 62
     7
176
     1
 62
   257
176
     1
 90
        1
176
     1
 90
        1
176
     1
 40
1.0
176
     1
 90
        0
176
     1
 62
     7
176
     1
 40
1.0
176
     1
 90
        1
176
     1
 90
        6
176
     1
 90
        2
176
     1
 62
     7
176
     1
 90
        5
176
     1
 90
        0
176
     1
 90
        0
176
     1
290
     0
176
     1
 90
       13
176
     1
 40
0.0
176
     1
 90
        0
176
     1
290
     0
176
     1
290
     1
176
     1
290
     1
176
     1
290
     0
176
     1
290
     0
176
     1
290
     0
176
     1
290
     0
176
     1
290
     0
176
     1
290
     0
176
     1
 90
       50
176
     1
 40
0.0
176
     1
 40
1.0
176
     1
 90
        0
176
     1
 62
    18
420
        0
176
     1
 90
       50
176
     1
 90
        3
176
     1
 62
     5
420
      255
176
     1
290
     0
176
     1
 90
       50
176
     1
 90
       50
176
     1
 90
       50
176
     1
290
     0
176
     1
 90
       50
176
     1
 62
   256
176
     0
 40
1.0
176
     0
 90
        2
176
     1
  1
strokes_ogs.tif
176
     1
290
     0
176
     1
 40
1.0
176
     1
 40
1.0
176
     1
1001
ACAD
1000
AcDbSavedByObjectVersion
1070
     0
  0
VISUALSTYLE
  5
F3
102
{ACAD_REACTORS
330
EF
102
}
330
EF
100
AcDbVisualStyle
  2
GouraudWithEdges
 70
     3
177
     3
291
     1
 70
    58
 90
        2
176
     1
 90
        2
176
     1
 90
        1
176
     1
 90
        2
176
     1
 40
0.6
176
     1
 40
30.0
176
     1
 62
     7
420
 16777215
176
     1
 90
        1
176
     1
 90
        0
176
     1
 62
     7
176
     1
 62
   257
176
     1
 90
        1
176
     1
 90
        1
176
     1
 40
1.0
176
     1
 90
        0
176
     1
 62
   257
176
     1
 40
1.0
176
     1
 90
        1
176
     1
 90
        6
176
     1
 90
        2
176
     1
 62
     7
176
     1
 90
        5
176
     1
 90
        0
176
     1
 90
        0
176
     1
290
     0
176
     1
 90
       13
176
     1
 40
0.0
176
     1
 90
        0
176
     1
290
     0
176
     1
290
     1
176
     1
290
     1
176
     1
290
     0
176
     1
290
     0
176
     1
290
     0
176
     1
290
     0
176
     1
290
     0
176
     1
290
     0
176
     1
 90
       50
176
     1
 40
0.0
176
     1
 40
1.0
176
     1
 90
        0
176
     1
 62
    18
420
        0
176
     1
 90
       50
176
     1
 90
        3
176
     1
 62
     5
420
      255
176
     1
290
     0
176
     1
 90
       50
176
     1
 90
       50
176
     1
 90
       50
176
     1
290
     0
176
     1
 90
       50
176
     1
 62
   256
176
     0
 40
1.0
176
     0
 90
        2
176
     1
  1
strokes_ogs.tif
176
     1
290
     0
176
     1
 40
1.0
176
     1
 40
1.0
176
     1
1001
ACAD
1000
AcDbSavedByObjectVersion
1070
     0
  0
VISUALSTYLE
  5
F7
102
{ACAD_REACTORS
330
EF
102
}
330
EF
100
AcDbVisualStyle
  2
Hidden
 70
     6
177
     3
291
     0
 70
    58
 90
        1
176
     1
 90
        2
176
     1
 90
        2
176
     1
 90
        0
176
     1
 40
0.6
176
     1
 40
30.0
176
     1
 62
     7
420
 16777215
176
     1
 90
        2
176
     1
 90
        2
176
     1
 62
     7
176
     1
 62
   257
176
     1
 90
        2
176
     1
 90
        1
176
     1
 40
40.0
176
     1
 90
        0
176
     1
 62
   257
176
     1
 40
1.0
176
     1
 90
        1
176
     1
 90
        6
176
     1
 90
        2
176
     1
 62
     7
176
     1
 90
        3
176
     1
 90
        0
176
     1
 90
        0
176
     1
290
     0
176
     1
 90
        1
176
     1
 40
0.0
176
     1
 90
        0
176
     1
290
     0
176
     1
290
     1
176
     1
290
     1
176
     1
290
     0
176
     1
290
     0
176
     1
290
     0
176
     1
290
     0
176
     1
290
     0
176
     1
290
     0
176
     1
 90
       50
176
     1
 40
0.0
176
     1
 40
1.0
176
     1
 90
        0
176
     1
 62
    18
420
        0
176
     1
 90
       50
176
     1
 90
        3
176
     1
 62
     5
420
      255
176
     1
290
     0
176
     1
 90
       50
176
     1
 90
       50
176
     1
 90
       50
176
     1
290
     0
176
     1
 90
       50
176
     1
 62
   256
176
     0
 40
1.0
176
     0
 90
        2
176
     1
  1
strokes_ogs.tif
176
     1
290
     0
176
     1
 40
1.0
176
     1
 40
1.0
176
     1
1001
ACAD
1000
AcDbSavedByObjectVersion
1070
     0
  0
VISUALSTYLE
  5
1E4
102
{ACAD_REACTORS
330
EF
102
}
330
EF
100
AcDbVisualStyle
  2
JitterOff
 70
    20
177
     3
291
     1
 70
    58
 90
        2
176
     0
 90
        2
176
     0
 90
        0
176
     0
 90
        0
176
     0
 40
0.6
176
     0
 40
30.0
176
     0
 62
     7
420
 16777215
176
     0
 90
        1
176
     0
 90
        4
176
     0
 62
     7
176
     0
 62
   257
176
     0
 90
        1
176
     0
 90
        1
176
     0
 40
1.0
176
     0
 90
       10
176
     2
 62
     7
176
     0
 40
1.0
176
     0
 90
        1
176
     0
 90
        6
176
     0
 90
        2
176
     0
 62
     7
176
     0
 90
        5
176
     0
 90
        0
176
     0
 90
        0
176
     0
290
     0
176
     0
 90
        1
176
     0
 40
0.0
176
     0
 90
        0
176
     0
290
     0
176
     1
290
     1
176
     1
290
     1
176
     1
290
     0
176
     1
290
     0
176
     1
290
     0
176
     1
290
     0
176
     1
290
     0
176
     1
290
     0
176
     1
 90
       50
176
     1
 40
0.0
176
     1
 40
1.0
176
     1
 90
        0
176
     1
 62
    18
420
        0
176
     1
 90
       50
176
     1
 90
        3
176
     1
 62
     5
420
      255
176
     1
290
     0
176
     1
 90
       50
176
     1
 90
       50
176
     1
 90
       50
176
     1
290
     0
176
     1
 90
       50
176
     1
 62
   256
176
     0
 40
1.0
176
     0
 90
        2
176
     1
  1
strokes_ogs.tif
176
     1
290
     0
176
     1
 40
1.0
176
     1
 40
1.0
176
     1
1001
ACAD
1000
AcDbSavedByObjectVersion
1070
     0
  0
VISUALSTYLE
  5
FD
102
{ACAD_REACTORS
330
EF
102
}
330
EF
100
AcDbVisualStyle
  2
Linepattern
 70
    14
177
     3
291
     1
 70
    58
 90
        2
176
     1
 90
        2
176
     1
 90
        1
176
     1
 90
        0
176
     1
 40
0.6
176
     1
 40
30.0
176
     1
 62
     7
420
 16777215
176
     1
 90
        1
176
     1
 90
        4
176
     1
 62
     7
176
     1
 62
   257
176
     1
 90
        7
176
     1
 90
        7
176
     1
 40
1.0
176
     1
 90
        8
176
     1
 62
     7
176
     1
 40
1.0
176
     1
 90
        1
176
     1
 90
        6
176
     1
 90
        2
176
     1
 62
     7
176
     1
 90
        5
176
     1
 90
        0
176
     1
 90
        0
176
     1
290
     0
176
     1
 90
        1
176
     1
 40
0.0
176
     1
 90
        0
176
     1
290
     0
176
     1
290
     1
176
     1
290
     1
176
     1
290
     0
176
     1
290
     0
176
     1
290
     0
176
     1
290
     0
176
     1
290
     0
176
     1
290
     0
176
     1
 90
       50
176
     1
 40
0.0
176
     1
 40
1.0
176
     1
 90
        0
176
     1
 62
    18
420
        0
176
     1
 90
       50
176
     1
 90
        3
176
     1
 62
     5
420
      255
176
     1
290
     0
176
     1
 90
       50
176
     1
 90
       50
176
     1
 90
       50
176
     1
290
     0
176
     1
 90
       50
176
     1
 62
   256
176
     0
 40
1.0
176
     0
 90
        2
176
     1
  1
strokes_ogs.tif
176
     1
290
     0
176
     1
 40
1.0
176
     1
 40
1.0
176
     1
1001
ACAD
1000
AcDbSavedByObjectVersion
1070
     0
  0
VISUALSTYLE
  5
1E5
102
{ACAD_REACTORS
330
EF
102
}
330
EF
100
AcDbVisualStyle
  2
OverhangOff
 70
    21
177
     3
291
     1
 70
    58
 90
        2
176
     0
 90
        2
176
     0
 90
        0
176
     0
 90
        0
176
     0
 40
0.6
176
     0
 40
30.0
176
     0
 62
     7
420
 16777215
176
     0
 90
        1
176
     0
 90
        4
176
     0
 62
     7
176
     0
 62
   257
176
     0
 90
        1
176
     0
 90
        1
176
     0
 40
1.0
176
     0
 90
        9
176
     2
 62
     7
176
     0
 40
1.0
176
     0
 90
        1
176
     0
 90
        6
176
     0
 90
        2
176
     0
 62
     7
176
     0
 90
        5
176
     0
 90
        0
176
     0
 90
        0
176
     0
290
     0
176
     0
 90
        1
176
     0
 40
0.0
176
     0
 90
        0
176
     0
290
     0
176
     1
290
     1
176
     1
290
     1
176
     1
290
     0
176
     1
290
     0
176
     1
290
     0
176
     1
290
     0
176
     1
290
     0
176
     1
290
     0
176
     1
 90
       50
176
     1
 40
0.0
176
     1
 40
1.0
176
     1
 90
        0
176
     1
 62
    18
420
        0
176
     1
 90
       50
176
     1
 90
        3
176
     1
 62
     5
420
      255
176
     1
290
     0
176
     1
 90
       50
176
     1
 90
       50
176
     1
 90
       50
176
     1
290
     0
176
     1
 90
       50
176
     1
 62
   256
176
     0
 40
1.0
176
     0
 90
        2
176
     1
  1
strokes_ogs.tif
176
     1
290
     0
176
     1
 40
1.0
176
     1
 40
1.0
176
     1
1001
ACAD
1000
AcDbSavedByObjectVersion
1070
     0
  0
VISUALSTYLE
  5
F9
102
{ACAD_REACTORS
330
EF
102
}
330
EF
100
AcDbVisualStyle
  2
Realistic
 70
     8
177
     3
291
     0
 70
    58
 90
        2
176
     1
 90
        3
176
     1
 90
        0
176
     1
 90
        2
176
     1
 40
0.6
176
     1
 40
30.0
176
     1
 62
     7
420
 16777215
176
     1
 90
        0
176
     1
 90
        0
176
     1
 62
     7
176
     1
 62
   257
176
     1
 90
        1
176
     1
 90
        1
176
     1
 40
1.0
176
     1
 90
        8
176
     1
 62
   257
176
     1
 40
1.0
176
     1
 90
        1
176
     1
 90
        6
176
     1
 90
        2
176
     1
 62
     7
176
     1
 90
        3
176
     1
 90
        0
176
     1
 90
        0
176
     1
290
     0
176
     1
 90
       13
176
     1
 40
0.0
176
     1
 90
        0
176
     1
290
     0
176
     1
290
     1
176
     1
290
     1
176
     1
290
     0
176
     1
290
     0
176
     1
290
     0
176
     1
290
     0
176
     1
290
     0
176
     1
290
     0
176
     1
 90
       50
176
     1
 40
0.0
176
     1
 40
1.0
176
     1
 90
        0
176
     1
 62
    18
420
        0
176
     1
 90
       50
176
     1
 90
        3
176
     1
 62
     5
420
      255
176
     1
290
     0
176
     1
 90
       50
176
     1
 90
       50
176
     1
 90
       50
176
     1
290
     0
176
     1
 90
       50
176
     1
 62
   256
176
     0
 40
1.0
176
     0
 90
        2
176
     1
  1
strokes_ogs.tif
176
     1
290
     0
176
     1
 40
1.0
176
     1
 40
1.0
176
     1
1001
ACAD
1000
AcDbSavedByObjectVersion
1070
     0
  0
VISUALSTYLE
  5
1F3
102
{ACAD_REACTORS
330
EF
102
}
330
EF
100
AcDbVisualStyle
  2
Shaded
 70
    27
177
     3
291
     0
 70
    58
 90
        2
176
     1
 90
        2
176
     1
 90
        1
176
     1
 90
        2
176
     1
 40
0.6
176
     1
 40
30.0
176
     1
 62
     7
420
 16777215
176
     1
 90
        0
176
     1
 90
        4
176
     1
 62
     7
176
     1
 62
   257
176
     1
 90
        1
176
     1
 90
        1
176
     1
 40
1.0
176
     1
 90
        8
176
     1
 62
   257
176
     1
 40
1.0
176
     1
 90
        1
176
     1
 90
        6
176
     1
 90
        2
176
     1
 62
     8
420
  7895160
176
     1
 90
        3
176
     1
 90
        0
176
     1
 90
        0
176
     1
290
     0
176
     1
 90
        5
176
     1
 40
0.0
176
     1
 90
        0
176
     1
290
     0
176
     1
290
     1
176
     1
290
     1
176
     1
290
     0
176
     1
290
     0
176
     1
290
     0
176
     1
290
     0
176
     1
290
     0
176
     1
290
     0
176
     1
 90
       50
176
     1
 40
0.0
176
     1
 40
1.0
176
     1
 90
        0
176
     1
 62
    18
420
        0
176
     1
 90
       50
176
     1
 90
        3
176
     1
 62
     5
420
      255
176
     1
290
     0
176
     1
 90
       50
176
     1
 90
       50
176
     1
 90
       50
176
     1
290
     0
176
     1
 90
       50
176
     1
 62
   256
176
     0
 40
1.0
176
     0
 90
        2
176
     1
  1
strokes_ogs.tif
176
     1
290
     0
176
     1
 40
1.0
176
     1
 40
1.0
176
     1
1001
ACAD
1000
AcDbSavedByObjectVersion
1070
     0
  0
VISUALSTYLE
  5
1F2
102
{ACAD_REACTORS
330
EF
102
}
330
EF
100
AcDbVisualStyle
  2
Shaded with edges
 70
    26
177
     3
291
     0
 70
    58
 90
        2
176
     1
 90
        2
176
     1
 90
        1
176
     1
 90
        2
176
     1
 40
0.6
176
     1
 40
30.0
176
     1
 62
     7
420
 16777215
176
     1
 90
        1
176
     1
 90
        2
176
     1
 62
     7
176
     1
 62
   257
176
     1
 90
        2
176
     1
 90
        1
176
     1
 40
1.0
176
     1
 90
        8
176
     1
 62
   257
176
     1
 40
1.0
176
     1
 90
        1
176
     1
 90
        6
176
     1
 90
        2
176
     1
 62
     7
176
     1
 90
        3
176
     1
 90
        0
176
     1
 90
        0
176
     1
290
     0
176
     1
 90
        5
176
     1
 40
0.0
176
     1
 90
        0
176
     1
290
     0
176
     1
290
     1
176
     1
290
     1
176
     1
290
     0
176
     1
290
     0
176
     1
290
     0
176
     1
290
     0
176
     1
290
     0
176
     1
290
     0
176
     1
 90
       50
176
     1
 40
0.0
176
     1
 40
1.0
176
     1
 90
        0
176
     1
 62
    18
420
        0
176
     1
 90
       50
176
     1
 90
        3
176
     1
 62
     5
420
      255
176
     1
290
     0
176
     1
 90
       50
176
     1
 90
       50
176
     1
 90
       50
176
     1
290
     0
176
     1
 90
       50
176
     1
 62
   256
176
     0
 40
1.0
176
     0
 90
        2
176
     1
  1
strokes_ogs.tif
176
     1
290
     0
176
     1
 40
1.0
176
     1
 40
1.0
176
     1
1001
ACAD
1000
AcDbSavedByObjectVersion
1070
     0
  0
VISUALSTYLE
  5
1EF
102
{ACAD_REACTORS
330
EF
102
}
330
EF
100
AcDbVisualStyle
  2
Shades of Gray
 70
    23
177
     3
291
     0
 70
    58
 90
        2
176
     1
 90
        2
176
     1
 90
        3
176
     1
 90
        0
176
     1
 40
0.6
176
     1
 40
30.0
176
     1
 62
     7
420
 16777215
176
     1
 90
        2
176
     1
 90
        2
176
     1
 62
     7
176
     1
 62
     7
176
     1
 90
        1
176
     1
 90
        1
176
     1
 40
40.0
176
     1
 90
        8
176
     1
 62
     7
176
     1
 40
1.0
176
     1
 90
        1
176
     1
 90
        6
176
     1
 90
        2
176
     1
 62
     7
176
     1
 90
        3
176
     1
 90
        0
176
     1
 90
        0
176
     1
290
     0
176
     1
 90
        1
176
     1
 40
0.0
176
     1
 90
        0
176
     1
290
     0
176
     1
290
     1
176
     1
290
     1
176
     1
290
     0
176
     1
290
     0
176
     1
290
     0
176
     1
290
     0
176
     1
290
     0
176
     1
290
     0
176
     1
 90
       50
176
     1
 40
0.0
176
     1
 40
1.0
176
     1
 90
        0
176
     1
 62
    18
420
        0
176
     1
 90
       50
176
     1
 90
        3
176
     1
 62
     5
420
      255
176
     1
290
     0
176
     1
 90
       50
176
     1
 90
       50
176
     1
 90
       50
176
     1
290
     0
176
     1
 90
       50
176
     1
 62
   256
176
     0
 40
1.0
176
     0
 90
        2
176
     1
  1
strokes_ogs.tif
176
     1
290
     0
176
     1
 40
1.0
176
     1
 40
1.0
176
     1
1001
ACAD
1000
AcDbSavedByObjectVersion
1070
     0
  0
VISUALSTYLE
  5
1F0
102
{ACAD_REACTORS
330
EF
102
}
330
EF
100
AcDbVisualStyle
  2
Sketchy
 70
    24
177
     3
291
     0
 70
    58
 90
        1
176
     1
 90
        2
176
     1
 90
        2
176
     1
 90
        0
176
     1
 40
0.6
176
     1
 40
30.0
176
     1
 62
     7
420
 16777215
176
     1
 90
        2
176
     1
 90
        2
176
     1
 62
     7
176
     1
 62
     7
176
     1
 90
        1
176
     1
 90
        1
176
     1
 40
40.0
176
     1
 90
       11
176
     1
 62
     7
176
     1
 40
1.0
176
     1
 90
        1
176
     1
 90
        6
176
     1
 90
        2
176
     1
 62
     7
176
     1
 90
        6
176
     1
 90
        0
176
     1
 90
        0
176
     1
290
     0
176
     1
 90
        1
176
     1
 40
0.0
176
     1
 90
        0
176
     1
290
     0
176
     1
290
     1
176
     1
290
     1
176
     1
290
     0
176
     1
290
     0
176
     1
290
     0
176
     1
290
     0
176
     1
290
     0
176
     1
290
     0
176
     1
 90
       50
176
     1
 40
0.0
176
     1
 40
1.0
176
     1
 90
        0
176
     1
 62
    18
420
        0
176
     1
 90
       50
176
     1
 90
        3
176
     1
 62
     5
420
      255
176
     1
290
     0
176
     1
 90
       50
176
     1
 90
       50
176
     1
 90
       50
176
     1
290
     0
176
     1
 90
       50
176
     1
 62
   256
176
     0
 40
1.0
176
     0
 90
        2
176
     1
  1
strokes_ogs.tif
176
     1
290
     0
176
     1
 40
1.0
176
     1
 40
1.0
176
     1
1001
ACAD
1000
AcDbSavedByObjectVersion
1070
     0
  0
VISUALSTYLE
  5
FC
102
{ACAD_REACTORS
330
EF
102
}
330
EF
100
AcDbVisualStyle
  2
Thicken
 70
    13
177
     3
291
     1
 70
    58
 90
        2
176
     1
 90
        2
176
     1
 90
        1
176
     1
 90
        0
176
     1
 40
0.6
176
     1
 40
30.0
176
     1
 62
     7
420
 16777215
176
     1
 90
        1
176
     1
 90
        4
176
     1
 62
     7
176
     1
 62
   257
176
     1
 90
        1
176
     1
 90
        1
176
     1
 40
1.0
176
     1
 90
       12
176
     1
 62
     7
176
     1
 40
1.0
176
     1
 90
        1
176
     1
 90
        6
176
     1
 90
        2
176
     1
 62
     7
176
     1
 90
        5
176
     1
 90
        0
176
     1
 90
        0
176
     1
290
     0
176
     1
 90
        1
176
     1
 40
0.0
176
     1
 90
        0
176
     1
290
     0
176
     1
290
     1
176
     1
290
     1
176
     1
290
     0
176
     1
290
     0
176
     1
290
     0
176
     1
290
     0
176
     1
290
     0
176
     1
290
     0
176
     1
 90
       50
176
     1
 40
0.0
176
     1
 40
1.0
176
     1
 90
        0
176
     1
 62
    18
420
        0
176
     1
 90
       50
176
     1
 90
        3
176
     1
 62
     5
420
      255
176
     1
290
     0
176
     1
 90
       50
176
     1
 90
       50
176
     1
 90
       50
176
     1
290
     0
176
     1
 90
       50
176
     1
 62
   256
176
     0
 40
1.0
176
     0
 90
        2
176
     1
  1
strokes_ogs.tif
176
     1
290
     0
176
     1
 40
1.0
176
     1
 40
1.0
176
     1
1001
ACAD
1000
AcDbSavedByObjectVersion
1070
     0
  0
VISUALSTYLE
  5
F6
102
{ACAD_REACTORS
330
EF
102
}
330
EF
100
AcDbVisualStyle
  2
Wireframe
 70
     5
177
     3
291
     0
 70
    58
 90
        0
176
     1
 90
        2
176
     1
 90
        0
176
     1
 90
        0
176
     1
 40
0.6
176
     1
 40
30.0
176
     1
 62
     7
420
 16777215
176
     1
 90
        1
176
     1
 90
        4
176
     1
 62
     7
176
     1
 62
   257
176
     1
 90
        1
176
     1
 90
        1
176
     1
 40
1.0
176
     1
 90
        0
176
     1
 62
   257
176
     1
 40
1.0
176
     1
 90
        1
176
     1
 90
        6
176
     1
 90
        2
176
     1
 62
     7
176
     1
 90
        3
176
     1
 90
        0
176
     1
 90
        0
176
     1
290
     0
176
     1
 90
        1
176
     1
 40
0.0
176
     1
 90
        0
176
     1
290
     0
176
     1
290
     1
176
     1
290
     1
176
     1
290
     0
176
     1
290
     0
176
     1
290
     0
176
     1
290
     0
176
     1
290
     0
176
     1
290
     0
176
     1
 90
       50
176
     1
 40
0.0
176
     1
 40
1.0
176
     1
 90
        0
176
     1
 62
    18
420
        0
176
     1
 90
       50
176
     1
 90
        3
176
     1
 62
     5
420
      255
176
     1
290
     0
176
     1
 90
       50
176
     1
 90
       50
176
     1
 90
       50
176
     1
290
     0
176
     1
 90
       50
176
     1
 62
   256
176
     0
 40
1.0
176
     0
 90
        2
176
     1
  1
strokes_ogs.tif
176
     1
290
     0
176
     1
 40
1.0
176
     1
 40
1.0
176
     1
1001
ACAD
1000
AcDbSavedByObjectVersion
1070
     0
  0
VISUALSTYLE
  5
1F1
102
{ACAD_REACTORS
330
EF
102
}
330
EF
100
AcDbVisualStyle
  2
X-Ray
 70
    25
177
     3
291
     0
 70
    58
 90
        2
176
     1
 90
        2
176
     1
 90
        1
176
     1
 90
        1
176
     1
 40
0.5
176
     1
 40
30.0
176
     1
 62
     7
420
 16777215
176
     1
 90
        1
176
     1
 90
        0
176
     1
 62
     7
176
     1
 62
   257
176
     1
 90
        1
176
     1
 90
        1
176
     1
 40
1.0
176
     1
 90
        8
176
     1
 62
     7
176
     1
 40
1.0
176
     1
 90
        1
176
     1
 90
        6
176
     1
 90
        2
176
     1
 62
     7
176
     1
 90
        3
176
     1
 90
        0
176
     1
 90
        0
176
     1
290
     0
176
     1
 90
       13
176
     1
 40
0.0
176
     1
 90
        0
176
     1
290
     0
176
     1
290
     1
176
     1
290
     1
176
     1
290
     0
176
     1
290
     0
176
     1
290
     0
176
     1
290
     0
176
     1
290
     0
176
     1
290
     0
176
     1
 90
       50
176
     1
 40
0.0
176
     1
 40
1.0
176
     1
 90
        0
176
     1
 62
    18
420
        0
176
     1
 90
       50
176
     1
 90
        3
176
     1
 62
     5
420
      255
176
     1
290
     0
176
     1
 90
       50
176
     1
 90
       50
176
     1
 90
       50
176
     1
290
     0
176
     1
 90
       50
176
     1
 62
   256
176
     0
 40
1.0
176
     0
 90
        2
176
     1
  1
strokes_ogs.tif
176
     1
290
     0
176
     1
 40
1.0
176
     1
 40
1.0
176
     1
1001
ACAD
1000
AcDbSavedByObjectVersion
1070
     0
  0
DICTIONARYVAR
  5
146
102
{ACAD_REACTORS
330
5E
102
}
330
5E
100
DictionaryVariables
280
     0
  1
1:1
  0
DICTIONARYVAR
  5
259
102
{ACAD_REACTORS
330
5E
102
}
330
5E
100
DictionaryVariables
280
     0
  1
3.500000
  0
DICTIONARYVAR
  5
25A
102
{ACAD_REACTORS
330
5E
102
}
330
5E
100
DictionaryVariables
280
     0
  1
acadiso.lin
  0
DICTIONARYVAR
  5
145
102
{ACAD_REACTORS
330
5E
102
}
330
5E
100
DictionaryVariables
280
     0
  1
STANDARD
  0
DICTIONARYVAR
  5
84
102
{ACAD_REACTORS
330
5E
102
}
330
5E
100
DictionaryVariables
280
     0
  1
STANDARD
  0
DICTIONARYVAR
  5
227
102
{ACAD_REACTORS
330
5E
102
}
330
5E
100
DictionaryVariables
280
     0
  1
Metric50
  0
DICTIONARYVAR
  5
228
102
{ACAD_REACTORS
330
5E
102
}
330
5E
100
DictionaryVariables
280
     0
  1
Metric50
  0
DICTIONARYVAR
  5
5F
102
{ACAD_REACTORS
330
5E
102
}
330
5E
100
DictionaryVariables
280
     0
  1
2
  0
DICTIONARYVAR
  5
63
102
{ACAD_REACTORS
330
5E
102
}
330
5E
100
DictionaryVariables
280
     0
  1
1
  0
DICTIONARYVAR
  5
1AE
102
{ACAD_REACTORS
330
5E
102
}
330
5E
100
DictionaryVariables
280
     0
  1
0
  0
DICTIONARYVAR
  5
1AF
102
{ACAD_REACTORS
330
5E
102
}
330
5E
100
DictionaryVariables
280
     0
  1
0
  0
DICTIONARY
  5
5F2
102
{ACAD_REACTORS
330
5F0
102
}
330
5F0
100
AcDbDictionary
281
     1
  0
DICTIONARY
  5
5F1
102
{ACAD_REACTORS
330
5F0
102
}
330
5F0
100
AcDbDictionary
281
     1
  3
2313785191856
350
5EB
  3
2313785191872
350
5EC
  3
2313785191888
350
5ED
  3
2313785191904
350
5EE
  3
2313785191920
350
5EF
  0
DICTIONARY
  5
5F9
330
28F
100
AcDbDictionary
280
     1
281
     1
  3
ACAD_XREC_ROUNDTRIP
360
5FA
  0
DICTIONARY
  5
5F5
330
21C
100
AcDbDictionary
280
     1
281
     1
  3
ACAD_XREC_ROUNDTRIP
360
5F6
  0
DICTIONARY
  5
205
330
22
100
AcDbDictionary
280
     1
281
     1
  0
DICTIONARY
  5
1F9
330
ED
100
AcDbDictionary
280
     1
281
     1
  3
FBXASSET
360
1FA
  0
DICTIONARY
  5
1F7
330
EC
100
AcDbDictionary
280
     1
281
     1
  3
FBXASSET
360
1F8
  0
DICTIONARY
  5
173
330
EE
100
AcDbDictionary
280
     1
281
     1
  3
BUMPTILE
360
175
  3
DIFFUSETILE
360
174
  3
FBXASSET
360
1FB
  3
OPACITYTILE
360
176
  3
REFLECTIONTILE
360
177
  0
DICTIONARY
  5
5F7
330
28E
100
AcDbDictionary
280
     1
281
     1
  3
ACAD_XREC_ROUNDTRIP
360
5F8
  0
DICTIONARY
  5
5F3
330
21A
100
AcDbDictionary
280
     1
281
     1
  3
ACAD_XREC_ROUNDTRIP
360
5F4
  0
DICTIONARY
  5
162
330
7F
100
AcDbDictionary
280
     1
281
     1
  3
ACAD_ROUNDTRIP_2008_TABLESTYLE_CELLSTYLEMAP
360
5E9
  0
XRECORD
  5
5EB
102
{ACAD_REACTORS
330
5F1
102
}
330
5F1
100
AcDbXrecord
280
     1
  1
AcDb_Thumbnail_Schema
102
{ATTRRECORD
341
5EC
  2
AcDbDs::TreatedAsObjectData
280
     1
291
     1
102
ATTRRECORD}
102
{ATTRRECORD
341
5ED
  2
AcDbDs::Legacy
280
     1
291
     1
102
ATTRRECORD}
  2
AcDbDs::ID
280
    10
 91
        8
102
{ATTRRECORD
341
5EE
  2
AcDs:Indexable
280
     1
291
     1
102
ATTRRECORD}
102
{ATTRRECORD
341
5EF
  2
AcDbDs::HandleAttribute
280
     7
282
     1
102
ATTRRECORD}
  2
Thumbnail_Data
280
    15
 91
        0
  0
XRECORD
  5
5EC
102
{ACAD_REACTORS
330
5F1
102
}
330
5F1
100
AcDbXrecord
280
     1
  1
AcDbDs::TreatedAsObjectDataSchema
  2
AcDbDs::TreatedAsObjectData
280
     1
 91
        0
  0
XRECORD
  5
5ED
102
{ACAD_REACTORS
330
5F1
102
}
330
5F1
100
AcDbXrecord
280
     1
  1
AcDbDs::LegacySchema
  2
AcDbDs::Legacy
280
     1
 91
        0
  0
XRECORD
  5
5EE
102
{ACAD_REACTORS
330
5F1
102
}
330
5F1
100
AcDbXrecord
280
     1
  1
AcDbDs::IndexedPropertySchema
  2
AcDs:Indexable
280
     1
 91
        0
  0
XRECORD
  5
5EF
102
{ACAD_REACTORS
330
5F1
102
}
330
5F1
100
AcDbXrecord
280
     1
  1
AcDbDs::HandleAttributeSchema
  2
AcDbDs::HandleAttribute
280
     7
 91
        1
284
     1
  0
XRECORD
  5
5FA
102
{ACAD_REACTORS
330
5F9
102
}
330
5F9
100
AcDbXrecord
280
     1
102
DISPLAYNAME
  1
Imperial24
102
FLAGS
 90
        0
  0
XRECORD
  5
5F6
102
{ACAD_REACTORS
330
5F5
102
}
330
5F5
100
AcDbXrecord
280
     1
102
DISPLAYNAME
  1
Metric50
102
FLAGS
 90
        0
  0
XRECORD
  5
1FA
102
{ACAD_REACTORS
330
1F9
102
}
330
1F9
100
AcDbXrecord
280
     1
 70
     1
 90
429727718
  1
D62C5603-E3A1-4AEA-B7FB-FE5D8D0755AF
310
504B03040A0000080000CC70623B3DEE336E79000000790000001B0000006175746F6465736B2D64657369676E2D7061636B6167652E786D6C3C3F786D6C2076657273696F6E3D22312E302220656E636F64696E673D227574662D3822203F3E3C666F726D6174733E3C666F726D61743E687474703A2F2F736368656D612E
310
6175746F6465736B2E636F6D2F64657369676E2D7061636B6167652F323030393C2F666F726D61743E3C2F666F726D6174733E504B0304140006080800CC70623BD486FD9CA0000000F4000000130000005B436F6E74656E745F54797065735D2E786D6C7D8EC10E82300C865F65E91D8A1E8C310C0EEA1BF002731658846E
310
D98AC1B77784ABF1D8FE5FBFBF75BBCE937A534CCEB38643598122B6FEE978D0B0485F9C41B54DDD7D022595594E1A469170414C76A4D9A4D207E29CF43ECE46F218070CC6BECC4078ACAA135ACF422C856C0E68EA1BF5669944DDD7BCDE7B1F8E415D77AECB980613C2E4AC91FC167A2B244592486606FC29C8FD7F045B9A
310
EF7053A7E60B504B0304140006080800CC70623B853B8169EB0000007C01000008000000636F72652E786D6C8D90416EC3201045AF62CDB6C206821CC7C244919D9CA01740401C94182C03558F5F9C3852BBEB6A467FFE9B197D7EFC9E1EC5975982F5AE035262288C535E5B377690E21535501C055FBC8FBF6C503839990E
310
5619041F179FE64D52DE45E362569DD7661365082642A11EB9E920A89B99642953CC8E702F67A9EE7234257977194EC9EAE275C4EABCCF5EAD5940D4AC6F0E35A568B8F43562CD7046CD199FD07E60174276A7BE677B5EADB0E0D14EEFFB6A31321A0D82627C4084204C3F096B71DD52F6819B16635EADF63F509AF53FA164
310
5DDCD1EDDD17164090FCC8732078B56691CB33A85CD7DCC40F504B0304140006080800CC70623B55019EA25F0000007C00000007000000636E782E786D6C4DCB3B0E80201045D1AD90E915ED2CF8AC45050C11660C8261F98AB1B07AC9C97D42D718D865D3E909258CFD00CCE24AC6E326A164D74DC0B4128928FF32603847
310
2BA13128B1252AC747C6BAB984FC68F0B87FE8960A5C09FE86CFB69FBA01504B0304140006080800CC70623BDBABAAF470010000D40300000C0000006662782F636F72652E786D6CC553D16E823014FD95A6AF4B694182CC941A83FA05FB810A9511A125A5257EFE2E82712ECEB8A7F100CD39F7F69E734AF9FADC366850B6
310
AF8DCE7018308C942E4C59EB2AC3DE1D498AD15A706B8CFB56869196ADCAF00863C12B6B7C374385D14E6907A836A59A41D9F7CA615434B0C8705F7CAA5606D23BA8E84F41278B93AC54100640439DE0BDB320004D43C63716C7C399D30917DCFBBA9CD9BA8469F5B156168B24CED3F7248AC8769F27244EB73B92EED8862C
310
B7F13E0C179B3C8F979C8ECD82BBBABDAA2BAC924E9558448CBD9330242CFA08E3154B5651FCC6D215639C8EE5774DBE2B5F6CF2B5768B68963BB5F5588420E442FC700B1139D4CB01F450C1E918227C2E09DF070D8140C84E1E9AAB8F1340832A9CB13130A5F1376A908D57309505ECF2A0DF179C4E9D30F5B239B87E3823
310
7A79C6F31DE1A8A5AEC08474B03C7837EAE4938639B44E5932B833D2C6B6B279CDC613877FA26EE21F4A2A4C63EC7F29A2F301D1F9F7A0E37D145F504B0304140006080800CC70623B9C113CC27E0000009D0000000B0000006662782F636E782E786D6C4DCCDF0A83201C86E15B91DFB94BFB330DD428C8FB886521330DA7
310
6397BF1A1DECE883878F57749FCDA1B7892F1BBC047A23808C7F84D9FA55424E0BE6803A256208E9EF06C84F9B91703228B1C690F78B66B34CD9A5439DF5CF0BFBF65E35BCA1B8D6A5C6F540381E886698B5741C695F9503EBA150A2F8958E3DC3EA0B504B0304140006080800CC70623B7DF2F77C2A010000120200003100
310
00006662782F41393633353835312D344632462D344230382D423046372D3739314545314133324237412F636F72652E786D6C8D51DB8EC22014FC15C2939B0D2DB4B45643319AE817EC0F6041255A68B86CFCFC856D4D76DF7CE190393373060EDB3DC707F856CE6B6B7A480A0C81328395DA5C7B18C3057510EC3873D686
310
3F34088C18550F330C39BB3A1BA7051AAC09CA84841A2BD5020AEF55806078A44B0FFD7053A328440C89E1EFC52486BBB8AA8214A99D789CF9E05200300FC927E4FB4D5B375D43103D5527440FB843077C5AA3F5861C8F645F5787F59E95B390B318B55CE45AA638FAA2957BD7248B390B7A7CC51F9C124149C82B8C378810
310
84AB2F42B7B8DD56F413775B8C5999E9FF4471926F8AA236A1AE96B8B3CC434E5839373893369E1FAF30EA395917409EB7F26AF8801C171837A4A6AC9C89E9F9C9B1A58BA30FD6A5EF5DDDCF894B9AD9B6A59C957943A9FCAE2FD5BC4DFE03504B0304140006080800CC70623BAD7543B64E01000033030000300000006662
310
782F41393633353835312D344632462D344230382D423046372D3739314545314133324237412F636E782E786D6CD593CD6EC32010845F0571AD6CE3D48AD20813A9873E410FBD12D82434182C7EAAE6EDBB2424CD25871E7B41D6EC30B3FA84F9E67BB2E40B4234DE8DB46F1925E094D7C6ED479AD3AE5951B2113C789FEE
310
6C943839C1488B4C05DF079FE72A69D8C96C13AAD6B8631503449F83828872B949AC57D26200B826A308D316B4064D6E46FCDA41C05550DC9E483A00797BFD207EFB092A45DE9514C1BBD22178396BD39D891265658C238DEA00936C654E5E433CB65A26D9F6EDB5EBC14EBF49A45CB856E66048291F6939A9A81BB5C89177
310
38143CA680F4AA299D66A042CEB3354A2684DC9D8D178FE0D9B8B41CAAD720F880EE7EF93C0C18769E099ECC04D5A102C8049A8A05632F4DDF376CF1DE0F6BB65C2F8627B65A33C6BB62177CEBBDAD973006829F89F22E814B54F4BC2BE347F8AA8F681390B50FA73F804400B5F542E796F19FF974E7F78DB802FE05E20750
310
4B0304140006080800CC70623BE75B7789680500003C100000340000006662782F41393633353835312D344632462D344230382D423046372D3739314545314133324237412F6F626A656374732E786D6CAD575B8F9B3818FD2B887D06C22499CB8AA1CA655245D5B455A356FB305264C061D8018C6C3393D95FBFC7600890
310
A4CD5EF210B0B1BFEBF98E3F7B1FF6596ABC522E1296DF9BAE3D320D9A872C4AF2F8DE2CE5CEBA358D0FBEC719939D65A691938CDE9B6ADAF4BD98B3B2D05311DD91329583D9D5FC0F438434A7A611A644887B5384CF34233629258BA878B12322891DEFF6B66BD70BFB62634E8AE781D082709A4B588AF91C528CDA28B73F
310
1C998EEF39EABBEFA97FBD6A7C7E9553F9D3D79FE442923C3C523610337627CB87ABE99D359D4CC6D6E4FACAB5E6ABF9D2726FC6A3C5F56271377BB88362213924694B38DD99FE47C48627A1E7D49F5A8BB5E1A74C0A599ED3B0F21F1E56366B89112D681E218F0915D0D6F17AD41FBA2A369DCF6335D62ABBD39779D5DDD1
310
11D4D8DE3CBB96B2E04FB8202E41051754A1AA8E8F76B4C6DFE810B580B1547F4B84911149794252234D024EF8BBE963A95AE27B3D310A9D5C215C7960FAEE415ED75694C6AFB17BCACA5D99A60A9AA65F217B0BFC53292ACB92BF283FAD0D3621576592CB5BED907C2FA8E9DF794E35E97BEA31BED21FEB401ABB94C44839
310
DCACBF0E1C5DA8DA5B2F4DFFD32AD86F543D9E565E7056502E157C00AD2671CD534549AB752FCA9CDA00677A313F04E51B22FF19E57B300579E3C97EB29F682D92935CEC18CF901B7B54FD8C51F362B56FC72FE0B3C1EAE335EDCCBF5AEC39ADB17DC238973F804BA5E6F6BFE7AF1FB32E523BE9F3BD571418E3631DCA4D48
310
5250CF639223210A9446CA30052EDF057BD35F8329C1ECD84552BF0DC8D18BE7BCE23BFE6BD960AB4A7DE79923A103BEBD80F911CBAA2C60DB19B01CF164A5583B772EE6D3FFA56666CBCDA74DC97724A48F9A58967497E489C4D979006FD7A05E227A1EBDD0F737C623387A9C844D3709995625106D157315F8B8392CD4E0
310
A0B9A720C4BE9829CEF37EA1E13111214D53925356365ADA634861B52519DD27A00AEB808EAF0628E6F435519D446F45CF2C9CF5214F0A15B2F6D06B79DA3EE3CBF7F56780D2F4E7EF73A0F5E5B02A38D07DC852C6B7C1FBB6664213E0C39E3EBA7FF4E1AD23EA2829407C85E586727488B751B2DB9502BC7B228A3FD68B6E
310
A65A22397E690AA8D158D7E404EC8CDA235CC3B7D1898680131CEC2CDF2638C65196279577750F15884AEE19F94199155B92B13297978469D4F8D358DF0AEF7631E28DC8F0D9F437D5D39A83B2231A1D52D543813A824EF8D44BCFF2FA6A31BD1E8DAD87F1CCB526B3879935BF59CDADD5C37479BB1CDD4CA7B3556B516589
310
EF352754B706114D9C885EC9131DE6EFEB43D99AFE2391C2F958179413D7CFEF6B1B6DB1E7600F00DE6E5C67454A339A4BA2E0FBA85ED26F045D454F463DBFCE484C2F90F2E5E3666003662ED8F755951A7D1BECD5B30B550B2785C8E7320B7292A4838DDA71BBC863ED7613CAF659337A3354231D4FF4A182A54904C2898C
310
98B28C4AD0CE056CCF332A80986E571EE9DBC305BB5FEB7E509220A58D25CF042D712A806AC0AD0C657FDEF80D2D9CEAA2EE4D1C76F60BFE74219A06527D6F82DF6412526107381E55E353090704D085B52408A8913C4ED159D79BDA71BB4BC506F4831350EB6F975CD22D69BF7AC49B91A2C0A9DDA3D5CA36AD20FC478E37
310
E61844E2352865EBCB61A275A65283CAAA9DD27703B4102F5AF51EF5F573B75CBB5AD38BC845F7A49F82A0966A49C2E3EA5EA0ECD326CD965F1DB402C6FA8B51A4658C5C5E2EC9E214602E55810345408596591009A82E7E7FFACA19EEA299B14A0081A705CB3296EBC14CDF658DCD336EA6D1136881AAEB87B81AB9EE53D5
310
F5EB8BC8362082DA24122F98680A4E7930C01A0079749CEA14382A0783E5EBA5A10F8C098456A03D6A4AEB6BB881E2513747552A5DB22C7EDAF83BD5528081A365F7FF06504B0304140006080000CC70623B000000000000000000000000350000006662782F41393633353835312D344632462D344230382D423046372D37
310
39314545314133324237412F76657274696365732E62696E504B0304140006080800CC70623BF270F1330600000004000000360000006662782F41393633353835312D344632462D344230382D423046372D3739314545314133324237412F747269616E676C65732E62696E636660600000504B0304140006080000CC7062
310
3B000000000000000000000000370000006662782F41393633353835312D344632462D344230382D423046372D3739314545314133324237412F617474726962757465732E62696E504B0304140006080800CC70623B08DA0BD19000000041010000360000006662782F41393633353835312D344632462D344230382D4230
310
46372D3739314545314133324237412F6469726563746F72792E786D6C858F410AC3201045AF22B36F53E9A60B35CBEEBAE80D244E44489C6234F4F835464A48035D0DF398FF9F8AF63D0E6CC63039F212F8F9020C7D47C6792B21C5FE7403D62A1188E2E60C98D7234A5830286103A55745067B9D86B8A3CF9C7F90C11DE6
310
07FB144396D7B6A82D282E9A152AD114D5EF2CB866EEE831B8EEA07A7BB5A8D7D61A2BAAEB7FD5F70921FF497D00504B0304140006080800CC70623BEDD1DC58FD000000A00100003B0000006662782F41393633353835312D344632462D344230382D423046372D3739314545314133324237412F7265736F75726365732F
310
636F72652E786D6C8D504B6E833010BD0A9A6D65B00922041947112427E8052C33A156828DFCA97AFC9A40A576D7CDCCE87D344F8F9FBFE667F689CE6B6B3A6039850C8DB2A336530731DC4903D95970676DF82583CCC8193B5861107C72362E3BA4AC096842428D1D7107A5F7182053CF7474E0D507CE32973124857FE48B
310
540F3961CEF244279DE03EB81420DB9EAC1384436FA353E879B1B182C7A8C75DA3C7F453DF353A1075D537A7BA6464B8F535A99AE14A9A2BBD90E350DD183B5CFABE3AF262350B1EF4FC9351399401471025A527C218A1E53BAB5A5AB765F5469B96525EACF23FA6B88CFF34456DC2A1DCE36E360F82A5202F42F062ED2BAD
310
579969AFDD8A6F504B010214000A0000080000CC70623B3DEE336E79000000790000001B00000000000000000000000000000000006175746F6465736B2D64657369676E2D7061636B6167652E786D6C504B01021400140006080800CC70623BD486FD9CA0000000F40000001300000000000000000000000000B20000005B
310
436F6E74656E745F54797065735D2E786D6C504B01021400140006080800CC70623B853B8169EB0000007C010000080000000000000000000000000083010000636F72652E786D6C504B01021400140006080800CC70623B55019EA25F0000007C000000070000000000000000000000000094020000636E782E786D6C504B
310
01021400140006080800CC70623BDBABAAF470010000D40300000C00000000000000000000000000180300006662782F636F72652E786D6C504B01021400140006080800CC70623B9C113CC27E0000009D0000000B00000000000000000000000000B20400006662782F636E782E786D6C504B01021400140006080800CC70
310
623B7DF2F77C2A010000120200003100000000000000000000000000590500006662782F41393633353835312D344632462D344230382D423046372D3739314545314133324237412F636F72652E786D6C504B01021400140006080800CC70623BAD7543B64E010000330300003000000000000000000000000000D2060000
310
6662782F41393633353835312D344632462D344230382D423046372D3739314545314133324237412F636E782E786D6C504B01021400140006080800CC70623BE75B7789680500003C10000034000000000000000000000000006E0800006662782F41393633353835312D344632462D344230382D423046372D3739314545
310
314133324237412F6F626A656374732E786D6C504B01021400140006080000CC70623B0000000000000000000000003500000000000000000000000000280E00006662782F41393633353835312D344632462D344230382D423046372D3739314545314133324237412F76657274696365732E62696E504B01021400140006
310
080800CC70623BF270F133060000000400000036000000000000000000000000007B0E00006662782F41393633353835312D344632462D344230382D423046372D3739314545314133324237412F747269616E676C65732E62696E504B01021400140006080000CC70623B0000000000000000000000003700000000000000
310
000000000000D50E00006662782F41393633353835312D344632462D344230382D423046372D3739314545314133324237412F617474726962757465732E62696E504B01021400140006080800CC70623B08DA0BD1900000004101000036000000000000000000000000002A0F00006662782F41393633353835312D344632
310
462D344230382D423046372D3739314545314133324237412F6469726563746F72792E786D6C504B01021400140006080800CC70623BEDD1DC58FD000000A00100003B000000000000000000000000000E1000006662782F41393633353835312D344632462D344230382D423046372D3739314545314133324237412F7265
310
736F75726365732F636F72652E786D6C504B0506000000000E000E0080040000641100000000
  0
XRECORD
  5
1F8
102
{ACAD_REACTORS
330
1F7
102
}
330
1F7
100
AcDbXrecord
280
     1
 70
     1
 90
429727718
  1
30362254-06B7-45E0-A893-8CFA70E3D6BC
310
504B03040A0000080000CC70623B3DEE336E79000000790000001B0000006175746F6465736B2D64657369676E2D7061636B6167652E786D6C3C3F786D6C2076657273696F6E3D22312E302220656E636F64696E673D227574662D3822203F3E3C666F726D6174733E3C666F726D61743E687474703A2F2F736368656D612E
310
6175746F6465736B2E636F6D2F64657369676E2D7061636B6167652F323030393C2F666F726D61743E3C2F666F726D6174733E504B0304140006080800CC70623BD486FD9CA0000000F4000000130000005B436F6E74656E745F54797065735D2E786D6C7D8EC10E82300C865F65E91D8A1E8C310C0EEA1BF002731658846E
310
D98AC1B77784ABF1D8FE5FBFBF75BBCE937A534CCEB38643598122B6FEE978D0B0485F9C41B54DDD7D022595594E1A469170414C76A4D9A4D207E29CF43ECE46F218070CC6BECC4078ACAA135ACF422C856C0E68EA1BF5669944DDD7BCDE7B1F8E415D77AECB980613C2E4AC91FC167A2B244592486606FC29C8FD7F045B9A
310
EF7053A7E60B504B0304140006080800CC70623B1EC5D7A3EB0000007C01000008000000636F72652E786D6C8D90416EC3201045AF82665B6103C6756C6122AB4D4ED00B204C5C94182C03558F5F9C3852BBEB6A467FFE9B197D71FC9E6FE8CBACC17AD7032D0820E3B41FAD9B7A48F1820F808E52ACDEC75F36404ECDA687
310
4D0629A6D5A76597B477D1B89855E747B38B2A041301E95B6E7A08FAD3CCAA50296647B8168BD2573599823EBB0CA76447F43862C7BCCF5EAC59410E4DDD9C7973C2755553CCCFA4C603E3040F1565ED3B1FDE4E432BCA0D9622DAF9795FAF464533826484B498524CD807E51D79ED187F21878E10516EF63F505AC67F42C9
310
BA58B1FDDD071640D2FCC87D2045B96591CB3DA85CB7DCE40F504B0304140006080800CC70623B55019EA25F0000007C00000007000000636E782E786D6C4DCB3B0E80201045D1AD90E915ED2CF8AC45050C11660C8261F98AB1B07AC9C97D42D718D865D3E909258CFD00CCE24AC6E326A164D74DC0B4128928FF32603847
310
2BA13128B1252AC747C6BAB984FC68F0B87FE8960A5C09FE86CFB69FBA01504B0304140006080800CC70623B8C9102E971010000D40300000C0000006662782F636F72652E786D6CC5535B6E833010BC8AE5DF0A6C08340F1947A84D4ED00B38C6A128602363A31CBFCB234A53A551FA553EC09AD9F5CE8C31DB9E9B1AF5CA
310
7695D1198E428A91D2D214952E33ECDD315861B4E5CC1AE3BE9561A445A3323CC098B3D21ADFCE9034DA29ED00D5A6503328BA4E398C640D8B0C77F253352214DE4145770A5B214FA2546114020D759C75CE8200340D19DE981F0F6746269C33EFAB6266AB02A655C74A59CCF365BADC27CB5D902ED22848F6340DF238A141
310
BE88E2F57B92BFEDF23523433367AE6A2EEAA455C2A902F398D2751045018D3FA264435F3771F242571B4A1919CA6F9A7C5B3CD9E42BED16F12C776AEB308F40C848FC700B1139D4891EF410CEC810227CC6846F8386402064270EF5C5C709A05E49676C024C61FC95EA45ED154CA5211D1FF4FB8291A913A68E9B83EBBB33
310
E2A7673CDE118E5AE8124C0807CB8377834E366998436B950D7A7746DAD846D4CFD978E0F04FD455FC5D49D2D4C6FE9722321F10997F0F32DC47FE05504B0304140006080800CC70623BFFEA85907E0000009D0000000B0000006662782F636E782E786D6C4DCCD10A83201886E15B91FFDC95D95A811AB6F23E625948A6C3
310
E9D8E5AF46073BFAE0E1E365ED67B3E8ADC3CB78C7815C7240DA3DFC64DCC221C519D7805AC182F7F1EF06C88D9BE6703008B6049F9E274D7A1E938DBB5AE3D6131B2589BA0D3D965551E0B2EA732C9B9A624AAEB41E3A557677029960D9AFB4EF11165F504B0304140006080800CC70623B4FEEA4082C0100001202000031
310
0000006662782F39464131463745442D413632322D343644302D413938332D3331353338454246344243312F636F72652E786D6C8D515B6EC32010BC0AE2AB55850DD871ED0813254D72825EC00192A2C460F1A872FC42ED48ED5F7E00CDCECCCEB26C731F6FE05B39AFADE921293004CA082BB5B9F43086336A21D870E6AC
310
0D7F68109861543DCC30E4ECE26C9C164858139409093556AA051CBC570102714B8F1E7AF1A5C6A11862480C7F2DA6415C878B2A4891CA89C7990F2E050073937C42DE1DB7E4F87ED8A36D4329AA9B3D46DBAEAD504556557BD81DEBDD0761E52CE42C462D17B996298E3E6BE59E35C962CE821E1FF18553435012728A7187
310
0841987E927A8D9B35ADDF70BBC6989599FE4F1427F9A4286A132ABAC49D651EF234CD5CE04CDA78BA3DC2A8FB645D00B9DF8B57E215725C60BCA2A463E54C4CE327C7A65E1C7DB02E7DEFCBF594B864C5CA6CDBD49C957943E9FA5D5FBAF336F90F504B0304140006080800CC70623BAD7543B64E01000033030000300000
310
006662782F39464131463745442D413632322D343644302D413938332D3331353338454246344243312F636E782E786D6CD593CD6EC32010845F0571AD6CE3D48AD20813A9873E410FBD12D82434182C7EAAE6EDBB2424CD25871E7B41D6EC30B3FA84F9E67BB2E40B4234DE8DB46F1925E094D7C6ED479AD3AE5951B2113C
310
789FEE6C943839C1488B4C05DF079FE72A69D8C96C13AAD6B8631503449F83828872B949AC57D26200B826A308D316B4064D6E46FCDA41C05550DC9E483A00797BFD207EFB092A45DE9514C1BBD22178396BD39D891265658C238DEA00936C654E5E433CB65A26D9F6EDB5EBC14EBF49A45CB856E66048291F6939A9A81BB5
310
C8917738143CA680F4AA299D66A042CEB3354A2684DC9D8D178FE0D9B8B41CAAD720F880EE7EF93C0C18769E099ECC04D5A102C8049A8A05632F4DDF376CF1DE0F6BB65C2F8627B65A33C6BB62177CEBBDAD973006829F89F22E814B54F4BC2BE347F8AA8F681390B50FA73F804400B5F542E796F19FF974E7F78DB802FE05
310
E207504B0304140006080800CC70623B16AB87BA640500003C100000340000006662782F39464131463745442D413632322D343644302D413938332D3331353338454246344243312F6F626A656374732E786D6CAD575B6FA33818FD2B887DE6924B3BED8A326A92B68A663B534DD4D13E548A0C38942D60649B369D5FBFC7
310
600890A493BDE42160637FD7F31D7FF63E6FB3D478A55C242CBF3247B66B1A340F5994E4F19559CA8D75611A9F7D8F33263BCB4C232719BD32D5B4E97B316765A1A722BA21652A07B3B7B33F0D11D29C9A46981221AE4C113ED38CD8A4942CA2E2C58E882476BCD9DA23BB5ED8171B73523C0F841684D35CC252CCE79062D4
310
468DFA43D7747CCF51DF7D4FFDEB5593E3AB9CCA9FBEFE241792E4E19EB28198C968BAB8199F5D5A67D3E9C49A9E8F47D6EC76B6B0469F26EEFC7C3EBFBCBEB98462213924694B38DD98FE1D62C393D073EA4FADC5DAF04326852CCF6958F90F0F2B9BB5C48816348F90C7840A68EB78EDF68723159BCEE7891A6B95DDE9D3
310
BCEAEEE8086A6C6F9E5D4B59F0175C10A7A0820BAA5055C7473B5AE3CFDD452D602CD5DF12616444529E90D448938013FE6EFA58AA96F85E4F8C42275708571E98FE6827AF6B2B4AE3D7D83D64E5A64C53054DD3AF90BD06FEA9149565C94FCA0F6B834DC85599E4F2423B24DF0B6AFA979E534DFA9E7A4CC6FA631D486393
310
921829879BF5D781A373557BCB85E97FB90DB62B558F8795179C15944B051F40AB495CF35451D26A4727654E6D8033BD98EF82F21D91FF8AF2DD9982BCF1643BDD4EB516C9492E368C67C88DED563FC36D5EACF66DFF057C3658BDBFA69DF9578B3DA735B64F18C7F20770A9D45CFCF7FCF563D6456A277DBEF78A02637CA2
310
43B90A490AEAB94F72244481D24819A6C0E59B606BFA4B3025981DBB48EAB701D97BF19C577CC77F2D1B6C55A9EF3C732474C0B727303F625995056C3B02963D9EAC146BE78EC5FCEC7FA999EBC5EACBAAE41B12D27B4D2C0BBA49F244E2ECDC81B76B502F113D8F5EE8FB1BE3111CDD4FC2AA9B844CAB1288B68AB90A7CDC
310
1C166AB0D3DC5310625FCC14E779BFD0709F8890A629C9292B1B2DED31A4B0DA928CEE135085754027E3018A397D4D5427D15BD1330B677DC8934285AC3DF45A9EB68FF8F2B8FC0A509AFEECFD0FF2DE25CC6047F7214B195F07EFEB9A094D800F7BFAE8FED187B78EA8A3A400F115961BCAD1215E47C966530AF0EE8128FE
310
58CEBB996A8964FFA529A046635D9353B0336A8F700DDF46271A024E70B0B37C9DE01847591E54DED53D54202AB947E4076556AC49C6CA5C9E1226B7F1A7B1BE15DEED62C41B91E1B3E9AFAAA735036547343A925075041DF0A9979E893B391F8FCFA6967B3EFB644DCF6E5CEBFAE272625DCC6FAF3FB93793C5F90CE1EF57
310
407342756B10D1C489E8953CD1617E5CEECAD6F4EF8914CE5D5D504E5C3F1F9736DA62CFC11E00BCDDB8CC8A9466349744C1F75EBDA4DF09BA8A9E8C7A7E9991989E20E5DBDD6A6003664ED8F7A04A8DBE0DF6EAD9B9AA858342E47399053949D2C146EDB85DE4B176BB0965FBAC19BD19AA918E27FA50C1D22402E144464C
310
59462568E704B6E71915404CB72B8FF4EDE184DDAF753F284990D2C6926782963815403548A70C657FDEF80D2D9CEAA2AE4C1C76F60BFE74219A06527D6582DF6412526107381E55E353090704D085B52408D0933C4ED159D79BDA71BB4BC506F4831350EB6F979CD22D69BF7AC49B91A2C0A9DDA3D5CA36AD20FC478E37E6
310
1844E2352865EBCB6EA275A652E3836BE04EFB400BF1A2556F515F1FBB35B2AB35BD889C744FFA1004B5544B121E57F70215746DD2F5E2C1412B602CBF19455AC6C8E5E9922C4E01E65215385004546899059180EAFCF7A707CE7017CD8CDB0410789AB32C63B91E5CEBBBACB17AC6CD347A022D5075FD106377347AAABA7E
310
7D11590744509B44E205134DC1290F06580320F78E537D3D73540E06CB970B431F185308AD40BBD794D6D77003C5A36E8EAA54BA64597CD8F83BD552A080A365F7FF06504B0304140006080000CC70623B000000000000000000000000350000006662782F39464131463745442D413632322D343644302D413938332D3331
310
353338454246344243312F76657274696365732E62696E504B0304140006080800CC70623BF270F1330600000004000000360000006662782F39464131463745442D413632322D343644302D413938332D3331353338454246344243312F747269616E676C65732E62696E636660600000504B0304140006080000CC70623B
310
000000000000000000000000370000006662782F39464131463745442D413632322D343644302D413938332D3331353338454246344243312F617474726962757465732E62696E504B0304140006080800CC70623B08DA0BD19000000041010000360000006662782F39464131463745442D413632322D343644302D413938
310
332D3331353338454246344243312F6469726563746F72792E786D6C858F410AC3201045AF22B36F53E9A60B35CBEEBAE80D244E44489C6234F4F835464A48035D0DF398FF9F8AF63D0E6CC63039F212F8F9020C7D47C6792B21C5FE7403D62A1188E2E60C98D7234A5830286103A55745067B9D86B8A3CF9C7F90C11DE607
310
FB144396D7B6A82D282E9A152AD114D5EF2CB866EEE831B8EEA07A7BB5A8D7D61A2BAAEB7FD5F70921FF497D00504B0304140006080800CC70623B0D6EF93BFE000000A00100003B0000006662782F39464131463745442D413632322D343644302D413938332D3331353338454246344243312F7265736F75726365732F63
310
6F72652E786D6C8D50596E833010BD0A9ADFCA60B334011947A8694ED00B586642AC041B79A97AFC9A40A5F6AF3F33A3B7689E1E3F7DCD8FEC139DD7D6F4C0720A191A65476DA61E62B892236427C19DB5E1970C322367EC618541F0C9D9B8EC90B226A009093576C41D94DE63804C3DD2D18357379C652E63480A7FCF17A9
310
EE72C29CE5894E3AC17D702940B63D59270887DE46A7D0F36263058F518FBB468FE9A7BE6A7420864373B8D4873369AA8691FA421B3294352543C5CAF65C0F6FEF43CB8BD52C78D0F34F46E550061C419494B6843142CB0F5677F4B52BEB177AEC28E5C52AFF638ACBF84F53D42654E51E77B379102C05791282176B5F693D
310
CB4C7BED567C03504B010214000A0000080000CC70623B3DEE336E79000000790000001B00000000000000000000000000000000006175746F6465736B2D64657369676E2D7061636B6167652E786D6C504B01021400140006080800CC70623BD486FD9CA0000000F40000001300000000000000000000000000B20000005B
310
436F6E74656E745F54797065735D2E786D6C504B01021400140006080800CC70623B1EC5D7A3EB0000007C010000080000000000000000000000000083010000636F72652E786D6C504B01021400140006080800CC70623B55019EA25F0000007C000000070000000000000000000000000094020000636E782E786D6C504B
310
01021400140006080800CC70623B8C9102E971010000D40300000C00000000000000000000000000180300006662782F636F72652E786D6C504B01021400140006080800CC70623BFFEA85907E0000009D0000000B00000000000000000000000000B30400006662782F636E782E786D6C504B01021400140006080800CC70
310
623B4FEEA4082C0100001202000031000000000000000000000000005A0500006662782F39464131463745442D413632322D343644302D413938332D3331353338454246344243312F636F72652E786D6C504B01021400140006080800CC70623BAD7543B64E010000330300003000000000000000000000000000D5060000
310
6662782F39464131463745442D413632322D343644302D413938332D3331353338454246344243312F636E782E786D6C504B01021400140006080800CC70623B16AB87BA640500003C1000003400000000000000000000000000710800006662782F39464131463745442D413632322D343644302D413938332D3331353338
310
454246344243312F6F626A656374732E786D6C504B01021400140006080000CC70623B0000000000000000000000003500000000000000000000000000270E00006662782F39464131463745442D413632322D343644302D413938332D3331353338454246344243312F76657274696365732E62696E504B01021400140006
310
080800CC70623BF270F133060000000400000036000000000000000000000000007A0E00006662782F39464131463745442D413632322D343644302D413938332D3331353338454246344243312F747269616E676C65732E62696E504B01021400140006080000CC70623B0000000000000000000000003700000000000000
310
000000000000D40E00006662782F39464131463745442D413632322D343644302D413938332D3331353338454246344243312F617474726962757465732E62696E504B01021400140006080800CC70623B08DA0BD190000000410100003600000000000000000000000000290F00006662782F39464131463745442D413632
310
322D343644302D413938332D3331353338454246344243312F6469726563746F72792E786D6C504B01021400140006080800CC70623B0D6EF93BFE000000A00100003B000000000000000000000000000D1000006662782F39464131463745442D413632322D343644302D413938332D3331353338454246344243312F7265
310
736F75726365732F636F72652E786D6C504B0506000000000E000E0080040000641100000000
  0
XRECORD
  5
175
102
{ACAD_REACTORS
330
173
102
}
330
173
100
AcDbXrecord
280
     1
270
     1
271
     1
  0
XRECORD
  5
174
102
{ACAD_REACTORS
330
173
102
}
330
173
100
AcDbXrecord
280
     1
270
     1
271
     1
  0
XRECORD
  5
1FB
102
{ACAD_REACTORS
330
173
102
}
330
173
100
AcDbXrecord
280
     1
 70
     0
 90
1673772943
  1
ECE7A1D2-D628-4531-984C-D00F80459256
310
504B03040A0000080000CC70623B3DEE336E79000000790000001B0000006175746F6465736B2D64657369676E2D7061636B6167652E786D6C3C3F786D6C2076657273696F6E3D22312E302220656E636F64696E673D227574662D3822203F3E3C666F726D6174733E3C666F726D61743E687474703A2F2F736368656D612E
310
6175746F6465736B2E636F6D2F64657369676E2D7061636B6167652F323030393C2F666F726D61743E3C2F666F726D6174733E504B0304140006080800CC70623BD486FD9CA0000000F4000000130000005B436F6E74656E745F54797065735D2E786D6C7D8EC10E82300C865F65E91D8A1E8C310C0EEA1BF002731658846E
310
D98AC1B77784ABF1D8FE5FBFBF75BBCE937A534CCEB38643598122B6FEE978D0B0485F9C41B54DDD7D022595594E1A469170414C76A4D9A4D207E29CF43ECE46F218070CC6BECC4078ACAA135ACF422C856C0E68EA1BF5669944DDD7BCDE7B1F8E415D77AECB980613C2E4AC91FC167A2B244592486606FC29C8FD7F045B9A
310
EF7053A7E60B504B0304140006080800CC70623BD9DDAED0EC0000007C01000008000000636F72652E786D6C8D90416EC3201045AF82665B61836D9CD8C2444DD39CA01740405C94182C03558F5F9C3852BBEB6A467FFE9B197D7EF89E6EE8CB2CC17A37002D0820E394D7D68D03A478C17B4007C117EFE32F1B20272733C0
310
2A83E0E3E2D3BC49CABB685CCCAAF3DA6CA20CC14440EA969B0182FA34932C648AD911AEC52CD5558EA6A0CF2EC329598D1E47ACCEFBECC59A050463A7EA5833865FEBDD0E37353BE3EE8DBDE3F6786A48D375FBF6CC78B9C282473B3DEFABC5C86834888A900E538A49F5419B9EB47DD5BC907D4F082F57FB1F28CDFA9F50
310
B22ED6D5F6EE030B20687EE43E10BC5CB3C8E51E54AE6B6EE207504B0304140006080800CC70623B55019EA25F0000007C00000007000000636E782E786D6C4DCB3B0E80201045D1AD90E915ED2CF8AC45050C11660C8261F98AB1B07AC9C97D42D718D865D3E909258CFD00CCE24AC6E326A164D74DC0B4128928FF326038
310
472BA13128B1252AC747C6BAB984FC68F0B87FE8960A5C09FE86CFB69FBA01504B0304140006080800CC70623BA24EB22D72010000D40300000C0000006662782F636F72652E786D6CC5535B6E833010BC8AE5DF0A6C5E49888CA3A6694ED00B38E05014B091B1518EDFE511A5A9D228FD2A1F60CDEC7A67C6986DCE4D8D7A
310
69BA4AAB0C073EC548AA5C17952A33ECECD15B61B4E1CC686DBF9561A44423333CC098B3D268D7CE50AE9595CA02AA74216750749DB418E5352C32DCE59FB211BE70162ABA93DF8AFC244AE9073ED050C759670D0840D390E18DF9F1706664C23973AE2A66B62A605A75ACA4C13C4976E1364A12EF355A2EBD384AF65EFA96
310
BC7B8BED2EA6719AAE16FB8491A199335B351775B991C2CA02F390D2D40B028F861F41BCA68B7518BFD0D59A524686F29B26D7164F36B94AD9289CE54E6D1DE6010819891F6E21228B3AD1831EC219194284CF98F06DD01008846CC5A1BEF83801D4CBDC6A1303536877A57A513B0953A94FC707FDBE6064EA84A9E3E6E0FA
310
EE8CF0E9198F7784A316AA0413C2C2F2E0ECA0934D1AE6D05A69BCDE9E91D2A611F573361E38FC1375157F5752AE6B6DFE4B11990F88CCBF0719EE23FF02504B0304140006080800CC70623B408A7D3B7C0000009D0000000B0000006662782F636E782E786D6C4DCCD10A83201886E15B91FFDC552A92A0064DBC8F581632
310
D3703A76F9ABD1C18E3E78F878E5F0D9027ABBFCF2292AE86E2D20171F69F6715550CB827B40839639A5F2770314A7CD293819B45C73AAFB45B35BA61ACAA1C1C7E7855C58C15BC331339661262CC762340413D68D77DA5B42298546CBE6573AF60CEB2F504B0304140006080800CC70623B449FB9BD290100001202000031
310
0000006662782F36394639363044362D344446342D343946362D394244322D3234314243333846323333332F636F72652E786D6C8D515B6EC32010BC0AE22B55850D98B871848994463E412FE002495162B07854397EA176A4F62F3F2C9A9D991D587EB84F37F0AD7D30CEF6905418026DA553C65E7A98E219ED203808EE9D
310
8B7F6810D871D23D2C3014FCE25D9A57483A1BB58D19B54EE9151C43D0110279CB971E06F9A5A7B11A53CC8C70ADE6515EC78BAE4895DB992778883E0700CB907242D17643D7E2538BD869608875438BBAE38922CAC8F1BDD90DB4691A5E2F42C153326A951B95E398B3D1FE599322163C9AE9115F7A3D46ADA0A018778810
310
84E907617BDCEE297BC5BB3DC6BC2EF47FA234AB2745C9D8D8D035EE220B50105E2F0DC1954B9FB747187D9F9D8FA0CCDB042D5FA0C015C65B42DF78BD10F3F3B363CB56C7109DCFDFBBB97E662ED92EB62D13BC2E1BCAE5777DB9966D8A1F504B0304140006080800CC70623BAD7543B64E01000033030000300000006662
310
782F36394639363044362D344446342D343946362D394244322D3234314243333846323333332F636E782E786D6CD593CD6EC32010845F0571AD6CE3D48AD20813A9873E410FBD12D82434182C7EAAE6EDBB2424CD25871E7B41D6EC30B3FA84F9E67BB2E40B4234DE8DB46F1925E094D7C6ED479AD3AE5951B2113C789FEE
310
6C943839C1488B4C05DF079FE72A69D8C96C13AAD6B8631503449F83828872B949AC57D26200B826A308D316B4064D6E46FCDA41C05550DC9E483A00797BFD207EFB092A45DE9514C1BBD22178396BD39D891265658C238DEA00936C654E5E433CB65A26D9F6EDB5EBC14EBF49A45CB856E66048291F6939A9A81BB5C89177
310
38143CA680F4AA299D66A042CEB3354A2684DC9D8D178FE0D9B8B41CAAD720F880EE7EF93C0C18769E099ECC04D5A102C8049A8A05632F4DDF376CF1DE0F6BB65C2F8627B65A33C6BB62177CEBBDAD973006829F89F22E814B54F4BC2BE347F8AA8F681390B50FA73F804400B5F542E796F19FF974E7F78DB802FE05E20750
310
4B0304140006080800CC70623B8D05915C650500003B100000340000006662782F36394639363044362D344446342D343946362D394244322D3234314243333846323333332F6F626A656374732E786D6CAD575B6FA33814FE2B887D06429276DA1565D4266D158D3A339A6846FB502932E050B66023DB74D2FDF5FB190C01
310
9276B2973C046C8ECFF53B17071F77456EBD502133CEAE6CDF9DD81665314F32965ED995DA3A17B6F5310C04E7AA47665B8C14F4CAD6DB7618A48257A5D94AE89654B91AEDDEDDFC61C998326A5B714EA4BCB265FC440BE2924AF184CA6737218AB8E976E7FA6E4338649B0A523E8D98964450A6A029F619B8588D52FE7039
310
B1BD30F0F4F730D0FF866AF6369557DB33949F31A9088B0F848DD8CCFCF9F2767A76E99CCDE733677E3EF59D9BBB9BA5E37F984D16E78BC5E5F5ED25044B25C0C96822E8D60EEFE11B91C581D77CEA34368A1F5329E68CD1B8B61F16D63A1B8E092D294B10C78C4A48EB593D192E7DED9BDEE7995E1B91FDEDD3ACEA9FE831
310
6A756F9F7D4D79F4274C90A7A04248AA51D5F8C718DAE06FB2F75AC4796EBE65D22A88A22223B995679120E2D50E41AA49C260C046A35368846B0BECD0DFF3EBEB8AD4F835768F69B9ADF25C43D30E6B646F807FAA64AD59F61715C7A54127C4AACA98BA3006A9D792DAE165E0D59B61A01FB3A9F9D838D2DAE62445C86166
310
F37564E842E7DE6A69879FEEA2DD5AE7E371E1A5E025154AC307D06A03D73EB5978C58FFA4C8E9033066E0F3BD53BEC1F39F91BE7B55103791EDE6BBB991A2046172CB4581D8B893FA674DDA17A77B3B7C413D1B511FD2743BFF8A38F03A658705E3ADF8015C3A3417FF3D7E439FF591DA0B5F18BC20C1B8981957AE6392A3
310
F43C640C01D1A0B4728E2DD4F26DB4B3C3152A252A3B4E913CEC1C72F012782FF88EFF8637AA552DBEF76408E8A8DE9E50F9E1CB3A2DA0DB1B6039A893B56063DC5B3E3FFB5F72E67AB9FEB4AEC496C4F4C1149625DD662C53E89D7BF0F6151A046260D1337DFDC94502430F83B0EE07A130A224BCAD7DAE1D9FB6CD422FF6
310
920702629C4BB9AE79C12F243C6432A6794E18E5552BA56B431AAB5D91317302B2B071E86C3A42B1A02F999E24061403B5D0EB639195DA655DD3EBEAB4FB862DDF579F014AD0E73C22F99E28DA57FB98E75C6CA2D74D53086D600F4786E0FE3144B771A8A7B900F03594DB8A633CBC49B2EDB69228BB479CF863B5E807AAAB
310
23872F6DFEB4129B949CA33823F58830E86D65621E10047D9DB34D862E8EAC3C2ABC2F7B2C40D67CDFE01F5545B92105AF983AC54D93D69E56FB8E797F88913F898A9FEC705D3F9D1B54EC8426FB500D40A03BD0119B06E1B95DDC7EB8F6975367793EBD70E66733DFB9BC982F9CE564727731999F5D4ECFCE3B8D6A4DC2A0
310
6D50FD148437D110834A64C6CDDF57FBACB5C307A2A477DFE4939736CFEF2B175371E0E10CF0DD1D5C15654E0BCA14D1E87DD02FF93782A162C0A3D95F1524A52770F972BF1EE9809D13CE7DD599467F8ECE9ADD85CE85A34CD45355448C64F9E8A031DC2D596ACC6E5DD93D9B82DE2EF5CAF81363A8E47996A0DE24564A79
310
4115AACE09C55E14540231FDA13C319787134EBF34E3A022514E5B4D9E0826E25C02D5805B15ABE1BEF51B26383D445DD9E875EE33FE4C22DA16427D65A3BCA92CA6D28DD01DF5DC53330704308475351050232CCD31583787BA75774AFB06E5070DD0C8EF484E19968C5D83BA5B90B244D31E54D55A372320FE4786B7EA58
310
44E135AA5467CB7EA333A61683CC6A8C3257034C10CF46F40EF9F5BE59BE5BD30C3C72D235E95D10345C1D45445A5F0BB47E46A5EBE5570F9380B5FA629579952296A773720405982B9DE04011506178964401AA8BDF1FBF0A8EAB6861DD6580C0E38217056766716DAEB2D6FA0917D3E4116581EADB879C4E7CFFB11EFACD
310
3D641311495D92C8676CB409A72D18610D803CE8A626049E8EC1887CB5B44CC39883690DDA8399B4B9855B481E7D71D4A9D22F96E5BB73BF5793020C02137BF837504B0304140006080000CC70623B000000000000000000000000350000006662782F36394639363044362D344446342D343946362D394244322D32343142
310
43333846323333332F76657274696365732E62696E504B0304140006080800CC70623BF270F1330600000004000000360000006662782F36394639363044362D344446342D343946362D394244322D3234314243333846323333332F747269616E676C65732E62696E636660600000504B0304140006080000CC70623B0000
310
00000000000000000000370000006662782F36394639363044362D344446342D343946362D394244322D3234314243333846323333332F617474726962757465732E62696E504B0304140006080800CC70623B08DA0BD19000000041010000360000006662782F36394639363044362D344446342D343946362D394244322D
310
3234314243333846323333332F6469726563746F72792E786D6C858F410AC3201045AF22B36F53E9A60B35CBEEBAE80D244E44489C6234F4F835464A48035D0DF398FF9F8AF63D0E6CC63039F212F8F9020C7D47C6792B21C5FE7403D62A1188E2E60C98D7234A5830286103A55745067B9D86B8A3CF9C7F90C11DE607FB14
310
4396D7B6A82D282E9A152AD114D5EF2CB866EEE831B8EEA07A7BB5A8D7D61A2BAAEB7FD5F70921FF497D00504B0304140006080800CC70623BCA768048FE000000A00100003B0000006662782F36394639363044362D344446342D343946362D394244322D3234314243333846323333332F7265736F75726365732F636F72
310
652E786D6C8D50596E833010BD0A9ADFCA60D600328E9AA639412F609909B1126CE4A5EAF16B0295DABFFECC8CDEA2797AECF8353F924FB44E193D409E5248504B332A3D0D10FC95B4901C39B3C6F85F3248B49871801506CE266BC2B243D2688FDA47549B11775038871E12F988C7004EDE7016A9083E2ADC3D5D84BC8B09
310
D33C8D74D471E6BC8D0192EDC93A815B742658898E651BCB59086ADC356A8C3FD555A1055ED7E7E254D615792D0F075295F585746FF53B694EE78A565DD736979A65AB9933AFE69F8CD2A2F038022F28ED489E135A7CE4554F9BBEA85E68DB53CAB255FEC71496F19FA6A0B42F8B3DEE6673C0F318E4497096AD7DC5F52C33
310
EEB55BFE0D504B010214000A0000080000CC70623B3DEE336E79000000790000001B00000000000000000000000000000000006175746F6465736B2D64657369676E2D7061636B6167652E786D6C504B01021400140006080800CC70623BD486FD9CA0000000F40000001300000000000000000000000000B20000005B436F
310
6E74656E745F54797065735D2E786D6C504B01021400140006080800CC70623BD9DDAED0EC0000007C010000080000000000000000000000000083010000636F72652E786D6C504B01021400140006080800CC70623B55019EA25F0000007C000000070000000000000000000000000095020000636E782E786D6C504B0102
310
1400140006080800CC70623BA24EB22D72010000D40300000C00000000000000000000000000190300006662782F636F72652E786D6C504B01021400140006080800CC70623B408A7D3B7C0000009D0000000B00000000000000000000000000B50400006662782F636E782E786D6C504B01021400140006080800CC70623B
310
449FB9BD290100001202000031000000000000000000000000005A0500006662782F36394639363044362D344446342D343946362D394244322D3234314243333846323333332F636F72652E786D6C504B01021400140006080800CC70623BAD7543B64E010000330300003000000000000000000000000000D20600006662
310
782F36394639363044362D344446342D343946362D394244322D3234314243333846323333332F636E782E786D6C504B01021400140006080800CC70623B8D05915C650500003B10000034000000000000000000000000006E0800006662782F36394639363044362D344446342D343946362D394244322D32343142433338
310
46323333332F6F626A656374732E786D6C504B01021400140006080000CC70623B0000000000000000000000003500000000000000000000000000250E00006662782F36394639363044362D344446342D343946362D394244322D3234314243333846323333332F76657274696365732E62696E504B010214001400060808
310
00CC70623BF270F13306000000040000003600000000000000000000000000780E00006662782F36394639363044362D344446342D343946362D394244322D3234314243333846323333332F747269616E676C65732E62696E504B01021400140006080000CC70623B00000000000000000000000037000000000000000000
310
00000000D20E00006662782F36394639363044362D344446342D343946362D394244322D3234314243333846323333332F617474726962757465732E62696E504B01021400140006080800CC70623B08DA0BD190000000410100003600000000000000000000000000270F00006662782F36394639363044362D344446342D
310
343946362D394244322D3234314243333846323333332F6469726563746F72792E786D6C504B01021400140006080800CC70623BCA768048FE000000A00100003B000000000000000000000000000B1000006662782F36394639363044362D344446342D343946362D394244322D3234314243333846323333332F7265736F
310
75726365732F636F72652E786D6C504B0506000000000E000E0080040000621100000000
  0
XRECORD
  5
176
102
{ACAD_REACTORS
330
173
102
}
330
173
100
AcDbXrecord
280
     1
270
     1
271
     1
  0
XRECORD
  5
177
102
{ACAD_REACTORS
330
173
102
}
330
173
100
AcDbXrecord
280
     1
270
     1
271
     1
  0
XRECORD
  5
5F8
102
{ACAD_REACTORS
330
5F7
102
}
330
5F7
100
AcDbXrecord
280
     1
102
DISPLAYNAME
  1
Imperial24
102
FLAGS
 90
        0
  0
XRECORD
  5
5F4
102
{ACAD_REACTORS
330
5F3
102
}
330
5F3
100
AcDbXrecord
280
     1
102
DISPLAYNAME
  1
Metric50
102
FLAGS
 90
        0
  0
CELLSTYLEMAP
  5
5E9
102
{ACAD_REACTORS
330
162
102
}
330
162
100
AcDbCellStyleMap
 90
        3
300
CELLSTYLE
  1
TABLEFORMAT_BEGIN
 90
        5
170
     1
 91
        0
 92
    32768
 62
   257
 93
        1
300
CONTENTFORMAT
  1
CONTENTFORMAT_BEGIN
 90
        0
 91
        0
 92
      512
 93
        0
300

 40
0.0
140
1.0
 94
        5
 62
     0
340
11
144
6.0
309
CONTENTFORMAT_END
171
     1
301
MARGIN
  1
CELLMARGIN_BEGIN
 40
1.5
 40
1.5
 40
1.5
 40
1.5
 40
4.5
 40
4.5
309
CELLMARGIN_END
 94
        6
 95
        1
302
GRIDFORMAT
  1
GRIDFORMAT_BEGIN
 90
        0
 91
        1
 62
     0
 92
       -2
340
14
 93
        0
 40
1.125
309
GRIDFORMAT_END
 95
        2
302
GRIDFORMAT
  1
GRIDFORMAT_BEGIN
 90
        0
 91
        1
 62
     0
 92
       -2
340
14
 93
        0
 40
1.125
309
GRIDFORMAT_END
 95
        4
302
GRIDFORMAT
  1
GRIDFORMAT_BEGIN
 90
        0
 91
        1
 62
     0
 92
       -2
340
14
 93
        0
 40
1.125
309
GRIDFORMAT_END
 95
        8
302
GRIDFORMAT
  1
GRIDFORMAT_BEGIN
 90
        0
 91
        1
 62
     0
 92
       -2
340
14
 93
        0
 40
1.125
309
GRIDFORMAT_END
 95
       16
302
GRIDFORMAT
  1
GRIDFORMAT_BEGIN
 90
        0
 91
        1
 62
     0
 92
       -2
340
14
 93
        0
 40
1.125
309
GRIDFORMAT_END
 95
       32
302
GRIDFORMAT
  1
GRIDFORMAT_BEGIN
 90
        0
 91
        1
 62
     0
 92
       -2
340
14
 93
        0
 40
1.125
309
GRIDFORMAT_END
309
TABLEFORMAT_END
  1
CELLSTYLE_BEGIN
 90
        1
 91
        1
300
_TITLE
309
CELLSTYLE_END
300
CELLSTYLE
  1
TABLEFORMAT_BEGIN
 90
        5
170
     1
 91
        0
 92
        0
 62
   257
 93
        1
300
CONTENTFORMAT
  1
CONTENTFORMAT_BEGIN
 90
        0
 91
        0
 92
      512
 93
        0
300

 40
0.0
140
1.0
 94
        5
 62
     0
340
11
144
4.5
309
CONTENTFORMAT_END
171
     1
301
MARGIN
  1
CELLMARGIN_BEGIN
 40
1.5
 40
1.5
 40
1.5
 40
1.5
 40
4.5
 40
4.5
309
CELLMARGIN_END
 94
        6
 95
        1
302
GRIDFORMAT
  1
GRIDFORMAT_BEGIN
 90
        0
 91
        1
 62
     0
 92
       -2
340
14
 93
        0
 40
1.125
309
GRIDFORMAT_END
 95
        2
302
GRIDFORMAT
  1
GRIDFORMAT_BEGIN
 90
        0
 91
        1
 62
     0
 92
       -2
340
14
 93
        0
 40
1.125
309
GRIDFORMAT_END
 95
        4
302
GRIDFORMAT
  1
GRIDFORMAT_BEGIN
 90
        0
 91
        1
 62
     0
 92
       -2
340
14
 93
        0
 40
1.125
309
GRIDFORMAT_END
 95
        8
302
GRIDFORMAT
  1
GRIDFORMAT_BEGIN
 90
        0
 91
        1
 62
     0
 92
       -2
340
14
 93
        0
 40
1.125
309
GRIDFORMAT_END
 95
       16
302
GRIDFORMAT
  1
GRIDFORMAT_BEGIN
 90
        0
 91
        1
 62
     0
 92
       -2
340
14
 93
        0
 40
1.125
309
GRIDFORMAT_END
 95
       32
302
GRIDFORMAT
  1
GRIDFORMAT_BEGIN
 90
        0
 91
        1
 62
     0
 92
       -2
340
14
 93
        0
 40
1.125
309
GRIDFORMAT_END
309
TABLEFORMAT_END
  1
CELLSTYLE_BEGIN
 90
        2
 91
        1
300
_HEADER
309
CELLSTYLE_END
300
CELLSTYLE
  1
TABLEFORMAT_BEGIN
 90
        5
170
     1
 91
        0
 92
        0
 62
   257
 93
        1
300
CONTENTFORMAT
  1
CONTENTFORMAT_BEGIN
 90
        0
 91
        0
 92
      512
 93
        0
300

 40
0.0
140
1.0
 94
        2
 62
     0
340
11
144
4.5
309
CONTENTFORMAT_END
171
     1
301
MARGIN
  1
CELLMARGIN_BEGIN
 40
1.5
 40
1.5
 40
1.5
 40
1.5
 40
4.5
 40
4.5
309
CELLMARGIN_END
 94
        6
 95
        1
302
GRIDFORMAT
  1
GRIDFORMAT_BEGIN
 90
        0
 91
        1
 62
     0
 92
       -2
340
14
 93
        0
 40
1.125
309
GRIDFORMAT_END
 95
        2
302
GRIDFORMAT
  1
GRIDFORMAT_BEGIN
 90
        0
 91
        1
 62
     0
 92
       -2
340
14
 93
        0
 40
1.125
309
GRIDFORMAT_END
 95
        4
302
GRIDFORMAT
  1
GRIDFORMAT_BEGIN
 90
        0
 91
        1
 62
     0
 92
       -2
340
14
 93
        0
 40
1.125
309
GRIDFORMAT_END
 95
        8
302
GRIDFORMAT
  1
GRIDFORMAT_BEGIN
 90
        0
 91
        1
 62
     0
 92
       -2
340
14
 93
        0
 40
1.125
309
GRIDFORMAT_END
 95
       16
302
GRIDFORMAT
  1
GRIDFORMAT_BEGIN
 90
        0
 91
        1
 62
     0
 92
       -2
340
14
 93
        0
 40
1.125
309
GRIDFORMAT_END
 95
       32
302
GRIDFORMAT
  1
GRIDFORMAT_BEGIN
 90
        0
 91
        1
 62
     0
 92
       -2
340
14
 93
        0
 40
1.125
309
GRIDFORMAT_END
309
TABLEFORMAT_END
  1
CELLSTYLE_BEGIN
 90
        3
 91
        2
300
_DATA
309
CELLSTYLE_END
  0
ENDSEC
  0
SECTION
  2
ACDSDATA
 70
     2
 71
     8
  0
ACDSSCHEMA
 90
        0
  1
AcDb_Thumbnail_Schema
  2
AcDbDs::ID
280
    10
 91
        8
  2
Thumbnail_Data
280
    15
 91
        0
101
ACDSRECORD
 95
        0
 90
        1
  2
AcDbDs::TreatedAsObjectData
280
     1
291
     1
101
ACDSRECORD
 95
        0
 90
        2
  2
AcDbDs::Legacy
280
     1
291
     1
101
ACDSRECORD
  1
AcDbDs::ID
 90
        3
  2
AcDs:Indexable
280
     1
291
     1
101
ACDSRECORD
  1
AcDbDs::ID
 90
        4
  2
AcDbDs::HandleAttribute
280
     7
282
     1
  0
ACDSSCHEMA
 90
        1
  1
AcDbDs::TreatedAsObjectDataSchema
  2
AcDbDs::TreatedAsObjectData
280
     1
 91
        0
  0
ACDSSCHEMA
 90
        2
  1
AcDbDs::LegacySchema
  2
AcDbDs::Legacy
280
     1
 91
        0
  0
ACDSSCHEMA
 90
        3
  1
AcDbDs::IndexedPropertySchema
  2
AcDs:Indexable
280
     1
 91
        0
  0
ACDSSCHEMA
 90
        4
  1
AcDbDs::HandleAttributeSchema
  2
AcDbDs::HandleAttribute
280
     7
 91
        1
284
     1
  0
ACDSRECORD
 90
        0
  2
AcDbDs::ID
280
    10
320
22
  2
Thumbnail_Data
280
    15
 94
      896
310
89504E470D0A1A0A0000000D49484452000001000000009108030000001BE1960600000300504C5445212830FFFFFF2128300000000000000000000000000000000000000000000000000000330000660000990000CC0000FF0033000033330033660033990033CC0033FF0066000066330066660066990066CC0066FF0099
310
000099330099660099990099CC0099FF00CC0000CC3300CC6600CC9900CCCC00CCFF00FF0000FF3300FF6600FF9900FFCC00FFFF3300003300333300663300993300CC3300FF3333003333333333663333993333CC3333FF3366003366333366663366993366CC3366FF3399003399333399663399993399CC3399FF33CC00
310
33CC3333CC6633CC9933CCCC33CCFF33FF0033FF3333FF6633FF9933FFCC33FFFF6600006600336600666600996600CC6600FF6633006633336633666633996633CC6633FF6666006666336666666666996666CC6666FF6699006699336699666699996699CC6699FF66CC0066CC3366CC6666CC9966CCCC66CCFF66FF0066
310
FF3366FF6666FF9966FFCC66FFFF9900009900339900669900999900CC9900FF9933009933339933669933999933CC9933FF9966009966339966669966999966CC9966FF9999009999339999669999999999CC9999FF99CC0099CC3399CC6699CC9999CCCC99CCFF99FF0099FF3399FF6699FF9999FFCC99FFFFCC0000CC00
310
33CC0066CC0099CC00CCCC00FFCC3300CC3333CC3366CC3399CC33CCCC33FFCC6600CC6633CC6666CC6699CC66CCCC66FFCC9900CC9933CC9966CC9999CC99CCCC99FFCCCC00CCCC33CCCC66CCCC99CCCCCCCCCCFFCCFF00CCFF33CCFF66CCFF99CCFFCCCCFFFFFF0000FF0033FF0066FF0099FF00CCFF00FFFF3300FF3333
310
FF3366FF3399FF33CCFF33FFFF6600FF6633FF6666FF6699FF66CCFF66FFFF9900FF9933FF9966FF9999FF99CCFF99FFFFCC00FFCC33FFCC66FFCC99FFCCCCFFCCFFFFFF00FFFF33FFFF66FFFF99FFFFCCFFFFFF0000000D0D0D1A1A1A2828283535354343435050505D5D5D6B6B6B787878868686939393A1A1A1AEAEAEBB
310
BBBBC9C9C9D6D6D6E4E4E4F1F1F1FFFFFF0000000000000000000000000000000000000000000000000000000000002E4550F10000003B4944415478DAEDC13101000000C2A0F54F6D0B2FA0000000000000000000000000000000000000000000000000000000000000000000000000CE06919100016C9A5B1B0000000049
310
454E44AE426082
  0
ENDSEC
  0
EOF
