  0
SECTION
  2
HEADER
  9
$ACADVER
  1
AC1027
  9
$ACADMAINTVER
 70
   125
  9
$DWGCODEPAGE
  3
ANSI_1252
  9
$LASTSAVEDBY
  1
andrea.ragusa
  9
$REQUIREDVERSIONS
160
                 0
  9
$INSBASE
 10
0.0
 20
0.0
 30
0.0
  9
$EXTMIN
 10
0.1794443374726597
 20
0.0135962725775016
 30
-0.0015258207003583
  9
$EXTMAX
 10
15.07965138540567
 20
23.80586280022499
 30
0.0000000349246037
  9
$LIMMIN
 10
0.0
 20
0.0
  9
$LIMMAX
 10
420.0
 20
297.0
  9
$ORTHOMODE
 70
     0
  9
$REGENMODE
 70
     1
  9
$FILLMODE
 70
     1
  9
$QTEXTMODE
 70
     0
  9
$MIRRTEXT
 70
     0
  9
$LTSCALE
 40
1.0
  9
$ATTMODE
 70
     1
  9
$TEXTSIZE
 40
2.5
  9
$TRACEWID
 40
1.0
  9
$TEXTSTYLE
  7
Standard
  9
$CLAYER
  8
0
  9
$CELTYPE
  6
ByLayer
  9
$CECOLOR
 62
   256
  9
$CELTSCALE
 40
1.0
  9
$DISPSILH
 70
     0
  9
$DIMSCALE
 40
1.0
  9
$DIMASZ
 40
2.5
  9
$DIMEXO
 40
0.625
  9
$DIMDLI
 40
3.75
  9
$DIMRND
 40
0.0
  9
$DIMDLE
 40
0.0
  9
$DIMEXE
 40
1.25
  9
$DIMTP
 40
0.0
  9
$DIMTM
 40
0.0
  9
$DIMTXT
 40
2.5
  9
$DIMCEN
 40
2.5
  9
$DIMTSZ
 40
0.0
  9
$DIMTOL
 70
     0
  9
$DIMLIM
 70
     0
  9
$DIMTIH
 70
     0
  9
$DIMTOH
 70
     0
  9
$DIMSE1
 70
     0
  9
$DIMSE2
 70
     0
  9
$DIMTAD
 70
     1
  9
$DIMZIN
 70
     8
  9
$DIMBLK
  1

  9
$DIMASO
 70
     1
  9
$DIMSHO
 70
     1
  9
$DIMPOST
  1

  9
$DIMAPOST
  1

  9
$DIMALT
 70
     0
  9
$DIMALTD
 70
     3
  9
$DIMALTF
 40
0.03937007874016
  9
$DIMLFAC
 40
1.0
  9
$DIMTOFL
 70
     1
  9
$DIMTVP
 40
0.0
  9
$DIMTIX
 70
     0
  9
$DIMSOXD
 70
     0
  9
$DIMSAH
 70
     0
  9
$DIMBLK1
  1

  9
$DIMBLK2
  1

  9
$DIMSTYLE
  2
ISO-25
  9
$DIMCLRD
 70
     0
  9
$DIMCLRE
 70
     0
  9
$DIMCLRT
 70
     0
  9
$DIMTFAC
 40
1.0
  9
$DIMGAP
 40
0.625
  9
$DIMJUST
 70
     0
  9
$DIMSD1
 70
     0
  9
$DIMSD2
 70
     0
  9
$DIMTOLJ
 70
     0
  9
$DIMTZIN
 70
     8
  9
$DIMALTZ
 70
     0
  9
$DIMALTTZ
 70
     0
  9
$DIMUPT
 70
     0
  9
$DIMDEC
 70
     2
  9
$DIMTDEC
 70
     2
  9
$DIMALTU
 70
     2
  9
$DIMALTTD
 70
     3
  9
$DIMTXSTY
  7
Standard
  9
$DIMAUNIT
 70
     0
  9
$DIMADEC
 70
     0
  9
$DIMALTRND
 40
0.0
  9
$DIMAZIN
 70
     0
  9
$DIMDSEP
 70
    44
  9
$DIMATFIT
 70
     3
  9
$DIMFRAC
 70
     0
  9
$DIMLDRBLK
  1

  9
$DIMLUNIT
 70
     2
  9
$DIMLWD
 70
    -2
  9
$DIMLWE
 70
    -2
  9
$DIMTMOVE
 70
     0
  9
$DIMFXL
 40
1.0
  9
$DIMFXLON
 70
     0
  9
$DIMJOGANG
 40
0.7853981633974483
  9
$DIMTFILL
 70
     0
  9
$DIMTFILLCLR
 70
     0
  9
$DIMARCSYM
 70
     0
  9
$DIMLTYPE
  6

  9
$DIMLTEX1
  6

  9
$DIMLTEX2
  6

  9
$DIMTXTDIRECTION
 70
     0
  9
$LUNITS
 70
     2
  9
$LUPREC
 70
     4
  9
$SKETCHINC
 40
1.0
  9
$FILLETRAD
 40
0.0
  9
$AUNITS
 70
     0
  9
$AUPREC
 70
     0
  9
$MENU
  1
.
  9
$ELEVATION
 40
0.0
  9
$PELEVATION
 40
0.0
  9
$THICKNESS
 40
0.0
  9
$LIMCHECK
 70
     0
  9
$CHAMFERA
 40
0.0
  9
$CHAMFERB
 40
0.0
  9
$CHAMFERC
 40
0.0
  9
$CHAMFERD
 40
0.0
  9
$SKPOLY
 70
     0
  9
$TDCREATE
 40
2459020.488634259
  9
$TDUCREATE
 40
2459020.405300926
  9
$TDUPDATE
 40
2459020.488784722
  9
$TDUUPDATE
 40
2459020.405451389
  9
$TDINDWG
 40
0.0001504630
  9
$TDUSRTIMER
 40
0.0001504630
  9
$USRTIMER
 70
     1
  9
$ANGBASE
 50
0.0
  9
$ANGDIR
 70
     0
  9
$PDMODE
 70
     0
  9
$PDSIZE
 40
0.0
  9
$PLINEWID
 40
0.0
  9
$SPLFRAME
 70
     0
  9
$SPLINETYPE
 70
     6
  9
$SPLINESEGS
 70
     8
  9
$HANDSEED
  5
5FB
  9
$SURFTAB1
 70
     6
  9
$SURFTAB2
 70
     6
  9
$SURFTYPE
 70
     6
  9
$SURFU
 70
     6
  9
$SURFV
 70
     6
  9
$UCSBASE
  2

  9
$UCSNAME
  2

  9
$UCSORG
 10
0.0
 20
0.0
 30
0.0
  9
$UCSXDIR
 10
1.0
 20
0.0
 30
0.0
  9
$UCSYDIR
 10
0.0
 20
1.0
 30
0.0
  9
$UCSORTHOREF
  2

  9
$UCSORTHOVIEW
 70
     0
  9
$UCSORGTOP
 10
0.0
 20
0.0
 30
0.0
  9
$UCSORGBOTTOM
 10
0.0
 20
0.0
 30
0.0
  9
$UCSORGLEFT
 10
0.0
 20
0.0
 30
0.0
  9
$UCSORGRIGHT
 10
0.0
 20
0.0
 30
0.0
  9
$UCSORGFRONT
 10
0.0
 20
0.0
 30
0.0
  9
$UCSORGBACK
 10
0.0
 20
0.0
 30
0.0
  9
$PUCSBASE
  2

  9
$PUCSNAME
  2

  9
$PUCSORG
 10
0.0
 20
0.0
 30
0.0
  9
$PUCSXDIR
 10
1.0
 20
0.0
 30
0.0
  9
$PUCSYDIR
 10
0.0
 20
1.0
 30
0.0
  9
$PUCSORTHOREF
  2

  9
$PUCSORTHOVIEW
 70
     0
  9
$PUCSORGTOP
 10
0.0
 20
0.0
 30
0.0
  9
$PUCSORGBOTTOM
 10
0.0
 20
0.0
 30
0.0
  9
$PUCSORGLEFT
 10
0.0
 20
0.0
 30
0.0
  9
$PUCSORGRIGHT
 10
0.0
 20
0.0
 30
0.0
  9
$PUCSORGFRONT
 10
0.0
 20
0.0
 30
0.0
  9
$PUCSORGBACK
 10
0.0
 20
0.0
 30
0.0
  9
$USERI1
 70
     0
  9
$USERI2
 70
     0
  9
$USERI3
 70
     0
  9
$USERI4
 70
     0
  9
$USERI5
 70
     0
  9
$USERR1
 40
0.0
  9
$USERR2
 40
0.0
  9
$USERR3
 40
0.0
  9
$USERR4
 40
0.0
  9
$USERR5
 40
0.0
  9
$WORLDVIEW
 70
     1
  9
$SHADEDGE
 70
     3
  9
$SHADEDIF
 70
    70
  9
$TILEMODE
 70
     1
  9
$MAXACTVP
 70
    64
  9
$PINSBASE
 10
0.0
 20
0.0
 30
0.0
  9
$PLIMCHECK
 70
     0
  9
$PEXTMIN
 10
0.0
 20
0.0
 30
0.0
  9
$PEXTMAX
 10
0.0
 20
0.0
 30
0.0
  9
$PLIMMIN
 10
0.0
 20
0.0
  9
$PLIMMAX
 10
12.0
 20
9.0
  9
$UNITMODE
 70
     0
  9
$VISRETAIN
 70
     1
  9
$PLINEGEN
 70
     0
  9
$PSLTSCALE
 70
     1
  9
$TREEDEPTH
 70
  3020
  9
$CMLSTYLE
  2
Standard
  9
$CMLJUST
 70
     0
  9
$CMLSCALE
 40
20.0
  9
$PROXYGRAPHICS
 70
     1
  9
$MEASUREMENT
 70
     1
  9
$CELWEIGHT
370
    -1
  9
$ENDCAPS
280
     0
  9
$JOINSTYLE
280
     0
  9
$LWDISPLAY
290
     0
  9
$INSUNITS
 70
     4
  9
$HYPERLINKBASE
  1

  9
$STYLESHEET
  1

  9
$XEDIT
290
     1
  9
$CEPSNTYPE
380
     0
  9
$PSTYLEMODE
290
     1
  9
$FINGERPRINTGUID
  2
{0445F531-9B62-C84E-9E08-B0EE81907F67}
  9
$VERSIONGUID
  2
{9A6D2DF3-34AB-2544-A614-4B24937E4594}
  9
$EXTNAMES
290
     1
  9
$PSVPSCALE
 40
0.0
  9
$OLESTARTUP
290
     0
  9
$SORTENTS
280
   127
  9
$INDEXCTL
280
     0
  9
$HIDETEXT
280
     1
  9
$XCLIPFRAME
280
     2
  9
$HALOGAP
280
     0
  9
$OBSCOLOR
 70
   257
  9
$OBSLTYPE
280
     0
  9
$INTERSECTIONDISPLAY
280
     0
  9
$INTERSECTIONCOLOR
 70
   257
  9
$DIMASSOC
280
     2
  9
$PROJECTNAME
  1

  9
$CAMERADISPLAY
290
     0
  9
$LENSLENGTH
 40
50.0
  9
$CAMERAHEIGHT
 40
0.0
  9
$STEPSPERSEC
 40
2.0
  9
$STEPSIZE
 40
6.0
  9
$3DDWFPREC
 40
2.0
  9
$PSOLWIDTH
 40
5.0
  9
$PSOLHEIGHT
 40
80.0
  9
$LOFTANG1
 40
1.570796326794896
  9
$LOFTANG2
 40
1.570796326794896
  9
$LOFTMAG1
 40
0.0
  9
$LOFTMAG2
 40
0.0
  9
$LOFTPARAM
 70
     7
  9
$LOFTNORMALS
280
     1
  9
$LATITUDE
 40
37.795
  9
$LONGITUDE
 40
-122.394
  9
$NORTHDIRECTION
 40
0.0
  9
$TIMEZONE
 70
 -8000
  9
$LIGHTGLYPHDISPLAY
280
     1
  9
$TILEMODELIGHTSYNCH
280
     1
  9
$CMATERIAL
347
EC
  9
$SOLIDHIST
280
     0
  9
$SHOWHIST
280
     1
  9
$DWFFRAME
280
     2
  9
$DGNFRAME
280
     0
  9
$REALWORLDSCALE
290
     1
  9
$INTERFERECOLOR
 62
     1
  9
$INTERFEREOBJVS
345
F9
  9
$INTERFEREVPVS
346
F6
  9
$CSHADOW
280
     0
  9
$SHADOWPLANELOCATION
 40
0.0
  0
ENDSEC
  0
SECTION
  2
CLASSES
  0
CLASS
  1
ACDBDICTIONARYWDFLT
  2
AcDbDictionaryWithDefault
  3
ObjectDBX Classes
 90
        0
 91
        1
280
     0
281
     0
  0
CLASS
  1
DICTIONARYVAR
  2
AcDbDictionaryVar
  3
ObjectDBX Classes
 90
        0
 91
       11
280
     0
281
     0
  0
CLASS
  1
TABLESTYLE
  2
AcDbTableStyle
  3
ObjectDBX Classes
 90
     4095
 91
        1
280
     0
281
     0
  0
CLASS
  1
MATERIAL
  2
AcDbMaterial
  3
ObjectDBX Classes
 90
     1153
 91
        3
280
     0
281
     0
  0
CLASS
  1
VISUALSTYLE
  2
AcDbVisualStyle
  3
ObjectDBX Classes
 90
     4095
 91
       24
280
     0
281
     0
  0
CLASS
  1
SCALE
  2
AcDbScale
  3
ObjectDBX Classes
 90
     1153
 91
       17
280
     0
281
     0
  0
CLASS
  1
MLEADERSTYLE
  2
AcDbMLeaderStyle
  3
ACDB_MLEADERSTYLE_CLASS
 90
     4095
 91
        2
280
     0
281
     0
  0
CLASS
  1
CELLSTYLEMAP
  2
AcDbCellStyleMap
  3
ObjectDBX Classes
 90
     1152
 91
        1
280
     0
281
     0
  0
CLASS
  1
EXACXREFPANELOBJECT
  2
ExAcXREFPanelObject
  3
EXAC_ESW
 90
     1025
 91
        0
280
     0
281
     0
  0
CLASS
  1
NPOCOLLECTION
  2
AcDbImpNonPersistentObjectsCollection
  3
ObjectDBX Classes
 90
     1153
 91
        0
280
     0
281
     0
  0
CLASS
  1
LAYER_INDEX
  2
AcDbLayerIndex
  3
ObjectDBX Classes
 90
        0
 91
        0
280
     0
281
     0
  0
CLASS
  1
SPATIAL_INDEX
  2
AcDbSpatialIndex
  3
ObjectDBX Classes
 90
        0
 91
        0
280
     0
281
     0
  0
CLASS
  1
IDBUFFER
  2
AcDbIdBuffer
  3
ObjectDBX Classes
 90
        0
 91
        0
280
     0
281
     0
  0
CLASS
  1
ACDBSECTIONVIEWSTYLE
  2
AcDbSectionViewStyle
  3
ObjectDBX Classes
 90
     1025
 91
        2
280
     0
281
     0
  0
CLASS
  1
ACDBDETAILVIEWSTYLE
  2
AcDbDetailViewStyle
  3
ObjectDBX Classes
 90
     1025
 91
        2
280
     0
281
     0
  0
CLASS
  1
SORTENTSTABLE
  2
AcDbSortentsTable
  3
ObjectDBX Classes
 90
        0
 91
        1
280
     0
281
     0
  0
ENDSEC
  0
SECTION
  2
TABLES
  0
TABLE
  2
VPORT
  5
8
330
0
100
AcDbSymbolTable
 70
     1
1001
ACAD
1000
DbSaveVer
1071
      208
  0
VPORT
  5
EA
330
8
100
AcDbSymbolTableRecord
100
AcDbViewportTableRecord
  2
*Active
 70
     0
 10
0.0
 20
0.0
 11
1.0
 21
1.0
 12
7.629547861439167
 22
11.90972953640124
 13
0.0
 23
0.0
 14
10.0
 24
10.0
 15
10.0
 25
10.0
 16
0.0
 26
0.0
 36
1.0
 17
0.0
 27
0.0
 37
0.0
 40
24.01256529179237
 41
2.452859350850077
 42
50.0
 43
0.0
 44
0.0
 50
0.0
 51
0.0
 71
     0
 72
  1000
 73
     1
 74
     3
 75
     0
 76
     1
 77
     0
 78
     0
281
     0
 65
     1
110
0.0
120
0.0
130
0.0
111
1.0
121
0.0
131
0.0
112
0.0
122
1.0
132
0.0
 79
     0
146
0.0
348
F5
 60
     3
 61
     5
292
     1
282
     1
141
0.0
142
0.0
 63
   250
421
  3355443
1001
ACAD_NAV_VCDISPLAY
1070
     3
  0
ENDTAB
  0
TABLE
  2
LTYPE
  5
5
330
0
100
AcDbSymbolTable
 70
     1
  0
LTYPE
  5
14
330
5
100
AcDbSymbolTableRecord
100
AcDbLinetypeTableRecord
  2
ByBlock
 70
     0
  3

 72
    65
 73
     0
 40
0.0
  0
LTYPE
  5
15
330
5
100
AcDbSymbolTableRecord
100
AcDbLinetypeTableRecord
  2
ByLayer
 70
     0
  3

 72
    65
 73
     0
 40
0.0
  0
LTYPE
  5
16
330
5
100
AcDbSymbolTableRecord
100
AcDbLinetypeTableRecord
  2
Continuous
 70
     0
  3
Solid line
 72
    65
 73
     0
 40
0.0
  0
ENDTAB
  0
TABLE
  2
LAYER
  5
2
102
{ACAD_XDICTIONARY
360
1FF
102
}
330
0
100
AcDbSymbolTable
 70
     2
  0
LAYER
  5
10
102
{ACAD_XDICTIONARY
360
13C
102
}
330
2
100
AcDbSymbolTableRecord
100
AcDbLayerTableRecord
  2
0
 70
     0
 62
     7
  6
Continuous
370
    -3
390
F
347
EE
348
0
  0
LAYER
  5
28C
330
2
100
AcDbSymbolTableRecord
100
AcDbLayerTableRecord
  2
Livello 1
 70
     0
 62
     7
  6
Continuous
370
    -3
390
F
347
EE
348
0
  0
ENDTAB
  0
TABLE
  2
STYLE
  5
3
330
0
100
AcDbSymbolTable
 70
     3
  0
STYLE
  5
11
330
3
100
AcDbSymbolTableRecord
100
AcDbTextStyleTableRecord
  2
Standard
 70
     0
 40
0.0
 41
1.0
 50
0.0
 71
     0
 42
2.5
  3
arial.ttf
  4

1001
ACAD
1000
Arial
1071
       34
  0
STYLE
  5
132
330
3
100
AcDbSymbolTableRecord
100
AcDbTextStyleTableRecord
  2
Annotativa
 70
     0
 40
0.0
 41
1.0
 50
0.0
 71
     0
 42
2.5
  3
arial.ttf
  4

1001
AcadAnnotative
1000
AnnotativeData
1002
{
1070
     1
1070
     1
1002
}
1001
ACAD
1000
Arial
1071
       34
  0
STYLE
  5
28D
330
3
100
AcDbSymbolTableRecord
100
AcDbTextStyleTableRecord
  2
MtXpl_Source_Sans_Pr
 70
     0
 40
0.0
 41
1.0
 50
0.0
 71
     0
 42
0.2
  3

  4

1001
ACAD
1000
Source Sans Pro Light
1071
       34
  0
ENDTAB
  0
TABLE
  2
VIEW
  5
6
330
0
100
AcDbSymbolTable
 70
     0
  0
ENDTAB
  0
TABLE
  2
UCS
  5
7
330
0
100
AcDbSymbolTable
 70
     0
  0
ENDTAB
  0
TABLE
  2
APPID
  5
9
330
0
100
AcDbSymbolTable
 70
     8
  0
APPID
  5
12
330
9
100
AcDbSymbolTableRecord
100
AcDbRegAppTableRecord
  2
ACAD
 70
     0
  0
APPID
  5
9E
330
9
100
AcDbSymbolTableRecord
100
AcDbRegAppTableRecord
  2
ACAD_PSEXT
 70
     0
  0
APPID
  5
133
330
9
100
AcDbSymbolTableRecord
100
AcDbRegAppTableRecord
  2
AcadAnnoPO
 70
     0
  0
APPID
  5
134
330
9
100
AcDbSymbolTableRecord
100
AcDbRegAppTableRecord
  2
AcadAnnotative
 70
     0
  0
APPID
  5
135
330
9
100
AcDbSymbolTableRecord
100
AcDbRegAppTableRecord
  2
ACAD_DSTYLE_DIMJAG
 70
     0
  0
APPID
  5
136
330
9
100
AcDbSymbolTableRecord
100
AcDbRegAppTableRecord
  2
ACAD_DSTYLE_DIMTALN
 70
     0
  0
APPID
  5
165
330
9
100
AcDbSymbolTableRecord
100
AcDbRegAppTableRecord
  2
ACAD_MLEADERVER
 70
     0
  0
APPID
  5
217
330
9
100
AcDbSymbolTableRecord
100
AcDbRegAppTableRecord
  2
ACAD_NAV_VCDISPLAY
 70
     0
  0
ENDTAB
  0
TABLE
  2
DIMSTYLE
  5
A
330
0
100
AcDbSymbolTable
 70
     3
100
AcDbDimStyleTable
 71
     2
340
27
340
137
  0
DIMSTYLE
105
1B0
330
A
100
AcDbSymbolTableRecord
100
AcDbDimStyleTableRecord
  2
Standard
 70
     0
340
11
  0
DIMSTYLE
105
137
330
A
100
AcDbSymbolTableRecord
100
AcDbDimStyleTableRecord
  2
Annotativa
 70
     0
 40
0.0
 41
2.5
 42
0.625
 43
3.75
 44
1.25
 73
     0
 74
     0
 77
     1
 78
     8
140
2.5
141
2.5
143
0.03937007874016
147
0.625
171
     3
172
     1
271
     2
272
     2
274
     3
278
    44
283
     0
284
     8
340
11
1001
AcadAnnotative
1000
AnnotativeData
1002
{
1070
     1
1070
     1
1002
}
1001
ACAD_DSTYLE_DIMJAG
1070
   388
1040
1.5
1001
ACAD_DSTYLE_DIMTALN
1070
   392
1070
     0
  0
DIMSTYLE
105
27
330
A
100
AcDbSymbolTableRecord
100
AcDbDimStyleTableRecord
  2
ISO-25
 70
     0
 41
2.5
 42
0.625
 43
3.75
 44
1.25
 73
     0
 74
     0
 77
     1
 78
     8
140
2.5
141
2.5
143
0.03937007874016
147
0.625
171
     3
172
     1
271
     2
272
     2
274
     3
278
    44
283
     0
284
     8
340
11
  0
ENDTAB
  0
TABLE
  2
BLOCK_RECORD
  5
1
330
0
100
AcDbSymbolTable
 70
     2
  0
BLOCK_RECORD
  5
1F
102
{ACAD_XDICTIONARY
360
1CE
102
}
330
1
100
AcDbSymbolTableRecord
100
AcDbBlockTableRecord
  2
*Model_Space
340
22
 70
     0
280
     1
281
     0
  0
BLOCK_RECORD
  5
D2
330
1
100
AcDbSymbolTableRecord
100
AcDbBlockTableRecord
  2
*Paper_Space
340
D3
 70
     0
280
     1
281
     0
  0
BLOCK_RECORD
  5
D6
330
1
100
AcDbSymbolTableRecord
100
AcDbBlockTableRecord
  2
*Paper_Space0
340
D7
 70
     0
280
     1
281
     0
  0
ENDTAB
  0
ENDSEC
  0
SECTION
  2
BLOCKS
  0
BLOCK
  5
20
330
1F
100
AcDbEntity
  8
0
100
AcDbBlockBegin
  2
*Model_Space
 70
     0
 10
0.0
 20
0.0
 30
0.0
  3
*Model_Space
  1

  0
ENDBLK
  5
21
330
1F
100
AcDbEntity
  8
0
100
AcDbBlockEnd
  0
BLOCK
  5
D4
330
D2
100
AcDbEntity
 67
     1
  8
0
100
AcDbBlockBegin
  2
*Paper_Space
 70
     0
 10
0.0
 20
0.0
 30
0.0
  3
*Paper_Space
  1

  0
ENDBLK
  5
D5
330
D2
100
AcDbEntity
 67
     1
  8
0
100
AcDbBlockEnd
  0
BLOCK
  5
D8
330
D6
100
AcDbEntity
 67
     1
  8
0
100
AcDbBlockBegin
  2
*Paper_Space0
 70
     0
 10
0.0
 20
0.0
 30
0.0
  3
*Paper_Space0
  1

  0
ENDBLK
  5
D9
330
D6
100
AcDbEntity
 67
     1
  8
0
100
AcDbBlockEnd
  0
ENDSEC
  0
SECTION
  2
ENTITIES
  0
LINE
  5
440
330
1F
100
AcDbEntity
  8
Livello 1
100
AcDbLine
 10
11.07247034982259
 20
6.529833908639531
 30
0.0
 11
11.07247034982259
 21
2.48699820781384
 31
0.0
  0
LINE
  5
441
330
1F
100
AcDbEntity
  8
Livello 1
100
AcDbLine
 10
9.995864553277769
 20
11.86238955102384
 30
0.0
 11
0.5943362395542096
 21
11.86238955102384
 31
0.0
  0
TEXT
  5
442
330
1F
100
AcDbEntity
  8
Livello 1
100
AcDbText
 10
14.17266615130964
 20
0.033019327323359
 30
0.0
 40
2.123016666135912
  1
71 mm
 50
90.00000000000003
  7
MtXpl_Source_Sans_Pr
100
AcDbText
  0
TEXT
  5
443
330
1F
100
AcDbEntity
  8
Livello 1
100
AcDbText
 10
0.2101166934285743
 20
8.762091473264575
 30
0.0
 40
2.123016666135912
  1
144 mm
  7
MtXpl_Source_Sans_Pr
100
AcDbText
  0
SPLINE
  5
444
330
1F
100
AcDbEntity
  8
Livello 1
100
AcDbSpline
210
0.0
220
0.0
230
1.0
 70
     8
 71
     3
 72
     8
 73
     4
 74
     0
 42
0.000000001
 43
0.0000000001
 40
0.0
 40
0.0
 40
0.0
 40
0.0
 40
1.0
 40
1.0
 40
1.0
 40
1.0
 10
0.4802470578946015
 20
2.261888132661241
 30
0.0
 10
0.4513190217419237
 20
2.261888132661241
 30
0.0
 10
0.4276837826764961
 20
2.285169441995151
 30
0.0
 10
0.4276837826764961
 20
2.314452753619733
 30
0.0
  0
SPLINE
  5
445
330
1F
100
AcDbEntity
  8
Livello 1
100
AcDbSpline
210
0.0
220
0.0
230
1.0
 70
    24
 71
     3
 72
     8
 73
     4
 74
     0
 42
0.000000001
 43
0.0000000001
 40
1.0
 40
1.0
 40
1.0
 40
1.0
 40
2.0
 40
2.0
 40
2.0
 40
2.0
 10
0.4276837826764961
 20
2.314452753619733
 30
0.0
 10
0.4276837826764961
 20
2.314452753619733
 30
0.0
 10
0.4276837826764961
 20
2.441802861416661
 30
0.0
 10
0.4276837826764961
 20
2.441802861416661
 30
0.0
  0
SPLINE
  5
446
330
1F
100
AcDbEntity
  8
Livello 1
100
AcDbSpline
210
0.0
220
0.0
230
1.0
 70
     8
 71
     3
 72
    11
 73
     7
 74
     0
 42
0.000000001
 43
0.0000000001
 40
2.0
 40
2.0
 40
2.0
 40
2.0
 40
3.0
 40
3.0
 40
3.0
 40
4.0
 40
4.0
 40
4.0
 40
4.0
 10
0.4276837826764961
 20
2.441802861416661
 30
0.0
 10
0.4276837826764961
 20
2.470730897569339
 30
0.0
 10
0.4513190217419237
 20
2.494017589865052
 30
0.0
 10
0.4802470578946015
 20
2.494017589865052
 30
0.0
 10
0.5091750940473077
 20
2.494017589865052
 30
0.0
 10
0.5328116788531645
 20
2.470730897569339
 30
0.0
 10
0.5328116788531645
 20
2.441802861416661
 30
0.0
  0
SPLINE
  5
447
330
1F
100
AcDbEntity
  8
Livello 1
100
AcDbSpline
210
0.0
220
0.0
230
1.0
 70
    24
 71
     3
 72
     8
 73
     4
 74
     0
 42
0.000000001
 43
0.0000000001
 40
4.0
 40
4.0
 40
4.0
 40
4.0
 40
5.0
 40
5.0
 40
5.0
 40
5.0
 10
0.5328116788531645
 20
2.441802861416661
 30
0.0
 10
0.5328116788531645
 20
2.441802861416661
 30
0.0
 10
0.5328116788531645
 20
2.314452753619733
 30
0.0
 10
0.5328116788531645
 20
2.314452753619733
 30
0.0
  0
SPLINE
  5
448
330
1F
100
AcDbEntity
  8
Livello 1
100
AcDbSpline
210
0.0
220
0.0
230
1.0
 70
     8
 71
     3
 72
     8
 73
     4
 74
     0
 42
0.000000001
 43
0.0000000001
 40
5.0
 40
5.0
 40
5.0
 40
5.0
 40
6.0
 40
6.0
 40
6.0
 40
6.0
 10
0.5328116788531645
 20
2.314452753619733
 30
0.0
 10
0.5328116788531645
 20
2.285169441995151
 30
0.0
 10
0.5091750940473077
 20
2.261888132661241
 30
0.0
 10
0.4802470578946015
 20
2.261888132661241
 30
0.0
  0
SPLINE
  5
449
330
1F
100
AcDbEntity
  8
Livello 1
100
AcDbSpline
210
0.0
220
0.0
230
1.0
 70
     8
 71
     3
 72
     8
 73
     4
 74
     0
 42
0.000000001
 43
0.0000000001
 40
0.0
 40
0.0
 40
0.0
 40
0.0
 40
1.0
 40
1.0
 40
1.0
 40
1.0
 10
1.142764488776194
 20
4.054355164751655
 30
0.0
 10
1.113836452623488
 20
4.054355164751655
 30
0.0
 10
1.090199867817673
 20
4.077986366595737
 30
0.0
 10
1.090199867817673
 20
4.106914402748444
 30
0.0
  0
SPLINE
  5
44A
330
1F
100
AcDbEntity
  8
Livello 1
100
AcDbSpline
210
0.0
220
0.0
230
1.0
 70
    24
 71
     3
 72
     8
 73
     4
 74
     0
 42
0.000000001
 43
0.0000000001
 40
1.0
 40
1.0
 40
1.0
 40
1.0
 40
2.0
 40
2.0
 40
2.0
 40
2.0
 10
1.090199867817673
 20
4.106914402748444
 30
0.0
 10
1.090199867817673
 20
4.106914402748444
 30
0.0
 10
1.090199867817673
 20
5.984044656388846
 30
0.0
 10
1.090199867817673
 20
5.984044656388846
 30
0.0
  0
SPLINE
  5
44B
330
1F
100
AcDbEntity
  8
Livello 1
100
AcDbSpline
210
0.0
220
0.0
230
1.0
 70
     8
 71
     3
 72
    11
 73
     7
 74
     0
 42
0.000000001
 43
0.0000000001
 40
2.0
 40
2.0
 40
2.0
 40
2.0
 40
3.0
 40
3.0
 40
3.0
 40
4.0
 40
4.0
 40
4.0
 40
4.0
 10
1.090199867817673
 20
5.984044656388846
 30
0.0
 10
1.090199867817673
 20
6.012972692541538
 30
0.0
 10
1.113836452623488
 20
6.036609277347437
 30
0.0
 10
1.142764488776194
 20
6.036609277347437
 30
0.0
 10
1.171691179188513
 20
6.036609277347437
 30
0.0
 10
1.195327763994328
 20
6.012972692541538
 30
0.0
 10
1.195327763994328
 20
5.984044656388846
 30
0.0
  0
SPLINE
  5
44C
330
1F
100
AcDbEntity
  8
Livello 1
100
AcDbSpline
210
0.0
220
0.0
230
1.0
 70
    24
 71
     3
 72
     8
 73
     4
 74
     0
 42
0.000000001
 43
0.0000000001
 40
4.0
 40
4.0
 40
4.0
 40
4.0
 40
5.0
 40
5.0
 40
5.0
 40
5.0
 10
1.195327763994328
 20
5.984044656388846
 30
0.0
 10
1.195327763994328
 20
5.984044656388846
 30
0.0
 10
1.195327763994328
 20
4.106914402748444
 30
0.0
 10
1.195327763994328
 20
4.106914402748444
 30
0.0
  0
SPLINE
  5
44D
330
1F
100
AcDbEntity
  8
Livello 1
100
AcDbSpline
210
0.0
220
0.0
230
1.0
 70
     8
 71
     3
 72
     8
 73
     4
 74
     0
 42
0.000000001
 43
0.0000000001
 40
5.0
 40
5.0
 40
5.0
 40
5.0
 40
6.0
 40
6.0
 40
6.0
 40
6.0
 10
1.195327763994328
 20
4.106914402748444
 30
0.0
 10
1.195327763994328
 20
4.077986366595737
 30
0.0
 10
1.171691179188513
 20
4.054355164751655
 30
0.0
 10
1.142764488776194
 20
4.054355164751655
 30
0.0
  0
SPLINE
  5
44E
330
1F
100
AcDbEntity
  8
Livello 1
100
AcDbSpline
210
0.0
220
0.0
230
1.0
 70
    24
 71
     3
 72
     8
 73
     4
 74
     0
 42
0.000000001
 43
0.0000000001
 40
0.0
 40
0.0
 40
0.0
 40
0.0
 40
1.0
 40
1.0
 40
1.0
 40
1.0
 10
1.411298915928028
 20
5.931663056127945
 30
0.0
 10
1.411298915928028
 20
5.931663056127945
 30
0.0
 10
1.393307712200581
 20
5.931663056127945
 30
0.0
 10
1.393307712200581
 20
5.931663056127945
 30
0.0
  0
SPLINE
  5
44F
330
1F
100
AcDbEntity
  8
Livello 1
100
AcDbSpline
210
0.0
220
0.0
230
1.0
 70
     8
 71
     3
 72
    11
 73
     7
 74
     0
 42
0.000000001
 43
0.0000000001
 40
1.0
 40
1.0
 40
1.0
 40
1.0
 40
2.0
 40
2.0
 40
2.0
 40
3.0
 40
3.0
 40
3.0
 40
3.0
 10
1.393307712200581
 20
5.931663056127945
 30
0.0
 10
1.364379676047875
 20
5.931663056127945
 30
0.0
 10
1.340744436982447
 20
5.955294257972155
 30
0.0
 10
1.340744436982447
 20
5.984222294124847
 30
0.0
 10
1.340744436982447
 20
6.013150330277554
 30
0.0
 10
1.364379676047875
 20
6.036786915083339
 30
0.0
 10
1.393307712200581
 20
6.036786915083339
 30
0.0
  0
SPLINE
  5
450
330
1F
100
AcDbEntity
  8
Livello 1
100
AcDbSpline
210
0.0
220
0.0
230
1.0
 70
    24
 71
     3
 72
     8
 73
     4
 74
     0
 42
0.000000001
 43
0.0000000001
 40
3.0
 40
3.0
 40
3.0
 40
3.0
 40
4.0
 40
4.0
 40
4.0
 40
4.0
 10
1.393307712200581
 20
6.036786915083339
 30
0.0
 10
1.393307712200581
 20
6.036786915083339
 30
0.0
 10
1.411298915928028
 20
6.036786915083339
 30
0.0
 10
1.411298915928028
 20
6.036786915083339
 30
0.0
  0
SPLINE
  5
451
330
1F
100
AcDbEntity
  8
Livello 1
100
AcDbSpline
210
0.0
220
0.0
230
1.0
 70
     8
 71
     3
 72
    11
 73
     7
 74
     0
 42
0.000000001
 43
0.0000000001
 40
4.0
 40
4.0
 40
4.0
 40
4.0
 40
5.0
 40
5.0
 40
5.0
 40
6.0
 40
6.0
 40
6.0
 40
6.0
 10
1.411298915928028
 20
6.036786915083339
 30
0.0
 10
1.440226952080777
 20
6.036786915083339
 30
0.0
 10
1.463510952895518
 20
6.013150330277554
 30
0.0
 10
1.463510952895518
 20
5.984222294124847
 30
0.0
 10
1.463510952895518
 20
5.955294257972155
 30
0.0
 10
1.440226952080777
 20
5.931663056127945
 30
0.0
 10
1.411298915928028
 20
5.931663056127945
 30
0.0
  0
SPLINE
  5
452
330
1F
100
AcDbEntity
  8
Livello 1
100
AcDbSpline
210
0.0
220
0.0
230
1.0
 70
     8
 71
     3
 72
     8
 73
     4
 74
     0
 42
0.000000001
 43
0.0000000001
 40
0.0
 40
0.0
 40
0.0
 40
0.0
 40
1.0
 40
1.0
 40
1.0
 40
1.0
 10
1.250080558882174
 20
5.931663056127945
 30
0.0
 10
1.221152522729482
 20
5.931663056127945
 30
0.0
 10
1.19751593792364
 20
5.955294257972155
 30
0.0
 10
1.19751593792364
 20
5.984222294124847
 30
0.0
  0
SPLINE
  5
453
330
1F
100
AcDbEntity
  8
Livello 1
100
AcDbSpline
210
0.0
220
0.0
230
1.0
 70
    24
 71
     3
 72
     8
 73
     4
 74
     0
 42
0.000000001
 43
0.0000000001
 40
1.0
 40
1.0
 40
1.0
 40
1.0
 40
2.0
 40
2.0
 40
2.0
 40
2.0
 10
1.19751593792364
 20
5.984222294124847
 30
0.0
 10
1.19751593792364
 20
5.984222294124847
 30
0.0
 10
1.19751593792364
 20
6.109462280937037
 30
0.0
 10
1.19751593792364
 20
6.109462280937037
 30
0.0
  0
SPLINE
  5
454
330
1F
100
AcDbEntity
  8
Livello 1
100
AcDbSpline
210
0.0
220
0.0
230
1.0
 70
     8
 71
     3
 72
    11
 73
     7
 74
     0
 42
0.000000001
 43
0.0000000001
 40
2.0
 40
2.0
 40
2.0
 40
2.0
 40
3.0
 40
3.0
 40
3.0
 40
4.0
 40
4.0
 40
4.0
 40
4.0
 10
1.19751593792364
 20
6.109462280937037
 30
0.0
 10
1.19751593792364
 20
6.138740209599944
 30
0.0
 10
1.221152522729482
 20
6.162026901895529
 30
0.0
 10
1.250080558882174
 20
6.162026901895529
 30
0.0
 10
1.279007249294451
 20
6.162026901895529
 30
0.0
 10
1.30264383410028
 20
6.138740209599944
 30
0.0
 10
1.30264383410028
 20
6.109462280937037
 30
0.0
  0
SPLINE
  5
455
330
1F
100
AcDbEntity
  8
Livello 1
100
AcDbSpline
210
0.0
220
0.0
230
1.0
 70
    24
 71
     3
 72
     8
 73
     4
 74
     0
 42
0.000000001
 43
0.0000000001
 40
4.0
 40
4.0
 40
4.0
 40
4.0
 40
5.0
 40
5.0
 40
5.0
 40
5.0
 10
1.30264383410028
 20
6.109462280937037
 30
0.0
 10
1.30264383410028
 20
6.109462280937037
 30
0.0
 10
1.30264383410028
 20
5.984222294124847
 30
0.0
 10
1.30264383410028
 20
5.984222294124847
 30
0.0
  0
SPLINE
  5
456
330
1F
100
AcDbEntity
  8
Livello 1
100
AcDbSpline
210
0.0
220
0.0
230
1.0
 70
    11
 71
     3
 72
    17
 73
    13
 74
     0
 42
0.000000001
 43
0.0000000001
 40
0.0
 40
0.0
 40
0.0
 40
0.0
 40
1.0
 40
1.0
 40
1.0
 40
2.0
 40
2.0
 40
2.0
 40
3.0
 40
3.0
 40
3.0
 40
4.0
 40
4.0
 40
4.0
 40
4.0
 10
5.176284974387556
 20
14.08256789090019
 30
0.0
 10
2.498701587894018
 20
14.08256789090019
 30
0.0
 10
0.3199451500774302
 20
16.26096636176399
 30
0.0
 10
0.3199451500774302
 20
18.93855378547882
 30
0.0
 10
0.3199451500774302
 20
21.61613582623195
 30
0.0
 10
2.498701587894018
 20
23.7948895725677
 30
0.0
 10
5.176284974387556
 20
23.7948895725677
 30
0.0
 10
7.853868360881136
 20
23.7948895725677
 30
0.0
 10
10.03262210721688
 20
21.61613582623195
 30
0.0
 10
10.03262210721688
 20
18.93855378547882
 30
0.0
 10
10.03262210721688
 20
16.26096636176399
 30
0.0
 10
7.853868360881136
 20
14.08256789090019
 30
0.0
 10
5.176284974387556
 20
14.08256789090019
 30
0.0
  0
SPLINE
  5
457
330
1F
100
AcDbEntity
  8
Livello 1
100
AcDbSpline
210
0.0
220
0.0
230
1.0
 70
     9
 71
     3
 72
    17
 73
    13
 74
     0
 42
0.000000001
 43
0.0000000001
 40
0.0
 40
0.0
 40
0.0
 40
0.0
 40
1.0
 40
1.0
 40
1.0
 40
2.0
 40
2.0
 40
2.0
 40
3.0
 40
3.0
 40
3.0
 40
4.0
 40
4.0
 40
4.0
 40
4.0
 10
5.176284974387556
 20
23.68976571361232
 30
0.0
 10
2.556556314459015
 20
23.68976571361232
 30
0.0
 10
0.4250730462540702
 20
21.55827975392654
 30
0.0
 10
0.4250730462540702
 20
18.93855378547882
 30
0.0
 10
0.4250730462540702
 20
16.31882243406939
 30
0.0
 10
2.556556314459015
 20
14.1873418573453
 30
0.0
 10
5.176284974387556
 20
14.1873418573453
 30
0.0
 10
7.796012288575724
 20
14.1873418573453
 30
0.0
 10
9.927495556780641
 20
16.31882243406939
 30
0.0
 10
9.927495556780641
 20
18.93855378547882
 30
0.0
 10
9.927495556780641
 20
21.55827975392654
 30
0.0
 10
7.796012288575724
 20
23.68976571361232
 30
0.0
 10
5.176284974387556
 20
23.68976571361232
 30
0.0
  0
SPLINE
  5
458
330
1F
100
AcDbEntity
  8
Livello 1
100
AcDbSpline
210
0.0
220
0.0
230
1.0
 70
     8
 71
     3
 72
     8
 73
     4
 74
     0
 42
0.000000001
 43
0.0000000001
 40
5.0
 40
5.0
 40
5.0
 40
5.0
 40
6.0
 40
6.0
 40
6.0
 40
6.0
 10
1.30264383410028
 20
5.984222294124847
 30
0.0
 10
1.30264383410028
 20
5.955294257972155
 30
0.0
 10
1.279007249294451
 20
5.931663056127945
 30
0.0
 10
1.250080558882174
 20
5.931663056127945
 30
0.0
  0
SPLINE
  5
459
330
1F
100
AcDbEntity
  8
Livello 1
100
AcDbSpline
210
0.0
220
0.0
230
1.0
 70
     9
 71
     3
 72
    17
 73
    13
 74
     0
 42
0.000000001
 43
0.0000000001
 40
0.0
 40
0.0
 40
0.0
 40
0.0
 40
1.0
 40
1.0
 40
1.0
 40
2.0
 40
2.0
 40
2.0
 40
3.0
 40
3.0
 40
3.0
 40
4.0
 40
4.0
 40
4.0
 40
4.0
 10
5.176284974387556
 20
15.3833336698583
 30
0.0
 10
3.215897797940158
 20
15.3833336698583
 30
0.0
 10
1.620989497303312
 20
16.9782406247547
 30
0.0
 10
1.620989497303312
 20
18.93862376398087
 30
0.0
 10
1.620989497303312
 20
20.89901228616871
 30
0.0
 10
3.215897797940158
 20
22.49391924106516
 30
0.0
 10
5.176284974387556
 20
22.49391924106516
 30
0.0
 10
7.136670805094581
 20
22.49391924106516
 30
0.0
 10
8.731579105731384
 20
20.89901228616871
 30
0.0
 10
8.731579105731384
 20
18.93862376398087
 30
0.0
 10
8.731579105731384
 20
16.9782406247547
 30
0.0
 10
7.136670805094581
 20
15.3833336698583
 30
0.0
 10
5.176284974387556
 20
15.3833336698583
 30
0.0
  0
SPLINE
  5
45A
330
1F
100
AcDbEntity
  8
Livello 1
100
AcDbSpline
210
0.0
220
0.0
230
1.0
 70
     9
 71
     3
 72
    17
 73
    13
 74
     0
 42
0.000000001
 43
0.0000000001
 40
0.0
 40
0.0
 40
0.0
 40
0.0
 40
1.0
 40
1.0
 40
1.0
 40
2.0
 40
2.0
 40
2.0
 40
3.0
 40
3.0
 40
3.0
 40
4.0
 40
4.0
 40
4.0
 40
4.0
 10
5.176284974387556
 20
22.38879538210976
 30
0.0
 10
3.27375387024557
 20
22.38879538210976
 30
0.0
 10
1.726117393479952
 20
20.84115621386331
 30
0.0
 10
1.726117393479952
 20
18.93862376398087
 30
0.0
 10
1.726117393479952
 20
17.03609669706009
 30
0.0
 10
3.27375387024557
 20
15.48845752881368
 30
0.0
 10
5.176284974387556
 20
15.48845752881368
 30
0.0
 10
7.078814732789169
 20
15.48845752881368
 30
0.0
 10
8.626449863814315
 20
17.03609669706009
 30
0.0
 10
8.626449863814315
 20
18.93862376398087
 30
0.0
 10
8.626449863814315
 20
20.84115621386331
 30
0.0
 10
7.078814732789169
 20
22.38879538210976
 30
0.0
 10
5.176284974387556
 20
22.38879538210976
 30
0.0
  0
SPLINE
  5
45B
330
1F
100
AcDbEntity
  8
Livello 1
100
AcDbSpline
210
0.0
220
0.0
230
1.0
 70
     9
 71
     3
 72
    17
 73
    13
 74
     0
 42
0.000000001
 43
0.0000000001
 40
0.0
 40
0.0
 40
0.0
 40
0.0
 40
1.0
 40
1.0
 40
1.0
 40
2.0
 40
2.0
 40
2.0
 40
3.0
 40
3.0
 40
3.0
 40
4.0
 40
4.0
 40
4.0
 40
4.0
 10
5.176284974387556
 20
15.68354682658939
 30
0.0
 10
3.381351200100127
 20
15.68354682658939
 30
0.0
 10
1.921203999774789
 20
17.14369133543378
 30
0.0
 10
1.921203999774789
 20
18.93862914694257
 30
0.0
 10
1.921203999774789
 20
20.73320630001768
 30
0.0
 10
3.381351200100127
 20
22.19370608433409
 30
0.0
 10
5.176284974387556
 20
22.19370608433409
 30
0.0
 10
6.971217402934598
 20
22.19370608433409
 30
0.0
 10
8.431363257519521
 20
20.73320630001768
 30
0.0
 10
8.431363257519521
 20
18.93862914694257
 30
0.0
 10
8.431363257519521
 20
17.14369133543378
 30
0.0
 10
6.971217402934598
 20
15.68354682658939
 30
0.0
 10
5.176284974387556
 20
15.68354682658939
 30
0.0
  0
SPLINE
  5
45C
330
1F
100
AcDbEntity
  8
Livello 1
100
AcDbSpline
210
0.0
220
0.0
230
1.0
 70
    11
 71
     3
 72
    17
 73
    13
 74
     0
 42
0.000000001
 43
0.0000000001
 40
0.0
 40
0.0
 40
0.0
 40
0.0
 40
1.0
 40
1.0
 40
1.0
 40
2.0
 40
2.0
 40
2.0
 40
3.0
 40
3.0
 40
3.0
 40
4.0
 40
4.0
 40
4.0
 40
4.0
 10
5.176284974387556
 20
22.08858222537873
 30
0.0
 10
3.439207272405525
 20
22.08858222537873
 30
0.0
 10
2.026331895951429
 20
20.67535022771229
 30
0.0
 10
2.026331895951429
 20
18.93862914694257
 30
0.0
 10
2.026331895951429
 20
17.2015474077393
 30
0.0
 10
3.439207272405525
 20
15.78867606850639
 30
0.0
 10
5.176284974387556
 20
15.78867606850639
 30
0.0
 10
6.913362676369601
 20
15.78867606850639
 30
0.0
 10
8.326236707083296
 20
17.2015474077393
 30
0.0
 10
8.326236707083296
 20
18.93862914694257
 30
0.0
 10
8.326236707083296
 20
20.67535022771229
 30
0.0
 10
6.913362676369601
 20
22.08858222537873
 30
0.0
 10
5.176284974387556
 20
22.08858222537873
 30
0.0
  0
SPLINE
  5
45D
330
1F
100
AcDbEntity
  8
Livello 1
100
AcDbSpline
210
0.0
220
0.0
230
1.0
 70
     8
 71
     3
 72
     8
 73
     4
 74
     0
 42
0.000000001
 43
0.0000000001
 40
0.0
 40
0.0
 40
0.0
 40
0.0
 40
1.0
 40
1.0
 40
1.0
 40
1.0
 10
1.142764488776194
 20
3.806389034239032
 30
0.0
 10
1.113836452623488
 20
3.806389034239032
 30
0.0
 10
1.090199867817673
 20
3.830020236083157
 30
0.0
 10
1.090199867817673
 20
3.858948272235835
 30
0.0
  0
SPLINE
  5
45E
330
1F
100
AcDbEntity
  8
Livello 1
100
AcDbSpline
210
0.0
220
0.0
230
1.0
 70
    24
 71
     3
 72
     8
 73
     4
 74
     0
 42
0.000000001
 43
0.0000000001
 40
1.0
 40
1.0
 40
1.0
 40
1.0
 40
2.0
 40
2.0
 40
2.0
 40
2.0
 10
1.090199867817673
 20
3.858948272235835
 30
0.0
 10
1.090199867817673
 20
3.858948272235835
 30
0.0
 10
1.090199867817673
 20
4.111893642316942
 30
0.0
 10
1.090199867817673
 20
4.111893642316942
 30
0.0
  0
SPLINE
  5
45F
330
1F
100
AcDbEntity
  8
Livello 1
100
AcDbSpline
210
0.0
220
0.0
230
1.0
 70
     8
 71
     3
 72
    11
 73
     7
 74
     0
 42
0.000000001
 43
0.0000000001
 40
2.0
 40
2.0
 40
2.0
 40
2.0
 40
3.0
 40
3.0
 40
3.0
 40
4.0
 40
4.0
 40
4.0
 40
4.0
 10
1.090199867817673
 20
4.111893642316942
 30
0.0
 10
1.090199867817673
 20
4.141171570979949
 30
0.0
 10
1.113836452623488
 20
4.164458263275534
 30
0.0
 10
1.142764488776194
 20
4.164458263275534
 30
0.0
 10
1.171691179188513
 20
4.164458263275534
 30
0.0
 10
1.195327763994328
 20
4.141171570979949
 30
0.0
 10
1.195327763994328
 20
4.111893642316942
 30
0.0
  0
SPLINE
  5
460
330
1F
100
AcDbEntity
  8
Livello 1
100
AcDbSpline
210
0.0
220
0.0
230
1.0
 70
    24
 71
     3
 72
     8
 73
     4
 74
     0
 42
0.000000001
 43
0.0000000001
 40
4.0
 40
4.0
 40
4.0
 40
4.0
 40
5.0
 40
5.0
 40
5.0
 40
5.0
 10
1.195327763994328
 20
4.111893642316942
 30
0.0
 10
1.195327763994328
 20
4.111893642316942
 30
0.0
 10
1.195327763994328
 20
3.858948272235835
 30
0.0
 10
1.195327763994328
 20
3.858948272235835
 30
0.0
  0
SPLINE
  5
461
330
1F
100
AcDbEntity
  8
Livello 1
100
AcDbSpline
210
0.0
220
0.0
230
1.0
 70
     8
 71
     3
 72
     8
 73
     4
 74
     0
 42
0.000000001
 43
0.0000000001
 40
5.0
 40
5.0
 40
5.0
 40
5.0
 40
6.0
 40
6.0
 40
6.0
 40
6.0
 10
1.195327763994328
 20
3.858948272235835
 30
0.0
 10
1.195327763994328
 20
3.830020236083157
 30
0.0
 10
1.171691179188513
 20
3.806389034239032
 30
0.0
 10
1.142764488776194
 20
3.806389034239032
 30
0.0
  0
SPLINE
  5
462
330
1F
100
AcDbEntity
  8
Livello 1
100
AcDbSpline
210
0.0
220
0.0
230
1.0
 70
    24
 71
     3
 72
     8
 73
     4
 74
     0
 42
0.000000001
 43
0.0000000001
 40
0.0
 40
0.0
 40
0.0
 40
0.0
 40
1.0
 40
1.0
 40
1.0
 40
1.0
 10
9.879657176190917
 20
2.262065770397157
 30
0.0
 10
9.879657176190917
 20
2.262065770397157
 30
0.0
 10
0.4802484036350308
 20
2.262065770397157
 30
0.0
 10
0.4802484036350308
 20
2.262065770397157
 30
0.0
  0
SPLINE
  5
463
330
1F
100
AcDbEntity
  8
Livello 1
100
AcDbSpline
210
0.0
220
0.0
230
1.0
 70
     8
 71
     3
 72
    11
 73
     7
 74
     0
 42
0.000000001
 43
0.0000000001
 40
1.0
 40
1.0
 40
1.0
 40
1.0
 40
2.0
 40
2.0
 40
2.0
 40
3.0
 40
3.0
 40
3.0
 40
3.0
 10
0.4802484036350308
 20
2.262065770397157
 30
0.0
 10
0.4513203674823103
 20
2.262065770397157
 30
0.0
 10
0.4276837826764961
 20
2.285347079731039
 30
0.0
 10
0.4276837826764961
 20
2.314275115883745
 30
0.0
 10
0.4276837826764961
 20
2.343203152036451
 30
0.0
 10
0.4513203674823103
 20
2.366839736842337
 30
0.0
 10
0.4802484036350308
 20
2.366839736842337
 30
0.0
  0
SPLINE
  5
464
330
1F
100
AcDbEntity
  8
Livello 1
100
AcDbSpline
210
0.0
220
0.0
230
1.0
 70
    24
 71
     3
 72
     8
 73
     4
 74
     0
 42
0.000000001
 43
0.0000000001
 40
3.0
 40
3.0
 40
3.0
 40
3.0
 40
4.0
 40
4.0
 40
4.0
 40
4.0
 10
0.4802484036350308
 20
2.366839736842337
 30
0.0
 10
0.4802484036350308
 20
2.366839736842337
 30
0.0
 10
9.879657176190917
 20
2.366839736842337
 30
0.0
 10
9.879657176190917
 20
2.366839736842337
 30
0.0
  0
SPLINE
  5
465
330
1F
100
AcDbEntity
  8
Livello 1
100
AcDbSpline
210
0.0
220
0.0
230
1.0
 70
     8
 71
     3
 72
    11
 73
     7
 74
     0
 42
0.000000001
 43
0.0000000001
 40
4.0
 40
4.0
 40
4.0
 40
4.0
 40
5.0
 40
5.0
 40
5.0
 40
6.0
 40
6.0
 40
6.0
 40
6.0
 10
9.879657176190917
 20
2.366839736842337
 30
0.0
 10
9.908585212343623
 20
2.366839736842337
 30
0.0
 10
9.932221797149438
 20
2.343203152036451
 30
0.0
 10
9.932221797149438
 20
2.314275115883745
 30
0.0
 10
9.932221797149438
 20
2.285347079731039
 30
0.0
 10
9.908585212343623
 20
2.262065770397157
 30
0.0
 10
9.879657176190917
 20
2.262065770397157
 30
0.0
  0
SPLINE
  5
466
330
1F
100
AcDbEntity
  8
Livello 1
100
AcDbSpline
210
0.0
220
0.0
230
1.0
 70
     8
 71
     3
 72
     8
 73
     4
 74
     0
 42
0.000000001
 43
0.0000000001
 40
0.0
 40
0.0
 40
0.0
 40
0.0
 40
1.0
 40
1.0
 40
1.0
 40
1.0
 10
9.235133640517645
 20
2.379893418954438
 30
0.0
 10
9.224198153832816
 20
2.379893418954438
 30
0.0
 10
9.213967835130134
 20
2.383419258865046
 30
0.0
 10
9.205500436382806
 20
2.389065985683828
 30
0.0
  0
SPLINE
  5
467
330
1F
100
AcDbEntity
  8
Livello 1
100
AcDbSpline
210
0.0
220
0.0
230
1.0
 70
    24
 71
     3
 72
     8
 73
     4
 74
     0
 42
0.000000001
 43
0.0000000001
 40
1.0
 40
1.0
 40
1.0
 40
1.0
 40
2.0
 40
2.0
 40
2.0
 40
2.0
 10
9.205500436382806
 20
2.389065985683828
 30
0.0
 10
9.205500436382806
 20
2.389065985683828
 30
0.0
 10
0.4802484036350308
 20
2.389065985683828
 30
0.0
 10
0.4802484036350308
 20
2.389065985683828
 30
0.0
  0
SPLINE
  5
468
330
1F
100
AcDbEntity
  8
Livello 1
100
AcDbSpline
210
0.0
220
0.0
230
1.0
 70
     8
 71
     3
 72
    11
 73
     7
 74
     0
 42
0.000000001
 43
0.0000000001
 40
2.0
 40
2.0
 40
2.0
 40
2.0
 40
3.0
 40
3.0
 40
3.0
 40
4.0
 40
4.0
 40
4.0
 40
4.0
 10
0.4802484036350308
 20
2.389065985683828
 30
0.0
 10
0.4513203674823103
 20
2.389065985683828
 30
0.0
 10
0.4276837826764961
 20
2.412702570489742
 30
0.0
 10
0.4276837826764961
 20
2.441630606642448
 30
0.0
 10
0.4276837826764961
 20
2.470558642795154
 30
0.0
 10
0.4513203674823103
 20
2.49419522760094
 30
0.0
 10
0.4802484036350308
 20
2.49419522760094
 30
0.0
  0
SPLINE
  5
469
330
1F
100
AcDbEntity
  8
Livello 1
100
AcDbSpline
210
0.0
220
0.0
230
1.0
 70
    24
 71
     3
 72
     8
 73
     4
 74
     0
 42
0.000000001
 43
0.0000000001
 40
4.0
 40
4.0
 40
4.0
 40
4.0
 40
5.0
 40
5.0
 40
5.0
 40
5.0
 10
0.4802484036350308
 20
2.49419522760094
 30
0.0
 10
0.4802484036350308
 20
2.49419522760094
 30
0.0
 10
1.081028646828585
 20
2.49419522760094
 30
0.0
 10
1.081028646828585
 20
2.49419522760094
 30
0.0
  0
SPLINE
  5
46A
330
1F
100
AcDbEntity
  8
Livello 1
100
AcDbSpline
210
0.0
220
0.0
230
1.0
 70
    24
 71
     3
 72
     8
 73
     4
 74
     0
 42
0.000000001
 43
0.0000000001
 40
5.0
 40
5.0
 40
5.0
 40
5.0
 40
6.0
 40
6.0
 40
6.0
 40
6.0
 10
1.081028646828585
 20
2.49419522760094
 30
0.0
 10
1.081028646828585
 20
2.49419522760094
 30
0.0
 10
1.081028646828585
 20
3.843569150671243
 30
0.0
 10
1.081028646828585
 20
3.843569150671243
 30
0.0
  0
SPLINE
  5
46B
330
1F
100
AcDbEntity
  8
Livello 1
100
AcDbSpline
210
0.0
220
0.0
230
1.0
 70
     8
 71
     3
 72
     8
 73
     4
 74
     0
 42
0.000000001
 43
0.0000000001
 40
6.0
 40
6.0
 40
6.0
 40
6.0
 40
7.0
 40
7.0
 40
7.0
 40
7.0
 10
1.081028646828585
 20
3.843569150671243
 30
0.0
 10
1.081028646828585
 20
3.872497186823949
 30
0.0
 10
1.104663885894041
 20
3.895778496157845
 30
0.0
 10
1.133591922046733
 20
3.895778496157845
 30
0.0
  0
SPLINE
  5
46C
330
1F
100
AcDbEntity
  8
Livello 1
100
AcDbSpline
210
0.0
220
0.0
230
1.0
 70
    24
 71
     3
 72
     8
 73
     4
 74
     0
 42
0.000000001
 43
0.0000000001
 40
7.0
 40
7.0
 40
7.0
 40
7.0
 40
8.0
 40
8.0
 40
8.0
 40
8.0
 10
1.133591922046733
 20
3.895778496157845
 30
0.0
 10
1.133591922046733
 20
3.895778496157845
 30
0.0
 10
9.235133640517645
 20
3.895778496157845
 30
0.0
 10
9.235133640517645
 20
3.895778496157845
 30
0.0
  0
SPLINE
  5
46D
330
1F
100
AcDbEntity
  8
Livello 1
100
AcDbSpline
210
0.0
220
0.0
230
1.0
 70
     8
 71
     3
 72
     8
 73
     4
 74
     0
 42
0.000000001
 43
0.0000000001
 40
8.0
 40
8.0
 40
8.0
 40
8.0
 40
9.0
 40
9.0
 40
9.0
 40
9.0
 10
9.235133640517645
 20
3.895778496157845
 30
0.0
 10
9.264061676670351
 20
3.895778496157845
 30
0.0
 10
9.287698261476165
 20
3.872497186823949
 30
0.0
 10
9.287698261476165
 20
3.843569150671243
 30
0.0
  0
SPLINE
  5
46E
330
1F
100
AcDbEntity
  8
Livello 1
100
AcDbSpline
210
0.0
220
0.0
230
1.0
 70
    24
 71
     3
 72
     8
 73
     4
 74
     0
 42
0.000000001
 43
0.0000000001
 40
9.0
 40
9.0
 40
9.0
 40
9.0
 40
10.0
 40
10.0
 40
10.0
 40
10.0
 10
9.287698261476165
 20
3.843569150671243
 30
0.0
 10
9.287698261476165
 20
3.843569150671243
 30
0.0
 10
9.287698261476165
 20
2.49419522760094
 30
0.0
 10
9.287698261476165
 20
2.49419522760094
 30
0.0
  0
SPLINE
  5
46F
330
1F
100
AcDbEntity
  8
Livello 1
100
AcDbSpline
210
0.0
220
0.0
230
1.0
 70
    24
 71
     3
 72
     8
 73
     4
 74
     0
 42
0.000000001
 43
0.0000000001
 40
10.0
 40
10.0
 40
10.0
 40
10.0
 40
11.0
 40
11.0
 40
11.0
 40
11.0
 10
9.287698261476165
 20
2.49419522760094
 30
0.0
 10
9.287698261476165
 20
2.49419522760094
 30
0.0
 10
9.879657176190917
 20
2.49419522760094
 30
0.0
 10
9.879657176190917
 20
2.49419522760094
 30
0.0
  0
SPLINE
  5
470
330
1F
100
AcDbEntity
  8
Livello 1
100
AcDbSpline
210
0.0
220
0.0
230
1.0
 70
     8
 71
     3
 72
    11
 73
     7
 74
     0
 42
0.000000001
 43
0.0000000001
 40
11.0
 40
11.0
 40
11.0
 40
11.0
 40
12.0
 40
12.0
 40
12.0
 40
13.0
 40
13.0
 40
13.0
 40
13.0
 10
9.879657176190917
 20
2.49419522760094
 30
0.0
 10
9.908585212343623
 20
2.49419522760094
 30
0.0
 10
9.932221797149438
 20
2.470558642795154
 30
0.0
 10
9.932221797149438
 20
2.441630606642448
 30
0.0
 10
9.932221797149438
 20
2.412702570489742
 30
0.0
 10
9.908585212343623
 20
2.389065985683828
 30
0.0
 10
9.879657176190917
 20
2.389065985683828
 30
0.0
  0
SPLINE
  5
471
330
1F
100
AcDbEntity
  8
Livello 1
100
AcDbSpline
210
0.0
220
0.0
230
1.0
 70
    24
 71
     3
 72
     8
 73
     4
 74
     0
 42
0.000000001
 43
0.0000000001
 40
13.0
 40
13.0
 40
13.0
 40
13.0
 40
14.0
 40
14.0
 40
14.0
 40
14.0
 10
9.879657176190917
 20
2.389065985683828
 30
0.0
 10
9.879657176190917
 20
2.389065985683828
 30
0.0
 10
9.264766844652498
 20
2.389065985683828
 30
0.0
 10
9.264766844652498
 20
2.389065985683828
 30
0.0
  0
SPLINE
  5
472
330
1F
100
AcDbEntity
  8
Livello 1
100
AcDbSpline
210
0.0
220
0.0
230
1.0
 70
     8
 71
     3
 72
     8
 73
     4
 74
     0
 42
0.000000001
 43
0.0000000001
 40
14.0
 40
14.0
 40
14.0
 40
14.0
 40
15.0
 40
15.0
 40
15.0
 40
15.0
 10
9.264766844652498
 20
2.389065985683828
 30
0.0
 10
9.256299445905142
 20
2.383419258865046
 30
0.0
 10
9.246069127202446
 20
2.379893418954438
 30
0.0
 10
9.235133640517645
 20
2.379893418954438
 30
0.0
  0
LINE
  5
473
330
1F
100
AcDbEntity
  8
Livello 1
100
AcDbLine
 10
1.186156543005282
 20
2.49419522760094
 30
0.0
 11
9.182921603550155
 21
2.49419522760094
 31
0.0
  0
LINE
  5
474
330
1F
100
AcDbEntity
  8
Livello 1
100
AcDbLine
 10
9.182921603550155
 20
2.49419522760094
 30
0.0
 11
9.182921603550155
 21
3.791004529712751
 31
0.0
  0
LINE
  5
475
330
1F
100
AcDbEntity
  8
Livello 1
100
AcDbLine
 10
9.182921603550155
 20
3.791004529712751
 30
0.0
 11
1.186156543005282
 21
3.791004529712751
 31
0.0
  0
LINE
  5
476
330
1F
100
AcDbEntity
  8
Livello 1
100
AcDbLine
 10
1.186156543005282
 20
3.791004529712751
 30
0.0
 11
1.186156543005282
 21
2.49419522760094
 31
0.0
  0
SPLINE
  5
477
330
1F
100
AcDbEntity
  8
Livello 1
100
AcDbSpline
210
0.0
220
0.0
230
1.0
 70
    24
 71
     3
 72
     8
 73
     4
 74
     0
 42
0.000000001
 43
0.0000000001
 40
0.0
 40
0.0
 40
0.0
 40
0.0
 40
1.0
 40
1.0
 40
1.0
 40
1.0
 10
2.43181425160364
 20
4.059468978362545
 30
0.0
 10
2.43181425160364
 20
4.059468978362545
 30
0.0
 10
2.431461667612566
 20
4.059468978362545
 30
0.0
 10
2.431461667612566
 20
4.059468978362545
 30
0.0
  0
SPLINE
  5
478
330
1F
100
AcDbEntity
  8
Livello 1
100
AcDbSpline
210
0.0
220
0.0
230
1.0
 70
    24
 71
     3
 72
     8
 73
     4
 74
     0
 42
0.000000001
 43
0.0000000001
 40
1.0
 40
1.0
 40
1.0
 40
1.0
 40
2.0
 40
2.0
 40
2.0
 40
2.0
 10
2.431461667612566
 20
4.059468978362545
 30
0.0
 10
2.431461667612566
 20
4.059468978362545
 30
0.0
 10
1.948861656967295
 20
4.059468978362545
 30
0.0
 10
1.948861656967295
 20
4.059468978362545
 30
0.0
  0
SPLINE
  5
479
330
1F
100
AcDbEntity
  8
Livello 1
100
AcDbSpline
210
0.0
220
0.0
230
1.0
 70
    24
 71
     3
 72
     8
 73
     4
 74
     0
 42
0.000000001
 43
0.0000000001
 40
2.0
 40
2.0
 40
2.0
 40
2.0
 40
3.0
 40
3.0
 40
3.0
 40
3.0
 10
1.948861656967295
 20
4.059468978362545
 30
0.0
 10
1.948861656967295
 20
4.059468978362545
 30
0.0
 10
1.948509072976222
 20
4.059468978362545
 30
0.0
 10
1.948509072976222
 20
4.059468978362545
 30
0.0
  0
SPLINE
  5
47A
330
1F
100
AcDbEntity
  8
Livello 1
100
AcDbSpline
210
0.0
220
0.0
230
1.0
 70
    24
 71
     3
 72
     8
 73
     4
 74
     0
 42
0.000000001
 43
0.0000000001
 40
3.0
 40
3.0
 40
3.0
 40
3.0
 40
4.0
 40
4.0
 40
4.0
 40
4.0
 10
1.948509072976222
 20
4.059468978362545
 30
0.0
 10
1.948509072976222
 20
4.059468978362545
 30
0.0
 10
1.142764488776194
 20
4.059468978362545
 30
0.0
 10
1.142764488776194
 20
4.059468978362545
 30
0.0
  0
SPLINE
  5
47B
330
1F
100
AcDbEntity
  8
Livello 1
100
AcDbSpline
210
0.0
220
0.0
230
1.0
 70
     8
 71
     3
 72
    11
 73
     7
 74
     0
 42
0.000000001
 43
0.0000000001
 40
4.0
 40
4.0
 40
4.0
 40
4.0
 40
5.0
 40
5.0
 40
5.0
 40
6.0
 40
6.0
 40
6.0
 40
6.0
 10
1.142764488776194
 20
4.059468978362545
 30
0.0
 10
1.113836452623488
 20
4.059468978362545
 30
0.0
 10
1.090199867817673
 20
4.083105563168345
 30
0.0
 10
1.090199867817673
 20
4.112033599321051
 30
0.0
 10
1.090199867817673
 20
4.140961635473743
 30
0.0
 10
1.113836452623488
 20
4.164598220279643
 30
0.0
 10
1.142764488776194
 20
4.164598220279643
 30
0.0
  0
SPLINE
  5
47C
330
1F
100
AcDbEntity
  8
Livello 1
100
AcDbSpline
210
0.0
220
0.0
230
1.0
 70
    24
 71
     3
 72
     8
 73
     4
 74
     0
 42
0.000000001
 43
0.0000000001
 40
6.0
 40
6.0
 40
6.0
 40
6.0
 40
7.0
 40
7.0
 40
7.0
 40
7.0
 10
1.142764488776194
 20
4.164598220279643
 30
0.0
 10
1.142764488776194
 20
4.164598220279643
 30
0.0
 10
1.574564144158713
 20
4.164598220279643
 30
0.0
 10
1.574564144158713
 20
4.164598220279643
 30
0.0
  0
SPLINE
  5
47D
330
1F
100
AcDbEntity
  8
Livello 1
100
AcDbSpline
210
0.0
220
0.0
230
1.0
 70
    24
 71
     3
 72
     8
 73
     4
 74
     0
 42
0.000000001
 43
0.0000000001
 40
7.0
 40
7.0
 40
7.0
 40
7.0
 40
8.0
 40
8.0
 40
8.0
 40
8.0
 10
1.574564144158713
 20
4.164598220279643
 30
0.0
 10
1.574564144158713
 20
4.164598220279643
 30
0.0
 10
1.609488799640445
 20
6.218117362764843
 30
0.0
 10
1.609488799640445
 20
6.218117362764843
 30
0.0
  0
SPLINE
  5
47E
330
1F
100
AcDbEntity
  8
Livello 1
100
AcDbSpline
210
0.0
220
0.0
230
1.0
 70
     8
 71
     3
 72
     8
 73
     4
 74
     0
 42
0.000000001
 43
0.0000000001
 40
8.0
 40
8.0
 40
8.0
 40
8.0
 40
9.0
 40
9.0
 40
9.0
 40
9.0
 10
1.609488799640445
 20
6.218117362764843
 30
0.0
 10
1.610195313363007
 20
6.247045398917535
 30
0.0
 10
1.638416835793151
 20
6.269621540269341
 30
0.0
 10
1.663111172572172
 20
6.269621540269341
 30
0.0
  0
SPLINE
  5
47F
330
1F
100
AcDbEntity
  8
Livello 1
100
AcDbSpline
210
0.0
220
0.0
230
1.0
 70
     8
 71
     3
 72
     8
 73
     4
 74
     0
 42
0.000000001
 43
0.0000000001
 40
9.0
 40
9.0
 40
9.0
 40
9.0
 40
10.0
 40
10.0
 40
10.0
 40
10.0
 10
1.663111172572172
 20
6.269621540269341
 30
0.0
 10
1.692039208724878
 20
6.268916372287151
 30
0.0
 10
1.714969279808158
 20
6.244924512009433
 30
0.0
 10
1.714616695817085
 20
6.216001858818444
 30
0.0
  0
SPLINE
  5
480
330
1F
100
AcDbEntity
  8
Livello 1
100
AcDbSpline
210
0.0
220
0.0
230
1.0
 70
    24
 71
     3
 72
     8
 73
     4
 74
     0
 42
0.000000001
 43
0.0000000001
 40
10.0
 40
10.0
 40
10.0
 40
10.0
 40
11.0
 40
11.0
 40
11.0
 40
11.0
 10
1.714616695817085
 20
6.216001858818444
 30
0.0
 10
1.714616695817085
 20
6.216001858818444
 30
0.0
 10
1.679692040335368
 20
4.164598220279643
 30
0.0
 10
1.679692040335368
 20
4.164598220279643
 30
0.0
  0
SPLINE
  5
481
330
1F
100
AcDbEntity
  8
Livello 1
100
AcDbSpline
210
0.0
220
0.0
230
1.0
 70
    24
 71
     3
 72
     8
 73
     4
 74
     0
 42
0.000000001
 43
0.0000000001
 40
11.0
 40
11.0
 40
11.0
 40
11.0
 40
12.0
 40
12.0
 40
12.0
 40
12.0
 10
1.679692040335368
 20
4.164598220279643
 30
0.0
 10
1.679692040335368
 20
4.164598220279643
 30
0.0
 10
1.897356133722368
 20
4.164598220279643
 30
0.0
 10
1.897356133722368
 20
4.164598220279643
 30
0.0
  0
SPLINE
  5
482
330
1F
100
AcDbEntity
  8
Livello 1
100
AcDbSpline
210
0.0
220
0.0
230
1.0
 70
    24
 71
     3
 72
     8
 73
     4
 74
     0
 42
0.000000001
 43
0.0000000001
 40
12.0
 40
12.0
 40
12.0
 40
12.0
 40
13.0
 40
13.0
 40
13.0
 40
13.0
 10
1.897356133722368
 20
4.164598220279643
 30
0.0
 10
1.897356133722368
 20
4.164598220279643
 30
0.0
 10
1.949566824949442
 20
6.290082177674648
 30
0.0
 10
1.949566824949442
 20
6.290082177674648
 30
0.0
  0
SPLINE
  5
483
330
1F
100
AcDbEntity
  8
Livello 1
100
AcDbSpline
210
0.0
220
0.0
230
1.0
 70
     8
 71
     3
 72
     8
 73
     4
 74
     0
 42
0.000000001
 43
0.0000000001
 40
13.0
 40
13.0
 40
13.0
 40
13.0
 40
14.0
 40
14.0
 40
14.0
 40
14.0
 10
1.949566824949442
 20
6.290082177674648
 30
0.0
 10
1.950273338672005
 20
6.31901021382734
 30
0.0
 10
1.971791728050561
 20
6.33982612670465
 30
0.0
 10
2.003541781872243
 20
6.341236462668945
 30
0.0
  0
SPLINE
  5
484
330
1F
100
AcDbEntity
  8
Livello 1
100
AcDbSpline
210
0.0
220
0.0
230
1.0
 70
     8
 71
     3
 72
     8
 73
     4
 74
     0
 42
0.000000001
 43
0.0000000001
 40
14.0
 40
14.0
 40
14.0
 40
14.0
 40
15.0
 40
15.0
 40
15.0
 40
15.0
 10
2.003541781872243
 20
6.341236462668945
 30
0.0
 10
2.032469818024949
 20
6.340531294686741
 30
0.0
 10
2.055399889108215
 20
6.316189541898836
 30
0.0
 10
2.054694721126068
 20
6.287261505746144
 30
0.0
  0
SPLINE
  5
485
330
1F
100
AcDbEntity
  8
Livello 1
100
AcDbSpline
210
0.0
220
0.0
230
1.0
 70
    24
 71
     3
 72
     8
 73
     4
 74
     0
 42
0.000000001
 43
0.0000000001
 40
15.0
 40
15.0
 40
15.0
 40
15.0
 40
16.0
 40
16.0
 40
16.0
 40
16.0
 10
2.054694721126068
 20
6.287261505746144
 30
0.0
 10
2.054694721126068
 20
6.287261505746144
 30
0.0
 10
2.002484029899036
 20
4.164598220279643
 30
0.0
 10
2.002484029899036
 20
4.164598220279643
 30
0.0
  0
SPLINE
  5
486
330
1F
100
AcDbEntity
  8
Livello 1
100
AcDbSpline
210
0.0
220
0.0
230
1.0
 70
    24
 71
     3
 72
     8
 73
     4
 74
     0
 42
0.000000001
 43
0.0000000001
 40
16.0
 40
16.0
 40
16.0
 40
16.0
 40
17.0
 40
17.0
 40
17.0
 40
17.0
 10
2.002484029899036
 20
4.164598220279643
 30
0.0
 10
2.002484029899036
 20
4.164598220279643
 30
0.0
 10
2.380661312349815
 20
4.164598220279643
 30
0.0
 10
2.380661312349815
 20
4.164598220279643
 30
0.0
  0
SPLINE
  5
487
330
1F
100
AcDbEntity
  8
Livello 1
100
AcDbSpline
210
0.0
220
0.0
230
1.0
 70
    24
 71
     3
 72
     8
 73
     4
 74
     0
 42
0.000000001
 43
0.0000000001
 40
17.0
 40
17.0
 40
17.0
 40
17.0
 40
18.0
 40
18.0
 40
18.0
 40
18.0
 10
2.380661312349815
 20
4.164598220279643
 30
0.0
 10
2.380661312349815
 20
4.164598220279643
 30
0.0
 10
2.432873349317276
 20
6.379337065551155
 30
0.0
 10
2.432873349317276
 20
6.379337065551155
 30
0.0
  0
SPLINE
  5
488
330
1F
100
AcDbEntity
  8
Livello 1
100
AcDbSpline
210
0.0
220
0.0
230
1.0
 70
     8
 71
     3
 72
     8
 73
     4
 74
     0
 42
0.000000001
 43
0.0000000001
 40
18.0
 40
18.0
 40
18.0
 40
18.0
 40
19.0
 40
19.0
 40
19.0
 40
19.0
 10
2.432873349317276
 20
6.379337065551155
 30
0.0
 10
2.433578517299395
 20
6.408265101703847
 30
0.0
 10
2.461447455738479
 20
6.429780799601545
 30
0.0
 10
2.486848306240077
 20
6.430841243055652
 30
0.0
  0
SPLINE
  5
489
330
1F
100
AcDbEntity
  8
Livello 1
100
AcDbSpline
210
0.0
220
0.0
230
1.0
 70
     8
 71
     3
 72
     8
 73
     4
 74
     0
 42
0.000000001
 43
0.0000000001
 40
19.0
 40
19.0
 40
19.0
 40
19.0
 40
20.0
 40
20.0
 40
20.0
 40
20.0
 10
2.486848306240077
 20
6.430841243055652
 30
0.0
 10
2.515774996652368
 20
6.429780799601545
 30
0.0
 10
2.538706413476035
 20
6.406144214795759
 30
0.0
 10
2.537999899753501
 20
6.376866286132752
 30
0.0
  0
SPLINE
  5
48A
330
1F
100
AcDbEntity
  8
Livello 1
100
AcDbSpline
210
0.0
220
0.0
230
1.0
 70
    24
 71
     3
 72
     8
 73
     4
 74
     0
 42
0.000000001
 43
0.0000000001
 40
20.0
 40
20.0
 40
20.0
 40
20.0
 40
21.0
 40
21.0
 40
21.0
 40
21.0
 10
2.537999899753501
 20
6.376866286132752
 30
0.0
 10
2.537999899753501
 20
6.376866286132752
 30
0.0
 10
2.484378872562174
 20
4.110623263356757
 30
0.0
 10
2.484378872562174
 20
4.110623263356757
 30
0.0
  0
SPLINE
  5
48B
330
1F
100
AcDbEntity
  8
Livello 1
100
AcDbSpline
210
0.0
220
0.0
230
1.0
 70
     8
 71
     3
 72
     8
 73
     4
 74
     0
 42
0.000000001
 43
0.0000000001
 40
21.0
 40
21.0
 40
21.0
 40
21.0
 40
22.0
 40
22.0
 40
22.0
 40
22.0
 10
2.484378872562174
 20
4.110623263356757
 30
0.0
 10
2.484024942830671
 20
4.104271368555842
 30
0.0
 10
2.482967190857479
 20
4.098274749226845
 30
0.0
 10
2.480497757179577
 20
4.092628022408035
 30
0.0
  0
SPLINE
  5
48C
330
1F
100
AcDbEntity
  8
Livello 1
100
AcDbSpline
210
0.0
220
0.0
230
1.0
 70
     8
 71
     3
 72
     8
 73
     4
 74
     0
 42
0.000000001
 43
0.0000000001
 40
22.0
 40
22.0
 40
22.0
 40
22.0
 40
23.0
 40
23.0
 40
23.0
 40
23.0
 10
2.480497757179577
 20
4.092628022408035
 30
0.0
 10
2.47838090749272
 20
4.087336571061143
 30
0.0
 10
2.475558889823773
 20
4.082750287696441
 30
0.0
 10
2.472031704172636
 20
4.078519279803643
 30
0.0
  0
SPLINE
  5
48D
330
1F
100
AcDbEntity
  8
Livello 1
100
AcDbSpline
210
0.0
220
0.0
230
1.0
 70
    24
 71
     3
 72
     8
 73
     4
 74
     0
 42
0.000000001
 43
0.0000000001
 40
23.0
 40
23.0
 40
23.0
 40
23.0
 40
24.0
 40
24.0
 40
24.0
 40
24.0
 10
2.472031704172636
 20
4.078519279803643
 30
0.0
 10
2.472031704172636
 20
4.078519279803643
 30
0.0
 10
2.472031704172636
 20
4.078164004331753
 30
0.0
 10
2.472031704172636
 20
4.078164004331753
 30
0.0
  0
SPLINE
  5
48E
330
1F
100
AcDbEntity
  8
Livello 1
100
AcDbSpline
210
0.0
220
0.0
230
1.0
 70
    24
 71
     3
 72
     8
 73
     4
 74
     0
 42
0.000000001
 43
0.0000000001
 40
24.0
 40
24.0
 40
24.0
 40
24.0
 40
25.0
 40
25.0
 40
25.0
 40
25.0
 10
2.472031704172636
 20
4.078164004331753
 30
0.0
 10
2.472031704172636
 20
4.078164004331753
 30
0.0
 10
2.471677774441161
 20
4.078164004331753
 30
0.0
 10
2.471677774441161
 20
4.078164004331753
 30
0.0
  0
SPLINE
  5
48F
330
1F
100
AcDbEntity
  8
Livello 1
100
AcDbSpline
210
0.0
220
0.0
230
1.0
 70
    24
 71
     3
 72
     8
 73
     4
 74
     0
 42
0.000000001
 43
0.0000000001
 40
25.0
 40
25.0
 40
25.0
 40
25.0
 40
26.0
 40
26.0
 40
26.0
 40
26.0
 10
2.471677774441161
 20
4.078164004331753
 30
0.0
 10
2.471677774441161
 20
4.078164004331753
 30
0.0
 10
2.471677774441161
 20
4.077814111821453
 30
0.0
 10
2.471677774441161
 20
4.077814111821453
 30
0.0
  0
SPLINE
  5
490
330
1F
100
AcDbEntity
  8
Livello 1
100
AcDbSpline
210
0.0
220
0.0
230
1.0
 70
     8
 71
     3
 72
     8
 73
     4
 74
     0
 42
0.000000001
 43
0.0000000001
 40
26.0
 40
26.0
 40
26.0
 40
26.0
 40
27.0
 40
27.0
 40
27.0
 40
27.0
 10
2.471677774441161
 20
4.077814111821453
 30
0.0
 10
2.465328571121077
 20
4.070407156528162
 30
0.0
 10
2.45686117237372
 20
4.064760429709323
 30
0.0
 10
2.4473360216532
 20
4.061939757780848
 30
0.0
  0
SPLINE
  5
491
330
1F
100
AcDbEntity
  8
Livello 1
100
AcDbSpline
210
0.0
220
0.0
230
1.0
 70
     8
 71
     3
 72
     8
 73
     4
 74
     0
 42
0.000000001
 43
0.0000000001
 40
27.0
 40
27.0
 40
27.0
 40
27.0
 40
28.0
 40
28.0
 40
28.0
 40
28.0
 10
2.4473360216532
 20
4.061939757780848
 30
0.0
 10
2.442397154297381
 20
4.06017414634465
 30
0.0
 10
2.437105702950532
 20
4.059468978362545
 30
0.0
 10
2.43181425160364
 20
4.059468978362545
 30
0.0
  0
SPLINE
  5
492
330
1F
100
AcDbEntity
  8
Livello 1
100
AcDbSpline
210
0.0
220
0.0
230
1.0
 70
    24
 71
     3
 72
     8
 73
     4
 74
     0
 42
0.000000001
 43
0.0000000001
 40
0.0
 40
0.0
 40
0.0
 40
0.0
 40
1.0
 40
1.0
 40
1.0
 40
1.0
 10
9.217493675040785
 20
4.059468978362545
 30
0.0
 10
9.217493675040785
 20
4.059468978362545
 30
0.0
 10
7.928445257953811
 20
4.059468978362545
 30
0.0
 10
7.928445257953811
 20
4.059468978362545
 30
0.0
  0
SPLINE
  5
493
330
1F
100
AcDbEntity
  8
Livello 1
100
AcDbSpline
210
0.0
220
0.0
230
1.0
 70
     8
 71
     3
 72
    11
 73
     7
 74
     0
 42
0.000000001
 43
0.0000000001
 40
1.0
 40
1.0
 40
1.0
 40
1.0
 40
2.0
 40
2.0
 40
2.0
 40
3.0
 40
3.0
 40
3.0
 40
3.0
 10
7.928445257953811
 20
4.059468978362545
 30
0.0
 10
7.899517221801104
 20
4.059468978362545
 30
0.0
 10
7.875881982735705
 20
4.083105563168345
 30
0.0
 10
7.875881982735705
 20
4.112033599321051
 30
0.0
 10
7.875881982735705
 20
4.140961635473743
 30
0.0
 10
7.899517221801104
 20
4.164598220279643
 30
0.0
 10
7.928445257953811
 20
4.164598220279643
 30
0.0
  0
SPLINE
  5
494
330
1F
100
AcDbEntity
  8
Livello 1
100
AcDbSpline
210
0.0
220
0.0
230
1.0
 70
    24
 71
     3
 72
     8
 73
     4
 74
     0
 42
0.000000001
 43
0.0000000001
 40
3.0
 40
3.0
 40
3.0
 40
3.0
 40
4.0
 40
4.0
 40
4.0
 40
4.0
 10
7.928445257953811
 20
4.164598220279643
 30
0.0
 10
7.928445257953811
 20
4.164598220279643
 30
0.0
 10
9.217493675040785
 20
4.164598220279643
 30
0.0
 10
9.217493675040785
 20
4.164598220279643
 30
0.0
  0
SPLINE
  5
495
330
1F
100
AcDbEntity
  8
Livello 1
100
AcDbSpline
210
0.0
220
0.0
230
1.0
 70
     8
 71
     3
 72
    11
 73
     7
 74
     0
 42
0.000000001
 43
0.0000000001
 40
4.0
 40
4.0
 40
4.0
 40
4.0
 40
5.0
 40
5.0
 40
5.0
 40
6.0
 40
6.0
 40
6.0
 40
6.0
 10
9.217493675040785
 20
4.164598220279643
 30
0.0
 10
9.246421711193519
 20
4.164598220279643
 30
0.0
 10
9.269705712008274
 20
4.140961635473743
 30
0.0
 10
9.269705712008274
 20
4.112033599321051
 30
0.0
 10
9.269705712008274
 20
4.083105563168345
 30
0.0
 10
9.246421711193519
 20
4.059468978362545
 30
0.0
 10
9.217493675040785
 20
4.059468978362545
 30
0.0
  0
SPLINE
  5
496
330
1F
100
AcDbEntity
  8
Livello 1
100
AcDbSpline
210
0.0
220
0.0
230
1.0
 70
    24
 71
     3
 72
     8
 73
     4
 74
     0
 42
0.000000001
 43
0.0000000001
 40
0.0
 40
0.0
 40
0.0
 40
0.0
 40
1.0
 40
1.0
 40
1.0
 40
1.0
 10
1.411228937426002
 20
5.931663056127945
 30
0.0
 10
1.411228937426002
 20
5.931663056127945
 30
0.0
 10
1.393236387958125
 20
5.931663056127945
 30
0.0
 10
1.393236387958125
 20
5.931663056127945
 30
0.0
  0
SPLINE
  5
497
330
1F
100
AcDbEntity
  8
Livello 1
100
AcDbSpline
210
0.0
220
0.0
230
1.0
 70
     8
 71
     3
 72
     8
 73
     4
 74
     0
 42
0.000000001
 43
0.0000000001
 40
1.0
 40
1.0
 40
1.0
 40
1.0
 40
2.0
 40
2.0
 40
2.0
 40
2.0
 10
1.393236387958125
 20
5.931663056127945
 30
0.0
 10
1.39041437028915
 20
5.931663056127945
 30
0.0
 10
1.3872397686291
 20
5.932012948638245
 30
0.0
 10
1.384417750960139
 20
5.932368224110149
 30
0.0
  0
SPLINE
  5
498
330
1F
100
AcDbEntity
  8
Livello 1
100
AcDbSpline
210
0.0
220
0.0
230
1.0
 70
     8
 71
     3
 72
     8
 73
     4
 74
     0
 42
0.000000001
 43
0.0000000001
 40
2.0
 40
2.0
 40
2.0
 40
2.0
 40
3.0
 40
3.0
 40
3.0
 40
3.0
 10
1.384417750960139
 20
5.932368224110149
 30
0.0
 10
1.381594387550734
 20
5.932012948638245
 30
0.0
 10
1.378419785890699
 20
5.931663056127945
 30
0.0
 10
1.375597768221709
 20
5.931663056127945
 30
0.0
  0
SPLINE
  5
499
330
1F
100
AcDbEntity
  8
Livello 1
100
AcDbSpline
210
0.0
220
0.0
230
1.0
 70
    24
 71
     3
 72
     8
 73
     4
 74
     0
 42
0.000000001
 43
0.0000000001
 40
3.0
 40
3.0
 40
3.0
 40
3.0
 40
4.0
 40
4.0
 40
4.0
 40
4.0
 10
1.375597768221709
 20
5.931663056127945
 30
0.0
 10
1.375597768221709
 20
5.931663056127945
 30
0.0
 10
1.357606564494261
 20
5.931663056127945
 30
0.0
 10
1.357606564494261
 20
5.931663056127945
 30
0.0
  0
SPLINE
  5
49A
330
1F
100
AcDbEntity
  8
Livello 1
100
AcDbSpline
210
0.0
220
0.0
230
1.0
 70
     8
 71
     3
 72
    11
 73
     7
 74
     0
 42
0.000000001
 43
0.0000000001
 40
4.0
 40
4.0
 40
4.0
 40
4.0
 40
5.0
 40
5.0
 40
5.0
 40
6.0
 40
6.0
 40
6.0
 40
6.0
 10
1.357606564494261
 20
5.931663056127945
 30
0.0
 10
1.328678528341569
 20
5.931663056127945
 30
0.0
 10
1.305041943535727
 20
5.955294257972155
 30
0.0
 10
1.305041943535727
 20
5.984222294124847
 30
0.0
 10
1.305041943535727
 20
6.013150330277554
 30
0.0
 10
1.328678528341569
 20
6.036786915083339
 30
0.0
 10
1.357606564494261
 20
6.036786915083339
 30
0.0
  0
SPLINE
  5
49B
330
1F
100
AcDbEntity
  8
Livello 1
100
AcDbSpline
210
0.0
220
0.0
230
1.0
 70
    24
 71
     3
 72
     8
 73
     4
 74
     0
 42
0.000000001
 43
0.0000000001
 40
6.0
 40
6.0
 40
6.0
 40
6.0
 40
7.0
 40
7.0
 40
7.0
 40
7.0
 10
1.357606564494261
 20
6.036786915083339
 30
0.0
 10
1.357606564494261
 20
6.036786915083339
 30
0.0
 10
1.375597768221709
 20
6.036786915083339
 30
0.0
 10
1.375597768221709
 20
6.036786915083339
 30
0.0
  0
SPLINE
  5
49C
330
1F
100
AcDbEntity
  8
Livello 1
100
AcDbSpline
210
0.0
220
0.0
230
1.0
 70
     8
 71
     3
 72
     8
 73
     4
 74
     0
 42
0.000000001
 43
0.0000000001
 40
7.0
 40
7.0
 40
7.0
 40
7.0
 40
8.0
 40
8.0
 40
8.0
 40
8.0
 10
1.375597768221709
 20
6.036786915083339
 30
0.0
 10
1.378419785890699
 20
6.036786915083339
 30
0.0
 10
1.381594387550734
 20
6.036437022573153
 30
0.0
 10
1.384417750960139
 20
6.035731854591034
 30
0.0
  0
SPLINE
  5
49D
330
1F
100
AcDbEntity
  8
Livello 1
100
AcDbSpline
210
0.0
220
0.0
230
1.0
 70
     8
 71
     3
 72
     8
 73
     4
 74
     0
 42
0.000000001
 43
0.0000000001
 40
8.0
 40
8.0
 40
8.0
 40
8.0
 40
9.0
 40
9.0
 40
9.0
 40
9.0
 10
1.384417750960139
 20
6.035731854591034
 30
0.0
 10
1.3872397686291
 20
6.036437022573153
 30
0.0
 10
1.39041437028915
 20
6.036786915083339
 30
0.0
 10
1.393236387958125
 20
6.036786915083339
 30
0.0
  0
SPLINE
  5
49E
330
1F
100
AcDbEntity
  8
Livello 1
100
AcDbSpline
210
0.0
220
0.0
230
1.0
 70
    24
 71
     3
 72
     8
 73
     4
 74
     0
 42
0.000000001
 43
0.0000000001
 40
9.0
 40
9.0
 40
9.0
 40
9.0
 40
10.0
 40
10.0
 40
10.0
 40
10.0
 10
1.393236387958125
 20
6.036786915083339
 30
0.0
 10
1.393236387958125
 20
6.036786915083339
 30
0.0
 10
1.411228937426002
 20
6.036786915083339
 30
0.0
 10
1.411228937426002
 20
6.036786915083339
 30
0.0
  0
SPLINE
  5
49F
330
1F
100
AcDbEntity
  8
Livello 1
100
AcDbSpline
210
0.0
220
0.0
230
1.0
 70
     8
 71
     3
 72
    11
 73
     7
 74
     0
 42
0.000000001
 43
0.0000000001
 40
10.0
 40
10.0
 40
10.0
 40
10.0
 40
11.0
 40
11.0
 40
11.0
 40
12.0
 40
12.0
 40
12.0
 40
12.0
 10
1.411228937426002
 20
6.036786915083339
 30
0.0
 10
1.440155627838279
 20
6.036786915083339
 30
0.0
 10
1.463792212644136
 20
6.013150330277554
 30
0.0
 10
1.463792212644136
 20
5.984222294124847
 30
0.0
 10
1.463792212644136
 20
5.955294257972155
 30
0.0
 10
1.440155627838279
 20
5.931663056127945
 30
0.0
 10
1.411228937426002
 20
5.931663056127945
 30
0.0
  0
SPLINE
  5
4A0
330
1F
100
AcDbEntity
  8
Livello 1
100
AcDbSpline
210
0.0
220
0.0
230
1.0
 70
    24
 71
     3
 72
     8
 73
     4
 74
     0
 42
0.000000001
 43
0.0000000001
 40
0.0
 40
0.0
 40
0.0
 40
0.0
 40
1.0
 40
1.0
 40
1.0
 40
1.0
 10
9.217353718036719
 20
4.077534197813335
 30
0.0
 10
9.217353718036719
 20
4.077534197813335
 30
0.0
 10
8.966526543382926
 20
4.077534197813335
 30
0.0
 10
8.966526543382926
 20
4.077534197813335
 30
0.0
  0
SPLINE
  5
4A1
330
1F
100
AcDbEntity
  8
Livello 1
100
AcDbSpline
210
0.0
220
0.0
230
1.0
 70
     8
 71
     3
 72
    11
 73
     7
 74
     0
 42
0.000000001
 43
0.0000000001
 40
1.0
 40
1.0
 40
1.0
 40
1.0
 40
2.0
 40
2.0
 40
2.0
 40
3.0
 40
3.0
 40
3.0
 40
3.0
 10
8.966526543382926
 20
4.077534197813335
 30
0.0
 10
8.937598507230191
 20
4.077534197813335
 30
0.0
 10
8.914317197896281
 20
4.101165399657446
 30
0.0
 10
8.914317197896281
 20
4.130093435810152
 30
0.0
 10
8.914317197896281
 20
4.159021471962844
 30
0.0
 10
8.937598507230191
 20
4.182658056768659
 30
0.0
 10
8.966526543382926
 20
4.182658056768659
 30
0.0
  0
SPLINE
  5
4A2
330
1F
100
AcDbEntity
  8
Livello 1
100
AcDbSpline
210
0.0
220
0.0
230
1.0
 70
    24
 71
     3
 72
     8
 73
     4
 74
     0
 42
0.000000001
 43
0.0000000001
 40
3.0
 40
3.0
 40
3.0
 40
3.0
 40
4.0
 40
4.0
 40
4.0
 40
4.0
 10
8.966526543382926
 20
4.182658056768659
 30
0.0
 10
8.966526543382926
 20
4.182658056768659
 30
0.0
 10
9.217353718036719
 20
4.182658056768659
 30
0.0
 10
9.217353718036719
 20
4.182658056768659
 30
0.0
  0
SPLINE
  5
4A3
330
1F
100
AcDbEntity
  8
Livello 1
100
AcDbSpline
210
0.0
220
0.0
230
1.0
 70
     8
 71
     3
 72
    11
 73
     7
 74
     0
 42
0.000000001
 43
0.0000000001
 40
4.0
 40
4.0
 40
4.0
 40
4.0
 40
5.0
 40
5.0
 40
5.0
 40
6.0
 40
6.0
 40
6.0
 40
6.0
 10
9.217353718036719
 20
4.182658056768659
 30
0.0
 10
9.24627906270858
 20
4.182658056768659
 30
0.0
 10
9.269915647514437
 20
4.159021471962844
 30
0.0
 10
9.269915647514437
 20
4.130093435810152
 30
0.0
 10
9.269915647514437
 20
4.101165399657446
 30
0.0
 10
9.24627906270858
 20
4.077534197813335
 30
0.0
 10
9.217353718036719
 20
4.077534197813335
 30
0.0
  0
SPLINE
  5
4A4
330
1F
100
AcDbEntity
  8
Livello 1
100
AcDbSpline
210
0.0
220
0.0
230
1.0
 70
    24
 71
     3
 72
     8
 73
     4
 74
     0
 42
0.000000001
 43
0.0000000001
 40
0.0
 40
0.0
 40
0.0
 40
0.0
 40
1.0
 40
1.0
 40
1.0
 40
1.0
 10
9.073913937731319
 20
4.166885979000255
 30
0.0
 10
9.073913937731319
 20
4.166885979000255
 30
0.0
 10
8.966669191867836
 20
4.166885979000255
 30
0.0
 10
8.966669191867836
 20
4.166885979000255
 30
0.0
  0
SPLINE
  5
4A5
330
1F
100
AcDbEntity
  8
Livello 1
100
AcDbSpline
210
0.0
220
0.0
230
1.0
 70
     8
 71
     3
 72
    11
 73
     7
 74
     0
 42
0.000000001
 43
0.0000000001
 40
1.0
 40
1.0
 40
1.0
 40
1.0
 40
2.0
 40
2.0
 40
2.0
 40
3.0
 40
3.0
 40
3.0
 40
3.0
 10
8.966669191867836
 20
4.166885979000255
 30
0.0
 10
8.93774115571513
 20
4.166885979000255
 30
0.0
 10
8.914104570909302
 20
4.19052256380614
 30
0.0
 10
8.914104570909302
 20
4.219450599958832
 30
0.0
 10
8.914104570909302
 20
4.248378636111539
 30
0.0
 10
8.93774115571513
 20
4.272015220917324
 30
0.0
 10
8.966669191867836
 20
4.272015220917324
 30
0.0
  0
SPLINE
  5
4A6
330
1F
100
AcDbEntity
  8
Livello 1
100
AcDbSpline
210
0.0
220
0.0
230
1.0
 70
    24
 71
     3
 72
     8
 73
     4
 74
     0
 42
0.000000001
 43
0.0000000001
 40
3.0
 40
3.0
 40
3.0
 40
3.0
 40
4.0
 40
4.0
 40
4.0
 40
4.0
 10
8.966669191867836
 20
4.272015220917324
 30
0.0
 10
8.966669191867836
 20
4.272015220917324
 30
0.0
 10
9.073913937731319
 20
4.272015220917324
 30
0.0
 10
9.073913937731319
 20
4.272015220917324
 30
0.0
  0
SPLINE
  5
4A7
330
1F
100
AcDbEntity
  8
Livello 1
100
AcDbSpline
210
0.0
220
0.0
230
1.0
 70
     8
 71
     3
 72
    11
 73
     7
 74
     0
 42
0.000000001
 43
0.0000000001
 40
4.0
 40
4.0
 40
4.0
 40
4.0
 40
5.0
 40
5.0
 40
5.0
 40
6.0
 40
6.0
 40
6.0
 40
6.0
 10
9.073913937731319
 20
4.272015220917324
 30
0.0
 10
9.102841973884039
 20
4.272015220917324
 30
0.0
 10
9.126478558689868
 20
4.248378636111539
 30
0.0
 10
9.126478558689868
 20
4.219450599958832
 30
0.0
 10
9.126478558689868
 20
4.19052256380614
 30
0.0
 10
9.102841973884039
 20
4.166885979000255
 30
0.0
 10
9.073913937731319
 20
4.166885979000255
 30
0.0
  0
SPLINE
  5
4A8
330
1F
100
AcDbEntity
  8
Livello 1
100
AcDbSpline
210
0.0
220
0.0
230
1.0
 70
    24
 71
     3
 72
     8
 73
     4
 74
     0
 42
0.000000001
 43
0.0000000001
 40
0.0
 40
0.0
 40
0.0
 40
0.0
 40
1.0
 40
1.0
 40
1.0
 40
1.0
 10
9.073913937731319
 20
4.68582501831284
 30
0.0
 10
9.073913937731319
 20
4.68582501831284
 30
0.0
 10
8.948676642399945
 20
4.68582501831284
 30
0.0
 10
8.948676642399945
 20
4.68582501831284
 30
0.0
  0
SPLINE
  5
4A9
330
1F
100
AcDbEntity
  8
Livello 1
100
AcDbSpline
210
0.0
220
0.0
230
1.0
 70
     8
 71
     3
 72
    11
 73
     7
 74
     0
 42
0.000000001
 43
0.0000000001
 40
1.0
 40
1.0
 40
1.0
 40
1.0
 40
2.0
 40
2.0
 40
2.0
 40
3.0
 40
3.0
 40
3.0
 40
3.0
 10
8.948676642399945
 20
4.68582501831284
 30
0.0
 10
8.919748606247239
 20
4.68582501831284
 30
0.0
 10
8.896114712922283
 20
4.709461603118654
 30
0.0
 10
8.896114712922283
 20
4.738389639271346
 30
0.0
 10
8.896114712922283
 20
4.767317675424038
 30
0.0
 10
8.919748606247239
 20
4.790954260229938
 30
0.0
 10
8.948676642399945
 20
4.790954260229938
 30
0.0
  0
SPLINE
  5
4AA
330
1F
100
AcDbEntity
  8
Livello 1
100
AcDbSpline
210
0.0
220
0.0
230
1.0
 70
    24
 71
     3
 72
     8
 73
     4
 74
     0
 42
0.000000001
 43
0.0000000001
 40
3.0
 40
3.0
 40
3.0
 40
3.0
 40
4.0
 40
4.0
 40
4.0
 40
4.0
 10
8.948676642399945
 20
4.790954260229938
 30
0.0
 10
8.948676642399945
 20
4.790954260229938
 30
0.0
 10
9.073913937731319
 20
4.790954260229938
 30
0.0
 10
9.073913937731319
 20
4.790954260229938
 30
0.0
  0
SPLINE
  5
4AB
330
1F
100
AcDbEntity
  8
Livello 1
100
AcDbSpline
210
0.0
220
0.0
230
1.0
 70
     8
 71
     3
 72
    11
 73
     7
 74
     0
 42
0.000000001
 43
0.0000000001
 40
4.0
 40
4.0
 40
4.0
 40
4.0
 40
5.0
 40
5.0
 40
5.0
 40
6.0
 40
6.0
 40
6.0
 40
6.0
 10
9.073913937731319
 20
4.790954260229938
 30
0.0
 10
9.102841973884039
 20
4.790954260229938
 30
0.0
 10
9.126478558689868
 20
4.767317675424038
 30
0.0
 10
9.126478558689868
 20
4.738389639271346
 30
0.0
 10
9.126478558689868
 20
4.709461603118654
 30
0.0
 10
9.102841973884039
 20
4.68582501831284
 30
0.0
 10
9.073913937731319
 20
4.68582501831284
 30
0.0
  0
SPLINE
  5
4AC
330
1F
100
AcDbEntity
  8
Livello 1
100
AcDbSpline
210
0.0
220
0.0
230
1.0
 70
    24
 71
     3
 72
     8
 73
     4
 74
     0
 42
0.000000001
 43
0.0000000001
 40
0.0
 40
0.0
 40
0.0
 40
0.0
 40
1.0
 40
1.0
 40
1.0
 40
1.0
 10
7.87447030103101
 20
4.883029820034835
 30
0.0
 10
7.87447030103101
 20
4.883029820034835
 30
0.0
 10
2.485436624535381
 20
4.883029820034835
 30
0.0
 10
2.485436624535381
 20
4.883029820034835
 30
0.0
  0
SPLINE
  5
4AD
330
1F
100
AcDbEntity
  8
Livello 1
100
AcDbSpline
210
0.0
220
0.0
230
1.0
 70
     8
 71
     3
 72
    11
 73
     7
 74
     0
 42
0.000000001
 43
0.0000000001
 40
1.0
 40
1.0
 40
1.0
 40
1.0
 40
2.0
 40
2.0
 40
2.0
 40
3.0
 40
3.0
 40
3.0
 40
3.0
 10
2.485436624535381
 20
4.883029820034835
 30
0.0
 10
2.456508588382675
 20
4.883029820034835
 30
0.0
 10
2.432872003576846
 20
4.906661021879031
 30
0.0
 10
2.432872003576846
 20
4.935589058031737
 30
0.0
 10
2.432872003576846
 20
4.964517094184444
 30
0.0
 10
2.456508588382675
 20
4.988153678990244
 30
0.0
 10
2.485436624535381
 20
4.988153678990244
 30
0.0
  0
SPLINE
  5
4AE
330
1F
100
AcDbEntity
  8
Livello 1
100
AcDbSpline
210
0.0
220
0.0
230
1.0
 70
    24
 71
     3
 72
     8
 73
     4
 74
     0
 42
0.000000001
 43
0.0000000001
 40
3.0
 40
3.0
 40
3.0
 40
3.0
 40
4.0
 40
4.0
 40
4.0
 40
4.0
 10
2.485436624535381
 20
4.988153678990244
 30
0.0
 10
2.485436624535381
 20
4.988153678990244
 30
0.0
 10
7.87447030103101
 20
4.988153678990244
 30
0.0
 10
7.87447030103101
 20
4.988153678990244
 30
0.0
  0
SPLINE
  5
4AF
330
1F
100
AcDbEntity
  8
Livello 1
100
AcDbSpline
210
0.0
220
0.0
230
1.0
 70
     8
 71
     3
 72
    11
 73
     7
 74
     0
 42
0.000000001
 43
0.0000000001
 40
4.0
 40
4.0
 40
4.0
 40
4.0
 40
5.0
 40
5.0
 40
5.0
 40
6.0
 40
6.0
 40
6.0
 40
6.0
 10
7.87447030103101
 20
4.988153678990244
 30
0.0
 10
7.903396991443287
 20
4.988153678990244
 30
0.0
 10
7.927033576249129
 20
4.964517094184444
 30
0.0
 10
7.927033576249129
 20
4.935589058031737
 30
0.0
 10
7.927033576249129
 20
4.906661021879031
 30
0.0
 10
7.903396991443287
 20
4.883029820034835
 30
0.0
 10
7.87447030103101
 20
4.883029820034835
 30
0.0
  0
SPLINE
  5
4B0
330
1F
100
AcDbEntity
  8
Livello 1
100
AcDbSpline
210
0.0
220
0.0
230
1.0
 70
    24
 71
     3
 72
     8
 73
     4
 74
     0
 42
0.000000001
 43
0.0000000001
 40
0.0
 40
0.0
 40
0.0
 40
0.0
 40
1.0
 40
1.0
 40
1.0
 40
1.0
 10
1.429255130404484
 20
5.931663056127945
 30
0.0
 10
1.429255130404484
 20
5.931663056127945
 30
0.0
 10
1.142799478027242
 20
5.931663056127945
 30
0.0
 10
1.142799478027242
 20
5.931663056127945
 30
0.0
  0
SPLINE
  5
4B1
330
1F
100
AcDbEntity
  8
Livello 1
100
AcDbSpline
210
0.0
220
0.0
230
1.0
 70
     8
 71
     3
 72
    11
 73
     7
 74
     0
 42
0.000000001
 43
0.0000000001
 40
1.0
 40
1.0
 40
1.0
 40
1.0
 40
2.0
 40
2.0
 40
2.0
 40
3.0
 40
3.0
 40
3.0
 40
3.0
 10
1.142799478027242
 20
5.931663056127945
 30
0.0
 10
1.113871441874522
 20
5.931663056127945
 30
0.0
 10
1.090234857068679
 20
5.955294257972155
 30
0.0
 10
1.090234857068679
 20
5.984222294124847
 30
0.0
 10
1.090234857068679
 20
6.013150330277554
 30
0.0
 10
1.113871441874522
 20
6.036786915083339
 30
0.0
 10
1.142799478027242
 20
6.036786915083339
 30
0.0
  0
SPLINE
  5
4B2
330
1F
100
AcDbEntity
  8
Livello 1
100
AcDbSpline
210
0.0
220
0.0
230
1.0
 70
    24
 71
     3
 72
     8
 73
     4
 74
     0
 42
0.000000001
 43
0.0000000001
 40
3.0
 40
3.0
 40
3.0
 40
3.0
 40
4.0
 40
4.0
 40
4.0
 40
4.0
 10
1.142799478027242
 20
6.036786915083339
 30
0.0
 10
1.142799478027242
 20
6.036786915083339
 30
0.0
 10
1.429255130404484
 20
6.036786915083339
 30
0.0
 10
1.429255130404484
 20
6.036786915083339
 30
0.0
  0
SPLINE
  5
4B3
330
1F
100
AcDbEntity
  8
Livello 1
100
AcDbSpline
210
0.0
220
0.0
230
1.0
 70
     8
 71
     3
 72
    11
 73
     7
 74
     0
 42
0.000000001
 43
0.0000000001
 40
4.0
 40
4.0
 40
4.0
 40
4.0
 40
5.0
 40
5.0
 40
5.0
 40
6.0
 40
6.0
 40
6.0
 40
6.0
 10
1.429255130404484
 20
6.036786915083339
 30
0.0
 10
1.458181820816776
 20
6.036786915083339
 30
0.0
 10
1.48181840562259
 20
6.013150330277554
 30
0.0
 10
1.48181840562259
 20
5.984222294124847
 30
0.0
 10
1.48181840562259
 20
5.955294257972155
 30
0.0
 10
1.458181820816776
 20
5.931663056127945
 30
0.0
 10
1.429255130404484
 20
5.931663056127945
 30
0.0
  0
SPLINE
  5
4B4
330
1F
100
AcDbEntity
  8
Livello 1
100
AcDbSpline
210
0.0
220
0.0
230
1.0
 70
    24
 71
     3
 72
     8
 73
     4
 74
     0
 42
0.000000001
 43
0.0000000001
 40
0.0
 40
0.0
 40
0.0
 40
0.0
 40
1.0
 40
1.0
 40
1.0
 40
1.0
 10
9.217353718036719
 20
5.931663056127945
 30
0.0
 10
9.217353718036719
 20
5.931663056127945
 30
0.0
 10
8.930896719919019
 20
5.931663056127945
 30
0.0
 10
8.930896719919019
 20
5.931663056127945
 30
0.0
  0
SPLINE
  5
4B5
330
1F
100
AcDbEntity
  8
Livello 1
100
AcDbSpline
210
0.0
220
0.0
230
1.0
 70
     8
 71
     3
 72
    11
 73
     7
 74
     0
 42
0.000000001
 43
0.0000000001
 40
1.0
 40
1.0
 40
1.0
 40
1.0
 40
2.0
 40
2.0
 40
2.0
 40
3.0
 40
3.0
 40
3.0
 40
3.0
 10
8.930896719919019
 20
5.931663056127945
 30
0.0
 10
8.901968683766341
 20
5.931663056127945
 30
0.0
 10
8.878332098960527
 20
5.955294257972155
 30
0.0
 10
8.878332098960527
 20
5.984222294124847
 30
0.0
 10
8.878332098960527
 20
6.013150330277554
 30
0.0
 10
8.901968683766341
 20
6.036786915083339
 30
0.0
 10
8.930896719919019
 20
6.036786915083339
 30
0.0
  0
SPLINE
  5
4B6
330
1F
100
AcDbEntity
  8
Livello 1
100
AcDbSpline
210
0.0
220
0.0
230
1.0
 70
    24
 71
     3
 72
     8
 73
     4
 74
     0
 42
0.000000001
 43
0.0000000001
 40
3.0
 40
3.0
 40
3.0
 40
3.0
 40
4.0
 40
4.0
 40
4.0
 40
4.0
 10
8.930896719919019
 20
6.036786915083339
 30
0.0
 10
8.930896719919019
 20
6.036786915083339
 30
0.0
 10
9.217353718036719
 20
6.036786915083339
 30
0.0
 10
9.217353718036719
 20
6.036786915083339
 30
0.0
  0
SPLINE
  5
4B7
330
1F
100
AcDbEntity
  8
Livello 1
100
AcDbSpline
210
0.0
220
0.0
230
1.0
 70
     8
 71
     3
 72
    11
 73
     7
 74
     0
 42
0.000000001
 43
0.0000000001
 40
4.0
 40
4.0
 40
4.0
 40
4.0
 40
5.0
 40
5.0
 40
5.0
 40
6.0
 40
6.0
 40
6.0
 40
6.0
 10
9.217353718036719
 20
6.036786915083339
 30
0.0
 10
9.24627906270858
 20
6.036786915083339
 30
0.0
 10
9.269915647514437
 20
6.013150330277554
 30
0.0
 10
9.269915647514437
 20
5.984222294124847
 30
0.0
 10
9.269915647514437
 20
5.955294257972155
 30
0.0
 10
9.24627906270858
 20
5.931663056127945
 30
0.0
 10
9.217353718036719
 20
5.931663056127945
 30
0.0
  0
SPLINE
  5
4B8
330
1F
100
AcDbEntity
  8
Livello 1
100
AcDbSpline
210
0.0
220
0.0
230
1.0
 70
     8
 71
     3
 72
     8
 73
     4
 74
     0
 42
0.000000001
 43
0.0000000001
 40
0.0
 40
0.0
 40
0.0
 40
0.0
 40
1.0
 40
1.0
 40
1.0
 40
1.0
 10
7.928233976707261
 20
4.059538956864543
 30
0.0
 10
7.900011108536673
 20
4.059538956864543
 30
0.0
 10
7.876728453462362
 20
4.082120481178051
 30
0.0
 10
7.876021939739786
 20
4.110337966386936
 30
0.0
  0
SPLINE
  5
4B9
330
1F
100
AcDbEntity
  8
Livello 1
100
AcDbSpline
210
0.0
220
0.0
230
1.0
 70
    24
 71
     3
 72
     8
 73
     4
 74
     0
 42
0.000000001
 43
0.0000000001
 40
1.0
 40
1.0
 40
1.0
 40
1.0
 40
2.0
 40
2.0
 40
2.0
 40
2.0
 10
7.876021939739786
 20
4.110337966386936
 30
0.0
 10
7.876021939739786
 20
4.110337966386936
 30
0.0
 10
7.804055779089523
 20
6.609065721838661
 30
0.0
 10
7.804055779089523
 20
6.609065721838661
 30
0.0
  0
SPLINE
  5
4BA
330
1F
100
AcDbEntity
  8
Livello 1
100
AcDbSpline
210
0.0
220
0.0
230
1.0
 70
     8
 71
     3
 72
     8
 73
     4
 74
     0
 42
0.000000001
 43
0.0000000001
 40
2.0
 40
2.0
 40
2.0
 40
2.0
 40
3.0
 40
3.0
 40
3.0
 40
3.0
 10
7.804055779089523
 20
6.609065721838661
 30
0.0
 10
7.804055779089523
 20
6.616472677131952
 30
0.0
 10
7.805467460794218
 20
6.623529739914943
 30
0.0
 10
7.807582964740632
 20
6.62987625175424
 30
0.0
  0
SPLINE
  5
4BB
330
1F
100
AcDbEntity
  8
Livello 1
100
AcDbSpline
210
0.0
220
0.0
230
1.0
 70
    24
 71
     3
 72
     8
 73
     4
 74
     0
 42
0.000000001
 43
0.0000000001
 40
3.0
 40
3.0
 40
3.0
 40
3.0
 40
4.0
 40
4.0
 40
4.0
 40
4.0
 10
7.807582964740632
 20
6.62987625175424
 30
0.0
 10
7.807582964740632
 20
6.62987625175424
 30
0.0
 10
3.636691988135794
 20
6.62987625175424
 30
0.0
 10
3.636691988135794
 20
6.62987625175424
 30
0.0
  0
SPLINE
  5
4BC
330
1F
100
AcDbEntity
  8
Livello 1
100
AcDbSpline
210
0.0
220
0.0
230
1.0
 70
    24
 71
     3
 72
     8
 73
     4
 74
     0
 42
0.000000001
 43
0.0000000001
 40
4.0
 40
4.0
 40
4.0
 40
4.0
 40
5.0
 40
5.0
 40
5.0
 40
5.0
 10
3.636691988135794
 20
6.62987625175424
 30
0.0
 10
3.636691988135794
 20
6.62987625175424
 30
0.0
 10
1.332348362477603
 20
6.165622720308334
 30
0.0
 10
1.332348362477603
 20
6.165622720308334
 30
0.0
  0
SPLINE
  5
4BD
330
1F
100
AcDbEntity
  8
Livello 1
100
AcDbSpline
210
0.0
220
0.0
230
1.0
 70
     8
 71
     3
 72
     8
 73
     4
 74
     0
 42
0.000000001
 43
0.0000000001
 40
5.0
 40
5.0
 40
5.0
 40
5.0
 40
6.0
 40
6.0
 40
6.0
 40
6.0
 10
1.332348362477603
 20
6.165622720308334
 30
0.0
 10
1.304125494307029
 20
6.159981376451256
 30
0.0
 10
1.276256555867931
 20
6.178321126948446
 30
0.0
 10
1.270258590798505
 20
6.206543995119048
 30
0.0
  0
SPLINE
  5
4BE
330
1F
100
AcDbEntity
  8
Livello 1
100
AcDbSpline
210
0.0
220
0.0
230
1.0
 70
     8
 71
     3
 72
     8
 73
     4
 74
     0
 42
0.000000001
 43
0.0000000001
 40
6.0
 40
6.0
 40
6.0
 40
6.0
 40
7.0
 40
7.0
 40
7.0
 40
7.0
 10
1.270258590798505
 20
6.206543995119048
 30
0.0
 10
1.264614555460553
 20
6.235122138761553
 30
0.0
 10
1.282958343179103
 20
6.262989731460137
 30
0.0
 10
1.311533795340736
 20
6.268636458278947
 30
0.0
  0
SPLINE
  5
4BF
330
1F
100
AcDbEntity
  8
Livello 1
100
AcDbSpline
210
0.0
220
0.0
230
1.0
 70
    24
 71
     3
 72
     8
 73
     4
 74
     0
 42
0.000000001
 43
0.0000000001
 40
7.0
 40
7.0
 40
7.0
 40
7.0
 40
8.0
 40
8.0
 40
8.0
 40
8.0
 10
1.311533795340736
 20
6.268636458278947
 30
0.0
 10
1.311533795340736
 20
6.268636458278947
 30
0.0
 10
3.62011112037257
 20
6.733595157707028
 30
0.0
 10
3.62011112037257
 20
6.733595157707028
 30
0.0
  0
SPLINE
  5
4C0
330
1F
100
AcDbEntity
  8
Livello 1
100
AcDbSpline
210
0.0
220
0.0
230
1.0
 70
     8
 71
     3
 72
     8
 73
     4
 74
     0
 42
0.000000001
 43
0.0000000001
 40
8.0
 40
8.0
 40
8.0
 40
8.0
 40
9.0
 40
9.0
 40
9.0
 40
9.0
 10
3.62011112037257
 20
6.733595157707028
 30
0.0
 10
3.622227970059441
 20
6.733950433178947
 30
0.0
 10
3.624344819746241
 20
6.734655601161051
 30
0.0
 10
3.626461669433084
 20
6.734655601161051
 30
0.0
  0
SPLINE
  5
4C1
330
1F
100
AcDbEntity
  8
Livello 1
100
AcDbSpline
210
0.0
220
0.0
230
1.0
 70
     8
 71
     3
 72
     8
 73
     4
 74
     0
 42
0.000000001
 43
0.0000000001
 40
9.0
 40
9.0
 40
9.0
 40
9.0
 40
10.0
 40
10.0
 40
10.0
 40
10.0
 10
3.626461669433084
 20
6.734655601161051
 30
0.0
 10
3.628578519119926
 20
6.735005493671238
 30
0.0
 10
3.630341439075294
 20
6.735005493671238
 30
0.0
 10
3.632458288762123
 20
6.735005493671238
 30
0.0
  0
SPLINE
  5
4C2
330
1F
100
AcDbEntity
  8
Livello 1
100
AcDbSpline
210
0.0
220
0.0
230
1.0
 70
    24
 71
     3
 72
     8
 73
     4
 74
     0
 42
0.000000001
 43
0.0000000001
 40
10.0
 40
10.0
 40
10.0
 40
10.0
 40
11.0
 40
11.0
 40
11.0
 40
11.0
 10
3.632458288762123
 20
6.735005493671238
 30
0.0
 10
3.632458288762123
 20
6.735005493671238
 30
0.0
 10
8.841221961030342
 20
6.735005493671238
 30
0.0
 10
8.841221961030342
 20
6.735005493671238
 30
0.0
  0
SPLINE
  5
4C3
330
1F
100
AcDbEntity
  8
Livello 1
100
AcDbSpline
210
0.0
220
0.0
230
1.0
 70
     8
 71
     3
 72
    11
 73
     7
 74
     0
 42
0.000000001
 43
0.0000000001
 40
11.0
 40
11.0
 40
11.0
 40
11.0
 40
12.0
 40
12.0
 40
12.0
 40
13.0
 40
13.0
 40
13.0
 40
13.0
 10
8.841221961030342
 20
6.735005493671238
 30
0.0
 10
8.870149997183034
 20
6.735005493671238
 30
0.0
 10
8.893786581988877
 20
6.711368908865438
 30
0.0
 10
8.893786581988877
 20
6.682440872712732
 30
0.0
 10
8.893786581988877
 20
6.653512836560054
 30
0.0
 10
8.870149997183034
 20
6.62987625175424
 30
0.0
 10
8.841221961030342
 20
6.62987625175424
 30
0.0
  0
SPLINE
  5
4C4
330
1F
100
AcDbEntity
  8
Livello 1
100
AcDbSpline
210
0.0
220
0.0
230
1.0
 70
    24
 71
     3
 72
     8
 73
     4
 74
     0
 42
0.000000001
 43
0.0000000001
 40
13.0
 40
13.0
 40
13.0
 40
13.0
 40
14.0
 40
14.0
 40
14.0
 40
14.0
 10
8.841221961030342
 20
6.62987625175424
 30
0.0
 10
8.841221961030342
 20
6.62987625175424
 30
0.0
 10
7.905655143874639
 20
6.62987625175424
 30
0.0
 10
7.905655143874639
 20
6.62987625175424
 30
0.0
  0
SPLINE
  5
4C5
330
1F
100
AcDbEntity
  8
Livello 1
100
AcDbSpline
210
0.0
220
0.0
230
1.0
 70
     8
 71
     3
 72
     8
 73
     4
 74
     0
 42
0.000000001
 43
0.0000000001
 40
14.0
 40
14.0
 40
14.0
 40
14.0
 40
15.0
 40
15.0
 40
15.0
 40
15.0
 10
7.905655143874639
 20
6.62987625175424
 30
0.0
 10
7.907771993561496
 20
6.624584800407347
 30
0.0
 10
7.908831091275089
 20
6.618588181078322
 30
0.0
 10
7.909183675266163
 20
6.61224166923904
 30
0.0
  0
SPLINE
  5
4C6
330
1F
100
AcDbEntity
  8
Livello 1
100
AcDbSpline
210
0.0
220
0.0
230
1.0
 70
    24
 71
     3
 72
     8
 73
     4
 74
     0
 42
0.000000001
 43
0.0000000001
 40
15.0
 40
15.0
 40
15.0
 40
15.0
 40
16.0
 40
16.0
 40
16.0
 40
16.0
 10
7.909183675266163
 20
6.61224166923904
 30
0.0
 10
7.909183675266163
 20
6.61224166923904
 30
0.0
 10
7.98079725192538
 20
4.113513913787343
 30
0.0
 10
7.98079725192538
 20
4.113513913787343
 30
0.0
  0
SPLINE
  5
4C7
330
1F
100
AcDbEntity
  8
Livello 1
100
AcDbSpline
210
0.0
220
0.0
230
1.0
 70
     8
 71
     3
 72
     8
 73
     4
 74
     0
 42
0.000000001
 43
0.0000000001
 40
16.0
 40
16.0
 40
16.0
 40
16.0
 40
17.0
 40
17.0
 40
17.0
 40
17.0
 10
7.98079725192538
 20
4.113513913787343
 30
0.0
 10
7.981502419907528
 20
4.084585877634651
 30
0.0
 10
7.958924932815321
 20
4.060244124846732
 30
0.0
 10
7.929644312671527
 20
4.059538956864543
 30
0.0
  0
SPLINE
  5
4C8
330
1F
100
AcDbEntity
  8
Livello 1
100
AcDbSpline
210
0.0
220
0.0
230
1.0
 70
    24
 71
     3
 72
     8
 73
     4
 74
     0
 42
0.000000001
 43
0.0000000001
 40
17.0
 40
17.0
 40
17.0
 40
17.0
 40
18.0
 40
18.0
 40
18.0
 40
18.0
 10
7.929644312671527
 20
4.059538956864543
 30
0.0
 10
7.929644312671527
 20
4.059538956864543
 30
0.0
 10
7.928233976707261
 20
4.059538956864543
 30
0.0
 10
7.928233976707261
 20
4.059538956864543
 30
0.0
  0
SPLINE
  5
4C9
330
1F
100
AcDbEntity
  8
Livello 1
100
AcDbSpline
210
0.0
220
0.0
230
1.0
 70
    24
 71
     3
 72
     8
 73
     4
 74
     0
 42
0.000000001
 43
0.0000000001
 40
0.0
 40
0.0
 40
0.0
 40
0.0
 40
1.0
 40
1.0
 40
1.0
 40
1.0
 10
1.429361443897988
 20
5.931733034630042
 30
0.0
 10
1.429361443897988
 20
5.931733034630042
 30
0.0
 10
1.2501505373842
 20
5.931733034630042
 30
0.0
 10
1.2501505373842
 20
5.931733034630042
 30
0.0
  0
SPLINE
  5
4CA
330
1F
100
AcDbEntity
  8
Livello 1
100
AcDbSpline
210
0.0
220
0.0
230
1.0
 70
     8
 71
     3
 72
    11
 73
     7
 74
     0
 42
0.000000001
 43
0.0000000001
 40
1.0
 40
1.0
 40
1.0
 40
1.0
 40
2.0
 40
2.0
 40
2.0
 40
3.0
 40
3.0
 40
3.0
 40
3.0
 10
1.2501505373842
 20
5.931733034630042
 30
0.0
 10
1.220869917240435
 20
5.931733034630042
 30
0.0
 10
1.197587262166067
 20
5.955014343963952
 30
0.0
 10
1.197587262166067
 20
5.984297655588548
 30
0.0
 10
1.197587262166067
 20
6.013225691741254
 30
0.0
 10
1.220869917240435
 20
6.03650700107515
 30
0.0
 10
1.2501505373842
 20
6.03650700107515
 30
0.0
  0
SPLINE
  5
4CB
330
1F
100
AcDbEntity
  8
Livello 1
100
AcDbSpline
210
0.0
220
0.0
230
1.0
 70
    24
 71
     3
 72
     8
 73
     4
 74
     0
 42
0.000000001
 43
0.0000000001
 40
3.0
 40
3.0
 40
3.0
 40
3.0
 40
4.0
 40
4.0
 40
4.0
 40
4.0
 10
1.2501505373842
 20
6.03650700107515
 30
0.0
 10
1.2501505373842
 20
6.03650700107515
 30
0.0
 10
1.429361443897988
 20
6.03650700107515
 30
0.0
 10
1.429361443897988
 20
6.03650700107515
 30
0.0
  0
SPLINE
  5
4CC
330
1F
100
AcDbEntity
  8
Livello 1
100
AcDbSpline
210
0.0
220
0.0
230
1.0
 70
     8
 71
     3
 72
    11
 73
     7
 74
     0
 42
0.000000001
 43
0.0000000001
 40
4.0
 40
4.0
 40
4.0
 40
4.0
 40
5.0
 40
5.0
 40
5.0
 40
6.0
 40
6.0
 40
6.0
 40
6.0
 10
1.429361443897988
 20
6.03650700107515
 30
0.0
 10
1.458289480050666
 20
6.03650700107515
 30
0.0
 10
1.481926064856523
 20
6.013225691741254
 30
0.0
 10
1.481926064856523
 20
5.984297655588548
 30
0.0
 10
1.481926064856523
 20
5.955014343963952
 30
0.0
 10
1.458289480050666
 20
5.931733034630042
 30
0.0
 10
1.429361443897988
 20
5.931733034630042
 30
0.0
  0
SPLINE
  5
4CD
330
1F
100
AcDbEntity
  8
Livello 1
100
AcDbSpline
210
0.0
220
0.0
230
1.0
 70
     8
 71
     3
 72
     8
 73
     4
 74
     0
 42
0.000000001
 43
0.0000000001
 40
0.0
 40
0.0
 40
0.0
 40
0.0
 40
1.0
 40
1.0
 40
1.0
 40
1.0
 10
9.020434213284516
 20
6.164567659815958
 30
0.0
 10
9.017610849875111
 20
6.164567659815958
 30
0.0
 10
9.014787486465706
 20
6.164917552326159
 30
0.0
 10
9.011614230546129
 20
6.165272827798034
 30
0.0
  0
SPLINE
  5
4CE
330
1F
100
AcDbEntity
  8
Livello 1
100
AcDbSpline
210
0.0
220
0.0
230
1.0
 70
    24
 71
     3
 72
     8
 73
     4
 74
     0
 42
0.000000001
 43
0.0000000001
 40
1.0
 40
1.0
 40
1.0
 40
1.0
 40
2.0
 40
2.0
 40
2.0
 40
2.0
 10
9.011614230546129
 20
6.165272827798034
 30
0.0
 10
9.011614230546129
 20
6.165272827798034
 30
0.0
 10
8.904369484682646
 20
6.183262685785152
 30
0.0
 10
8.904369484682646
 20
6.183262685785152
 30
0.0
  0
SPLINE
  5
4CF
330
1F
100
AcDbEntity
  8
Livello 1
100
AcDbSpline
210
0.0
220
0.0
230
1.0
 70
     8
 71
     3
 72
     8
 73
     4
 74
     0
 42
0.000000001
 43
0.0000000001
 40
2.0
 40
2.0
 40
2.0
 40
2.0
 40
3.0
 40
3.0
 40
3.0
 40
3.0
 10
8.904369484682646
 20
6.183262685785152
 30
0.0
 10
8.875794032520985
 20
6.187848969149854
 30
0.0
 10
8.856391147088842
 20
6.215011393866333
 30
0.0
 10
8.860977430453559
 20
6.243589537508839
 30
0.0
  0
SPLINE
  5
4D0
330
1F
100
AcDbEntity
  8
Livello 1
100
AcDbSpline
210
0.0
220
0.0
230
1.0
 70
     8
 71
     3
 72
     8
 73
     4
 74
     0
 42
0.000000001
 43
0.0000000001
 40
3.0
 40
3.0
 40
3.0
 40
3.0
 40
4.0
 40
4.0
 40
4.0
 40
4.0
 10
8.860977430453559
 20
6.243589537508839
 30
0.0
 10
8.865916297809377
 20
6.272162298189655
 30
0.0
 10
8.89237355454378
 20
6.291562492140954
 30
0.0
 10
8.921654174687517
 20
6.286626316266051
 30
0.0
  0
SPLINE
  5
4D1
330
1F
100
AcDbEntity
  8
Livello 1
100
AcDbSpline
210
0.0
220
0.0
230
1.0
 70
    24
 71
     3
 72
     8
 73
     4
 74
     0
 42
0.000000001
 43
0.0000000001
 40
4.0
 40
4.0
 40
4.0
 40
4.0
 40
5.0
 40
5.0
 40
5.0
 40
5.0
 10
8.921654174687517
 20
6.286626316266051
 30
0.0
 10
8.921654174687517
 20
6.286626316266051
 30
0.0
 10
9.028898920551
 20
6.268636458278947
 30
0.0
 10
9.028898920551
 20
6.268636458278947
 30
0.0
  0
SPLINE
  5
4D2
330
1F
100
AcDbEntity
  8
Livello 1
100
AcDbSpline
210
0.0
220
0.0
230
1.0
 70
     8
 71
     3
 72
     8
 73
     4
 74
     0
 42
0.000000001
 43
0.0000000001
 40
5.0
 40
5.0
 40
5.0
 40
5.0
 40
6.0
 40
6.0
 40
6.0
 40
6.0
 10
9.028898920551
 20
6.268636458278947
 30
0.0
 10
9.057474372712661
 20
6.264050174914231
 30
0.0
 10
9.076877258144804
 20
6.236882367236034
 30
0.0
 10
9.071938390789
 20
6.208309606555246
 30
0.0
  0
SPLINE
  5
4D3
330
1F
100
AcDbEntity
  8
Livello 1
100
AcDbSpline
210
0.0
220
0.0
230
1.0
 70
     8
 71
     3
 72
     8
 73
     4
 74
     0
 42
0.000000001
 43
0.0000000001
 40
6.0
 40
6.0
 40
6.0
 40
6.0
 40
7.0
 40
7.0
 40
7.0
 40
7.0
 10
9.071938390789
 20
6.208309606555246
 30
0.0
 10
9.067704691415343
 20
6.182907410313248
 30
0.0
 10
9.045481134054639
 20
6.164567659815958
 30
0.0
 10
9.020434213284516
 20
6.164567659815958
 30
0.0
  0
SPLINE
  5
4D4
330
1F
100
AcDbEntity
  8
Livello 1
100
AcDbSpline
210
0.0
220
0.0
230
1.0
 70
     8
 71
     3
 72
     8
 73
     4
 74
     0
 42
0.000000001
 43
0.0000000001
 40
0.0
 40
0.0
 40
0.0
 40
0.0
 40
1.0
 40
1.0
 40
1.0
 40
1.0
 10
8.411820415083283
 20
4.059474361324248
 30
0.0
 10
8.383244962921651
 20
4.059474361324248
 30
0.0
 10
8.359960962106868
 20
4.08205050267604
 30
0.0
 10
8.359255794124734
 20
4.110273370846542
 30
0.0
  0
SPLINE
  5
4D5
330
1F
100
AcDbEntity
  8
Livello 1
100
AcDbSpline
210
0.0
220
0.0
230
1.0
 70
    24
 71
     3
 72
     8
 73
     4
 74
     0
 42
0.000000001
 43
0.0000000001
 40
1.0
 40
1.0
 40
1.0
 40
1.0
 40
2.0
 40
2.0
 40
2.0
 40
2.0
 10
8.359255794124734
 20
4.110273370846542
 30
0.0
 10
8.359255794124734
 20
4.110273370846542
 30
0.0
 10
8.287640871725088
 20
6.609351018808553
 30
0.0
 10
8.287640871725088
 20
6.609351018808553
 30
0.0
  0
SPLINE
  5
4D6
330
1F
100
AcDbEntity
  8
Livello 1
100
AcDbSpline
210
0.0
220
0.0
230
1.0
 70
     8
 71
     3
 72
     8
 73
     4
 74
     0
 42
0.000000001
 43
0.0000000001
 40
2.0
 40
2.0
 40
2.0
 40
2.0
 40
3.0
 40
3.0
 40
3.0
 40
3.0
 10
8.287640871725088
 20
6.609351018808553
 30
0.0
 10
8.286583119751881
 20
6.638279054961259
 30
0.0
 10
8.309514536575591
 20
6.662620807749149
 30
0.0
 10
8.338442572728297
 20
6.663325975731339
 30
0.0
  0
SPLINE
  5
4D7
330
1F
100
AcDbEntity
  8
Livello 1
100
AcDbSpline
210
0.0
220
0.0
230
1.0
 70
     8
 71
     3
 72
     8
 73
     4
 74
     0
 42
0.000000001
 43
0.0000000001
 40
3.0
 40
3.0
 40
3.0
 40
3.0
 40
4.0
 40
4.0
 40
4.0
 40
4.0
 10
8.338442572728297
 20
6.663325975731339
 30
0.0
 10
8.368780944845283
 20
6.663675868241554
 30
0.0
 10
8.391712361668979
 20
6.641099726889748
 30
0.0
 10
8.392417529651126
 20
6.612171690737042
 30
0.0
  0
SPLINE
  5
4D8
330
1F
100
AcDbEntity
  8
Livello 1
100
AcDbSpline
210
0.0
220
0.0
230
1.0
 70
    24
 71
     3
 72
     8
 73
     4
 74
     0
 42
0.000000001
 43
0.0000000001
 40
4.0
 40
4.0
 40
4.0
 40
4.0
 40
5.0
 40
5.0
 40
5.0
 40
5.0
 10
8.392417529651126
 20
6.612171690737042
 30
0.0
 10
8.392417529651126
 20
6.612171690737042
 30
0.0
 10
8.464029760569871
 20
4.113449318247049
 30
0.0
 10
8.464029760569871
 20
4.113449318247049
 30
0.0
  0
SPLINE
  5
4D9
330
1F
100
AcDbEntity
  8
Livello 1
100
AcDbSpline
210
0.0
220
0.0
230
1.0
 70
     8
 71
     3
 72
     8
 73
     4
 74
     0
 42
0.000000001
 43
0.0000000001
 40
5.0
 40
5.0
 40
5.0
 40
5.0
 40
6.0
 40
6.0
 40
6.0
 40
6.0
 10
8.464029760569871
 20
4.113449318247049
 30
0.0
 10
8.464737620032877
 20
4.084521282094343
 30
0.0
 10
8.44215878720027
 20
4.060179529306338
 30
0.0
 10
8.413230751047564
 20
4.059474361324248
 30
0.0
  0
SPLINE
  5
4DA
330
1F
100
AcDbEntity
  8
Livello 1
100
AcDbSpline
210
0.0
220
0.0
230
1.0
 70
    24
 71
     3
 72
     8
 73
     4
 74
     0
 42
0.000000001
 43
0.0000000001
 40
6.0
 40
6.0
 40
6.0
 40
6.0
 40
7.0
 40
7.0
 40
7.0
 40
7.0
 10
8.413230751047564
 20
4.059474361324248
 30
0.0
 10
8.413230751047564
 20
4.059474361324248
 30
0.0
 10
8.411820415083283
 20
4.059474361324248
 30
0.0
 10
8.411820415083283
 20
4.059474361324248
 30
0.0
  0
SPLINE
  5
4DB
330
1F
100
AcDbEntity
  8
Livello 1
100
AcDbSpline
210
0.0
220
0.0
230
1.0
 70
     8
 71
     3
 72
     8
 73
     4
 74
     0
 42
0.000000001
 43
0.0000000001
 40
0.0
 40
0.0
 40
0.0
 40
0.0
 40
1.0
 40
1.0
 40
1.0
 40
1.0
 10
8.966739170369891
 20
4.059474361324248
 30
0.0
 10
8.93816371820823
 20
4.059474361324248
 30
0.0
 10
8.914879717393489
 20
4.08240039518624
 30
0.0
 10
8.91417454941137
 20
4.110623263356757
 30
0.0
  0
SPLINE
  5
4DC
330
1F
100
AcDbEntity
  8
Livello 1
100
AcDbSpline
210
0.0
220
0.0
230
1.0
 70
    24
 71
     3
 72
     8
 73
     4
 74
     0
 42
0.000000001
 43
0.0000000001
 40
1.0
 40
1.0
 40
1.0
 40
1.0
 40
2.0
 40
2.0
 40
2.0
 40
2.0
 10
8.91417454941137
 20
4.110623263356757
 30
0.0
 10
8.91417454941137
 20
4.110623263356757
 30
0.0
 10
8.8605521764796
 20
6.609700911318753
 30
0.0
 10
8.8605521764796
 20
6.609700911318753
 30
0.0
  0
SPLINE
  5
4DD
330
1F
100
AcDbEntity
  8
Livello 1
100
AcDbSpline
210
0.0
220
0.0
230
1.0
 70
     8
 71
     3
 72
     8
 73
     4
 74
     0
 42
0.000000001
 43
0.0000000001
 40
2.0
 40
2.0
 40
2.0
 40
2.0
 40
3.0
 40
3.0
 40
3.0
 40
3.0
 10
8.8605521764796
 20
6.609700911318753
 30
0.0
 10
8.859847008497482
 20
6.63862894747146
 30
0.0
 10
8.882778425321149
 20
6.662620807749149
 30
0.0
 10
8.911706461473883
 20
6.663325975731339
 30
0.0
  0
SPLINE
  5
4DE
330
1F
100
AcDbEntity
  8
Livello 1
100
AcDbSpline
210
0.0
220
0.0
230
1.0
 70
     8
 71
     3
 72
     8
 73
     4
 74
     0
 42
0.000000001
 43
0.0000000001
 40
3.0
 40
3.0
 40
3.0
 40
3.0
 40
4.0
 40
4.0
 40
4.0
 40
4.0
 10
8.911706461473883
 20
6.663325975731339
 30
0.0
 10
8.939221470181436
 20
6.661560364295155
 30
0.0
 10
8.964623666423491
 20
6.641099726889748
 30
0.0
 10
8.96532883440561
 20
6.611816415265153
 30
0.0
  0
SPLINE
  5
4DF
330
1F
100
AcDbEntity
  8
Livello 1
100
AcDbSpline
210
0.0
220
0.0
230
1.0
 70
    24
 71
     3
 72
     8
 73
     4
 74
     0
 42
0.000000001
 43
0.0000000001
 40
4.0
 40
4.0
 40
4.0
 40
4.0
 40
5.0
 40
5.0
 40
5.0
 40
5.0
 10
8.96532883440561
 20
6.611816415265153
 30
0.0
 10
8.96532883440561
 20
6.611816415265153
 30
0.0
 10
8.97767465705472
 20
6.036792298045028
 30
0.0
 10
8.97767465705472
 20
6.036792298045028
 30
0.0
  0
SPLINE
  5
4E0
330
1F
100
AcDbEntity
  8
Livello 1
100
AcDbSpline
210
0.0
220
0.0
230
1.0
 70
    24
 71
     3
 72
     8
 73
     4
 74
     0
 42
0.000000001
 43
0.0000000001
 40
5.0
 40
5.0
 40
5.0
 40
5.0
 40
6.0
 40
6.0
 40
6.0
 40
6.0
 10
8.97767465705472
 20
6.036792298045028
 30
0.0
 10
8.97767465705472
 20
6.036792298045028
 30
0.0
 10
8.984379135846722
 20
6.036792298045028
 30
0.0
 10
8.984379135846722
 20
6.036792298045028
 30
0.0
  0
SPLINE
  5
4E1
330
1F
100
AcDbEntity
  8
Livello 1
100
AcDbSpline
210
0.0
220
0.0
230
1.0
 70
     8
 71
     3
 72
    11
 73
     7
 74
     0
 42
0.000000001
 43
0.0000000001
 40
6.0
 40
6.0
 40
6.0
 40
6.0
 40
7.0
 40
7.0
 40
7.0
 40
8.0
 40
8.0
 40
8.0
 40
8.0
 10
8.984379135846722
 20
6.036792298045028
 30
0.0
 10
9.013307171999386
 20
6.036792298045028
 30
0.0
 10
9.036941065324398
 20
6.013155713239243
 30
0.0
 10
9.036941065324398
 20
5.984227677086536
 30
0.0
 10
9.036941065324398
 20
5.955299640933844
 30
0.0
 10
9.013307171999386
 20
5.931663056127945
 30
0.0
 10
8.984379135846722
 20
5.931663056127945
 30
0.0
  0
SPLINE
  5
4E2
330
1F
100
AcDbEntity
  8
Livello 1
100
AcDbSpline
210
0.0
220
0.0
230
1.0
 70
    24
 71
     3
 72
     8
 73
     4
 74
     0
 42
0.000000001
 43
0.0000000001
 40
8.0
 40
8.0
 40
8.0
 40
8.0
 40
9.0
 40
9.0
 40
9.0
 40
9.0
 10
8.984379135846722
 20
5.931663056127945
 30
0.0
 10
8.984379135846722
 20
5.931663056127945
 30
0.0
 10
8.980145436473037
 20
5.931663056127945
 30
0.0
 10
8.980145436473037
 20
5.931663056127945
 30
0.0
  0
SPLINE
  5
4E3
330
1F
100
AcDbEntity
  8
Livello 1
100
AcDbSpline
210
0.0
220
0.0
230
1.0
 70
    24
 71
     3
 72
     8
 73
     4
 74
     0
 42
0.000000001
 43
0.0000000001
 40
9.0
 40
9.0
 40
9.0
 40
9.0
 40
10.0
 40
10.0
 40
10.0
 40
10.0
 10
8.980145436473037
 20
5.931663056127945
 30
0.0
 10
8.980145436473037
 20
5.931663056127945
 30
0.0
 10
9.019303791328425
 20
4.113094042775145
 30
0.0
 10
9.019303791328425
 20
4.113094042775145
 30
0.0
  0
SPLINE
  5
4E4
330
1F
100
AcDbEntity
  8
Livello 1
100
AcDbSpline
210
0.0
220
0.0
230
1.0
 70
     8
 71
     3
 72
     8
 73
     4
 74
     0
 42
0.000000001
 43
0.0000000001
 40
10.0
 40
10.0
 40
10.0
 40
10.0
 40
11.0
 40
11.0
 40
11.0
 40
11.0
 10
9.019303791328425
 20
4.113094042775145
 30
0.0
 10
9.020008959310558
 20
4.084166006622439
 30
0.0
 10
8.996724958495804
 20
4.060179529306338
 30
0.0
 10
8.967796922343097
 20
4.059474361324248
 30
0.0
  0
SPLINE
  5
4E5
330
1F
100
AcDbEntity
  8
Livello 1
100
AcDbSpline
210
0.0
220
0.0
230
1.0
 70
    24
 71
     3
 72
     8
 73
     4
 74
     0
 42
0.000000001
 43
0.0000000001
 40
11.0
 40
11.0
 40
11.0
 40
11.0
 40
12.0
 40
12.0
 40
12.0
 40
12.0
 10
8.967796922343097
 20
4.059474361324248
 30
0.0
 10
8.967796922343097
 20
4.059474361324248
 30
0.0
 10
8.966739170369891
 20
4.059474361324248
 30
0.0
 10
8.966739170369891
 20
4.059474361324248
 30
0.0
  0
SPLINE
  5
4E6
330
1F
100
AcDbEntity
  8
Livello 1
100
AcDbSpline
210
0.0
220
0.0
230
1.0
 70
     8
 71
     3
 72
     8
 73
     4
 74
     0
 42
0.000000001
 43
0.0000000001
 40
0.0
 40
0.0
 40
0.0
 40
0.0
 40
1.0
 40
1.0
 40
1.0
 40
1.0
 10
8.733907236664805
 20
4.059474361324248
 30
0.0
 10
8.705331784503172
 20
4.059474361324248
 30
0.0
 10
8.682047783688389
 20
4.08240039518624
 30
0.0
 10
8.681342615706284
 20
4.110623263356757
 30
0.0
  0
SPLINE
  5
4E7
330
1F
100
AcDbEntity
  8
Livello 1
100
AcDbSpline
210
0.0
220
0.0
230
1.0
 70
    24
 71
     3
 72
     8
 73
     4
 74
     0
 42
0.000000001
 43
0.0000000001
 40
1.0
 40
1.0
 40
1.0
 40
1.0
 40
2.0
 40
2.0
 40
2.0
 40
2.0
 10
8.681342615706284
 20
4.110623263356757
 30
0.0
 10
8.681342615706284
 20
4.110623263356757
 30
0.0
 10
8.627720242774515
 20
6.609700911318753
 30
0.0
 10
8.627720242774515
 20
6.609700911318753
 30
0.0
  0
SPLINE
  5
4E8
330
1F
100
AcDbEntity
  8
Livello 1
100
AcDbSpline
210
0.0
220
0.0
230
1.0
 70
     8
 71
     3
 72
     8
 73
     4
 74
     0
 42
0.000000001
 43
0.0000000001
 40
2.0
 40
2.0
 40
2.0
 40
2.0
 40
3.0
 40
3.0
 40
3.0
 40
3.0
 10
8.627720242774515
 20
6.609700911318753
 30
0.0
 10
8.627015074792382
 20
6.63862894747146
 30
0.0
 10
8.649943800135247
 20
6.662620807749149
 30
0.0
 10
8.679224420278998
 20
6.663325975731339
 30
0.0
  0
SPLINE
  5
4E9
330
1F
100
AcDbEntity
  8
Livello 1
100
AcDbSpline
210
0.0
220
0.0
230
1.0
 70
     8
 71
     3
 72
     8
 73
     4
 74
     0
 42
0.000000001
 43
0.0000000001
 40
3.0
 40
3.0
 40
3.0
 40
3.0
 40
4.0
 40
4.0
 40
4.0
 40
4.0
 10
8.679224420278998
 20
6.663325975731339
 30
0.0
 10
8.707799872440631
 20
6.661560364295155
 30
0.0
 10
8.732141625228592
 20
6.641099726889748
 30
0.0
 10
8.73249420921968
 20
6.611816415265153
 30
0.0
  0
SPLINE
  5
4EA
330
1F
100
AcDbEntity
  8
Livello 1
100
AcDbSpline
210
0.0
220
0.0
230
1.0
 70
    24
 71
     3
 72
     8
 73
     4
 74
     0
 42
0.000000001
 43
0.0000000001
 40
4.0
 40
4.0
 40
4.0
 40
4.0
 40
5.0
 40
5.0
 40
5.0
 40
5.0
 10
8.73249420921968
 20
6.611816415265153
 30
0.0
 10
8.73249420921968
 20
6.611816415265153
 30
0.0
 10
8.786469166142495
 20
4.113094042775145
 30
0.0
 10
8.786469166142495
 20
4.113094042775145
 30
0.0
  0
SPLINE
  5
4EB
330
1F
100
AcDbEntity
  8
Livello 1
100
AcDbSpline
210
0.0
220
0.0
230
1.0
 70
     8
 71
     3
 72
     8
 73
     4
 74
     0
 42
0.000000001
 43
0.0000000001
 40
5.0
 40
5.0
 40
5.0
 40
5.0
 40
6.0
 40
6.0
 40
6.0
 40
6.0
 10
8.786469166142495
 20
4.113094042775145
 30
0.0
 10
8.787174334124628
 20
4.084166006622439
 30
0.0
 10
8.763893024790718
 20
4.060179529306338
 30
0.0
 10
8.734964988637997
 20
4.059474361324248
 30
0.0
  0
SPLINE
  5
4EC
330
1F
100
AcDbEntity
  8
Livello 1
100
AcDbSpline
210
0.0
220
0.0
230
1.0
 70
    24
 71
     3
 72
     8
 73
     4
 74
     0
 42
0.000000001
 43
0.0000000001
 40
6.0
 40
6.0
 40
6.0
 40
6.0
 40
7.0
 40
7.0
 40
7.0
 40
7.0
 10
8.734964988637997
 20
4.059474361324248
 30
0.0
 10
8.734964988637997
 20
4.059474361324248
 30
0.0
 10
8.733907236664805
 20
4.059474361324248
 30
0.0
 10
8.733907236664805
 20
4.059474361324248
 30
0.0
  0
SPLINE
  5
4ED
330
1F
100
AcDbEntity
  8
Livello 1
100
AcDbSpline
210
0.0
220
0.0
230
1.0
 70
    24
 71
     3
 72
     8
 73
     4
 74
     0
 42
0.000000001
 43
0.0000000001
 40
0.0
 40
0.0
 40
0.0
 40
0.0
 40
1.0
 40
1.0
 40
1.0
 40
1.0
 10
8.984449114348763
 20
5.931663056127945
 30
0.0
 10
8.984449114348763
 20
5.931663056127945
 30
0.0
 10
8.966809148871931
 20
5.931663056127945
 30
0.0
 10
8.966809148871931
 20
5.931663056127945
 30
0.0
  0
SPLINE
  5
4EE
330
1F
100
AcDbEntity
  8
Livello 1
100
AcDbSpline
210
0.0
220
0.0
230
1.0
 70
     8
 71
     3
 72
    11
 73
     7
 74
     0
 42
0.000000001
 43
0.0000000001
 40
1.0
 40
1.0
 40
1.0
 40
1.0
 40
2.0
 40
2.0
 40
2.0
 40
3.0
 40
3.0
 40
3.0
 40
3.0
 10
8.966809148871931
 20
5.931663056127945
 30
0.0
 10
8.937881112719225
 20
5.931663056127945
 30
0.0
 10
8.914244527913396
 20
5.955294257972155
 30
0.0
 10
8.914244527913396
 20
5.984222294124847
 30
0.0
 10
8.914244527913396
 20
6.013150330277554
 30
0.0
 10
8.937881112719225
 20
6.036786915083339
 30
0.0
 10
8.966809148871931
 20
6.036786915083339
 30
0.0
  0
SPLINE
  5
4EF
330
1F
100
AcDbEntity
  8
Livello 1
100
AcDbSpline
210
0.0
220
0.0
230
1.0
 70
    24
 71
     3
 72
     8
 73
     4
 74
     0
 42
0.000000001
 43
0.0000000001
 40
3.0
 40
3.0
 40
3.0
 40
3.0
 40
4.0
 40
4.0
 40
4.0
 40
4.0
 10
8.966809148871931
 20
6.036786915083339
 30
0.0
 10
8.966809148871931
 20
6.036786915083339
 30
0.0
 10
8.984449114348763
 20
6.036786915083339
 30
0.0
 10
8.984449114348763
 20
6.036786915083339
 30
0.0
  0
SPLINE
  5
4F0
330
1F
100
AcDbEntity
  8
Livello 1
100
AcDbSpline
210
0.0
220
0.0
230
1.0
 70
     8
 71
     3
 72
    11
 73
     7
 74
     0
 42
0.000000001
 43
0.0000000001
 40
4.0
 40
4.0
 40
4.0
 40
4.0
 40
5.0
 40
5.0
 40
5.0
 40
6.0
 40
6.0
 40
6.0
 40
6.0
 10
8.984449114348763
 20
6.036786915083339
 30
0.0
 10
9.013374459020582
 20
6.036786915083339
 30
0.0
 10
9.037011043826439
 20
6.013150330277554
 30
0.0
 10
9.037011043826439
 20
5.984222294124847
 30
0.0
 10
9.037011043826439
 20
5.955294257972155
 30
0.0
 10
9.013374459020582
 20
5.931663056127945
 30
0.0
 10
8.984449114348763
 20
5.931663056127945
 30
0.0
  0
SPLINE
  5
4F1
330
1F
100
AcDbEntity
  8
Livello 1
100
AcDbSpline
210
0.0
220
0.0
230
1.0
 70
     8
 71
     3
 72
     8
 73
     4
 74
     0
 42
0.000000001
 43
0.0000000001
 40
0.0
 40
0.0
 40
0.0
 40
0.0
 40
1.0
 40
1.0
 40
1.0
 40
1.0
 10
9.217141091049739
 20
3.898604551048151
 30
0.0
 10
9.188213054897033
 20
3.898604551048151
 30
0.0
 10
9.164931745563123
 20
3.921885860382033
 30
0.0
 10
9.164931745563123
 20
3.950813896534739
 30
0.0
  0
SPLINE
  5
4F2
330
1F
100
AcDbEntity
  8
Livello 1
100
AcDbSpline
210
0.0
220
0.0
230
1.0
 70
    24
 71
     3
 72
     8
 73
     4
 74
     0
 42
0.000000001
 43
0.0000000001
 40
1.0
 40
1.0
 40
1.0
 40
1.0
 40
2.0
 40
2.0
 40
2.0
 40
2.0
 10
9.164931745563123
 20
3.950813896534739
 30
0.0
 10
9.164931745563123
 20
3.950813896534739
 30
0.0
 10
9.164931745563123
 20
4.112033599321051
 30
0.0
 10
9.164931745563123
 20
4.112033599321051
 30
0.0
  0
SPLINE
  5
4F3
330
1F
100
AcDbEntity
  8
Livello 1
100
AcDbSpline
210
0.0
220
0.0
230
1.0
 70
     8
 71
     3
 72
     8
 73
     4
 74
     0
 42
0.000000001
 43
0.0000000001
 40
2.0
 40
2.0
 40
2.0
 40
2.0
 40
3.0
 40
3.0
 40
3.0
 40
3.0
 10
9.164931745563123
 20
4.112033599321051
 30
0.0
 10
9.164931745563123
 20
4.114854271249654
 30
0.0
 10
9.164931745563123
 20
4.118030218650048
 30
0.0
 10
9.16563691354527
 20
4.120850890578637
 30
0.0
  0
SPLINE
  5
4F4
330
1F
100
AcDbEntity
  8
Livello 1
100
AcDbSpline
210
0.0
220
0.0
230
1.0
 70
     8
 71
     3
 72
     8
 73
     4
 74
     0
 42
0.000000001
 43
0.0000000001
 40
3.0
 40
3.0
 40
3.0
 40
3.0
 40
4.0
 40
4.0
 40
4.0
 40
4.0
 10
9.16563691354527
 20
4.120850890578637
 30
0.0
 10
9.164931745563123
 20
4.124026837979045
 30
0.0
 10
9.164931745563123
 20
4.126847509907662
 30
0.0
 10
9.164931745563123
 20
4.130023457308155
 30
0.0
  0
SPLINE
  5
4F5
330
1F
100
AcDbEntity
  8
Livello 1
100
AcDbSpline
210
0.0
220
0.0
230
1.0
 70
    24
 71
     3
 72
     8
 73
     4
 74
     0
 42
0.000000001
 43
0.0000000001
 40
4.0
 40
4.0
 40
4.0
 40
4.0
 40
5.0
 40
5.0
 40
5.0
 40
5.0
 10
9.164931745563123
 20
4.130023457308155
 30
0.0
 10
9.164931745563123
 20
4.130023457308155
 30
0.0
 10
9.164931745563123
 20
5.984222294124847
 30
0.0
 10
9.164931745563123
 20
5.984222294124847
 30
0.0
  0
SPLINE
  5
4F6
330
1F
100
AcDbEntity
  8
Livello 1
100
AcDbSpline
210
0.0
220
0.0
230
1.0
 70
     8
 71
     3
 72
    11
 73
     7
 74
     0
 42
0.000000001
 43
0.0000000001
 40
5.0
 40
5.0
 40
5.0
 40
5.0
 40
6.0
 40
6.0
 40
6.0
 40
7.0
 40
7.0
 40
7.0
 40
7.0
 10
9.164931745563123
 20
5.984222294124847
 30
0.0
 10
9.164931745563123
 20
6.013150330277554
 30
0.0
 10
9.188213054897033
 20
6.036786915083339
 30
0.0
 10
9.217141091049739
 20
6.036786915083339
 30
0.0
 10
9.246421711193519
 20
6.036786915083339
 30
0.0
 10
9.269705712008274
 20
6.013150330277554
 30
0.0
 10
9.269705712008274
 20
5.984222294124847
 30
0.0
  0
SPLINE
  5
4F7
330
1F
100
AcDbEntity
  8
Livello 1
100
AcDbSpline
210
0.0
220
0.0
230
1.0
 70
    24
 71
     3
 72
     8
 73
     4
 74
     0
 42
0.000000001
 43
0.0000000001
 40
7.0
 40
7.0
 40
7.0
 40
7.0
 40
8.0
 40
8.0
 40
8.0
 40
8.0
 10
9.269705712008274
 20
5.984222294124847
 30
0.0
 10
9.269705712008274
 20
5.984222294124847
 30
0.0
 10
9.269705712008274
 20
4.130023457308155
 30
0.0
 10
9.269705712008274
 20
4.130023457308155
 30
0.0
  0
SPLINE
  5
4F8
330
1F
100
AcDbEntity
  8
Livello 1
100
AcDbSpline
210
0.0
220
0.0
230
1.0
 70
     8
 71
     3
 72
     8
 73
     4
 74
     0
 42
0.000000001
 43
0.0000000001
 40
8.0
 40
8.0
 40
8.0
 40
8.0
 40
9.0
 40
9.0
 40
9.0
 40
9.0
 10
9.269705712008274
 20
4.130023457308155
 30
0.0
 10
9.269705712008274
 20
4.126847509907662
 30
0.0
 10
9.269705712008274
 20
4.124026837979045
 30
0.0
 10
9.269000544026141
 20
4.120850890578637
 30
0.0
  0
SPLINE
  5
4F9
330
1F
100
AcDbEntity
  8
Livello 1
100
AcDbSpline
210
0.0
220
0.0
230
1.0
 70
     8
 71
     3
 72
     8
 73
     4
 74
     0
 42
0.000000001
 43
0.0000000001
 40
9.0
 40
9.0
 40
9.0
 40
9.0
 40
10.0
 40
10.0
 40
10.0
 40
10.0
 10
9.269000544026141
 20
4.120850890578637
 30
0.0
 10
9.269705712008274
 20
4.118030218650048
 30
0.0
 10
9.269705712008274
 20
4.114854271249654
 30
0.0
 10
9.269705712008274
 20
4.112033599321051
 30
0.0
  0
SPLINE
  5
4FA
330
1F
100
AcDbEntity
  8
Livello 1
100
AcDbSpline
210
0.0
220
0.0
230
1.0
 70
    24
 71
     3
 72
     8
 73
     4
 74
     0
 42
0.000000001
 43
0.0000000001
 40
10.0
 40
10.0
 40
10.0
 40
10.0
 40
11.0
 40
11.0
 40
11.0
 40
11.0
 10
9.269705712008274
 20
4.112033599321051
 30
0.0
 10
9.269705712008274
 20
4.112033599321051
 30
0.0
 10
9.269705712008274
 20
3.950813896534739
 30
0.0
 10
9.269705712008274
 20
3.950813896534739
 30
0.0
  0
SPLINE
  5
4FB
330
1F
100
AcDbEntity
  8
Livello 1
100
AcDbSpline
210
0.0
220
0.0
230
1.0
 70
     8
 71
     3
 72
     8
 73
     4
 74
     0
 42
0.000000001
 43
0.0000000001
 40
11.0
 40
11.0
 40
11.0
 40
11.0
 40
12.0
 40
12.0
 40
12.0
 40
12.0
 10
9.269705712008274
 20
3.950813896534739
 30
0.0
 10
9.269705712008274
 20
3.921885860382033
 30
0.0
 10
9.246421711193519
 20
3.898604551048151
 30
0.0
 10
9.217141091049739
 20
3.898604551048151
 30
0.0
  0
SPLINE
  5
4FC
330
1F
100
AcDbEntity
  8
Livello 1
100
AcDbSpline
210
0.0
220
0.0
230
1.0
 70
     8
 71
     3
 72
     8
 73
     4
 74
     0
 42
0.000000001
 43
0.0000000001
 40
0.0
 40
0.0
 40
0.0
 40
0.0
 40
1.0
 40
1.0
 40
1.0
 40
1.0
 10
9.073913937731319
 20
4.059468978362545
 30
0.0
 10
9.044985901578641
 20
4.059468978362545
 30
0.0
 10
9.021349316772798
 20
4.083105563168345
 30
0.0
 10
9.021349316772798
 20
4.112033599321051
 30
0.0
  0
SPLINE
  5
4FD
330
1F
100
AcDbEntity
  8
Livello 1
100
AcDbSpline
210
0.0
220
0.0
230
1.0
 70
    24
 71
     3
 72
     8
 73
     4
 74
     0
 42
0.000000001
 43
0.0000000001
 40
1.0
 40
1.0
 40
1.0
 40
1.0
 40
2.0
 40
2.0
 40
2.0
 40
2.0
 10
9.021349316772798
 20
4.112033599321051
 30
0.0
 10
9.021349316772798
 20
4.112033599321051
 30
0.0
 10
9.021349316772798
 20
4.130023457308155
 30
0.0
 10
9.021349316772798
 20
4.130023457308155
 30
0.0
  0
SPLINE
  5
4FE
330
1F
100
AcDbEntity
  8
Livello 1
100
AcDbSpline
210
0.0
220
0.0
230
1.0
 70
     8
 71
     3
 72
     8
 73
     4
 74
     0
 42
0.000000001
 43
0.0000000001
 40
2.0
 40
2.0
 40
2.0
 40
2.0
 40
3.0
 40
3.0
 40
3.0
 40
3.0
 10
9.021349316772798
 20
4.130023457308155
 30
0.0
 10
9.021349316772798
 20
4.149073758749253
 30
0.0
 10
9.031582326956325
 20
4.165303388261747
 30
0.0
 10
9.04639892902378
 20
4.174825847501438
 30
0.0
  0
SPLINE
  5
4FF
330
1F
100
AcDbEntity
  8
Livello 1
100
AcDbSpline
210
0.0
220
0.0
230
1.0
 70
     8
 71
     3
 72
     8
 73
     4
 74
     0
 42
0.000000001
 43
0.0000000001
 40
3.0
 40
3.0
 40
3.0
 40
3.0
 40
4.0
 40
4.0
 40
4.0
 40
4.0
 10
9.04639892902378
 20
4.174825847501438
 30
0.0
 10
9.031582326956325
 20
4.183998414230941
 30
0.0
 10
9.021349316772798
 20
4.200577936253651
 30
0.0
 10
9.021349316772798
 20
4.219278345184548
 30
0.0
  0
SPLINE
  5
500
330
1F
100
AcDbEntity
  8
Livello 1
100
AcDbSpline
210
0.0
220
0.0
230
1.0
 70
    24
 71
     3
 72
     8
 73
     4
 74
     0
 42
0.000000001
 43
0.0000000001
 40
4.0
 40
4.0
 40
4.0
 40
4.0
 40
5.0
 40
5.0
 40
5.0
 40
5.0
 10
9.021349316772798
 20
4.219278345184548
 30
0.0
 10
9.021349316772798
 20
4.219278345184548
 30
0.0
 10
9.021349316772798
 20
4.738567277007348
 30
0.0
 10
9.021349316772798
 20
4.738567277007348
 30
0.0
  0
SPLINE
  5
501
330
1F
100
AcDbEntity
  8
Livello 1
100
AcDbSpline
210
0.0
220
0.0
230
1.0
 70
     8
 71
     3
 72
    11
 73
     7
 74
     0
 42
0.000000001
 43
0.0000000001
 40
5.0
 40
5.0
 40
5.0
 40
5.0
 40
6.0
 40
6.0
 40
6.0
 40
7.0
 40
7.0
 40
7.0
 40
7.0
 10
9.021349316772798
 20
4.738567277007348
 30
0.0
 10
9.021349316772798
 20
4.767495313160054
 30
0.0
 10
9.044985901578641
 20
4.79113189796584
 30
0.0
 10
9.073913937731319
 20
4.79113189796584
 30
0.0
 10
9.103194557875127
 20
4.79113189796584
 30
0.0
 10
9.126478558689868
 20
4.767495313160054
 30
0.0
 10
9.126478558689868
 20
4.738567277007348
 30
0.0
  0
SPLINE
  5
502
330
1F
100
AcDbEntity
  8
Livello 1
100
AcDbSpline
210
0.0
220
0.0
230
1.0
 70
    24
 71
     3
 72
     8
 73
     4
 74
     0
 42
0.000000001
 43
0.0000000001
 40
7.0
 40
7.0
 40
7.0
 40
7.0
 40
8.0
 40
8.0
 40
8.0
 40
8.0
 10
9.126478558689868
 20
4.738567277007348
 30
0.0
 10
9.126478558689868
 20
4.738567277007348
 30
0.0
 10
9.126478558689868
 20
4.219278345184548
 30
0.0
 10
9.126478558689868
 20
4.219278345184548
 30
0.0
  0
SPLINE
  5
503
330
1F
100
AcDbEntity
  8
Livello 1
100
AcDbSpline
210
0.0
220
0.0
230
1.0
 70
     8
 71
     3
 72
     8
 73
     4
 74
     0
 42
0.000000001
 43
0.0000000001
 40
8.0
 40
8.0
 40
8.0
 40
8.0
 40
9.0
 40
9.0
 40
9.0
 40
9.0
 10
9.126478558689868
 20
4.219278345184548
 30
0.0
 10
9.126478558689868
 20
4.200577936253651
 30
0.0
 10
9.116248239987172
 20
4.183998414230941
 30
0.0
 10
9.101431637919759
 20
4.174825847501438
 30
0.0
  0
SPLINE
  5
504
330
1F
100
AcDbEntity
  8
Livello 1
100
AcDbSpline
210
0.0
220
0.0
230
1.0
 70
     8
 71
     3
 72
     8
 73
     4
 74
     0
 42
0.000000001
 43
0.0000000001
 40
9.0
 40
9.0
 40
9.0
 40
9.0
 40
10.0
 40
10.0
 40
10.0
 40
10.0
 10
9.101431637919759
 20
4.174825847501438
 30
0.0
 10
9.116248239987172
 20
4.165303388261747
 30
0.0
 10
9.126478558689868
 20
4.149073758749253
 30
0.0
 10
9.126478558689868
 20
4.130023457308155
 30
0.0
  0
SPLINE
  5
505
330
1F
100
AcDbEntity
  8
Livello 1
100
AcDbSpline
210
0.0
220
0.0
230
1.0
 70
    24
 71
     3
 72
     8
 73
     4
 74
     0
 42
0.000000001
 43
0.0000000001
 40
10.0
 40
10.0
 40
10.0
 40
10.0
 40
11.0
 40
11.0
 40
11.0
 40
11.0
 10
9.126478558689868
 20
4.130023457308155
 30
0.0
 10
9.126478558689868
 20
4.130023457308155
 30
0.0
 10
9.126478558689868
 20
4.112033599321051
 30
0.0
 10
9.126478558689868
 20
4.112033599321051
 30
0.0
  0
SPLINE
  5
506
330
1F
100
AcDbEntity
  8
Livello 1
100
AcDbSpline
210
0.0
220
0.0
230
1.0
 70
     8
 71
     3
 72
     8
 73
     4
 74
     0
 42
0.000000001
 43
0.0000000001
 40
11.0
 40
11.0
 40
11.0
 40
11.0
 40
12.0
 40
12.0
 40
12.0
 40
12.0
 10
9.126478558689868
 20
4.112033599321051
 30
0.0
 10
9.126478558689868
 20
4.083105563168345
 30
0.0
 10
9.103194557875127
 20
4.059468978362545
 30
0.0
 10
9.073913937731319
 20
4.059468978362545
 30
0.0
  0
SPLINE
  5
507
330
1F
100
AcDbEntity
  8
Livello 1
100
AcDbSpline
210
0.0
220
0.0
230
1.0
 70
     8
 71
     3
 72
     8
 73
     4
 74
     0
 42
0.000000001
 43
0.0000000001
 40
0.0
 40
0.0
 40
0.0
 40
0.0
 40
1.0
 40
1.0
 40
1.0
 40
1.0
 10
9.109899036667087
 20
5.931663056127945
 30
0.0
 10
9.080971000514381
 20
5.931663056127945
 30
0.0
 10
9.057334415708567
 20
5.955294257972155
 30
0.0
 10
9.057334415708567
 20
5.984222294124847
 30
0.0
  0
SPLINE
  5
508
330
1F
100
AcDbEntity
  8
Livello 1
100
AcDbSpline
210
0.0
220
0.0
230
1.0
 70
    24
 71
     3
 72
     8
 73
     4
 74
     0
 42
0.000000001
 43
0.0000000001
 40
1.0
 40
1.0
 40
1.0
 40
1.0
 40
2.0
 40
2.0
 40
2.0
 40
2.0
 10
9.057334415708567
 20
5.984222294124847
 30
0.0
 10
9.057334415708567
 20
5.984222294124847
 30
0.0
 10
9.057334415708567
 20
6.109462280937037
 30
0.0
 10
9.057334415708567
 20
6.109462280937037
 30
0.0
  0
SPLINE
  5
509
330
1F
100
AcDbEntity
  8
Livello 1
100
AcDbSpline
210
0.0
220
0.0
230
1.0
 70
     8
 71
     3
 72
    11
 73
     7
 74
     0
 42
0.000000001
 43
0.0000000001
 40
2.0
 40
2.0
 40
2.0
 40
2.0
 40
3.0
 40
3.0
 40
3.0
 40
4.0
 40
4.0
 40
4.0
 40
4.0
 10
9.057334415708567
 20
6.109462280937037
 30
0.0
 10
9.057334415708567
 20
6.138740209599944
 30
0.0
 10
9.080971000514381
 20
6.162026901895529
 30
0.0
 10
9.109899036667087
 20
6.162026901895529
 30
0.0
 10
9.138824381338949
 20
6.162026901895529
 30
0.0
 10
9.162460966144806
 20
6.138740209599944
 30
0.0
 10
9.162460966144806
 20
6.109462280937037
 30
0.0
  0
SPLINE
  5
50A
330
1F
100
AcDbEntity
  8
Livello 1
100
AcDbSpline
210
0.0
220
0.0
230
1.0
 70
    24
 71
     3
 72
     8
 73
     4
 74
     0
 42
0.000000001
 43
0.0000000001
 40
4.0
 40
4.0
 40
4.0
 40
4.0
 40
5.0
 40
5.0
 40
5.0
 40
5.0
 10
9.162460966144806
 20
6.109462280937037
 30
0.0
 10
9.162460966144806
 20
6.109462280937037
 30
0.0
 10
9.162460966144806
 20
5.984222294124847
 30
0.0
 10
9.162460966144806
 20
5.984222294124847
 30
0.0
  0
SPLINE
  5
50B
330
1F
100
AcDbEntity
  8
Livello 1
100
AcDbSpline
210
0.0
220
0.0
230
1.0
 70
     8
 71
     3
 72
     8
 73
     4
 74
     0
 42
0.000000001
 43
0.0000000001
 40
5.0
 40
5.0
 40
5.0
 40
5.0
 40
6.0
 40
6.0
 40
6.0
 40
6.0
 10
9.162460966144806
 20
5.984222294124847
 30
0.0
 10
9.162460966144806
 20
5.955294257972155
 30
0.0
 10
9.138824381338949
 20
5.931663056127945
 30
0.0
 10
9.109899036667087
 20
5.931663056127945
 30
0.0
  0
SPLINE
  5
50C
330
1F
100
AcDbEntity
  8
Livello 1
100
AcDbSpline
210
0.0
220
0.0
230
1.0
 70
     8
 71
     3
 72
     8
 73
     4
 74
     0
 42
0.000000001
 43
0.0000000001
 40
0.0
 40
0.0
 40
0.0
 40
0.0
 40
1.0
 40
1.0
 40
1.0
 40
1.0
 10
9.217353718036719
 20
3.780776902490956
 30
0.0
 10
9.188425681883998
 20
3.780776902490956
 30
0.0
 10
9.164789097078184
 20
3.804408104335053
 30
0.0
 10
9.164789097078184
 20
3.833336140487745
 30
0.0
  0
SPLINE
  5
50D
330
1F
100
AcDbEntity
  8
Livello 1
100
AcDbSpline
210
0.0
220
0.0
230
1.0
 70
    24
 71
     3
 72
     8
 73
     4
 74
     0
 42
0.000000001
 43
0.0000000001
 40
1.0
 40
1.0
 40
1.0
 40
1.0
 40
2.0
 40
2.0
 40
2.0
 40
2.0
 10
9.164789097078184
 20
3.833336140487745
 30
0.0
 10
9.164789097078184
 20
3.833336140487745
 30
0.0
 10
9.164789097078184
 20
3.950813896534739
 30
0.0
 10
9.164789097078184
 20
3.950813896534739
 30
0.0
  0
SPLINE
  5
50E
330
1F
100
AcDbEntity
  8
Livello 1
100
AcDbSpline
210
0.0
220
0.0
230
1.0
 70
     8
 71
     3
 72
    11
 73
     7
 74
     0
 42
0.000000001
 43
0.0000000001
 40
2.0
 40
2.0
 40
2.0
 40
2.0
 40
3.0
 40
3.0
 40
3.0
 40
4.0
 40
4.0
 40
4.0
 40
4.0
 10
9.164789097078184
 20
3.950813896534739
 30
0.0
 10
9.164789097078184
 20
3.979741932687446
 30
0.0
 10
9.188425681883998
 20
4.003378517493331
 30
0.0
 10
9.217353718036719
 20
4.003378517493331
 30
0.0
 10
9.24627906270858
 20
4.003378517493331
 30
0.0
 10
9.269915647514437
 20
3.979741932687446
 30
0.0
 10
9.269915647514437
 20
3.950813896534739
 30
0.0
  0
SPLINE
  5
50F
330
1F
100
AcDbEntity
  8
Livello 1
100
AcDbSpline
210
0.0
220
0.0
230
1.0
 70
    24
 71
     3
 72
     8
 73
     4
 74
     0
 42
0.000000001
 43
0.0000000001
 40
4.0
 40
4.0
 40
4.0
 40
4.0
 40
5.0
 40
5.0
 40
5.0
 40
5.0
 10
9.269915647514437
 20
3.950813896534739
 30
0.0
 10
9.269915647514437
 20
3.950813896534739
 30
0.0
 10
9.269915647514437
 20
3.833336140487745
 30
0.0
 10
9.269915647514437
 20
3.833336140487745
 30
0.0
  0
SPLINE
  5
510
330
1F
100
AcDbEntity
  8
Livello 1
100
AcDbSpline
210
0.0
220
0.0
230
1.0
 70
     8
 71
     3
 72
     8
 73
     4
 74
     0
 42
0.000000001
 43
0.0000000001
 40
5.0
 40
5.0
 40
5.0
 40
5.0
 40
6.0
 40
6.0
 40
6.0
 40
6.0
 10
9.269915647514437
 20
3.833336140487745
 30
0.0
 10
9.269915647514437
 20
3.804408104335053
 30
0.0
 10
9.24627906270858
 20
3.780776902490956
 30
0.0
 10
9.217353718036719
 20
3.780776902490956
 30
0.0
  0
SPLINE
  5
511
330
1F
100
AcDbEntity
  8
Livello 1
100
AcDbSpline
210
0.0
220
0.0
230
1.0
 70
     8
 71
     3
 72
     8
 73
     4
 74
     0
 42
0.000000001
 43
0.0000000001
 40
0.0
 40
0.0
 40
0.0
 40
0.0
 40
1.0
 40
1.0
 40
1.0
 40
1.0
 10
9.879517219186851
 20
2.261931196354737
 30
0.0
 10
9.850589183034131
 20
2.261931196354737
 30
0.0
 10
9.826952598228274
 20
2.285562398198933
 30
0.0
 10
9.826952598228274
 20
2.31449043435164
 30
0.0
  0
SPLINE
  5
512
330
1F
100
AcDbEntity
  8
Livello 1
100
AcDbSpline
210
0.0
220
0.0
230
1.0
 70
    24
 71
     3
 72
     8
 73
     4
 74
     0
 42
0.000000001
 43
0.0000000001
 40
1.0
 40
1.0
 40
1.0
 40
1.0
 40
2.0
 40
2.0
 40
2.0
 40
2.0
 10
9.826952598228274
 20
2.31449043435164
 30
0.0
 10
9.826952598228274
 20
2.31449043435164
 30
0.0
 10
9.826952598228274
 20
2.441490649638339
 30
0.0
 10
9.826952598228274
 20
2.441490649638339
 30
0.0
  0
SPLINE
  5
513
330
1F
100
AcDbEntity
  8
Livello 1
100
AcDbSpline
210
0.0
220
0.0
230
1.0
 70
     8
 71
     3
 72
    11
 73
     7
 74
     0
 42
0.000000001
 43
0.0000000001
 40
2.0
 40
2.0
 40
2.0
 40
2.0
 40
3.0
 40
3.0
 40
3.0
 40
4.0
 40
4.0
 40
4.0
 40
4.0
 10
9.826952598228274
 20
2.441490649638339
 30
0.0
 10
9.826952598228274
 20
2.470773961262935
 30
0.0
 10
9.850589183034131
 20
2.494055270596845
 30
0.0
 10
9.879517219186851
 20
2.494055270596845
 30
0.0
 10
9.90844256385867
 20
2.494055270596845
 30
0.0
 10
9.932079148664527
 20
2.470773961262935
 30
0.0
 10
9.932079148664527
 20
2.441490649638339
 30
0.0
  0
SPLINE
  5
514
330
1F
100
AcDbEntity
  8
Livello 1
100
AcDbSpline
210
0.0
220
0.0
230
1.0
 70
    24
 71
     3
 72
     8
 73
     4
 74
     0
 42
0.000000001
 43
0.0000000001
 40
4.0
 40
4.0
 40
4.0
 40
4.0
 40
5.0
 40
5.0
 40
5.0
 40
5.0
 10
9.932079148664527
 20
2.441490649638339
 30
0.0
 10
9.932079148664527
 20
2.441490649638339
 30
0.0
 10
9.932079148664527
 20
2.31449043435164
 30
0.0
 10
9.932079148664527
 20
2.31449043435164
 30
0.0
  0
SPLINE
  5
515
330
1F
100
AcDbEntity
  8
Livello 1
100
AcDbSpline
210
0.0
220
0.0
230
1.0
 70
     8
 71
     3
 72
     8
 73
     4
 74
     0
 42
0.000000001
 43
0.0000000001
 40
5.0
 40
5.0
 40
5.0
 40
5.0
 40
6.0
 40
6.0
 40
6.0
 40
6.0
 10
9.932079148664527
 20
2.31449043435164
 30
0.0
 10
9.932079148664527
 20
2.285562398198933
 30
0.0
 10
9.90844256385867
 20
2.261931196354737
 30
0.0
 10
9.879517219186851
 20
2.261931196354737
 30
0.0
  0
SPLINE
  5
516
330
1F
100
AcDbEntity
  8
Livello 1
100
AcDbSpline
210
0.0
220
0.0
230
1.0
 70
    24
 71
     3
 72
     8
 73
     4
 74
     0
 42
0.000000001
 43
0.0000000001
 40
0.0
 40
0.0
 40
0.0
 40
0.0
 40
1.0
 40
1.0
 40
1.0
 40
1.0
 10
1.429255130404484
 20
5.931663056127945
 30
0.0
 10
1.429255130404484
 20
5.931663056127945
 30
0.0
 10
1.411262580936593
 20
5.931663056127945
 30
0.0
 10
1.411262580936593
 20
5.931663056127945
 30
0.0
  0
SPLINE
  5
517
330
1F
100
AcDbEntity
  8
Livello 1
100
AcDbSpline
210
0.0
220
0.0
230
1.0
 70
     8
 71
     3
 72
    11
 73
     7
 74
     0
 42
0.000000001
 43
0.0000000001
 40
1.0
 40
1.0
 40
1.0
 40
1.0
 40
2.0
 40
2.0
 40
2.0
 40
3.0
 40
3.0
 40
3.0
 40
3.0
 10
1.411262580936593
 20
5.931663056127945
 30
0.0
 10
1.382334544783873
 20
5.931663056127945
 30
0.0
 10
1.358699305718488
 20
5.955294257972155
 30
0.0
 10
1.358699305718488
 20
5.984222294124847
 30
0.0
 10
1.358699305718488
 20
6.013150330277554
 30
0.0
 10
1.382334544783873
 20
6.036786915083339
 30
0.0
 10
1.411262580936593
 20
6.036786915083339
 30
0.0
  0
SPLINE
  5
518
330
1F
100
AcDbEntity
  8
Livello 1
100
AcDbSpline
210
0.0
220
0.0
230
1.0
 70
    24
 71
     3
 72
     8
 73
     4
 74
     0
 42
0.000000001
 43
0.0000000001
 40
3.0
 40
3.0
 40
3.0
 40
3.0
 40
4.0
 40
4.0
 40
4.0
 40
4.0
 10
1.411262580936593
 20
6.036786915083339
 30
0.0
 10
1.411262580936593
 20
6.036786915083339
 30
0.0
 10
1.429255130404484
 20
6.036786915083339
 30
0.0
 10
1.429255130404484
 20
6.036786915083339
 30
0.0
  0
SPLINE
  5
519
330
1F
100
AcDbEntity
  8
Livello 1
100
AcDbSpline
210
0.0
220
0.0
230
1.0
 70
     8
 71
     3
 72
    11
 73
     7
 74
     0
 42
0.000000001
 43
0.0000000001
 40
4.0
 40
4.0
 40
4.0
 40
4.0
 40
5.0
 40
5.0
 40
5.0
 40
6.0
 40
6.0
 40
6.0
 40
6.0
 10
1.429255130404484
 20
6.036786915083339
 30
0.0
 10
1.458181820816776
 20
6.036786915083339
 30
0.0
 10
1.48181840562259
 20
6.013150330277554
 30
0.0
 10
1.48181840562259
 20
5.984222294124847
 30
0.0
 10
1.48181840562259
 20
5.955294257972155
 30
0.0
 10
1.458181820816776
 20
5.931663056127945
 30
0.0
 10
1.429255130404484
 20
5.931663056127945
 30
0.0
  0
SPLINE
  5
51A
330
1F
100
AcDbEntity
  8
Livello 1
100
AcDbSpline
210
0.0
220
0.0
230
1.0
 70
    24
 71
     3
 72
     8
 73
     4
 74
     0
 42
0.000000001
 43
0.0000000001
 40
0.0
 40
0.0
 40
0.0
 40
0.0
 40
1.0
 40
1.0
 40
1.0
 40
1.0
 10
8.966706872599729
 20
5.931663056127945
 30
0.0
 10
8.966706872599729
 20
5.931663056127945
 30
0.0
 10
8.948714323131824
 20
5.931663056127945
 30
0.0
 10
8.948714323131824
 20
5.931663056127945
 30
0.0
  0
SPLINE
  5
51B
330
1F
100
AcDbEntity
  8
Livello 1
100
AcDbSpline
210
0.0
220
0.0
230
1.0
 70
     8
 71
     3
 72
    11
 73
     7
 74
     0
 42
0.000000001
 43
0.0000000001
 40
1.0
 40
1.0
 40
1.0
 40
1.0
 40
2.0
 40
2.0
 40
2.0
 40
3.0
 40
3.0
 40
3.0
 40
3.0
 10
8.948714323131824
 20
5.931663056127945
 30
0.0
 10
8.919786286979132
 20
5.931663056127945
 30
0.0
 10
8.896149702173289
 20
5.955294257972155
 30
0.0
 10
8.896149702173289
 20
5.984222294124847
 30
0.0
 10
8.896149702173289
 20
6.013150330277554
 30
0.0
 10
8.919786286979132
 20
6.036786915083339
 30
0.0
 10
8.948714323131824
 20
6.036786915083339
 30
0.0
  0
SPLINE
  5
51C
330
1F
100
AcDbEntity
  8
Livello 1
100
AcDbSpline
210
0.0
220
0.0
230
1.0
 70
    24
 71
     3
 72
     8
 73
     4
 74
     0
 42
0.000000001
 43
0.0000000001
 40
3.0
 40
3.0
 40
3.0
 40
3.0
 40
4.0
 40
4.0
 40
4.0
 40
4.0
 10
8.948714323131824
 20
6.036786915083339
 30
0.0
 10
8.948714323131824
 20
6.036786915083339
 30
0.0
 10
8.966706872599729
 20
6.036786915083339
 30
0.0
 10
8.966706872599729
 20
6.036786915083339
 30
0.0
  0
SPLINE
  5
51D
330
1F
100
AcDbEntity
  8
Livello 1
100
AcDbSpline
210
0.0
220
0.0
230
1.0
 70
     8
 71
     3
 72
    11
 73
     7
 74
     0
 42
0.000000001
 43
0.0000000001
 40
4.0
 40
4.0
 40
4.0
 40
4.0
 40
5.0
 40
5.0
 40
5.0
 40
6.0
 40
6.0
 40
6.0
 40
6.0
 10
8.966706872599729
 20
6.036786915083339
 30
0.0
 10
8.995632217271591
 20
6.036786915083339
 30
0.0
 10
9.019268802077405
 20
6.013150330277554
 30
0.0
 10
9.019268802077405
 20
5.984222294124847
 30
0.0
 10
9.019268802077405
 20
5.955294257972155
 30
0.0
 10
8.995632217271591
 20
5.931663056127945
 30
0.0
 10
8.966706872599729
 20
5.931663056127945
 30
0.0
  0
SPLINE
  5
51E
330
1F
100
AcDbEntity
  8
Livello 1
100
AcDbSpline
210
0.0
220
0.0
230
1.0
 70
     8
 71
     3
 72
     8
 73
     4
 74
     0
 42
0.000000001
 43
0.0000000001
 40
0.0
 40
0.0
 40
0.0
 40
0.0
 40
1.0
 40
1.0
 40
1.0
 40
1.0
 10
9.109899036667087
 20
6.05714527621653
 30
0.0
 10
9.086262451861273
 20
6.05714527621653
 30
0.0
 10
9.065093954992917
 20
6.073019630257164
 30
0.0
 10
9.059097335663921
 20
6.096656215062949
 30
0.0
  0
SPLINE
  5
51F
330
1F
100
AcDbEntity
  8
Livello 1
100
AcDbSpline
210
0.0
220
0.0
230
1.0
 70
    24
 71
     3
 72
     8
 73
     4
 74
     0
 42
0.000000001
 43
0.0000000001
 40
1.0
 40
1.0
 40
1.0
 40
1.0
 40
2.0
 40
2.0
 40
2.0
 40
2.0
 10
9.059097335663921
 20
6.096656215062949
 30
0.0
 10
9.059097335663921
 20
6.096656215062949
 30
0.0
 10
9.046751513014811
 20
6.14498444516694
 30
0.0
 10
9.046751513014811
 20
6.14498444516694
 30
0.0
  0
SPLINE
  5
520
330
1F
100
AcDbEntity
  8
Livello 1
100
AcDbSpline
210
0.0
220
0.0
230
1.0
 70
    24
 71
     3
 72
     8
 73
     4
 74
     0
 42
0.000000001
 43
0.0000000001
 40
2.0
 40
2.0
 40
2.0
 40
2.0
 40
3.0
 40
3.0
 40
3.0
 40
3.0
 10
9.046751513014811
 20
6.14498444516694
 30
0.0
 10
9.046751513014811
 20
6.14498444516694
 30
0.0
 10
8.997007563984809
 20
6.170031365937035
 30
0.0
 10
8.997007563984809
 20
6.170031365937035
 30
0.0
  0
SPLINE
  5
521
330
1F
100
AcDbEntity
  8
Livello 1
100
AcDbSpline
210
0.0
220
0.0
230
1.0
 70
     8
 71
     3
 72
     8
 73
     4
 74
     0
 42
0.000000001
 43
0.0000000001
 40
3.0
 40
3.0
 40
3.0
 40
3.0
 40
4.0
 40
4.0
 40
4.0
 40
4.0
 10
8.997007563984809
 20
6.170031365937035
 30
0.0
 10
8.970902891241522
 20
6.18308504804915
 30
0.0
 10
8.96031998854778
 20
6.214483863620259
 30
0.0
 10
8.973373670659839
 20
6.240585844882645
 30
0.0
  0
SPLINE
  5
522
330
1F
100
AcDbEntity
  8
Livello 1
100
AcDbSpline
210
0.0
220
0.0
230
1.0
 70
     8
 71
     3
 72
     8
 73
     4
 74
     0
 42
0.000000001
 43
0.0000000001
 40
4.0
 40
4.0
 40
4.0
 40
4.0
 40
5.0
 40
5.0
 40
5.0
 40
5.0
 10
8.973373670659839
 20
6.240585844882645
 30
0.0
 10
8.986424661291081
 20
6.266337933634943
 30
0.0
 10
9.018176060853164
 20
6.276920836328656
 30
0.0
 10
9.04392814960542
 20
6.263872537178244
 30
0.0
  0
SPLINE
  5
523
330
1F
100
AcDbEntity
  8
Livello 1
100
AcDbSpline
210
0.0
220
0.0
230
1.0
 70
    24
 71
     3
 72
     8
 73
     4
 74
     0
 42
0.000000001
 43
0.0000000001
 40
5.0
 40
5.0
 40
5.0
 40
5.0
 40
6.0
 40
6.0
 40
6.0
 40
6.0
 10
9.04392814960542
 20
6.263872537178244
 30
0.0
 10
9.04392814960542
 20
6.263872537178244
 30
0.0
 10
9.115543072005038
 20
6.228237330752747
 30
0.0
 10
9.115543072005038
 20
6.228237330752747
 30
0.0
  0
SPLINE
  5
524
330
1F
100
AcDbEntity
  8
Livello 1
100
AcDbSpline
210
0.0
220
0.0
230
1.0
 70
     8
 71
     3
 72
     8
 73
     4
 74
     0
 42
0.000000001
 43
0.0000000001
 40
6.0
 40
6.0
 40
6.0
 40
6.0
 40
7.0
 40
7.0
 40
7.0
 40
7.0
 10
9.115543072005038
 20
6.228237330752747
 30
0.0
 10
9.1292992306184
 20
6.221185650931332
 30
0.0
 10
9.139176965330037
 20
6.208837136801449
 30
0.0
 10
9.142705496721561
 20
6.194017843253149
 30
0.0
  0
SPLINE
  5
525
330
1F
100
AcDbEntity
  8
Livello 1
100
AcDbSpline
210
0.0
220
0.0
230
1.0
 70
    24
 71
     3
 72
     8
 73
     4
 74
     0
 42
0.000000001
 43
0.0000000001
 40
7.0
 40
7.0
 40
7.0
 40
7.0
 40
8.0
 40
8.0
 40
8.0
 40
8.0
 10
9.142705496721561
 20
6.194017843253149
 30
0.0
 10
9.142705496721561
 20
6.194017843253149
 30
0.0
 10
9.160698046189438
 20
6.122408303815248
 30
0.0
 10
9.160698046189438
 20
6.122408303815248
 30
0.0
  0
SPLINE
  5
526
330
1F
100
AcDbEntity
  8
Livello 1
100
AcDbSpline
210
0.0
220
0.0
230
1.0
 70
     8
 71
     3
 72
     8
 73
     4
 74
     0
 42
0.000000001
 43
0.0000000001
 40
8.0
 40
8.0
 40
8.0
 40
8.0
 40
9.0
 40
9.0
 40
9.0
 40
9.0
 10
9.160698046189438
 20
6.122408303815248
 30
0.0
 10
9.167752417491669
 20
6.094185435644661
 30
0.0
 10
9.150820311477843
 20
6.065607292002155
 30
0.0
 10
9.122597443307284
 20
6.05855561218074
 30
0.0
  0
SPLINE
  5
527
330
1F
100
AcDbEntity
  8
Livello 1
100
AcDbSpline
210
0.0
220
0.0
230
1.0
 70
     8
 71
     3
 72
     8
 73
     4
 74
     0
 42
0.000000001
 43
0.0000000001
 40
9.0
 40
9.0
 40
9.0
 40
9.0
 40
10.0
 40
10.0
 40
10.0
 40
10.0
 10
9.122597443307284
 20
6.05855561218074
 30
0.0
 10
9.118363743933599
 20
6.057495168726745
 30
0.0
 10
9.114130044559928
 20
6.05714527621653
 30
0.0
 10
9.109899036667087
 20
6.05714527621653
 30
0.0
  0
SPLINE
  5
528
330
1F
100
AcDbEntity
  8
Livello 1
100
AcDbSpline
210
0.0
220
0.0
230
1.0
 70
     8
 71
     3
 72
     8
 73
     4
 74
     0
 42
0.000000001
 43
0.0000000001
 40
0.0
 40
0.0
 40
0.0
 40
0.0
 40
1.0
 40
1.0
 40
1.0
 40
1.0
 10
1.250080558882174
 20
6.05714527621653
 30
0.0
 10
1.245846859508503
 20
6.05714527621653
 30
0.0
 10
1.241613160134846
 20
6.057495168726745
 30
0.0
 10
1.237379460761161
 20
6.05855561218074
 30
0.0
  0
SPLINE
  5
529
330
1F
100
AcDbEntity
  8
Livello 1
100
AcDbSpline
210
0.0
220
0.0
230
1.0
 70
     8
 71
     3
 72
     8
 73
     4
 74
     0
 42
0.000000001
 43
0.0000000001
 40
1.0
 40
1.0
 40
1.0
 40
1.0
 40
2.0
 40
2.0
 40
2.0
 40
2.0
 10
1.237379460761161
 20
6.05855561218074
 30
0.0
 10
1.209157938331017
 20
6.065607292002155
 30
0.0
 10
1.192224486576762
 20
6.094185435644661
 30
0.0
 10
1.199280203619395
 20
6.122408303815248
 30
0.0
  0
SPLINE
  5
52A
330
1F
100
AcDbEntity
  8
Livello 1
100
AcDbSpline
210
0.0
220
0.0
230
1.0
 70
    24
 71
     3
 72
     8
 73
     4
 74
     0
 42
0.000000001
 43
0.0000000001
 40
2.0
 40
2.0
 40
2.0
 40
2.0
 40
3.0
 40
3.0
 40
3.0
 40
3.0
 10
1.199280203619395
 20
6.122408303815248
 30
0.0
 10
1.199280203619395
 20
6.122408303815248
 30
0.0
 10
1.216918823355797
 20
6.194017843253149
 30
0.0
 10
1.216918823355797
 20
6.194017843253149
 30
0.0
  0
SPLINE
  5
52B
330
1F
100
AcDbEntity
  8
Livello 1
100
AcDbSpline
210
0.0
220
0.0
230
1.0
 70
     8
 71
     3
 72
     8
 73
     4
 74
     0
 42
0.000000001
 43
0.0000000001
 40
3.0
 40
3.0
 40
3.0
 40
3.0
 40
4.0
 40
4.0
 40
4.0
 40
4.0
 10
1.216918823355797
 20
6.194017843253149
 30
0.0
 10
1.220093425015846
 20
6.20672163285505
 30
0.0
 10
1.227854310040598
 20
6.217654428058935
 30
0.0
 10
1.238791142465871
 20
6.224711490842054
 30
0.0
  0
SPLINE
  5
52C
330
1F
100
AcDbEntity
  8
Livello 1
100
AcDbSpline
210
0.0
220
0.0
230
1.0
 70
    24
 71
     3
 72
     8
 73
     4
 74
     0
 42
0.000000001
 43
0.0000000001
 40
4.0
 40
4.0
 40
4.0
 40
4.0
 40
5.0
 40
5.0
 40
5.0
 40
5.0
 10
1.238791142465871
 20
6.224711490842054
 30
0.0
 10
1.238791142465871
 20
6.224711490842054
 30
0.0
 10
1.292766099388671
 20
6.260696589777836
 30
0.0
 10
1.292766099388671
 20
6.260696589777836
 30
0.0
  0
SPLINE
  5
52D
330
1F
100
AcDbEntity
  8
Livello 1
100
AcDbSpline
210
0.0
220
0.0
230
1.0
 70
     8
 71
     3
 72
     8
 73
     4
 74
     0
 42
0.000000001
 43
0.0000000001
 40
5.0
 40
5.0
 40
5.0
 40
5.0
 40
6.0
 40
6.0
 40
6.0
 40
6.0
 10
1.292766099388671
 20
6.260696589777836
 30
0.0
 10
1.316755268185588
 20
6.276570943818441
 30
0.0
 10
1.349210489989388
 20
6.270574324489444
 30
0.0
 10
1.365438773761511
 20
6.24623257170144
 30
0.0
  0
SPLINE
  5
52E
330
1F
100
AcDbEntity
  8
Livello 1
100
AcDbSpline
210
0.0
220
0.0
230
1.0
 70
     8
 71
     3
 72
     8
 73
     4
 74
     0
 42
0.000000001
 43
0.0000000001
 40
6.0
 40
6.0
 40
6.0
 40
6.0
 40
7.0
 40
7.0
 40
7.0
 40
7.0
 10
1.365438773761511
 20
6.24623257170144
 30
0.0
 10
1.381665711793203
 20
6.22189081891345
 30
0.0
 10
1.374962578741644
 20
6.189436942850136
 30
0.0
 10
1.350974755685143
 20
6.173207313337542
 30
0.0
  0
SPLINE
  5
52F
330
1F
100
AcDbEntity
  8
Livello 1
100
AcDbSpline
210
0.0
220
0.0
230
1.0
 70
    24
 71
     3
 72
     8
 73
     4
 74
     0
 42
0.000000001
 43
0.0000000001
 40
7.0
 40
7.0
 40
7.0
 40
7.0
 40
8.0
 40
8.0
 40
8.0
 40
8.0
 10
1.350974755685143
 20
6.173207313337542
 30
0.0
 10
1.350974755685143
 20
6.173207313337542
 30
0.0
 10
1.313933250516598
 20
6.148865560549538
 30
0.0
 10
1.313933250516598
 20
6.148865560549538
 30
0.0
  0
SPLINE
  5
530
330
1F
100
AcDbEntity
  8
Livello 1
100
AcDbSpline
210
0.0
220
0.0
230
1.0
 70
    24
 71
     3
 72
     8
 73
     4
 74
     0
 42
0.000000001
 43
0.0000000001
 40
8.0
 40
8.0
 40
8.0
 40
8.0
 40
9.0
 40
9.0
 40
9.0
 40
9.0
 10
1.313933250516598
 20
6.148865560549538
 30
0.0
 10
1.313933250516598
 20
6.148865560549538
 30
0.0
 10
1.300879568404511
 20
6.09700610757315
 30
0.0
 10
1.300879568404511
 20
6.09700610757315
 30
0.0
  0
SPLINE
  5
531
330
1F
100
AcDbEntity
  8
Livello 1
100
AcDbSpline
210
0.0
220
0.0
230
1.0
 70
     8
 71
     3
 72
     8
 73
     4
 74
     0
 42
0.000000001
 43
0.0000000001
 40
9.0
 40
9.0
 40
9.0
 40
9.0
 40
10.0
 40
10.0
 40
10.0
 40
10.0
 10
1.300879568404511
 20
6.09700610757315
 30
0.0
 10
1.295235533066588
 20
6.073019630257164
 30
0.0
 10
1.273715797947588
 20
6.05714527621653
 30
0.0
 10
1.250080558882174
 20
6.05714527621653
 30
0.0
  0
SPLINE
  5
532
330
1F
100
AcDbEntity
  8
Livello 1
100
AcDbSpline
210
0.0
220
0.0
230
1.0
 70
     8
 71
     3
 72
     8
 73
     4
 74
     0
 42
0.000000001
 43
0.0000000001
 40
0.0
 40
0.0
 40
0.0
 40
0.0
 40
1.0
 40
1.0
 40
1.0
 40
1.0
 10
2.002061467405923
 20
6.236214879985737
 30
0.0
 10
1.99641608632757
 20
6.236214879985737
 30
0.0
 10
1.990772050989605
 20
6.236920047967942
 30
0.0
 10
1.985480599642741
 20
6.238680276442352
 30
0.0
  0
SPLINE
  5
533
330
1F
100
AcDbEntity
  8
Livello 1
100
AcDbSpline
210
0.0
220
0.0
230
1.0
 70
     8
 71
     3
 72
     8
 73
     4
 74
     0
 42
0.000000001
 43
0.0000000001
 40
1.0
 40
1.0
 40
1.0
 40
1.0
 40
2.0
 40
2.0
 40
2.0
 40
2.0
 10
1.985480599642741
 20
6.238680276442352
 30
0.0
 10
1.957964245194716
 20
6.248208118643745
 30
0.0
 10
1.943146297386888
 20
6.277841322778655
 30
0.0
 10
1.95231886411635
 20
6.305359022967039
 30
0.0
  0
SPLINE
  5
534
330
1F
100
AcDbEntity
  8
Livello 1
100
AcDbSpline
210
0.0
220
0.0
230
1.0
 70
    24
 71
     3
 72
     8
 73
     4
 74
     0
 42
0.000000001
 43
0.0000000001
 40
2.0
 40
2.0
 40
2.0
 40
2.0
 40
3.0
 40
3.0
 40
3.0
 40
3.0
 10
1.95231886411635
 20
6.305359022967039
 30
0.0
 10
1.95231886411635
 20
6.305359022967039
 30
0.0
 10
1.970311413584241
 20
6.35897870441795
 30
0.0
 10
1.970311413584241
 20
6.35897870441795
 30
0.0
  0
SPLINE
  5
535
330
1F
100
AcDbEntity
  8
Livello 1
100
AcDbSpline
210
0.0
220
0.0
230
1.0
 70
     8
 71
     3
 72
     8
 73
     4
 74
     0
 42
0.000000001
 43
0.0000000001
 40
3.0
 40
3.0
 40
3.0
 40
3.0
 40
4.0
 40
4.0
 40
4.0
 40
4.0
 10
1.970311413584241
 20
6.35897870441795
 30
0.0
 10
1.974543767217497
 20
6.372382279040252
 30
0.0
 10
1.984068917938031
 20
6.382965181734036
 30
0.0
 10
1.99676867031863
 20
6.38931707653495
 30
0.0
  0
SPLINE
  5
536
330
1F
100
AcDbEntity
  8
Livello 1
100
AcDbSpline
210
0.0
220
0.0
230
1.0
 70
    24
 71
     3
 72
     8
 73
     4
 74
     0
 42
0.000000001
 43
0.0000000001
 40
4.0
 40
4.0
 40
4.0
 40
4.0
 40
5.0
 40
5.0
 40
5.0
 40
5.0
 10
1.99676867031863
 20
6.38931707653495
 30
0.0
 10
1.99676867031863
 20
6.38931707653495
 30
0.0
 10
2.032399839522923
 20
6.406957042011754
 30
0.0
 10
2.032399839522923
 20
6.406957042011754
 30
0.0
  0
SPLINE
  5
537
330
1F
100
AcDbEntity
  8
Livello 1
100
AcDbSpline
210
0.0
220
0.0
230
1.0
 70
     8
 71
     3
 72
     8
 73
     4
 74
     0
 42
0.000000001
 43
0.0000000001
 40
5.0
 40
5.0
 40
5.0
 40
5.0
 40
6.0
 40
6.0
 40
6.0
 40
6.0
 10
2.032399839522923
 20
6.406957042011754
 30
0.0
 10
2.058151928275151
 20
6.420010724123827
 30
0.0
 10
2.089901982096861
 20
6.409427821430043
 30
0.0
 10
2.10295566420892
 20
6.383320457205954
 30
0.0
  0
SPLINE
  5
538
330
1F
100
AcDbEntity
  8
Livello 1
100
AcDbSpline
210
0.0
220
0.0
230
1.0
 70
     8
 71
     3
 72
     8
 73
     4
 74
     0
 42
0.000000001
 43
0.0000000001
 40
6.0
 40
6.0
 40
6.0
 40
6.0
 40
7.0
 40
7.0
 40
7.0
 40
7.0
 10
2.10295566420892
 20
6.383320457205954
 30
0.0
 10
2.115655416589476
 20
6.357213092981751
 30
0.0
 10
2.105072513895777
 20
6.325819660372445
 30
0.0
 10
2.078966495412004
 20
6.31276597826033
 30
0.0
  0
SPLINE
  5
539
330
1F
100
AcDbEntity
  8
Livello 1
100
AcDbSpline
210
0.0
220
0.0
230
1.0
 70
    24
 71
     3
 72
     8
 73
     4
 74
     0
 42
0.000000001
 43
0.0000000001
 40
7.0
 40
7.0
 40
7.0
 40
7.0
 40
8.0
 40
8.0
 40
8.0
 40
8.0
 10
2.078966495412004
 20
6.31276597826033
 30
0.0
 10
2.078966495412004
 20
6.31276597826033
 30
0.0
 10
2.062738211639867
 20
6.305003747495149
 30
0.0
 10
2.062738211639867
 20
6.305003747495149
 30
0.0
  0
SPLINE
  5
53A
330
1F
100
AcDbEntity
  8
Livello 1
100
AcDbSpline
210
0.0
220
0.0
230
1.0
 70
    24
 71
     3
 72
     8
 73
     4
 74
     0
 42
0.000000001
 43
0.0000000001
 40
8.0
 40
8.0
 40
8.0
 40
8.0
 40
9.0
 40
9.0
 40
9.0
 40
9.0
 10
2.062738211639867
 20
6.305003747495149
 30
0.0
 10
2.062738211639867
 20
6.305003747495149
 30
0.0
 10
2.051802724955081
 20
6.272194595959845
 30
0.0
 10
2.051802724955081
 20
6.272194595959845
 30
0.0
  0
SPLINE
  5
53B
330
1F
100
AcDbEntity
  8
Livello 1
100
AcDbSpline
210
0.0
220
0.0
230
1.0
 70
     8
 71
     3
 72
     8
 73
     4
 74
     0
 42
0.000000001
 43
0.0000000001
 40
9.0
 40
9.0
 40
9.0
 40
9.0
 40
10.0
 40
10.0
 40
10.0
 40
10.0
 10
2.051802724955081
 20
6.272194595959845
 30
0.0
 10
2.044394423921374
 20
6.249968347118254
 30
0.0
 10
2.023932440775553
 20
6.236214879985737
 30
0.0
 10
2.002061467405923
 20
6.236214879985737
 30
0.0
  0
SPLINE
  5
53C
330
1F
100
AcDbEntity
  8
Livello 1
100
AcDbSpline
210
0.0
220
0.0
230
1.0
 70
     8
 71
     3
 72
     8
 73
     4
 74
     0
 42
0.000000001
 43
0.0000000001
 40
0.0
 40
0.0
 40
0.0
 40
0.0
 40
1.0
 40
1.0
 40
1.0
 40
1.0
 10
1.662053420598951
 20
6.164567659815958
 30
0.0
 10
1.656760623511672
 20
6.164567659815958
 30
0.0
 10
1.651116588173721
 20
6.165272827798034
 30
0.0
 10
1.645472552835784
 20
6.167033056272529
 30
0.0
  0
SPLINE
  5
53D
330
1F
100
AcDbEntity
  8
Livello 1
100
AcDbSpline
210
0.0
220
0.0
230
1.0
 70
     8
 71
     3
 72
     8
 73
     4
 74
     0
 42
0.000000001
 43
0.0000000001
 40
1.0
 40
1.0
 40
1.0
 40
1.0
 40
2.0
 40
2.0
 40
2.0
 40
2.0
 10
1.645472552835784
 20
6.167033056272529
 30
0.0
 10
1.617956198387773
 20
6.176205623002047
 30
0.0
 10
1.603138250579917
 20
6.206194102608847
 30
0.0
 10
1.612310817309392
 20
6.233356527325341
 30
0.0
  0
SPLINE
  5
53E
330
1F
100
AcDbEntity
  8
Livello 1
100
AcDbSpline
210
0.0
220
0.0
230
1.0
 70
    24
 71
     3
 72
     8
 73
     4
 74
     0
 42
0.000000001
 43
0.0000000001
 40
2.0
 40
2.0
 40
2.0
 40
2.0
 40
3.0
 40
3.0
 40
3.0
 40
3.0
 10
1.612310817309392
 20
6.233356527325341
 30
0.0
 10
1.612310817309392
 20
6.233356527325341
 30
0.0
 10
1.629949437045794
 20
6.287331484248156
 30
0.0
 10
1.629949437045794
 20
6.287331484248156
 30
0.0
  0
SPLINE
  5
53F
330
1F
100
AcDbEntity
  8
Livello 1
100
AcDbSpline
210
0.0
220
0.0
230
1.0
 70
     8
 71
     3
 72
     8
 73
     4
 74
     0
 42
0.000000001
 43
0.0000000001
 40
3.0
 40
3.0
 40
3.0
 40
3.0
 40
4.0
 40
4.0
 40
4.0
 40
4.0
 10
1.629949437045794
 20
6.287331484248156
 30
0.0
 10
1.635242234133102
 20
6.302855945778532
 30
0.0
 10
1.647235472791123
 20
6.315199076946839
 30
0.0
 10
1.663111172572172
 20
6.32049052829366
 30
0.0
  0
SPLINE
  5
540
330
1F
100
AcDbEntity
  8
Livello 1
100
AcDbSpline
210
0.0
220
0.0
230
1.0
 70
    24
 71
     3
 72
     8
 73
     4
 74
     0
 42
0.000000001
 43
0.0000000001
 40
4.0
 40
4.0
 40
4.0
 40
4.0
 40
5.0
 40
5.0
 40
5.0
 40
5.0
 10
1.663111172572172
 20
6.32049052829366
 30
0.0
 10
1.663111172572172
 20
6.32049052829366
 30
0.0
 10
1.716733545503927
 20
6.338485769242453
 30
0.0
 10
1.716733545503927
 20
6.338485769242453
 30
0.0
  0
SPLINE
  5
541
330
1F
100
AcDbEntity
  8
Livello 1
100
AcDbSpline
210
0.0
220
0.0
230
1.0
 70
     8
 71
     3
 72
     8
 73
     4
 74
     0
 42
0.000000001
 43
0.0000000001
 40
5.0
 40
5.0
 40
5.0
 40
5.0
 40
6.0
 40
6.0
 40
6.0
 40
6.0
 10
1.716733545503927
 20
6.338485769242453
 30
0.0
 10
1.744602483942998
 20
6.348008228482143
 30
0.0
 10
1.774235688077837
 20
6.332839042423657
 30
0.0
 10
1.783408254807312
 20
6.305321342235245
 30
0.0
  0
SPLINE
  5
542
330
1F
100
AcDbEntity
  8
Livello 1
100
AcDbSpline
210
0.0
220
0.0
230
1.0
 70
     8
 71
     3
 72
     8
 73
     4
 74
     0
 42
0.000000001
 43
0.0000000001
 40
6.0
 40
6.0
 40
6.0
 40
6.0
 40
7.0
 40
7.0
 40
7.0
 40
7.0
 10
1.783408254807312
 20
6.305321342235245
 30
0.0
 10
1.792580821536802
 20
6.277809025008437
 30
0.0
 10
1.777764219469375
 20
6.248175820873655
 30
0.0
 10
1.75024786502135
 20
6.239003254144151
 30
0.0
  0
SPLINE
  5
543
330
1F
100
AcDbEntity
  8
Livello 1
100
AcDbSpline
210
0.0
220
0.0
230
1.0
 70
    24
 71
     3
 72
     8
 73
     4
 74
     0
 42
0.000000001
 43
0.0000000001
 40
7.0
 40
7.0
 40
7.0
 40
7.0
 40
8.0
 40
8.0
 40
8.0
 40
8.0
 10
1.75024786502135
 20
6.239003254144151
 30
0.0
 10
1.75024786502135
 20
6.239003254144151
 30
0.0
 10
1.721319828868672
 20
6.229125519432543
 30
0.0
 10
1.721319828868672
 20
6.229125519432543
 30
0.0
  0
SPLINE
  5
544
330
1F
100
AcDbEntity
  8
Livello 1
100
AcDbSpline
210
0.0
220
0.0
230
1.0
 70
    24
 71
     3
 72
     8
 73
     4
 74
     0
 42
0.000000001
 43
0.0000000001
 40
8.0
 40
8.0
 40
8.0
 40
8.0
 40
9.0
 40
9.0
 40
9.0
 40
9.0
 10
1.721319828868672
 20
6.229125519432543
 30
0.0
 10
1.721319828868672
 20
6.229125519432543
 30
0.0
 10
1.711794678148123
 20
6.200547375790037
 30
0.0
 10
1.711794678148123
 20
6.200547375790037
 30
0.0
  0
SPLINE
  5
545
330
1F
100
AcDbEntity
  8
Livello 1
100
AcDbSpline
210
0.0
220
0.0
230
1.0
 70
     8
 71
     3
 72
     8
 73
     4
 74
     0
 42
0.000000001
 43
0.0000000001
 40
9.0
 40
9.0
 40
9.0
 40
9.0
 40
10.0
 40
10.0
 40
10.0
 40
10.0
 10
1.711794678148123
 20
6.200547375790037
 30
0.0
 10
1.704386377114389
 20
6.178676402420336
 30
0.0
 10
1.683924393968595
 20
6.164567659815958
 30
0.0
 10
1.662053420598951
 20
6.164567659815958
 30
0.0
  0
SPLINE
  5
546
330
1F
100
AcDbEntity
  8
Livello 1
100
AcDbSpline
210
0.0
220
0.0
230
1.0
 70
     8
 71
     3
 72
     8
 73
     4
 74
     0
 42
0.000000001
 43
0.0000000001
 40
0.0
 40
0.0
 40
0.0
 40
0.0
 40
1.0
 40
1.0
 40
1.0
 40
1.0
 10
8.680214885231009
 20
6.558304393048146
 30
0.0
 10
8.658341220380506
 20
6.558304393048146
 30
0.0
 10
8.637527998984097
 20
6.572413135652539
 30
0.0
 10
8.630470936201007
 20
6.59428410902224
 30
0.0
  0
SPLINE
  5
547
330
1F
100
AcDbEntity
  8
Livello 1
100
AcDbSpline
210
0.0
220
0.0
230
1.0
 70
    24
 71
     3
 72
     8
 73
     4
 74
     0
 42
0.000000001
 43
0.0000000001
 40
1.0
 40
1.0
 40
1.0
 40
1.0
 40
2.0
 40
2.0
 40
2.0
 40
2.0
 10
8.630470936201007
 20
6.59428410902224
 30
0.0
 10
8.630470936201007
 20
6.59428410902224
 30
0.0
 10
8.620945785480486
 20
6.623212145174946
 30
0.0
 10
8.620945785480486
 20
6.623212145174946
 30
0.0
  0
SPLINE
  5
548
330
1F
100
AcDbEntity
  8
Livello 1
100
AcDbSpline
210
0.0
220
0.0
230
1.0
 70
    24
 71
     3
 72
     8
 73
     4
 74
     0
 42
0.000000001
 43
0.0000000001
 40
2.0
 40
2.0
 40
2.0
 40
2.0
 40
3.0
 40
3.0
 40
3.0
 40
3.0
 10
8.620945785480486
 20
6.623212145174946
 30
0.0
 10
8.620945785480486
 20
6.623212145174946
 30
0.0
 10
8.592020440808639
 20
6.632739987376339
 30
0.0
 10
8.592020440808639
 20
6.632739987376339
 30
0.0
  0
SPLINE
  5
549
330
1F
100
AcDbEntity
  8
Livello 1
100
AcDbSpline
210
0.0
220
0.0
230
1.0
 70
     8
 71
     3
 72
     8
 73
     4
 74
     0
 42
0.000000001
 43
0.0000000001
 40
3.0
 40
3.0
 40
3.0
 40
3.0
 40
4.0
 40
4.0
 40
4.0
 40
4.0
 10
8.592020440808639
 20
6.632739987376339
 30
0.0
 10
8.56450274062017
 20
6.64155727863384
 30
0.0
 10
8.549686138552772
 20
6.671190482768736
 30
0.0
 10
8.558506121291173
 20
6.698708182957147
 30
0.0
  0
SPLINE
  5
54A
330
1F
100
AcDbEntity
  8
Livello 1
100
AcDbSpline
210
0.0
220
0.0
230
1.0
 70
     8
 71
     3
 72
     8
 73
     4
 74
     0
 42
0.000000001
 43
0.0000000001
 40
4.0
 40
4.0
 40
4.0
 40
4.0
 40
5.0
 40
5.0
 40
5.0
 40
5.0
 10
8.558506121291173
 20
6.698708182957147
 30
0.0
 10
8.567678688020635
 20
6.726225883145531
 30
0.0
 10
8.597311892155502
 20
6.741744961714331
 30
0.0
 10
8.624826900863084
 20
6.732222502474641
 30
0.0
  0
SPLINE
  5
54B
330
1F
100
AcDbEntity
  8
Livello 1
100
AcDbSpline
210
0.0
220
0.0
230
1.0
 70
    24
 71
     3
 72
     8
 73
     4
 74
     0
 42
0.000000001
 43
0.0000000001
 40
5.0
 40
5.0
 40
5.0
 40
5.0
 40
6.0
 40
6.0
 40
6.0
 40
6.0
 10
8.624826900863084
 20
6.732222502474641
 30
0.0
 10
8.624826900863084
 20
6.732222502474641
 30
0.0
 10
8.678801857785884
 20
6.714582536997838
 30
0.0
 10
8.678801857785884
 20
6.714582536997838
 30
0.0
  0
SPLINE
  5
54C
330
1F
100
AcDbEntity
  8
Livello 1
100
AcDbSpline
210
0.0
220
0.0
230
1.0
 70
     8
 71
     3
 72
     8
 73
     4
 74
     0
 42
0.000000001
 43
0.0000000001
 40
6.0
 40
6.0
 40
6.0
 40
6.0
 40
7.0
 40
7.0
 40
7.0
 40
7.0
 10
8.678801857785884
 20
6.714582536997838
 30
0.0
 10
8.694676211826532
 20
6.709291085650946
 30
0.0
 10
8.707024725956458
 20
6.696942571520949
 30
0.0
 10
8.71231617730335
 20
6.681068217480344
 30
0.0
  0
SPLINE
  5
54D
330
1F
100
AcDbEntity
  8
Livello 1
100
AcDbSpline
210
0.0
220
0.0
230
1.0
 70
    24
 71
     3
 72
     8
 73
     4
 74
     0
 42
0.000000001
 43
0.0000000001
 40
7.0
 40
7.0
 40
7.0
 40
7.0
 40
8.0
 40
8.0
 40
8.0
 40
8.0
 10
8.71231617730335
 20
6.681068217480344
 30
0.0
 10
8.71231617730335
 20
6.681068217480344
 30
0.0
 10
8.729956142780167
 20
6.627093260557543
 30
0.0
 10
8.729956142780167
 20
6.627093260557543
 30
0.0
  0
SPLINE
  5
54E
330
1F
100
AcDbEntity
  8
Livello 1
100
AcDbSpline
210
0.0
220
0.0
230
1.0
 70
     8
 71
     3
 72
     8
 73
     4
 74
     0
 42
0.000000001
 43
0.0000000001
 40
8.0
 40
8.0
 40
8.0
 40
8.0
 40
9.0
 40
9.0
 40
9.0
 40
9.0
 10
8.729956142780167
 20
6.627093260557543
 30
0.0
 10
8.739128709509657
 20
6.599930835841036
 30
0.0
 10
8.724312107442216
 20
6.569942356234236
 30
0.0
 10
8.69679440725379
 20
6.560769789504746
 30
0.0
  0
SPLINE
  5
54F
330
1F
100
AcDbEntity
  8
Livello 1
100
AcDbSpline
210
0.0
220
0.0
230
1.0
 70
     8
 71
     3
 72
     8
 73
     4
 74
     0
 42
0.000000001
 43
0.0000000001
 40
9.0
 40
9.0
 40
9.0
 40
9.0
 40
10.0
 40
10.0
 40
10.0
 40
10.0
 10
8.69679440725379
 20
6.560769789504746
 30
0.0
 10
8.691150371915853
 20
6.559009561030251
 30
0.0
 10
8.685506336577887
 20
6.558304393048146
 30
0.0
 10
8.680214885231009
 20
6.558304393048146
 30
0.0
  0
SPLINE
  5
550
330
1F
100
AcDbEntity
  8
Livello 1
100
AcDbSpline
210
0.0
220
0.0
230
1.0
 70
     8
 71
     3
 72
     8
 73
     4
 74
     0
 42
0.000000001
 43
0.0000000001
 40
0.0
 40
0.0
 40
0.0
 40
0.0
 40
1.0
 40
1.0
 40
1.0
 40
1.0
 10
8.339995557177502
 20
6.558304393048146
 30
0.0
 10
8.318121892326999
 20
6.558304393048146
 30
0.0
 10
8.29730867093059
 20
6.572413135652539
 30
0.0
 10
8.290251608147514
 20
6.59428410902224
 30
0.0
  0
SPLINE
  5
551
330
1F
100
AcDbEntity
  8
Livello 1
100
AcDbSpline
210
0.0
220
0.0
230
1.0
 70
    24
 71
     3
 72
     8
 73
     4
 74
     0
 42
0.000000001
 43
0.0000000001
 40
1.0
 40
1.0
 40
1.0
 40
1.0
 40
2.0
 40
2.0
 40
2.0
 40
2.0
 10
8.290251608147514
 20
6.59428410902224
 30
0.0
 10
8.290251608147514
 20
6.59428410902224
 30
0.0
 10
8.280726457426965
 20
6.623212145174946
 30
0.0
 10
8.280726457426965
 20
6.623212145174946
 30
0.0
  0
SPLINE
  5
552
330
1F
100
AcDbEntity
  8
Livello 1
100
AcDbSpline
210
0.0
220
0.0
230
1.0
 70
    24
 71
     3
 72
     8
 73
     4
 74
     0
 42
0.000000001
 43
0.0000000001
 40
2.0
 40
2.0
 40
2.0
 40
2.0
 40
3.0
 40
3.0
 40
3.0
 40
3.0
 10
8.280726457426965
 20
6.623212145174946
 30
0.0
 10
8.280726457426965
 20
6.623212145174946
 30
0.0
 10
8.252153696746177
 20
6.632739987376339
 30
0.0
 10
8.252153696746177
 20
6.632739987376339
 30
0.0
  0
SPLINE
  5
553
330
1F
100
AcDbEntity
  8
Livello 1
100
AcDbSpline
210
0.0
220
0.0
230
1.0
 70
     8
 71
     3
 72
     8
 73
     4
 74
     0
 42
0.000000001
 43
0.0000000001
 40
3.0
 40
3.0
 40
3.0
 40
3.0
 40
4.0
 40
4.0
 40
4.0
 40
4.0
 10
8.252153696746177
 20
6.632739987376339
 30
0.0
 10
8.224283412566677
 20
6.64155727863384
 30
0.0
 10
8.209466810499236
 20
6.671190482768736
 30
0.0
 10
8.218639377228726
 20
6.698708182957147
 30
0.0
  0
SPLINE
  5
554
330
1F
100
AcDbEntity
  8
Livello 1
100
AcDbSpline
210
0.0
220
0.0
230
1.0
 70
     8
 71
     3
 72
     8
 73
     4
 74
     0
 42
0.000000001
 43
0.0000000001
 40
4.0
 40
4.0
 40
4.0
 40
4.0
 40
5.0
 40
5.0
 40
5.0
 40
5.0
 10
8.218639377228726
 20
6.698708182957147
 30
0.0
 10
8.227811943958201
 20
6.726575775655831
 30
0.0
 10
8.257092564101995
 20
6.741744961714331
 30
0.0
 10
8.28496015680065
 20
6.732222502474641
 30
0.0
  0
SPLINE
  5
555
330
1F
100
AcDbEntity
  8
Livello 1
100
AcDbSpline
210
0.0
220
0.0
230
1.0
 70
    24
 71
     3
 72
     8
 73
     4
 74
     0
 42
0.000000001
 43
0.0000000001
 40
5.0
 40
5.0
 40
5.0
 40
5.0
 40
6.0
 40
6.0
 40
6.0
 40
6.0
 10
8.28496015680065
 20
6.732222502474641
 30
0.0
 10
8.28496015680065
 20
6.732222502474641
 30
0.0
 10
8.338582529732391
 20
6.714582536997838
 30
0.0
 10
8.338582529732391
 20
6.714582536997838
 30
0.0
  0
SPLINE
  5
556
330
1F
100
AcDbEntity
  8
Livello 1
100
AcDbSpline
210
0.0
220
0.0
230
1.0
 70
     8
 71
     3
 72
     8
 73
     4
 74
     0
 42
0.000000001
 43
0.0000000001
 40
6.0
 40
6.0
 40
6.0
 40
6.0
 40
7.0
 40
7.0
 40
7.0
 40
7.0
 10
8.338582529732391
 20
6.714582536997838
 30
0.0
 10
8.354456883772996
 20
6.709291085650946
 30
0.0
 10
8.366805397902965
 20
6.696942571520949
 30
0.0
 10
8.372096849249857
 20
6.681068217480344
 30
0.0
  0
SPLINE
  5
557
330
1F
100
AcDbEntity
  8
Livello 1
100
AcDbSpline
210
0.0
220
0.0
230
1.0
 70
    24
 71
     3
 72
     8
 73
     4
 74
     0
 42
0.000000001
 43
0.0000000001
 40
7.0
 40
7.0
 40
7.0
 40
7.0
 40
8.0
 40
8.0
 40
8.0
 40
8.0
 10
8.372096849249857
 20
6.681068217480344
 30
0.0
 10
8.372096849249857
 20
6.681068217480344
 30
0.0
 10
8.389736814726646
 20
6.627093260557543
 30
0.0
 10
8.389736814726646
 20
6.627093260557543
 30
0.0
  0
SPLINE
  5
558
330
1F
100
AcDbEntity
  8
Livello 1
100
AcDbSpline
210
0.0
220
0.0
230
1.0
 70
     8
 71
     3
 72
     8
 73
     4
 74
     0
 42
0.000000001
 43
0.0000000001
 40
8.0
 40
8.0
 40
8.0
 40
8.0
 40
9.0
 40
9.0
 40
9.0
 40
9.0
 10
8.389736814726646
 20
6.627093260557543
 30
0.0
 10
8.398909381456121
 20
6.59957556036916
 30
0.0
 10
8.384092779388723
 20
6.569942356234236
 30
0.0
 10
8.356222495209209
 20
6.560769789504746
 30
0.0
  0
SPLINE
  5
559
330
1F
100
AcDbEntity
  8
Livello 1
100
AcDbSpline
210
0.0
220
0.0
230
1.0
 70
     8
 71
     3
 72
     8
 73
     4
 74
     0
 42
0.000000001
 43
0.0000000001
 40
9.0
 40
9.0
 40
9.0
 40
9.0
 40
10.0
 40
10.0
 40
10.0
 40
10.0
 10
8.356222495209209
 20
6.560769789504746
 30
0.0
 10
8.350931043862317
 20
6.559009561030251
 30
0.0
 10
8.345287008524366
 20
6.558304393048146
 30
0.0
 10
8.339995557177502
 20
6.558304393048146
 30
0.0
  0
SPLINE
  5
55A
330
1F
100
AcDbEntity
  8
Livello 1
100
AcDbSpline
210
0.0
220
0.0
230
1.0
 70
     8
 71
     3
 72
     8
 73
     4
 74
     0
 42
0.000000001
 43
0.0000000001
 40
0.0
 40
0.0
 40
0.0
 40
0.0
 40
1.0
 40
1.0
 40
1.0
 40
1.0
 10
2.485472959526859
 20
6.325717384100244
 30
0.0
 10
2.480180162439509
 20
6.325717384100244
 30
0.0
 10
2.474536127101586
 20
6.326422552082334
 30
0.0
 10
2.468892091763635
 20
6.328182780556844
 30
0.0
  0
SPLINE
  5
55B
330
1F
100
AcDbEntity
  8
Livello 1
100
AcDbSpline
210
0.0
220
0.0
230
1.0
 70
     8
 71
     3
 72
     8
 73
     4
 74
     0
 42
0.000000001
 43
0.0000000001
 40
1.0
 40
1.0
 40
1.0
 40
1.0
 40
2.0
 40
2.0
 40
2.0
 40
2.0
 10
2.468892091763635
 20
6.328182780556844
 30
0.0
 10
2.441375737315624
 20
6.337355347286333
 30
0.0
 10
2.426557789507782
 20
6.367343826893034
 30
0.0
 10
2.435730356237272
 20
6.394506251609655
 30
0.0
  0
SPLINE
  5
55C
330
1F
100
AcDbEntity
  8
Livello 1
100
AcDbSpline
210
0.0
220
0.0
230
1.0
 70
    24
 71
     3
 72
     8
 73
     4
 74
     0
 42
0.000000001
 43
0.0000000001
 40
2.0
 40
2.0
 40
2.0
 40
2.0
 40
3.0
 40
3.0
 40
3.0
 40
3.0
 10
2.435730356237272
 20
6.394506251609655
 30
0.0
 10
2.435730356237272
 20
6.394506251609655
 30
0.0
 10
2.45336897597366
 20
6.448481208532442
 30
0.0
 10
2.45336897597366
 20
6.448481208532442
 30
0.0
  0
SPLINE
  5
55D
330
1F
100
AcDbEntity
  8
Livello 1
100
AcDbSpline
210
0.0
220
0.0
230
1.0
 70
     8
 71
     3
 72
     8
 73
     4
 74
     0
 42
0.000000001
 43
0.0000000001
 40
3.0
 40
3.0
 40
3.0
 40
3.0
 40
4.0
 40
4.0
 40
4.0
 40
4.0
 10
2.45336897597366
 20
6.448481208532442
 30
0.0
 10
2.457250091356272
 20
6.459419386698044
 30
0.0
 10
2.464658392389964
 20
6.469297121409752
 30
0.0
 10
2.474183543110513
 20
6.475643633248949
 30
0.0
  0
SPLINE
  5
55E
330
1F
100
AcDbEntity
  8
Livello 1
100
AcDbSpline
210
0.0
220
0.0
230
1.0
 70
    24
 71
     3
 72
     8
 73
     4
 74
     0
 42
0.000000001
 43
0.0000000001
 40
4.0
 40
4.0
 40
4.0
 40
4.0
 40
5.0
 40
5.0
 40
5.0
 40
5.0
 10
2.474183543110513
 20
6.475643633248949
 30
0.0
 10
2.474183543110513
 20
6.475643633248949
 30
0.0
 10
2.528158500033313
 20
6.511273456712757
 30
0.0
 10
2.528158500033313
 20
6.511273456712757
 30
0.0
  0
SPLINE
  5
55F
330
1F
100
AcDbEntity
  8
Livello 1
100
AcDbSpline
210
0.0
220
0.0
230
1.0
 70
     8
 71
     3
 72
     8
 73
     4
 74
     0
 42
0.000000001
 43
0.0000000001
 40
5.0
 40
5.0
 40
5.0
 40
5.0
 40
6.0
 40
6.0
 40
6.0
 40
6.0
 10
2.528158500033313
 20
6.511273456712757
 30
0.0
 10
2.552500252821289
 20
6.527503086225351
 30
0.0
 10
2.584955474625104
 20
6.52080129891415
 30
0.0
 10
2.601183758397226
 20
6.496459546126246
 30
0.0
  0
SPLINE
  5
560
330
1F
100
AcDbEntity
  8
Livello 1
100
AcDbSpline
210
0.0
220
0.0
230
1.0
 70
     8
 71
     3
 72
     8
 73
     4
 74
     0
 42
0.000000001
 43
0.0000000001
 40
6.0
 40
6.0
 40
6.0
 40
6.0
 40
7.0
 40
7.0
 40
7.0
 40
7.0
 10
2.601183758397226
 20
6.496459546126246
 30
0.0
 10
2.617058112437874
 20
6.472467685848457
 30
0.0
 10
2.610354979386286
 20
6.439663917274842
 30
0.0
 10
2.586367156329799
 20
6.423789563234237
 30
0.0
  0
SPLINE
  5
561
330
1F
100
AcDbEntity
  8
Livello 1
100
AcDbSpline
210
0.0
220
0.0
230
1.0
 70
    24
 71
     3
 72
     8
 73
     4
 74
     0
 42
0.000000001
 43
0.0000000001
 40
7.0
 40
7.0
 40
7.0
 40
7.0
 40
8.0
 40
8.0
 40
8.0
 40
8.0
 10
2.586367156329799
 20
6.423789563234237
 30
0.0
 10
2.586367156329799
 20
6.423789563234237
 30
0.0
 10
2.547561385465485
 20
6.398032091520249
 30
0.0
 10
2.547561385465485
 20
6.398032091520249
 30
0.0
  0
SPLINE
  5
562
330
1F
100
AcDbEntity
  8
Livello 1
100
AcDbSpline
210
0.0
220
0.0
230
1.0
 70
    24
 71
     3
 72
     8
 73
     4
 74
     0
 42
0.000000001
 43
0.0000000001
 40
8.0
 40
8.0
 40
8.0
 40
8.0
 40
9.0
 40
9.0
 40
9.0
 40
9.0
 10
2.547561385465485
 20
6.398032091520249
 30
0.0
 10
2.547561385465485
 20
6.398032091520249
 30
0.0
 10
2.535214217075989
 20
6.361697100074238
 30
0.0
 10
2.535214217075989
 20
6.361697100074238
 30
0.0
  0
SPLINE
  5
563
330
1F
100
AcDbEntity
  8
Livello 1
100
AcDbSpline
210
0.0
220
0.0
230
1.0
 70
     8
 71
     3
 72
     8
 73
     4
 74
     0
 42
0.000000001
 43
0.0000000001
 40
9.0
 40
9.0
 40
9.0
 40
9.0
 40
10.0
 40
10.0
 40
10.0
 40
10.0
 10
2.535214217075989
 20
6.361697100074238
 30
0.0
 10
2.52780591604224
 20
6.33982612670465
 30
0.0
 10
2.507343932896461
 20
6.325717384100244
 30
0.0
 10
2.485472959526859
 20
6.325717384100244
 30
0.0
  0
SPLINE
  5
564
330
1F
100
AcDbEntity
  8
Livello 1
100
AcDbSpline
210
0.0
220
0.0
230
1.0
 70
     8
 71
     3
 72
     8
 73
     4
 74
     0
 42
0.000000001
 43
0.0000000001
 40
0.0
 40
0.0
 40
0.0
 40
0.0
 40
1.0
 40
1.0
 40
1.0
 40
1.0
 10
7.856655389299078
 20
6.558304393048146
 30
0.0
 10
7.834783070189004
 20
6.558304393048146
 30
0.0
 10
7.814321087043225
 20
6.572057860180649
 30
0.0
 10
7.80691278600949
 20
6.59428410902224
 30
0.0
  0
SPLINE
  5
565
330
1F
100
AcDbEntity
  8
Livello 1
100
AcDbSpline
210
0.0
220
0.0
230
1.0
 70
    24
 71
     3
 72
     8
 73
     4
 74
     0
 42
0.000000001
 43
0.0000000001
 40
1.0
 40
1.0
 40
1.0
 40
1.0
 40
2.0
 40
2.0
 40
2.0
 40
2.0
 10
7.80691278600949
 20
6.59428410902224
 30
0.0
 10
7.80691278600949
 20
6.59428410902224
 30
0.0
 10
7.797387635288956
 20
6.623212145174946
 30
0.0
 10
7.797387635288956
 20
6.623212145174946
 30
0.0
  0
SPLINE
  5
566
330
1F
100
AcDbEntity
  8
Livello 1
100
AcDbSpline
210
0.0
220
0.0
230
1.0
 70
    24
 71
     3
 72
     8
 73
     4
 74
     0
 42
0.000000001
 43
0.0000000001
 40
2.0
 40
2.0
 40
2.0
 40
2.0
 40
3.0
 40
3.0
 40
3.0
 40
3.0
 10
7.797387635288956
 20
6.623212145174946
 30
0.0
 10
7.797387635288956
 20
6.623212145174946
 30
0.0
 10
7.768460944876679
 20
6.632739987376339
 30
0.0
 10
7.768460944876679
 20
6.632739987376339
 30
0.0
  0
SPLINE
  5
567
330
1F
100
AcDbEntity
  8
Livello 1
100
AcDbSpline
210
0.0
220
0.0
230
1.0
 70
     8
 71
     3
 72
     8
 73
     4
 74
     0
 42
0.000000001
 43
0.0000000001
 40
3.0
 40
3.0
 40
3.0
 40
3.0
 40
4.0
 40
4.0
 40
4.0
 40
4.0
 10
7.768460944876679
 20
6.632739987376339
 30
0.0
 10
7.740943244688239
 20
6.641912554105843
 30
0.0
 10
7.72612664262084
 20
6.671545758240654
 30
0.0
 10
7.735299209350287
 20
6.699058075467334
 30
0.0
  0
SPLINE
  5
568
330
1F
100
AcDbEntity
  8
Livello 1
100
AcDbSpline
210
0.0
220
0.0
230
1.0
 70
     8
 71
     3
 72
     8
 73
     4
 74
     0
 42
0.000000001
 43
0.0000000001
 40
4.0
 40
4.0
 40
4.0
 40
4.0
 40
5.0
 40
5.0
 40
5.0
 40
5.0
 10
7.735299209350287
 20
6.699058075467334
 30
0.0
 10
7.744471776079777
 20
6.726575775655831
 30
0.0
 10
7.77410498021463
 20
6.741744961714331
 30
0.0
 10
7.801621334662641
 20
6.732222502474641
 30
0.0
  0
SPLINE
  5
569
330
1F
100
AcDbEntity
  8
Livello 1
100
AcDbSpline
210
0.0
220
0.0
230
1.0
 70
    24
 71
     3
 72
     8
 73
     4
 74
     0
 42
0.000000001
 43
0.0000000001
 40
5.0
 40
5.0
 40
5.0
 40
5.0
 40
6.0
 40
6.0
 40
6.0
 40
6.0
 10
7.801621334662641
 20
6.732222502474641
 30
0.0
 10
7.801621334662641
 20
6.732222502474641
 30
0.0
 10
7.855243707594368
 20
6.714582536997838
 30
0.0
 10
7.855243707594368
 20
6.714582536997838
 30
0.0
  0
SPLINE
  5
56A
330
1F
100
AcDbEntity
  8
Livello 1
100
AcDbSpline
210
0.0
220
0.0
230
1.0
 70
     8
 71
     3
 72
     8
 73
     4
 74
     0
 42
0.000000001
 43
0.0000000001
 40
6.0
 40
6.0
 40
6.0
 40
6.0
 40
7.0
 40
7.0
 40
7.0
 40
7.0
 10
7.855243707594368
 20
6.714582536997838
 30
0.0
 10
7.870765477643942
 20
6.709291085650946
 30
0.0
 10
7.883112646033438
 20
6.696942571520949
 30
0.0
 10
7.888404097380302
 20
6.681423492952248
 30
0.0
  0
SPLINE
  5
56B
330
1F
100
AcDbEntity
  8
Livello 1
100
AcDbSpline
210
0.0
220
0.0
230
1.0
 70
    24
 71
     3
 72
     8
 73
     4
 74
     0
 42
0.000000001
 43
0.0000000001
 40
7.0
 40
7.0
 40
7.0
 40
7.0
 40
8.0
 40
8.0
 40
8.0
 40
8.0
 10
7.888404097380302
 20
6.681423492952248
 30
0.0
 10
7.888404097380302
 20
6.681423492952248
 30
0.0
 10
7.906396646848207
 20
6.627448536029447
 30
0.0
 10
7.906396646848207
 20
6.627448536029447
 30
0.0
  0
SPLINE
  5
56C
330
1F
100
AcDbEntity
  8
Livello 1
100
AcDbSpline
210
0.0
220
0.0
230
1.0
 70
     8
 71
     3
 72
     8
 73
     4
 74
     0
 42
0.000000001
 43
0.0000000001
 40
8.0
 40
8.0
 40
8.0
 40
8.0
 40
9.0
 40
9.0
 40
9.0
 40
9.0
 10
7.906396646848207
 20
6.627448536029447
 30
0.0
 10
7.915569213577697
 20
6.599930835841036
 30
0.0
 10
7.900752611510284
 20
6.570297631706154
 30
0.0
 10
7.873234911321844
 20
6.560769789504746
 30
0.0
  0
SPLINE
  5
56D
330
1F
100
AcDbEntity
  8
Livello 1
100
AcDbSpline
210
0.0
220
0.0
230
1.0
 70
     8
 71
     3
 72
     8
 73
     4
 74
     0
 42
0.000000001
 43
0.0000000001
 40
9.0
 40
9.0
 40
9.0
 40
9.0
 40
10.0
 40
10.0
 40
10.0
 40
10.0
 10
7.873234911321844
 20
6.560769789504746
 30
0.0
 10
7.867943459974952
 20
6.559009561030251
 30
0.0
 10
7.862299424637001
 20
6.558304393048146
 30
0.0
 10
7.856655389299078
 20
6.558304393048146
 30
0.0
  0
SPLINE
  5
56E
330
1F
100
AcDbEntity
  8
Livello 1
100
AcDbSpline
210
0.0
220
0.0
230
1.0
 70
     8
 71
     3
 72
     8
 73
     4
 74
     0
 42
0.000000001
 43
0.0000000001
 40
0.0
 40
0.0
 40
0.0
 40
0.0
 40
1.0
 40
1.0
 40
1.0
 40
1.0
 10
8.912906861932
 20
6.558304393048146
 30
0.0
 10
8.891033197081526
 20
6.558304393048146
 30
0.0
 10
8.870219975685074
 20
6.572413135652539
 30
0.0
 10
8.863162912902041
 20
6.59428410902224
 30
0.0
  0
SPLINE
  5
56F
330
1F
100
AcDbEntity
  8
Livello 1
100
AcDbSpline
210
0.0
220
0.0
230
1.0
 70
    24
 71
     3
 72
     8
 73
     4
 74
     0
 42
0.000000001
 43
0.0000000001
 40
1.0
 40
1.0
 40
1.0
 40
1.0
 40
2.0
 40
2.0
 40
2.0
 40
2.0
 10
8.863162912902041
 20
6.59428410902224
 30
0.0
 10
8.863162912902041
 20
6.59428410902224
 30
0.0
 10
8.853637762181477
 20
6.623212145174946
 30
0.0
 10
8.853637762181477
 20
6.623212145174946
 30
0.0
  0
SPLINE
  5
570
330
1F
100
AcDbEntity
  8
Livello 1
100
AcDbSpline
210
0.0
220
0.0
230
1.0
 70
    24
 71
     3
 72
     8
 73
     4
 74
     0
 42
0.000000001
 43
0.0000000001
 40
2.0
 40
2.0
 40
2.0
 40
2.0
 40
3.0
 40
3.0
 40
3.0
 40
3.0
 10
8.853637762181477
 20
6.623212145174946
 30
0.0
 10
8.853637762181477
 20
6.623212145174946
 30
0.0
 10
8.82471241750963
 20
6.632739987376339
 30
0.0
 10
8.82471241750963
 20
6.632739987376339
 30
0.0
  0
SPLINE
  5
571
330
1F
100
AcDbEntity
  8
Livello 1
100
AcDbSpline
210
0.0
220
0.0
230
1.0
 70
     8
 71
     3
 72
     8
 73
     4
 74
     0
 42
0.000000001
 43
0.0000000001
 40
3.0
 40
3.0
 40
3.0
 40
3.0
 40
4.0
 40
4.0
 40
4.0
 40
4.0
 10
8.82471241750963
 20
6.632739987376339
 30
0.0
 10
8.797194717321175
 20
6.64155727863384
 30
0.0
 10
8.782378115253763
 20
6.671190482768736
 30
0.0
 10
8.791550681983238
 20
6.698708182957147
 30
0.0
  0
SPLINE
  5
572
330
1F
100
AcDbEntity
  8
Livello 1
100
AcDbSpline
210
0.0
220
0.0
230
1.0
 70
     8
 71
     3
 72
     8
 73
     4
 74
     0
 42
0.000000001
 43
0.0000000001
 40
4.0
 40
4.0
 40
4.0
 40
4.0
 40
5.0
 40
5.0
 40
5.0
 40
5.0
 10
8.791550681983238
 20
6.698708182957147
 30
0.0
 10
8.800723248712728
 20
6.726575775655831
 30
0.0
 10
8.830356452847567
 20
6.741744961714331
 30
0.0
 10
8.857518877564075
 20
6.732222502474641
 30
0.0
  0
SPLINE
  5
573
330
1F
100
AcDbEntity
  8
Livello 1
100
AcDbSpline
210
0.0
220
0.0
230
1.0
 70
    24
 71
     3
 72
     8
 73
     4
 74
     0
 42
0.000000001
 43
0.0000000001
 40
5.0
 40
5.0
 40
5.0
 40
5.0
 40
6.0
 40
6.0
 40
6.0
 40
6.0
 10
8.857518877564075
 20
6.732222502474641
 30
0.0
 10
8.857518877564075
 20
6.732222502474641
 30
0.0
 10
8.911493834486876
 20
6.714582536997838
 30
0.0
 10
8.911493834486876
 20
6.714582536997838
 30
0.0
  0
SPLINE
  5
574
330
1F
100
AcDbEntity
  8
Livello 1
100
AcDbSpline
210
0.0
220
0.0
230
1.0
 70
     8
 71
     3
 72
     8
 73
     4
 74
     0
 42
0.000000001
 43
0.0000000001
 40
6.0
 40
6.0
 40
6.0
 40
6.0
 40
7.0
 40
7.0
 40
7.0
 40
7.0
 10
8.911493834486876
 20
6.714582536997838
 30
0.0
 10
8.927368188527523
 20
6.709291085650946
 30
0.0
 10
8.939716702657463
 20
6.696942571520949
 30
0.0
 10
8.945008154004341
 20
6.681068217480344
 30
0.0
  0
SPLINE
  5
575
330
1F
100
AcDbEntity
  8
Livello 1
100
AcDbSpline
210
0.0
220
0.0
230
1.0
 70
    24
 71
     3
 72
     8
 73
     4
 74
     0
 42
0.000000001
 43
0.0000000001
 40
7.0
 40
7.0
 40
7.0
 40
7.0
 40
8.0
 40
8.0
 40
8.0
 40
8.0
 10
8.945008154004341
 20
6.681068217480344
 30
0.0
 10
8.945008154004341
 20
6.681068217480344
 30
0.0
 10
8.962648119481158
 20
6.627093260557543
 30
0.0
 10
8.962648119481158
 20
6.627093260557543
 30
0.0
  0
SPLINE
  5
576
330
1F
100
AcDbEntity
  8
Livello 1
100
AcDbSpline
210
0.0
220
0.0
230
1.0
 70
     8
 71
     3
 72
     8
 73
     4
 74
     0
 42
0.000000001
 43
0.0000000001
 40
8.0
 40
8.0
 40
8.0
 40
8.0
 40
9.0
 40
9.0
 40
9.0
 40
9.0
 10
8.962648119481158
 20
6.627093260557543
 30
0.0
 10
8.971820686210648
 20
6.599930835841036
 30
0.0
 10
8.957004084143207
 20
6.569942356234236
 30
0.0
 10
8.929486383954781
 20
6.560769789504746
 30
0.0
  0
SPLINE
  5
577
330
1F
100
AcDbEntity
  8
Livello 1
100
AcDbSpline
210
0.0
220
0.0
230
1.0
 70
     8
 71
     3
 72
     8
 73
     4
 74
     0
 42
0.000000001
 43
0.0000000001
 40
9.0
 40
9.0
 40
9.0
 40
9.0
 40
10.0
 40
10.0
 40
10.0
 40
10.0
 10
8.929486383954781
 20
6.560769789504746
 30
0.0
 10
8.923842348616844
 20
6.559009561030251
 30
0.0
 10
8.918198313278878
 20
6.558304393048146
 30
0.0
 10
8.912906861932
 20
6.558304393048146
 30
0.0
  0
SPLINE
  5
578
330
1F
100
AcDbEntity
  8
Livello 1
100
AcDbSpline
210
0.0
220
0.0
230
1.0
 70
    24
 71
     3
 72
     8
 73
     4
 74
     0
 42
0.000000001
 43
0.0000000001
 40
0.0
 40
0.0
 40
0.0
 40
0.0
 40
1.0
 40
1.0
 40
1.0
 40
1.0
 10
8.966706872599729
 20
5.931663056127945
 30
0.0
 10
8.966706872599729
 20
5.931663056127945
 30
0.0
 10
8.931074357655006
 20
5.931663056127945
 30
0.0
 10
8.931074357655006
 20
5.931663056127945
 30
0.0
  0
SPLINE
  5
579
330
1F
100
AcDbEntity
  8
Livello 1
100
AcDbSpline
210
0.0
220
0.0
230
1.0
 70
     8
 71
     3
 72
    11
 73
     7
 74
     0
 42
0.000000001
 43
0.0000000001
 40
1.0
 40
1.0
 40
1.0
 40
1.0
 40
2.0
 40
2.0
 40
2.0
 40
3.0
 40
3.0
 40
3.0
 40
3.0
 10
8.931074357655006
 20
5.931663056127945
 30
0.0
 10
8.901793737511241
 20
5.931663056127945
 30
0.0
 10
8.878512428177316
 20
5.955294257972155
 30
0.0
 10
8.878512428177316
 20
5.984222294124847
 30
0.0
 10
8.878512428177316
 20
6.013150330277554
 30
0.0
 10
8.901793737511241
 20
6.036786915083339
 30
0.0
 10
8.931074357655006
 20
6.036786915083339
 30
0.0
  0
SPLINE
  5
57A
330
1F
100
AcDbEntity
  8
Livello 1
100
AcDbSpline
210
0.0
220
0.0
230
1.0
 70
    24
 71
     3
 72
     8
 73
     4
 74
     0
 42
0.000000001
 43
0.0000000001
 40
3.0
 40
3.0
 40
3.0
 40
3.0
 40
4.0
 40
4.0
 40
4.0
 40
4.0
 10
8.931074357655006
 20
6.036786915083339
 30
0.0
 10
8.931074357655006
 20
6.036786915083339
 30
0.0
 10
8.966706872599729
 20
6.036786915083339
 30
0.0
 10
8.966706872599729
 20
6.036786915083339
 30
0.0
  0
SPLINE
  5
57B
330
1F
100
AcDbEntity
  8
Livello 1
100
AcDbSpline
210
0.0
220
0.0
230
1.0
 70
     8
 71
     3
 72
    11
 73
     7
 74
     0
 42
0.000000001
 43
0.0000000001
 40
4.0
 40
4.0
 40
4.0
 40
4.0
 40
5.0
 40
5.0
 40
5.0
 40
6.0
 40
6.0
 40
6.0
 40
6.0
 10
8.966706872599729
 20
6.036786915083339
 30
0.0
 10
8.995632217271591
 20
6.036786915083339
 30
0.0
 10
9.019268802077405
 20
6.013150330277554
 30
0.0
 10
9.019268802077405
 20
5.984222294124847
 30
0.0
 10
9.019268802077405
 20
5.955294257972155
 30
0.0
 10
8.995632217271591
 20
5.931663056127945
 30
0.0
 10
8.966706872599729
 20
5.931663056127945
 30
0.0
  0
SPLINE
  5
57C
330
1F
100
AcDbEntity
  8
Livello 1
100
AcDbSpline
210
0.0
220
0.0
230
1.0
 70
    24
 71
     3
 72
     8
 73
     4
 74
     0
 42
0.000000001
 43
0.0000000001
 40
0.0
 40
0.0
 40
0.0
 40
0.0
 40
1.0
 40
1.0
 40
1.0
 40
1.0
 10
1.447106377127866
 20
5.931663056127945
 30
0.0
 10
1.447106377127866
 20
5.931663056127945
 30
0.0
 10
1.429113827659975
 20
5.931663056127945
 30
0.0
 10
1.429113827659975
 20
5.931663056127945
 30
0.0
  0
SPLINE
  5
57D
330
1F
100
AcDbEntity
  8
Livello 1
100
AcDbSpline
210
0.0
220
0.0
230
1.0
 70
     8
 71
     3
 72
    11
 73
     7
 74
     0
 42
0.000000001
 43
0.0000000001
 40
1.0
 40
1.0
 40
1.0
 40
1.0
 40
2.0
 40
2.0
 40
2.0
 40
3.0
 40
3.0
 40
3.0
 40
3.0
 10
1.429113827659975
 20
5.931663056127945
 30
0.0
 10
1.400185791507269
 20
5.931663056127945
 30
0.0
 10
1.376903136432929
 20
5.955294257972155
 30
0.0
 10
1.376903136432929
 20
5.984222294124847
 30
0.0
 10
1.376903136432929
 20
6.013150330277554
 30
0.0
 10
1.400185791507269
 20
6.036786915083339
 30
0.0
 10
1.429113827659975
 20
6.036786915083339
 30
0.0
  0
SPLINE
  5
57E
330
1F
100
AcDbEntity
  8
Livello 1
100
AcDbSpline
210
0.0
220
0.0
230
1.0
 70
    24
 71
     3
 72
     8
 73
     4
 74
     0
 42
0.000000001
 43
0.0000000001
 40
3.0
 40
3.0
 40
3.0
 40
3.0
 40
4.0
 40
4.0
 40
4.0
 40
4.0
 10
1.429113827659975
 20
6.036786915083339
 30
0.0
 10
1.429113827659975
 20
6.036786915083339
 30
0.0
 10
1.447106377127866
 20
6.036786915083339
 30
0.0
 10
1.447106377127866
 20
6.036786915083339
 30
0.0
  0
SPLINE
  5
57F
330
1F
100
AcDbEntity
  8
Livello 1
100
AcDbSpline
210
0.0
220
0.0
230
1.0
 70
     8
 71
     3
 72
    11
 73
     7
 74
     0
 42
0.000000001
 43
0.0000000001
 40
4.0
 40
4.0
 40
4.0
 40
4.0
 40
5.0
 40
5.0
 40
5.0
 40
6.0
 40
6.0
 40
6.0
 40
6.0
 10
1.447106377127866
 20
6.036786915083339
 30
0.0
 10
1.476033067540143
 20
6.036786915083339
 30
0.0
 10
1.499669652345957
 20
6.013150330277554
 30
0.0
 10
1.499669652345957
 20
5.984222294124847
 30
0.0
 10
1.499669652345957
 20
5.955294257972155
 30
0.0
 10
1.476033067540143
 20
5.931663056127945
 30
0.0
 10
1.447106377127866
 20
5.931663056127945
 30
0.0
  0
SPLINE
  5
580
330
1F
100
AcDbEntity
  8
Livello 1
100
AcDbSpline
210
0.0
220
0.0
230
1.0
 70
    24
 71
     3
 72
     8
 73
     4
 74
     0
 42
0.000000001
 43
0.0000000001
 40
0.0
 40
0.0
 40
0.0
 40
0.0
 40
1.0
 40
1.0
 40
1.0
 40
1.0
 10
1.411228937426002
 20
5.931663056127945
 30
0.0
 10
1.411228937426002
 20
5.931663056127945
 30
0.0
 10
1.393236387958125
 20
5.931663056127945
 30
0.0
 10
1.393236387958125
 20
5.931663056127945
 30
0.0
  0
SPLINE
  5
581
330
1F
100
AcDbEntity
  8
Livello 1
100
AcDbSpline
210
0.0
220
0.0
230
1.0
 70
     8
 71
     3
 72
    11
 73
     7
 74
     0
 42
0.000000001
 43
0.0000000001
 40
1.0
 40
1.0
 40
1.0
 40
1.0
 40
2.0
 40
2.0
 40
2.0
 40
3.0
 40
3.0
 40
3.0
 40
3.0
 10
1.393236387958125
 20
5.931663056127945
 30
0.0
 10
1.364308351805391
 20
5.931663056127945
 30
0.0
 10
1.341025696731065
 20
5.955294257972155
 30
0.0
 10
1.341025696731065
 20
5.984222294124847
 30
0.0
 10
1.341025696731065
 20
6.013150330277554
 30
0.0
 10
1.364308351805391
 20
6.036786915083339
 30
0.0
 10
1.393236387958125
 20
6.036786915083339
 30
0.0
  0
SPLINE
  5
582
330
1F
100
AcDbEntity
  8
Livello 1
100
AcDbSpline
210
0.0
220
0.0
230
1.0
 70
    24
 71
     3
 72
     8
 73
     4
 74
     0
 42
0.000000001
 43
0.0000000001
 40
3.0
 40
3.0
 40
3.0
 40
3.0
 40
4.0
 40
4.0
 40
4.0
 40
4.0
 10
1.393236387958125
 20
6.036786915083339
 30
0.0
 10
1.393236387958125
 20
6.036786915083339
 30
0.0
 10
1.411228937426002
 20
6.036786915083339
 30
0.0
 10
1.411228937426002
 20
6.036786915083339
 30
0.0
  0
SPLINE
  5
583
330
1F
100
AcDbEntity
  8
Livello 1
100
AcDbSpline
210
0.0
220
0.0
230
1.0
 70
     8
 71
     3
 72
    11
 73
     7
 74
     0
 42
0.000000001
 43
0.0000000001
 40
4.0
 40
4.0
 40
4.0
 40
4.0
 40
5.0
 40
5.0
 40
5.0
 40
6.0
 40
6.0
 40
6.0
 40
6.0
 10
1.411228937426002
 20
6.036786915083339
 30
0.0
 10
1.440155627838279
 20
6.036786915083339
 30
0.0
 10
1.463792212644136
 20
6.013150330277554
 30
0.0
 10
1.463792212644136
 20
5.984222294124847
 30
0.0
 10
1.463792212644136
 20
5.955294257972155
 30
0.0
 10
1.440155627838279
 20
5.931663056127945
 30
0.0
 10
1.411228937426002
 20
5.931663056127945
 30
0.0
  0
SPLINE
  5
584
330
1F
100
AcDbEntity
  8
Livello 1
100
AcDbSpline
210
0.0
220
0.0
230
1.0
 70
     8
 71
     3
 72
     8
 73
     4
 74
     0
 42
0.000000001
 43
0.0000000001
 40
0.0
 40
0.0
 40
0.0
 40
0.0
 40
1.0
 40
1.0
 40
1.0
 40
1.0
 10
9.091976465701264
 20
4.077534197813335
 30
0.0
 10
9.078570199598132
 20
4.077534197813335
 30
0.0
 10
9.065163933494957
 20
4.082470373688252
 30
0.0
 10
9.054933614792275
 20
4.092703383871736
 30
0.0
  0
SPLINE
  5
585
330
1F
100
AcDbEntity
  8
Livello 1
100
AcDbSpline
210
0.0
220
0.0
230
1.0
 70
    24
 71
     3
 72
     8
 73
     4
 74
     0
 42
0.000000001
 43
0.0000000001
 40
1.0
 40
1.0
 40
1.0
 40
1.0
 40
2.0
 40
2.0
 40
2.0
 40
2.0
 10
9.054933614792275
 20
4.092703383871736
 30
0.0
 10
9.054933614792275
 20
4.092703383871736
 30
0.0
 10
9.037293649315486
 20
4.110337966386936
 30
0.0
 10
9.037293649315486
 20
4.110337966386936
 30
0.0
  0
SPLINE
  5
586
330
1F
100
AcDbEntity
  8
Livello 1
100
AcDbSpline
210
0.0
220
0.0
230
1.0
 70
     8
 71
     3
 72
     8
 73
     4
 74
     0
 42
0.000000001
 43
0.0000000001
 40
2.0
 40
2.0
 40
2.0
 40
2.0
 40
3.0
 40
3.0
 40
3.0
 40
3.0
 10
9.037293649315486
 20
4.110337966386936
 30
0.0
 10
9.02706333061279
 20
4.120215701098544
 30
0.0
 10
9.021419295274839
 20
4.133624658682549
 30
0.0
 10
9.021419295274839
 20
4.147733401286956
 30
0.0
  0
SPLINE
  5
587
330
1F
100
AcDbEntity
  8
Livello 1
100
AcDbSpline
210
0.0
220
0.0
230
1.0
 70
    24
 71
     3
 72
     8
 73
     4
 74
     0
 42
0.000000001
 43
0.0000000001
 40
3.0
 40
3.0
 40
3.0
 40
3.0
 40
4.0
 40
4.0
 40
4.0
 40
4.0
 10
9.021419295274839
 20
4.147733401286956
 30
0.0
 10
9.021419295274839
 20
4.147733401286956
 30
0.0
 10
9.021419295274839
 20
4.219703599158549
 30
0.0
 10
9.021419295274839
 20
4.219703599158549
 30
0.0
  0
SPLINE
  5
588
330
1F
100
AcDbEntity
  8
Livello 1
100
AcDbSpline
210
0.0
220
0.0
230
1.0
 70
     8
 71
     3
 72
    11
 73
     7
 74
     0
 42
0.000000001
 43
0.0000000001
 40
4.0
 40
4.0
 40
4.0
 40
4.0
 40
5.0
 40
5.0
 40
5.0
 40
6.0
 40
6.0
 40
6.0
 40
6.0
 10
9.021419295274839
 20
4.219703599158549
 30
0.0
 10
9.021419295274839
 20
4.248626252349538
 30
0.0
 10
9.045055880080667
 20
4.271912944645151
 30
0.0
 10
9.073983916233359
 20
4.271912944645151
 30
0.0
 10
9.102911952386079
 20
4.271912944645151
 30
0.0
 10
9.126548537191922
 20
4.248626252349538
 30
0.0
 10
9.126548537191922
 20
4.219703599158549
 30
0.0
  0
SPLINE
  5
589
330
1F
100
AcDbEntity
  8
Livello 1
100
AcDbSpline
210
0.0
220
0.0
230
1.0
 70
    24
 71
     3
 72
     8
 73
     4
 74
     0
 42
0.000000001
 43
0.0000000001
 40
6.0
 40
6.0
 40
6.0
 40
6.0
 40
7.0
 40
7.0
 40
7.0
 40
7.0
 10
9.126548537191922
 20
4.219703599158549
 30
0.0
 10
9.126548537191922
 20
4.219703599158549
 30
0.0
 10
9.129016625129381
 20
4.167138978199943
 30
0.0
 10
9.129016625129381
 20
4.167138978199943
 30
0.0
  0
SPLINE
  5
58A
330
1F
100
AcDbEntity
  8
Livello 1
100
AcDbSpline
210
0.0
220
0.0
230
1.0
 70
     8
 71
     3
 72
     8
 73
     4
 74
     0
 42
0.000000001
 43
0.0000000001
 40
7.0
 40
7.0
 40
7.0
 40
7.0
 40
8.0
 40
8.0
 40
8.0
 40
8.0
 10
9.129016625129381
 20
4.167138978199943
 30
0.0
 10
9.149477262534759
 20
4.147028233304837
 30
0.0
 10
9.149829846525847
 20
4.113869189259247
 30
0.0
 10
9.129369209120497
 20
4.093053276382036
 30
0.0
  0
SPLINE
  5
58B
330
1F
100
AcDbEntity
  8
Livello 1
100
AcDbSpline
210
0.0
220
0.0
230
1.0
 70
     8
 71
     3
 72
     8
 73
     4
 74
     0
 42
0.000000001
 43
0.0000000001
 40
8.0
 40
8.0
 40
8.0
 40
8.0
 40
9.0
 40
9.0
 40
9.0
 40
9.0
 10
9.129369209120497
 20
4.093053276382036
 30
0.0
 10
9.119138890417772
 20
4.082825649160142
 30
0.0
 10
9.105380040323581
 20
4.077534197813335
 30
0.0
 10
9.091976465701264
 20
4.077534197813335
 30
0.0
  0
SPLINE
  5
58C
330
1F
100
AcDbEntity
  8
Livello 1
100
AcDbSpline
210
0.0
220
0.0
230
1.0
 70
     8
 71
     3
 72
     8
 73
     4
 74
     0
 42
0.000000001
 43
0.0000000001
 40
0.0
 40
0.0
 40
0.0
 40
0.0
 40
1.0
 40
1.0
 40
1.0
 40
1.0
 10
1.458959658781807
 20
4.065433299921338
 30
0.0
 10
1.430031622629087
 20
4.065433299921338
 30
0.0
 10
1.406395037823273
 20
4.089064501765449
 30
0.0
 10
1.406395037823273
 20
4.117992537918254
 30
0.0
  0
SPLINE
  5
58D
330
1F
100
AcDbEntity
  8
Livello 1
100
AcDbSpline
210
0.0
220
0.0
230
1.0
 70
    24
 71
     3
 72
     8
 73
     4
 74
     0
 42
0.000000001
 43
0.0000000001
 40
1.0
 40
1.0
 40
1.0
 40
1.0
 40
2.0
 40
2.0
 40
2.0
 40
2.0
 10
1.406395037823273
 20
4.117992537918254
 30
0.0
 10
1.406395037823273
 20
4.117992537918254
 30
0.0
 10
1.406395037823273
 20
5.987715836265351
 30
0.0
 10
1.406395037823273
 20
5.987715836265351
 30
0.0
  0
SPLINE
  5
58E
330
1F
100
AcDbEntity
  8
Livello 1
100
AcDbSpline
210
0.0
220
0.0
230
1.0
 70
     8
 71
     3
 72
    11
 73
     7
 74
     0
 42
0.000000001
 43
0.0000000001
 40
2.0
 40
2.0
 40
2.0
 40
2.0
 40
3.0
 40
3.0
 40
3.0
 40
4.0
 40
4.0
 40
4.0
 40
4.0
 10
1.406395037823273
 20
5.987715836265351
 30
0.0
 10
1.406395037823273
 20
6.016999147889947
 30
0.0
 10
1.430031622629087
 20
6.040280457223843
 30
0.0
 10
1.458959658781807
 20
6.040280457223843
 30
0.0
 10
1.487886349194084
 20
6.040280457223843
 30
0.0
 10
1.511522933999927
 20
6.016999147889947
 30
0.0
 10
1.511522933999927
 20
5.987715836265351
 30
0.0
  0
SPLINE
  5
58F
330
1F
100
AcDbEntity
  8
Livello 1
100
AcDbSpline
210
0.0
220
0.0
230
1.0
 70
    24
 71
     3
 72
     8
 73
     4
 74
     0
 42
0.000000001
 43
0.0000000001
 40
4.0
 40
4.0
 40
4.0
 40
4.0
 40
5.0
 40
5.0
 40
5.0
 40
5.0
 10
1.511522933999927
 20
5.987715836265351
 30
0.0
 10
1.511522933999927
 20
5.987715836265351
 30
0.0
 10
1.511522933999927
 20
4.117992537918254
 30
0.0
 10
1.511522933999927
 20
4.117992537918254
 30
0.0
  0
SPLINE
  5
590
330
1F
100
AcDbEntity
  8
Livello 1
100
AcDbSpline
210
0.0
220
0.0
230
1.0
 70
     8
 71
     3
 72
     8
 73
     4
 74
     0
 42
0.000000001
 43
0.0000000001
 40
5.0
 40
5.0
 40
5.0
 40
5.0
 40
6.0
 40
6.0
 40
6.0
 40
6.0
 10
1.511522933999927
 20
4.117992537918254
 30
0.0
 10
1.511522933999927
 20
4.089064501765449
 30
0.0
 10
1.487886349194084
 20
4.065433299921338
 30
0.0
 10
1.458959658781807
 20
4.065433299921338
 30
0.0
  0
SPLINE
  5
591
330
1F
100
AcDbEntity
  8
Livello 1
100
AcDbSpline
210
0.0
220
0.0
230
1.0
 70
     8
 71
     3
 72
     8
 73
     4
 74
     0
 42
0.000000001
 43
0.0000000001
 40
0.0
 40
0.0
 40
0.0
 40
0.0
 40
1.0
 40
1.0
 40
1.0
 40
1.0
 10
9.218766745481843
 20
4.827789867113537
 30
0.0
 10
9.211357098707722
 20
4.827789867113537
 30
0.0
 10
9.203947451933572
 20
4.829200203077846
 30
0.0
 10
9.197245664622428
 20
4.832370767516636
 30
0.0
  0
SPLINE
  5
592
330
1F
100
AcDbEntity
  8
Livello 1
100
AcDbSpline
210
0.0
220
0.0
230
1.0
 70
     8
 71
     3
 72
     8
 73
     4
 74
     0
 42
0.000000001
 43
0.0000000001
 40
1.0
 40
1.0
 40
1.0
 40
1.0
 40
2.0
 40
2.0
 40
2.0
 40
2.0
 10
9.197245664622428
 20
4.832370767516636
 30
0.0
 10
9.170788407888039
 20
4.844369389136346
 30
0.0
 10
9.159145061740233
 20
4.875412929235451
 30
0.0
 10
9.171140991879127
 20
4.901870185969841
 30
0.0
  0
SPLINE
  5
593
330
1F
100
AcDbEntity
  8
Livello 1
100
AcDbSpline
210
0.0
220
0.0
230
1.0
 70
    24
 71
     3
 72
     8
 73
     4
 74
     0
 42
0.000000001
 43
0.0000000001
 40
2.0
 40
2.0
 40
2.0
 40
2.0
 40
3.0
 40
3.0
 40
3.0
 40
3.0
 10
9.171140991879127
 20
4.901870185969841
 30
0.0
 10
9.171140991879127
 20
4.901870185969841
 30
0.0
 10
9.179608390626441
 20
4.939615513380161
 30
0.0
 10
9.179608390626441
 20
4.939615513380161
 30
0.0
  0
SPLINE
  5
594
330
1F
100
AcDbEntity
  8
Livello 1
100
AcDbSpline
210
0.0
220
0.0
230
1.0
 70
    24
 71
     3
 72
     8
 73
     4
 74
     0
 42
0.000000001
 43
0.0000000001
 40
3.0
 40
3.0
 40
3.0
 40
3.0
 40
4.0
 40
4.0
 40
4.0
 40
4.0
 10
9.179608390626441
 20
4.939615513380161
 30
0.0
 10
9.179608390626441
 20
4.939615513380161
 30
0.0
 10
9.175022107261725
 20
4.953729638946242
 30
0.0
 10
9.175022107261725
 20
4.953729638946242
 30
0.0
  0
SPLINE
  5
595
330
1F
100
AcDbEntity
  8
Livello 1
100
AcDbSpline
210
0.0
220
0.0
230
1.0
 70
     8
 71
     3
 72
     8
 73
     4
 74
     0
 42
0.000000001
 43
0.0000000001
 40
4.0
 40
4.0
 40
4.0
 40
4.0
 40
5.0
 40
5.0
 40
5.0
 40
5.0
 10
9.175022107261725
 20
4.953729638946242
 30
0.0
 10
9.172903911834481
 20
4.95761075432884
 30
0.0
 10
9.171140991879127
 20
4.962197037693542
 30
0.0
 10
9.17008323990592
 20
4.96642804558644
 30
0.0
  0
SPLINE
  5
596
330
1F
100
AcDbEntity
  8
Livello 1
100
AcDbSpline
210
0.0
220
0.0
230
1.0
 70
    24
 71
     3
 72
     8
 73
     4
 74
     0
 42
0.000000001
 43
0.0000000001
 40
5.0
 40
5.0
 40
5.0
 40
5.0
 40
6.0
 40
6.0
 40
6.0
 40
6.0
 10
9.17008323990592
 20
4.96642804558644
 30
0.0
 10
9.17008323990592
 20
4.96642804558644
 30
0.0
 10
9.165849540532235
 20
4.977716116262328
 30
0.0
 10
9.165849540532235
 20
4.977716116262328
 30
0.0
  0
SPLINE
  5
597
330
1F
100
AcDbEntity
  8
Livello 1
100
AcDbSpline
210
0.0
220
0.0
230
1.0
 70
     8
 71
     3
 72
     8
 73
     4
 74
     0
 42
0.000000001
 43
0.0000000001
 40
6.0
 40
6.0
 40
6.0
 40
6.0
 40
7.0
 40
7.0
 40
7.0
 40
7.0
 10
9.165849540532235
 20
4.977716116262328
 30
0.0
 10
9.152443274429089
 20
5.003118312504341
 30
0.0
 10
9.162321009140711
 20
5.034867020585551
 30
0.0
 10
9.188073097892967
 20
5.048275978169542
 30
0.0
  0
SPLINE
  5
598
330
1F
100
AcDbEntity
  8
Livello 1
100
AcDbSpline
210
0.0
220
0.0
230
1.0
 70
     8
 71
     3
 72
     8
 73
     4
 74
     0
 42
0.000000001
 43
0.0000000001
 40
7.0
 40
7.0
 40
7.0
 40
7.0
 40
8.0
 40
8.0
 40
8.0
 40
8.0
 10
9.188073097892967
 20
5.048275978169542
 30
0.0
 10
9.213472602654121
 20
5.061679552791829
 30
0.0
 10
9.245576586207292
 20
5.051801818080249
 30
0.0
 10
9.258982852310438
 20
5.02604972932805
 30
0.0
  0
SPLINE
  5
599
330
1F
100
AcDbEntity
  8
Livello 1
100
AcDbSpline
210
0.0
220
0.0
230
1.0
 70
    24
 71
     3
 72
     8
 73
     4
 74
     0
 42
0.000000001
 43
0.0000000001
 40
8.0
 40
8.0
 40
8.0
 40
8.0
 40
9.0
 40
9.0
 40
9.0
 40
9.0
 10
9.258982852310438
 20
5.02604972932805
 30
0.0
 10
9.258982852310438
 20
5.02604972932805
 30
0.0
 10
9.264979471639449
 20
5.014056490669943
 30
0.0
 10
9.264979471639449
 20
5.014056490669943
 30
0.0
  0
SPLINE
  5
59A
330
1F
100
AcDbEntity
  8
Livello 1
100
AcDbSpline
210
0.0
220
0.0
230
1.0
 70
     8
 71
     3
 72
     8
 73
     4
 74
     0
 42
0.000000001
 43
0.0000000001
 40
9.0
 40
9.0
 40
9.0
 40
9.0
 40
10.0
 40
10.0
 40
10.0
 40
10.0
 10
9.264979471639449
 20
5.014056490669943
 30
0.0
 10
9.267094975585848
 20
5.010175375287332
 30
0.0
 10
9.268860587022075
 20
5.005938984432845
 30
0.0
 10
9.269565755004208
 20
5.001707976540046
 30
0.0
  0
SPLINE
  5
59B
330
1F
100
AcDbEntity
  8
Livello 1
100
AcDbSpline
210
0.0
220
0.0
230
1.0
 70
    24
 71
     3
 72
     8
 73
     4
 74
     0
 42
0.000000001
 43
0.0000000001
 40
10.0
 40
10.0
 40
10.0
 40
10.0
 40
11.0
 40
11.0
 40
11.0
 40
11.0
 10
9.269565755004208
 20
5.001707976540046
 30
0.0
 10
9.269565755004208
 20
5.001707976540046
 30
0.0
 10
9.273799454377851
 20
4.991125073846234
 30
0.0
 10
9.273799454377851
 20
4.991125073846234
 30
0.0
  0
SPLINE
  5
59C
330
1F
100
AcDbEntity
  8
Livello 1
100
AcDbSpline
210
0.0
220
0.0
230
1.0
 70
     8
 71
     3
 72
     8
 73
     4
 74
     0
 42
0.000000001
 43
0.0000000001
 40
11.0
 40
11.0
 40
11.0
 40
11.0
 40
12.0
 40
12.0
 40
12.0
 40
12.0
 10
9.273799454377851
 20
4.991125073846234
 30
0.0
 10
9.276267542315366
 20
4.986538790481546
 30
0.0
 10
9.278033153751536
 20
4.981952507116844
 30
0.0
 10
9.278738321733683
 20
4.977010948280153
 30
0.0
  0
SPLINE
  5
59D
330
1F
100
AcDbEntity
  8
Livello 1
100
AcDbSpline
210
0.0
220
0.0
230
1.0
 70
    24
 71
     3
 72
     8
 73
     4
 74
     0
 42
0.000000001
 43
0.0000000001
 40
12.0
 40
12.0
 40
12.0
 40
12.0
 40
13.0
 40
13.0
 40
13.0
 40
13.0
 10
9.278738321733683
 20
4.977010948280153
 30
0.0
 10
9.278738321733683
 20
4.977010948280153
 30
0.0
 10
9.283677189089488
 20
4.954784699438661
 30
0.0
 10
9.283677189089488
 20
4.954784699438661
 30
0.0
  0
SPLINE
  5
59E
330
1F
100
AcDbEntity
  8
Livello 1
100
AcDbSpline
210
0.0
220
0.0
230
1.0
 70
     8
 71
     3
 72
     8
 73
     4
 74
     0
 42
0.000000001
 43
0.0000000001
 40
13.0
 40
13.0
 40
13.0
 40
13.0
 40
14.0
 40
14.0
 40
14.0
 40
14.0
 10
9.283677189089488
 20
4.954784699438661
 30
0.0
 10
9.285087525053754
 20
4.949493248091727
 30
0.0
 10
9.285440109044856
 20
4.943496628762744
 30
0.0
 10
9.285087525053754
 20
4.938205177415838
 30
0.0
  0
SPLINE
  5
59F
330
1F
100
AcDbEntity
  8
Livello 1
100
AcDbSpline
210
0.0
220
0.0
230
1.0
 70
    24
 71
     3
 72
     8
 73
     4
 74
     0
 42
0.000000001
 43
0.0000000001
 40
14.0
 40
14.0
 40
14.0
 40
14.0
 40
15.0
 40
15.0
 40
15.0
 40
15.0
 10
9.285087525053754
 20
4.938205177415838
 30
0.0
 10
9.285087525053754
 20
4.938205177415838
 30
0.0
 10
9.28120640967117
 20
4.900459850005546
 30
0.0
 10
9.28120640967117
 20
4.900459850005546
 30
0.0
  0
SPLINE
  5
5A0
330
1F
100
AcDbEntity
  8
Livello 1
100
AcDbSpline
210
0.0
220
0.0
230
1.0
 70
     8
 71
     3
 72
     8
 73
     4
 74
     0
 42
0.000000001
 43
0.0000000001
 40
15.0
 40
15.0
 40
15.0
 40
15.0
 40
16.0
 40
16.0
 40
16.0
 40
16.0
 10
9.28120640967117
 20
4.900459850005546
 30
0.0
 10
9.280853825680082
 20
4.896223459151045
 30
0.0
 10
9.27979607370689
 20
4.891992451258246
 30
0.0
 10
9.278385737742581
 20
4.887761443365448
 30
0.0
  0
SPLINE
  5
5A1
330
1F
100
AcDbEntity
  8
Livello 1
100
AcDbSpline
210
0.0
220
0.0
230
1.0
 70
    24
 71
     3
 72
     8
 73
     4
 74
     0
 42
0.000000001
 43
0.0000000001
 40
16.0
 40
16.0
 40
16.0
 40
16.0
 40
17.0
 40
17.0
 40
17.0
 40
17.0
 10
9.278385737742581
 20
4.887761443365448
 30
0.0
 10
9.278385737742581
 20
4.887761443365448
 30
0.0
 10
9.266389807603715
 20
4.858478131740753
 30
0.0
 10
9.266389807603715
 20
4.858478131740753
 30
0.0
  0
SPLINE
  5
5A2
330
1F
100
AcDbEntity
  8
Livello 1
100
AcDbSpline
210
0.0
220
0.0
230
1.0
 70
     8
 71
     3
 72
     8
 73
     4
 74
     0
 42
0.000000001
 43
0.0000000001
 40
17.0
 40
17.0
 40
17.0
 40
17.0
 40
18.0
 40
18.0
 40
18.0
 40
18.0
 10
9.266389807603715
 20
4.858478131740753
 30
0.0
 10
9.257922408856387
 20
4.839077937789454
 30
0.0
 10
9.238874798896148
 20
4.827789867113537
 30
0.0
 10
9.218766745481843
 20
4.827789867113537
 30
0.0
  0
SPLINE
  5
5A3
330
1F
100
AcDbEntity
  8
Livello 1
100
AcDbSpline
210
0.0
220
0.0
230
1.0
 70
     8
 71
     3
 72
     8
 73
     4
 74
     0
 42
0.000000001
 43
0.0000000001
 40
0.0
 40
0.0
 40
0.0
 40
0.0
 40
1.0
 40
1.0
 40
1.0
 40
1.0
 10
9.238026982429076
 20
4.757762918414144
 30
0.0
 10
9.228501831708513
 20
4.757762918414144
 30
0.0
 10
9.218624096996933
 20
4.760228314870843
 30
0.0
 10
9.209804114258517
 20
4.765875041689653
 30
0.0
  0
SPLINE
  5
5A4
330
1F
100
AcDbEntity
  8
Livello 1
100
AcDbSpline
210
0.0
220
0.0
230
1.0
 70
     8
 71
     3
 72
     8
 73
     4
 74
     0
 42
0.000000001
 43
0.0000000001
 40
1.0
 40
1.0
 40
1.0
 40
1.0
 40
2.0
 40
2.0
 40
2.0
 40
2.0
 10
9.209804114258517
 20
4.765875041689653
 30
0.0
 10
9.185462361470541
 20
4.78139412025834
 30
0.0
 10
9.178052714696406
 20
4.813853379283457
 30
0.0
 10
9.193574484745951
 20
4.838545024581648
 30
0.0
  0
SPLINE
  5
5A5
330
1F
100
AcDbEntity
  8
Livello 1
100
AcDbSpline
210
0.0
220
0.0
230
1.0
 70
    24
 71
     3
 72
     8
 73
     4
 74
     0
 42
0.000000001
 43
0.0000000001
 40
2.0
 40
2.0
 40
2.0
 40
2.0
 40
3.0
 40
3.0
 40
3.0
 40
3.0
 10
9.193574484745951
 20
4.838545024581648
 30
0.0
 10
9.193574484745951
 20
4.838545024581648
 30
0.0
 10
9.228146556236609
 20
4.897106264869151
 30
0.0
 10
9.228146556236609
 20
4.897106264869151
 30
0.0
  0
SPLINE
  5
5A6
330
1F
100
AcDbEntity
  8
Livello 1
100
AcDbSpline
210
0.0
220
0.0
230
1.0
 70
    24
 71
     3
 72
     8
 73
     4
 74
     0
 42
0.000000001
 43
0.0000000001
 40
3.0
 40
3.0
 40
3.0
 40
3.0
 40
4.0
 40
4.0
 40
4.0
 40
4.0
 10
9.228146556236609
 20
4.897106264869151
 30
0.0
 10
9.228146556236609
 20
4.897106264869151
 30
0.0
 10
9.229559583681734
 20
4.909454778999034
 30
0.0
 10
9.229559583681734
 20
4.909454778999034
 30
0.0
  0
SPLINE
  5
5A7
330
1F
100
AcDbEntity
  8
Livello 1
100
AcDbSpline
210
0.0
220
0.0
230
1.0
 70
     8
 71
     3
 72
     8
 73
     4
 74
     0
 42
0.000000001
 43
0.0000000001
 40
4.0
 40
4.0
 40
4.0
 40
4.0
 40
5.0
 40
5.0
 40
5.0
 40
5.0
 10
9.229559583681734
 20
4.909454778999034
 30
0.0
 10
9.229912167672793
 20
4.913685786891946
 30
0.0
 10
9.230969919646014
 20
4.917922177746433
 30
0.0
 10
9.23238025561028
 20
4.92180329312903
 30
0.0
  0
SPLINE
  5
5A8
330
1F
100
AcDbEntity
  8
Livello 1
100
AcDbSpline
210
0.0
220
0.0
230
1.0
 70
    24
 71
     3
 72
     8
 73
     4
 74
     0
 42
0.000000001
 43
0.0000000001
 40
5.0
 40
5.0
 40
5.0
 40
5.0
 40
6.0
 40
6.0
 40
6.0
 40
6.0
 10
9.23238025561028
 20
4.92180329312903
 30
0.0
 10
9.23238025561028
 20
4.92180329312903
 30
0.0
 10
9.233440699064317
 20
4.925329133039753
 30
0.0
 10
9.233440699064317
 20
4.925329133039753
 30
0.0
  0
SPLINE
  5
5A9
330
1F
100
AcDbEntity
  8
Livello 1
100
AcDbSpline
210
0.0
220
0.0
230
1.0
 70
    24
 71
     3
 72
     8
 73
     4
 74
     0
 42
0.000000001
 43
0.0000000001
 40
6.0
 40
6.0
 40
6.0
 40
6.0
 40
7.0
 40
7.0
 40
7.0
 40
7.0
 10
9.233440699064317
 20
4.925329133039753
 30
0.0
 10
9.233440699064317
 20
4.925329133039753
 30
0.0
 10
9.218268821525001
 20
4.992002496602665
 30
0.0
 10
9.218268821525001
 20
4.992002496602665
 30
0.0
  0
SPLINE
  5
5AA
330
1F
100
AcDbEntity
  8
Livello 1
100
AcDbSpline
210
0.0
220
0.0
230
1.0
 70
    24
 71
     3
 72
     8
 73
     4
 74
     0
 42
0.000000001
 43
0.0000000001
 40
7.0
 40
7.0
 40
7.0
 40
7.0
 40
8.0
 40
8.0
 40
8.0
 40
8.0
 10
9.218268821525001
 20
4.992002496602665
 30
0.0
 10
9.218268821525001
 20
4.992002496602665
 30
0.0
 10
9.197455600128563
 20
5.021635700737547
 30
0.0
 10
9.197455600128563
 20
5.021635700737547
 30
0.0
  0
SPLINE
  5
5AB
330
1F
100
AcDbEntity
  8
Livello 1
100
AcDbSpline
210
0.0
220
0.0
230
1.0
 70
    24
 71
     3
 72
     8
 73
     4
 74
     0
 42
0.000000001
 43
0.0000000001
 40
8.0
 40
8.0
 40
8.0
 40
8.0
 40
9.0
 40
9.0
 40
9.0
 40
9.0
 10
9.197455600128563
 20
5.021635700737547
 30
0.0
 10
9.197455600128563
 20
5.021635700737547
 30
0.0
 10
9.183696750034343
 20
5.034339490339448
 30
0.0
 10
9.183696750034343
 20
5.034339490339448
 30
0.0
  0
SPLINE
  5
5AC
330
1F
100
AcDbEntity
  8
Livello 1
100
AcDbSpline
210
0.0
220
0.0
230
1.0
 70
     8
 71
     3
 72
     8
 73
     4
 74
     0
 42
0.000000001
 43
0.0000000001
 40
9.0
 40
9.0
 40
9.0
 40
9.0
 40
10.0
 40
10.0
 40
10.0
 40
10.0
 10
9.183696750034343
 20
5.034339490339448
 30
0.0
 10
9.162530944646846
 20
5.054094959762664
 30
0.0
 10
9.161473192673639
 20
5.087254003808141
 30
0.0
 10
9.180876078105811
 20
5.108419809195638
 30
0.0
  0
SPLINE
  5
5AD
330
1F
100
AcDbEntity
  8
Livello 1
100
AcDbSpline
210
0.0
220
0.0
230
1.0
 70
     8
 71
     3
 72
     8
 73
     4
 74
     0
 42
0.000000001
 43
0.0000000001
 40
10.0
 40
10.0
 40
10.0
 40
10.0
 40
11.0
 40
11.0
 40
11.0
 40
11.0
 10
9.180876078105811
 20
5.108419809195638
 30
0.0
 10
9.200631547529042
 20
5.129940890055038
 30
0.0
 10
9.233793283055391
 20
5.131001333509146
 30
0.0
 10
9.255311672433975
 20
5.111245864085958
 30
0.0
  0
SPLINE
  5
5AE
330
1F
100
AcDbEntity
  8
Livello 1
100
AcDbSpline
210
0.0
220
0.0
230
1.0
 70
    24
 71
     3
 72
     8
 73
     4
 74
     0
 42
0.000000001
 43
0.0000000001
 40
11.0
 40
11.0
 40
11.0
 40
11.0
 40
12.0
 40
12.0
 40
12.0
 40
12.0
 10
9.255311672433975
 20
5.111245864085958
 30
0.0
 10
9.255311672433975
 20
5.111245864085958
 30
0.0
 10
9.282829372622387
 20
5.085843667843846
 30
0.0
 10
9.282829372622387
 20
5.085843667843846
 30
0.0
  0
SPLINE
  5
5AF
330
1F
100
AcDbEntity
  8
Livello 1
100
AcDbSpline
210
0.0
220
0.0
230
1.0
 70
     8
 71
     3
 72
     8
 73
     4
 74
     0
 42
0.000000001
 43
0.0000000001
 40
12.0
 40
12.0
 40
12.0
 40
12.0
 40
13.0
 40
13.0
 40
13.0
 40
13.0
 10
9.282829372622387
 20
5.085843667843846
 30
0.0
 10
9.286355212533081
 20
5.082667720443453
 30
0.0
 10
9.289531159933559
 20
5.078786605060841
 30
0.0
 10
9.292001939351877
 20
5.074555597168043
 30
0.0
  0
SPLINE
  5
5B0
330
1F
100
AcDbEntity
  8
Livello 1
100
AcDbSpline
210
0.0
220
0.0
230
1.0
 70
    24
 71
     3
 72
     8
 73
     4
 74
     0
 42
0.000000001
 43
0.0000000001
 40
13.0
 40
13.0
 40
13.0
 40
13.0
 40
14.0
 40
14.0
 40
14.0
 40
14.0
 10
9.292001939351877
 20
5.074555597168043
 30
0.0
 10
9.292001939351877
 20
5.074555597168043
 30
0.0
 10
9.3279843468068
 20
5.005761346696942
 30
0.0
 10
9.3279843468068
 20
5.005761346696942
 30
0.0
  0
SPLINE
  5
5B1
330
1F
100
AcDbEntity
  8
Livello 1
100
AcDbSpline
210
0.0
220
0.0
230
1.0
 70
     8
 71
     3
 72
     8
 73
     4
 74
     0
 42
0.000000001
 43
0.0000000001
 40
14.0
 40
14.0
 40
14.0
 40
14.0
 40
15.0
 40
15.0
 40
15.0
 40
15.0
 10
9.3279843468068
 20
5.005761346696942
 30
0.0
 10
9.329394682771081
 20
5.002585399296449
 30
0.0
 10
9.330099850753242
 20
4.998709666875541
 30
0.0
 10
9.330805018735361
 20
4.995178444003158
 30
0.0
  0
SPLINE
  5
5B2
330
1F
100
AcDbEntity
  8
Livello 1
100
AcDbSpline
210
0.0
220
0.0
230
1.0
 70
    24
 71
     3
 72
     8
 73
     4
 74
     0
 42
0.000000001
 43
0.0000000001
 40
15.0
 40
15.0
 40
15.0
 40
15.0
 40
16.0
 40
16.0
 40
16.0
 40
16.0
 10
9.330805018735361
 20
4.995178444003158
 30
0.0
 10
9.330805018735361
 20
4.995178444003158
 30
0.0
 10
9.339272417482717
 20
4.92356352160354
 30
0.0
 10
9.339272417482717
 20
4.92356352160354
 30
0.0
  0
SPLINE
  5
5B3
330
1F
100
AcDbEntity
  8
Livello 1
100
AcDbSpline
210
0.0
220
0.0
230
1.0
 70
     8
 71
     3
 72
     8
 73
     4
 74
     0
 42
0.000000001
 43
0.0000000001
 40
16.0
 40
16.0
 40
16.0
 40
16.0
 40
17.0
 40
17.0
 40
17.0
 40
17.0
 10
9.339272417482717
 20
4.92356352160354
 30
0.0
 10
9.339977585464851
 20
4.916156566310249
 30
0.0
 10
9.338919833491644
 20
4.90839433554504
 30
0.0
 10
9.336451745554157
 20
4.900987380251748
 30
0.0
  0
SPLINE
  5
5B4
330
1F
100
AcDbEntity
  8
Livello 1
100
AcDbSpline
210
0.0
220
0.0
230
1.0
 70
    24
 71
     3
 72
     8
 73
     4
 74
     0
 42
0.000000001
 43
0.0000000001
 40
17.0
 40
17.0
 40
17.0
 40
17.0
 40
18.0
 40
18.0
 40
18.0
 40
18.0
 10
9.336451745554157
 20
4.900987380251748
 30
0.0
 10
9.336451745554157
 20
4.900987380251748
 30
0.0
 10
9.331865462189398
 20
4.879821574864251
 30
0.0
 10
9.331865462189398
 20
4.879821574864251
 30
0.0
  0
SPLINE
  5
5B5
330
1F
100
AcDbEntity
  8
Livello 1
100
AcDbSpline
210
0.0
220
0.0
230
1.0
 70
     8
 71
     3
 72
     8
 73
     4
 74
     0
 42
0.000000001
 43
0.0000000001
 40
18.0
 40
18.0
 40
18.0
 40
18.0
 40
19.0
 40
19.0
 40
19.0
 40
19.0
 10
9.331865462189398
 20
4.879821574864251
 30
0.0
 10
9.331512878198353
 20
4.875590566971439
 30
0.0
 10
9.330452434744273
 20
4.871709451588827
 30
0.0
 10
9.329042098780007
 20
4.86782833620623
 30
0.0
  0
SPLINE
  5
5B6
330
1F
100
AcDbEntity
  8
Livello 1
100
AcDbSpline
210
0.0
220
0.0
230
1.0
 70
    24
 71
     3
 72
     8
 73
     4
 74
     0
 42
0.000000001
 43
0.0000000001
 40
19.0
 40
19.0
 40
19.0
 40
19.0
 40
20.0
 40
20.0
 40
20.0
 40
20.0
 10
9.329042098780007
 20
4.86782833620623
 30
0.0
 10
9.329042098780007
 20
4.86782833620623
 30
0.0
 10
9.306110681956326
 20
4.813853379283457
 30
0.0
 10
9.306110681956326
 20
4.813853379283457
 30
0.0
  0
SPLINE
  5
5B7
330
1F
100
AcDbEntity
  8
Livello 1
100
AcDbSpline
210
0.0
220
0.0
230
1.0
 70
     8
 71
     3
 72
     8
 73
     4
 74
     0
 42
0.000000001
 43
0.0000000001
 40
20.0
 40
20.0
 40
20.0
 40
20.0
 40
21.0
 40
21.0
 40
21.0
 40
21.0
 10
9.306110681956326
 20
4.813853379283457
 30
0.0
 10
9.303995178009927
 20
4.809972263900846
 30
0.0
 10
9.301524398591581
 20
4.806091148518248
 30
0.0
 10
9.298351142671961
 20
4.802565308607555
 30
0.0
  0
SPLINE
  5
5B8
330
1F
100
AcDbEntity
  8
Livello 1
100
AcDbSpline
210
0.0
220
0.0
230
1.0
 70
    24
 71
     3
 72
     8
 73
     4
 74
     0
 42
0.000000001
 43
0.0000000001
 40
21.0
 40
21.0
 40
21.0
 40
21.0
 40
22.0
 40
22.0
 40
22.0
 40
22.0
 10
9.298351142671961
 20
4.802565308607555
 30
0.0
 10
9.298351142671961
 20
4.802565308607555
 30
0.0
 10
9.282476788631356
 20
4.782099288240445
 30
0.0
 10
9.282476788631356
 20
4.782099288240445
 30
0.0
  0
SPLINE
  5
5B9
330
1F
100
AcDbEntity
  8
Livello 1
100
AcDbSpline
210
0.0
220
0.0
230
1.0
 70
     8
 71
     3
 72
     8
 73
     4
 74
     0
 42
0.000000001
 43
0.0000000001
 40
22.0
 40
22.0
 40
22.0
 40
22.0
 40
23.0
 40
23.0
 40
23.0
 40
23.0
 10
9.282476788631356
 20
4.782099288240445
 30
0.0
 10
9.272243778447787
 20
4.76622493419984
 30
0.0
 10
9.255311672433975
 20
4.757762918414144
 30
0.0
 10
9.238026982429076
 20
4.757762918414144
 30
0.0
  0
SPLINE
  5
5BA
330
1F
100
AcDbEntity
  8
Livello 1
100
AcDbSpline
210
0.0
220
0.0
230
1.0
 70
     8
 71
     3
 72
     8
 73
     4
 74
     0
 42
0.000000001
 43
0.0000000001
 40
0.0
 40
0.0
 40
0.0
 40
0.0
 40
1.0
 40
1.0
 40
1.0
 40
1.0
 10
9.911516234986933
 20
2.283872148226436
 30
0.0
 10
9.888584818163238
 20
2.283872148226436
 30
0.0
 10
9.868124180757874
 20
2.298686058813046
 30
0.0
 10
9.861067117974812
 20
2.321262200164838
 30
0.0
  0
SPLINE
  5
5BB
330
1F
100
AcDbEntity
  8
Livello 1
100
AcDbSpline
210
0.0
220
0.0
230
1.0
 70
    24
 71
     3
 72
     8
 73
     4
 74
     0
 42
0.000000001
 43
0.0000000001
 40
1.0
 40
1.0
 40
1.0
 40
1.0
 40
2.0
 40
2.0
 40
2.0
 40
2.0
 10
9.861067117974812
 20
2.321262200164838
 30
0.0
 10
9.861067117974812
 20
2.321262200164838
 30
0.0
 10
9.171385916636282
 20
4.621024925419945
 30
0.0
 10
9.171385916636282
 20
4.621024925419945
 30
0.0
  0
SPLINE
  5
5BC
330
1F
100
AcDbEntity
  8
Livello 1
100
AcDbSpline
210
0.0
220
0.0
230
1.0
 70
     8
 71
     3
 72
     8
 73
     4
 74
     0
 42
0.000000001
 43
0.0000000001
 40
2.0
 40
2.0
 40
2.0
 40
2.0
 40
3.0
 40
3.0
 40
3.0
 40
3.0
 10
9.171385916636282
 20
4.621024925419945
 30
0.0
 10
9.163273793360858
 20
4.648537242646654
 30
0.0
 10
9.179148147401477
 20
4.677820554271349
 30
0.0
 10
9.207018431580991
 20
4.686287953018663
 30
0.0
  0
SPLINE
  5
5BD
330
1F
100
AcDbEntity
  8
Livello 1
100
AcDbSpline
210
0.0
220
0.0
230
1.0
 70
     8
 71
     3
 72
     8
 73
     4
 74
     0
 42
0.000000001
 43
0.0000000001
 40
3.0
 40
3.0
 40
3.0
 40
3.0
 40
4.0
 40
4.0
 40
4.0
 40
4.0
 10
9.207018431580991
 20
4.686287953018663
 30
0.0
 10
9.208428767545271
 20
4.686637845528835
 30
0.0
 10
9.209839103509509
 20
4.686993121000739
 30
0.0
 10
9.211604714945735
 20
4.687343013511039
 30
0.0
  0
SPLINE
  5
5BE
330
1F
100
AcDbEntity
  8
Livello 1
100
AcDbSpline
210
0.0
220
0.0
230
1.0
 70
    24
 71
     3
 72
     8
 73
     4
 74
     0
 42
0.000000001
 43
0.0000000001
 40
4.0
 40
4.0
 40
4.0
 40
4.0
 40
5.0
 40
5.0
 40
5.0
 40
5.0
 10
9.211604714945735
 20
4.687343013511039
 30
0.0
 10
9.211604714945735
 20
4.687343013511039
 30
0.0
 10
9.184792182739386
 20
4.775892733405328
 30
0.0
 10
9.184792182739386
 20
4.775892733405328
 30
0.0
  0
SPLINE
  5
5BF
330
1F
100
AcDbEntity
  8
Livello 1
100
AcDbSpline
210
0.0
220
0.0
230
1.0
 70
     8
 71
     3
 72
     8
 73
     4
 74
     0
 42
0.000000001
 43
0.0000000001
 40
5.0
 40
5.0
 40
5.0
 40
5.0
 40
6.0
 40
6.0
 40
6.0
 40
6.0
 10
9.184792182739386
 20
4.775892733405328
 30
0.0
 10
9.176324783992072
 20
4.80376032610394
 30
0.0
 10
9.192201829513564
 20
4.83304363772855
 30
0.0
 10
9.219716838221145
 20
4.841511036475949
 30
0.0
  0
SPLINE
  5
5C0
330
1F
100
AcDbEntity
  8
Livello 1
100
AcDbSpline
210
0.0
220
0.0
230
1.0
 70
     8
 71
     3
 72
     8
 73
     4
 74
     0
 42
0.000000001
 43
0.0000000001
 40
6.0
 40
6.0
 40
6.0
 40
6.0
 40
7.0
 40
7.0
 40
7.0
 40
7.0
 10
9.219716838221145
 20
4.841511036475949
 30
0.0
 10
9.247939706391704
 20
4.849623159751331
 30
0.0
 10
9.276867742544396
 20
4.834098698220955
 30
0.0
 10
9.285335141291767
 20
4.806231105522343
 30
0.0
  0
SPLINE
  5
5C1
330
1F
100
AcDbEntity
  8
Livello 1
100
AcDbSpline
210
0.0
220
0.0
230
1.0
 70
    24
 71
     3
 72
     8
 73
     4
 74
     0
 42
0.000000001
 43
0.0000000001
 40
7.0
 40
7.0
 40
7.0
 40
7.0
 40
8.0
 40
8.0
 40
8.0
 40
8.0
 10
9.285335141291767
 20
4.806231105522343
 30
0.0
 10
9.285335141291767
 20
4.806231105522343
 30
0.0
 10
10.02122906878789
 20
2.361128414483161
 30
0.0
 10
10.02122906878789
 20
2.361128414483161
 30
0.0
  0
SPLINE
  5
5C2
330
1F
100
AcDbEntity
  8
Livello 1
100
AcDbSpline
210
0.0
220
0.0
230
1.0
 70
     8
 71
     3
 72
     8
 73
     4
 74
     0
 42
0.000000001
 43
0.0000000001
 40
8.0
 40
8.0
 40
8.0
 40
8.0
 40
9.0
 40
9.0
 40
9.0
 40
9.0
 10
10.02122906878789
 20
2.361128414483161
 30
0.0
 10
10.02581535215265
 20
2.346664396406836
 30
0.0
 10
10.02334457273431
 20
2.331139934876446
 30
0.0
 10
10.01558503344995
 20
2.318086252764331
 30
0.0
  0
SPLINE
  5
5C3
330
1F
100
AcDbEntity
  8
Livello 1
100
AcDbSpline
210
0.0
220
0.0
230
1.0
 70
     8
 71
     3
 72
     8
 73
     4
 74
     0
 42
0.000000001
 43
0.0000000001
 40
9.0
 40
9.0
 40
9.0
 40
9.0
 40
10.0
 40
10.0
 40
10.0
 40
10.0
 10
10.01558503344995
 20
2.318086252764331
 30
0.0
 10
10.00747021869367
 20
2.305387846124148
 30
0.0
 10
9.99441653658161
 20
2.296570554866647
 30
0.0
 10
9.979599934514169
 20
2.294099775448231
 30
0.0
  0
SPLINE
  5
5C4
330
1F
100
AcDbEntity
  8
Livello 1
100
AcDbSpline
210
0.0
220
0.0
230
1.0
 70
    24
 71
     3
 72
     8
 73
     4
 74
     0
 42
0.000000001
 43
0.0000000001
 40
10.0
 40
10.0
 40
10.0
 40
10.0
 40
11.0
 40
11.0
 40
11.0
 40
11.0
 10
9.979599934514169
 20
2.294099775448231
 30
0.0
 10
9.979599934514169
 20
2.294099775448231
 30
0.0
 10
9.919980942253445
 20
2.28457731620854
 30
0.0
 10
9.919980942253445
 20
2.28457731620854
 30
0.0
  0
SPLINE
  5
5C5
330
1F
100
AcDbEntity
  8
Livello 1
100
AcDbSpline
210
0.0
220
0.0
230
1.0
 70
     8
 71
     3
 72
     8
 73
     4
 74
     0
 42
0.000000001
 43
0.0000000001
 40
11.0
 40
11.0
 40
11.0
 40
11.0
 40
12.0
 40
12.0
 40
12.0
 40
12.0
 10
9.919980942253445
 20
2.28457731620854
 30
0.0
 10
9.91716027032487
 20
2.284222040736651
 30
0.0
 10
9.91433690691548
 20
2.283872148226436
 30
0.0
 10
9.911516234986933
 20
2.283872148226436
 30
0.0
  0
SPLINE
  5
5C6
330
1F
100
AcDbEntity
  8
Livello 1
100
AcDbSpline
210
0.0
220
0.0
230
1.0
 70
     8
 71
     3
 72
     8
 73
     4
 74
     0
 42
0.000000001
 43
0.0000000001
 40
0.0
 40
0.0
 40
0.0
 40
0.0
 40
1.0
 40
1.0
 40
1.0
 40
1.0
 10
1.114542966346064
 20
4.728549585291645
 30
0.0
 10
1.09725558486032
 20
4.728549585291645
 30
0.0
 10
1.08032347884648
 20
4.737011601077242
 30
0.0
 10
1.070445744134872
 20
4.752536062607646
 30
0.0
  0
SPLINE
  5
5C7
330
1F
100
AcDbEntity
  8
Livello 1
100
AcDbSpline
210
0.0
220
0.0
230
1.0
 70
    24
 71
     3
 72
     8
 73
     4
 74
     0
 42
0.000000001
 43
0.0000000001
 40
1.0
 40
1.0
 40
1.0
 40
1.0
 40
2.0
 40
2.0
 40
2.0
 40
2.0
 10
1.070445744134872
 20
4.752536062607646
 30
0.0
 10
1.070445744134872
 20
4.752536062607646
 30
0.0
 10
1.054217460362764
 20
4.773701867995157
 30
0.0
 10
1.054217460362764
 20
4.773701867995157
 30
0.0
  0
SPLINE
  5
5C8
330
1F
100
AcDbEntity
  8
Livello 1
100
AcDbSpline
210
0.0
220
0.0
230
1.0
 70
     8
 71
     3
 72
     8
 73
     4
 74
     0
 42
0.000000001
 43
0.0000000001
 40
2.0
 40
2.0
 40
2.0
 40
2.0
 40
3.0
 40
3.0
 40
3.0
 40
3.0
 10
1.054217460362764
 20
4.773701867995157
 30
0.0
 10
1.051042858702714
 20
4.77687781539565
 30
0.0
 10
1.048573425024812
 20
4.780403655306329
 30
0.0
 10
1.046456575337955
 20
4.784640046160845
 30
0.0
  0
SPLINE
  5
5C9
330
1F
100
AcDbEntity
  8
Livello 1
100
AcDbSpline
210
0.0
220
0.0
230
1.0
 70
    24
 71
     3
 72
     8
 73
     4
 74
     0
 42
0.000000001
 43
0.0000000001
 40
3.0
 40
3.0
 40
3.0
 40
3.0
 40
4.0
 40
4.0
 40
4.0
 40
4.0
 10
1.046456575337955
 20
4.784640046160845
 30
0.0
 10
1.046456575337955
 20
4.784640046160845
 30
0.0
 10
1.023525158514289
 20
4.838259727611756
 30
0.0
 10
1.023525158514289
 20
4.838259727611756
 30
0.0
  0
SPLINE
  5
5CA
330
1F
100
AcDbEntity
  8
Livello 1
100
AcDbSpline
210
0.0
220
0.0
230
1.0
 70
     8
 71
     3
 72
     8
 73
     4
 74
     0
 42
0.000000001
 43
0.0000000001
 40
4.0
 40
4.0
 40
4.0
 40
4.0
 40
5.0
 40
5.0
 40
5.0
 40
5.0
 10
1.023525158514289
 20
4.838259727611756
 30
0.0
 10
1.022114822550008
 20
4.842140842994339
 30
0.0
 10
1.021055724836358
 20
4.846377233848826
 30
0.0
 10
1.020703140845284
 20
4.850608241741653
 30
0.0
  0
SPLINE
  5
5CB
330
1F
100
AcDbEntity
  8
Livello 1
100
AcDbSpline
210
0.0
220
0.0
230
1.0
 70
    24
 71
     3
 72
     8
 73
     4
 74
     0
 42
0.000000001
 43
0.0000000001
 40
5.0
 40
5.0
 40
5.0
 40
5.0
 40
6.0
 40
6.0
 40
6.0
 40
6.0
 10
1.020703140845284
 20
4.850608241741653
 30
0.0
 10
1.020703140845284
 20
4.850608241741653
 30
0.0
 10
1.016116857480554
 20
4.871424154618935
 30
0.0
 10
1.016116857480554
 20
4.871424154618935
 30
0.0
  0
SPLINE
  5
5CC
330
1F
100
AcDbEntity
  8
Livello 1
100
AcDbSpline
210
0.0
220
0.0
230
1.0
 70
     8
 71
     3
 72
     8
 73
     4
 74
     0
 42
0.000000001
 43
0.0000000001
 40
6.0
 40
6.0
 40
6.0
 40
6.0
 40
7.0
 40
7.0
 40
7.0
 40
7.0
 10
1.016116857480554
 20
4.871424154618935
 30
0.0
 10
1.01364742380268
 20
4.878831109912255
 30
0.0
 10
1.012589671829459
 20
4.88659334067745
 30
0.0
 10
1.013294839811607
 20
4.894350188480942
 30
0.0
  0
SPLINE
  5
5CD
330
1F
100
AcDbEntity
  8
Livello 1
100
AcDbSpline
210
0.0
220
0.0
230
1.0
 70
    24
 71
     3
 72
     8
 73
     4
 74
     0
 42
0.000000001
 43
0.0000000001
 40
7.0
 40
7.0
 40
7.0
 40
7.0
 40
8.0
 40
8.0
 40
8.0
 40
8.0
 10
1.013294839811607
 20
4.894350188480942
 30
0.0
 10
1.013294839811607
 20
4.894350188480942
 30
0.0
 10
1.021762238558935
 20
4.965259942898455
 30
0.0
 10
1.021762238558935
 20
4.965259942898455
 30
0.0
  0
SPLINE
  5
5CE
330
1F
100
AcDbEntity
  8
Livello 1
100
AcDbSpline
210
0.0
220
0.0
230
1.0
 70
     8
 71
     3
 72
     8
 73
     4
 74
     0
 42
0.000000001
 43
0.0000000001
 40
8.0
 40
8.0
 40
8.0
 40
8.0
 40
9.0
 40
9.0
 40
9.0
 40
9.0
 10
1.021762238558935
 20
4.965259942898455
 30
0.0
 10
1.022114822550008
 20
4.969141058281053
 30
0.0
 10
1.023172574523215
 20
4.97302217366365
 30
0.0
 10
1.024584256227882
 20
4.976548013574344
 30
0.0
  0
SPLINE
  5
5CF
330
1F
100
AcDbEntity
  8
Livello 1
100
AcDbSpline
210
0.0
220
0.0
230
1.0
 70
    24
 71
     3
 72
     8
 73
     4
 74
     0
 42
0.000000001
 43
0.0000000001
 40
9.0
 40
9.0
 40
9.0
 40
9.0
 40
10.0
 40
10.0
 40
10.0
 40
10.0
 10
1.024584256227882
 20
4.976548013574344
 30
0.0
 10
1.024584256227882
 20
4.976548013574344
 30
0.0
 10
1.060566663682848
 20
5.045342264045444
 30
0.0
 10
1.060566663682848
 20
5.045342264045444
 30
0.0
  0
SPLINE
  5
5D0
330
1F
100
AcDbEntity
  8
Livello 1
100
AcDbSpline
210
0.0
220
0.0
230
1.0
 70
     8
 71
     3
 72
     8
 73
     4
 74
     0
 42
0.000000001
 43
0.0000000001
 40
10.0
 40
10.0
 40
10.0
 40
10.0
 40
11.0
 40
11.0
 40
11.0
 40
11.0
 10
1.060566663682848
 20
5.045342264045444
 30
0.0
 10
1.063036097360736
 20
5.049573271938243
 30
0.0
 10
1.066212044761215
 20
5.05345438732084
 30
0.0
 10
1.070091814403355
 20
5.056630334721347
 30
0.0
  0
SPLINE
  5
5D1
330
1F
100
AcDbEntity
  8
Livello 1
100
AcDbSpline
210
0.0
220
0.0
230
1.0
 70
    24
 71
     3
 72
     8
 73
     4
 74
     0
 42
0.000000001
 43
0.0000000001
 40
11.0
 40
11.0
 40
11.0
 40
11.0
 40
12.0
 40
12.0
 40
12.0
 40
12.0
 10
1.070091814403355
 20
5.056630334721347
 30
0.0
 10
1.070091814403355
 20
5.056630334721347
 30
0.0
 10
1.09725558486032
 20
5.082032530963331
 30
0.0
 10
1.09725558486032
 20
5.082032530963331
 30
0.0
  0
SPLINE
  5
5D2
330
1F
100
AcDbEntity
  8
Livello 1
100
AcDbSpline
210
0.0
220
0.0
230
1.0
 70
     8
 71
     3
 72
     8
 73
     4
 74
     0
 42
0.000000001
 43
0.0000000001
 40
12.0
 40
12.0
 40
12.0
 40
12.0
 40
13.0
 40
13.0
 40
13.0
 40
13.0
 10
1.09725558486032
 20
5.082032530963331
 30
0.0
 10
1.118422735988232
 20
5.101788000386534
 30
0.0
 10
1.151584471514624
 20
5.100372281460536
 30
0.0
 10
1.171339940937855
 20
5.079561751545043
 30
0.0
  0
SPLINE
  5
5D3
330
1F
100
AcDbEntity
  8
Livello 1
100
AcDbSpline
210
0.0
220
0.0
230
1.0
 70
     8
 71
     3
 72
     8
 73
     4
 74
     0
 42
0.000000001
 43
0.0000000001
 40
13.0
 40
13.0
 40
13.0
 40
13.0
 40
14.0
 40
14.0
 40
14.0
 40
14.0
 10
1.171339940937855
 20
5.079561751545043
 30
0.0
 10
1.191095410361072
 20
5.058395946157446
 30
0.0
 10
1.190036312647436
 20
5.025231519150253
 30
0.0
 10
1.168870507259953
 20
5.00547604972705
 30
0.0
  0
SPLINE
  5
5D4
330
1F
100
AcDbEntity
  8
Livello 1
100
AcDbSpline
210
0.0
220
0.0
230
1.0
 70
    24
 71
     3
 72
     8
 73
     4
 74
     0
 42
0.000000001
 43
0.0000000001
 40
14.0
 40
14.0
 40
14.0
 40
14.0
 40
15.0
 40
15.0
 40
15.0
 40
15.0
 10
1.168870507259953
 20
5.00547604972705
 30
0.0
 10
1.168870507259953
 20
5.00547604972705
 30
0.0
 10
1.135708771733575
 20
4.965259942898455
 30
0.0
 10
1.135708771733575
 20
4.965259942898455
 30
0.0
  0
SPLINE
  5
5D5
330
1F
100
AcDbEntity
  8
Livello 1
100
AcDbSpline
210
0.0
220
0.0
230
1.0
 70
    24
 71
     3
 72
     8
 73
     4
 74
     0
 42
0.000000001
 43
0.0000000001
 40
15.0
 40
15.0
 40
15.0
 40
15.0
 40
16.0
 40
16.0
 40
16.0
 40
16.0
 10
1.135708771733575
 20
4.965259942898455
 30
0.0
 10
1.135708771733575
 20
4.965259942898455
 30
0.0
 10
1.123714187335124
 20
4.935626738763644
 30
0.0
 10
1.123714187335124
 20
4.935626738763644
 30
0.0
  0
SPLINE
  5
5D6
330
1F
100
AcDbEntity
  8
Livello 1
100
AcDbSpline
210
0.0
220
0.0
230
1.0
 70
    24
 71
     3
 72
     8
 73
     4
 74
     0
 42
0.000000001
 43
0.0000000001
 40
16.0
 40
16.0
 40
16.0
 40
16.0
 40
17.0
 40
17.0
 40
17.0
 40
17.0
 10
1.123714187335124
 20
4.935626738763644
 30
0.0
 10
1.123714187335124
 20
4.935626738763644
 30
0.0
 10
1.11912790397038
 20
4.896115799917154
 30
0.0
 10
1.11912790397038
 20
4.896115799917154
 30
0.0
  0
SPLINE
  5
5D7
330
1F
100
AcDbEntity
  8
Livello 1
100
AcDbSpline
210
0.0
220
0.0
230
1.0
 70
    24
 71
     3
 72
     8
 73
     4
 74
     0
 42
0.000000001
 43
0.0000000001
 40
17.0
 40
17.0
 40
17.0
 40
17.0
 40
18.0
 40
18.0
 40
18.0
 40
18.0
 10
1.11912790397038
 20
4.896115799917154
 30
0.0
 10
1.11912790397038
 20
4.896115799917154
 30
0.0
 10
1.120539585675075
 20
4.892589960006461
 30
0.0
 10
1.120539585675075
 20
4.892589960006461
 30
0.0
  0
SPLINE
  5
5D8
330
1F
100
AcDbEntity
  8
Livello 1
100
AcDbSpline
210
0.0
220
0.0
230
1.0
 70
     8
 71
     3
 72
     8
 73
     4
 74
     0
 42
0.000000001
 43
0.0000000001
 40
18.0
 40
18.0
 40
18.0
 40
18.0
 40
19.0
 40
19.0
 40
19.0
 40
19.0
 10
1.120539585675075
 20
4.892589960006461
 30
0.0
 10
1.12195126737977
 20
4.888353569151945
 30
0.0
 10
1.122656435361932
 20
4.884472453769333
 30
0.0
 10
1.123009019352977
 20
4.880241445876549
 30
0.0
  0
SPLINE
  5
5D9
330
1F
100
AcDbEntity
  8
Livello 1
100
AcDbSpline
210
0.0
220
0.0
230
1.0
 70
    24
 71
     3
 72
     8
 73
     4
 74
     0
 42
0.000000001
 43
0.0000000001
 40
19.0
 40
19.0
 40
19.0
 40
19.0
 40
20.0
 40
20.0
 40
20.0
 40
20.0
 10
1.123009019352977
 20
4.880241445876549
 30
0.0
 10
1.123009019352977
 20
4.880241445876549
 30
0.0
 10
1.135356187742516
 20
4.840375231558141
 30
0.0
 10
1.135356187742516
 20
4.840375231558141
 30
0.0
  0
SPLINE
  5
5DA
330
1F
100
AcDbEntity
  8
Livello 1
100
AcDbSpline
210
0.0
220
0.0
230
1.0
 70
    24
 71
     3
 72
     8
 73
     4
 74
     0
 42
0.000000001
 43
0.0000000001
 40
20.0
 40
20.0
 40
20.0
 40
20.0
 40
21.0
 40
21.0
 40
21.0
 40
21.0
 10
1.135356187742516
 20
4.840375231558141
 30
0.0
 10
1.135356187742516
 20
4.840375231558141
 30
0.0
 10
1.158640188557271
 20
4.809331691459036
 30
0.0
 10
1.158640188557271
 20
4.809331691459036
 30
0.0
  0
SPLINE
  5
5DB
330
1F
100
AcDbEntity
  8
Livello 1
100
AcDbSpline
210
0.0
220
0.0
230
1.0
 70
     8
 71
     3
 72
     8
 73
     4
 74
     0
 42
0.000000001
 43
0.0000000001
 40
21.0
 40
21.0
 40
21.0
 40
21.0
 40
22.0
 40
22.0
 40
22.0
 40
22.0
 10
1.158640188557271
 20
4.809331691459036
 30
0.0
 10
1.174514542597876
 20
4.784989938671046
 30
0.0
 10
1.167458825555243
 20
4.752536062607646
 30
0.0
 10
1.143117072767282
 20
4.736661708567041
 30
0.0
  0
SPLINE
  5
5DC
330
1F
100
AcDbEntity
  8
Livello 1
100
AcDbSpline
210
0.0
220
0.0
230
1.0
 70
     8
 71
     3
 72
     8
 73
     4
 74
     0
 42
0.000000001
 43
0.0000000001
 40
22.0
 40
22.0
 40
22.0
 40
22.0
 40
23.0
 40
23.0
 40
23.0
 40
23.0
 10
1.143117072767282
 20
4.736661708567041
 30
0.0
 10
1.134298435769281
 20
4.731014981748245
 30
0.0
 10
1.124420701057672
 20
4.728549585291645
 30
0.0
 10
1.114542966346064
 20
4.728549585291645
 30
0.0
  0
SPLINE
  5
5DD
330
1F
100
AcDbEntity
  8
Livello 1
100
AcDbSpline
210
0.0
220
0.0
230
1.0
 70
     8
 71
     3
 72
     8
 73
     4
 74
     0
 42
0.000000001
 43
0.0000000001
 40
0.0
 40
0.0
 40
0.0
 40
0.0
 40
1.0
 40
1.0
 40
1.0
 40
1.0
 10
0.4411963622731321
 20
2.254518858099743
 30
0.0
 10
0.4387255828548149
 20
2.254518858099743
 30
0.0
 10
0.4355509811947798
 20
2.254868750610043
 30
0.0
 10
0.4327289635258041
 20
2.255224026081947
 30
0.0
  0
SPLINE
  5
5DE
330
1F
100
AcDbEntity
  8
Livello 1
100
AcDbSpline
210
0.0
220
0.0
230
1.0
 70
    24
 71
     3
 72
     8
 73
     4
 74
     0
 42
0.000000001
 43
0.0000000001
 40
1.0
 40
1.0
 40
1.0
 40
1.0
 40
2.0
 40
2.0
 40
2.0
 40
2.0
 10
0.4327289635258041
 20
2.255224026081947
 30
0.0
 10
0.4327289635258041
 20
2.255224026081947
 30
0.0
 10
0.3734625552561113
 20
2.264746485321651
 30
0.0
 10
0.3734625552561113
 20
2.264746485321651
 30
0.0
  0
SPLINE
  5
5DF
330
1F
100
AcDbEntity
  8
Livello 1
100
AcDbSpline
210
0.0
220
0.0
230
1.0
 70
     8
 71
     3
 72
     8
 73
     4
 74
     0
 42
0.000000001
 43
0.0000000001
 40
2.0
 40
2.0
 40
2.0
 40
2.0
 40
3.0
 40
3.0
 40
3.0
 40
3.0
 10
0.3734625552561113
 20
2.264746485321651
 30
0.0
 10
0.3582933691976109
 20
2.26721726473994
 30
0.0
 10
0.3452396870855239
 20
2.275684663487254
 30
0.0
 10
0.3371262180696846
 20
2.288732962637638
 30
0.0
  0
SPLINE
  5
5E0
330
1F
100
AcDbEntity
  8
Livello 1
100
AcDbSpline
210
0.0
220
0.0
230
1.0
 70
     8
 71
     3
 72
     8
 73
     4
 74
     0
 42
0.000000001
 43
0.0000000001
 40
3.0
 40
3.0
 40
3.0
 40
3.0
 40
4.0
 40
4.0
 40
4.0
 40
4.0
 10
0.3371262180696846
 20
2.288732962637638
 30
0.0
 10
0.3293653330448905
 20
2.301436752239538
 30
0.0
 10
0.3268958993670026
 20
2.317311106280143
 30
0.0
 10
0.3314821827317615
 20
2.331775124356553
 30
0.0
  0
SPLINE
  5
5E1
330
1F
100
AcDbEntity
  8
Livello 1
100
AcDbSpline
210
0.0
220
0.0
230
1.0
 70
    24
 71
     3
 72
     8
 73
     4
 74
     0
 42
0.000000001
 43
0.0000000001
 40
4.0
 40
4.0
 40
4.0
 40
4.0
 40
5.0
 40
5.0
 40
5.0
 40
5.0
 10
0.3314821827317615
 20
2.331775124356553
 30
0.0
 10
0.3314821827317615
 20
2.331775124356553
 30
0.0
 10
1.067376110227897
 20
4.77687781539565
 30
0.0
 10
1.067376110227897
 20
4.77687781539565
 30
0.0
  0
SPLINE
  5
5E2
330
1F
100
AcDbEntity
  8
Livello 1
100
AcDbSpline
210
0.0
220
0.0
230
1.0
 70
     8
 71
     3
 72
     8
 73
     4
 74
     0
 42
0.000000001
 43
0.0000000001
 40
5.0
 40
5.0
 40
5.0
 40
5.0
 40
6.0
 40
6.0
 40
6.0
 40
6.0
 10
1.067376110227897
 20
4.77687781539565
 30
0.0
 10
1.075843508975225
 20
4.804745408094248
 30
0.0
 10
1.10477019938753
 20
4.820269869624638
 30
0.0
 10
1.132993067558075
 20
4.812157746349242
 30
0.0
  0
SPLINE
  5
5E3
330
1F
100
AcDbEntity
  8
Livello 1
100
AcDbSpline
210
0.0
220
0.0
230
1.0
 70
     8
 71
     3
 72
     8
 73
     4
 74
     0
 42
0.000000001
 43
0.0000000001
 40
6.0
 40
6.0
 40
6.0
 40
6.0
 40
7.0
 40
7.0
 40
7.0
 40
7.0
 10
1.132993067558075
 20
4.812157746349242
 30
0.0
 10
1.1605094220061
 20
4.803690347601943
 30
0.0
 10
1.176385121787163
 20
4.774407035977333
 30
0.0
 10
1.167917723039792
 20
4.746539443278649
 30
0.0
  0
SPLINE
  5
5E4
330
1F
100
AcDbEntity
  8
Livello 1
100
AcDbSpline
210
0.0
220
0.0
230
1.0
 70
    24
 71
     3
 72
     8
 73
     4
 74
     0
 42
0.000000001
 43
0.0000000001
 40
7.0
 40
7.0
 40
7.0
 40
7.0
 40
8.0
 40
8.0
 40
8.0
 40
8.0
 10
1.167917723039792
 20
4.746539443278649
 30
0.0
 10
1.167917723039792
 20
4.746539443278649
 30
0.0
 10
1.141106536573914
 20
4.657989723384332
 30
0.0
 10
1.141106536573914
 20
4.657989723384332
 30
0.0
  0
SPLINE
  5
5E5
330
1F
100
AcDbEntity
  8
Livello 1
100
AcDbSpline
210
0.0
220
0.0
230
1.0
 70
     8
 71
     3
 72
     8
 73
     4
 74
     0
 42
0.000000001
 43
0.0000000001
 40
8.0
 40
8.0
 40
8.0
 40
8.0
 40
9.0
 40
9.0
 40
9.0
 40
9.0
 10
1.141106536573914
 20
4.657989723384332
 30
0.0
 10
1.142870802269698
 20
4.657639830874146
 30
0.0
 10
1.144282483974393
 20
4.657284555402256
 30
0.0
 10
1.145692819938673
 20
4.656934662891956
 30
0.0
  0
SPLINE
  5
5E6
330
1F
100
AcDbEntity
  8
Livello 1
100
AcDbSpline
210
0.0
220
0.0
230
1.0
 70
     8
 71
     3
 72
     8
 73
     4
 74
     0
 42
0.000000001
 43
0.0000000001
 40
9.0
 40
9.0
 40
9.0
 40
9.0
 40
10.0
 40
10.0
 40
10.0
 40
10.0
 10
1.145692819938673
 20
4.656934662891956
 30
0.0
 10
1.173561758377772
 20
4.648467264144656
 30
0.0
 10
1.189437458158792
 20
4.619183952520032
 30
0.0
 10
1.180970059411464
 20
4.591671635293252
 30
0.0
  0
SPLINE
  5
5E7
330
1F
100
AcDbEntity
  8
Livello 1
100
AcDbSpline
210
0.0
220
0.0
230
1.0
 70
    24
 71
     3
 72
     8
 73
     4
 74
     0
 42
0.000000001
 43
0.0000000001
 40
10.0
 40
10.0
 40
10.0
 40
10.0
 40
11.0
 40
11.0
 40
11.0
 40
11.0
 10
1.180970059411464
 20
4.591671635293252
 30
0.0
 10
1.180970059411464
 20
4.591671635293252
 30
0.0
 10
0.4916427878044232
 20
2.291908910038159
 30
0.0
 10
0.4916427878044232
 20
2.291908910038159
 30
0.0
  0
SPLINE
  5
5E8
330
1F
100
AcDbEntity
  8
Livello 1
100
AcDbSpline
210
0.0
220
0.0
230
1.0
 70
     8
 71
     3
 72
     8
 73
     4
 74
     0
 42
0.000000001
 43
0.0000000001
 40
11.0
 40
11.0
 40
11.0
 40
11.0
 40
12.0
 40
12.0
 40
12.0
 40
12.0
 10
0.4916427878044232
 20
2.291908910038159
 30
0.0
 10
0.4845870707617906
 20
2.269332768686339
 30
0.0
 10
0.4641264333564124
 20
2.254518858099743
 30
0.0
 10
0.4411963622731321
 20
2.254518858099743
 30
0.0
  0
ENDSEC
  0
SECTION
  2
OBJECTS
  0
DICTIONARY
  5
C
330
0
100
AcDbDictionary
281
     1
  3
ACAD_CIP_PREVIOUS_PRODUCT_INFO
350
216
  3
ACAD_COLOR
350
6B
  3
ACAD_DETAILVIEWSTYLE
350
21B
  3
ACAD_GROUP
350
D
  3
ACAD_LAYOUT
350
1A
  3
ACAD_MATERIAL
350
6A
  3
ACAD_MLEADERSTYLE
350
12D
  3
ACAD_MLINESTYLE
350
17
  3
ACAD_PLOTSETTINGS
350
19
  3
ACAD_PLOTSTYLENAME
350
E
  3
ACAD_SCALELIST
350
10C
  3
ACAD_SECTIONVIEWSTYLE
350
219
  3
ACAD_TABLESTYLE
350
7E
  3
ACAD_VISUALSTYLE
350
EF
  3
ACDB_RECOMPOSE_DATA
350
5EA
  3
AcDbVariableDictionary
350
5E
  3
AcDsDecomposeData
350
5F0
  0
DICTIONARY
  5
1FF
330
2
100
AcDbDictionary
280
     1
281
     1
  3
ACAD_LAYERSTATES
360
200
  0
DICTIONARY
  5
13C
330
10
100
AcDbDictionary
280
     1
281
     1
  0
DICTIONARY
  5
1CE
330
1F
100
AcDbDictionary
280
     1
281
     1
  0
XRECORD
  5
216
102
{ACAD_REACTORS
330
C
102
}
330
C
100
AcDbXrecord
280
     1
300
ACD
300
2020
300

  0
DICTIONARY
  5
6B
102
{ACAD_REACTORS
330
C
102
}
330
C
100
AcDbDictionary
281
     1
  0
DICTIONARY
  5
21B
102
{ACAD_REACTORS
330
C
102
}
330
C
100
AcDbDictionary
281
     1
  3
Imperial24
350
28F
  3
Metric50
350
21C
  0
DICTIONARY
  5
D
102
{ACAD_REACTORS
330
C
102
}
330
C
100
AcDbDictionary
281
     1
  0
DICTIONARY
  5
1A
102
{ACAD_REACTORS
330
C
102
}
330
C
100
AcDbDictionary
281
     1
  3
Layout1
350
D3
  3
Layout2
350
D7
  3
Model
350
22
  0
DICTIONARY
  5
6A
102
{ACAD_REACTORS
330
C
102
}
330
C
100
AcDbDictionary
281
     1
  3
ByBlock
350
ED
  3
ByLayer
350
EC
  3
Global
350
EE
  0
DICTIONARY
  5
12D
102
{ACAD_REACTORS
330
C
102
}
330
C
100
AcDbDictionary
281
     1
  3
Annotativa
350
13B
  3
Standard
350
12E
  0
DICTIONARY
  5
17
102
{ACAD_REACTORS
330
C
102
}
330
C
100
AcDbDictionary
281
     1
  3
Standard
350
18
  0
DICTIONARY
  5
19
102
{ACAD_REACTORS
330
C
102
}
330
C
100
AcDbDictionary
281
     1
  0
ACDBDICTIONARYWDFLT
  5
E
102
{ACAD_REACTORS
330
C
102
}
330
C
100
AcDbDictionary
281
     1
  3
Normal
350
F
100
AcDbDictionaryWithDefault
340
F
  0
DICTIONARY
  5
10C
102
{ACAD_REACTORS
330
C
102
}
330
C
100
AcDbDictionary
281
     1
  3
A0
350
10D
  3
A1
350
1BE
  3
A2
350
1BF
  3
A3
350
1C0
  3
A4
350
1C1
  3
A5
350
1C2
  3
A6
350
1C3
  3
A7
350
1C4
  3
A8
350
1C5
  3
A9
350
1C6
  3
B0
350
1C7
  3
B1
350
1C8
  3
B2
350
1C9
  3
B3
350
1CA
  3
B4
350
1CB
  3
B5
350
1CC
  3
B6
350
1CD
  0
DICTIONARY
  5
219
102
{ACAD_REACTORS
330
C
102
}
330
C
100
AcDbDictionary
281
     1
  3
Imperial24
350
28E
  3
Metric50
350
21A
  0
DICTIONARY
  5
7E
102
{ACAD_REACTORS
330
C
102
}
330
C
100
AcDbDictionary
281
     1
  3
Standard
350
7F
  0
DICTIONARY
  5
EF
102
{ACAD_REACTORS
330
C
102
}
330
C
100
AcDbDictionary
281
     1
  3
2dWireframe
350
F5
  3
Basic
350
F4
  3
Brighten
350
FB
  3
ColorChange
350
FF
  3
Conceptual
350
F8
  3
Dim
350
FA
  3
EdgeColorOff
350
1E6
  3
Facepattern
350
FE
  3
Flat
350
F0
  3
FlatWithEdges
350
F1
  3
Gouraud
350
F2
  3
GouraudWithEdges
350
F3
  3
Hidden
350
F7
  3
JitterOff
350
1E4
  3
Linepattern
350
FD
  3
OverhangOff
350
1E5
  3
Realistic
350
F9
  3
Shaded
350
1F3
  3
Shaded with edges
350
1F2
  3
Shades of Gray
350
1EF
  3
Sketchy
350
1F0
  3
Thicken
350
FC
  3
Wireframe
350
F6
  3
X-Ray
350
1F1
  0
XRECORD
  5
5EA
102
{ACAD_REACTORS
330
C
102
}
330
C
100
AcDbXrecord
280
     1
 90
        1
330
7F
  0
DICTIONARY
  5
5E
102
{ACAD_REACTORS
330
C
102
}
330
C
100
AcDbDictionary
281
     1
  3
CANNOSCALE
350
146
  3
CENTEREXE
350
259
  3
CENTERLTYPEFILE
350
25A
  3
CMLEADERSTYLE
350
145
  3
CTABLESTYLE
350
84
  3
CVIEWDETAILSTYLE
350
227
  3
CVIEWSECTIONSTYLE
350
228
  3
DIMASSOC
350
5F
  3
HIDETEXT
350
63
  3
LAYEREVAL
350
1AE
  3
LAYERNOTIFY
350
1AF
  0
DICTIONARY
  5
5F0
102
{ACAD_REACTORS
330
C
102
}
330
C
100
AcDbDictionary
281
     1
  3
AcDsRecords
350
5F2
  3
AcDsSchemas
350
5F1
1001
ACAD
1070
     2
  0
DICTIONARY
  5
200
102
{ACAD_REACTORS
330
1FF
102
}
330
1FF
100
AcDbDictionary
281
     1
  0
ACDBDETAILVIEWSTYLE
  5
28F
102
{ACAD_XDICTIONARY
360
5F9
102
}
102
{ACAD_REACTORS
330
21B
102
}
330
21B
100
AcDbModelDocViewStyle
 70
     0
  3
Imperial24
290
     0
100
AcDbDetailViewStyle
 70
     0
 71
     0
 90
        3
 71
     1
340
11
 62
   256
 40
0.24
340
0
 62
   256
 40
0.24
300

 40
0.36
280
     3
 71
     2
340
16
 90
       25
 62
   256
 71
     3
340
11
 62
   256
 40
0.24
 90
        1
 40
0.75
 90
        1
300
%<\AcVar ViewType \f "%tc1">% %<\AcVar ViewDetailId>%\PSCALA %<\AcVar ViewScale \f "%sn">%
 71
     4
340
16
 90
       25
 62
   256
340
16
 90
       25
 62
   256
280
     0
  0
ACDBDETAILVIEWSTYLE
  5
21C
102
{ACAD_XDICTIONARY
360
5F5
102
}
102
{ACAD_REACTORS
330
21B
102
}
330
21B
100
AcDbModelDocViewStyle
 70
     0
  3
Metric50
290
     0
100
AcDbDetailViewStyle
 70
     0
 71
     0
 90
        3
 71
     1
340
11
 62
   256
 40
5.0
340
0
 62
   256
 40
5.0
300

 40
0.0
280
     1
 71
     2
340
16
 90
       25
 62
   256
 71
     3
340
11
 62
   256
 40
5.0
 90
        0
 40
15.0
 90
        1
300
%<\AcVar ViewDetailId>% (%<\AcVar ViewScale \f "%sn">%)
 71
     4
340
16
 90
       25
 62
   256
340
16
 90
       25
 62
   256
280
     0
  0
LAYOUT
  5
D3
102
{ACAD_REACTORS
330
1A
102
}
330
1A
100
AcDbPlotSettings
  1

  2
C:\Documents and Settings\basas\Application Data\Autodesk\AutoCAD 2005\R16.1\enu\plotters\Default Windows System Printer.pc3
  4

  6

 40
0.0
 41
0.0
 42
0.0
 43
0.0
 44
0.0
 45
0.0
 46
0.0
 47
0.0
 48
0.0
 49
0.0
140
0.0
141
0.0
142
1.0
143
1.0
 70
   688
 72
     0
 73
     0
 74
     5
  7

 75
    16
147
1.0
 76
     0
 77
     2
 78
   300
148
0.0
149
0.0
100
AcDbLayout
  1
Layout1
 70
     1
 71
     1
 10
0.0
 20
0.0
 11
12.0
 21
9.0
 12
0.0
 22
0.0
 32
0.0
 14
0.0
 24
0.0
 34
0.0
 15
0.0
 25
0.0
 35
0.0
146
0.0
 13
0.0
 23
0.0
 33
0.0
 16
1.0
 26
0.0
 36
0.0
 17
0.0
 27
1.0
 37
0.0
 76
     0
330
D2
  0
LAYOUT
  5
D7
102
{ACAD_REACTORS
330
1A
102
}
330
1A
100
AcDbPlotSettings
  1

  2
C:\Documents and Settings\basas\Application Data\Autodesk\AutoCAD 2005\R16.1\enu\plotters\Default Windows System Printer.pc3
  4

  6

 40
0.0
 41
0.0
 42
0.0
 43
0.0
 44
0.0
 45
0.0
 46
0.0
 47
0.0
 48
0.0
 49
0.0
140
0.0
141
0.0
142
1.0
143
1.0
 70
   688
 72
     0
 73
     0
 74
     5
  7

 75
    16
147
1.0
 76
     0
 77
     2
 78
   300
148
0.0
149
0.0
100
AcDbLayout
  1
Layout2
 70
     1
 71
     2
 10
0.0
 20
0.0
 11
12.0
 21
9.0
 12
0.0
 22
0.0
 32
0.0
 14
0.0
 24
0.0
 34
0.0
 15
0.0
 25
0.0
 35
0.0
146
0.0
 13
0.0
 23
0.0
 33
0.0
 16
1.0
 26
0.0
 36
0.0
 17
0.0
 27
1.0
 37
0.0
 76
     0
330
D6
  0
LAYOUT
  5
22
102
{ACAD_XDICTIONARY
360
205
102
}
102
{ACAD_REACTORS
330
1A
102
}
330
1A
100
AcDbPlotSettings
  1

  2
none_device
  4
ISO_A4_(210.00_x_297.00_MM)
  6

 40
7.5
 41
20.0
 42
7.5
 43
20.0
 44
210.0
 45
297.0
 46
11.54999923706054
 47
-13.65000009536743
 48
0.0
 49
0.0
140
0.0
141
0.0
142
1.0
143
8.704084754739808
 70
 11952
 72
     1
 73
     0
 74
     0
  7

 75
     0
147
0.1148885871608098
 76
     0
 77
     2
 78
   300
148
0.0
149
0.0
100
AcDbLayout
  1
Model
 70
     1
 71
     0
 10
0.0
 20
0.0
 11
12.0
 21
9.0
 12
0.0
 22
0.0
 32
0.0
 14
0.0
 24
0.0
 34
0.0
 15
0.0
 25
0.0
 35
0.0
146
0.0
 13
0.0
 23
0.0
 33
0.0
 16
1.0
 26
0.0
 36
0.0
 17
0.0
 27
1.0
 37
0.0
 76
     0
330
1F
331
EA
1001
ACAD_PSEXT
1000
None
1000
None
1000
Not applicable
1000
The layout will not be plotted unless a new plotter configuration name is selected.
1070
     0
  0
MATERIAL
  5
ED
102
{ACAD_XDICTIONARY
360
1F9
102
}
102
{ACAD_REACTORS
330
6A
102
}
330
6A
100
AcDbMaterial
  1
ByBlock
 94
       63
  0
MATERIAL
  5
EC
102
{ACAD_XDICTIONARY
360
1F7
102
}
102
{ACAD_REACTORS
330
6A
102
}
330
6A
100
AcDbMaterial
  1
ByLayer
 94
       63
  0
MATERIAL
  5
EE
102
{ACAD_XDICTIONARY
360
173
102
}
102
{ACAD_REACTORS
330
6A
102
}
330
6A
100
AcDbMaterial
  1
Global
 43
0.0007999999797903
 43
0.0
 43
0.0
 43
0.0
 43
0.0
 43
0.0007999999797903
 43
0.0
 43
0.0
 43
0.0
 43
0.0
 43
1.0
 43
0.0
 43
0.0
 43
0.0
 43
0.0
 43
1.0
 49
0.0007999999797903
 49
0.0
 49
0.0
 49
0.0
 49
0.0
 49
0.0007999999797903
 49
0.0
 49
0.0
 49
0.0
 49
0.0
 49
1.0
 49
0.0
 49
0.0
 49
0.0
 49
0.0
 49
1.0
142
0.0007999999797903
142
0.0
142
0.0
142
0.0
142
0.0
142
0.0007999999797903
142
0.0
142
0.0
142
0.0
142
0.0
142
1.0
142
0.0
142
0.0
142
0.0
142
0.0
142
1.0
144
0.0007999999797903
144
0.0
144
0.0
144
0.0
144
0.0
144
0.0007999999797903
144
0.0
144
0.0
144
0.0
144
0.0
144
1.0
144
0.0
144
0.0
144
0.0
144
0.0
144
1.0
 94
       63
1001
ACAD
1070
    -1
1070
     3
1070
     0
1000

1071
        0
1070
     0
  0
MLEADERSTYLE
  5
13B
102
{ACAD_REACTORS
330
12D
102
}
330
12D
100
AcDbMLeaderStyle
179
     2
170
     2
171
     1
172
     0
 90
        2
 40
0.0
 41
0.0
173
     1
 91
-1056964608
340
14
 92
       -2
290
     1
 42
2.0
291
     1
 43
8.0
  3
Standard
 44
4.0
300

342
11
174
     1
178
     1
175
     1
176
     0
 93
-1056964608
 45
4.0
292
     0
297
     0
 46
4.0
 94
-1056964608
 47
1.0
 49
1.0
140
1.0
293
     1
141
0.0
294
     1
177
     0
142
1.0
295
     0
296
     1
143
3.75
271
     0
272
     9
273
     9
298
     0
  0
MLEADERSTYLE
  5
12E
102
{ACAD_REACTORS
330
12D
102
}
330
12D
100
AcDbMLeaderStyle
179
     2
170
     2
171
     1
172
     0
 90
        2
 40
0.0
 41
0.0
173
     1
 91
-1056964608
340
14
 92
       -2
290
     1
 42
2.0
291
     1
 43
8.0
  3
Standard
 44
4.0
300

342
11
174
     1
178
     1
175
     1
176
     0
 93
-1056964608
 45
4.0
292
     0
297
     0
 46
4.0
 94
-1056964608
 47
1.0
 49
1.0
140
1.0
293
     1
141
0.0
294
     1
177
     0
142
1.0
295
     0
296
     0
143
3.75
271
     0
272
     9
273
     9
298
     0
  0
MLINESTYLE
  5
18
102
{ACAD_REACTORS
330
17
102
}
330
17
100
AcDbMlineStyle
  2
STANDARD
 70
     0
  3

 62
   256
 51
90.0
 52
90.0
 71
     2
 49
0.5
 62
   256
  6
BYLAYER
 49
-0.5
 62
   256
  6
BYLAYER
  0
ACDBPLACEHOLDER
  5
F
102
{ACAD_REACTORS
330
E
102
}
330
E
  0
SCALE
  5
10D
102
{ACAD_REACTORS
330
10C
102
}
330
10C
100
AcDbScale
 70
     0
300
1:1
140
1.0
141
1.0
290
     1
  0
SCALE
  5
1BE
102
{ACAD_REACTORS
330
10C
102
}
330
10C
100
AcDbScale
 70
     0
300
1:2
140
1.0
141
2.0
290
     0
  0
SCALE
  5
1BF
102
{ACAD_REACTORS
330
10C
102
}
330
10C
100
AcDbScale
 70
     0
300
1:4
140
1.0
141
4.0
290
     0
  0
SCALE
  5
1C0
102
{ACAD_REACTORS
330
10C
102
}
330
10C
100
AcDbScale
 70
     0
300
1:5
140
1.0
141
5.0
290
     0
  0
SCALE
  5
1C1
102
{ACAD_REACTORS
330
10C
102
}
330
10C
100
AcDbScale
 70
     0
300
1:8
140
1.0
141
8.0
290
     0
  0
SCALE
  5
1C2
102
{ACAD_REACTORS
330
10C
102
}
330
10C
100
AcDbScale
 70
     0
300
1:10
140
1.0
141
10.0
290
     0
  0
SCALE
  5
1C3
102
{ACAD_REACTORS
330
10C
102
}
330
10C
100
AcDbScale
 70
     0
300
1:16
140
1.0
141
16.0
290
     0
  0
SCALE
  5
1C4
102
{ACAD_REACTORS
330
10C
102
}
330
10C
100
AcDbScale
 70
     0
300
1:20
140
1.0
141
20.0
290
     0
  0
SCALE
  5
1C5
102
{ACAD_REACTORS
330
10C
102
}
330
10C
100
AcDbScale
 70
     0
300
1:30
140
1.0
141
30.0
290
     0
  0
SCALE
  5
1C6
102
{ACAD_REACTORS
330
10C
102
}
330
10C
100
AcDbScale
 70
     0
300
1:40
140
1.0
141
40.0
290
     0
  0
SCALE
  5
1C7
102
{ACAD_REACTORS
330
10C
102
}
330
10C
100
AcDbScale
 70
     0
300
1:50
140
1.0
141
50.0
290
     0
  0
SCALE
  5
1C8
102
{ACAD_REACTORS
330
10C
102
}
330
10C
100
AcDbScale
 70
     0
300
1:100
140
1.0
141
100.0
290
     0
  0
SCALE
  5
1C9
102
{ACAD_REACTORS
330
10C
102
}
330
10C
100
AcDbScale
 70
     0
300
2:1
140
2.0
141
1.0
290
     0
  0
SCALE
  5
1CA
102
{ACAD_REACTORS
330
10C
102
}
330
10C
100
AcDbScale
 70
     0
300
4:1
140
4.0
141
1.0
290
     0
  0
SCALE
  5
1CB
102
{ACAD_REACTORS
330
10C
102
}
330
10C
100
AcDbScale
 70
     0
300
8:1
140
8.0
141
1.0
290
     0
  0
SCALE
  5
1CC
102
{ACAD_REACTORS
330
10C
102
}
330
10C
100
AcDbScale
 70
     0
300
10:1
140
10.0
141
1.0
290
     0
  0
SCALE
  5
1CD
102
{ACAD_REACTORS
330
10C
102
}
330
10C
100
AcDbScale
 70
     0
300
100:1
140
100.0
141
1.0
290
     0
  0
ACDBSECTIONVIEWSTYLE
  5
28E
102
{ACAD_XDICTIONARY
360
5F7
102
}
102
{ACAD_REACTORS
330
219
102
}
330
219
100
AcDbModelDocViewStyle
 70
     0
  3
Imperial24
290
     0
100
AcDbSectionViewStyle
 70
     0
 71
     0
 90
       78
 71
     1
340
11
 62
   256
 40
0.24
340
0
340
0
 62
   256
 40
0.24
300
I, O, Q, S, X, Z
 40
0.48
 90
        3
 40
0.18
 90
        1
 71
     2
340
16
 90
       25
 62
   256
340
16
 90
       50
 62
   256
 40
0.24
 40
0.0
 40
0.24
 71
     3
340
11
 62
   256
 40
0.24
 90
        1
 40
0.75
 90
        1
300
%<\AcVar ViewType \f "%tc1">% %<\AcVar ViewSectionStartId>%-%<\AcVar ViewSectionEndId>%\PSCALA %<\AcVar ViewScale \f "%sn">%
 71
     4
 62
   256
 62
   257
300
ANSI31
 40
1.0
 90
        0
290
     0
290
     0
 90
        6
 40
0.0
 40
1.570796326794896
 40
0.2617993877991494
 40
1.308996938995747
 40
-0.2617993877991494
 40
1.832595714594046
  0
ACDBSECTIONVIEWSTYLE
  5
21A
102
{ACAD_XDICTIONARY
360
5F3
102
}
102
{ACAD_REACTORS
330
219
102
}
330
219
100
AcDbModelDocViewStyle
 70
     0
  3
Metric50
290
     0
100
AcDbSectionViewStyle
 70
     0
 71
     0
 90
      102
 71
     1
340
11
 62
   256
 40
5.0
340
0
340
0
 62
   256
 40
5.0
300
I, O, Q, S, X, Z
 40
10.0
 90
        0
 40
2.5
 90
        0
 71
     2
340
16
 90
       25
 62
   256
340
16
 90
       50
 62
   256
 40
5.0
 40
2.5
 40
5.0
 71
     3
340
11
 62
   256
 40
5.0
 90
        0
 40
15.0
 90
        1
300
%<\AcVar ViewSectionStartId>%-%<\AcVar ViewSectionEndId>% (%<\AcVar ViewScale \f "%sn">%)
 71
     4
 62
   256
 62
   257
300
ANSI31
 40
1.0
 90
        0
290
     0
290
     0
 90
        6
 40
0.0
 40
1.570796326794896
 40
0.2617993877991494
 40
1.308996938995747
 40
-0.2617993877991494
 40
1.832595714594046
  0
TABLESTYLE
  5
7F
102
{ACAD_XDICTIONARY
360
162
102
}
102
{ACAD_REACTORS
330
7E
102
}
330
7E
100
AcDbTableStyle
280
     0
  3
Standard
 70
     0
 71
     0
 40
1.5
 41
1.5
280
     0
281
     0
  7
Standard
140
4.5
170
     2
 62
     0
 63
     7
283
     0
 90
      512
 91
        0
  1

274
    -2
284
     1
 64
     0
275
    -2
285
     1
 65
     0
276
    -2
286
     1
 66
     0
277
    -2
287
     1
 67
     0
278
    -2
288
     1
 68
     0
279
    -2
289
     1
 69
     0
  7
Standard
140
6.0
170
     5
 62
     0
 63
     7
283
     0
 90
      512
 91
        0
  1

274
    -2
284
     1
 64
     0
275
    -2
285
     1
 65
     0
276
    -2
286
     1
 66
     0
277
    -2
287
     1
 67
     0
278
    -2
288
     1
 68
     0
279
    -2
289
     1
 69
     0
  7
Standard
140
4.5
170
     5
 62
     0
 63
     7
283
     0
 90
      512
 91
        0
  1

274
    -2
284
     1
 64
     0
275
    -2
285
     1
 65
     0
276
    -2
286
     1
 66
     0
277
    -2
287
     1
 67
     0
278
    -2
288
     1
 68
     0
279
    -2
289
     1
 69
     0
  0
VISUALSTYLE
  5
F5
102
{ACAD_REACTORS
330
EF
102
}
330
EF
100
AcDbVisualStyle
  2
2dWireframe
 70
     4
177
     3
291
     0
 70
    58
 90
        0
176
     1
 90
        2
176
     1
 90
        1
176
     1
 90
        0
176
     1
 40
0.6
176
     1
 40
30.0
176
     1
 62
     7
420
 16777215
176
     1
 90
        1
176
     1
 90
        4
176
     1
 62
     7
176
     1
 62
   257
176
     1
 90
        1
176
     1
 90
        1
176
     1
 40
1.0
176
     1
 90
        0
176
     1
 62
   257
176
     1
 40
1.0
176
     1
 90
        1
176
     1
 90
        6
176
     1
 90
        2
176
     1
 62
     7
176
     1
 90
        5
176
     1
 90
        0
176
     1
 90
        0
176
     1
290
     0
176
     1
 90
        1
176
     1
 40
0.0
176
     1
 90
        0
176
     1
290
     1
176
     1
290
     1
176
     1
290
     0
176
     1
290
     0
176
     1
290
     0
176
     1
290
     0
176
     1
290
     0
176
     1
290
     0
176
     1
290
     0
176
     1
 90
       50
176
     1
 40
0.0
176
     1
 40
1.0
176
     1
 90
        0
176
     1
 62
    18
420
        0
176
     1
 90
       50
176
     1
 90
        3
176
     1
 62
     5
420
      255
176
     1
290
     0
176
     1
 90
       50
176
     1
 90
       50
176
     1
 90
       50
176
     1
290
     0
176
     1
 90
       50
176
     1
 62
   256
176
     0
 40
1.0
176
     0
 90
        2
176
     1
  1
strokes_ogs.tif
176
     1
290
     0
176
     1
 40
1.0
176
     1
 40
1.0
176
     1
1001
ACAD
1000
AcDbSavedByObjectVersion
1070
     0
  0
VISUALSTYLE
  5
F4
102
{ACAD_REACTORS
330
EF
102
}
330
EF
100
AcDbVisualStyle
  2
Basic
 70
     7
177
     3
291
     1
 70
    58
 90
        1
176
     1
 90
        0
176
     1
 90
        1
176
     1
 90
        0
176
     1
 40
0.6
176
     1
 40
30.0
176
     1
 62
     7
420
 16777215
176
     1
 90
        0
176
     1
 90
        4
176
     1
 62
     7
176
     1
 62
   257
176
     1
 90
        1
176
     1
 90
        1
176
     1
 40
1.0
176
     1
 90
        8
176
     1
 62
     7
176
     1
 40
1.0
176
     1
 90
        1
176
     1
 90
        6
176
     1
 90
        2
176
     1
 62
     7
176
     1
 90
        5
176
     1
 90
        0
176
     1
 90
        0
176
     1
290
     0
176
     1
 90
        1
176
     1
 40
0.0
176
     1
 90
        0
176
     1
290
     0
176
     1
290
     1
176
     1
290
     1
176
     1
290
     0
176
     1
290
     0
176
     1
290
     0
176
     1
290
     0
176
     1
290
     0
176
     1
290
     0
176
     1
 90
       50
176
     1
 40
0.0
176
     1
 40
1.0
176
     1
 90
        0
176
     1
 62
    18
420
        0
176
     1
 90
       50
176
     1
 90
        3
176
     1
 62
     5
420
      255
176
     1
290
     0
176
     1
 90
       50
176
     1
 90
       50
176
     1
 90
       50
176
     1
290
     0
176
     1
 90
       50
176
     1
 62
   256
176
     0
 40
1.0
176
     0
 90
        2
176
     1
  1
strokes_ogs.tif
176
     1
290
     0
176
     1
 40
1.0
176
     1
 40
1.0
176
     1
1001
ACAD
1000
AcDbSavedByObjectVersion
1070
     0
  0
VISUALSTYLE
  5
FB
102
{ACAD_REACTORS
330
EF
102
}
330
EF
100
AcDbVisualStyle
  2
Brighten
 70
    12
177
     3
291
     1
 70
    58
 90
        2
176
     1
 90
        2
176
     1
 90
        1
176
     1
 90
        0
176
     1
 40
0.6
176
     1
 40
30.0
176
     1
 62
     7
420
 16777215
176
     1
 90
        1
176
     1
 90
        4
176
     1
 62
     7
176
     1
 62
   257
176
     1
 90
        1
176
     1
 90
        1
176
     1
 40
1.0
176
     1
 90
        8
176
     1
 62
     7
176
     1
 40
1.0
176
     1
 90
        1
176
     1
 90
        6
176
     1
 90
        2
176
     1
 62
     7
176
     1
 90
        5
176
     1
 90
        0
176
     1
 90
        0
176
     1
290
     0
176
     1
 90
        1
176
     1
 40
50.0
176
     1
 90
        0
176
     1
290
     0
176
     1
290
     1
176
     1
290
     1
176
     1
290
     0
176
     1
290
     0
176
     1
290
     0
176
     1
290
     0
176
     1
290
     0
176
     1
290
     0
176
     1
 90
       50
176
     1
 40
0.0
176
     1
 40
1.0
176
     1
 90
        0
176
     1
 62
    18
420
        0
176
     1
 90
       50
176
     1
 90
        3
176
     1
 62
     5
420
      255
176
     1
290
     0
176
     1
 90
       50
176
     1
 90
       50
176
     1
 90
       50
176
     1
290
     0
176
     1
 90
       50
176
     1
 62
   256
176
     0
 40
1.0
176
     0
 90
        2
176
     1
  1
strokes_ogs.tif
176
     1
290
     0
176
     1
 40
1.0
176
     1
 40
1.0
176
     1
1001
ACAD
1000
AcDbSavedByObjectVersion
1070
     0
  0
VISUALSTYLE
  5
FF
102
{ACAD_REACTORS
330
EF
102
}
330
EF
100
AcDbVisualStyle
  2
ColorChange
 70
    16
177
     3
291
     1
 70
    58
 90
        2
176
     1
 90
        2
176
     1
 90
        3
176
     1
 90
        0
176
     1
 40
0.6
176
     1
 40
30.0
176
     1
 62
     8
420
  8421504
176
     1
 90
        1
176
     1
 90
        4
176
     1
 62
     7
176
     1
 62
   257
176
     1
 90
        1
176
     1
 90
        1
176
     1
 40
1.0
176
     1
 90
        8
176
     1
 62
     8
420
  8421504
176
     1
 40
1.0
176
     1
 90
        1
176
     1
 90
        6
176
     1
 90
        2
176
     1
 62
     7
176
     1
 90
        5
176
     1
 90
        0
176
     1
 90
        0
176
     1
290
     0
176
     1
 90
        1
176
     1
 40
0.0
176
     1
 90
        0
176
     1
290
     0
176
     1
290
     1
176
     1
290
     1
176
     1
290
     0
176
     1
290
     0
176
     1
290
     0
176
     1
290
     0
176
     1
290
     0
176
     1
290
     0
176
     1
 90
       50
176
     1
 40
0.0
176
     1
 40
1.0
176
     1
 90
        0
176
     1
 62
    18
420
        0
176
     1
 90
       50
176
     1
 90
        3
176
     1
 62
     5
420
      255
176
     1
290
     0
176
     1
 90
       50
176
     1
 90
       50
176
     1
 90
       50
176
     1
290
     0
176
     1
 90
       50
176
     1
 62
   256
176
     0
 40
1.0
176
     0
 90
        2
176
     1
  1
strokes_ogs.tif
176
     1
290
     0
176
     1
 40
1.0
176
     1
 40
1.0
176
     1
1001
ACAD
1000
AcDbSavedByObjectVersion
1070
     0
  0
VISUALSTYLE
  5
F8
102
{ACAD_REACTORS
330
EF
102
}
330
EF
100
AcDbVisualStyle
  2
Conceptual
 70
     9
177
     3
291
     0
 70
    58
 90
        3
176
     1
 90
        2
176
     1
 90
        1
176
     1
 90
        0
176
     1
 40
0.6
176
     1
 40
30.0
176
     1
 62
     7
420
 16777215
176
     1
 90
        2
176
     1
 90
        2
176
     1
 62
     7
176
     1
 62
   257
176
     1
 90
        1
176
     1
 90
        1
176
     1
 40
40.0
176
     1
 90
        8
176
     1
 62
     7
176
     1
 40
1.0
176
     1
 90
        1
176
     1
 90
        6
176
     1
 90
        2
176
     1
 62
     7
176
     1
 90
        3
176
     1
 90
        0
176
     1
 90
        0
176
     1
290
     0
176
     1
 90
        1
176
     1
 40
0.0
176
     1
 90
        0
176
     1
290
     0
176
     1
290
     1
176
     1
290
     1
176
     1
290
     0
176
     1
290
     0
176
     1
290
     0
176
     1
290
     0
176
     1
290
     0
176
     1
290
     0
176
     1
 90
       50
176
     1
 40
0.0
176
     1
 40
1.0
176
     1
 90
        0
176
     1
 62
    18
420
        0
176
     1
 90
       50
176
     1
 90
        3
176
     1
 62
     5
420
      255
176
     1
290
     0
176
     1
 90
       50
176
     1
 90
       50
176
     1
 90
       50
176
     1
290
     0
176
     1
 90
       50
176
     1
 62
   256
176
     0
 40
1.0
176
     0
 90
        2
176
     1
  1
strokes_ogs.tif
176
     1
290
     0
176
     1
 40
1.0
176
     1
 40
1.0
176
     1
1001
ACAD
1000
AcDbSavedByObjectVersion
1070
     0
  0
VISUALSTYLE
  5
FA
102
{ACAD_REACTORS
330
EF
102
}
330
EF
100
AcDbVisualStyle
  2
Dim
 70
    11
177
     3
291
     1
 70
    58
 90
        2
176
     1
 90
        2
176
     1
 90
        1
176
     1
 90
        0
176
     1
 40
0.6
176
     1
 40
30.0
176
     1
 62
     7
420
 16777215
176
     1
 90
        1
176
     1
 90
        4
176
     1
 62
     7
176
     1
 62
   257
176
     1
 90
        1
176
     1
 90
        1
176
     1
 40
1.0
176
     1
 90
        8
176
     1
 62
     7
176
     1
 40
1.0
176
     1
 90
        1
176
     1
 90
        6
176
     1
 90
        2
176
     1
 62
     7
176
     1
 90
        5
176
     1
 90
        0
176
     1
 90
        0
176
     1
290
     0
176
     1
 90
        1
176
     1
 40
-50.0
176
     1
 90
        0
176
     1
290
     0
176
     1
290
     1
176
     1
290
     1
176
     1
290
     0
176
     1
290
     0
176
     1
290
     0
176
     1
290
     0
176
     1
290
     0
176
     1
290
     0
176
     1
 90
       50
176
     1
 40
0.0
176
     1
 40
1.0
176
     1
 90
        0
176
     1
 62
    18
420
        0
176
     1
 90
       50
176
     1
 90
        3
176
     1
 62
     5
420
      255
176
     1
290
     0
176
     1
 90
       50
176
     1
 90
       50
176
     1
 90
       50
176
     1
290
     0
176
     1
 90
       50
176
     1
 62
   256
176
     0
 40
1.0
176
     0
 90
        2
176
     1
  1
strokes_ogs.tif
176
     1
290
     0
176
     1
 40
1.0
176
     1
 40
1.0
176
     1
1001
ACAD
1000
AcDbSavedByObjectVersion
1070
     0
  0
VISUALSTYLE
  5
1E6
102
{ACAD_REACTORS
330
EF
102
}
330
EF
100
AcDbVisualStyle
  2
EdgeColorOff
 70
    22
177
     3
291
     1
 70
    58
 90
        2
176
     0
 90
        2
176
     0
 90
        0
176
     0
 90
        0
176
     0
 40
0.6
176
     0
 40
30.0
176
     0
 62
     7
420
 16777215
176
     0
 90
        1
176
     0
 90
        4
176
     0
 62
     7
176
     0
 62
   257
176
     0
 90
        1
176
     0
 90
        1
176
     0
 40
1.0
176
     0
 90
        8
176
     2
 62
     7
176
     0
 40
1.0
176
     0
 90
        1
176
     0
 90
        6
176
     0
 90
        2
176
     0
 62
     7
176
     0
 90
        5
176
     0
 90
        0
176
     0
 90
        0
176
     0
290
     0
176
     0
 90
        1
176
     0
 40
0.0
176
     0
 90
        0
176
     0
290
     0
176
     1
290
     1
176
     1
290
     1
176
     1
290
     0
176
     1
290
     0
176
     1
290
     0
176
     1
290
     0
176
     1
290
     0
176
     1
290
     0
176
     1
 90
       50
176
     1
 40
0.0
176
     1
 40
1.0
176
     1
 90
        0
176
     1
 62
    18
420
        0
176
     1
 90
       50
176
     1
 90
        3
176
     1
 62
     5
420
      255
176
     1
290
     0
176
     1
 90
       50
176
     1
 90
       50
176
     1
 90
       50
176
     1
290
     0
176
     1
 90
       50
176
     1
 62
   256
176
     0
 40
1.0
176
     0
 90
        2
176
     1
  1
strokes_ogs.tif
176
     1
290
     0
176
     1
 40
1.0
176
     1
 40
1.0
176
     1
1001
ACAD
1000
AcDbSavedByObjectVersion
1070
     0
  0
VISUALSTYLE
  5
FE
102
{ACAD_REACTORS
330
EF
102
}
330
EF
100
AcDbVisualStyle
  2
Facepattern
 70
    15
177
     3
291
     1
 70
    58
 90
        2
176
     1
 90
        2
176
     1
 90
        1
176
     1
 90
        0
176
     1
 40
0.6
176
     1
 40
30.0
176
     1
 62
     7
420
 16777215
176
     1
 90
        1
176
     1
 90
        4
176
     1
 62
     7
176
     1
 62
   257
176
     1
 90
        1
176
     1
 90
        1
176
     1
 40
1.0
176
     1
 90
        8
176
     1
 62
     7
176
     1
 40
1.0
176
     1
 90
        1
176
     1
 90
        6
176
     1
 90
        2
176
     1
 62
     7
176
     1
 90
        5
176
     1
 90
        0
176
     1
 90
        0
176
     1
290
     0
176
     1
 90
        1
176
     1
 40
0.0
176
     1
 90
        0
176
     1
290
     0
176
     1
290
     1
176
     1
290
     1
176
     1
290
     0
176
     1
290
     0
176
     1
290
     0
176
     1
290
     0
176
     1
290
     0
176
     1
290
     0
176
     1
 90
       50
176
     1
 40
0.0
176
     1
 40
1.0
176
     1
 90
        0
176
     1
 62
    18
420
        0
176
     1
 90
       50
176
     1
 90
        3
176
     1
 62
     5
420
      255
176
     1
290
     0
176
     1
 90
       50
176
     1
 90
       50
176
     1
 90
       50
176
     1
290
     0
176
     1
 90
       50
176
     1
 62
   256
176
     0
 40
1.0
176
     0
 90
        2
176
     1
  1
strokes_ogs.tif
176
     1
290
     0
176
     1
 40
1.0
176
     1
 40
1.0
176
     1
1001
ACAD
1000
AcDbSavedByObjectVersion
1070
     0
  0
VISUALSTYLE
  5
F0
102
{ACAD_REACTORS
330
EF
102
}
330
EF
100
AcDbVisualStyle
  2
Flat
 70
     0
177
     3
291
     1
 70
    58
 90
        2
176
     1
 90
        1
176
     1
 90
        1
176
     1
 90
        2
176
     1
 40
0.6
176
     1
 40
30.0
176
     1
 62
     7
420
 16777215
176
     1
 90
        0
176
     1
 90
        0
176
     1
 62
     7
176
     1
 62
   257
176
     1
 90
        1
176
     1
 90
        1
176
     1
 40
1.0
176
     1
 90
        8
176
     1
 62
     7
176
     1
 40
1.0
176
     1
 90
        1
176
     1
 90
        6
176
     1
 90
        2
176
     1
 62
     7
176
     1
 90
        5
176
     1
 90
        0
176
     1
 90
        0
176
     1
290
     0
176
     1
 90
       13
176
     1
 40
0.0
176
     1
 90
        0
176
     1
290
     0
176
     1
290
     1
176
     1
290
     1
176
     1
290
     0
176
     1
290
     0
176
     1
290
     0
176
     1
290
     0
176
     1
290
     0
176
     1
290
     0
176
     1
 90
       50
176
     1
 40
0.0
176
     1
 40
1.0
176
     1
 90
        0
176
     1
 62
    18
420
        0
176
     1
 90
       50
176
     1
 90
        3
176
     1
 62
     5
420
      255
176
     1
290
     0
176
     1
 90
       50
176
     1
 90
       50
176
     1
 90
       50
176
     1
290
     0
176
     1
 90
       50
176
     1
 62
   256
176
     0
 40
1.0
176
     0
 90
        2
176
     1
  1
strokes_ogs.tif
176
     1
290
     0
176
     1
 40
1.0
176
     1
 40
1.0
176
     1
1001
ACAD
1000
AcDbSavedByObjectVersion
1070
     0
  0
VISUALSTYLE
  5
F1
102
{ACAD_REACTORS
330
EF
102
}
330
EF
100
AcDbVisualStyle
  2
FlatWithEdges
 70
     1
177
     3
291
     1
 70
    58
 90
        2
176
     1
 90
        1
176
     1
 90
        1
176
     1
 90
        2
176
     1
 40
0.6
176
     1
 40
30.0
176
     1
 62
     7
420
 16777215
176
     1
 90
        1
176
     1
 90
        0
176
     1
 62
     7
176
     1
 62
   257
176
     1
 90
        1
176
     1
 90
        1
176
     1
 40
1.0
176
     1
 90
        0
176
     1
 62
   257
176
     1
 40
1.0
176
     1
 90
        1
176
     1
 90
        6
176
     1
 90
        2
176
     1
 62
     7
176
     1
 90
        5
176
     1
 90
        0
176
     1
 90
        0
176
     1
290
     0
176
     1
 90
       13
176
     1
 40
0.0
176
     1
 90
        0
176
     1
290
     0
176
     1
290
     1
176
     1
290
     1
176
     1
290
     0
176
     1
290
     0
176
     1
290
     0
176
     1
290
     0
176
     1
290
     0
176
     1
290
     0
176
     1
 90
       50
176
     1
 40
0.0
176
     1
 40
1.0
176
     1
 90
        0
176
     1
 62
    18
420
        0
176
     1
 90
       50
176
     1
 90
        3
176
     1
 62
     5
420
      255
176
     1
290
     0
176
     1
 90
       50
176
     1
 90
       50
176
     1
 90
       50
176
     1
290
     0
176
     1
 90
       50
176
     1
 62
   256
176
     0
 40
1.0
176
     0
 90
        2
176
     1
  1
strokes_ogs.tif
176
     1
290
     0
176
     1
 40
1.0
176
     1
 40
1.0
176
     1
1001
ACAD
1000
AcDbSavedByObjectVersion
1070
     0
  0
VISUALSTYLE
  5
F2
102
{ACAD_REACTORS
330
EF
102
}
330
EF
100
AcDbVisualStyle
  2
Gouraud
 70
     2
177
     3
291
     1
 70
    58
 90
        2
176
     1
 90
        2
176
     1
 90
        1
176
     1
 90
        2
176
     1
 40
0.6
176
     1
 40
30.0
176
     1
 62
     7
420
 16777215
176
     1
 90
        0
176
     1
 90
        0
176
     1
 62
     7
176
     1
 62
   257
176
     1
 90
        1
176
     1
 90
        1
176
     1
 40
1.0
176
     1
 90
        0
176
     1
 62
     7
176
     1
 40
1.0
176
     1
 90
        1
176
     1
 90
        6
176
     1
 90
        2
176
     1
 62
     7
176
     1
 90
        5
176
     1
 90
        0
176
     1
 90
        0
176
     1
290
     0
176
     1
 90
       13
176
     1
 40
0.0
176
     1
 90
        0
176
     1
290
     0
176
     1
290
     1
176
     1
290
     1
176
     1
290
     0
176
     1
290
     0
176
     1
290
     0
176
     1
290
     0
176
     1
290
     0
176
     1
290
     0
176
     1
 90
       50
176
     1
 40
0.0
176
     1
 40
1.0
176
     1
 90
        0
176
     1
 62
    18
420
        0
176
     1
 90
       50
176
     1
 90
        3
176
     1
 62
     5
420
      255
176
     1
290
     0
176
     1
 90
       50
176
     1
 90
       50
176
     1
 90
       50
176
     1
290
     0
176
     1
 90
       50
176
     1
 62
   256
176
     0
 40
1.0
176
     0
 90
        2
176
     1
  1
strokes_ogs.tif
176
     1
290
     0
176
     1
 40
1.0
176
     1
 40
1.0
176
     1
1001
ACAD
1000
AcDbSavedByObjectVersion
1070
     0
  0
VISUALSTYLE
  5
F3
102
{ACAD_REACTORS
330
EF
102
}
330
EF
100
AcDbVisualStyle
  2
GouraudWithEdges
 70
     3
177
     3
291
     1
 70
    58
 90
        2
176
     1
 90
        2
176
     1
 90
        1
176
     1
 90
        2
176
     1
 40
0.6
176
     1
 40
30.0
176
     1
 62
     7
420
 16777215
176
     1
 90
        1
176
     1
 90
        0
176
     1
 62
     7
176
     1
 62
   257
176
     1
 90
        1
176
     1
 90
        1
176
     1
 40
1.0
176
     1
 90
        0
176
     1
 62
   257
176
     1
 40
1.0
176
     1
 90
        1
176
     1
 90
        6
176
     1
 90
        2
176
     1
 62
     7
176
     1
 90
        5
176
     1
 90
        0
176
     1
 90
        0
176
     1
290
     0
176
     1
 90
       13
176
     1
 40
0.0
176
     1
 90
        0
176
     1
290
     0
176
     1
290
     1
176
     1
290
     1
176
     1
290
     0
176
     1
290
     0
176
     1
290
     0
176
     1
290
     0
176
     1
290
     0
176
     1
290
     0
176
     1
 90
       50
176
     1
 40
0.0
176
     1
 40
1.0
176
     1
 90
        0
176
     1
 62
    18
420
        0
176
     1
 90
       50
176
     1
 90
        3
176
     1
 62
     5
420
      255
176
     1
290
     0
176
     1
 90
       50
176
     1
 90
       50
176
     1
 90
       50
176
     1
290
     0
176
     1
 90
       50
176
     1
 62
   256
176
     0
 40
1.0
176
     0
 90
        2
176
     1
  1
strokes_ogs.tif
176
     1
290
     0
176
     1
 40
1.0
176
     1
 40
1.0
176
     1
1001
ACAD
1000
AcDbSavedByObjectVersion
1070
     0
  0
VISUALSTYLE
  5
F7
102
{ACAD_REACTORS
330
EF
102
}
330
EF
100
AcDbVisualStyle
  2
Hidden
 70
     6
177
     3
291
     0
 70
    58
 90
        1
176
     1
 90
        2
176
     1
 90
        2
176
     1
 90
        0
176
     1
 40
0.6
176
     1
 40
30.0
176
     1
 62
     7
420
 16777215
176
     1
 90
        2
176
     1
 90
        2
176
     1
 62
     7
176
     1
 62
   257
176
     1
 90
        2
176
     1
 90
        1
176
     1
 40
40.0
176
     1
 90
        0
176
     1
 62
   257
176
     1
 40
1.0
176
     1
 90
        1
176
     1
 90
        6
176
     1
 90
        2
176
     1
 62
     7
176
     1
 90
        3
176
     1
 90
        0
176
     1
 90
        0
176
     1
290
     0
176
     1
 90
        1
176
     1
 40
0.0
176
     1
 90
        0
176
     1
290
     0
176
     1
290
     1
176
     1
290
     1
176
     1
290
     0
176
     1
290
     0
176
     1
290
     0
176
     1
290
     0
176
     1
290
     0
176
     1
290
     0
176
     1
 90
       50
176
     1
 40
0.0
176
     1
 40
1.0
176
     1
 90
        0
176
     1
 62
    18
420
        0
176
     1
 90
       50
176
     1
 90
        3
176
     1
 62
     5
420
      255
176
     1
290
     0
176
     1
 90
       50
176
     1
 90
       50
176
     1
 90
       50
176
     1
290
     0
176
     1
 90
       50
176
     1
 62
   256
176
     0
 40
1.0
176
     0
 90
        2
176
     1
  1
strokes_ogs.tif
176
     1
290
     0
176
     1
 40
1.0
176
     1
 40
1.0
176
     1
1001
ACAD
1000
AcDbSavedByObjectVersion
1070
     0
  0
VISUALSTYLE
  5
1E4
102
{ACAD_REACTORS
330
EF
102
}
330
EF
100
AcDbVisualStyle
  2
JitterOff
 70
    20
177
     3
291
     1
 70
    58
 90
        2
176
     0
 90
        2
176
     0
 90
        0
176
     0
 90
        0
176
     0
 40
0.6
176
     0
 40
30.0
176
     0
 62
     7
420
 16777215
176
     0
 90
        1
176
     0
 90
        4
176
     0
 62
     7
176
     0
 62
   257
176
     0
 90
        1
176
     0
 90
        1
176
     0
 40
1.0
176
     0
 90
       10
176
     2
 62
     7
176
     0
 40
1.0
176
     0
 90
        1
176
     0
 90
        6
176
     0
 90
        2
176
     0
 62
     7
176
     0
 90
        5
176
     0
 90
        0
176
     0
 90
        0
176
     0
290
     0
176
     0
 90
        1
176
     0
 40
0.0
176
     0
 90
        0
176
     0
290
     0
176
     1
290
     1
176
     1
290
     1
176
     1
290
     0
176
     1
290
     0
176
     1
290
     0
176
     1
290
     0
176
     1
290
     0
176
     1
290
     0
176
     1
 90
       50
176
     1
 40
0.0
176
     1
 40
1.0
176
     1
 90
        0
176
     1
 62
    18
420
        0
176
     1
 90
       50
176
     1
 90
        3
176
     1
 62
     5
420
      255
176
     1
290
     0
176
     1
 90
       50
176
     1
 90
       50
176
     1
 90
       50
176
     1
290
     0
176
     1
 90
       50
176
     1
 62
   256
176
     0
 40
1.0
176
     0
 90
        2
176
     1
  1
strokes_ogs.tif
176
     1
290
     0
176
     1
 40
1.0
176
     1
 40
1.0
176
     1
1001
ACAD
1000
AcDbSavedByObjectVersion
1070
     0
  0
VISUALSTYLE
  5
FD
102
{ACAD_REACTORS
330
EF
102
}
330
EF
100
AcDbVisualStyle
  2
Linepattern
 70
    14
177
     3
291
     1
 70
    58
 90
        2
176
     1
 90
        2
176
     1
 90
        1
176
     1
 90
        0
176
     1
 40
0.6
176
     1
 40
30.0
176
     1
 62
     7
420
 16777215
176
     1
 90
        1
176
     1
 90
        4
176
     1
 62
     7
176
     1
 62
   257
176
     1
 90
        7
176
     1
 90
        7
176
     1
 40
1.0
176
     1
 90
        8
176
     1
 62
     7
176
     1
 40
1.0
176
     1
 90
        1
176
     1
 90
        6
176
     1
 90
        2
176
     1
 62
     7
176
     1
 90
        5
176
     1
 90
        0
176
     1
 90
        0
176
     1
290
     0
176
     1
 90
        1
176
     1
 40
0.0
176
     1
 90
        0
176
     1
290
     0
176
     1
290
     1
176
     1
290
     1
176
     1
290
     0
176
     1
290
     0
176
     1
290
     0
176
     1
290
     0
176
     1
290
     0
176
     1
290
     0
176
     1
 90
       50
176
     1
 40
0.0
176
     1
 40
1.0
176
     1
 90
        0
176
     1
 62
    18
420
        0
176
     1
 90
       50
176
     1
 90
        3
176
     1
 62
     5
420
      255
176
     1
290
     0
176
     1
 90
       50
176
     1
 90
       50
176
     1
 90
       50
176
     1
290
     0
176
     1
 90
       50
176
     1
 62
   256
176
     0
 40
1.0
176
     0
 90
        2
176
     1
  1
strokes_ogs.tif
176
     1
290
     0
176
     1
 40
1.0
176
     1
 40
1.0
176
     1
1001
ACAD
1000
AcDbSavedByObjectVersion
1070
     0
  0
VISUALSTYLE
  5
1E5
102
{ACAD_REACTORS
330
EF
102
}
330
EF
100
AcDbVisualStyle
  2
OverhangOff
 70
    21
177
     3
291
     1
 70
    58
 90
        2
176
     0
 90
        2
176
     0
 90
        0
176
     0
 90
        0
176
     0
 40
0.6
176
     0
 40
30.0
176
     0
 62
     7
420
 16777215
176
     0
 90
        1
176
     0
 90
        4
176
     0
 62
     7
176
     0
 62
   257
176
     0
 90
        1
176
     0
 90
        1
176
     0
 40
1.0
176
     0
 90
        9
176
     2
 62
     7
176
     0
 40
1.0
176
     0
 90
        1
176
     0
 90
        6
176
     0
 90
        2
176
     0
 62
     7
176
     0
 90
        5
176
     0
 90
        0
176
     0
 90
        0
176
     0
290
     0
176
     0
 90
        1
176
     0
 40
0.0
176
     0
 90
        0
176
     0
290
     0
176
     1
290
     1
176
     1
290
     1
176
     1
290
     0
176
     1
290
     0
176
     1
290
     0
176
     1
290
     0
176
     1
290
     0
176
     1
290
     0
176
     1
 90
       50
176
     1
 40
0.0
176
     1
 40
1.0
176
     1
 90
        0
176
     1
 62
    18
420
        0
176
     1
 90
       50
176
     1
 90
        3
176
     1
 62
     5
420
      255
176
     1
290
     0
176
     1
 90
       50
176
     1
 90
       50
176
     1
 90
       50
176
     1
290
     0
176
     1
 90
       50
176
     1
 62
   256
176
     0
 40
1.0
176
     0
 90
        2
176
     1
  1
strokes_ogs.tif
176
     1
290
     0
176
     1
 40
1.0
176
     1
 40
1.0
176
     1
1001
ACAD
1000
AcDbSavedByObjectVersion
1070
     0
  0
VISUALSTYLE
  5
F9
102
{ACAD_REACTORS
330
EF
102
}
330
EF
100
AcDbVisualStyle
  2
Realistic
 70
     8
177
     3
291
     0
 70
    58
 90
        2
176
     1
 90
        3
176
     1
 90
        0
176
     1
 90
        2
176
     1
 40
0.6
176
     1
 40
30.0
176
     1
 62
     7
420
 16777215
176
     1
 90
        0
176
     1
 90
        0
176
     1
 62
     7
176
     1
 62
   257
176
     1
 90
        1
176
     1
 90
        1
176
     1
 40
1.0
176
     1
 90
        8
176
     1
 62
   257
176
     1
 40
1.0
176
     1
 90
        1
176
     1
 90
        6
176
     1
 90
        2
176
     1
 62
     7
176
     1
 90
        3
176
     1
 90
        0
176
     1
 90
        0
176
     1
290
     0
176
     1
 90
       13
176
     1
 40
0.0
176
     1
 90
        0
176
     1
290
     0
176
     1
290
     1
176
     1
290
     1
176
     1
290
     0
176
     1
290
     0
176
     1
290
     0
176
     1
290
     0
176
     1
290
     0
176
     1
290
     0
176
     1
 90
       50
176
     1
 40
0.0
176
     1
 40
1.0
176
     1
 90
        0
176
     1
 62
    18
420
        0
176
     1
 90
       50
176
     1
 90
        3
176
     1
 62
     5
420
      255
176
     1
290
     0
176
     1
 90
       50
176
     1
 90
       50
176
     1
 90
       50
176
     1
290
     0
176
     1
 90
       50
176
     1
 62
   256
176
     0
 40
1.0
176
     0
 90
        2
176
     1
  1
strokes_ogs.tif
176
     1
290
     0
176
     1
 40
1.0
176
     1
 40
1.0
176
     1
1001
ACAD
1000
AcDbSavedByObjectVersion
1070
     0
  0
VISUALSTYLE
  5
1F3
102
{ACAD_REACTORS
330
EF
102
}
330
EF
100
AcDbVisualStyle
  2
Shaded
 70
    27
177
     3
291
     0
 70
    58
 90
        2
176
     1
 90
        2
176
     1
 90
        1
176
     1
 90
        2
176
     1
 40
0.6
176
     1
 40
30.0
176
     1
 62
     7
420
 16777215
176
     1
 90
        0
176
     1
 90
        4
176
     1
 62
     7
176
     1
 62
   257
176
     1
 90
        1
176
     1
 90
        1
176
     1
 40
1.0
176
     1
 90
        8
176
     1
 62
   257
176
     1
 40
1.0
176
     1
 90
        1
176
     1
 90
        6
176
     1
 90
        2
176
     1
 62
     8
420
  7895160
176
     1
 90
        3
176
     1
 90
        0
176
     1
 90
        0
176
     1
290
     0
176
     1
 90
        5
176
     1
 40
0.0
176
     1
 90
        0
176
     1
290
     0
176
     1
290
     1
176
     1
290
     1
176
     1
290
     0
176
     1
290
     0
176
     1
290
     0
176
     1
290
     0
176
     1
290
     0
176
     1
290
     0
176
     1
 90
       50
176
     1
 40
0.0
176
     1
 40
1.0
176
     1
 90
        0
176
     1
 62
    18
420
        0
176
     1
 90
       50
176
     1
 90
        3
176
     1
 62
     5
420
      255
176
     1
290
     0
176
     1
 90
       50
176
     1
 90
       50
176
     1
 90
       50
176
     1
290
     0
176
     1
 90
       50
176
     1
 62
   256
176
     0
 40
1.0
176
     0
 90
        2
176
     1
  1
strokes_ogs.tif
176
     1
290
     0
176
     1
 40
1.0
176
     1
 40
1.0
176
     1
1001
ACAD
1000
AcDbSavedByObjectVersion
1070
     0
  0
VISUALSTYLE
  5
1F2
102
{ACAD_REACTORS
330
EF
102
}
330
EF
100
AcDbVisualStyle
  2
Shaded with edges
 70
    26
177
     3
291
     0
 70
    58
 90
        2
176
     1
 90
        2
176
     1
 90
        1
176
     1
 90
        2
176
     1
 40
0.6
176
     1
 40
30.0
176
     1
 62
     7
420
 16777215
176
     1
 90
        1
176
     1
 90
        2
176
     1
 62
     7
176
     1
 62
   257
176
     1
 90
        2
176
     1
 90
        1
176
     1
 40
1.0
176
     1
 90
        8
176
     1
 62
   257
176
     1
 40
1.0
176
     1
 90
        1
176
     1
 90
        6
176
     1
 90
        2
176
     1
 62
     7
176
     1
 90
        3
176
     1
 90
        0
176
     1
 90
        0
176
     1
290
     0
176
     1
 90
        5
176
     1
 40
0.0
176
     1
 90
        0
176
     1
290
     0
176
     1
290
     1
176
     1
290
     1
176
     1
290
     0
176
     1
290
     0
176
     1
290
     0
176
     1
290
     0
176
     1
290
     0
176
     1
290
     0
176
     1
 90
       50
176
     1
 40
0.0
176
     1
 40
1.0
176
     1
 90
        0
176
     1
 62
    18
420
        0
176
     1
 90
       50
176
     1
 90
        3
176
     1
 62
     5
420
      255
176
     1
290
     0
176
     1
 90
       50
176
     1
 90
       50
176
     1
 90
       50
176
     1
290
     0
176
     1
 90
       50
176
     1
 62
   256
176
     0
 40
1.0
176
     0
 90
        2
176
     1
  1
strokes_ogs.tif
176
     1
290
     0
176
     1
 40
1.0
176
     1
 40
1.0
176
     1
1001
ACAD
1000
AcDbSavedByObjectVersion
1070
     0
  0
VISUALSTYLE
  5
1EF
102
{ACAD_REACTORS
330
EF
102
}
330
EF
100
AcDbVisualStyle
  2
Shades of Gray
 70
    23
177
     3
291
     0
 70
    58
 90
        2
176
     1
 90
        2
176
     1
 90
        3
176
     1
 90
        0
176
     1
 40
0.6
176
     1
 40
30.0
176
     1
 62
     7
420
 16777215
176
     1
 90
        2
176
     1
 90
        2
176
     1
 62
     7
176
     1
 62
     7
176
     1
 90
        1
176
     1
 90
        1
176
     1
 40
40.0
176
     1
 90
        8
176
     1
 62
     7
176
     1
 40
1.0
176
     1
 90
        1
176
     1
 90
        6
176
     1
 90
        2
176
     1
 62
     7
176
     1
 90
        3
176
     1
 90
        0
176
     1
 90
        0
176
     1
290
     0
176
     1
 90
        1
176
     1
 40
0.0
176
     1
 90
        0
176
     1
290
     0
176
     1
290
     1
176
     1
290
     1
176
     1
290
     0
176
     1
290
     0
176
     1
290
     0
176
     1
290
     0
176
     1
290
     0
176
     1
290
     0
176
     1
 90
       50
176
     1
 40
0.0
176
     1
 40
1.0
176
     1
 90
        0
176
     1
 62
    18
420
        0
176
     1
 90
       50
176
     1
 90
        3
176
     1
 62
     5
420
      255
176
     1
290
     0
176
     1
 90
       50
176
     1
 90
       50
176
     1
 90
       50
176
     1
290
     0
176
     1
 90
       50
176
     1
 62
   256
176
     0
 40
1.0
176
     0
 90
        2
176
     1
  1
strokes_ogs.tif
176
     1
290
     0
176
     1
 40
1.0
176
     1
 40
1.0
176
     1
1001
ACAD
1000
AcDbSavedByObjectVersion
1070
     0
  0
VISUALSTYLE
  5
1F0
102
{ACAD_REACTORS
330
EF
102
}
330
EF
100
AcDbVisualStyle
  2
Sketchy
 70
    24
177
     3
291
     0
 70
    58
 90
        1
176
     1
 90
        2
176
     1
 90
        2
176
     1
 90
        0
176
     1
 40
0.6
176
     1
 40
30.0
176
     1
 62
     7
420
 16777215
176
     1
 90
        2
176
     1
 90
        2
176
     1
 62
     7
176
     1
 62
     7
176
     1
 90
        1
176
     1
 90
        1
176
     1
 40
40.0
176
     1
 90
       11
176
     1
 62
     7
176
     1
 40
1.0
176
     1
 90
        1
176
     1
 90
        6
176
     1
 90
        2
176
     1
 62
     7
176
     1
 90
        6
176
     1
 90
        0
176
     1
 90
        0
176
     1
290
     0
176
     1
 90
        1
176
     1
 40
0.0
176
     1
 90
        0
176
     1
290
     0
176
     1
290
     1
176
     1
290
     1
176
     1
290
     0
176
     1
290
     0
176
     1
290
     0
176
     1
290
     0
176
     1
290
     0
176
     1
290
     0
176
     1
 90
       50
176
     1
 40
0.0
176
     1
 40
1.0
176
     1
 90
        0
176
     1
 62
    18
420
        0
176
     1
 90
       50
176
     1
 90
        3
176
     1
 62
     5
420
      255
176
     1
290
     0
176
     1
 90
       50
176
     1
 90
       50
176
     1
 90
       50
176
     1
290
     0
176
     1
 90
       50
176
     1
 62
   256
176
     0
 40
1.0
176
     0
 90
        2
176
     1
  1
strokes_ogs.tif
176
     1
290
     0
176
     1
 40
1.0
176
     1
 40
1.0
176
     1
1001
ACAD
1000
AcDbSavedByObjectVersion
1070
     0
  0
VISUALSTYLE
  5
FC
102
{ACAD_REACTORS
330
EF
102
}
330
EF
100
AcDbVisualStyle
  2
Thicken
 70
    13
177
     3
291
     1
 70
    58
 90
        2
176
     1
 90
        2
176
     1
 90
        1
176
     1
 90
        0
176
     1
 40
0.6
176
     1
 40
30.0
176
     1
 62
     7
420
 16777215
176
     1
 90
        1
176
     1
 90
        4
176
     1
 62
     7
176
     1
 62
   257
176
     1
 90
        1
176
     1
 90
        1
176
     1
 40
1.0
176
     1
 90
       12
176
     1
 62
     7
176
     1
 40
1.0
176
     1
 90
        1
176
     1
 90
        6
176
     1
 90
        2
176
     1
 62
     7
176
     1
 90
        5
176
     1
 90
        0
176
     1
 90
        0
176
     1
290
     0
176
     1
 90
        1
176
     1
 40
0.0
176
     1
 90
        0
176
     1
290
     0
176
     1
290
     1
176
     1
290
     1
176
     1
290
     0
176
     1
290
     0
176
     1
290
     0
176
     1
290
     0
176
     1
290
     0
176
     1
290
     0
176
     1
 90
       50
176
     1
 40
0.0
176
     1
 40
1.0
176
     1
 90
        0
176
     1
 62
    18
420
        0
176
     1
 90
       50
176
     1
 90
        3
176
     1
 62
     5
420
      255
176
     1
290
     0
176
     1
 90
       50
176
     1
 90
       50
176
     1
 90
       50
176
     1
290
     0
176
     1
 90
       50
176
     1
 62
   256
176
     0
 40
1.0
176
     0
 90
        2
176
     1
  1
strokes_ogs.tif
176
     1
290
     0
176
     1
 40
1.0
176
     1
 40
1.0
176
     1
1001
ACAD
1000
AcDbSavedByObjectVersion
1070
     0
  0
VISUALSTYLE
  5
F6
102
{ACAD_REACTORS
330
EF
102
}
330
EF
100
AcDbVisualStyle
  2
Wireframe
 70
     5
177
     3
291
     0
 70
    58
 90
        0
176
     1
 90
        2
176
     1
 90
        0
176
     1
 90
        0
176
     1
 40
0.6
176
     1
 40
30.0
176
     1
 62
     7
420
 16777215
176
     1
 90
        1
176
     1
 90
        4
176
     1
 62
     7
176
     1
 62
   257
176
     1
 90
        1
176
     1
 90
        1
176
     1
 40
1.0
176
     1
 90
        0
176
     1
 62
   257
176
     1
 40
1.0
176
     1
 90
        1
176
     1
 90
        6
176
     1
 90
        2
176
     1
 62
     7
176
     1
 90
        3
176
     1
 90
        0
176
     1
 90
        0
176
     1
290
     0
176
     1
 90
        1
176
     1
 40
0.0
176
     1
 90
        0
176
     1
290
     0
176
     1
290
     1
176
     1
290
     1
176
     1
290
     0
176
     1
290
     0
176
     1
290
     0
176
     1
290
     0
176
     1
290
     0
176
     1
290
     0
176
     1
 90
       50
176
     1
 40
0.0
176
     1
 40
1.0
176
     1
 90
        0
176
     1
 62
    18
420
        0
176
     1
 90
       50
176
     1
 90
        3
176
     1
 62
     5
420
      255
176
     1
290
     0
176
     1
 90
       50
176
     1
 90
       50
176
     1
 90
       50
176
     1
290
     0
176
     1
 90
       50
176
     1
 62
   256
176
     0
 40
1.0
176
     0
 90
        2
176
     1
  1
strokes_ogs.tif
176
     1
290
     0
176
     1
 40
1.0
176
     1
 40
1.0
176
     1
1001
ACAD
1000
AcDbSavedByObjectVersion
1070
     0
  0
VISUALSTYLE
  5
1F1
102
{ACAD_REACTORS
330
EF
102
}
330
EF
100
AcDbVisualStyle
  2
X-Ray
 70
    25
177
     3
291
     0
 70
    58
 90
        2
176
     1
 90
        2
176
     1
 90
        1
176
     1
 90
        1
176
     1
 40
0.5
176
     1
 40
30.0
176
     1
 62
     7
420
 16777215
176
     1
 90
        1
176
     1
 90
        0
176
     1
 62
     7
176
     1
 62
   257
176
     1
 90
        1
176
     1
 90
        1
176
     1
 40
1.0
176
     1
 90
        8
176
     1
 62
     7
176
     1
 40
1.0
176
     1
 90
        1
176
     1
 90
        6
176
     1
 90
        2
176
     1
 62
     7
176
     1
 90
        3
176
     1
 90
        0
176
     1
 90
        0
176
     1
290
     0
176
     1
 90
       13
176
     1
 40
0.0
176
     1
 90
        0
176
     1
290
     0
176
     1
290
     1
176
     1
290
     1
176
     1
290
     0
176
     1
290
     0
176
     1
290
     0
176
     1
290
     0
176
     1
290
     0
176
     1
290
     0
176
     1
 90
       50
176
     1
 40
0.0
176
     1
 40
1.0
176
     1
 90
        0
176
     1
 62
    18
420
        0
176
     1
 90
       50
176
     1
 90
        3
176
     1
 62
     5
420
      255
176
     1
290
     0
176
     1
 90
       50
176
     1
 90
       50
176
     1
 90
       50
176
     1
290
     0
176
     1
 90
       50
176
     1
 62
   256
176
     0
 40
1.0
176
     0
 90
        2
176
     1
  1
strokes_ogs.tif
176
     1
290
     0
176
     1
 40
1.0
176
     1
 40
1.0
176
     1
1001
ACAD
1000
AcDbSavedByObjectVersion
1070
     0
  0
DICTIONARYVAR
  5
146
102
{ACAD_REACTORS
330
5E
102
}
330
5E
100
DictionaryVariables
280
     0
  1
1:1
  0
DICTIONARYVAR
  5
259
102
{ACAD_REACTORS
330
5E
102
}
330
5E
100
DictionaryVariables
280
     0
  1
3.500000
  0
DICTIONARYVAR
  5
25A
102
{ACAD_REACTORS
330
5E
102
}
330
5E
100
DictionaryVariables
280
     0
  1
acadiso.lin
  0
DICTIONARYVAR
  5
145
102
{ACAD_REACTORS
330
5E
102
}
330
5E
100
DictionaryVariables
280
     0
  1
STANDARD
  0
DICTIONARYVAR
  5
84
102
{ACAD_REACTORS
330
5E
102
}
330
5E
100
DictionaryVariables
280
     0
  1
STANDARD
  0
DICTIONARYVAR
  5
227
102
{ACAD_REACTORS
330
5E
102
}
330
5E
100
DictionaryVariables
280
     0
  1
Metric50
  0
DICTIONARYVAR
  5
228
102
{ACAD_REACTORS
330
5E
102
}
330
5E
100
DictionaryVariables
280
     0
  1
Metric50
  0
DICTIONARYVAR
  5
5F
102
{ACAD_REACTORS
330
5E
102
}
330
5E
100
DictionaryVariables
280
     0
  1
2
  0
DICTIONARYVAR
  5
63
102
{ACAD_REACTORS
330
5E
102
}
330
5E
100
DictionaryVariables
280
     0
  1
1
  0
DICTIONARYVAR
  5
1AE
102
{ACAD_REACTORS
330
5E
102
}
330
5E
100
DictionaryVariables
280
     0
  1
0
  0
DICTIONARYVAR
  5
1AF
102
{ACAD_REACTORS
330
5E
102
}
330
5E
100
DictionaryVariables
280
     0
  1
0
  0
DICTIONARY
  5
5F2
102
{ACAD_REACTORS
330
5F0
102
}
330
5F0
100
AcDbDictionary
281
     1
  0
DICTIONARY
  5
5F1
102
{ACAD_REACTORS
330
5F0
102
}
330
5F0
100
AcDbDictionary
281
     1
  3
2313672572336
350
5EB
  3
2313672572352
350
5EC
  3
2313672572368
350
5ED
  3
2313672572384
350
5EE
  3
2313672572400
350
5EF
  0
DICTIONARY
  5
5F9
330
28F
100
AcDbDictionary
280
     1
281
     1
  3
ACAD_XREC_ROUNDTRIP
360
5FA
  0
DICTIONARY
  5
5F5
330
21C
100
AcDbDictionary
280
     1
281
     1
  3
ACAD_XREC_ROUNDTRIP
360
5F6
  0
DICTIONARY
  5
205
330
22
100
AcDbDictionary
280
     1
281
     1
  0
DICTIONARY
  5
1F9
330
ED
100
AcDbDictionary
280
     1
281
     1
  3
FBXASSET
360
1FA
  0
DICTIONARY
  5
1F7
330
EC
100
AcDbDictionary
280
     1
281
     1
  3
FBXASSET
360
1F8
  0
DICTIONARY
  5
173
330
EE
100
AcDbDictionary
280
     1
281
     1
  3
BUMPTILE
360
175
  3
DIFFUSETILE
360
174
  3
FBXASSET
360
1FB
  3
OPACITYTILE
360
176
  3
REFLECTIONTILE
360
177
  0
DICTIONARY
  5
5F7
330
28E
100
AcDbDictionary
280
     1
281
     1
  3
ACAD_XREC_ROUNDTRIP
360
5F8
  0
DICTIONARY
  5
5F3
330
21A
100
AcDbDictionary
280
     1
281
     1
  3
ACAD_XREC_ROUNDTRIP
360
5F4
  0
DICTIONARY
  5
162
330
7F
100
AcDbDictionary
280
     1
281
     1
  3
ACAD_ROUNDTRIP_2008_TABLESTYLE_CELLSTYLEMAP
360
5E9
  0
XRECORD
  5
5EB
102
{ACAD_REACTORS
330
5F1
102
}
330
5F1
100
AcDbXrecord
280
     1
  1
AcDb_Thumbnail_Schema
102
{ATTRRECORD
341
5EC
  2
AcDbDs::TreatedAsObjectData
280
     1
291
     1
102
ATTRRECORD}
102
{ATTRRECORD
341
5ED
  2
AcDbDs::Legacy
280
     1
291
     1
102
ATTRRECORD}
  2
AcDbDs::ID
280
    10
 91
        8
102
{ATTRRECORD
341
5EE
  2
AcDs:Indexable
280
     1
291
     1
102
ATTRRECORD}
102
{ATTRRECORD
341
5EF
  2
AcDbDs::HandleAttribute
280
     7
282
     1
102
ATTRRECORD}
  2
Thumbnail_Data
280
    15
 91
        0
  0
XRECORD
  5
5EC
102
{ACAD_REACTORS
330
5F1
102
}
330
5F1
100
AcDbXrecord
280
     1
  1
AcDbDs::TreatedAsObjectDataSchema
  2
AcDbDs::TreatedAsObjectData
280
     1
 91
        0
  0
XRECORD
  5
5ED
102
{ACAD_REACTORS
330
5F1
102
}
330
5F1
100
AcDbXrecord
280
     1
  1
AcDbDs::LegacySchema
  2
AcDbDs::Legacy
280
     1
 91
        0
  0
XRECORD
  5
5EE
102
{ACAD_REACTORS
330
5F1
102
}
330
5F1
100
AcDbXrecord
280
     1
  1
AcDbDs::IndexedPropertySchema
  2
AcDs:Indexable
280
     1
 91
        0
  0
XRECORD
  5
5EF
102
{ACAD_REACTORS
330
5F1
102
}
330
5F1
100
AcDbXrecord
280
     1
  1
AcDbDs::HandleAttributeSchema
  2
AcDbDs::HandleAttribute
280
     7
 91
        1
284
     1
  0
XRECORD
  5
5FA
102
{ACAD_REACTORS
330
5F9
102
}
330
5F9
100
AcDbXrecord
280
     1
102
DISPLAYNAME
  1
Imperial24
102
FLAGS
 90
        0
  0
XRECORD
  5
5F6
102
{ACAD_REACTORS
330
5F5
102
}
330
5F5
100
AcDbXrecord
280
     1
102
DISPLAYNAME
  1
Metric50
102
FLAGS
 90
        0
  0
XRECORD
  5
1FA
102
{ACAD_REACTORS
330
1F9
102
}
330
1F9
100
AcDbXrecord
280
     1
 70
     1
 90
429727718
  1
D62C5603-E3A1-4AEA-B7FB-FE5D8D0755AF
310
504B03040A0000080000CC70623B3DEE336E79000000790000001B0000006175746F6465736B2D64657369676E2D7061636B6167652E786D6C3C3F786D6C2076657273696F6E3D22312E302220656E636F64696E673D227574662D3822203F3E3C666F726D6174733E3C666F726D61743E687474703A2F2F736368656D612E
310
6175746F6465736B2E636F6D2F64657369676E2D7061636B6167652F323030393C2F666F726D61743E3C2F666F726D6174733E504B0304140006080800CC70623BD486FD9CA0000000F4000000130000005B436F6E74656E745F54797065735D2E786D6C7D8EC10E82300C865F65E91D8A1E8C310C0EEA1BF002731658846E
310
D98AC1B77784ABF1D8FE5FBFBF75BBCE937A534CCEB38643598122B6FEE978D0B0485F9C41B54DDD7D022595594E1A469170414C76A4D9A4D207E29CF43ECE46F218070CC6BECC4078ACAA135ACF422C856C0E68EA1BF5669944DDD7BCDE7B1F8E415D77AECB980613C2E4AC91FC167A2B244592486606FC29C8FD7F045B9A
310
EF7053A7E60B504B0304140006080800CC70623B853B8169EB0000007C01000008000000636F72652E786D6C8D90416EC3201045AF62CDB6C206821CC7C244919D9CA01740401C94182C03558F5F9C3852BBEB6A467FFE9B197D7EFC9E1EC5975982F5AE035262288C535E5B377690E21535501C055FBC8FBF6C503839990E
310
5619041F179FE64D52DE45E362569DD7661365082642A11EB9E920A89B99642953CC8E702F67A9EE7234257977194EC9EAE275C4EABCCF5EAD5940D4AC6F0E35A568B8F43562CD7046CD199FD07E60174276A7BE677B5EADB0E0D14EEFFB6A31321A0D82627C4084204C3F096B71DD52F6819B16635EADF63F509AF53FA164
310
5DDCD1EDDD17164090FCC8732078B56691CB33A85CD7DCC40F504B0304140006080800CC70623B55019EA25F0000007C00000007000000636E782E786D6C4DCB3B0E80201045D1AD90E915ED2CF8AC45050C11660C8261F98AB1B07AC9C97D42D718D865D3E909258CFD00CCE24AC6E326A164D74DC0B4128928FF32603847
310
2BA13128B1252AC747C6BAB984FC68F0B87FE8960A5C09FE86CFB69FBA01504B0304140006080800CC70623BDBABAAF470010000D40300000C0000006662782F636F72652E786D6CC553D16E823014FD95A6AF4B694182CC941A83FA05FB810A9511A125A5257EFE2E82712ECEB8A7F100CD39F7F69E734AF9FADC366850B6
310
AF8DCE7018308C942E4C59EB2AC3DE1D498AD15A706B8CFB56869196ADCAF00863C12B6B7C374385D14E6907A836A59A41D9F7CA615434B0C8705F7CAA5606D23BA8E84F41278B93AC54100640439DE0BDB320004D43C63716C7C399D30917DCFBBA9CD9BA8469F5B156168B24CED3F7248AC8769F27244EB73B92EED8862C
310
B7F13E0C179B3C8F979C8ECD82BBBABDAA2BAC924E9558448CBD9330242CFA08E3154B5651FCC6D215639C8EE5774DBE2B5F6CF2B5768B68963BB5F5588420E442FC700B1139D4CB01F450C1E918227C2E09DF070D8140C84E1E9AAB8F1340832A9CB13130A5F1376A908D57309505ECF2A0DF179C4E9D30F5B239B87E3823
310
7A79C6F31DE1A8A5AEC08474B03C7837EAE4938639B44E5932B833D2C6B6B279CDC613877FA26EE21F4A2A4C63EC7F29A2F301D1F9F7A0E37D145F504B0304140006080800CC70623B9C113CC27E0000009D0000000B0000006662782F636E782E786D6C4DCCDF0A83201C86E15B91DFB94BFB330DD428C8FB886521330DA7
310
6397BF1A1DECE883878F57749FCDA1B7892F1BBC047A23808C7F84D9FA55424E0BE6803A256208E9EF06C84F9B91703228B1C690F78B66B34CD9A5439DF5CF0BFBF65E35BCA1B8D6A5C6F540381E886698B5741C695F9503EBA150A2F8958E3DC3EA0B504B0304140006080800CC70623B7DF2F77C2A010000120200003100
310
00006662782F41393633353835312D344632462D344230382D423046372D3739314545314133324237412F636F72652E786D6C8D51DB8EC22014FC15C2939B0D2DB4B45643319AE817EC0F6041255A68B86CFCFC856D4D76DF7CE190393373060EDB3DC707F856CE6B6B7A480A0C81328395DA5C7B18C3057510EC3873D686
310
3F34088C18550F330C39BB3A1BA7051AAC09CA84841A2BD5020AEF55806078A44B0FFD7053A328440C89E1EFC52486BBB8AA8214A99D789CF9E05200300FC927E4FB4D5B375D43103D5527440FB843077C5AA3F5861C8F645F5787F59E95B390B318B55CE45AA638FAA2957BD7248B390B7A7CC51F9C124149C82B8C378810
310
84AB2F42B7B8DD56F413775B8C5999E9FF4471926F8AA236A1AE96B8B3CC434E5839373893369E1FAF30EA395917409EB7F26AF8801C171837A4A6AC9C89E9F9C9B1A58BA30FD6A5EF5DDDCF894B9AD9B6A59C957943A9FCAE2FD5BC4DFE03504B0304140006080800CC70623BAD7543B64E01000033030000300000006662
310
782F41393633353835312D344632462D344230382D423046372D3739314545314133324237412F636E782E786D6CD593CD6EC32010845F0571AD6CE3D48AD20813A9873E410FBD12D82434182C7EAAE6EDBB2424CD25871E7B41D6EC30B3FA84F9E67BB2E40B4234DE8DB46F1925E094D7C6ED479AD3AE5951B2113C789FEE
310
6C943839C1488B4C05DF079FE72A69D8C96C13AAD6B8631503449F83828872B949AC57D26200B826A308D316B4064D6E46FCDA41C05550DC9E483A00797BFD207EFB092A45DE9514C1BBD22178396BD39D891265658C238DEA00936C654E5E433CB65A26D9F6EDB5EBC14EBF49A45CB856E66048291F6939A9A81BB5C89177
310
38143CA680F4AA299D66A042CEB3354A2684DC9D8D178FE0D9B8B41CAAD720F880EE7EF93C0C18769E099ECC04D5A102C8049A8A05632F4DDF376CF1DE0F6BB65C2F8627B65A33C6BB62177CEBBDAD973006829F89F22E814B54F4BC2BE347F8AA8F681390B50FA73F804400B5F542E796F19FF974E7F78DB802FE05E20750
310
4B0304140006080800CC70623BE75B7789680500003C100000340000006662782F41393633353835312D344632462D344230382D423046372D3739314545314133324237412F6F626A656374732E786D6CAD575B8F9B3818FD2B887D06C22499CB8AA1CA655245D5B455A356FB305264C061D8018C6C3393D95FBFC7600890
310
A4CD5EF210B0B1BFEBF98E3F7B1FF6596ABC522E1296DF9BAE3D320D9A872C4AF2F8DE2CE5CEBA358D0FBEC719939D65A691938CDE9B6ADAF4BD98B3B2D05311DD91329583D9D5FC0F438434A7A611A644887B5384CF34233629258BA878B12322891DEFF6B66BD70BFB62634E8AE781D082709A4B588AF91C528CDA28B73F
310
1C998EEF39EABBEFA97FBD6A7C7E9553F9D3D79FE442923C3C523610337627CB87ABE99D359D4CC6D6E4FACAB5E6ABF9D2726FC6A3C5F56271377BB88362213924694B38DD99FE47C48627A1E7D49F5A8BB5E1A74C0A599ED3B0F21F1E56366B89112D681E218F0915D0D6F17AD41FBA2A369DCF6335D62ABBD39779D5DDD1
310
11D4D8DE3CBB96B2E04FB8202E41051754A1AA8E8F76B4C6DFE810B580B1547F4B84911149794252234D024EF8BBE963A95AE27B3D310A9D5C215C7960FAEE415ED75694C6AFB17BCACA5D99A60A9AA65F217B0BFC53292ACB92BF283FAD0D3621576592CB5BED907C2FA8E9DF794E35E97BEA31BED21FEB401ABB94C44839
310
DCACBF0E1C5DA8DA5B2F4DFFD32AD86F543D9E565E7056502E157C00AD2671CD534549AB752FCA9CDA00677A313F04E51B22FF19E57B300579E3C97EB29F682D92935CEC18CF901B7B54FD8C51F362B56FC72FE0B3C1EAE335EDCCBF5AEC39ADB17DC238973F804BA5E6F6BFE7AF1FB32E523BE9F3BD571418E3631DCA4D48
310
5250CF639223210A9446CA30052EDF057BD35F8329C1ECD84552BF0DC8D18BE7BCE23BFE6BD960AB4A7DE79923A103BEBD80F911CBAA2C60DB19B01CF164A5583B772EE6D3FFA56666CBCDA74DC97724A48F9A58967497E489C4D979006FD7A05E227A1EBDD0F737C623387A9C844D3709995625106D157315F8B8392CD4E0
310
A0B9A720C4BE9829CEF37EA1E13111214D53925356365ADA634861B52519DD27A00AEB808EAF0628E6F435519D446F45CF2C9CF5214F0A15B2F6D06B79DA3EE3CBF7F56780D2F4E7EF73A0F5E5B02A38D07DC852C6B7C1FBB6664213E0C39E3EBA7FF4E1AD23EA2829407C85E586727488B751B2DB9502BC7B228A3FD68B6E
310
A65A22397E690AA8D158D7E404EC8CDA235CC3B7D1898680131CEC2CDF2638C65196279577750F15884AEE19F94199155B92B13297978469D4F8D358DF0AEF7631E28DC8F0D9F437D5D39A83B2231A1D52D543813A824EF8D44BCFF2FA6A31BD1E8DAD87F1CCB526B3879935BF59CDADD5C37479BB1CDD4CA7B3556B516589
310
EF352754B706114D9C885EC9131DE6EFEB43D99AFE2391C2F958179413D7CFEF6B1B6DB1E7600F00DE6E5C67454A339A4BA2E0FBA85ED26F045D454F463DBFCE484C2F90F2E5E3666003662ED8F755951A7D1BECD5B30B550B2785C8E7320B7292A4838DDA71BBC863ED7613CAF659337A3354231D4FF4A182A54904C2898C
310
98B28C4AD0CE056CCF332A80986E571EE9DBC305BB5FEB7E509220A58D25CF042D712A806AC0AD0C657FDEF80D2D9CEAA2EE4D1C76F60BFE74219A06527D6F82DF6412526107381E55E353090704D085B52408A8913C4ED159D79BDA71BB4BC506F4831350EB6F975CD22D69BF7AC49B91A2C0A9DDA3D5CA36AD20FC478E37
310
E61844E2352865EBCB61A275A65283CAAA9DD27703B4102F5AF51EF5F573B75CBB5AD38BC845F7A49F82A0966A49C2E3EA5EA0ECD326CD965F1DB402C6FA8B51A4658C5C5E2EC9E214602E55810345408596591009A82E7E7FFACA19EEA299B14A0081A705CB3296EBC14CDF658DCD336EA6D1136881AAEB87B81AB9EE53D5
310
F5EB8BC8362082DA24122F98680A4E7930C01A0079749CEA14382A0783E5EBA5A10F8C098456A03D6A4AEB6BB881E2513747552A5DB22C7EDAF83BD5528081A365F7FF06504B0304140006080000CC70623B000000000000000000000000350000006662782F41393633353835312D344632462D344230382D423046372D37
310
39314545314133324237412F76657274696365732E62696E504B0304140006080800CC70623BF270F1330600000004000000360000006662782F41393633353835312D344632462D344230382D423046372D3739314545314133324237412F747269616E676C65732E62696E636660600000504B0304140006080000CC7062
310
3B000000000000000000000000370000006662782F41393633353835312D344632462D344230382D423046372D3739314545314133324237412F617474726962757465732E62696E504B0304140006080800CC70623B08DA0BD19000000041010000360000006662782F41393633353835312D344632462D344230382D4230
310
46372D3739314545314133324237412F6469726563746F72792E786D6C858F410AC3201045AF22B36F53E9A60B35CBEEBAE80D244E44489C6234F4F835464A48035D0DF398FF9F8AF63D0E6CC63039F212F8F9020C7D47C6792B21C5FE7403D62A1188E2E60C98D7234A5830286103A55745067B9D86B8A3CF9C7F90C11DE6
310
07FB144396D7B6A82D282E9A152AD114D5EF2CB866EEE831B8EEA07A7BB5A8D7D61A2BAAEB7FD5F70921FF497D00504B0304140006080800CC70623BEDD1DC58FD000000A00100003B0000006662782F41393633353835312D344632462D344230382D423046372D3739314545314133324237412F7265736F75726365732F
310
636F72652E786D6C8D504B6E833010BD0A9A6D65B00922041947112427E8052C33A156828DFCA97AFC9A40A576D7CDCCE87D344F8F9FBFE667F689CE6B6B3A6039850C8DB2A336530731DC4903D95970676DF82583CCC8193B5861107C72362E3BA4AC096842428D1D7107A5F7182053CF7474E0D507CE32973124857FE48B
310
540F3961CEF244279DE03EB81420DB9EAC1384436FA353E879B1B182C7A8C75DA3C7F453DF353A1075D537A7BA6464B8F535A99AE14A9A2BBD90E350DD183B5CFABE3AF262350B1EF4FC9351399401471025A527C218A1E53BAB5A5AB765F5469B96525EACF23FA6B88CFF34456DC2A1DCE36E360F82A5202F42F062ED2BAD
310
579969AFDD8A6F504B010214000A0000080000CC70623B3DEE336E79000000790000001B00000000000000000000000000000000006175746F6465736B2D64657369676E2D7061636B6167652E786D6C504B01021400140006080800CC70623BD486FD9CA0000000F40000001300000000000000000000000000B20000005B
310
436F6E74656E745F54797065735D2E786D6C504B01021400140006080800CC70623B853B8169EB0000007C010000080000000000000000000000000083010000636F72652E786D6C504B01021400140006080800CC70623B55019EA25F0000007C000000070000000000000000000000000094020000636E782E786D6C504B
310
01021400140006080800CC70623BDBABAAF470010000D40300000C00000000000000000000000000180300006662782F636F72652E786D6C504B01021400140006080800CC70623B9C113CC27E0000009D0000000B00000000000000000000000000B20400006662782F636E782E786D6C504B01021400140006080800CC70
310
623B7DF2F77C2A010000120200003100000000000000000000000000590500006662782F41393633353835312D344632462D344230382D423046372D3739314545314133324237412F636F72652E786D6C504B01021400140006080800CC70623BAD7543B64E010000330300003000000000000000000000000000D2060000
310
6662782F41393633353835312D344632462D344230382D423046372D3739314545314133324237412F636E782E786D6C504B01021400140006080800CC70623BE75B7789680500003C10000034000000000000000000000000006E0800006662782F41393633353835312D344632462D344230382D423046372D3739314545
310
314133324237412F6F626A656374732E786D6C504B01021400140006080000CC70623B0000000000000000000000003500000000000000000000000000280E00006662782F41393633353835312D344632462D344230382D423046372D3739314545314133324237412F76657274696365732E62696E504B01021400140006
310
080800CC70623BF270F133060000000400000036000000000000000000000000007B0E00006662782F41393633353835312D344632462D344230382D423046372D3739314545314133324237412F747269616E676C65732E62696E504B01021400140006080000CC70623B0000000000000000000000003700000000000000
310
000000000000D50E00006662782F41393633353835312D344632462D344230382D423046372D3739314545314133324237412F617474726962757465732E62696E504B01021400140006080800CC70623B08DA0BD1900000004101000036000000000000000000000000002A0F00006662782F41393633353835312D344632
310
462D344230382D423046372D3739314545314133324237412F6469726563746F72792E786D6C504B01021400140006080800CC70623BEDD1DC58FD000000A00100003B000000000000000000000000000E1000006662782F41393633353835312D344632462D344230382D423046372D3739314545314133324237412F7265
310
736F75726365732F636F72652E786D6C504B0506000000000E000E0080040000641100000000
  0
XRECORD
  5
1F8
102
{ACAD_REACTORS
330
1F7
102
}
330
1F7
100
AcDbXrecord
280
     1
 70
     1
 90
429727718
  1
30362254-06B7-45E0-A893-8CFA70E3D6BC
310
504B03040A0000080000CC70623B3DEE336E79000000790000001B0000006175746F6465736B2D64657369676E2D7061636B6167652E786D6C3C3F786D6C2076657273696F6E3D22312E302220656E636F64696E673D227574662D3822203F3E3C666F726D6174733E3C666F726D61743E687474703A2F2F736368656D612E
310
6175746F6465736B2E636F6D2F64657369676E2D7061636B6167652F323030393C2F666F726D61743E3C2F666F726D6174733E504B0304140006080800CC70623BD486FD9CA0000000F4000000130000005B436F6E74656E745F54797065735D2E786D6C7D8EC10E82300C865F65E91D8A1E8C310C0EEA1BF002731658846E
310
D98AC1B77784ABF1D8FE5FBFBF75BBCE937A534CCEB38643598122B6FEE978D0B0485F9C41B54DDD7D022595594E1A469170414C76A4D9A4D207E29CF43ECE46F218070CC6BECC4078ACAA135ACF422C856C0E68EA1BF5669944DDD7BCDE7B1F8E415D77AECB980613C2E4AC91FC167A2B244592486606FC29C8FD7F045B9A
310
EF7053A7E60B504B0304140006080800CC70623B1EC5D7A3EB0000007C01000008000000636F72652E786D6C8D90416EC3201045AF82665B6103C6756C6122AB4D4ED00B204C5C94182C03558F5F9C3852BBEB6A467FFE9B197D71FC9E6FE8CBACC17AD7032D0820E3B41FAD9B7A48F1820F808E52ACDEC75F36404ECDA687
310
4D0629A6D5A76597B477D1B89855E747B38B2A041301E95B6E7A08FAD3CCAA50296647B8168BD2573599823EBB0CA76447F43862C7BCCF5EAC59410E4DDD9C7973C2755553CCCFA4C603E3040F1565ED3B1FDE4E432BCA0D9622DAF9795FAF464533826484B498524CD807E51D79ED187F21878E10516EF63F505AC67F42C9
310
BA58B1FDDD071640D2FCC87D2045B96591CB3DA85CB7DCE40F504B0304140006080800CC70623B55019EA25F0000007C00000007000000636E782E786D6C4DCB3B0E80201045D1AD90E915ED2CF8AC45050C11660C8261F98AB1B07AC9C97D42D718D865D3E909258CFD00CCE24AC6E326A164D74DC0B4128928FF32603847
310
2BA13128B1252AC747C6BAB984FC68F0B87FE8960A5C09FE86CFB69FBA01504B0304140006080800CC70623B8C9102E971010000D40300000C0000006662782F636F72652E786D6CC5535B6E833010BC8AE5DF0A6C08340F1947A84D4ED00B38C6A128602363A31CBFCB234A53A551FA553EC09AD9F5CE8C31DB9E9B1AF5CA
310
7695D1198E428A91D2D214952E33ECDD315861B4E5CC1AE3BE9561A445A3323CC098B3D21ADFCE9034DA29ED00D5A6503328BA4E398C640D8B0C77F253352214DE4145770A5B214FA2546114020D759C75CE8200340D19DE981F0F6746269C33EFAB6266AB02A655C74A59CCF365BADC27CB5D902ED22848F6340DF238A141
310
BE88E2F57B92BFEDF23523433367AE6A2EEAA455C2A902F398D2751045018D3FA264435F3771F242571B4A1919CA6F9A7C5B3CD9E42BED16F12C776AEB308F40C848FC700B1139D4891EF410CEC810227CC6846F8386402064270EF5C5C709A05E49676C024C61FC95EA45ED154CA5211D1FF4FB8291A913A68E9B83EBBB33
310
E2A7673CDE118E5AE8124C0807CB8377834E366998436B950D7A7746DAD846D4CFD978E0F04FD455FC5D49D2D4C6FE9722321F10997F0F32DC47FE05504B0304140006080800CC70623BFFEA85907E0000009D0000000B0000006662782F636E782E786D6C4DCCD10A83201886E15B91FFDC95D95A811AB6F23E625948A6C3
310
E9D8E5AF46073BFAE0E1E365ED67B3E8ADC3CB78C7815C7240DA3DFC64DCC221C519D7805AC182F7F1EF06C88D9BE6703008B6049F9E274D7A1E938DBB5AE3D6131B2589BA0D3D965551E0B2EA732C9B9A624AAEB41E3A557677029960D9AFB4EF11165F504B0304140006080800CC70623B4FEEA4082C0100001202000031
310
0000006662782F39464131463745442D413632322D343644302D413938332D3331353338454246344243312F636F72652E786D6C8D515B6EC32010BC0AE2AB55850DD871ED0813254D72825EC00192A2C460F1A872FC42ED48ED5F7E00CDCECCCEB26C731F6FE05B39AFADE921293004CA082BB5B9F43086336A21D870E6AC
310
0D7F68109861543DCC30E4ECE26C9C164858139409093556AA051CBC570102714B8F1E7AF1A5C6A11862480C7F2DA6415C878B2A4891CA89C7990F2E050073937C42DE1DB7E4F87ED8A36D4329AA9B3D46DBAEAD504556557BD81DEBDD0761E52CE42C462D17B996298E3E6BE59E35C962CE821E1FF18553435012728A7187
310
0841987E927A8D9B35ADDF70BBC6989599FE4F1427F9A4286A132ABAC49D651EF234CD5CE04CDA78BA3DC2A8FB645D00B9DF8B57E215725C60BCA2A463E54C4CE327C7A65E1C7DB02E7DEFCBF594B864C5CA6CDBD49C957943E9FA5D5FBAF336F90F504B0304140006080800CC70623BAD7543B64E01000033030000300000
310
006662782F39464131463745442D413632322D343644302D413938332D3331353338454246344243312F636E782E786D6CD593CD6EC32010845F0571AD6CE3D48AD20813A9873E410FBD12D82434182C7EAAE6EDBB2424CD25871E7B41D6EC30B3FA84F9E67BB2E40B4234DE8DB46F1925E094D7C6ED479AD3AE5951B2113C
310
789FEE6C943839C1488B4C05DF079FE72A69D8C96C13AAD6B8631503449F83828872B949AC57D26200B826A308D316B4064D6E46FCDA41C05550DC9E483A00797BFD207EFB092A45DE9514C1BBD22178396BD39D891265658C238DEA00936C654E5E433CB65A26D9F6EDB5EBC14EBF49A45CB856E66048291F6939A9A81BB5
310
C8917738143CA680F4AA299D66A042CEB3354A2684DC9D8D178FE0D9B8B41CAAD720F880EE7EF93C0C18769E099ECC04D5A102C8049A8A05632F4DDF376CF1DE0F6BB65C2F8627B65A33C6BB62177CEBBDAD973006829F89F22E814B54F4BC2BE347F8AA8F681390B50FA73F804400B5F542E796F19FF974E7F78DB802FE05
310
E207504B0304140006080800CC70623B16AB87BA640500003C100000340000006662782F39464131463745442D413632322D343644302D413938332D3331353338454246344243312F6F626A656374732E786D6CAD575B6FA33818FD2B887DE6924B3BED8A326A92B68A663B534DD4D13E548A0C38942D60649B369D5FBFC7
310
600890A493BDE42160637FD7F31D7FF63E6FB3D478A55C242CBF3247B66B1A340F5994E4F19559CA8D75611A9F7D8F33263BCB4C232719BD32D5B4E97B316765A1A722BA21652A07B3B7B33F0D11D29C9A46981221AE4C113ED38CD8A4942CA2E2C58E882476BCD9DA23BB5ED8171B73523C0F841684D35CC252CCE79062D4
310
468DFA43D7747CCF51DF7D4FFDEB5593E3AB9CCA9FBEFE241792E4E19EB28198C968BAB8199F5D5A67D3E9C49A9E8F47D6EC76B6B0469F26EEFC7C3EBFBCBEB98462213924694B38DD98FE1D62C393D073EA4FADC5DAF04326852CCF6958F90F0F2B9BB5C48816348F90C7840A68EB78EDF68723159BCEE7891A6B95DDE9D3
310
BCEAEEE8086A6C6F9E5D4B59F0175C10A7A0820BAA5055C7473B5AE3CFDD452D602CD5DF12616444529E90D448938013FE6EFA58AA96F85E4F8C42275708571E98FE6827AF6B2B4AE3D7D83D64E5A64C53054DD3AF90BD06FEA9149565C94FCA0F6B834DC85599E4F2423B24DF0B6AFA979E534DFA9E7A4CC6FA631D486393
310
921829879BF5D781A373557BCB85E97FB90DB62B558F8795179C15944B051F40AB495CF35451D26A4727654E6D8033BD98EF82F21D91FF8AF2DD9982BCF1643BDD4EB516C9492E368C67C88DED563FC36D5EACF66DFF057C3658BDBFA69DF9578B3DA735B64F18C7F20770A9D45CFCF7FCF563D6456A277DBEF78A02637CA2
310
43B90A490AEAB94F72244481D24819A6C0E59B606BFA4B3025981DBB48EAB701D97BF19C577CC77F2D1B6C55A9EF3C732474C0B727303F625995056C3B02963D9EAC146BE78EC5FCEC7FA999EBC5EACBAAE41B12D27B4D2C0BBA49F244E2ECDC81B76B502F113D8F5EE8FB1BE3111CDD4FC2AA9B844CAB1288B68AB90A7CDC
310
1C166AB0D3DC5310625FCC14E779BFD0709F8890A629C9292B1B2DED31A4B0DA928CEE135085754027E3018A397D4D5427D15BD1330B677DC8934285AC3DF45A9EB68FF8F2B8FC0A509AFEECFD0FF2DE25CC6047F7214B195F07EFEB9A094D800F7BFAE8FED187B78EA8A3A400F115961BCAD1215E47C966530AF0EE8128FE
310
58CEBB996A8964FFA529A046635D9353B0336A8F700DDF46271A024E70B0B37C9DE01847591E54DED53D54202AB947E4076556AC49C6CA5C9E1226B7F1A7B1BE15DEED62C41B91E1B3E9AFAAA735036547343A925075041DF0A9979E893B391F8FCFA6967B3EFB644DCF6E5CEBFAE272625DCC6FAF3FB93793C5F90CE1EF57
310
407342756B10D1C489E8953CD1617E5CEECAD6F4EF8914CE5D5D504E5C3F1F9736DA62CFC11E00BCDDB8CC8A9466349744C1F75EBDA4DF09BA8A9E8C7A7E9991989E20E5DBDD6A6003664ED8F7A04A8DBE0DF6EAD9B9AA858342E47399053949D2C146EDB85DE4B176BB0965FBAC19BD19AA918E27FA50C1D22402E144464C
310
59462568E704B6E71915404CB72B8FF4EDE184DDAF753F284990D2C6926782963815403548A70C657FDEF80D2D9CEAA2AE4C1C76F60BFE74219A06527D6582DF6412526107381E55E353090704D085B52408D0933C4ED159D79BDA71BB4BC506F4831350EB6F979CD22D69BF7AC49B91A2C0A9DDA3D5CA36AD20FC478E37E6
310
1844E2352865EBCB6EA275A652E3836BE04EFB400BF1A2556F515F1FBB35B2AB35BD889C744FFA1004B5544B121E57F70215746DD2F5E2C1412B602CBF19455AC6C8E5E9922C4E01E65215385004546899059180EAFCF7A707CE7017CD8CDB0410789AB32C63B91E5CEBBBACB17AC6CD347A022D5075FD106377347AAABA7E
310
7D11590744509B44E205134DC1290F06580320F78E537D3D73540E06CB970B431F185308AD40BBD794D6D77003C5A36E8EAA54BA64597CD8F83BD552A080A365F7FF06504B0304140006080000CC70623B000000000000000000000000350000006662782F39464131463745442D413632322D343644302D413938332D3331
310
353338454246344243312F76657274696365732E62696E504B0304140006080800CC70623BF270F1330600000004000000360000006662782F39464131463745442D413632322D343644302D413938332D3331353338454246344243312F747269616E676C65732E62696E636660600000504B0304140006080000CC70623B
310
000000000000000000000000370000006662782F39464131463745442D413632322D343644302D413938332D3331353338454246344243312F617474726962757465732E62696E504B0304140006080800CC70623B08DA0BD19000000041010000360000006662782F39464131463745442D413632322D343644302D413938
310
332D3331353338454246344243312F6469726563746F72792E786D6C858F410AC3201045AF22B36F53E9A60B35CBEEBAE80D244E44489C6234F4F835464A48035D0DF398FF9F8AF63D0E6CC63039F212F8F9020C7D47C6792B21C5FE7403D62A1188E2E60C98D7234A5830286103A55745067B9D86B8A3CF9C7F90C11DE607
310
FB144396D7B6A82D282E9A152AD114D5EF2CB866EEE831B8EEA07A7BB5A8D7D61A2BAAEB7FD5F70921FF497D00504B0304140006080800CC70623B0D6EF93BFE000000A00100003B0000006662782F39464131463745442D413632322D343644302D413938332D3331353338454246344243312F7265736F75726365732F63
310
6F72652E786D6C8D50596E833010BD0A9ADFCA60B334011947A8694ED00B586642AC041B79A97AFC9A40A5F6AF3F33A3B7689E1E3F7DCD8FEC139DD7D6F4C0720A191A65476DA61E62B892236427C19DB5E1970C322367EC618541F0C9D9B8EC90B226A009093576C41D94DE63804C3DD2D18357379C652E63480A7FCF17A9
310
EE72C29CE5894E3AC17D702940B63D59270887DE46A7D0F36263058F518FBB468FE9A7BE6A7420864373B8D4873369AA8691FA421B3294352543C5CAF65C0F6FEF43CB8BD52C78D0F34F46E550061C419494B6843142CB0F5677F4B52BEB177AEC28E5C52AFF638ACBF84F53D42654E51E77B379102C05791282176B5F693D
310
CB4C7BED567C03504B010214000A0000080000CC70623B3DEE336E79000000790000001B00000000000000000000000000000000006175746F6465736B2D64657369676E2D7061636B6167652E786D6C504B01021400140006080800CC70623BD486FD9CA0000000F40000001300000000000000000000000000B20000005B
310
436F6E74656E745F54797065735D2E786D6C504B01021400140006080800CC70623B1EC5D7A3EB0000007C010000080000000000000000000000000083010000636F72652E786D6C504B01021400140006080800CC70623B55019EA25F0000007C000000070000000000000000000000000094020000636E782E786D6C504B
310
01021400140006080800CC70623B8C9102E971010000D40300000C00000000000000000000000000180300006662782F636F72652E786D6C504B01021400140006080800CC70623BFFEA85907E0000009D0000000B00000000000000000000000000B30400006662782F636E782E786D6C504B01021400140006080800CC70
310
623B4FEEA4082C0100001202000031000000000000000000000000005A0500006662782F39464131463745442D413632322D343644302D413938332D3331353338454246344243312F636F72652E786D6C504B01021400140006080800CC70623BAD7543B64E010000330300003000000000000000000000000000D5060000
310
6662782F39464131463745442D413632322D343644302D413938332D3331353338454246344243312F636E782E786D6C504B01021400140006080800CC70623B16AB87BA640500003C1000003400000000000000000000000000710800006662782F39464131463745442D413632322D343644302D413938332D3331353338
310
454246344243312F6F626A656374732E786D6C504B01021400140006080000CC70623B0000000000000000000000003500000000000000000000000000270E00006662782F39464131463745442D413632322D343644302D413938332D3331353338454246344243312F76657274696365732E62696E504B01021400140006
310
080800CC70623BF270F133060000000400000036000000000000000000000000007A0E00006662782F39464131463745442D413632322D343644302D413938332D3331353338454246344243312F747269616E676C65732E62696E504B01021400140006080000CC70623B0000000000000000000000003700000000000000
310
000000000000D40E00006662782F39464131463745442D413632322D343644302D413938332D3331353338454246344243312F617474726962757465732E62696E504B01021400140006080800CC70623B08DA0BD190000000410100003600000000000000000000000000290F00006662782F39464131463745442D413632
310
322D343644302D413938332D3331353338454246344243312F6469726563746F72792E786D6C504B01021400140006080800CC70623B0D6EF93BFE000000A00100003B000000000000000000000000000D1000006662782F39464131463745442D413632322D343644302D413938332D3331353338454246344243312F7265
310
736F75726365732F636F72652E786D6C504B0506000000000E000E0080040000641100000000
  0
XRECORD
  5
175
102
{ACAD_REACTORS
330
173
102
}
330
173
100
AcDbXrecord
280
     1
270
     1
271
     1
  0
XRECORD
  5
174
102
{ACAD_REACTORS
330
173
102
}
330
173
100
AcDbXrecord
280
     1
270
     1
271
     1
  0
XRECORD
  5
1FB
102
{ACAD_REACTORS
330
173
102
}
330
173
100
AcDbXrecord
280
     1
 70
     0
 90
1673772943
  1
ECE7A1D2-D628-4531-984C-D00F80459256
310
504B03040A0000080000CC70623B3DEE336E79000000790000001B0000006175746F6465736B2D64657369676E2D7061636B6167652E786D6C3C3F786D6C2076657273696F6E3D22312E302220656E636F64696E673D227574662D3822203F3E3C666F726D6174733E3C666F726D61743E687474703A2F2F736368656D612E
310
6175746F6465736B2E636F6D2F64657369676E2D7061636B6167652F323030393C2F666F726D61743E3C2F666F726D6174733E504B0304140006080800CC70623BD486FD9CA0000000F4000000130000005B436F6E74656E745F54797065735D2E786D6C7D8EC10E82300C865F65E91D8A1E8C310C0EEA1BF002731658846E
310
D98AC1B77784ABF1D8FE5FBFBF75BBCE937A534CCEB38643598122B6FEE978D0B0485F9C41B54DDD7D022595594E1A469170414C76A4D9A4D207E29CF43ECE46F218070CC6BECC4078ACAA135ACF422C856C0E68EA1BF5669944DDD7BCDE7B1F8E415D77AECB980613C2E4AC91FC167A2B244592486606FC29C8FD7F045B9A
310
EF7053A7E60B504B0304140006080800CC70623BD9DDAED0EC0000007C01000008000000636F72652E786D6C8D90416EC3201045AF82665B61836D9CD8C2444DD39CA01740405C94182C03558F5F9C3852BBEB6A467FFE9B197D7EF89E6EE8CB2CC17A37002D0820E394D7D68D03A478C17B4007C117EFE32F1B20272733C0
310
2A83E0E3E2D3BC49CABB685CCCAAF3DA6CA20CC14440EA969B0182FA34932C648AD911AEC52CD5558EA6A0CF2EC329598D1E47ACCEFBECC59A050463A7EA5833865FEBDD0E37353BE3EE8DBDE3F6786A48D375FBF6CC78B9C282473B3DEFABC5C86834888A900E538A49F5419B9EB47DD5BC907D4F082F57FB1F28CDFA9F50
310
B22ED6D5F6EE030B20687EE43E10BC5CB3C8E51E54AE6B6EE207504B0304140006080800CC70623B55019EA25F0000007C00000007000000636E782E786D6C4DCB3B0E80201045D1AD90E915ED2CF8AC45050C11660C8261F98AB1B07AC9C97D42D718D865D3E909258CFD00CCE24AC6E326A164D74DC0B4128928FF326038
310
472BA13128B1252AC747C6BAB984FC68F0B87FE8960A5C09FE86CFB69FBA01504B0304140006080800CC70623BA24EB22D72010000D40300000C0000006662782F636F72652E786D6CC5535B6E833010BC8AE5DF0A6C5E49888CA3A6694ED00B38E05014B091B1518EDFE511A5A9D228FD2A1F60CDEC7A67C6986DCE4D8D7A
310
69BA4AAB0C073EC548AA5C17952A33ECECD15B61B4E1CC686DBF9561A44423333CC098B3D268D7CE50AE9595CA02AA74216750749DB418E5352C32DCE59FB211BE70162ABA93DF8AFC244AE9073ED050C759670D0840D390E18DF9F1706664C23973AE2A66B62A605A75ACA4C13C4976E1364A12EF355A2EBD384AF65EFA96
310
BC7B8BED2EA6719AAE16FB8491A199335B351775B991C2CA02F390D2D40B028F861F41BCA68B7518BFD0D59A524686F29B26D7164F36B94AD9289CE54E6D1DE6010819891F6E21228B3AD1831EC219194284CF98F06DD01008846CC5A1BEF83801D4CBDC6A1303536877A57A513B0953A94FC707FDBE6064EA84A9E3E6E0FA
310
EE8CF0E9198F7784A316AA0413C2C2F2E0ECA0934D1AE6D05A69BCDE9E91D2A611F573361E38FC1375157F5752AE6B6DFE4B11990F88CCBF0719EE23FF02504B0304140006080800CC70623B408A7D3B7C0000009D0000000B0000006662782F636E782E786D6C4DCCD10A83201886E15B91FFDC552A92A0064DBC8F581632
310
D3703A76F9ABD1C18E3E78F878E5F0D9027ABBFCF2292AE86E2D20171F69F6715550CB827B40839639A5F2770314A7CD293819B45C73AAFB45B35BA61ACAA1C1C7E7855C58C15BC331339661262CC762340413D68D77DA5B42298546CBE6573AF60CEB2F504B0304140006080800CC70623B449FB9BD290100001202000031
310
0000006662782F36394639363044362D344446342D343946362D394244322D3234314243333846323333332F636F72652E786D6C8D515B6EC32010BC0AE22B55850D98B871848994463E412FE002495162B07854397EA176A4F62F3F2C9A9D991D587EB84F37F0AD7D30CEF6905418026DA553C65E7A98E219ED203808EE9D
310
8B7F6810D871D23D2C3014FCE25D9A57483A1BB58D19B54EE9151C43D0110279CB971E06F9A5A7B11A53CC8C70ADE6515EC78BAE4895DB992778883E0700CB907242D17643D7E2538BD869608875438BBAE38922CAC8F1BDD90DB4691A5E2F42C153326A951B95E398B3D1FE599322163C9AE9115F7A3D46ADA0A018778810
310
84E907617BDCEE297BC5BB3DC6BC2EF47FA234AB2745C9D8D8D035EE220B50105E2F0DC1954B9FB747187D9F9D8FA0CCDB042D5FA0C015C65B42DF78BD10F3F3B363CB56C7109DCFDFBBB97E662ED92EB62D13BC2E1BCAE5777DB9966D8A1F504B0304140006080800CC70623BAD7543B64E01000033030000300000006662
310
782F36394639363044362D344446342D343946362D394244322D3234314243333846323333332F636E782E786D6CD593CD6EC32010845F0571AD6CE3D48AD20813A9873E410FBD12D82434182C7EAAE6EDBB2424CD25871E7B41D6EC30B3FA84F9E67BB2E40B4234DE8DB46F1925E094D7C6ED479AD3AE5951B2113C789FEE
310
6C943839C1488B4C05DF079FE72A69D8C96C13AAD6B8631503449F83828872B949AC57D26200B826A308D316B4064D6E46FCDA41C05550DC9E483A00797BFD207EFB092A45DE9514C1BBD22178396BD39D891265658C238DEA00936C654E5E433CB65A26D9F6EDB5EBC14EBF49A45CB856E66048291F6939A9A81BB5C89177
310
38143CA680F4AA299D66A042CEB3354A2684DC9D8D178FE0D9B8B41CAAD720F880EE7EF93C0C18769E099ECC04D5A102C8049A8A05632F4DDF376CF1DE0F6BB65C2F8627B65A33C6BB62177CEBBDAD973006829F89F22E814B54F4BC2BE347F8AA8F681390B50FA73F804400B5F542E796F19FF974E7F78DB802FE05E20750
310
4B0304140006080800CC70623B8D05915C650500003B100000340000006662782F36394639363044362D344446342D343946362D394244322D3234314243333846323333332F6F626A656374732E786D6CAD575B6FA33814FE2B887D06429276DA1565D4266D158D3A339A6846FB502932E050B66023DB74D2FDF5FB190C01
310
9276B2973C046C8ECFF53B17071F77456EBD502133CEAE6CDF9DD81665314F32965ED995DA3A17B6F5310C04E7AA47665B8C14F4CAD6DB7618A48257A5D94AE89654B91AEDDEDDFC61C998326A5B714EA4BCB265FC440BE2924AF184CA6737218AB8E976E7FA6E4338649B0A523E8D98964450A6A029F619B8588D52FE7039
310
B1BD30F0F4F730D0FF866AF6369557DB33949F31A9088B0F848DD8CCFCF9F2767A76E99CCDE733677E3EF59D9BBB9BA5E37F984D16E78BC5E5F5ED25044B25C0C96822E8D60EEFE11B91C581D77CEA34368A1F5329E68CD1B8B61F16D63A1B8E092D294B10C78C4A48EB593D192E7DED9BDEE7995E1B91FDEDD3ACEA9FE831
310
6A756F9F7D4D79F4274C90A7A04248AA51D5F8C718DAE06FB2F75AC4796EBE65D22A88A22223B995679120E2D50E41AA49C260C046A35368846B0BECD0DFF3EBEB8AD4F835768F69B9ADF25C43D30E6B646F807FAA64AD59F61715C7A54127C4AACA98BA3006A9D792DAE165E0D59B61A01FB3A9F9D838D2DAE62445C86166
310
F37564E842E7DE6A69879FEEA2DD5AE7E371E1A5E025154AC307D06A03D73EB5978C58FFA4C8E9033066E0F3BD53BEC1F39F91BE7B55103791EDE6BBB991A2046172CB4581D8B893FA674DDA17A77B3B7C413D1B511FD2743BFF8A38F03A658705E3ADF8015C3A3417FF3D7E439FF591DA0B5F18BC20C1B8981957AE6392A3
310
F43C640C01D1A0B4728E2DD4F26DB4B3C3152A252A3B4E913CEC1C72F012782FF88EFF8637AA552DBEF76408E8A8DE9E50F9E1CB3A2DA0DB1B6039A893B56063DC5B3E3FFB5F72E67AB9FEB4AEC496C4F4C1149625DD662C53E89D7BF0F6151A046260D1337DFDC94502430F83B0EE07A130A224BCAD7DAE1D9FB6CD422FF6
310
920702629C4BB9AE79C12F243C6432A6794E18E5552BA56B431AAB5D91317302B2B071E86C3A42B1A02F999E24061403B5D0EB639195DA655DD3EBEAB4FB862DDF579F014AD0E73C22F99E28DA57FB98E75C6CA2D74D53086D600F4786E0FE3144B771A8A7B900F03594DB8A633CBC49B2EDB69228BB479CF863B5E807AAAB
310
23872F6DFEB4129B949CA33823F58830E86D65621E10047D9DB34D862E8EAC3C2ABC2F7B2C40D67CDFE01F5545B92105AF983AC54D93D69E56FB8E797F88913F898A9FEC705D3F9D1B54EC8426FB500D40A03BD0119B06E1B95DDC7EB8F6975367793EBD70E66733DFB9BC982F9CE564727731999F5D4ECFCE3B8D6A4DC2A0
310
6D50FD148437D110834A64C6CDDF57FBACB5C307A2A477DFE4939736CFEF2B175371E0E10CF0DD1D5C15654E0BCA14D1E87DD02FF93782A162C0A3D95F1524A52770F972BF1EE9809D13CE7DD599467F8ECE9ADD85CE85A34CD45355448C64F9E8A031DC2D596ACC6E5DD93D9B82DE2EF5CAF81363A8E47996A0DE24564A79
310
4115AACE09C55E14540231FDA13C319787134EBF34E3A022514E5B4D9E0826E25C02D5805B15ABE1BEF51B26383D445DD9E875EE33FE4C22DA16427D65A3BCA92CA6D28DD01DF5DC53330704308475351050232CCD31583787BA75774AFB06E5070DD0C8EF484E19968C5D83BA5B90B244D31E54D55A372320FE4786B7EA58
310
44E135AA5467CB7EA333A61683CC6A8C3257034C10CF46F40EF9F5BE59BE5BD30C3C72D235E95D10345C1D45445A5F0BB47E46A5EBE5570F9380B5FA629579952296A773720405982B9DE04011506178964401AA8BDF1FBF0A8EAB6861DD6580C0E38217056766716DAEB2D6FA0917D3E4116581EADB879C4E7CFFB11EFACD
310
3D641311495D92C8676CB409A72D18610D803CE8A626049E8EC1887CB5B44CC39883690DDA8399B4B9855B481E7D71D4A9D22F96E5BB73BF5793020C02137BF837504B0304140006080000CC70623B000000000000000000000000350000006662782F36394639363044362D344446342D343946362D394244322D32343142
310
43333846323333332F76657274696365732E62696E504B0304140006080800CC70623BF270F1330600000004000000360000006662782F36394639363044362D344446342D343946362D394244322D3234314243333846323333332F747269616E676C65732E62696E636660600000504B0304140006080000CC70623B0000
310
00000000000000000000370000006662782F36394639363044362D344446342D343946362D394244322D3234314243333846323333332F617474726962757465732E62696E504B0304140006080800CC70623B08DA0BD19000000041010000360000006662782F36394639363044362D344446342D343946362D394244322D
310
3234314243333846323333332F6469726563746F72792E786D6C858F410AC3201045AF22B36F53E9A60B35CBEEBAE80D244E44489C6234F4F835464A48035D0DF398FF9F8AF63D0E6CC63039F212F8F9020C7D47C6792B21C5FE7403D62A1188E2E60C98D7234A5830286103A55745067B9D86B8A3CF9C7F90C11DE607FB14
310
4396D7B6A82D282E9A152AD114D5EF2CB866EEE831B8EEA07A7BB5A8D7D61A2BAAEB7FD5F70921FF497D00504B0304140006080800CC70623BCA768048FE000000A00100003B0000006662782F36394639363044362D344446342D343946362D394244322D3234314243333846323333332F7265736F75726365732F636F72
310
652E786D6C8D50596E833010BD0A9ADFCA60D600328E9AA639412F609909B1126CE4A5EAF16B0295DABFFECC8CDEA2797AECF8353F924FB44E193D409E5248504B332A3D0D10FC95B4901C39B3C6F85F3248B49871801506CE266BC2B243D2688FDA47549B11775038871E12F988C7004EDE7016A9083E2ADC3D5D84BC8B09
310
D33C8D74D471E6BC8D0192EDC93A815B742658898E651BCB59086ADC356A8C3FD555A1055ED7E7E254D615792D0F075295F585746FF53B694EE78A565DD736979A65AB9933AFE69F8CD2A2F038022F28ED489E135A7CE4554F9BBEA85E68DB53CAB255FEC71496F19FA6A0B42F8B3DEE6673C0F318E4497096AD7DC5F52C33
310
EEB55BFE0D504B010214000A0000080000CC70623B3DEE336E79000000790000001B00000000000000000000000000000000006175746F6465736B2D64657369676E2D7061636B6167652E786D6C504B01021400140006080800CC70623BD486FD9CA0000000F40000001300000000000000000000000000B20000005B436F
310
6E74656E745F54797065735D2E786D6C504B01021400140006080800CC70623BD9DDAED0EC0000007C010000080000000000000000000000000083010000636F72652E786D6C504B01021400140006080800CC70623B55019EA25F0000007C000000070000000000000000000000000095020000636E782E786D6C504B0102
310
1400140006080800CC70623BA24EB22D72010000D40300000C00000000000000000000000000190300006662782F636F72652E786D6C504B01021400140006080800CC70623B408A7D3B7C0000009D0000000B00000000000000000000000000B50400006662782F636E782E786D6C504B01021400140006080800CC70623B
310
449FB9BD290100001202000031000000000000000000000000005A0500006662782F36394639363044362D344446342D343946362D394244322D3234314243333846323333332F636F72652E786D6C504B01021400140006080800CC70623BAD7543B64E010000330300003000000000000000000000000000D20600006662
310
782F36394639363044362D344446342D343946362D394244322D3234314243333846323333332F636E782E786D6C504B01021400140006080800CC70623B8D05915C650500003B10000034000000000000000000000000006E0800006662782F36394639363044362D344446342D343946362D394244322D32343142433338
310
46323333332F6F626A656374732E786D6C504B01021400140006080000CC70623B0000000000000000000000003500000000000000000000000000250E00006662782F36394639363044362D344446342D343946362D394244322D3234314243333846323333332F76657274696365732E62696E504B010214001400060808
310
00CC70623BF270F13306000000040000003600000000000000000000000000780E00006662782F36394639363044362D344446342D343946362D394244322D3234314243333846323333332F747269616E676C65732E62696E504B01021400140006080000CC70623B00000000000000000000000037000000000000000000
310
00000000D20E00006662782F36394639363044362D344446342D343946362D394244322D3234314243333846323333332F617474726962757465732E62696E504B01021400140006080800CC70623B08DA0BD190000000410100003600000000000000000000000000270F00006662782F36394639363044362D344446342D
310
343946362D394244322D3234314243333846323333332F6469726563746F72792E786D6C504B01021400140006080800CC70623BCA768048FE000000A00100003B000000000000000000000000000B1000006662782F36394639363044362D344446342D343946362D394244322D3234314243333846323333332F7265736F
310
75726365732F636F72652E786D6C504B0506000000000E000E0080040000621100000000
  0
XRECORD
  5
176
102
{ACAD_REACTORS
330
173
102
}
330
173
100
AcDbXrecord
280
     1
270
     1
271
     1
  0
XRECORD
  5
177
102
{ACAD_REACTORS
330
173
102
}
330
173
100
AcDbXrecord
280
     1
270
     1
271
     1
  0
XRECORD
  5
5F8
102
{ACAD_REACTORS
330
5F7
102
}
330
5F7
100
AcDbXrecord
280
     1
102
DISPLAYNAME
  1
Imperial24
102
FLAGS
 90
        0
  0
XRECORD
  5
5F4
102
{ACAD_REACTORS
330
5F3
102
}
330
5F3
100
AcDbXrecord
280
     1
102
DISPLAYNAME
  1
Metric50
102
FLAGS
 90
        0
  0
CELLSTYLEMAP
  5
5E9
102
{ACAD_REACTORS
330
162
102
}
330
162
100
AcDbCellStyleMap
 90
        3
300
CELLSTYLE
  1
TABLEFORMAT_BEGIN
 90
        5
170
     1
 91
        0
 92
    32768
 62
   257
 93
        1
300
CONTENTFORMAT
  1
CONTENTFORMAT_BEGIN
 90
        0
 91
        0
 92
      512
 93
        0
300

 40
0.0
140
1.0
 94
        5
 62
     0
340
11
144
6.0
309
CONTENTFORMAT_END
171
     1
301
MARGIN
  1
CELLMARGIN_BEGIN
 40
1.5
 40
1.5
 40
1.5
 40
1.5
 40
4.5
 40
4.5
309
CELLMARGIN_END
 94
        6
 95
        1
302
GRIDFORMAT
  1
GRIDFORMAT_BEGIN
 90
        0
 91
        1
 62
     0
 92
       -2
340
14
 93
        0
 40
1.125
309
GRIDFORMAT_END
 95
        2
302
GRIDFORMAT
  1
GRIDFORMAT_BEGIN
 90
        0
 91
        1
 62
     0
 92
       -2
340
14
 93
        0
 40
1.125
309
GRIDFORMAT_END
 95
        4
302
GRIDFORMAT
  1
GRIDFORMAT_BEGIN
 90
        0
 91
        1
 62
     0
 92
       -2
340
14
 93
        0
 40
1.125
309
GRIDFORMAT_END
 95
        8
302
GRIDFORMAT
  1
GRIDFORMAT_BEGIN
 90
        0
 91
        1
 62
     0
 92
       -2
340
14
 93
        0
 40
1.125
309
GRIDFORMAT_END
 95
       16
302
GRIDFORMAT
  1
GRIDFORMAT_BEGIN
 90
        0
 91
        1
 62
     0
 92
       -2
340
14
 93
        0
 40
1.125
309
GRIDFORMAT_END
 95
       32
302
GRIDFORMAT
  1
GRIDFORMAT_BEGIN
 90
        0
 91
        1
 62
     0
 92
       -2
340
14
 93
        0
 40
1.125
309
GRIDFORMAT_END
309
TABLEFORMAT_END
  1
CELLSTYLE_BEGIN
 90
        1
 91
        1
300
_TITLE
309
CELLSTYLE_END
300
CELLSTYLE
  1
TABLEFORMAT_BEGIN
 90
        5
170
     1
 91
        0
 92
        0
 62
   257
 93
        1
300
CONTENTFORMAT
  1
CONTENTFORMAT_BEGIN
 90
        0
 91
        0
 92
      512
 93
        0
300

 40
0.0
140
1.0
 94
        5
 62
     0
340
11
144
4.5
309
CONTENTFORMAT_END
171
     1
301
MARGIN
  1
CELLMARGIN_BEGIN
 40
1.5
 40
1.5
 40
1.5
 40
1.5
 40
4.5
 40
4.5
309
CELLMARGIN_END
 94
        6
 95
        1
302
GRIDFORMAT
  1
GRIDFORMAT_BEGIN
 90
        0
 91
        1
 62
     0
 92
       -2
340
14
 93
        0
 40
1.125
309
GRIDFORMAT_END
 95
        2
302
GRIDFORMAT
  1
GRIDFORMAT_BEGIN
 90
        0
 91
        1
 62
     0
 92
       -2
340
14
 93
        0
 40
1.125
309
GRIDFORMAT_END
 95
        4
302
GRIDFORMAT
  1
GRIDFORMAT_BEGIN
 90
        0
 91
        1
 62
     0
 92
       -2
340
14
 93
        0
 40
1.125
309
GRIDFORMAT_END
 95
        8
302
GRIDFORMAT
  1
GRIDFORMAT_BEGIN
 90
        0
 91
        1
 62
     0
 92
       -2
340
14
 93
        0
 40
1.125
309
GRIDFORMAT_END
 95
       16
302
GRIDFORMAT
  1
GRIDFORMAT_BEGIN
 90
        0
 91
        1
 62
     0
 92
       -2
340
14
 93
        0
 40
1.125
309
GRIDFORMAT_END
 95
       32
302
GRIDFORMAT
  1
GRIDFORMAT_BEGIN
 90
        0
 91
        1
 62
     0
 92
       -2
340
14
 93
        0
 40
1.125
309
GRIDFORMAT_END
309
TABLEFORMAT_END
  1
CELLSTYLE_BEGIN
 90
        2
 91
        1
300
_HEADER
309
CELLSTYLE_END
300
CELLSTYLE
  1
TABLEFORMAT_BEGIN
 90
        5
170
     1
 91
        0
 92
        0
 62
   257
 93
        1
300
CONTENTFORMAT
  1
CONTENTFORMAT_BEGIN
 90
        0
 91
        0
 92
      512
 93
        0
300

 40
0.0
140
1.0
 94
        2
 62
     0
340
11
144
4.5
309
CONTENTFORMAT_END
171
     1
301
MARGIN
  1
CELLMARGIN_BEGIN
 40
1.5
 40
1.5
 40
1.5
 40
1.5
 40
4.5
 40
4.5
309
CELLMARGIN_END
 94
        6
 95
        1
302
GRIDFORMAT
  1
GRIDFORMAT_BEGIN
 90
        0
 91
        1
 62
     0
 92
       -2
340
14
 93
        0
 40
1.125
309
GRIDFORMAT_END
 95
        2
302
GRIDFORMAT
  1
GRIDFORMAT_BEGIN
 90
        0
 91
        1
 62
     0
 92
       -2
340
14
 93
        0
 40
1.125
309
GRIDFORMAT_END
 95
        4
302
GRIDFORMAT
  1
GRIDFORMAT_BEGIN
 90
        0
 91
        1
 62
     0
 92
       -2
340
14
 93
        0
 40
1.125
309
GRIDFORMAT_END
 95
        8
302
GRIDFORMAT
  1
GRIDFORMAT_BEGIN
 90
        0
 91
        1
 62
     0
 92
       -2
340
14
 93
        0
 40
1.125
309
GRIDFORMAT_END
 95
       16
302
GRIDFORMAT
  1
GRIDFORMAT_BEGIN
 90
        0
 91
        1
 62
     0
 92
       -2
340
14
 93
        0
 40
1.125
309
GRIDFORMAT_END
 95
       32
302
GRIDFORMAT
  1
GRIDFORMAT_BEGIN
 90
        0
 91
        1
 62
     0
 92
       -2
340
14
 93
        0
 40
1.125
309
GRIDFORMAT_END
309
TABLEFORMAT_END
  1
CELLSTYLE_BEGIN
 90
        3
 91
        2
300
_DATA
309
CELLSTYLE_END
  0
ENDSEC
  0
SECTION
  2
ACDSDATA
 70
     2
 71
     8
  0
ACDSSCHEMA
 90
        0
  1
AcDb_Thumbnail_Schema
  2
AcDbDs::ID
280
    10
 91
        8
  2
Thumbnail_Data
280
    15
 91
        0
101
ACDSRECORD
 95
        0
 90
        1
  2
AcDbDs::TreatedAsObjectData
280
     1
291
     1
101
ACDSRECORD
 95
        0
 90
        2
  2
AcDbDs::Legacy
280
     1
291
     1
101
ACDSRECORD
  1
AcDbDs::ID
 90
        3
  2
AcDs:Indexable
280
     1
291
     1
101
ACDSRECORD
  1
AcDbDs::ID
 90
        4
  2
AcDbDs::HandleAttribute
280
     7
282
     1
  0
ACDSSCHEMA
 90
        1
  1
AcDbDs::TreatedAsObjectDataSchema
  2
AcDbDs::TreatedAsObjectData
280
     1
 91
        0
  0
ACDSSCHEMA
 90
        2
  1
AcDbDs::LegacySchema
  2
AcDbDs::Legacy
280
     1
 91
        0
  0
ACDSSCHEMA
 90
        3
  1
AcDbDs::IndexedPropertySchema
  2
AcDs:Indexable
280
     1
 91
        0
  0
ACDSSCHEMA
 90
        4
  1
AcDbDs::HandleAttributeSchema
  2
AcDbDs::HandleAttribute
280
     7
 91
        1
284
     1
  0
ACDSRECORD
 90
        0
  2
AcDbDs::ID
280
    10
320
22
  2
Thumbnail_Data
280
    15
 94
      896
310
89504E470D0A1A0A0000000D49484452000001000000009108030000001BE1960600000300504C5445212830FFFFFF2128300000000000000000000000000000000000000000000000000000330000660000990000CC0000FF0033000033330033660033990033CC0033FF0066000066330066660066990066CC0066FF0099
310
000099330099660099990099CC0099FF00CC0000CC3300CC6600CC9900CCCC00CCFF00FF0000FF3300FF6600FF9900FFCC00FFFF3300003300333300663300993300CC3300FF3333003333333333663333993333CC3333FF3366003366333366663366993366CC3366FF3399003399333399663399993399CC3399FF33CC00
310
33CC3333CC6633CC9933CCCC33CCFF33FF0033FF3333FF6633FF9933FFCC33FFFF6600006600336600666600996600CC6600FF6633006633336633666633996633CC6633FF6666006666336666666666996666CC6666FF6699006699336699666699996699CC6699FF66CC0066CC3366CC6666CC9966CCCC66CCFF66FF0066
310
FF3366FF6666FF9966FFCC66FFFF9900009900339900669900999900CC9900FF9933009933339933669933999933CC9933FF9966009966339966669966999966CC9966FF9999009999339999669999999999CC9999FF99CC0099CC3399CC6699CC9999CCCC99CCFF99FF0099FF3399FF6699FF9999FFCC99FFFFCC0000CC00
310
33CC0066CC0099CC00CCCC00FFCC3300CC3333CC3366CC3399CC33CCCC33FFCC6600CC6633CC6666CC6699CC66CCCC66FFCC9900CC9933CC9966CC9999CC99CCCC99FFCCCC00CCCC33CCCC66CCCC99CCCCCCCCCCFFCCFF00CCFF33CCFF66CCFF99CCFFCCCCFFFFFF0000FF0033FF0066FF0099FF00CCFF00FFFF3300FF3333
310
FF3366FF3399FF33CCFF33FFFF6600FF6633FF6666FF6699FF66CCFF66FFFF9900FF9933FF9966FF9999FF99CCFF99FFFFCC00FFCC33FFCC66FFCC99FFCCCCFFCCFFFFFF00FFFF33FFFF66FFFF99FFFFCCFFFFFF0000000D0D0D1A1A1A2828283535354343435050505D5D5D6B6B6B787878868686939393A1A1A1AEAEAEBB
310
BBBBC9C9C9D6D6D6E4E4E4F1F1F1FFFFFF0000000000000000000000000000000000000000000000000000000000002E4550F10000003B4944415478DAEDC13101000000C2A0F54F6D0B2FA0000000000000000000000000000000000000000000000000000000000000000000000000CE06919100016C9A5B1B0000000049
310
454E44AE426082
  0
ENDSEC
  0
EOF
