  0
SECTION
  2
HEADER
  9
$ACADVER
  1
AC1027
  9
$ACADMAINTVER
 70
   125
  9
$DWGCODEPAGE
  3
ANSI_1252
  9
$LASTSAVEDBY
  1
ufficio.tecnico
  9
$REQUIREDVERSIONS
160
                 0
  9
$INSBASE
 10
0.0
 20
0.0
 30
0.0
  9
$EXTMIN
 10
12.97290503014473
 20
-19.9657063752169
 30
0.0
  9
$EXTMAX
 10
17.16691080299994
 20
-6.210378491502949
 30
0.0
  9
$LIMMIN
 10
0.0
 20
0.0
  9
$LIMMAX
 10
12.0
 20
9.0
  9
$ORTHOMODE
 70
     0
  9
$REGENMODE
 70
     1
  9
$FILLMODE
 70
     1
  9
$QTEXTMODE
 70
     0
  9
$MIRRTEXT
 70
     1
  9
$LTSCALE
 40
1.0
  9
$ATTMODE
 70
     1
  9
$TEXTSIZE
 40
0.2
  9
$TRACEWID
 40
0.05
  9
$TEXTSTYLE
  7
Standard
  9
$CLAYER
  8
0
  9
$CELTYPE
  6
ByLayer
  9
$CECOLOR
 62
   256
  9
$CELTSCALE
 40
1.0
  9
$DISPSILH
 70
     0
  9
$DIMSCALE
 40
1.0
  9
$DIMASZ
 40
0.18
  9
$DIMEXO
 40
0.0625
  9
$DIMDLI
 40
0.38
  9
$DIMRND
 40
0.0
  9
$DIMDLE
 40
0.0
  9
$DIMEXE
 40
0.18
  9
$DIMTP
 40
0.0
  9
$DIMTM
 40
0.0
  9
$DIMTXT
 40
0.18
  9
$DIMCEN
 40
0.09
  9
$DIMTSZ
 40
0.0
  9
$DIMTOL
 70
     0
  9
$DIMLIM
 70
     0
  9
$DIMTIH
 70
     1
  9
$DIMTOH
 70
     1
  9
$DIMSE1
 70
     0
  9
$DIMSE2
 70
     0
  9
$DIMTAD
 70
     0
  9
$DIMZIN
 70
     0
  9
$DIMBLK
  1

  9
$DIMASO
 70
     1
  9
$DIMSHO
 70
     1
  9
$DIMPOST
  1

  9
$DIMAPOST
  1

  9
$DIMALT
 70
     0
  9
$DIMALTD
 70
     2
  9
$DIMALTF
 40
25.4
  9
$DIMLFAC
 40
1.0
  9
$DIMTOFL
 70
     0
  9
$DIMTVP
 40
0.0
  9
$DIMTIX
 70
     0
  9
$DIMSOXD
 70
     0
  9
$DIMSAH
 70
     0
  9
$DIMBLK1
  1

  9
$DIMBLK2
  1

  9
$DIMSTYLE
  2
Standard
  9
$DIMCLRD
 70
     0
  9
$DIMCLRE
 70
     0
  9
$DIMCLRT
 70
     0
  9
$DIMTFAC
 40
1.0
  9
$DIMGAP
 40
0.09
  9
$DIMJUST
 70
     0
  9
$DIMSD1
 70
     0
  9
$DIMSD2
 70
     0
  9
$DIMTOLJ
 70
     1
  9
$DIMTZIN
 70
     0
  9
$DIMALTZ
 70
     0
  9
$DIMALTTZ
 70
     0
  9
$DIMUPT
 70
     0
  9
$DIMDEC
 70
     4
  9
$DIMTDEC
 70
     4
  9
$DIMALTU
 70
     2
  9
$DIMALTTD
 70
     2
  9
$DIMTXSTY
  7
Standard
  9
$DIMAUNIT
 70
     0
  9
$DIMADEC
 70
     0
  9
$DIMALTRND
 40
0.0
  9
$DIMAZIN
 70
     0
  9
$DIMDSEP
 70
    46
  9
$DIMATFIT
 70
     3
  9
$DIMFRAC
 70
     0
  9
$DIMLDRBLK
  1

  9
$DIMLUNIT
 70
     2
  9
$DIMLWD
 70
    -2
  9
$DIMLWE
 70
    -2
  9
$DIMTMOVE
 70
     0
  9
$DIMFXL
 40
1.0
  9
$DIMFXLON
 70
     0
  9
$DIMJOGANG
 40
0.7853981633974483
  9
$DIMTFILL
 70
     0
  9
$DIMTFILLCLR
 70
     0
  9
$DIMARCSYM
 70
     0
  9
$DIMLTYPE
  6

  9
$DIMLTEX1
  6

  9
$DIMLTEX2
  6

  9
$DIMTXTDIRECTION
 70
     0
  9
$LUNITS
 70
     2
  9
$LUPREC
 70
     4
  9
$SKETCHINC
 40
0.1
  9
$FILLETRAD
 40
0.5
  9
$AUNITS
 70
     0
  9
$AUPREC
 70
     0
  9
$MENU
  1
.
  9
$ELEVATION
 40
0.0
  9
$PELEVATION
 40
0.0
  9
$THICKNESS
 40
0.0
  9
$LIMCHECK
 70
     0
  9
$CHAMFERA
 40
0.5
  9
$CHAMFERB
 40
0.5
  9
$CHAMFERC
 40
1.0
  9
$CHAMFERD
 40
0.0
  9
$SKPOLY
 70
     0
  9
$TDCREATE
 40
2459325.490243056
  9
$TDUCREATE
 40
2459325.406910903
  9
$TDUPDATE
 40
2459328.461631944
  9
$TDUUPDATE
 40
2459328.378298611
  9
$TDINDWG
 40
0.0006134375
  9
$TDUSRTIMER
 40
0.0006134375
  9
$USRTIMER
 70
     1
  9
$ANGBASE
 50
0.0
  9
$ANGDIR
 70
     0
  9
$PDMODE
 70
     0
  9
$PDSIZE
 40
0.0
  9
$PLINEWID
 40
0.0
  9
$SPLFRAME
 70
     0
  9
$SPLINETYPE
 70
     6
  9
$SPLINESEGS
 70
     8
  9
$HANDSEED
  5
15B
  9
$SURFTAB1
 70
     6
  9
$SURFTAB2
 70
     6
  9
$SURFTYPE
 70
     6
  9
$SURFU
 70
     6
  9
$SURFV
 70
     6
  9
$UCSBASE
  2

  9
$UCSNAME
  2

  9
$UCSORG
 10
0.0
 20
0.0
 30
0.0
  9
$UCSXDIR
 10
1.0
 20
0.0
 30
0.0
  9
$UCSYDIR
 10
0.0
 20
1.0
 30
0.0
  9
$UCSORTHOREF
  2

  9
$UCSORTHOVIEW
 70
     0
  9
$UCSORGTOP
 10
0.0
 20
0.0
 30
0.0
  9
$UCSORGBOTTOM
 10
0.0
 20
0.0
 30
0.0
  9
$UCSORGLEFT
 10
0.0
 20
0.0
 30
0.0
  9
$UCSORGRIGHT
 10
0.0
 20
0.0
 30
0.0
  9
$UCSORGFRONT
 10
0.0
 20
0.0
 30
0.0
  9
$UCSORGBACK
 10
0.0
 20
0.0
 30
0.0
  9
$PUCSBASE
  2

  9
$PUCSNAME
  2

  9
$PUCSORG
 10
0.0
 20
0.0
 30
0.0
  9
$PUCSXDIR
 10
1.0
 20
0.0
 30
0.0
  9
$PUCSYDIR
 10
0.0
 20
1.0
 30
0.0
  9
$PUCSORTHOREF
  2

  9
$PUCSORTHOVIEW
 70
     0
  9
$PUCSORGTOP
 10
0.0
 20
0.0
 30
0.0
  9
$PUCSORGBOTTOM
 10
0.0
 20
0.0
 30
0.0
  9
$PUCSORGLEFT
 10
0.0
 20
0.0
 30
0.0
  9
$PUCSORGRIGHT
 10
0.0
 20
0.0
 30
0.0
  9
$PUCSORGFRONT
 10
0.0
 20
0.0
 30
0.0
  9
$PUCSORGBACK
 10
0.0
 20
0.0
 30
0.0
  9
$USERI1
 70
     0
  9
$USERI2
 70
     0
  9
$USERI3
 70
     0
  9
$USERI4
 70
     0
  9
$USERI5
 70
     0
  9
$USERR1
 40
0.0
  9
$USERR2
 40
0.0
  9
$USERR3
 40
0.0
  9
$USERR4
 40
0.0
  9
$USERR5
 40
0.0
  9
$WORLDVIEW
 70
     1
  9
$SHADEDGE
 70
     3
  9
$SHADEDIF
 70
    70
  9
$TILEMODE
 70
     1
  9
$MAXACTVP
 70
    64
  9
$PINSBASE
 10
0.0
 20
0.0
 30
0.0
  9
$PLIMCHECK
 70
     0
  9
$PEXTMIN
 10
1.000000000000000E+20
 20
1.000000000000000E+20
 30
1.000000000000000E+20
  9
$PEXTMAX
 10
-1.000000000000000E+20
 20
-1.000000000000000E+20
 30
-1.000000000000000E+20
  9
$PLIMMIN
 10
0.0
 20
0.0
  9
$PLIMMAX
 10
12.0
 20
9.0
  9
$UNITMODE
 70
     0
  9
$VISRETAIN
 70
     1
  9
$PLINEGEN
 70
     0
  9
$PSLTSCALE
 70
     1
  9
$TREEDEPTH
 70
  3020
  9
$CMLSTYLE
  2
Standard
  9
$CMLJUST
 70
     0
  9
$CMLSCALE
 40
1.0
  9
$PROXYGRAPHICS
 70
     1
  9
$MEASUREMENT
 70
     0
  9
$CELWEIGHT
370
    -1
  9
$ENDCAPS
280
     0
  9
$JOINSTYLE
280
     0
  9
$LWDISPLAY
290
     1
  9
$INSUNITS
 70
     5
  9
$HYPERLINKBASE
  1

  9
$STYLESHEET
  1

  9
$XEDIT
290
     1
  9
$CEPSNTYPE
380
     0
  9
$PSTYLEMODE
290
     1
  9
$FINGERPRINTGUID
  2
{764773E5-7153-4514-B5F9-62C8D699B8D3}
  9
$VERSIONGUID
  2
{15E7AB25-093D-B74B-B0BC-018427C22B7D}
  9
$EXTNAMES
290
     1
  9
$PSVPSCALE
 40
0.0
  9
$OLESTARTUP
290
     0
  9
$SORTENTS
280
   127
  9
$INDEXCTL
280
     0
  9
$HIDETEXT
280
     1
  9
$XCLIPFRAME
280
     2
  9
$HALOGAP
280
     0
  9
$OBSCOLOR
 70
   257
  9
$OBSLTYPE
280
     0
  9
$INTERSECTIONDISPLAY
280
     0
  9
$INTERSECTIONCOLOR
 70
   257
  9
$DIMASSOC
280
     2
  9
$PROJECTNAME
  1

  9
$CAMERADISPLAY
290
     0
  9
$LENSLENGTH
 40
50.0
  9
$CAMERAHEIGHT
 40
0.0
  9
$STEPSPERSEC
 40
2.0
  9
$STEPSIZE
 40
6.0
  9
$3DDWFPREC
 40
2.0
  9
$PSOLWIDTH
 40
0.25
  9
$PSOLHEIGHT
 40
4.0
  9
$LOFTANG1
 40
1.570796326794897
  9
$LOFTANG2
 40
1.570796326794897
  9
$LOFTMAG1
 40
0.0
  9
$LOFTMAG2
 40
0.0
  9
$LOFTPARAM
 70
     7
  9
$LOFTNORMALS
280
     1
  9
$LATITUDE
 40
37.795
  9
$LONGITUDE
 40
-122.394
  9
$NORTHDIRECTION
 40
0.0
  9
$TIMEZONE
 70
 -8000
  9
$LIGHTGLYPHDISPLAY
280
     1
  9
$TILEMODELIGHTSYNCH
280
     1
  9
$CMATERIAL
347
3C
  9
$SOLIDHIST
280
     1
  9
$SHOWHIST
280
     1
  9
$DWFFRAME
280
     2
  9
$DGNFRAME
280
     2
  9
$REALWORLDSCALE
290
     1
  9
$INTERFERECOLOR
 62
   256
  9
$INTERFEREOBJVS
345
33
  9
$INTERFEREVPVS
346
D4
  9
$CSHADOW
280
     0
  9
$SHADOWPLANELOCATION
 40
0.0
  0
ENDSEC
  0
SECTION
  2
CLASSES
  0
CLASS
  1
ACDBDICTIONARYWDFLT
  2
AcDbDictionaryWithDefault
  3
ObjectDBX Classes
 90
        0
 91
        1
280
     0
281
     0
  0
CLASS
  1
VISUALSTYLE
  2
AcDbVisualStyle
  3
ObjectDBX Classes
 90
     4095
 91
       26
280
     0
281
     0
  0
CLASS
  1
MATERIAL
  2
AcDbMaterial
  3
ObjectDBX Classes
 90
     1153
 91
        3
280
     0
281
     0
  0
CLASS
  1
SUN
  2
AcDbSun
  3
SCENEOE
 90
     1153
 91
        1
280
     0
281
     0
  0
CLASS
  1
TABLESTYLE
  2
AcDbTableStyle
  3
ObjectDBX Classes
 90
     4095
 91
        1
280
     0
281
     0
  0
CLASS
  1
SCALE
  2
AcDbScale
  3
ObjectDBX Classes
 90
     1153
 91
       21
280
     0
281
     0
  0
CLASS
  1
MLEADERSTYLE
  2
AcDbMLeaderStyle
  3
ACDB_MLEADERSTYLE_CLASS
 90
     4095
 91
        1
280
     0
281
     0
  0
CLASS
  1
ACDBSECTIONVIEWSTYLE
  2
AcDbSectionViewStyle
  3
ObjectDBX Classes
 90
     1025
 91
        1
280
     0
281
     0
  0
CLASS
  1
ACDBDETAILVIEWSTYLE
  2
AcDbDetailViewStyle
  3
ObjectDBX Classes
 90
     1025
 91
        1
280
     0
281
     0
  0
CLASS
  1
SORTENTSTABLE
  2
AcDbSortentsTable
  3
ObjectDBX Classes
 90
        0
 91
        1
280
     0
281
     0
  0
CLASS
  1
DICTIONARYVAR
  2
AcDbDictionaryVar
  3
ObjectDBX Classes
 90
        0
 91
        5
280
     0
281
     0
  0
CLASS
  1
CELLSTYLEMAP
  2
AcDbCellStyleMap
  3
ObjectDBX Classes
 90
     1152
 91
        1
280
     0
281
     0
  0
ENDSEC
  0
SECTION
  2
TABLES
  0
TABLE
  2
VPORT
  5
8
330
0
100
AcDbSymbolTable
 70
     1
1001
ACAD
1000
DbSaveVer
1071
      105
  0
VPORT
  5
29
330
8
100
AcDbSymbolTableRecord
100
AcDbViewportTableRecord
  2
*Active
 70
     0
 10
0.0
 20
0.0
 11
1.0
 21
1.0
 12
-10.00439951480036
 22
-9.433679044976674
 13
0.0
 23
0.0
 14
0.5
 24
0.5
 15
0.5
 25
0.5
 16
0.0
 26
0.0
 36
1.0
 17
14.84999673225613
 27
-10.50008306681943
 37
0.0
 40
53.70209018966313
 41
1.932867132867133
 42
50.0
 43
0.0
 44
0.0
 50
0.0
 51
0.0
 71
     0
 72
   100
 73
     1
 74
     3
 75
     0
 76
     0
 77
     0
 78
     0
281
     0
 65
     1
110
0.0
120
0.0
130
0.0
111
1.0
121
0.0
131
0.0
112
0.0
122
1.0
132
0.0
 79
     0
146
0.0
348
2F
 60
     3
 61
     5
292
     1
282
     1
141
0.0
142
0.0
 63
   250
361
3F
1001
ACAD_NAV_VCDISPLAY
1070
     3
  0
ENDTAB
  0
TABLE
  2
LTYPE
  5
5
330
0
100
AcDbSymbolTable
 70
     1
  0
LTYPE
  5
14
330
5
100
AcDbSymbolTableRecord
100
AcDbLinetypeTableRecord
  2
ByBlock
 70
     0
  3

 72
    65
 73
     0
 40
0.0
  0
LTYPE
  5
15
330
5
100
AcDbSymbolTableRecord
100
AcDbLinetypeTableRecord
  2
ByLayer
 70
     0
  3

 72
    65
 73
     0
 40
0.0
  0
LTYPE
  5
16
330
5
100
AcDbSymbolTableRecord
100
AcDbLinetypeTableRecord
  2
Continuous
 70
     0
  3
Solid line
 72
    65
 73
     0
 40
0.0
  0
ENDTAB
  0
TABLE
  2
LAYER
  5
2
330
0
100
AcDbSymbolTable
 70
     2
  0
LAYER
  5
10
330
2
100
AcDbSymbolTableRecord
100
AcDbLayerTableRecord
  2
0
 70
     0
 62
     7
  6
Continuous
370
    -3
390
F
347
3E
348
0
  0
LAYER
  5
40
330
2
100
AcDbSymbolTableRecord
100
AcDbLayerTableRecord
  2
Livello 3
 70
     0
 62
     7
  6
Continuous
370
    -3
390
F
347
3E
348
0
  0
ENDTAB
  0
TABLE
  2
STYLE
  5
3
330
0
100
AcDbSymbolTable
 70
     1
  0
STYLE
  5
11
330
3
100
AcDbSymbolTableRecord
100
AcDbTextStyleTableRecord
  2
Standard
 70
     0
 40
0.0
 41
1.0
 50
0.0
 71
     0
 42
0.2
  3
txt
  4

  0
ENDTAB
  0
TABLE
  2
VIEW
  5
6
330
0
100
AcDbSymbolTable
 70
     0
  0
ENDTAB
  0
TABLE
  2
UCS
  5
7
330
0
100
AcDbSymbolTable
 70
     0
  0
ENDTAB
  0
TABLE
  2
APPID
  5
9
330
0
100
AcDbSymbolTable
 70
     2
  0
APPID
  5
12
330
9
100
AcDbSymbolTableRecord
100
AcDbRegAppTableRecord
  2
ACAD
 70
     0
  0
APPID
  5
153
330
9
100
AcDbSymbolTableRecord
100
AcDbRegAppTableRecord
  2
ACAD_NAV_VCDISPLAY
 70
     0
  0
ENDTAB
  0
TABLE
  2
DIMSTYLE
  5
A
330
0
100
AcDbSymbolTable
 70
     1
100
AcDbDimStyleTable
 71
     0
  0
DIMSTYLE
105
27
330
A
100
AcDbSymbolTableRecord
100
AcDbDimStyleTableRecord
  2
Standard
 70
     0
340
11
  0
ENDTAB
  0
TABLE
  2
BLOCK_RECORD
  5
1
330
0
100
AcDbSymbolTable
 70
    16
  0
BLOCK_RECORD
  5
1F
102
{ACAD_XDICTIONARY
360
FE
102
}
330
1
100
AcDbSymbolTableRecord
100
AcDbBlockTableRecord
  2
*Model_Space
340
22
 70
     0
280
     1
281
     0
  0
BLOCK_RECORD
  5
1B
330
1
100
AcDbSymbolTableRecord
100
AcDbBlockTableRecord
  2
*Paper_Space
340
1E
 70
     0
280
     1
281
     0
  0
BLOCK_RECORD
  5
23
330
1
100
AcDbSymbolTableRecord
100
AcDbBlockTableRecord
  2
*Paper_Space0
340
26
 70
     0
280
     1
281
     0
  0
BLOCK_RECORD
  5
41
330
1
100
AcDbSymbolTableRecord
100
AcDbBlockTableRecord
  2
block 2
340
0
 70
     0
280
     1
281
     0
  0
BLOCK_RECORD
  5
4B
330
1
100
AcDbSymbolTableRecord
100
AcDbBlockTableRecord
  2
block 3
340
0
 70
     0
280
     1
281
     0
  0
BLOCK_RECORD
  5
54
330
1
100
AcDbSymbolTableRecord
100
AcDbBlockTableRecord
  2
block 4
340
0
 70
     0
280
     1
281
     0
  0
BLOCK_RECORD
  5
59
330
1
100
AcDbSymbolTableRecord
100
AcDbBlockTableRecord
  2
block 5
340
0
 70
     0
280
     1
281
     0
  0
BLOCK_RECORD
  5
62
330
1
100
AcDbSymbolTableRecord
100
AcDbBlockTableRecord
  2
block 6
340
0
 70
     0
280
     1
281
     0
  0
BLOCK_RECORD
  5
6A
330
1
100
AcDbSymbolTableRecord
100
AcDbBlockTableRecord
  2
block 7
340
0
 70
     0
280
     1
281
     0
  0
BLOCK_RECORD
  5
72
330
1
100
AcDbSymbolTableRecord
100
AcDbBlockTableRecord
  2
block 8
340
0
 70
     0
280
     1
281
     0
  0
BLOCK_RECORD
  5
7A
330
1
100
AcDbSymbolTableRecord
100
AcDbBlockTableRecord
  2
block 9
340
0
 70
     0
280
     1
281
     0
  0
BLOCK_RECORD
  5
7F
330
1
100
AcDbSymbolTableRecord
100
AcDbBlockTableRecord
  2
block 10
340
0
 70
     0
280
     1
281
     0
  0
BLOCK_RECORD
  5
88
330
1
100
AcDbSymbolTableRecord
100
AcDbBlockTableRecord
  2
block 11
340
0
 70
     0
280
     1
281
     0
  0
BLOCK_RECORD
  5
91
330
1
100
AcDbSymbolTableRecord
100
AcDbBlockTableRecord
  2
block 12
340
0
 70
     0
280
     1
281
     0
  0
BLOCK_RECORD
  5
96
330
1
100
AcDbSymbolTableRecord
100
AcDbBlockTableRecord
  2
block 13
340
0
 70
     0
280
     1
281
     0
  0
BLOCK_RECORD
  5
9F
330
1
100
AcDbSymbolTableRecord
100
AcDbBlockTableRecord
  2
block 14
340
0
 70
     0
280
     1
281
     0
  0
BLOCK_RECORD
  5
AF
330
1
100
AcDbSymbolTableRecord
100
AcDbBlockTableRecord
  2
block 15
340
0
 70
     0
280
     1
281
     0
  0
BLOCK_RECORD
  5
C5
330
1
100
AcDbSymbolTableRecord
100
AcDbBlockTableRecord
  2
block 16
340
0
 70
     0
280
     1
281
     0
  0
ENDTAB
  0
ENDSEC
  0
SECTION
  2
BLOCKS
  0
BLOCK
  5
20
330
1F
100
AcDbEntity
  8
0
100
AcDbBlockBegin
  2
*Model_Space
 70
     0
 10
0.0
 20
0.0
 30
0.0
  3
*Model_Space
  1

  0
ENDBLK
  5
21
330
1F
100
AcDbEntity
  8
0
100
AcDbBlockEnd
  0
BLOCK
  5
1C
330
1B
100
AcDbEntity
 67
     1
  8
0
100
AcDbBlockBegin
  2
*Paper_Space
 70
     0
 10
0.0
 20
0.0
 30
0.0
  3
*Paper_Space
  1

  0
ENDBLK
  5
1D
330
1B
100
AcDbEntity
 67
     1
  8
0
100
AcDbBlockEnd
  0
BLOCK
  5
24
330
23
100
AcDbEntity
 67
     1
  8
0
100
AcDbBlockBegin
  2
*Paper_Space0
 70
     0
 10
0.0
 20
0.0
 30
0.0
  3
*Paper_Space0
  1

  0
ENDBLK
  5
25
330
23
100
AcDbEntity
 67
     1
  8
0
100
AcDbBlockEnd
  0
BLOCK
  5
43
330
41
100
AcDbEntity
  8
0
100
AcDbBlockBegin
  2
block 2
 70
     0
 10
0.0
 20
0.0
 30
0.0
  3
block 2
  1

  0
POLYLINE
  5
45
330
41
100
AcDbEntity
  8
Livello 3
 62
   250
420
  1842203
370
    70
100
AcDb2dPolyline
 66
     1
 10
0.0
 20
0.0
 30
0.0
  0
VERTEX
  5
46
330
45
100
AcDbEntity
  8
Livello 3
 62
   250
420
  1842203
370
    70
100
AcDbVertex
100
AcDb2dVertex
 10
13.40181224142462
 20
-6.261022387323621
 30
0.0
  0
VERTEX
  5
47
330
45
100
AcDbEntity
  8
Livello 3
 62
   250
420
  1842203
370
    70
100
AcDbVertex
100
AcDb2dVertex
 10
13.43852229604362
 20
-8.299019609036358
 30
0.0
  0
VERTEX
  5
48
330
45
100
AcDbEntity
  8
Livello 3
 62
   250
420
  1842203
370
    70
100
AcDbVertex
100
AcDb2dVertex
 10
13.35682954812778
 20
-18.02100718993922
 30
0.0
  0
VERTEX
  5
49
330
45
100
AcDbEntity
  8
Livello 3
 62
   250
420
  1842203
370
    70
100
AcDbVertex
100
AcDb2dVertex
 10
14.94309125765887
 20
-18.02100718993922
 30
0.0
  0
SEQEND
  5
4A
330
45
100
AcDbEntity
  8
Livello 3
 62
   250
420
  1842203
370
    70
  0
ENDBLK
  5
44
330
41
100
AcDbEntity
  8
0
100
AcDbBlockEnd
  0
BLOCK
  5
4D
330
4B
100
AcDbEntity
  8
0
100
AcDbBlockBegin
  2
block 3
 70
     0
 10
0.0
 20
0.0
 30
0.0
  3
block 3
  1

  0
POLYLINE
  5
4F
330
4B
100
AcDbEntity
  8
Livello 3
 62
   250
420
  1842203
370
    70
100
AcDb2dPolyline
 66
     1
 10
0.0
 20
0.0
 30
0.0
  0
VERTEX
  5
50
330
4F
100
AcDbEntity
  8
Livello 3
 62
   250
420
  1842203
370
    70
100
AcDbVertex
100
AcDb2dVertex
 10
13.35682954812778
 20
-18.02100718993922
 30
0.0
  0
VERTEX
  5
51
330
4F
100
AcDbEntity
  8
Livello 3
 62
   250
420
  1842203
370
    70
100
AcDbVertex
100
AcDb2dVertex
 10
13.18103685816818
 20
-18.11612313435989
 30
0.0
  0
VERTEX
  5
52
330
4F
100
AcDbEntity
  8
Livello 3
 62
   250
420
  1842203
370
    70
100
AcDbVertex
100
AcDb2dVertex
 10
14.14996216678217
 20
-18.11612313435989
 30
0.0
  0
SEQEND
  5
53
330
4F
100
AcDbEntity
  8
Livello 3
 62
   250
420
  1842203
370
    70
  0
ENDBLK
  5
4E
330
4B
100
AcDbEntity
  8
0
100
AcDbBlockEnd
  0
BLOCK
  5
56
330
54
100
AcDbEntity
  8
0
100
AcDbBlockBegin
  2
block 4
 70
     0
 10
0.0
 20
0.0
 30
0.0
  3
block 4
  1

  0
SPLINE
  5
58
330
54
100
AcDbEntity
  8
Livello 3
 62
   250
420
  1842203
370
    70
100
AcDbSpline
210
0.0
220
0.0
230
1.0
 70
     8
 71
     3
 72
    17
 73
    13
 74
     0
 42
0.000000001
 43
0.0000000001
 40
0.0
 40
0.0
 40
0.0
 40
0.0
 40
1.0
 40
1.0
 40
1.0
 40
2.0
 40
2.0
 40
2.0
 40
3.0
 40
3.0
 40
3.0
 40
4.0
 40
4.0
 40
4.0
 40
4.0
 10
13.18103685816818
 20
-18.11612313435989
 30
0.0
 10
13.18103685816818
 20
-18.11612313435989
 30
0.0
 10
13.18103685816818
 20
-18.13360327324438
 30
0.0
 10
13.18103685816818
 20
-18.13360327324438
 30
0.0
 10
13.18103685816818
 20
-18.13360327324438
 30
0.0
 10
13.00515277452648
 20
-18.13360327324438
 30
0.0
 10
13.00515277452648
 20
-18.13360327324438
 30
0.0
 10
13.00515277452648
 20
-18.13360327324438
 30
0.0
 10
13.01410241798258
 20
-17.92431432885225
 30
0.0
 10
13.01410241798258
 20
-17.92431432885225
 30
0.0
 10
13.11563891539217
 20
-17.84614230109404
 30
0.0
 10
13.25740971733086
 20
-17.84733468998261
 30
0.0
 10
13.35761624255215
 20
-17.9272035788515
 30
0.0
  0
ENDBLK
  5
57
330
54
100
AcDbEntity
  8
0
100
AcDbBlockEnd
  0
BLOCK
  5
5B
330
59
100
AcDbEntity
  8
0
100
AcDbBlockBegin
  2
block 5
 70
     0
 10
0.0
 20
0.0
 30
0.0
  3
block 5
  1

  0
POLYLINE
  5
5D
330
59
100
AcDbEntity
  8
Livello 3
 62
   250
420
  1842203
370
    70
100
AcDb2dPolyline
 66
     1
 10
0.0
 20
0.0
 30
0.0
  0
VERTEX
  5
5E
330
5D
100
AcDbEntity
  8
Livello 3
 62
   250
420
  1842203
370
    70
100
AcDbVertex
100
AcDb2dVertex
 10
13.00512775154488
 20
-18.13411127324425
 30
0.0
  0
VERTEX
  5
5F
330
5D
100
AcDbEntity
  8
Livello 3
 62
   250
420
  1842203
370
    70
100
AcDbVertex
100
AcDb2dVertex
 10
12.98780283532021
 20
-18.13411127324425
 30
0.0
  0
VERTEX
  5
60
330
5D
100
AcDbEntity
  8
Livello 3
 62
   250
420
  1842203
370
    70
100
AcDbVertex
100
AcDb2dVertex
 10
12.97290503014473
 20
-18.36218916207614
 30
0.0
  0
SEQEND
  5
61
330
5D
100
AcDbEntity
  8
Livello 3
 62
   250
420
  1842203
370
    70
  0
ENDBLK
  5
5C
330
59
100
AcDbEntity
  8
0
100
AcDbBlockEnd
  0
BLOCK
  5
64
330
62
100
AcDbEntity
  8
0
100
AcDbBlockBegin
  2
block 6
 70
     0
 10
0.0
 20
0.0
 30
0.0
  3
block 6
  1

  0
POLYLINE
  5
66
330
62
100
AcDbEntity
  8
Livello 3
 62
   250
420
  1842203
370
    70
100
AcDb2dPolyline
 66
     1
 10
0.0
 20
0.0
 30
0.0
  0
VERTEX
  5
67
330
66
100
AcDbEntity
  8
Livello 3
 62
   250
420
  1842203
370
    70
100
AcDbVertex
100
AcDb2dVertex
 10
13.43852229604362
 20
-8.299019609036358
 30
0.0
  0
VERTEX
  5
68
330
66
100
AcDbEntity
  8
Livello 3
 62
   250
420
  1842203
370
    70
100
AcDbVertex
100
AcDb2dVertex
 10
14.86139888517354
 20
-8.299019609036358
 30
0.0
  0
SEQEND
  5
69
330
66
100
AcDbEntity
  8
Livello 3
 62
   250
420
  1842203
370
    70
  0
ENDBLK
  5
65
330
62
100
AcDbEntity
  8
0
100
AcDbBlockEnd
  0
BLOCK
  5
6C
330
6A
100
AcDbEntity
  8
0
100
AcDbBlockBegin
  2
block 7
 70
     0
 10
0.0
 20
0.0
 30
0.0
  3
block 7
  1

  0
POLYLINE
  5
6E
330
6A
100
AcDbEntity
  8
Livello 3
 62
   250
420
  1842203
370
    70
100
AcDb2dPolyline
 66
     1
 10
0.0
 20
0.0
 30
0.0
  0
VERTEX
  5
6F
330
6E
100
AcDbEntity
  8
Livello 3
 62
   250
420
  1842203
370
    70
100
AcDbVertex
100
AcDb2dVertex
 10
13.40181224142462
 20
-6.261022387323621
 30
0.0
  0
VERTEX
  5
70
330
6E
100
AcDbEntity
  8
Livello 3
 62
   250
420
  1842203
370
    70
100
AcDbVertex
100
AcDb2dVertex
 10
14.89810856436203
 20
-6.261022387323621
 30
0.0
  0
SEQEND
  5
71
330
6E
100
AcDbEntity
  8
Livello 3
 62
   250
420
  1842203
370
    70
  0
ENDBLK
  5
6D
330
6A
100
AcDbEntity
  8
0
100
AcDbBlockEnd
  0
BLOCK
  5
74
330
72
100
AcDbEntity
  8
0
100
AcDbBlockBegin
  2
block 8
 70
     0
 10
0.0
 20
0.0
 30
0.0
  3
block 8
  1

  0
POLYLINE
  5
76
330
72
100
AcDbEntity
  8
Livello 3
 62
   250
420
  1842203
370
    70
100
AcDb2dPolyline
 66
     1
 10
0.0
 20
0.0
 30
0.0
  0
VERTEX
  5
77
330
76
100
AcDbEntity
  8
Livello 3
 62
   250
420
  1842203
370
    70
100
AcDbVertex
100
AcDb2dVertex
 10
13.40468738024015
 20
-6.420611998394832
 30
0.0
  0
VERTEX
  5
78
330
76
100
AcDbEntity
  8
Livello 3
 62
   250
420
  1842203
370
    70
100
AcDbVertex
100
AcDb2dVertex
 10
14.89523342554649
 20
-6.420611998394832
 30
0.0
  0
SEQEND
  5
79
330
76
100
AcDbEntity
  8
Livello 3
 62
   250
420
  1842203
370
    70
  0
ENDBLK
  5
75
330
72
100
AcDbEntity
  8
0
100
AcDbBlockEnd
  0
BLOCK
  5
7C
330
7A
100
AcDbEntity
  8
0
100
AcDbBlockBegin
  2
block 9
 70
     0
 10
0.0
 20
0.0
 30
0.0
  3
block 9
  1

  0
SPLINE
  5
7E
330
7A
100
AcDbEntity
  8
Livello 3
 62
   250
420
  1842203
370
    70
100
AcDbSpline
210
0.0
220
0.0
230
1.0
 70
     8
 71
     3
 72
     8
 73
     4
 74
     0
 42
0.000000001
 43
0.0000000001
 40
0.0
 40
0.0
 40
0.0
 40
0.0
 40
1.0
 40
1.0
 40
1.0
 40
1.0
 10
14.89810856436203
 20
-6.261022387323621
 30
0.0
 10
14.40163029925047
 20
-6.193497192896058
 30
0.0
 10
13.89829403431387
 20
-6.193497192896058
 30
0.0
 10
13.40181224142462
 20
-6.261022387323621
 30
0.0
  0
ENDBLK
  5
7D
330
7A
100
AcDbEntity
  8
0
100
AcDbBlockEnd
  0
BLOCK
  5
81
330
7F
100
AcDbEntity
  8
0
100
AcDbBlockBegin
  2
block 10
 70
     0
 10
0.0
 20
0.0
 30
0.0
  3
block 10
  1

  0
POLYLINE
  5
83
330
7F
100
AcDbEntity
  8
Livello 3
 62
   250
420
  1842203
370
    70
100
AcDb2dPolyline
 66
     1
 10
0.0
 20
0.0
 30
0.0
  0
VERTEX
  5
84
330
83
100
AcDbEntity
  8
Livello 3
 62
   250
420
  1842203
370
    70
100
AcDbVertex
100
AcDb2dVertex
 10
14.89810856436203
 20
-6.261022387323621
 30
0.0
  0
VERTEX
  5
85
330
83
100
AcDbEntity
  8
Livello 3
 62
   250
420
  1842203
370
    70
100
AcDbVertex
100
AcDb2dVertex
 10
14.86139888517354
 20
-8.299019609036358
 30
0.0
  0
VERTEX
  5
86
330
83
100
AcDbEntity
  8
Livello 3
 62
   250
420
  1842203
370
    70
100
AcDbVertex
100
AcDb2dVertex
 10
14.94309125765887
 20
-18.02100718993922
 30
0.0
  0
SEQEND
  5
87
330
83
100
AcDbEntity
  8
Livello 3
 62
   250
420
  1842203
370
    70
  0
ENDBLK
  5
82
330
7F
100
AcDbEntity
  8
0
100
AcDbBlockEnd
  0
BLOCK
  5
8A
330
88
100
AcDbEntity
  8
0
100
AcDbBlockBegin
  2
block 11
 70
     0
 10
0.0
 20
0.0
 30
0.0
  3
block 11
  1

  0
POLYLINE
  5
8C
330
88
100
AcDbEntity
  8
Livello 3
 62
   250
420
  1842203
370
    70
100
AcDb2dPolyline
 66
     1
 10
0.0
 20
0.0
 30
0.0
  0
VERTEX
  5
8D
330
8C
100
AcDbEntity
  8
Livello 3
 62
   250
420
  1842203
370
    70
100
AcDbVertex
100
AcDb2dVertex
 10
14.94309125765887
 20
-18.02100718993922
 30
0.0
  0
VERTEX
  5
8E
330
8C
100
AcDbEntity
  8
Livello 3
 62
   250
420
  1842203
370
    70
100
AcDbVertex
100
AcDb2dVertex
 10
15.11888394761847
 20
-18.11612313435989
 30
0.0
  0
VERTEX
  5
8F
330
8C
100
AcDbEntity
  8
Livello 3
 62
   250
420
  1842203
370
    70
100
AcDbVertex
100
AcDb2dVertex
 10
14.14996216678217
 20
-18.11612313435989
 30
0.0
  0
SEQEND
  5
90
330
8C
100
AcDbEntity
  8
Livello 3
 62
   250
420
  1842203
370
    70
  0
ENDBLK
  5
8B
330
88
100
AcDbEntity
  8
0
100
AcDbBlockEnd
  0
BLOCK
  5
93
330
91
100
AcDbEntity
  8
0
100
AcDbBlockBegin
  2
block 12
 70
     0
 10
0.0
 20
0.0
 30
0.0
  3
block 12
  1

  0
SPLINE
  5
95
330
91
100
AcDbEntity
  8
Livello 3
 62
   250
420
  1842203
370
    70
100
AcDbSpline
210
0.0
220
0.0
230
1.0
 70
     8
 71
     3
 72
    17
 73
    13
 74
     0
 42
0.000000001
 43
0.0000000001
 40
0.0
 40
0.0
 40
0.0
 40
0.0
 40
1.0
 40
1.0
 40
1.0
 40
2.0
 40
2.0
 40
2.0
 40
3.0
 40
3.0
 40
3.0
 40
4.0
 40
4.0
 40
4.0
 40
4.0
 10
15.11888394761847
 20
-18.11612313435989
 30
0.0
 10
15.11888394761847
 20
-18.11612313435989
 30
0.0
 10
15.11888394761847
 20
-18.13360327324438
 30
0.0
 10
15.11888394761847
 20
-18.13360327324438
 30
0.0
 10
15.11888394761847
 20
-18.13360327324438
 30
0.0
 10
15.29477188757564
 20
-18.13360327324438
 30
0.0
 10
15.29477188757564
 20
-18.13360327324438
 30
0.0
 10
15.29477188757564
 20
-18.13360327324438
 30
0.0
 10
15.28581838780406
 20
-17.92431432885225
 30
0.0
 10
15.28581838780406
 20
-17.92431432885225
 30
0.0
 10
15.18428189039447
 20
-17.84614230109404
 30
0.0
 10
15.04251108845579
 20
-17.84733468998261
 30
0.0
 10
14.94230456323449
 20
-17.9272035788515
 30
0.0
  0
ENDBLK
  5
94
330
91
100
AcDbEntity
  8
0
100
AcDbBlockEnd
  0
BLOCK
  5
98
330
96
100
AcDbEntity
  8
0
100
AcDbBlockBegin
  2
block 13
 70
     0
 10
0.0
 20
0.0
 30
0.0
  3
block 13
  1

  0
POLYLINE
  5
9A
330
96
100
AcDbEntity
  8
Livello 3
 62
   250
420
  1842203
370
    70
100
AcDb2dPolyline
 66
     1
 10
0.0
 20
0.0
 30
0.0
  0
VERTEX
  5
9B
330
9A
100
AcDbEntity
  8
Livello 3
 62
   250
420
  1842203
370
    70
100
AcDbVertex
100
AcDb2dVertex
 10
15.29479305424176
 20
-18.13411127324425
 30
0.0
  0
VERTEX
  5
9C
330
9A
100
AcDbEntity
  8
Livello 3
 62
   250
420
  1842203
370
    70
100
AcDbVertex
100
AcDb2dVertex
 10
15.31212149824412
 20
-18.13411127324425
 30
0.0
  0
VERTEX
  5
9D
330
9A
100
AcDbEntity
  8
Livello 3
 62
   250
420
  1842203
370
    70
100
AcDbVertex
100
AcDb2dVertex
 10
15.32701577564192
 20
-18.36218916207614
 30
0.0
  0
SEQEND
  5
9E
330
9A
100
AcDbEntity
  8
Livello 3
 62
   250
420
  1842203
370
    70
  0
ENDBLK
  5
99
330
96
100
AcDbEntity
  8
0
100
AcDbBlockEnd
  0
BLOCK
  5
A1
330
9F
100
AcDbEntity
  8
0
100
AcDbBlockBegin
  2
block 14
 70
     0
 10
0.0
 20
0.0
 30
0.0
  3
block 14
  1

  0
POLYLINE
  5
A3
330
9F
100
AcDbEntity
  8
Livello 3
 62
   250
420
  1842203
370
    70
100
AcDb2dPolyline
 66
     1
 10
0.0
 20
0.0
 30
0.0
  0
VERTEX
  5
A4
330
A3
100
AcDbEntity
  8
Livello 3
 62
   250
420
  1842203
370
    70
100
AcDbVertex
100
AcDb2dVertex
 10
12.97290503014473
 20
-18.36218916207614
 30
0.0
  0
VERTEX
  5
A5
330
A3
100
AcDbEntity
  8
Livello 3
 62
   250
420
  1842203
370
    70
100
AcDbVertex
100
AcDb2dVertex
 10
15.32701577564192
 20
-18.36218916207614
 30
0.0
  0
SEQEND
  5
A6
330
A3
100
AcDbEntity
  8
Livello 3
 62
   250
420
  1842203
370
    70
  0
ENDBLK
  5
A2
330
9F
100
AcDbEntity
  8
0
100
AcDbBlockEnd
  0
BLOCK
  5
B1
330
AF
100
AcDbEntity
  8
0
100
AcDbBlockBegin
  2
block 15
 70
     0
 10
0.0
 20
0.0
 30
0.0
  3
block 15
  1

  0
POLYLINE
  5
B3
330
AF
100
AcDbEntity
  8
Livello 3
370
     0
100
AcDb2dPolyline
 66
     1
 10
0.0
 20
0.0
 30
0.0
  0
VERTEX
  5
B4
330
B3
100
AcDbEntity
  8
Livello 3
370
     0
100
AcDbVertex
100
AcDb2dVertex
 10
13.46119384429095
 20
-19.38062580895692
 30
0.0
  0
VERTEX
  5
B5
330
B3
100
AcDbEntity
  8
Livello 3
370
     0
100
AcDbVertex
100
AcDb2dVertex
 10
13.45950574750318
 20
-19.38062580895692
 30
0.0
  0
VERTEX
  5
B6
330
B3
100
AcDbEntity
  8
Livello 3
370
     0
100
AcDbVertex
100
AcDb2dVertex
 10
13.36381822040036
 20
-19.43226779028082
 30
0.0
  0
VERTEX
  5
B7
330
B3
100
AcDbEntity
  8
Livello 3
370
     0
100
AcDbVertex
100
AcDb2dVertex
 10
13.34941772127202
 20
-19.37552706763876
 30
0.0
  0
VERTEX
  5
B8
330
B3
100
AcDbEntity
  8
Livello 3
370
     0
100
AcDbVertex
100
AcDb2dVertex
 10
13.46965155370724
 20
-19.31117268397429
 30
0.0
  0
VERTEX
  5
B9
330
B3
100
AcDbEntity
  8
Livello 3
370
     0
100
AcDbVertex
100
AcDb2dVertex
 10
13.53316188897782
 20
-19.31117268397429
 30
0.0
  0
VERTEX
  5
BA
330
B3
100
AcDbEntity
  8
Livello 3
370
     0
100
AcDbVertex
100
AcDb2dVertex
 10
13.53316188897782
 20
-19.8615611386978
 30
0.0
  0
VERTEX
  5
BB
330
B3
100
AcDbEntity
  8
Livello 3
370
     0
100
AcDbVertex
100
AcDb2dVertex
 10
13.46119384429095
 20
-19.8615611386978
 30
0.0
  0
VERTEX
  5
BC
330
B3
100
AcDbEntity
  8
Livello 3
370
     0
100
AcDbVertex
100
AcDb2dVertex
 10
13.46119384429095
 20
-19.38062580895692
 30
0.0
  0
SEQEND
  5
BD
330
B3
100
AcDbEntity
  8
Livello 3
370
     0
  0
HATCH
  5
BE
330
AF
100
AcDbEntity
  8
Livello 3
 62
   250
420
  1842203
100
AcDbHatch
 10
0.0
 20
0.0
 30
0.0
210
0.0
220
0.0
230
1.0
  2
SOLID
 70
     1
 71
     0
 91
        1
 92
        1
 93
        8
 72
     1
 10
13.46119384429095
 20
-19.38062580895692
 11
13.45950574750318
 21
-19.38062580895692
 72
     1
 10
13.45950574750318
 20
-19.38062580895692
 11
13.36381822040036
 21
-19.43226779028082
 72
     1
 10
13.36381822040036
 20
-19.43226779028082
 11
13.34941772127202
 21
-19.37552706763876
 72
     1
 10
13.34941772127202
 20
-19.37552706763876
 11
13.46965155370724
 21
-19.31117268397429
 72
     1
 10
13.46965155370724
 20
-19.31117268397429
 11
13.53316188897782
 21
-19.31117268397429
 72
     1
 10
13.53316188897782
 20
-19.31117268397429
 11
13.53316188897782
 21
-19.8615611386978
 72
     1
 10
13.53316188897782
 20
-19.8615611386978
 11
13.46119384429095
 21
-19.8615611386978
 72
     1
 10
13.46119384429095
 20
-19.8615611386978
 11
13.46119384429095
 21
-19.38062580895692
 97
        0
 75
     2
 76
     1
 98
        0
450
        0
451
        0
460
0.0
461
0.0
452
        0
462
0.0
453
        0
470

  0
SPLINE
  5
BF
330
AF
100
AcDbEntity
  8
Livello 3
370
     0
100
AcDbSpline
210
0.0
220
0.0
230
1.0
 70
    11
 71
     3
 72
    50
 73
    46
 74
     0
 42
0.000000001
 43
0.0000000001
 40
0.0
 40
0.0
 40
0.0
 40
0.0
 40
1.0
 40
1.0
 40
1.0
 40
2.0
 40
2.0
 40
2.0
 40
3.0
 40
3.0
 40
3.0
 40
4.0
 40
4.0
 40
4.0
 40
5.0
 40
5.0
 40
5.0
 40
6.0
 40
6.0
 40
6.0
 40
7.0
 40
7.0
 40
7.0
 40
8.0
 40
8.0
 40
8.0
 40
9.0
 40
9.0
 40
9.0
 40
10.0
 40
10.0
 40
10.0
 40
11.0
 40
11.0
 40
11.0
 40
12.0
 40
12.0
 40
12.0
 40
13.0
 40
13.0
 40
13.0
 40
14.0
 40
14.0
 40
14.0
 40
15.0
 40
15.0
 40
15.0
 40
15.0
 10
14.0623285555122
 20
-19.37383897085098
 30
0.0
 10
14.0623285555122
 20
-19.37383897085098
 30
0.0
 10
13.85233276020878
 20
-19.37383897085098
 30
0.0
 10
13.85233276020878
 20
-19.37383897085098
 30
0.0
 10
13.85233276020878
 20
-19.37383897085098
 30
0.0
 10
13.83116264845193
 20
-19.51526014052049
 30
0.0
 10
13.83116264845193
 20
-19.51526014052049
 30
0.0
 10
13.84385782531508
 20
-19.51353759277787
 30
0.0
 10
13.85572617926176
 20
-19.51184949599009
 30
0.0
 10
13.87603501714731
 20
-19.51184949599009
 30
0.0
 10
13.91837524066103
 20
-19.51184949599009
 30
0.0
 10
13.96071546417475
 20
-19.52118570475512
 30
0.0
 10
13.99458075279476
 20
-19.54147731716324
 30
0.0
 10
14.03776502470235
 20
-19.56604084797307
 30
0.0
 10
14.07333563558757
 20
-19.61347981280496
 30
0.0
 10
14.07333563558757
 20
-19.68289848683274
 30
0.0
 10
14.07333563558757
 20
-19.79041991692739
 30
0.0
 10
13.98781114016624
 20
-19.87086289650798
 30
0.0
 10
13.86842135612491
 20
-19.87086289650798
 30
0.0
 10
13.8083044399073
 20
-19.87086289650798
 30
0.0
 10
13.75748928149986
 20
-19.85394747767539
 30
0.0
 10
13.73125487937969
 20
-19.83699760788797
 30
0.0
 10
13.73125487937969
 20
-19.83699760788797
 30
0.0
 10
13.74987562047746
 20
-19.78029133620076
 30
0.0
 10
13.74987562047746
 20
-19.78029133620076
 30
0.0
 10
13.77273382902209
 20
-19.79383056145779
 30
0.0
 10
13.81760619771747
 20
-19.81074598029037
 30
0.0
 10
13.86757730773102
 20
-19.81074598029037
 30
0.0
 10
13.93785725563012
 20
-19.81074598029037
 30
0.0
 10
13.99797417184773
 20
-19.7650295632011
 30
0.0
 10
13.99797417184773
 20
-19.69137342172646
 30
0.0
 10
13.99713012345384
 20
-19.62023219995605
 30
0.0
 10
13.94970838409938
 20
-19.56945149250347
 30
0.0
 10
13.83963758334565
 20
-19.56945149250347
 30
0.0
 10
13.8083044399073
 20
-19.56945149250347
 30
0.0
 10
13.78374090909747
 20
-19.57282768607901
 30
0.0
 10
13.76341484573449
 20
-19.5753770567381
 30
0.0
 10
13.76341484573449
 20
-19.5753770567381
 30
0.0
 10
13.7989854566197
 20
-19.31117268397429
 30
0.0
 10
13.7989854566197
 20
-19.31117268397429
 30
0.0
 10
13.7989854566197
 20
-19.31117268397429
 30
0.0
 10
14.0623285555122
 20
-19.31117268397429
 30
0.0
 10
14.0623285555122
 20
-19.31117268397429
 30
0.0
 10
14.0623285555122
 20
-19.31117268397429
 30
0.0
 10
14.0623285555122
 20
-19.37383897085098
 30
0.0
 10
14.0623285555122
 20
-19.37383897085098
 30
0.0
  0
HATCH
  5
C0
330
AF
100
AcDbEntity
  8
Livello 3
 62
   250
420
  1842203
100
AcDbHatch
 10
0.0
 20
0.0
 30
0.0
210
0.0
220
0.0
230
1.0
  2
SOLID
 70
     1
 71
     0
 91
        1
 92
        1
 93
        1
 72
     4
 94
        3
 73
     0
 74
     0
 95
       50
 96
       46
 40
0.0
 40
0.0
 40
0.0
 40
0.0
 40
1.0
 40
1.0
 40
1.0
 40
2.0
 40
2.0
 40
2.0
 40
3.0
 40
3.0
 40
3.0
 40
4.0
 40
4.0
 40
4.0
 40
5.0
 40
5.0
 40
5.0
 40
6.0
 40
6.0
 40
6.0
 40
7.0
 40
7.0
 40
7.0
 40
8.0
 40
8.0
 40
8.0
 40
9.0
 40
9.0
 40
9.0
 40
10.0
 40
10.0
 40
10.0
 40
11.0
 40
11.0
 40
11.0
 40
12.0
 40
12.0
 40
12.0
 40
13.0
 40
13.0
 40
13.0
 40
14.0
 40
14.0
 40
14.0
 40
15.0
 40
15.0
 40
15.0
 40
15.0
 10
14.0623285555122
 20
-19.37383897085098
 10
14.0623285555122
 20
-19.37383897085098
 10
13.85233276020878
 20
-19.37383897085098
 10
13.85233276020878
 20
-19.37383897085098
 10
13.85233276020878
 20
-19.37383897085098
 10
13.83116264845193
 20
-19.51526014052049
 10
13.83116264845193
 20
-19.51526014052049
 10
13.84385782531508
 20
-19.51353759277787
 10
13.85572617926176
 20
-19.51184949599009
 10
13.87603501714731
 20
-19.51184949599009
 10
13.91837524066103
 20
-19.51184949599009
 10
13.96071546417475
 20
-19.52118570475512
 10
13.99458075279476
 20
-19.54147731716324
 10
14.03776502470235
 20
-19.56604084797307
 10
14.07333563558757
 20
-19.61347981280496
 10
14.07333563558757
 20
-19.68289848683274
 10
14.07333563558757
 20
-19.79041991692739
 10
13.98781114016624
 20
-19.87086289650798
 10
13.86842135612491
 20
-19.87086289650798
 10
13.8083044399073
 20
-19.87086289650798
 10
13.75748928149986
 20
-19.85394747767539
 10
13.73125487937969
 20
-19.83699760788797
 10
13.73125487937969
 20
-19.83699760788797
 10
13.74987562047746
 20
-19.78029133620076
 10
13.74987562047746
 20
-19.78029133620076
 10
13.77273382902209
 20
-19.79383056145779
 10
13.81760619771747
 20
-19.81074598029037
 10
13.86757730773102
 20
-19.81074598029037
 10
13.93785725563012
 20
-19.81074598029037
 10
13.99797417184773
 20
-19.7650295632011
 10
13.99797417184773
 20
-19.69137342172646
 10
13.99713012345384
 20
-19.62023219995605
 10
13.94970838409938
 20
-19.56945149250347
 10
13.83963758334565
 20
-19.56945149250347
 10
13.8083044399073
 20
-19.56945149250347
 10
13.78374090909747
 20
-19.57282768607901
 10
13.76341484573449
 20
-19.5753770567381
 10
13.76341484573449
 20
-19.5753770567381
 10
13.7989854566197
 20
-19.31117268397429
 10
13.7989854566197
 20
-19.31117268397429
 10
13.7989854566197
 20
-19.31117268397429
 10
14.0623285555122
 20
-19.31117268397429
 10
14.0623285555122
 20
-19.31117268397429
 10
14.0623285555122
 20
-19.31117268397429
 10
14.0623285555122
 20
-19.37383897085098
 10
14.0623285555122
 20
-19.37383897085098
 97
        0
 97
        0
 75
     2
 76
     1
 98
        0
450
        0
451
        0
460
0.0
461
0.0
452
        0
462
0.0
453
        0
470

  0
SPLINE
  5
C1
330
AF
100
AcDbEntity
  8
Livello 3
370
     0
100
AcDbSpline
210
0.0
220
0.0
230
1.0
 70
     9
 71
     3
 72
    17
 73
    13
 74
     0
 42
0.000000001
 43
0.0000000001
 40
0.0
 40
0.0
 40
0.0
 40
0.0
 40
1.0
 40
1.0
 40
1.0
 40
2.0
 40
2.0
 40
2.0
 40
3.0
 40
3.0
 40
3.0
 40
4.0
 40
4.0
 40
4.0
 40
4.0
 10
14.14354668157696
 20
-19.9657063752169
 30
0.0
 10
14.16218464815216
 20
-19.91575249068078
 30
0.0
 10
14.18504285669679
 20
-19.82514647941871
 30
0.0
 10
14.19436183998439
 20
-19.76334146641333
 30
0.0
 10
14.19436183998439
 20
-19.76334146641333
 30
0.0
 10
14.27733696474664
 20
-19.75486653151961
 30
0.0
 10
14.27733696474664
 20
-19.75486653151961
 30
0.0
 10
14.25787217525498
 20
-19.82683457620648
 30
0.0
 10
14.220613467582
 20
-19.9208167810441
 30
0.0
 10
14.19689398516605
 20
-19.96064208485359
 30
0.0
 10
14.19689398516605
 20
-19.96064208485359
 30
0.0
 10
14.14354668157696
 20
-19.9657063752169
 30
0.0
 10
14.14354668157696
 20
-19.9657063752169
 30
0.0
  0
HATCH
  5
C2
330
AF
100
AcDbEntity
  8
Livello 3
 62
   250
420
  1842203
100
AcDbHatch
 10
0.0
 20
0.0
 30
0.0
210
0.0
220
0.0
230
1.0
  2
SOLID
 70
     1
 71
     0
 91
        1
 92
        1
 93
        1
 72
     4
 94
        3
 73
     0
 74
     0
 95
       17
 96
       13
 40
0.0
 40
0.0
 40
0.0
 40
0.0
 40
1.0
 40
1.0
 40
1.0
 40
2.0
 40
2.0
 40
2.0
 40
3.0
 40
3.0
 40
3.0
 40
4.0
 40
4.0
 40
4.0
 40
4.0
 10
14.14354668157696
 20
-19.9657063752169
 10
14.16218464815216
 20
-19.91575249068078
 10
14.18504285669679
 20
-19.82514647941871
 10
14.19436183998439
 20
-19.76334146641333
 10
14.19436183998439
 20
-19.76334146641333
 10
14.27733696474664
 20
-19.75486653151961
 10
14.27733696474664
 20
-19.75486653151961
 10
14.25787217525498
 20
-19.82683457620648
 10
14.220613467582
 20
-19.9208167810441
 10
14.19689398516605
 20
-19.96064208485359
 10
14.19689398516605
 20
-19.96064208485359
 10
14.14354668157696
 20
-19.9657063752169
 10
14.14354668157696
 20
-19.9657063752169
 97
        0
 97
        0
 75
     2
 76
     1
 98
        0
450
        0
451
        0
460
0.0
461
0.0
452
        0
462
0.0
453
        0
470

  0
SPLINE
  5
C3
330
AF
100
AcDbEntity
  8
Livello 3
370
     0
100
AcDbSpline
210
0.0
220
0.0
230
1.0
 70
    11
 71
     3
 72
    50
 73
    46
 74
     0
 42
0.000000001
 43
0.0000000001
 40
0.0
 40
0.0
 40
0.0
 40
0.0
 40
1.0
 40
1.0
 40
1.0
 40
2.0
 40
2.0
 40
2.0
 40
3.0
 40
3.0
 40
3.0
 40
4.0
 40
4.0
 40
4.0
 40
5.0
 40
5.0
 40
5.0
 40
6.0
 40
6.0
 40
6.0
 40
7.0
 40
7.0
 40
7.0
 40
8.0
 40
8.0
 40
8.0
 40
9.0
 40
9.0
 40
9.0
 40
10.0
 40
10.0
 40
10.0
 40
11.0
 40
11.0
 40
11.0
 40
12.0
 40
12.0
 40
12.0
 40
13.0
 40
13.0
 40
13.0
 40
14.0
 40
14.0
 40
14.0
 40
15.0
 40
15.0
 40
15.0
 40
15.0
 10
14.6719037506723
 20
-19.37383897085098
 30
0.0
 10
14.6719037506723
 20
-19.37383897085098
 30
0.0
 10
14.4619079553689
 20
-19.37383897085098
 30
0.0
 10
14.4619079553689
 20
-19.37383897085098
 30
0.0
 10
14.4619079553689
 20
-19.37383897085098
 30
0.0
 10
14.44073784361204
 20
-19.51526014052049
 30
0.0
 10
14.44073784361204
 20
-19.51526014052049
 30
0.0
 10
14.45343302047518
 20
-19.51353759277787
 30
0.0
 10
14.46530137442187
 20
-19.51184949599009
 30
0.0
 10
14.48561021230742
 20
-19.51184949599009
 30
0.0
 10
14.52795043582114
 20
-19.51184949599009
 30
0.0
 10
14.57029065933486
 20
-19.52118570475512
 30
0.0
 10
14.60415594795486
 20
-19.54147731716324
 30
0.0
 10
14.64734021986247
 20
-19.56604084797307
 30
0.0
 10
14.68291083074767
 20
-19.61347981280496
 30
0.0
 10
14.68291083074767
 20
-19.68289848683274
 30
0.0
 10
14.68291083074767
 20
-19.79041991692739
 30
0.0
 10
14.59738633532635
 20
-19.87086289650798
 30
0.0
 10
14.47799655128501
 20
-19.87086289650798
 30
0.0
 10
14.4178796350674
 20
-19.87086289650798
 30
0.0
 10
14.36706447665997
 20
-19.85394747767539
 30
0.0
 10
14.34083007453979
 20
-19.83699760788797
 30
0.0
 10
14.34083007453979
 20
-19.83699760788797
 30
0.0
 10
14.35945081563757
 20
-19.78029133620076
 30
0.0
 10
14.35945081563757
 20
-19.78029133620076
 30
0.0
 10
14.3823090241822
 20
-19.79383056145779
 30
0.0
 10
14.42718139287758
 20
-19.81074598029037
 30
0.0
 10
14.47715250289113
 20
-19.81074598029037
 30
0.0
 10
14.54743245079022
 20
-19.81074598029037
 30
0.0
 10
14.60754936700783
 20
-19.7650295632011
 30
0.0
 10
14.60754936700783
 20
-19.69137342172646
 30
0.0
 10
14.60670531861395
 20
-19.62023219995605
 30
0.0
 10
14.55928357925948
 20
-19.56945149250347
 30
0.0
 10
14.44921277850575
 20
-19.56945149250347
 30
0.0
 10
14.4178796350674
 20
-19.56945149250347
 30
0.0
 10
14.39331610425757
 20
-19.57282768607901
 30
0.0
 10
14.3729900408946
 20
-19.5753770567381
 30
0.0
 10
14.3729900408946
 20
-19.5753770567381
 30
0.0
 10
14.4085606517798
 20
-19.31117268397429
 30
0.0
 10
14.4085606517798
 20
-19.31117268397429
 30
0.0
 10
14.4085606517798
 20
-19.31117268397429
 30
0.0
 10
14.6719037506723
 20
-19.31117268397429
 30
0.0
 10
14.6719037506723
 20
-19.31117268397429
 30
0.0
 10
14.6719037506723
 20
-19.31117268397429
 30
0.0
 10
14.6719037506723
 20
-19.37383897085098
 30
0.0
 10
14.6719037506723
 20
-19.37383897085098
 30
0.0
  0
HATCH
  5
C4
330
AF
100
AcDbEntity
  8
Livello 3
 62
   250
420
  1842203
100
AcDbHatch
 10
0.0
 20
0.0
 30
0.0
210
0.0
220
0.0
230
1.0
  2
SOLID
 70
     1
 71
     0
 91
        1
 92
        1
 93
        1
 72
     4
 94
        3
 73
     0
 74
     0
 95
       50
 96
       46
 40
0.0
 40
0.0
 40
0.0
 40
0.0
 40
1.0
 40
1.0
 40
1.0
 40
2.0
 40
2.0
 40
2.0
 40
3.0
 40
3.0
 40
3.0
 40
4.0
 40
4.0
 40
4.0
 40
5.0
 40
5.0
 40
5.0
 40
6.0
 40
6.0
 40
6.0
 40
7.0
 40
7.0
 40
7.0
 40
8.0
 40
8.0
 40
8.0
 40
9.0
 40
9.0
 40
9.0
 40
10.0
 40
10.0
 40
10.0
 40
11.0
 40
11.0
 40
11.0
 40
12.0
 40
12.0
 40
12.0
 40
13.0
 40
13.0
 40
13.0
 40
14.0
 40
14.0
 40
14.0
 40
15.0
 40
15.0
 40
15.0
 40
15.0
 10
14.6719037506723
 20
-19.37383897085098
 10
14.6719037506723
 20
-19.37383897085098
 10
14.4619079553689
 20
-19.37383897085098
 10
14.4619079553689
 20
-19.37383897085098
 10
14.4619079553689
 20
-19.37383897085098
 10
14.44073784361204
 20
-19.51526014052049
 10
14.44073784361204
 20
-19.51526014052049
 10
14.45343302047518
 20
-19.51353759277787
 10
14.46530137442187
 20
-19.51184949599009
 10
14.48561021230742
 20
-19.51184949599009
 10
14.52795043582114
 20
-19.51184949599009
 10
14.57029065933486
 20
-19.52118570475512
 10
14.60415594795486
 20
-19.54147731716324
 10
14.64734021986247
 20
-19.56604084797307
 10
14.68291083074767
 20
-19.61347981280496
 10
14.68291083074767
 20
-19.68289848683274
 10
14.68291083074767
 20
-19.79041991692739
 10
14.59738633532635
 20
-19.87086289650798
 10
14.47799655128501
 20
-19.87086289650798
 10
14.4178796350674
 20
-19.87086289650798
 10
14.36706447665997
 20
-19.85394747767539
 10
14.34083007453979
 20
-19.83699760788797
 10
14.34083007453979
 20
-19.83699760788797
 10
14.35945081563757
 20
-19.78029133620076
 10
14.35945081563757
 20
-19.78029133620076
 10
14.3823090241822
 20
-19.79383056145779
 10
14.42718139287758
 20
-19.81074598029037
 10
14.47715250289113
 20
-19.81074598029037
 10
14.54743245079022
 20
-19.81074598029037
 10
14.60754936700783
 20
-19.7650295632011
 10
14.60754936700783
 20
-19.69137342172646
 10
14.60670531861395
 20
-19.62023219995605
 10
14.55928357925948
 20
-19.56945149250347
 10
14.44921277850575
 20
-19.56945149250347
 10
14.4178796350674
 20
-19.56945149250347
 10
14.39331610425757
 20
-19.57282768607901
 10
14.3729900408946
 20
-19.5753770567381
 10
14.3729900408946
 20
-19.5753770567381
 10
14.4085606517798
 20
-19.31117268397429
 10
14.4085606517798
 20
-19.31117268397429
 10
14.4085606517798
 20
-19.31117268397429
 10
14.6719037506723
 20
-19.31117268397429
 10
14.6719037506723
 20
-19.31117268397429
 10
14.6719037506723
 20
-19.31117268397429
 10
14.6719037506723
 20
-19.37383897085098
 10
14.6719037506723
 20
-19.37383897085098
 97
        0
 97
        0
 75
     2
 76
     1
 98
        0
450
        0
451
        0
460
0.0
461
0.0
452
        0
462
0.0
453
        0
470

  0
ENDBLK
  5
B2
330
AF
100
AcDbEntity
  8
0
100
AcDbBlockEnd
  0
BLOCK
  5
C7
330
C5
100
AcDbEntity
  8
0
100
AcDbBlockBegin
  2
block 16
 70
     0
 10
0.0
 20
0.0
 30
0.0
  3
block 16
  1

  0
SPLINE
  5
C9
330
C5
100
AcDbEntity
  8
Livello 3
370
     0
100
AcDbSpline
210
0.0
220
0.0
230
1.0
 70
     9
 71
     3
 72
    35
 73
    31
 74
     0
 42
0.000000001
 43
0.0000000001
 40
0.0
 40
0.0
 40
0.0
 40
0.0
 40
1.0
 40
1.0
 40
1.0
 40
2.0
 40
2.0
 40
2.0
 40
3.0
 40
3.0
 40
3.0
 40
4.0
 40
4.0
 40
4.0
 40
5.0
 40
5.0
 40
5.0
 40
6.0
 40
6.0
 40
6.0
 40
7.0
 40
7.0
 40
7.0
 40
8.0
 40
8.0
 40
8.0
 40
9.0
 40
9.0
 40
9.0
 40
10.0
 40
10.0
 40
10.0
 40
10.0
 10
17.01791042326288
 20
-12.71433159404364
 30
0.0
 10
16.94845729828025
 20
-12.71433159404364
 30
0.0
 10
16.89936468761544
 20
-12.67285264440123
 30
0.0
 10
16.87056368935875
 20
-12.60512206716122
 30
0.0
 10
16.87056368935875
 20
-12.60512206716122
 30
0.0
 10
16.86801431869966
 20
-12.60594889007768
 30
0.0
 10
16.86801431869966
 20
-12.60594889007768
 30
0.0
 10
16.83924777139783
 20
-12.6669270801666
 30
0.0
 10
16.79180880656594
 20
-12.6931787077642
 30
0.0
 10
16.7444042926889
 20
-12.6931787077642
 30
0.0
 10
16.65717447500237
 20
-12.6931787077642
 30
0.0
 10
16.59791883265607
 20
-12.61952256628956
 30
0.0
 10
16.59791883265607
 20
-12.52299099079286
 30
0.0
 10
16.59791883265607
 20
-12.41629638361468
 30
0.0
 10
16.66482258697962
 20
-12.36293185454815
 30
0.0
 10
16.7333799871361
 20
-12.36293185454815
 30
0.0
 10
16.77995767809668
 20
-12.36293185454815
 30
0.0
 10
16.8299115626328
 20
-12.38580728857021
 30
0.0
 10
16.86208875446503
 20
-12.45353786581023
 30
0.0
 10
16.86208875446503
 20
-12.45353786581023
 30
0.0
 10
16.86463812512412
 20
-12.45353786581023
 30
0.0
 10
16.86463812512412
 20
-12.45353786581023
 30
0.0
 10
16.89171657563818
 20
-12.38498046565375
 30
0.0
 10
16.93998236338653
 20
-12.34264024214003
 30
0.0
 10
17.00688611771008
 20
-12.34264024214003
 30
0.0
 10
17.10255641933547
 20
-12.34264024214003
 30
0.0
 10
17.16691080299994
 20
-12.42477131850839
 30
0.0
 10
17.16691080299994
 20
-12.52974337794395
 30
0.0
 10
17.16691080299994
 20
-12.64491292001585
 30
0.0
 10
17.09835340284346
 20
-12.71433159404364
 30
0.0
 10
17.01791042326288
 20
-12.71433159404364
 30
0.0
  0
SPLINE
  5
CA
330
C5
100
AcDbEntity
  8
Livello 3
370
     0
100
AcDbSpline
210
0.0
220
0.0
230
1.0
 70
     9
 71
     3
 72
    17
 73
    13
 74
     0
 42
0.000000001
 43
0.0000000001
 40
0.0
 40
0.0
 40
0.0
 40
0.0
 40
1.0
 40
1.0
 40
1.0
 40
2.0
 40
2.0
 40
2.0
 40
3.0
 40
3.0
 40
3.0
 40
4.0
 40
4.0
 40
4.0
 40
4.0
 10
16.73930555137073
 20
-12.62289875986511
 30
0.0
 10
16.79435817722502
 20
-12.62289875986511
 30
0.0
 10
16.82398599839817
 20
-12.5814198102227
 30
0.0
 10
16.8409358681856
 20
-12.51789224947469
 30
0.0
 10
16.82484727226948
 20
-12.47048773559765
 30
0.0
 10
16.79098198364948
 20
-12.43407307631856
 30
0.0
 10
16.74102809911335
 20
-12.43407307631856
 30
0.0
 10
16.69696532785701
 20
-12.43407307631856
 30
0.0
 10
16.65124891076774
 20
-12.46032470391617
 30
0.0
 10
16.65124891076774
 20
-12.52722845823972
 30
0.0
 10
16.65124891076774
 20
-12.5890334712451
 30
0.0
 10
16.69190103749369
 20
-12.62289875986511
 30
0.0
 10
16.73930555137073
 20
-12.62289875986511
 30
0.0
  0
SPLINE
  5
CB
330
C5
100
AcDbEntity
  8
Livello 3
370
     0
100
AcDbSpline
210
0.0
220
0.0
230
1.0
 70
     9
 71
     3
 72
    17
 73
    13
 74
     0
 42
0.000000001
 43
0.0000000001
 40
0.0
 40
0.0
 40
0.0
 40
0.0
 40
1.0
 40
1.0
 40
1.0
 40
2.0
 40
2.0
 40
2.0
 40
3.0
 40
3.0
 40
3.0
 40
4.0
 40
4.0
 40
4.0
 40
4.0
 10
17.01449977873249
 20
-12.41798448040245
 30
0.0
 10
16.94763047536378
 20
-12.41798448040245
 30
0.0
 10
16.91545328353155
 20
-12.46456217136303
 30
0.0
 10
16.89426594629727
 20
-12.53907958670898
 30
0.0
 10
16.91290391287247
 20
-12.60343397037345
 30
0.0
 10
16.95524413638619
 20
-12.63812608190991
 30
0.0
 10
17.0077473915814
 20
-12.63812608190991
 30
0.0
 10
17.06362684035215
 20
-12.640675452569
 30
0.0
 10
17.11271945101696
 20
-12.59836968001013
 30
0.0
 10
17.11271945101696
 20
-12.52808973211103
 30
0.0
 10
17.11271945101696
 20
-12.46118597778748
 30
0.0
 10
17.07124050137455
 20
-12.41798448040245
 30
0.0
 10
17.01449977873249
 20
-12.41798448040245
 30
0.0
  0
HATCH
  5
CC
330
C5
100
AcDbEntity
  8
Livello 3
 62
   250
420
  1842203
100
AcDbHatch
 10
0.0
 20
0.0
 30
0.0
210
0.0
220
0.0
230
1.0
  2
SOLID
 70
     1
 71
     0
 91
        3
 92
        1
 93
        1
 72
     4
 94
        3
 73
     0
 74
     0
 95
       35
 96
       31
 40
0.0
 40
0.0
 40
0.0
 40
0.0
 40
1.0
 40
1.0
 40
1.0
 40
2.0
 40
2.0
 40
2.0
 40
3.0
 40
3.0
 40
3.0
 40
4.0
 40
4.0
 40
4.0
 40
5.0
 40
5.0
 40
5.0
 40
6.0
 40
6.0
 40
6.0
 40
7.0
 40
7.0
 40
7.0
 40
8.0
 40
8.0
 40
8.0
 40
9.0
 40
9.0
 40
9.0
 40
10.0
 40
10.0
 40
10.0
 40
10.0
 10
17.01791042326288
 20
-12.71433159404364
 10
16.94845729828025
 20
-12.71433159404364
 10
16.89936468761544
 20
-12.67285264440123
 10
16.87056368935875
 20
-12.60512206716122
 10
16.87056368935875
 20
-12.60512206716122
 10
16.86801431869966
 20
-12.60594889007768
 10
16.86801431869966
 20
-12.60594889007768
 10
16.83924777139783
 20
-12.6669270801666
 10
16.79180880656594
 20
-12.6931787077642
 10
16.7444042926889
 20
-12.6931787077642
 10
16.65717447500237
 20
-12.6931787077642
 10
16.59791883265607
 20
-12.61952256628956
 10
16.59791883265607
 20
-12.52299099079286
 10
16.59791883265607
 20
-12.41629638361468
 10
16.66482258697962
 20
-12.36293185454815
 10
16.7333799871361
 20
-12.36293185454815
 10
16.77995767809668
 20
-12.36293185454815
 10
16.8299115626328
 20
-12.38580728857021
 10
16.86208875446503
 20
-12.45353786581023
 10
16.86208875446503
 20
-12.45353786581023
 10
16.86463812512412
 20
-12.45353786581023
 10
16.86463812512412
 20
-12.45353786581023
 10
16.89171657563818
 20
-12.38498046565375
 10
16.93998236338653
 20
-12.34264024214003
 10
17.00688611771008
 20
-12.34264024214003
 10
17.10255641933547
 20
-12.34264024214003
 10
17.16691080299994
 20
-12.42477131850839
 10
17.16691080299994
 20
-12.52974337794395
 10
17.16691080299994
 20
-12.64491292001585
 10
17.09835340284346
 20
-12.71433159404364
 10
17.01791042326288
 20
-12.71433159404364
 97
        0
 97
        0
 92
        1
 93
        1
 72
     4
 94
        3
 73
     0
 74
     0
 95
       17
 96
       13
 40
0.0
 40
0.0
 40
0.0
 40
0.0
 40
1.0
 40
1.0
 40
1.0
 40
2.0
 40
2.0
 40
2.0
 40
3.0
 40
3.0
 40
3.0
 40
4.0
 40
4.0
 40
4.0
 40
4.0
 10
16.73930555137073
 20
-12.62289875986511
 10
16.79435817722502
 20
-12.62289875986511
 10
16.82398599839817
 20
-12.5814198102227
 10
16.8409358681856
 20
-12.51789224947469
 10
16.82484727226948
 20
-12.47048773559765
 10
16.79098198364948
 20
-12.43407307631856
 10
16.74102809911335
 20
-12.43407307631856
 10
16.69696532785701
 20
-12.43407307631856
 10
16.65124891076774
 20
-12.46032470391617
 10
16.65124891076774
 20
-12.52722845823972
 10
16.65124891076774
 20
-12.5890334712451
 10
16.69190103749369
 20
-12.62289875986511
 10
16.73930555137073
 20
-12.62289875986511
 97
        0
 97
        0
 92
        1
 93
        1
 72
     4
 94
        3
 73
     0
 74
     0
 95
       17
 96
       13
 40
0.0
 40
0.0
 40
0.0
 40
0.0
 40
1.0
 40
1.0
 40
1.0
 40
2.0
 40
2.0
 40
2.0
 40
3.0
 40
3.0
 40
3.0
 40
4.0
 40
4.0
 40
4.0
 40
4.0
 10
17.01449977873249
 20
-12.41798448040245
 10
16.94763047536378
 20
-12.41798448040245
 10
16.91545328353155
 20
-12.46456217136303
 10
16.89426594629727
 20
-12.53907958670898
 10
16.91290391287247
 20
-12.60343397037345
 10
16.95524413638619
 20
-12.63812608190991
 10
17.0077473915814
 20
-12.63812608190991
 10
17.06362684035215
 20
-12.640675452569
 10
17.11271945101696
 20
-12.59836968001013
 10
17.11271945101696
 20
-12.52808973211103
 10
17.11271945101696
 20
-12.46118597778748
 10
17.07124050137455
 20
-12.41798448040245
 10
17.01449977873249
 20
-12.41798448040245
 97
        0
 97
        0
 75
     2
 76
     1
 98
        0
450
        0
451
        0
460
0.0
461
0.0
452
        0
462
0.0
453
        0
470

  0
SPLINE
  5
CD
330
C5
100
AcDbEntity
  8
Livello 3
370
     0
100
AcDbSpline
210
0.0
220
0.0
230
1.0
 70
     9
 71
     3
 72
    17
 73
    13
 74
     0
 42
0.000000001
 43
0.0000000001
 40
0.0
 40
0.0
 40
0.0
 40
0.0
 40
1.0
 40
1.0
 40
1.0
 40
2.0
 40
2.0
 40
2.0
 40
3.0
 40
3.0
 40
3.0
 40
4.0
 40
4.0
 40
4.0
 40
4.0
 10
16.87648925359338
 20
-11.90745578044327
 30
0.0
 10
17.06362684035215
 20
-11.90745578044327
 30
0.0
 10
17.16691080299994
 20
-11.97687445447106
 30
0.0
 10
17.16691080299994
 20
-12.0988308346489
 30
0.0
 10
17.16691080299994
 20
-12.2063867156984
 30
0.0
 10
17.06617621101123
 20
-12.27918158330173
 30
0.0
 10
16.88410291461577
 20
-12.2808696800895
 30
0.0
 10
16.69951469851609
 20
-12.2808696800895
 30
0.0
 10
16.59791883265607
 20
-12.20128797438023
 30
0.0
 10
16.59791883265607
 20
-12.08952907683873
 30
0.0
 10
16.59791883265607
 20
-11.97349826089551
 30
0.0
 10
16.70120279530386
 20
-11.90745578044327
 30
0.0
 10
16.87648925359338
 20
-11.90745578044327
 30
0.0
  0
SPLINE
  5
CE
330
C5
100
AcDbEntity
  8
Livello 3
370
     0
100
AcDbSpline
210
0.0
220
0.0
230
1.0
 70
     9
 71
     3
 72
    17
 73
    13
 74
     0
 42
0.000000001
 43
0.0000000001
 40
0.0
 40
0.0
 40
0.0
 40
0.0
 40
1.0
 40
1.0
 40
1.0
 40
2.0
 40
2.0
 40
2.0
 40
3.0
 40
3.0
 40
3.0
 40
4.0
 40
4.0
 40
4.0
 40
4.0
 10
16.88496418848709
 20
-12.2063867156984
 30
0.0
 10
17.02807345494437
 20
-12.2063867156984
 30
0.0
 10
17.10934325744141
 20
-12.16232394444206
 30
0.0
 10
17.10934325744141
 20
-12.09459336720204
 30
0.0
 10
17.10934325744141
 20
-12.01838785506832
 30
0.0
 10
17.02042534296712
 20
-11.98197319578923
 30
0.0
 10
16.87986544716892
 20
-11.98197319578923
 30
0.0
 10
16.7444042926889
 20
-11.98197319578923
 30
0.0
 10
16.6554863782146
 20
-12.01669975828055
 30
0.0
 10
16.6554863782146
 20
-12.09373209333073
 30
0.0
 10
16.6554863782146
 20
-12.15894775086651
 30
0.0
 10
16.73510253487872
 20
-12.2063867156984
 30
0.0
 10
16.88496418848709
 20
-12.2063867156984
 30
0.0
  0
HATCH
  5
CF
330
C5
100
AcDbEntity
  8
Livello 3
 62
   250
420
  1842203
100
AcDbHatch
 10
0.0
 20
0.0
 30
0.0
210
0.0
220
0.0
230
1.0
  2
SOLID
 70
     1
 71
     0
 91
        2
 92
        1
 93
        1
 72
     4
 94
        3
 73
     0
 74
     0
 95
       17
 96
       13
 40
0.0
 40
0.0
 40
0.0
 40
0.0
 40
1.0
 40
1.0
 40
1.0
 40
2.0
 40
2.0
 40
2.0
 40
3.0
 40
3.0
 40
3.0
 40
4.0
 40
4.0
 40
4.0
 40
4.0
 10
16.87648925359338
 20
-11.90745578044327
 10
17.06362684035215
 20
-11.90745578044327
 10
17.16691080299994
 20
-11.97687445447106
 10
17.16691080299994
 20
-12.0988308346489
 10
17.16691080299994
 20
-12.2063867156984
 10
17.06617621101123
 20
-12.27918158330173
 10
16.88410291461577
 20
-12.2808696800895
 10
16.69951469851609
 20
-12.2808696800895
 10
16.59791883265607
 20
-12.20128797438023
 10
16.59791883265607
 20
-12.08952907683873
 10
16.59791883265607
 20
-11.97349826089551
 10
16.70120279530386
 20
-11.90745578044327
 10
16.87648925359338
 20
-11.90745578044327
 97
        0
 97
        0
 92
        1
 93
        1
 72
     4
 94
        3
 73
     0
 74
     0
 95
       17
 96
       13
 40
0.0
 40
0.0
 40
0.0
 40
0.0
 40
1.0
 40
1.0
 40
1.0
 40
2.0
 40
2.0
 40
2.0
 40
3.0
 40
3.0
 40
3.0
 40
4.0
 40
4.0
 40
4.0
 40
4.0
 10
16.88496418848709
 20
-12.2063867156984
 10
17.02807345494437
 20
-12.2063867156984
 10
17.10934325744141
 20
-12.16232394444206
 10
17.10934325744141
 20
-12.09459336720204
 10
17.10934325744141
 20
-12.01838785506832
 10
17.02042534296712
 20
-11.98197319578923
 10
16.87986544716892
 20
-11.98197319578923
 10
16.7444042926889
 20
-11.98197319578923
 10
16.6554863782146
 20
-12.01669975828055
 10
16.6554863782146
 20
-12.09373209333073
 10
16.6554863782146
 20
-12.15894775086651
 10
16.73510253487872
 20
-12.2063867156984
 10
16.88496418848709
 20
-12.2063867156984
 97
        0
 97
        0
 75
     2
 76
     1
 98
        0
450
        0
451
        0
460
0.0
461
0.0
452
        0
462
0.0
453
        0
470

  0
ENDBLK
  5
C8
330
C5
100
AcDbEntity
  8
0
100
AcDbBlockEnd
  0
ENDSEC
  0
SECTION
  2
ENTITIES
  0
POLYLINE
  5
100
330
1F
100
AcDbEntity
  8
Livello 3
100
AcDb2dPolyline
 66
     1
 10
0.0
 20
0.0
 30
0.0
  0
VERTEX
  5
101
330
100
100
AcDbEntity
  8
Livello 3
100
AcDbVertex
100
AcDb2dVertex
 10
13.40181224142462
 20
-6.261022387323621
 30
0.0
  0
VERTEX
  5
102
330
100
100
AcDbEntity
  8
Livello 3
100
AcDbVertex
100
AcDb2dVertex
 10
13.43852229604362
 20
-8.299019609036358
 30
0.0
  0
VERTEX
  5
103
330
100
100
AcDbEntity
  8
Livello 3
100
AcDbVertex
100
AcDb2dVertex
 10
13.35682954812778
 20
-18.02100718993922
 30
0.0
  0
VERTEX
  5
104
330
100
100
AcDbEntity
  8
Livello 3
100
AcDbVertex
100
AcDb2dVertex
 10
14.94309125765887
 20
-18.02100718993922
 30
0.0
  0
SEQEND
  5
105
330
100
100
AcDbEntity
  8
Livello 3
  0
POLYLINE
  5
106
330
1F
100
AcDbEntity
  8
Livello 3
100
AcDb2dPolyline
 66
     1
 10
0.0
 20
0.0
 30
0.0
  0
VERTEX
  5
107
330
106
100
AcDbEntity
  8
Livello 3
100
AcDbVertex
100
AcDb2dVertex
 10
13.35682954812778
 20
-18.02100718993922
 30
0.0
  0
VERTEX
  5
108
330
106
100
AcDbEntity
  8
Livello 3
100
AcDbVertex
100
AcDb2dVertex
 10
13.18103685816818
 20
-18.11612313435989
 30
0.0
  0
VERTEX
  5
109
330
106
100
AcDbEntity
  8
Livello 3
100
AcDbVertex
100
AcDb2dVertex
 10
14.14996216678217
 20
-18.11612313435989
 30
0.0
  0
SEQEND
  5
10A
330
106
100
AcDbEntity
  8
Livello 3
  0
SPLINE
  5
10B
330
1F
100
AcDbEntity
  8
Livello 3
100
AcDbSpline
210
0.0
220
0.0
230
1.0
 70
     8
 71
     3
 72
    17
 73
    13
 74
     0
 42
0.000000001
 43
0.0000000001
 40
0.0
 40
0.0
 40
0.0
 40
0.0
 40
1.0
 40
1.0
 40
1.0
 40
2.0
 40
2.0
 40
2.0
 40
3.0
 40
3.0
 40
3.0
 40
4.0
 40
4.0
 40
4.0
 40
4.0
 10
13.18103685816818
 20
-18.11612313435989
 30
0.0
 10
13.18103685816818
 20
-18.11612313435989
 30
0.0
 10
13.18103685816818
 20
-18.13360327324438
 30
0.0
 10
13.18103685816818
 20
-18.13360327324438
 30
0.0
 10
13.18103685816818
 20
-18.13360327324438
 30
0.0
 10
13.00515277452648
 20
-18.13360327324438
 30
0.0
 10
13.00515277452648
 20
-18.13360327324438
 30
0.0
 10
13.00515277452648
 20
-18.13360327324438
 30
0.0
 10
13.01410241798258
 20
-17.92431432885225
 30
0.0
 10
13.01410241798258
 20
-17.92431432885225
 30
0.0
 10
13.11563891539217
 20
-17.84614230109404
 30
0.0
 10
13.25740971733086
 20
-17.84733468998261
 30
0.0
 10
13.35761624255215
 20
-17.9272035788515
 30
0.0
  0
POLYLINE
  5
10C
330
1F
100
AcDbEntity
  8
Livello 3
100
AcDb2dPolyline
 66
     1
 10
0.0
 20
0.0
 30
0.0
  0
VERTEX
  5
10D
330
10C
100
AcDbEntity
  8
Livello 3
100
AcDbVertex
100
AcDb2dVertex
 10
13.00512775154488
 20
-18.13411127324425
 30
0.0
  0
VERTEX
  5
10E
330
10C
100
AcDbEntity
  8
Livello 3
100
AcDbVertex
100
AcDb2dVertex
 10
12.98780283532021
 20
-18.13411127324425
 30
0.0
  0
VERTEX
  5
10F
330
10C
100
AcDbEntity
  8
Livello 3
100
AcDbVertex
100
AcDb2dVertex
 10
12.97290503014473
 20
-18.36218916207614
 30
0.0
  0
SEQEND
  5
110
330
10C
100
AcDbEntity
  8
Livello 3
  0
POLYLINE
  5
111
330
1F
100
AcDbEntity
  8
Livello 3
100
AcDb2dPolyline
 66
     1
 10
0.0
 20
0.0
 30
0.0
  0
VERTEX
  5
112
330
111
100
AcDbEntity
  8
Livello 3
100
AcDbVertex
100
AcDb2dVertex
 10
13.43852229604362
 20
-8.299019609036358
 30
0.0
  0
VERTEX
  5
113
330
111
100
AcDbEntity
  8
Livello 3
100
AcDbVertex
100
AcDb2dVertex
 10
14.86139888517354
 20
-8.299019609036358
 30
0.0
  0
SEQEND
  5
114
330
111
100
AcDbEntity
  8
Livello 3
  0
POLYLINE
  5
115
330
1F
100
AcDbEntity
  8
Livello 3
100
AcDb2dPolyline
 66
     1
 10
0.0
 20
0.0
 30
0.0
  0
VERTEX
  5
116
330
115
100
AcDbEntity
  8
Livello 3
100
AcDbVertex
100
AcDb2dVertex
 10
13.40181224142462
 20
-6.261022387323621
 30
0.0
  0
VERTEX
  5
117
330
115
100
AcDbEntity
  8
Livello 3
100
AcDbVertex
100
AcDb2dVertex
 10
14.89810856436203
 20
-6.261022387323621
 30
0.0
  0
SEQEND
  5
118
330
115
100
AcDbEntity
  8
Livello 3
  0
POLYLINE
  5
119
330
1F
100
AcDbEntity
  8
Livello 3
100
AcDb2dPolyline
 66
     1
 10
0.0
 20
0.0
 30
0.0
  0
VERTEX
  5
11A
330
119
100
AcDbEntity
  8
Livello 3
100
AcDbVertex
100
AcDb2dVertex
 10
13.40468738024015
 20
-6.420611998394832
 30
0.0
  0
VERTEX
  5
11B
330
119
100
AcDbEntity
  8
Livello 3
100
AcDbVertex
100
AcDb2dVertex
 10
14.89523342554649
 20
-6.420611998394832
 30
0.0
  0
SEQEND
  5
11C
330
119
100
AcDbEntity
  8
Livello 3
  0
SPLINE
  5
11D
330
1F
100
AcDbEntity
  8
Livello 3
100
AcDbSpline
210
0.0
220
0.0
230
1.0
 70
     8
 71
     3
 72
     8
 73
     4
 74
     0
 42
0.000000001
 43
0.0000000001
 40
0.0
 40
0.0
 40
0.0
 40
0.0
 40
1.0
 40
1.0
 40
1.0
 40
1.0
 10
14.89810856436203
 20
-6.261022387323621
 30
0.0
 10
14.40163029925047
 20
-6.193497192896058
 30
0.0
 10
13.89829403431387
 20
-6.193497192896058
 30
0.0
 10
13.40181224142462
 20
-6.261022387323621
 30
0.0
  0
POLYLINE
  5
11E
330
1F
100
AcDbEntity
  8
Livello 3
100
AcDb2dPolyline
 66
     1
 10
0.0
 20
0.0
 30
0.0
  0
VERTEX
  5
11F
330
11E
100
AcDbEntity
  8
Livello 3
100
AcDbVertex
100
AcDb2dVertex
 10
14.89810856436203
 20
-6.261022387323621
 30
0.0
  0
VERTEX
  5
120
330
11E
100
AcDbEntity
  8
Livello 3
100
AcDbVertex
100
AcDb2dVertex
 10
14.86139888517354
 20
-8.299019609036358
 30
0.0
  0
VERTEX
  5
121
330
11E
100
AcDbEntity
  8
Livello 3
100
AcDbVertex
100
AcDb2dVertex
 10
14.94309125765887
 20
-18.02100718993922
 30
0.0
  0
SEQEND
  5
122
330
11E
100
AcDbEntity
  8
Livello 3
  0
POLYLINE
  5
123
330
1F
100
AcDbEntity
  8
Livello 3
100
AcDb2dPolyline
 66
     1
 10
0.0
 20
0.0
 30
0.0
  0
VERTEX
  5
124
330
123
100
AcDbEntity
  8
Livello 3
100
AcDbVertex
100
AcDb2dVertex
 10
14.94309125765887
 20
-18.02100718993922
 30
0.0
  0
VERTEX
  5
125
330
123
100
AcDbEntity
  8
Livello 3
100
AcDbVertex
100
AcDb2dVertex
 10
15.11888394761847
 20
-18.11612313435989
 30
0.0
  0
VERTEX
  5
126
330
123
100
AcDbEntity
  8
Livello 3
100
AcDbVertex
100
AcDb2dVertex
 10
14.14996216678217
 20
-18.11612313435989
 30
0.0
  0
SEQEND
  5
127
330
123
100
AcDbEntity
  8
Livello 3
  0
SPLINE
  5
128
330
1F
100
AcDbEntity
  8
Livello 3
100
AcDbSpline
210
0.0
220
0.0
230
1.0
 70
     8
 71
     3
 72
    17
 73
    13
 74
     0
 42
0.000000001
 43
0.0000000001
 40
0.0
 40
0.0
 40
0.0
 40
0.0
 40
1.0
 40
1.0
 40
1.0
 40
2.0
 40
2.0
 40
2.0
 40
3.0
 40
3.0
 40
3.0
 40
4.0
 40
4.0
 40
4.0
 40
4.0
 10
15.11888394761847
 20
-18.11612313435989
 30
0.0
 10
15.11888394761847
 20
-18.11612313435989
 30
0.0
 10
15.11888394761847
 20
-18.13360327324438
 30
0.0
 10
15.11888394761847
 20
-18.13360327324438
 30
0.0
 10
15.11888394761847
 20
-18.13360327324438
 30
0.0
 10
15.29477188757564
 20
-18.13360327324438
 30
0.0
 10
15.29477188757564
 20
-18.13360327324438
 30
0.0
 10
15.29477188757564
 20
-18.13360327324438
 30
0.0
 10
15.28581838780406
 20
-17.92431432885225
 30
0.0
 10
15.28581838780406
 20
-17.92431432885225
 30
0.0
 10
15.18428189039447
 20
-17.84614230109404
 30
0.0
 10
15.04251108845579
 20
-17.84733468998261
 30
0.0
 10
14.94230456323449
 20
-17.9272035788515
 30
0.0
  0
POLYLINE
  5
129
330
1F
100
AcDbEntity
  8
Livello 3
100
AcDb2dPolyline
 66
     1
 10
0.0
 20
0.0
 30
0.0
  0
VERTEX
  5
12A
330
129
100
AcDbEntity
  8
Livello 3
100
AcDbVertex
100
AcDb2dVertex
 10
15.29479305424176
 20
-18.13411127324425
 30
0.0
  0
VERTEX
  5
12B
330
129
100
AcDbEntity
  8
Livello 3
100
AcDbVertex
100
AcDb2dVertex
 10
15.31212149824412
 20
-18.13411127324425
 30
0.0
  0
VERTEX
  5
12C
330
129
100
AcDbEntity
  8
Livello 3
100
AcDbVertex
100
AcDb2dVertex
 10
15.32701577564192
 20
-18.36218916207614
 30
0.0
  0
SEQEND
  5
12D
330
129
100
AcDbEntity
  8
Livello 3
  0
POLYLINE
  5
12E
330
1F
100
AcDbEntity
  8
Livello 3
100
AcDb2dPolyline
 66
     1
 10
0.0
 20
0.0
 30
0.0
  0
VERTEX
  5
12F
330
12E
100
AcDbEntity
  8
Livello 3
100
AcDbVertex
100
AcDb2dVertex
 10
12.97290503014473
 20
-18.36218916207614
 30
0.0
  0
VERTEX
  5
130
330
12E
100
AcDbEntity
  8
Livello 3
100
AcDbVertex
100
AcDb2dVertex
 10
15.32701577564192
 20
-18.36218916207614
 30
0.0
  0
SEQEND
  5
131
330
12E
100
AcDbEntity
  8
Livello 3
  0
LINE
  5
132
330
1F
100
AcDbEntity
  8
Livello 3
100
AcDbLine
 10
12.97290503014473
 20
-19.05653291704654
 30
0.0
 11
15.32701577564192
 21
-19.05653291704654
 31
0.0
  0
LINE
  5
133
330
1F
100
AcDbEntity
  8
Livello 3
100
AcDbLine
 10
16.37150205352025
 20
-6.235700439413261
 30
0.0
 11
16.37150205352025
 21
-18.36218916207614
 31
0.0
  0
POLYLINE
  5
134
330
1F
100
AcDbEntity
  8
Livello 3
100
AcDb2dPolyline
 66
     1
 10
0.0
 20
0.0
 30
0.0
  0
VERTEX
  5
135
330
134
100
AcDbEntity
  8
Livello 3
100
AcDbVertex
100
AcDb2dVertex
 10
13.46119384429095
 20
-19.38062580895692
 30
0.0
  0
VERTEX
  5
136
330
134
100
AcDbEntity
  8
Livello 3
100
AcDbVertex
100
AcDb2dVertex
 10
13.45950574750318
 20
-19.38062580895692
 30
0.0
  0
VERTEX
  5
137
330
134
100
AcDbEntity
  8
Livello 3
100
AcDbVertex
100
AcDb2dVertex
 10
13.36381822040036
 20
-19.43226779028082
 30
0.0
  0
VERTEX
  5
138
330
134
100
AcDbEntity
  8
Livello 3
100
AcDbVertex
100
AcDb2dVertex
 10
13.34941772127202
 20
-19.37552706763876
 30
0.0
  0
VERTEX
  5
139
330
134
100
AcDbEntity
  8
Livello 3
100
AcDbVertex
100
AcDb2dVertex
 10
13.46965155370724
 20
-19.31117268397429
 30
0.0
  0
VERTEX
  5
13A
330
134
100
AcDbEntity
  8
Livello 3
100
AcDbVertex
100
AcDb2dVertex
 10
13.53316188897782
 20
-19.31117268397429
 30
0.0
  0
VERTEX
  5
13B
330
134
100
AcDbEntity
  8
Livello 3
100
AcDbVertex
100
AcDb2dVertex
 10
13.53316188897782
 20
-19.8615611386978
 30
0.0
  0
VERTEX
  5
13C
330
134
100
AcDbEntity
  8
Livello 3
100
AcDbVertex
100
AcDb2dVertex
 10
13.46119384429095
 20
-19.8615611386978
 30
0.0
  0
VERTEX
  5
13D
330
134
100
AcDbEntity
  8
Livello 3
100
AcDbVertex
100
AcDb2dVertex
 10
13.46119384429095
 20
-19.38062580895692
 30
0.0
  0
SEQEND
  5
13E
330
134
100
AcDbEntity
  8
Livello 3
  0
HATCH
  5
13F
330
1F
100
AcDbEntity
  8
Livello 3
100
AcDbHatch
 10
0.0
 20
0.0
 30
0.0
210
0.0
220
0.0
230
1.0
  2
SOLID
 70
     1
 71
     0
 91
        1
 92
        1
 93
        8
 72
     1
 10
13.46119384429095
 20
-19.38062580895692
 11
13.45950574750318
 21
-19.38062580895692
 72
     1
 10
13.45950574750318
 20
-19.38062580895692
 11
13.36381822040036
 21
-19.43226779028082
 72
     1
 10
13.36381822040036
 20
-19.43226779028082
 11
13.34941772127202
 21
-19.37552706763876
 72
     1
 10
13.34941772127202
 20
-19.37552706763876
 11
13.46965155370724
 21
-19.31117268397429
 72
     1
 10
13.46965155370724
 20
-19.31117268397429
 11
13.53316188897782
 21
-19.31117268397429
 72
     1
 10
13.53316188897782
 20
-19.31117268397429
 11
13.53316188897782
 21
-19.8615611386978
 72
     1
 10
13.53316188897782
 20
-19.8615611386978
 11
13.46119384429095
 21
-19.8615611386978
 72
     1
 10
13.46119384429095
 20
-19.8615611386978
 11
13.46119384429095
 21
-19.38062580895692
 97
        0
 75
     2
 76
     1
 98
        0
450
        0
451
        0
460
0.0
461
0.0
452
        0
462
0.0
453
        0
470

  0
SPLINE
  5
140
330
1F
100
AcDbEntity
  8
Livello 3
100
AcDbSpline
210
0.0
220
0.0
230
1.0
 70
    11
 71
     3
 72
    50
 73
    46
 74
     0
 42
0.000000001
 43
0.0000000001
 40
0.0
 40
0.0
 40
0.0
 40
0.0
 40
1.0
 40
1.0
 40
1.0
 40
2.0
 40
2.0
 40
2.0
 40
3.0
 40
3.0
 40
3.0
 40
4.0
 40
4.0
 40
4.0
 40
5.0
 40
5.0
 40
5.0
 40
6.0
 40
6.0
 40
6.0
 40
7.0
 40
7.0
 40
7.0
 40
8.0
 40
8.0
 40
8.0
 40
9.0
 40
9.0
 40
9.0
 40
10.0
 40
10.0
 40
10.0
 40
11.0
 40
11.0
 40
11.0
 40
12.0
 40
12.0
 40
12.0
 40
13.0
 40
13.0
 40
13.0
 40
14.0
 40
14.0
 40
14.0
 40
15.0
 40
15.0
 40
15.0
 40
15.0
 10
14.0623285555122
 20
-19.37383897085098
 30
0.0
 10
14.0623285555122
 20
-19.37383897085098
 30
0.0
 10
13.85233276020878
 20
-19.37383897085098
 30
0.0
 10
13.85233276020878
 20
-19.37383897085098
 30
0.0
 10
13.85233276020878
 20
-19.37383897085098
 30
0.0
 10
13.83116264845193
 20
-19.51526014052049
 30
0.0
 10
13.83116264845193
 20
-19.51526014052049
 30
0.0
 10
13.84385782531508
 20
-19.51353759277787
 30
0.0
 10
13.85572617926176
 20
-19.51184949599009
 30
0.0
 10
13.87603501714731
 20
-19.51184949599009
 30
0.0
 10
13.91837524066103
 20
-19.51184949599009
 30
0.0
 10
13.96071546417475
 20
-19.52118570475512
 30
0.0
 10
13.99458075279476
 20
-19.54147731716324
 30
0.0
 10
14.03776502470235
 20
-19.56604084797307
 30
0.0
 10
14.07333563558757
 20
-19.61347981280496
 30
0.0
 10
14.07333563558757
 20
-19.68289848683274
 30
0.0
 10
14.07333563558757
 20
-19.79041991692739
 30
0.0
 10
13.98781114016624
 20
-19.87086289650798
 30
0.0
 10
13.86842135612491
 20
-19.87086289650798
 30
0.0
 10
13.8083044399073
 20
-19.87086289650798
 30
0.0
 10
13.75748928149986
 20
-19.85394747767539
 30
0.0
 10
13.73125487937969
 20
-19.83699760788797
 30
0.0
 10
13.73125487937969
 20
-19.83699760788797
 30
0.0
 10
13.74987562047746
 20
-19.78029133620076
 30
0.0
 10
13.74987562047746
 20
-19.78029133620076
 30
0.0
 10
13.77273382902209
 20
-19.79383056145779
 30
0.0
 10
13.81760619771747
 20
-19.81074598029037
 30
0.0
 10
13.86757730773102
 20
-19.81074598029037
 30
0.0
 10
13.93785725563012
 20
-19.81074598029037
 30
0.0
 10
13.99797417184773
 20
-19.7650295632011
 30
0.0
 10
13.99797417184773
 20
-19.69137342172646
 30
0.0
 10
13.99713012345384
 20
-19.62023219995605
 30
0.0
 10
13.94970838409938
 20
-19.56945149250347
 30
0.0
 10
13.83963758334565
 20
-19.56945149250347
 30
0.0
 10
13.8083044399073
 20
-19.56945149250347
 30
0.0
 10
13.78374090909747
 20
-19.57282768607901
 30
0.0
 10
13.76341484573449
 20
-19.5753770567381
 30
0.0
 10
13.76341484573449
 20
-19.5753770567381
 30
0.0
 10
13.7989854566197
 20
-19.31117268397429
 30
0.0
 10
13.7989854566197
 20
-19.31117268397429
 30
0.0
 10
13.7989854566197
 20
-19.31117268397429
 30
0.0
 10
14.0623285555122
 20
-19.31117268397429
 30
0.0
 10
14.0623285555122
 20
-19.31117268397429
 30
0.0
 10
14.0623285555122
 20
-19.31117268397429
 30
0.0
 10
14.0623285555122
 20
-19.37383897085098
 30
0.0
 10
14.0623285555122
 20
-19.37383897085098
 30
0.0
  0
HATCH
  5
141
330
1F
100
AcDbEntity
  8
Livello 3
100
AcDbHatch
 10
0.0
 20
0.0
 30
0.0
210
0.0
220
0.0
230
1.0
  2
SOLID
 70
     1
 71
     0
 91
        1
 92
        1
 93
        1
 72
     4
 94
        3
 73
     0
 74
     0
 95
       50
 96
       46
 40
0.0
 40
0.0
 40
0.0
 40
0.0
 40
1.0
 40
1.0
 40
1.0
 40
2.0
 40
2.0
 40
2.0
 40
3.0
 40
3.0
 40
3.0
 40
4.0
 40
4.0
 40
4.0
 40
5.0
 40
5.0
 40
5.0
 40
6.0
 40
6.0
 40
6.0
 40
7.0
 40
7.0
 40
7.0
 40
8.0
 40
8.0
 40
8.0
 40
9.0
 40
9.0
 40
9.0
 40
10.0
 40
10.0
 40
10.0
 40
11.0
 40
11.0
 40
11.0
 40
12.0
 40
12.0
 40
12.0
 40
13.0
 40
13.0
 40
13.0
 40
14.0
 40
14.0
 40
14.0
 40
15.0
 40
15.0
 40
15.0
 40
15.0
 10
14.0623285555122
 20
-19.37383897085098
 10
14.0623285555122
 20
-19.37383897085098
 10
13.85233276020878
 20
-19.37383897085098
 10
13.85233276020878
 20
-19.37383897085098
 10
13.85233276020878
 20
-19.37383897085098
 10
13.83116264845193
 20
-19.51526014052049
 10
13.83116264845193
 20
-19.51526014052049
 10
13.84385782531508
 20
-19.51353759277787
 10
13.85572617926176
 20
-19.51184949599009
 10
13.87603501714731
 20
-19.51184949599009
 10
13.91837524066103
 20
-19.51184949599009
 10
13.96071546417475
 20
-19.52118570475512
 10
13.99458075279476
 20
-19.54147731716324
 10
14.03776502470235
 20
-19.56604084797307
 10
14.07333563558757
 20
-19.61347981280496
 10
14.07333563558757
 20
-19.68289848683274
 10
14.07333563558757
 20
-19.79041991692739
 10
13.98781114016624
 20
-19.87086289650798
 10
13.86842135612491
 20
-19.87086289650798
 10
13.8083044399073
 20
-19.87086289650798
 10
13.75748928149986
 20
-19.85394747767539
 10
13.73125487937969
 20
-19.83699760788797
 10
13.73125487937969
 20
-19.83699760788797
 10
13.74987562047746
 20
-19.78029133620076
 10
13.74987562047746
 20
-19.78029133620076
 10
13.77273382902209
 20
-19.79383056145779
 10
13.81760619771747
 20
-19.81074598029037
 10
13.86757730773102
 20
-19.81074598029037
 10
13.93785725563012
 20
-19.81074598029037
 10
13.99797417184773
 20
-19.7650295632011
 10
13.99797417184773
 20
-19.69137342172646
 10
13.99713012345384
 20
-19.62023219995605
 10
13.94970838409938
 20
-19.56945149250347
 10
13.83963758334565
 20
-19.56945149250347
 10
13.8083044399073
 20
-19.56945149250347
 10
13.78374090909747
 20
-19.57282768607901
 10
13.76341484573449
 20
-19.5753770567381
 10
13.76341484573449
 20
-19.5753770567381
 10
13.7989854566197
 20
-19.31117268397429
 10
13.7989854566197
 20
-19.31117268397429
 10
13.7989854566197
 20
-19.31117268397429
 10
14.0623285555122
 20
-19.31117268397429
 10
14.0623285555122
 20
-19.31117268397429
 10
14.0623285555122
 20
-19.31117268397429
 10
14.0623285555122
 20
-19.37383897085098
 10
14.0623285555122
 20
-19.37383897085098
 97
        0
 97
        0
 75
     2
 76
     1
 98
        0
450
        0
451
        0
460
0.0
461
0.0
452
        0
462
0.0
453
        0
470

  0
SPLINE
  5
142
330
1F
100
AcDbEntity
  8
Livello 3
100
AcDbSpline
210
0.0
220
0.0
230
1.0
 70
     9
 71
     3
 72
    17
 73
    13
 74
     0
 42
0.000000001
 43
0.0000000001
 40
0.0
 40
0.0
 40
0.0
 40
0.0
 40
1.0
 40
1.0
 40
1.0
 40
2.0
 40
2.0
 40
2.0
 40
3.0
 40
3.0
 40
3.0
 40
4.0
 40
4.0
 40
4.0
 40
4.0
 10
14.14354668157696
 20
-19.9657063752169
 30
0.0
 10
14.16218464815216
 20
-19.91575249068078
 30
0.0
 10
14.18504285669679
 20
-19.82514647941871
 30
0.0
 10
14.19436183998439
 20
-19.76334146641333
 30
0.0
 10
14.19436183998439
 20
-19.76334146641333
 30
0.0
 10
14.27733696474664
 20
-19.75486653151961
 30
0.0
 10
14.27733696474664
 20
-19.75486653151961
 30
0.0
 10
14.25787217525498
 20
-19.82683457620648
 30
0.0
 10
14.220613467582
 20
-19.9208167810441
 30
0.0
 10
14.19689398516605
 20
-19.96064208485359
 30
0.0
 10
14.19689398516605
 20
-19.96064208485359
 30
0.0
 10
14.14354668157696
 20
-19.9657063752169
 30
0.0
 10
14.14354668157696
 20
-19.9657063752169
 30
0.0
  0
HATCH
  5
143
330
1F
100
AcDbEntity
  8
Livello 3
100
AcDbHatch
 10
0.0
 20
0.0
 30
0.0
210
0.0
220
0.0
230
1.0
  2
SOLID
 70
     1
 71
     0
 91
        1
 92
        1
 93
        1
 72
     4
 94
        3
 73
     0
 74
     0
 95
       17
 96
       13
 40
0.0
 40
0.0
 40
0.0
 40
0.0
 40
1.0
 40
1.0
 40
1.0
 40
2.0
 40
2.0
 40
2.0
 40
3.0
 40
3.0
 40
3.0
 40
4.0
 40
4.0
 40
4.0
 40
4.0
 10
14.14354668157696
 20
-19.9657063752169
 10
14.16218464815216
 20
-19.91575249068078
 10
14.18504285669679
 20
-19.82514647941871
 10
14.19436183998439
 20
-19.76334146641333
 10
14.19436183998439
 20
-19.76334146641333
 10
14.27733696474664
 20
-19.75486653151961
 10
14.27733696474664
 20
-19.75486653151961
 10
14.25787217525498
 20
-19.82683457620648
 10
14.220613467582
 20
-19.9208167810441
 10
14.19689398516605
 20
-19.96064208485359
 10
14.19689398516605
 20
-19.96064208485359
 10
14.14354668157696
 20
-19.9657063752169
 10
14.14354668157696
 20
-19.9657063752169
 97
        0
 97
        0
 75
     2
 76
     1
 98
        0
450
        0
451
        0
460
0.0
461
0.0
452
        0
462
0.0
453
        0
470

  0
SPLINE
  5
144
330
1F
100
AcDbEntity
  8
Livello 3
100
AcDbSpline
210
0.0
220
0.0
230
1.0
 70
    11
 71
     3
 72
    50
 73
    46
 74
     0
 42
0.000000001
 43
0.0000000001
 40
0.0
 40
0.0
 40
0.0
 40
0.0
 40
1.0
 40
1.0
 40
1.0
 40
2.0
 40
2.0
 40
2.0
 40
3.0
 40
3.0
 40
3.0
 40
4.0
 40
4.0
 40
4.0
 40
5.0
 40
5.0
 40
5.0
 40
6.0
 40
6.0
 40
6.0
 40
7.0
 40
7.0
 40
7.0
 40
8.0
 40
8.0
 40
8.0
 40
9.0
 40
9.0
 40
9.0
 40
10.0
 40
10.0
 40
10.0
 40
11.0
 40
11.0
 40
11.0
 40
12.0
 40
12.0
 40
12.0
 40
13.0
 40
13.0
 40
13.0
 40
14.0
 40
14.0
 40
14.0
 40
15.0
 40
15.0
 40
15.0
 40
15.0
 10
14.6719037506723
 20
-19.37383897085098
 30
0.0
 10
14.6719037506723
 20
-19.37383897085098
 30
0.0
 10
14.4619079553689
 20
-19.37383897085098
 30
0.0
 10
14.4619079553689
 20
-19.37383897085098
 30
0.0
 10
14.4619079553689
 20
-19.37383897085098
 30
0.0
 10
14.44073784361204
 20
-19.51526014052049
 30
0.0
 10
14.44073784361204
 20
-19.51526014052049
 30
0.0
 10
14.45343302047518
 20
-19.51353759277787
 30
0.0
 10
14.46530137442187
 20
-19.51184949599009
 30
0.0
 10
14.48561021230742
 20
-19.51184949599009
 30
0.0
 10
14.52795043582114
 20
-19.51184949599009
 30
0.0
 10
14.57029065933486
 20
-19.52118570475512
 30
0.0
 10
14.60415594795486
 20
-19.54147731716324
 30
0.0
 10
14.64734021986247
 20
-19.56604084797307
 30
0.0
 10
14.68291083074767
 20
-19.61347981280496
 30
0.0
 10
14.68291083074767
 20
-19.68289848683274
 30
0.0
 10
14.68291083074767
 20
-19.79041991692739
 30
0.0
 10
14.59738633532635
 20
-19.87086289650798
 30
0.0
 10
14.47799655128501
 20
-19.87086289650798
 30
0.0
 10
14.4178796350674
 20
-19.87086289650798
 30
0.0
 10
14.36706447665997
 20
-19.85394747767539
 30
0.0
 10
14.34083007453979
 20
-19.83699760788797
 30
0.0
 10
14.34083007453979
 20
-19.83699760788797
 30
0.0
 10
14.35945081563757
 20
-19.78029133620076
 30
0.0
 10
14.35945081563757
 20
-19.78029133620076
 30
0.0
 10
14.3823090241822
 20
-19.79383056145779
 30
0.0
 10
14.42718139287758
 20
-19.81074598029037
 30
0.0
 10
14.47715250289113
 20
-19.81074598029037
 30
0.0
 10
14.54743245079022
 20
-19.81074598029037
 30
0.0
 10
14.60754936700783
 20
-19.7650295632011
 30
0.0
 10
14.60754936700783
 20
-19.69137342172646
 30
0.0
 10
14.60670531861395
 20
-19.62023219995605
 30
0.0
 10
14.55928357925948
 20
-19.56945149250347
 30
0.0
 10
14.44921277850575
 20
-19.56945149250347
 30
0.0
 10
14.4178796350674
 20
-19.56945149250347
 30
0.0
 10
14.39331610425757
 20
-19.57282768607901
 30
0.0
 10
14.3729900408946
 20
-19.5753770567381
 30
0.0
 10
14.3729900408946
 20
-19.5753770567381
 30
0.0
 10
14.4085606517798
 20
-19.31117268397429
 30
0.0
 10
14.4085606517798
 20
-19.31117268397429
 30
0.0
 10
14.4085606517798
 20
-19.31117268397429
 30
0.0
 10
14.6719037506723
 20
-19.31117268397429
 30
0.0
 10
14.6719037506723
 20
-19.31117268397429
 30
0.0
 10
14.6719037506723
 20
-19.31117268397429
 30
0.0
 10
14.6719037506723
 20
-19.37383897085098
 30
0.0
 10
14.6719037506723
 20
-19.37383897085098
 30
0.0
  0
HATCH
  5
145
330
1F
100
AcDbEntity
  8
Livello 3
100
AcDbHatch
 10
0.0
 20
0.0
 30
0.0
210
0.0
220
0.0
230
1.0
  2
SOLID
 70
     1
 71
     0
 91
        1
 92
        1
 93
        1
 72
     4
 94
        3
 73
     0
 74
     0
 95
       50
 96
       46
 40
0.0
 40
0.0
 40
0.0
 40
0.0
 40
1.0
 40
1.0
 40
1.0
 40
2.0
 40
2.0
 40
2.0
 40
3.0
 40
3.0
 40
3.0
 40
4.0
 40
4.0
 40
4.0
 40
5.0
 40
5.0
 40
5.0
 40
6.0
 40
6.0
 40
6.0
 40
7.0
 40
7.0
 40
7.0
 40
8.0
 40
8.0
 40
8.0
 40
9.0
 40
9.0
 40
9.0
 40
10.0
 40
10.0
 40
10.0
 40
11.0
 40
11.0
 40
11.0
 40
12.0
 40
12.0
 40
12.0
 40
13.0
 40
13.0
 40
13.0
 40
14.0
 40
14.0
 40
14.0
 40
15.0
 40
15.0
 40
15.0
 40
15.0
 10
14.6719037506723
 20
-19.37383897085098
 10
14.6719037506723
 20
-19.37383897085098
 10
14.4619079553689
 20
-19.37383897085098
 10
14.4619079553689
 20
-19.37383897085098
 10
14.4619079553689
 20
-19.37383897085098
 10
14.44073784361204
 20
-19.51526014052049
 10
14.44073784361204
 20
-19.51526014052049
 10
14.45343302047518
 20
-19.51353759277787
 10
14.46530137442187
 20
-19.51184949599009
 10
14.48561021230742
 20
-19.51184949599009
 10
14.52795043582114
 20
-19.51184949599009
 10
14.57029065933486
 20
-19.52118570475512
 10
14.60415594795486
 20
-19.54147731716324
 10
14.64734021986247
 20
-19.56604084797307
 10
14.68291083074767
 20
-19.61347981280496
 10
14.68291083074767
 20
-19.68289848683274
 10
14.68291083074767
 20
-19.79041991692739
 10
14.59738633532635
 20
-19.87086289650798
 10
14.47799655128501
 20
-19.87086289650798
 10
14.4178796350674
 20
-19.87086289650798
 10
14.36706447665997
 20
-19.85394747767539
 10
14.34083007453979
 20
-19.83699760788797
 10
14.34083007453979
 20
-19.83699760788797
 10
14.35945081563757
 20
-19.78029133620076
 10
14.35945081563757
 20
-19.78029133620076
 10
14.3823090241822
 20
-19.79383056145779
 10
14.42718139287758
 20
-19.81074598029037
 10
14.47715250289113
 20
-19.81074598029037
 10
14.54743245079022
 20
-19.81074598029037
 10
14.60754936700783
 20
-19.7650295632011
 10
14.60754936700783
 20
-19.69137342172646
 10
14.60670531861395
 20
-19.62023219995605
 10
14.55928357925948
 20
-19.56945149250347
 10
14.44921277850575
 20
-19.56945149250347
 10
14.4178796350674
 20
-19.56945149250347
 10
14.39331610425757
 20
-19.57282768607901
 10
14.3729900408946
 20
-19.5753770567381
 10
14.3729900408946
 20
-19.5753770567381
 10
14.4085606517798
 20
-19.31117268397429
 10
14.4085606517798
 20
-19.31117268397429
 10
14.4085606517798
 20
-19.31117268397429
 10
14.6719037506723
 20
-19.31117268397429
 10
14.6719037506723
 20
-19.31117268397429
 10
14.6719037506723
 20
-19.31117268397429
 10
14.6719037506723
 20
-19.37383897085098
 10
14.6719037506723
 20
-19.37383897085098
 97
        0
 97
        0
 75
     2
 76
     1
 98
        0
450
        0
451
        0
460
0.0
461
0.0
452
        0
462
0.0
453
        0
470

  0
SPLINE
  5
146
330
1F
100
AcDbEntity
  8
Livello 3
100
AcDbSpline
210
0.0
220
0.0
230
1.0
 70
     9
 71
     3
 72
    35
 73
    31
 74
     0
 42
0.000000001
 43
0.0000000001
 40
0.0
 40
0.0
 40
0.0
 40
0.0
 40
1.0
 40
1.0
 40
1.0
 40
2.0
 40
2.0
 40
2.0
 40
3.0
 40
3.0
 40
3.0
 40
4.0
 40
4.0
 40
4.0
 40
5.0
 40
5.0
 40
5.0
 40
6.0
 40
6.0
 40
6.0
 40
7.0
 40
7.0
 40
7.0
 40
8.0
 40
8.0
 40
8.0
 40
9.0
 40
9.0
 40
9.0
 40
10.0
 40
10.0
 40
10.0
 40
10.0
 10
17.01791042326288
 20
-12.71433159404364
 30
0.0
 10
16.94845729828025
 20
-12.71433159404364
 30
0.0
 10
16.89936468761544
 20
-12.67285264440123
 30
0.0
 10
16.87056368935875
 20
-12.60512206716122
 30
0.0
 10
16.87056368935875
 20
-12.60512206716122
 30
0.0
 10
16.86801431869966
 20
-12.60594889007768
 30
0.0
 10
16.86801431869966
 20
-12.60594889007768
 30
0.0
 10
16.83924777139783
 20
-12.6669270801666
 30
0.0
 10
16.79180880656594
 20
-12.6931787077642
 30
0.0
 10
16.7444042926889
 20
-12.6931787077642
 30
0.0
 10
16.65717447500237
 20
-12.6931787077642
 30
0.0
 10
16.59791883265607
 20
-12.61952256628956
 30
0.0
 10
16.59791883265607
 20
-12.52299099079286
 30
0.0
 10
16.59791883265607
 20
-12.41629638361468
 30
0.0
 10
16.66482258697962
 20
-12.36293185454815
 30
0.0
 10
16.7333799871361
 20
-12.36293185454815
 30
0.0
 10
16.77995767809668
 20
-12.36293185454815
 30
0.0
 10
16.8299115626328
 20
-12.38580728857021
 30
0.0
 10
16.86208875446503
 20
-12.45353786581023
 30
0.0
 10
16.86208875446503
 20
-12.45353786581023
 30
0.0
 10
16.86463812512412
 20
-12.45353786581023
 30
0.0
 10
16.86463812512412
 20
-12.45353786581023
 30
0.0
 10
16.89171657563818
 20
-12.38498046565375
 30
0.0
 10
16.93998236338653
 20
-12.34264024214003
 30
0.0
 10
17.00688611771008
 20
-12.34264024214003
 30
0.0
 10
17.10255641933547
 20
-12.34264024214003
 30
0.0
 10
17.16691080299994
 20
-12.42477131850839
 30
0.0
 10
17.16691080299994
 20
-12.52974337794395
 30
0.0
 10
17.16691080299994
 20
-12.64491292001585
 30
0.0
 10
17.09835340284346
 20
-12.71433159404364
 30
0.0
 10
17.01791042326288
 20
-12.71433159404364
 30
0.0
  0
SPLINE
  5
147
330
1F
100
AcDbEntity
  8
Livello 3
100
AcDbSpline
210
0.0
220
0.0
230
1.0
 70
     9
 71
     3
 72
    17
 73
    13
 74
     0
 42
0.000000001
 43
0.0000000001
 40
0.0
 40
0.0
 40
0.0
 40
0.0
 40
1.0
 40
1.0
 40
1.0
 40
2.0
 40
2.0
 40
2.0
 40
3.0
 40
3.0
 40
3.0
 40
4.0
 40
4.0
 40
4.0
 40
4.0
 10
16.73930555137073
 20
-12.62289875986511
 30
0.0
 10
16.79435817722502
 20
-12.62289875986511
 30
0.0
 10
16.82398599839817
 20
-12.5814198102227
 30
0.0
 10
16.8409358681856
 20
-12.51789224947469
 30
0.0
 10
16.82484727226948
 20
-12.47048773559765
 30
0.0
 10
16.79098198364948
 20
-12.43407307631856
 30
0.0
 10
16.74102809911335
 20
-12.43407307631856
 30
0.0
 10
16.69696532785701
 20
-12.43407307631856
 30
0.0
 10
16.65124891076774
 20
-12.46032470391617
 30
0.0
 10
16.65124891076774
 20
-12.52722845823972
 30
0.0
 10
16.65124891076774
 20
-12.5890334712451
 30
0.0
 10
16.69190103749369
 20
-12.62289875986511
 30
0.0
 10
16.73930555137073
 20
-12.62289875986511
 30
0.0
  0
SPLINE
  5
148
330
1F
100
AcDbEntity
  8
Livello 3
100
AcDbSpline
210
0.0
220
0.0
230
1.0
 70
     9
 71
     3
 72
    17
 73
    13
 74
     0
 42
0.000000001
 43
0.0000000001
 40
0.0
 40
0.0
 40
0.0
 40
0.0
 40
1.0
 40
1.0
 40
1.0
 40
2.0
 40
2.0
 40
2.0
 40
3.0
 40
3.0
 40
3.0
 40
4.0
 40
4.0
 40
4.0
 40
4.0
 10
17.01449977873249
 20
-12.41798448040245
 30
0.0
 10
16.94763047536378
 20
-12.41798448040245
 30
0.0
 10
16.91545328353155
 20
-12.46456217136303
 30
0.0
 10
16.89426594629727
 20
-12.53907958670898
 30
0.0
 10
16.91290391287247
 20
-12.60343397037345
 30
0.0
 10
16.95524413638619
 20
-12.63812608190991
 30
0.0
 10
17.0077473915814
 20
-12.63812608190991
 30
0.0
 10
17.06362684035215
 20
-12.640675452569
 30
0.0
 10
17.11271945101696
 20
-12.59836968001013
 30
0.0
 10
17.11271945101696
 20
-12.52808973211103
 30
0.0
 10
17.11271945101696
 20
-12.46118597778748
 30
0.0
 10
17.07124050137455
 20
-12.41798448040245
 30
0.0
 10
17.01449977873249
 20
-12.41798448040245
 30
0.0
  0
HATCH
  5
149
330
1F
100
AcDbEntity
  8
Livello 3
100
AcDbHatch
 10
0.0
 20
0.0
 30
0.0
210
0.0
220
0.0
230
1.0
  2
SOLID
 70
     1
 71
     0
 91
        3
 92
        1
 93
        1
 72
     4
 94
        3
 73
     0
 74
     0
 95
       35
 96
       31
 40
0.0
 40
0.0
 40
0.0
 40
0.0
 40
1.0
 40
1.0
 40
1.0
 40
2.0
 40
2.0
 40
2.0
 40
3.0
 40
3.0
 40
3.0
 40
4.0
 40
4.0
 40
4.0
 40
5.0
 40
5.0
 40
5.0
 40
6.0
 40
6.0
 40
6.0
 40
7.0
 40
7.0
 40
7.0
 40
8.0
 40
8.0
 40
8.0
 40
9.0
 40
9.0
 40
9.0
 40
10.0
 40
10.0
 40
10.0
 40
10.0
 10
17.01791042326288
 20
-12.71433159404364
 10
16.94845729828025
 20
-12.71433159404364
 10
16.89936468761544
 20
-12.67285264440123
 10
16.87056368935875
 20
-12.60512206716122
 10
16.87056368935875
 20
-12.60512206716122
 10
16.86801431869966
 20
-12.60594889007768
 10
16.86801431869966
 20
-12.60594889007768
 10
16.83924777139783
 20
-12.6669270801666
 10
16.79180880656594
 20
-12.6931787077642
 10
16.7444042926889
 20
-12.6931787077642
 10
16.65717447500237
 20
-12.6931787077642
 10
16.59791883265607
 20
-12.61952256628956
 10
16.59791883265607
 20
-12.52299099079286
 10
16.59791883265607
 20
-12.41629638361468
 10
16.66482258697962
 20
-12.36293185454815
 10
16.7333799871361
 20
-12.36293185454815
 10
16.77995767809668
 20
-12.36293185454815
 10
16.8299115626328
 20
-12.38580728857021
 10
16.86208875446503
 20
-12.45353786581023
 10
16.86208875446503
 20
-12.45353786581023
 10
16.86463812512412
 20
-12.45353786581023
 10
16.86463812512412
 20
-12.45353786581023
 10
16.89171657563818
 20
-12.38498046565375
 10
16.93998236338653
 20
-12.34264024214003
 10
17.00688611771008
 20
-12.34264024214003
 10
17.10255641933547
 20
-12.34264024214003
 10
17.16691080299994
 20
-12.42477131850839
 10
17.16691080299994
 20
-12.52974337794395
 10
17.16691080299994
 20
-12.64491292001585
 10
17.09835340284346
 20
-12.71433159404364
 10
17.01791042326288
 20
-12.71433159404364
 97
        0
 97
        0
 92
        1
 93
        1
 72
     4
 94
        3
 73
     0
 74
     0
 95
       17
 96
       13
 40
0.0
 40
0.0
 40
0.0
 40
0.0
 40
1.0
 40
1.0
 40
1.0
 40
2.0
 40
2.0
 40
2.0
 40
3.0
 40
3.0
 40
3.0
 40
4.0
 40
4.0
 40
4.0
 40
4.0
 10
16.73930555137073
 20
-12.62289875986511
 10
16.79435817722502
 20
-12.62289875986511
 10
16.82398599839817
 20
-12.5814198102227
 10
16.8409358681856
 20
-12.51789224947469
 10
16.82484727226948
 20
-12.47048773559765
 10
16.79098198364948
 20
-12.43407307631856
 10
16.74102809911335
 20
-12.43407307631856
 10
16.69696532785701
 20
-12.43407307631856
 10
16.65124891076774
 20
-12.46032470391617
 10
16.65124891076774
 20
-12.52722845823972
 10
16.65124891076774
 20
-12.5890334712451
 10
16.69190103749369
 20
-12.62289875986511
 10
16.73930555137073
 20
-12.62289875986511
 97
        0
 97
        0
 92
        1
 93
        1
 72
     4
 94
        3
 73
     0
 74
     0
 95
       17
 96
       13
 40
0.0
 40
0.0
 40
0.0
 40
0.0
 40
1.0
 40
1.0
 40
1.0
 40
2.0
 40
2.0
 40
2.0
 40
3.0
 40
3.0
 40
3.0
 40
4.0
 40
4.0
 40
4.0
 40
4.0
 10
17.01449977873249
 20
-12.41798448040245
 10
16.94763047536378
 20
-12.41798448040245
 10
16.91545328353155
 20
-12.46456217136303
 10
16.89426594629727
 20
-12.53907958670898
 10
16.91290391287247
 20
-12.60343397037345
 10
16.95524413638619
 20
-12.63812608190991
 10
17.0077473915814
 20
-12.63812608190991
 10
17.06362684035215
 20
-12.640675452569
 10
17.11271945101696
 20
-12.59836968001013
 10
17.11271945101696
 20
-12.52808973211103
 10
17.11271945101696
 20
-12.46118597778748
 10
17.07124050137455
 20
-12.41798448040245
 10
17.01449977873249
 20
-12.41798448040245
 97
        0
 97
        0
 75
     2
 76
     1
 98
        0
450
        0
451
        0
460
0.0
461
0.0
452
        0
462
0.0
453
        0
470

  0
SPLINE
  5
14A
330
1F
100
AcDbEntity
  8
Livello 3
100
AcDbSpline
210
0.0
220
0.0
230
1.0
 70
     9
 71
     3
 72
    17
 73
    13
 74
     0
 42
0.000000001
 43
0.0000000001
 40
0.0
 40
0.0
 40
0.0
 40
0.0
 40
1.0
 40
1.0
 40
1.0
 40
2.0
 40
2.0
 40
2.0
 40
3.0
 40
3.0
 40
3.0
 40
4.0
 40
4.0
 40
4.0
 40
4.0
 10
16.87648925359338
 20
-11.90745578044327
 30
0.0
 10
17.06362684035215
 20
-11.90745578044327
 30
0.0
 10
17.16691080299994
 20
-11.97687445447106
 30
0.0
 10
17.16691080299994
 20
-12.0988308346489
 30
0.0
 10
17.16691080299994
 20
-12.2063867156984
 30
0.0
 10
17.06617621101123
 20
-12.27918158330173
 30
0.0
 10
16.88410291461577
 20
-12.2808696800895
 30
0.0
 10
16.69951469851609
 20
-12.2808696800895
 30
0.0
 10
16.59791883265607
 20
-12.20128797438023
 30
0.0
 10
16.59791883265607
 20
-12.08952907683873
 30
0.0
 10
16.59791883265607
 20
-11.97349826089551
 30
0.0
 10
16.70120279530386
 20
-11.90745578044327
 30
0.0
 10
16.87648925359338
 20
-11.90745578044327
 30
0.0
  0
SPLINE
  5
14B
330
1F
100
AcDbEntity
  8
Livello 3
100
AcDbSpline
210
0.0
220
0.0
230
1.0
 70
     9
 71
     3
 72
    17
 73
    13
 74
     0
 42
0.000000001
 43
0.0000000001
 40
0.0
 40
0.0
 40
0.0
 40
0.0
 40
1.0
 40
1.0
 40
1.0
 40
2.0
 40
2.0
 40
2.0
 40
3.0
 40
3.0
 40
3.0
 40
4.0
 40
4.0
 40
4.0
 40
4.0
 10
16.88496418848709
 20
-12.2063867156984
 30
0.0
 10
17.02807345494437
 20
-12.2063867156984
 30
0.0
 10
17.10934325744141
 20
-12.16232394444206
 30
0.0
 10
17.10934325744141
 20
-12.09459336720204
 30
0.0
 10
17.10934325744141
 20
-12.01838785506832
 30
0.0
 10
17.02042534296712
 20
-11.98197319578923
 30
0.0
 10
16.87986544716892
 20
-11.98197319578923
 30
0.0
 10
16.7444042926889
 20
-11.98197319578923
 30
0.0
 10
16.6554863782146
 20
-12.01669975828055
 30
0.0
 10
16.6554863782146
 20
-12.09373209333073
 30
0.0
 10
16.6554863782146
 20
-12.15894775086651
 30
0.0
 10
16.73510253487872
 20
-12.2063867156984
 30
0.0
 10
16.88496418848709
 20
-12.2063867156984
 30
0.0
  0
HATCH
  5
14C
330
1F
100
AcDbEntity
  8
Livello 3
100
AcDbHatch
 10
0.0
 20
0.0
 30
0.0
210
0.0
220
0.0
230
1.0
  2
SOLID
 70
     1
 71
     0
 91
        2
 92
        1
 93
        1
 72
     4
 94
        3
 73
     0
 74
     0
 95
       17
 96
       13
 40
0.0
 40
0.0
 40
0.0
 40
0.0
 40
1.0
 40
1.0
 40
1.0
 40
2.0
 40
2.0
 40
2.0
 40
3.0
 40
3.0
 40
3.0
 40
4.0
 40
4.0
 40
4.0
 40
4.0
 10
16.87648925359338
 20
-11.90745578044327
 10
17.06362684035215
 20
-11.90745578044327
 10
17.16691080299994
 20
-11.97687445447106
 10
17.16691080299994
 20
-12.0988308346489
 10
17.16691080299994
 20
-12.2063867156984
 10
17.06617621101123
 20
-12.27918158330173
 10
16.88410291461577
 20
-12.2808696800895
 10
16.69951469851609
 20
-12.2808696800895
 10
16.59791883265607
 20
-12.20128797438023
 10
16.59791883265607
 20
-12.08952907683873
 10
16.59791883265607
 20
-11.97349826089551
 10
16.70120279530386
 20
-11.90745578044327
 10
16.87648925359338
 20
-11.90745578044327
 97
        0
 97
        0
 92
        1
 93
        1
 72
     4
 94
        3
 73
     0
 74
     0
 95
       17
 96
       13
 40
0.0
 40
0.0
 40
0.0
 40
0.0
 40
1.0
 40
1.0
 40
1.0
 40
2.0
 40
2.0
 40
2.0
 40
3.0
 40
3.0
 40
3.0
 40
4.0
 40
4.0
 40
4.0
 40
4.0
 10
16.88496418848709
 20
-12.2063867156984
 10
17.02807345494437
 20
-12.2063867156984
 10
17.10934325744141
 20
-12.16232394444206
 10
17.10934325744141
 20
-12.09459336720204
 10
17.10934325744141
 20
-12.01838785506832
 10
17.02042534296712
 20
-11.98197319578923
 10
16.87986544716892
 20
-11.98197319578923
 10
16.7444042926889
 20
-11.98197319578923
 10
16.6554863782146
 20
-12.01669975828055
 10
16.6554863782146
 20
-12.09373209333073
 10
16.6554863782146
 20
-12.15894775086651
 10
16.73510253487872
 20
-12.2063867156984
 10
16.88496418848709
 20
-12.2063867156984
 97
        0
 97
        0
 75
     2
 76
     1
 98
        0
450
        0
451
        0
460
0.0
461
0.0
452
        0
462
0.0
453
        0
470

  0
ENDSEC
  0
SECTION
  2
OBJECTS
  0
DICTIONARY
  5
C
330
0
100
AcDbDictionary
281
     1
  3
ACAD_CIP_PREVIOUS_PRODUCT_INFO
350
FD
  3
ACAD_COLOR
350
DE
  3
ACAD_DETAILVIEWSTYLE
350
F9
  3
ACAD_GROUP
350
D
  3
ACAD_LAYOUT
350
1A
  3
ACAD_MATERIAL
350
3B
  3
ACAD_MLEADERSTYLE
350
D1
  3
ACAD_MLINESTYLE
350
17
  3
ACAD_PLOTSETTINGS
350
19
  3
ACAD_PLOTSTYLENAME
350
E
  3
ACAD_SCALELIST
350
E0
  3
ACAD_SECTIONVIEWSTYLE
350
F7
  3
ACAD_TABLESTYLE
350
D0
  3
ACAD_VISUALSTYLE
350
2A
  3
ACDB_RECOMPOSE_DATA
350
156
  3
AcDbVariableDictionary
350
14D
  0
SUN
  5
3F
330
29
100
AcDbSun
 90
        1
290
     1
 63
     7
421
 16777215
 40
1.0
291
     1
 91
  2455826
 92
 54000000
292
     0
 70
     0
 71
   256
280
     1
1001
ACAD
1000
AcDbSavedByObjectVersion
1070
     0
  0
DICTIONARY
  5
FE
330
1F
100
AcDbDictionary
280
     1
281
     1
  3
ACAD_SORTENTS
360
FF
  0
XRECORD
  5
FD
102
{ACAD_REACTORS
330
C
102
}
330
C
100
AcDbXrecord
280
     1
300
ACD
300
2019
300
ACD_F_S
  0
DICTIONARY
  5
DE
102
{ACAD_REACTORS
330
C
102
}
330
C
100
AcDbDictionary
281
     1
  0
DICTIONARY
  5
F9
102
{ACAD_REACTORS
330
C
102
}
330
C
100
AcDbDictionary
281
     1
  3
Imperial24
350
FA
  0
DICTIONARY
  5
D
102
{ACAD_REACTORS
330
C
102
}
330
C
100
AcDbDictionary
281
     1
  0
DICTIONARY
  5
1A
102
{ACAD_REACTORS
330
C
102
}
330
C
100
AcDbDictionary
281
     1
  3
Layout1
350
1E
  3
Layout2
350
26
  3
Model
350
22
  0
DICTIONARY
  5
3B
102
{ACAD_REACTORS
330
C
102
}
330
C
100
AcDbDictionary
281
     1
  3
ByBlock
350
3D
  3
ByLayer
350
3C
  3
Global
350
3E
  0
DICTIONARY
  5
D1
102
{ACAD_REACTORS
330
C
102
}
330
C
100
AcDbDictionary
281
     1
  3
Standard
350
F6
  0
DICTIONARY
  5
17
102
{ACAD_REACTORS
330
C
102
}
330
C
100
AcDbDictionary
281
     1
  3
Standard
350
18
  0
DICTIONARY
  5
19
102
{ACAD_REACTORS
330
C
102
}
330
C
100
AcDbDictionary
281
     1
  0
ACDBDICTIONARYWDFLT
  5
E
102
{ACAD_REACTORS
330
C
102
}
330
C
100
AcDbDictionary
281
     1
  3
Normal
350
F
100
AcDbDictionaryWithDefault
340
F
  0
DICTIONARY
  5
E0
102
{ACAD_REACTORS
330
C
102
}
330
C
100
AcDbDictionary
281
     1
  3
A0
350
E1
  3
A1
350
E2
  3
A2
350
E3
  3
A3
350
E4
  3
A4
350
E5
  3
A5
350
E6
  3
A6
350
E7
  3
A7
350
E8
  3
A8
350
E9
  3
A9
350
EA
  3
B0
350
EB
  3
B1
350
EC
  3
B2
350
ED
  3
B3
350
EE
  3
B4
350
EF
  3
B5
350
F0
  3
B6
350
F1
  3
B7
350
F2
  3
B8
350
F3
  3
B9
350
F4
  3
C0
350
F5
  0
DICTIONARY
  5
F7
102
{ACAD_REACTORS
330
C
102
}
330
C
100
AcDbDictionary
281
     1
  3
Imperial24
350
F8
  0
DICTIONARY
  5
D0
102
{ACAD_REACTORS
330
C
102
}
330
C
100
AcDbDictionary
281
     1
  3
Standard
350
DF
  0
DICTIONARY
  5
2A
102
{ACAD_REACTORS
330
C
102
}
330
C
100
AcDbDictionary
281
     1
  3
2dWireframe
350
2F
  3
3D Hidden
350
31
  3
3dWireframe
350
30
  3
Basic
350
32
  3
Brighten
350
36
  3
ColorChange
350
3A
  3
Conceptual
350
34
  3
Dim
350
35
  3
EdgeColorOff
350
DD
  3
Facepattern
350
39
  3
Flat
350
2B
  3
FlatWithEdges
350
2C
  3
Gouraud
350
2D
  3
GouraudWithEdges
350
2E
  3
Hidden
350
D5
  3
JitterOff
350
DB
  3
Linepattern
350
38
  3
OverhangOff
350
DC
  3
Realistic
350
33
  3
Shaded
350
DA
  3
Shaded with edges
350
D9
  3
Shades of Gray
350
D6
  3
Sketchy
350
D7
  3
Thicken
350
37
  3
Wireframe
350
D4
  3
X-Ray
350
D8
  0
XRECORD
  5
156
102
{ACAD_REACTORS
330
C
102
}
330
C
100
AcDbXrecord
280
     1
 90
        1
330
DF
  0
DICTIONARY
  5
14D
102
{ACAD_REACTORS
330
C
102
}
330
C
100
AcDbDictionary
281
     1
  3
CANNOSCALE
350
152
  3
CMLEADERSTYLE
350
14F
  3
CTABLESTYLE
350
14E
  3
CVIEWDETAILSTYLE
350
150
  3
CVIEWSECTIONSTYLE
350
151
  0
SORTENTSTABLE
  5
FF
102
{ACAD_REACTORS
330
FE
102
}
330
FE
100
AcDbSortentsTable
330
1F
  0
ACDBDETAILVIEWSTYLE
  5
FA
102
{ACAD_XDICTIONARY
360
159
102
}
102
{ACAD_REACTORS
330
F9
102
}
330
F9
100
AcDbModelDocViewStyle
 70
     0
  3
Imperial24
290
     0
100
AcDbDetailViewStyle
 70
     0
 71
     0
 90
        3
 71
     1
340
11
 62
   256
 40
0.24
340
0
 62
   256
 40
0.24
300

 40
0.36
280
     3
 71
     2
340
16
 90
       25
 62
   256
 71
     3
340
11
 62
   256
 40
0.24
 90
        1
 40
0.75
 90
        1
300
%<\AcVar ViewType \f "%tc1">% %<\AcVar ViewDetailId>%\PSCALA %<\AcVar ViewScale \f "%sn">%
 71
     4
340
16
 90
       25
 62
   256
340
16
 90
       25
 62
   256
280
     0
  0
LAYOUT
  5
1E
102
{ACAD_REACTORS
330
1A
102
}
330
1A
100
AcDbPlotSettings
  1

  2
none_device
  4

  6

 40
0.0
 41
0.0
 42
0.0
 43
0.0
 44
0.0
 45
0.0
 46
0.0
 47
0.0
 48
0.0
 49
0.0
140
0.0
141
0.0
142
1.0
143
1.0
 70
   688
 72
     0
 73
     0
 74
     5
  7

 75
    16
147
1.0
 76
     0
 77
     2
 78
   300
148
0.0
149
0.0
100
AcDbLayout
  1
Layout1
 70
     1
 71
     1
 10
0.0
 20
0.0
 11
12.0
 21
9.0
 12
0.0
 22
0.0
 32
0.0
 14
1.000000000000000E+20
 24
1.000000000000000E+20
 34
1.000000000000000E+20
 15
-1.000000000000000E+20
 25
-1.000000000000000E+20
 35
-1.000000000000000E+20
146
0.0
 13
0.0
 23
0.0
 33
0.0
 16
1.0
 26
0.0
 36
0.0
 17
0.0
 27
1.0
 37
0.0
 76
     0
330
1B
  0
LAYOUT
  5
26
102
{ACAD_REACTORS
330
1A
102
}
330
1A
100
AcDbPlotSettings
  1

  2
none_device
  4

  6

 40
0.0
 41
0.0
 42
0.0
 43
0.0
 44
0.0
 45
0.0
 46
0.0
 47
0.0
 48
0.0
 49
0.0
140
0.0
141
0.0
142
1.0
143
1.0
 70
   688
 72
     0
 73
     0
 74
     5
  7

 75
    16
147
1.0
 76
     0
 77
     2
 78
   300
148
0.0
149
0.0
100
AcDbLayout
  1
Layout2
 70
     1
 71
     2
 10
0.0
 20
0.0
 11
0.0
 21
0.0
 12
0.0
 22
0.0
 32
0.0
 14
0.0
 24
0.0
 34
0.0
 15
0.0
 25
0.0
 35
0.0
146
0.0
 13
0.0
 23
0.0
 33
0.0
 16
1.0
 26
0.0
 36
0.0
 17
0.0
 27
1.0
 37
0.0
 76
     0
330
23
  0
LAYOUT
  5
22
102
{ACAD_REACTORS
330
1A
102
}
330
1A
100
AcDbPlotSettings
  1

  2
none_device
  4

  6

 40
0.0
 41
0.0
 42
0.0
 43
0.0
 44
0.0
 45
0.0
 46
0.0
 47
0.0
 48
0.0
 49
0.0
140
0.0
141
0.0
142
1.0
143
1.0
 70
  1712
 72
     0
 73
     0
 74
     0
  7

 75
     0
147
1.0
 76
     0
 77
     2
 78
   300
148
0.0
149
0.0
100
AcDbLayout
  1
Model
 70
     1
 71
     0
 10
0.0
 20
0.0
 11
12.0
 21
9.0
 12
0.0
 22
0.0
 32
0.0
 14
1.000000000000000E+20
 24
1.000000000000000E+20
 34
1.000000000000000E+20
 15
-1.000000000000000E+20
 25
-1.000000000000000E+20
 35
-1.000000000000000E+20
146
0.0
 13
0.0
 23
0.0
 33
0.0
 16
1.0
 26
0.0
 36
0.0
 17
0.0
 27
1.0
 37
0.0
 76
     0
330
1F
331
29
  0
MATERIAL
  5
3D
102
{ACAD_REACTORS
330
3B
102
}
330
3B
100
AcDbMaterial
  1
ByBlock
  0
MATERIAL
  5
3C
102
{ACAD_REACTORS
330
3B
102
}
330
3B
100
AcDbMaterial
  1
ByLayer
  0
MATERIAL
  5
3E
102
{ACAD_REACTORS
330
3B
102
}
330
3B
100
AcDbMaterial
  1
Global
  0
MLEADERSTYLE
  5
F6
102
{ACAD_REACTORS
330
D1
102
}
330
D1
100
AcDbMLeaderStyle
179
     2
170
     2
171
     1
172
     0
 90
        2
 40
0.0
 41
0.0
173
     1
 91
-1056964608
340
14
 92
       -2
290
     1
 42
0.09
291
     1
 43
0.36
  3
Standard
 44
0.18
300

342
11
174
     1
178
     6
175
     1
176
     0
 93
-1056964608
 45
0.18
292
     0
297
     0
 46
0.18
 94
-1056964608
 47
1.0
 49
1.0
140
1.0
293
     1
141
0.0
294
     1
177
     0
142
1.0
295
     0
296
     0
143
0.125
271
     0
272
     9
273
     9
298
     0
  0
MLINESTYLE
  5
18
102
{ACAD_REACTORS
330
17
102
}
330
17
100
AcDbMlineStyle
  2
STANDARD
 70
     0
  3

 62
   256
 51
90.0
 52
90.0
 71
     2
 49
0.5
 62
   256
  6
BYLAYER
 49
-0.5
 62
   256
  6
BYLAYER
  0
ACDBPLACEHOLDER
  5
F
102
{ACAD_REACTORS
330
E
102
}
330
E
  0
SCALE
  5
E1
102
{ACAD_REACTORS
330
E0
102
}
330
E0
100
AcDbScale
 70
     0
300
1:1
140
1.0
141
1.0
290
     1
  0
SCALE
  5
E2
102
{ACAD_REACTORS
330
E0
102
}
330
E0
100
AcDbScale
 70
     0
300
1.10
140
1.0
141
10.0
290
     0
  0
SCALE
  5
E3
102
{ACAD_REACTORS
330
E0
102
}
330
E0
100
AcDbScale
 70
     0
300
1.50
140
1.0
141
50.0
290
     0
  0
SCALE
  5
E4
102
{ACAD_REACTORS
330
E0
102
}
330
E0
100
AcDbScale
 70
     0
300
1:100
140
1.0
141
100.0
290
     0
  0
SCALE
  5
E5
102
{ACAD_REACTORS
330
E0
102
}
330
E0
100
AcDbScale
 70
     0
300
1.200
140
1.0
141
200.0
290
     0
  0
SCALE
  5
E6
102
{ACAD_REACTORS
330
E0
102
}
330
E0
100
AcDbScale
 70
     0
300
1/128" = 1'-0"
140
0.0078125
141
12.0
290
     0
  0
SCALE
  5
E7
102
{ACAD_REACTORS
330
E0
102
}
330
E0
100
AcDbScale
 70
     0
300
1/64" = 1'-0"
140
0.015625
141
12.0
290
     0
  0
SCALE
  5
E8
102
{ACAD_REACTORS
330
E0
102
}
330
E0
100
AcDbScale
 70
     0
300
1/32" = 1'-0"
140
0.03125
141
12.0
290
     0
  0
SCALE
  5
E9
102
{ACAD_REACTORS
330
E0
102
}
330
E0
100
AcDbScale
 70
     0
300
1/16" = 1'-0"
140
0.0625
141
12.0
290
     0
  0
SCALE
  5
EA
102
{ACAD_REACTORS
330
E0
102
}
330
E0
100
AcDbScale
 70
     0
300
3/32" = 1'-0"
140
0.09375
141
12.0
290
     0
  0
SCALE
  5
EB
102
{ACAD_REACTORS
330
E0
102
}
330
E0
100
AcDbScale
 70
     0
300
1/8" = 1'-0"
140
0.125
141
12.0
290
     0
  0
SCALE
  5
EC
102
{ACAD_REACTORS
330
E0
102
}
330
E0
100
AcDbScale
 70
     0
300
3/16" = 1'-0"
140
0.1875
141
12.0
290
     0
  0
SCALE
  5
ED
102
{ACAD_REACTORS
330
E0
102
}
330
E0
100
AcDbScale
 70
     0
300
1/4" = 1'-0"
140
0.25
141
12.0
290
     0
  0
SCALE
  5
EE
102
{ACAD_REACTORS
330
E0
102
}
330
E0
100
AcDbScale
 70
     0
300
3/8" = 1'-0"
140
0.375
141
12.0
290
     0
  0
SCALE
  5
EF
102
{ACAD_REACTORS
330
E0
102
}
330
E0
100
AcDbScale
 70
     0
300
1/2" = 1'-0"
140
0.5
141
12.0
290
     0
  0
SCALE
  5
F0
102
{ACAD_REACTORS
330
E0
102
}
330
E0
100
AcDbScale
 70
     0
300
3/4" = 1'-0"
140
0.75
141
12.0
290
     0
  0
SCALE
  5
F1
102
{ACAD_REACTORS
330
E0
102
}
330
E0
100
AcDbScale
 70
     0
300
1" = 1'-0"
140
1.0
141
12.0
290
     0
  0
SCALE
  5
F2
102
{ACAD_REACTORS
330
E0
102
}
330
E0
100
AcDbScale
 70
     0
300
1-1/2" = 1'-0"
140
1.5
141
12.0
290
     0
  0
SCALE
  5
F3
102
{ACAD_REACTORS
330
E0
102
}
330
E0
100
AcDbScale
 70
     0
300
3" = 1'-0"
140
3.0
141
12.0
290
     0
  0
SCALE
  5
F4
102
{ACAD_REACTORS
330
E0
102
}
330
E0
100
AcDbScale
 70
     0
300
6" = 1'-0"
140
6.0
141
12.0
290
     0
  0
SCALE
  5
F5
102
{ACAD_REACTORS
330
E0
102
}
330
E0
100
AcDbScale
 70
     0
300
1'-0" = 1'-0"
140
12.0
141
12.0
290
     0
  0
ACDBSECTIONVIEWSTYLE
  5
F8
102
{ACAD_XDICTIONARY
360
157
102
}
102
{ACAD_REACTORS
330
F7
102
}
330
F7
100
AcDbModelDocViewStyle
 70
     0
  3
Imperial24
290
     0
100
AcDbSectionViewStyle
 70
     0
 71
     0
 90
       78
 71
     1
340
11
 62
   256
 40
0.24
340
0
340
0
 62
   256
 40
0.24
300
I, O, Q, S, X, Z
 40
0.48
 90
        3
 40
0.18
 90
        1
 71
     2
340
16
 90
       25
 62
   256
340
16
 90
       50
 62
   256
 40
0.24
 40
0.0
 40
0.24
 71
     3
340
11
 62
   256
 40
0.24
 90
        1
 40
0.75
 90
        1
300
%<\AcVar ViewType \f "%tc1">% %<\AcVar ViewSectionStartId>%-%<\AcVar ViewSectionEndId>%\PSCALA %<\AcVar ViewScale \f "%sn">%
 71
     4
 62
   256
 62
   257
300
ANSI31
 40
1.0
 90
        0
290
     0
290
     0
 90
        6
 40
0.0
 40
1.570796326794896
 40
0.2617993877991494
 40
1.308996938995747
 40
-0.2617993877991494
 40
1.832595714594046
  0
TABLESTYLE
  5
DF
102
{ACAD_XDICTIONARY
360
154
102
}
102
{ACAD_REACTORS
330
D0
102
}
330
D0
100
AcDbTableStyle
280
     0
  3
Standard
 70
     0
 71
     0
 40
0.06
 41
0.06
280
     0
281
     0
  7
Standard
140
0.18
170
     2
 62
     0
 63
     7
283
     0
 90
      512
 91
        0
  1

274
    -2
284
     1
 64
     0
275
    -2
285
     1
 65
     0
276
    -2
286
     1
 66
     0
277
    -2
287
     1
 67
     0
278
    -2
288
     1
 68
     0
279
    -2
289
     1
 69
     0
  7
Standard
140
0.25
170
     5
 62
     0
 63
     7
283
     0
 90
      512
 91
        0
  1

274
    -2
284
     1
 64
     0
275
    -2
285
     1
 65
     0
276
    -2
286
     1
 66
     0
277
    -2
287
     1
 67
     0
278
    -2
288
     1
 68
     0
279
    -2
289
     1
 69
     0
  7
Standard
140
0.18
170
     5
 62
     0
 63
     7
283
     0
 90
      512
 91
        0
  1

274
    -2
284
     1
 64
     0
275
    -2
285
     1
 65
     0
276
    -2
286
     1
 66
     0
277
    -2
287
     1
 67
     0
278
    -2
288
     1
 68
     0
279
    -2
289
     1
 69
     0
  0
VISUALSTYLE
  5
2F
102
{ACAD_REACTORS
330
2A
102
}
330
2A
100
AcDbVisualStyle
  2
2dWireframe
 70
     4
177
     3
291
     0
 70
    58
 90
        0
176
     1
 90
        2
176
     1
 90
        0
176
     1
 90
        0
176
     1
 40
0.6
176
     1
 40
30.0
176
     1
 62
     7
420
 16777215
176
     1
 90
        1
176
     1
 90
        4
176
     1
 62
     7
176
     1
 62
   257
176
     1
 90
        1
176
     1
 90
        1
176
     1
 40
1.0
176
     1
 90
        0
176
     1
 62
   257
176
     1
 40
1.0
176
     1
 90
        1
176
     1
 90
        6
176
     1
 90
        2
176
     1
 62
     7
176
     1
 90
        5
176
     1
 90
        0
176
     1
 90
        0
176
     1
290
     0
176
     1
 90
        1
176
     1
 40
0.0
176
     1
 90
        0
176
     1
290
     1
176
     1
290
     1
176
     1
290
     0
176
     1
290
     0
176
     1
290
     0
176
     1
290
     0
176
     1
290
     0
176
     1
290
     0
176
     1
290
     0
176
     1
 90
       50
176
     1
 40
0.0
176
     1
 40
1.0
176
     1
 90
        0
176
     1
 62
    18
420
        0
176
     1
 90
       50
176
     1
 90
        3
176
     1
 62
     5
420
      255
176
     1
290
     0
176
     1
 90
       50
176
     1
 90
       50
176
     1
 90
       50
176
     1
290
     0
176
     1
 90
       50
176
     1
 62
   256
176
     0
 40
1.0
176
     0
 90
        2
176
     1
  1
strokes_ogs.tif
176
     1
290
     0
176
     1
 40
1.0
176
     1
 40
1.0
176
     1
1001
ACAD
1000
AcDbSavedByObjectVersion
1070
     0
  0
VISUALSTYLE
  5
31
102
{ACAD_REACTORS
330
2A
102
}
330
2A
100
AcDbVisualStyle
  2
3D Hidden
 70
     6
177
     3
291
     0
 70
    58
 90
        1
176
     1
 90
        2
176
     1
 90
        2
176
     1
 90
        0
176
     1
 40
0.6
176
     1
 40
30.0
176
     1
 62
     7
420
 16777215
176
     1
 90
        2
176
     1
 90
        2
176
     1
 62
     7
176
     1
 62
   257
176
     1
 90
        2
176
     1
 90
        1
176
     1
 40
40.0
176
     1
 90
        0
176
     1
 62
   257
176
     1
 40
1.0
176
     1
 90
        1
176
     1
 90
        6
176
     1
 90
        2
176
     1
 62
     7
176
     1
 90
        3
176
     1
 90
        0
176
     1
 90
        0
176
     1
290
     0
176
     1
 90
        1
176
     1
 40
0.0
176
     1
 90
        0
176
     1
290
     0
176
     1
290
     1
176
     1
290
     1
176
     1
290
     0
176
     1
290
     0
176
     1
290
     0
176
     1
290
     0
176
     1
290
     0
176
     1
290
     0
176
     1
 90
       50
176
     1
 40
0.0
176
     1
 40
1.0
176
     1
 90
        0
176
     1
 62
    18
420
        0
176
     1
 90
       50
176
     1
 90
        3
176
     1
 62
     5
420
      255
176
     1
290
     0
176
     1
 90
       50
176
     1
 90
       50
176
     1
 90
       50
176
     1
290
     0
176
     1
 90
       50
176
     1
 62
   256
176
     0
 40
1.0
176
     0
 90
        2
176
     1
  1
strokes_ogs.tif
176
     1
290
     0
176
     1
 40
1.0
176
     1
 40
1.0
176
     1
1001
ACAD
1000
AcDbSavedByObjectVersion
1070
     0
  0
VISUALSTYLE
  5
30
102
{ACAD_REACTORS
330
2A
102
}
330
2A
100
AcDbVisualStyle
  2
3dWireframe
 70
     5
177
     3
291
     0
 70
    58
 90
        0
176
     1
 90
        2
176
     1
 90
        0
176
     1
 90
        0
176
     1
 40
0.6
176
     1
 40
30.0
176
     1
 62
     7
420
 16777215
176
     1
 90
        1
176
     1
 90
        4
176
     1
 62
     7
176
     1
 62
   257
176
     1
 90
        1
176
     1
 90
        1
176
     1
 40
1.0
176
     1
 90
        0
176
     1
 62
   257
176
     1
 40
1.0
176
     1
 90
        1
176
     1
 90
        6
176
     1
 90
        2
176
     1
 62
     7
176
     1
 90
        5
176
     1
 90
        0
176
     1
 90
        0
176
     1
290
     0
176
     1
 90
        1
176
     1
 40
0.0
176
     1
 90
        0
176
     1
290
     0
176
     1
290
     1
176
     1
290
     1
176
     1
290
     0
176
     1
290
     0
176
     1
290
     0
176
     1
290
     0
176
     1
290
     0
176
     1
290
     0
176
     1
 90
       50
176
     1
 40
0.0
176
     1
 40
1.0
176
     1
 90
        0
176
     1
 62
    18
420
        0
176
     1
 90
       50
176
     1
 90
        3
176
     1
 62
     5
420
      255
176
     1
290
     0
176
     1
 90
       50
176
     1
 90
       50
176
     1
 90
       50
176
     1
290
     0
176
     1
 90
       50
176
     1
 62
   256
176
     0
 40
1.0
176
     0
 90
        2
176
     1
  1
strokes_ogs.tif
176
     1
290
     0
176
     1
 40
1.0
176
     1
 40
1.0
176
     1
1001
ACAD
1000
AcDbSavedByObjectVersion
1070
     0
  0
VISUALSTYLE
  5
32
102
{ACAD_REACTORS
330
2A
102
}
330
2A
100
AcDbVisualStyle
  2
Basic
 70
     7
177
     3
291
     1
 70
    58
 90
        1
176
     1
 90
        0
176
     1
 90
        1
176
     1
 90
        0
176
     1
 40
0.6
176
     1
 40
30.0
176
     1
 62
     7
420
 16777215
176
     1
 90
        0
176
     1
 90
        4
176
     1
 62
     7
176
     1
 62
   257
176
     1
 90
        1
176
     1
 90
        1
176
     1
 40
1.0
176
     1
 90
        8
176
     1
 62
     7
176
     1
 40
1.0
176
     1
 90
        1
176
     1
 90
        6
176
     1
 90
        2
176
     1
 62
     7
176
     1
 90
        5
176
     1
 90
        0
176
     1
 90
        0
176
     1
290
     0
176
     1
 90
        1
176
     1
 40
0.0
176
     1
 90
        0
176
     1
290
     0
176
     1
290
     1
176
     1
290
     1
176
     1
290
     0
176
     1
290
     0
176
     1
290
     0
176
     1
290
     0
176
     1
290
     0
176
     1
290
     0
176
     1
 90
       50
176
     1
 40
0.0
176
     1
 40
1.0
176
     1
 90
        0
176
     1
 62
    18
420
        0
176
     1
 90
       50
176
     1
 90
        3
176
     1
 62
     5
420
      255
176
     1
290
     0
176
     1
 90
       50
176
     1
 90
       50
176
     1
 90
       50
176
     1
290
     0
176
     1
 90
       50
176
     1
 62
   256
176
     0
 40
1.0
176
     0
 90
        2
176
     1
  1
strokes_ogs.tif
176
     1
290
     0
176
     1
 40
1.0
176
     1
 40
1.0
176
     1
1001
ACAD
1000
AcDbSavedByObjectVersion
1070
     0
  0
VISUALSTYLE
  5
36
102
{ACAD_REACTORS
330
2A
102
}
330
2A
100
AcDbVisualStyle
  2
Brighten
 70
    12
177
     3
291
     1
 70
    58
 90
        2
176
     1
 90
        2
176
     1
 90
        0
176
     1
 90
        0
176
     1
 40
0.6
176
     1
 40
30.0
176
     1
 62
     7
420
 16777215
176
     1
 90
        1
176
     1
 90
        4
176
     1
 62
     7
176
     1
 62
   257
176
     1
 90
        1
176
     1
 90
        1
176
     1
 40
1.0
176
     1
 90
        8
176
     1
 62
     7
176
     1
 40
1.0
176
     1
 90
        1
176
     1
 90
        6
176
     1
 90
        2
176
     1
 62
     7
176
     1
 90
        5
176
     1
 90
        0
176
     1
 90
        0
176
     1
290
     0
176
     1
 90
        1
176
     1
 40
50.0
176
     1
 90
        0
176
     1
290
     0
176
     1
290
     1
176
     1
290
     1
176
     1
290
     0
176
     1
290
     0
176
     1
290
     0
176
     1
290
     0
176
     1
290
     0
176
     1
290
     0
176
     1
 90
       50
176
     1
 40
0.0
176
     1
 40
1.0
176
     1
 90
        0
176
     1
 62
    18
420
        0
176
     1
 90
       50
176
     1
 90
        3
176
     1
 62
     5
420
      255
176
     1
290
     0
176
     1
 90
       50
176
     1
 90
       50
176
     1
 90
       50
176
     1
290
     0
176
     1
 90
       50
176
     1
 62
   256
176
     0
 40
1.0
176
     0
 90
        2
176
     1
  1
strokes_ogs.tif
176
     1
290
     0
176
     1
 40
1.0
176
     1
 40
1.0
176
     1
1001
ACAD
1000
AcDbSavedByObjectVersion
1070
     0
  0
VISUALSTYLE
  5
3A
102
{ACAD_REACTORS
330
2A
102
}
330
2A
100
AcDbVisualStyle
  2
ColorChange
 70
    16
177
     3
291
     1
 70
    58
 90
        2
176
     1
 90
        2
176
     1
 90
        3
176
     1
 90
        0
176
     1
 40
0.6
176
     1
 40
30.0
176
     1
 62
     8
420
  8421504
176
     1
 90
        1
176
     1
 90
        4
176
     1
 62
     7
176
     1
 62
   257
176
     1
 90
        1
176
     1
 90
        1
176
     1
 40
1.0
176
     1
 90
        8
176
     1
 62
     8
420
  8421504
176
     1
 40
1.0
176
     1
 90
        1
176
     1
 90
        6
176
     1
 90
        2
176
     1
 62
     7
176
     1
 90
        5
176
     1
 90
        0
176
     1
 90
        0
176
     1
290
     0
176
     1
 90
        1
176
     1
 40
0.0
176
     1
 90
        0
176
     1
290
     0
176
     1
290
     1
176
     1
290
     1
176
     1
290
     0
176
     1
290
     0
176
     1
290
     0
176
     1
290
     0
176
     1
290
     0
176
     1
290
     0
176
     1
 90
       50
176
     1
 40
0.0
176
     1
 40
1.0
176
     1
 90
        0
176
     1
 62
    18
420
        0
176
     1
 90
       50
176
     1
 90
        3
176
     1
 62
     5
420
      255
176
     1
290
     0
176
     1
 90
       50
176
     1
 90
       50
176
     1
 90
       50
176
     1
290
     0
176
     1
 90
       50
176
     1
 62
   256
176
     0
 40
1.0
176
     0
 90
        2
176
     1
  1
strokes_ogs.tif
176
     1
290
     0
176
     1
 40
1.0
176
     1
 40
1.0
176
     1
1001
ACAD
1000
AcDbSavedByObjectVersion
1070
     0
  0
VISUALSTYLE
  5
34
102
{ACAD_REACTORS
330
2A
102
}
330
2A
100
AcDbVisualStyle
  2
Conceptual
 70
     9
177
     3
291
     0
 70
    58
 90
        3
176
     1
 90
        2
176
     1
 90
        0
176
     1
 90
        0
176
     1
 40
0.6
176
     1
 40
30.0
176
     1
 62
     7
420
 16777215
176
     1
 90
        2
176
     1
 90
        2
176
     1
 62
     7
176
     1
 62
   257
176
     1
 90
        1
176
     1
 90
        1
176
     1
 40
40.0
176
     1
 90
        8
176
     1
 62
     7
176
     1
 40
1.0
176
     1
 90
        1
176
     1
 90
        6
176
     1
 90
        2
176
     1
 62
     7
176
     1
 90
        3
176
     1
 90
        0
176
     1
 90
        0
176
     1
290
     0
176
     1
 90
        1
176
     1
 40
0.0
176
     1
 90
        0
176
     1
290
     0
176
     1
290
     1
176
     1
290
     1
176
     1
290
     0
176
     1
290
     0
176
     1
290
     0
176
     1
290
     0
176
     1
290
     0
176
     1
290
     0
176
     1
 90
       50
176
     1
 40
0.0
176
     1
 40
1.0
176
     1
 90
        0
176
     1
 62
    18
420
        0
176
     1
 90
       50
176
     1
 90
        3
176
     1
 62
     5
420
      255
176
     1
290
     0
176
     1
 90
       50
176
     1
 90
       50
176
     1
 90
       50
176
     1
290
     0
176
     1
 90
       50
176
     1
 62
   256
176
     0
 40
1.0
176
     0
 90
        2
176
     1
  1
strokes_ogs.tif
176
     1
290
     0
176
     1
 40
1.0
176
     1
 40
1.0
176
     1
1001
ACAD
1000
AcDbSavedByObjectVersion
1070
     0
  0
VISUALSTYLE
  5
35
102
{ACAD_REACTORS
330
2A
102
}
330
2A
100
AcDbVisualStyle
  2
Dim
 70
    11
177
     3
291
     1
 70
    58
 90
        2
176
     1
 90
        2
176
     1
 90
        0
176
     1
 90
        0
176
     1
 40
0.6
176
     1
 40
30.0
176
     1
 62
     7
420
 16777215
176
     1
 90
        1
176
     1
 90
        4
176
     1
 62
     7
176
     1
 62
   257
176
     1
 90
        1
176
     1
 90
        1
176
     1
 40
1.0
176
     1
 90
        8
176
     1
 62
     7
176
     1
 40
1.0
176
     1
 90
        1
176
     1
 90
        6
176
     1
 90
        2
176
     1
 62
     7
176
     1
 90
        5
176
     1
 90
        0
176
     1
 90
        0
176
     1
290
     0
176
     1
 90
        1
176
     1
 40
-50.0
176
     1
 90
        0
176
     1
290
     0
176
     1
290
     1
176
     1
290
     1
176
     1
290
     0
176
     1
290
     0
176
     1
290
     0
176
     1
290
     0
176
     1
290
     0
176
     1
290
     0
176
     1
 90
       50
176
     1
 40
0.0
176
     1
 40
1.0
176
     1
 90
        0
176
     1
 62
    18
420
        0
176
     1
 90
       50
176
     1
 90
        3
176
     1
 62
     5
420
      255
176
     1
290
     0
176
     1
 90
       50
176
     1
 90
       50
176
     1
 90
       50
176
     1
290
     0
176
     1
 90
       50
176
     1
 62
   256
176
     0
 40
1.0
176
     0
 90
        2
176
     1
  1
strokes_ogs.tif
176
     1
290
     0
176
     1
 40
1.0
176
     1
 40
1.0
176
     1
1001
ACAD
1000
AcDbSavedByObjectVersion
1070
     0
  0
VISUALSTYLE
  5
DD
102
{ACAD_REACTORS
330
2A
102
}
330
2A
100
AcDbVisualStyle
  2
EdgeColorOff
 70
    22
177
     3
291
     1
 70
    58
 90
        2
176
     0
 90
        2
176
     0
 90
        0
176
     0
 90
        0
176
     0
 40
0.6
176
     0
 40
30.0
176
     0
 62
     7
420
 16777215
176
     0
 90
        1
176
     0
 90
        4
176
     0
 62
     7
176
     0
 62
   257
176
     0
 90
        1
176
     0
 90
        1
176
     0
 40
1.0
176
     0
 90
        8
176
     2
 62
     7
176
     0
 40
1.0
176
     0
 90
        1
176
     0
 90
        6
176
     0
 90
        2
176
     0
 62
     7
176
     0
 90
        5
176
     0
 90
        0
176
     0
 90
        0
176
     0
290
     0
176
     0
 90
        1
176
     0
 40
0.0
176
     0
 90
        0
176
     0
290
     0
176
     1
290
     1
176
     1
290
     1
176
     1
290
     0
176
     1
290
     0
176
     1
290
     0
176
     1
290
     0
176
     1
290
     0
176
     1
290
     0
176
     1
 90
       50
176
     0
 40
0.0
176
     0
 40
1.0
176
     0
 90
        0
176
     0
 62
    18
420
        0
176
     0
 90
       50
176
     0
 90
        3
176
     0
 62
     5
420
      255
176
     0
290
     0
176
     1
 90
       50
176
     0
 90
       50
176
     0
 90
       50
176
     0
290
     0
176
     1
 90
       50
176
     0
 62
   256
176
     0
 40
1.0
176
     0
 90
        2
176
     0
  1
strokes_ogs.tif
176
     0
290
     0
176
     1
 40
1.0
176
     0
 40
1.0
176
     0
1001
ACAD
1000
AcDbSavedByObjectVersion
1070
     0
  0
VISUALSTYLE
  5
39
102
{ACAD_REACTORS
330
2A
102
}
330
2A
100
AcDbVisualStyle
  2
Facepattern
 70
    15
177
     3
291
     1
 70
    58
 90
        2
176
     1
 90
        2
176
     1
 90
        0
176
     1
 90
        0
176
     1
 40
0.6
176
     1
 40
30.0
176
     1
 62
     7
420
 16777215
176
     1
 90
        1
176
     1
 90
        4
176
     1
 62
     7
176
     1
 62
   257
176
     1
 90
        1
176
     1
 90
        1
176
     1
 40
1.0
176
     1
 90
        8
176
     1
 62
     7
176
     1
 40
1.0
176
     1
 90
        1
176
     1
 90
        6
176
     1
 90
        2
176
     1
 62
     7
176
     1
 90
        5
176
     1
 90
        0
176
     1
 90
        0
176
     1
290
     0
176
     1
 90
        1
176
     1
 40
0.0
176
     1
 90
        0
176
     1
290
     0
176
     1
290
     1
176
     1
290
     1
176
     1
290
     0
176
     1
290
     0
176
     1
290
     0
176
     1
290
     0
176
     1
290
     0
176
     1
290
     0
176
     1
 90
       50
176
     1
 40
0.0
176
     1
 40
1.0
176
     1
 90
        0
176
     1
 62
    18
420
        0
176
     1
 90
       50
176
     1
 90
        3
176
     1
 62
     5
420
      255
176
     1
290
     0
176
     1
 90
       50
176
     1
 90
       50
176
     1
 90
       50
176
     1
290
     0
176
     1
 90
       50
176
     1
 62
   256
176
     0
 40
1.0
176
     0
 90
        2
176
     1
  1
strokes_ogs.tif
176
     1
290
     0
176
     1
 40
1.0
176
     1
 40
1.0
176
     1
1001
ACAD
1000
AcDbSavedByObjectVersion
1070
     0
  0
VISUALSTYLE
  5
2B
102
{ACAD_REACTORS
330
2A
102
}
330
2A
100
AcDbVisualStyle
  2
Flat
 70
     0
177
     3
291
     1
 70
    58
 90
        2
176
     1
 90
        1
176
     1
 90
        1
176
     1
 90
        2
176
     1
 40
0.6
176
     1
 40
30.0
176
     1
 62
     7
420
 16777215
176
     1
 90
        0
176
     1
 90
        4
176
     1
 62
     7
176
     1
 62
   257
176
     1
 90
        1
176
     1
 90
        1
176
     1
 40
1.0
176
     1
 90
        8
176
     1
 62
     7
176
     1
 40
1.0
176
     1
 90
        1
176
     1
 90
        6
176
     1
 90
        2
176
     1
 62
     7
176
     1
 90
        5
176
     1
 90
        0
176
     1
 90
        0
176
     1
290
     0
176
     1
 90
       13
176
     1
 40
0.0
176
     1
 90
        0
176
     1
290
     0
176
     1
290
     1
176
     1
290
     1
176
     1
290
     0
176
     1
290
     0
176
     1
290
     0
176
     1
290
     0
176
     1
290
     0
176
     1
290
     0
176
     1
 90
       50
176
     1
 40
0.0
176
     1
 40
1.0
176
     1
 90
        0
176
     1
 62
    18
420
        0
176
     1
 90
       50
176
     1
 90
        3
176
     1
 62
     5
420
      255
176
     1
290
     0
176
     1
 90
       50
176
     1
 90
       50
176
     1
 90
       50
176
     1
290
     0
176
     1
 90
       50
176
     1
 62
   256
176
     0
 40
1.0
176
     0
 90
        2
176
     1
  1
strokes_ogs.tif
176
     1
290
     0
176
     1
 40
1.0
176
     1
 40
1.0
176
     1
1001
ACAD
1000
AcDbSavedByObjectVersion
1070
     0
  0
VISUALSTYLE
  5
2C
102
{ACAD_REACTORS
330
2A
102
}
330
2A
100
AcDbVisualStyle
  2
FlatWithEdges
 70
     1
177
     3
291
     1
 70
    58
 90
        2
176
     1
 90
        1
176
     1
 90
        1
176
     1
 90
        2
176
     1
 40
0.6
176
     1
 40
30.0
176
     1
 62
     7
420
 16777215
176
     1
 90
        1
176
     1
 90
        4
176
     1
 62
     7
176
     1
 62
   257
176
     1
 90
        1
176
     1
 90
        1
176
     1
 40
1.0
176
     1
 90
        0
176
     1
 62
   257
176
     1
 40
1.0
176
     1
 90
        1
176
     1
 90
        6
176
     1
 90
        2
176
     1
 62
     7
176
     1
 90
        5
176
     1
 90
        0
176
     1
 90
        0
176
     1
290
     0
176
     1
 90
       13
176
     1
 40
0.0
176
     1
 90
        0
176
     1
290
     0
176
     1
290
     1
176
     1
290
     1
176
     1
290
     0
176
     1
290
     0
176
     1
290
     0
176
     1
290
     0
176
     1
290
     0
176
     1
290
     0
176
     1
 90
       50
176
     1
 40
0.0
176
     1
 40
1.0
176
     1
 90
        0
176
     1
 62
    18
420
        0
176
     1
 90
       50
176
     1
 90
        3
176
     1
 62
     5
420
      255
176
     1
290
     0
176
     1
 90
       50
176
     1
 90
       50
176
     1
 90
       50
176
     1
290
     0
176
     1
 90
       50
176
     1
 62
   256
176
     0
 40
1.0
176
     0
 90
        2
176
     1
  1
strokes_ogs.tif
176
     1
290
     0
176
     1
 40
1.0
176
     1
 40
1.0
176
     1
1001
ACAD
1000
AcDbSavedByObjectVersion
1070
     0
  0
VISUALSTYLE
  5
2D
102
{ACAD_REACTORS
330
2A
102
}
330
2A
100
AcDbVisualStyle
  2
Gouraud
 70
     2
177
     3
291
     1
 70
    58
 90
        2
176
     1
 90
        2
176
     1
 90
        1
176
     1
 90
        2
176
     1
 40
0.6
176
     1
 40
30.0
176
     1
 62
     7
420
 16777215
176
     1
 90
        0
176
     1
 90
        4
176
     1
 62
     7
176
     1
 62
   257
176
     1
 90
        1
176
     1
 90
        1
176
     1
 40
1.0
176
     1
 90
        0
176
     1
 62
     7
176
     1
 40
1.0
176
     1
 90
        1
176
     1
 90
        6
176
     1
 90
        2
176
     1
 62
     7
176
     1
 90
        5
176
     1
 90
        0
176
     1
 90
        0
176
     1
290
     0
176
     1
 90
       13
176
     1
 40
0.0
176
     1
 90
        0
176
     1
290
     0
176
     1
290
     1
176
     1
290
     1
176
     1
290
     0
176
     1
290
     0
176
     1
290
     0
176
     1
290
     0
176
     1
290
     0
176
     1
290
     0
176
     1
 90
       50
176
     1
 40
0.0
176
     1
 40
1.0
176
     1
 90
        0
176
     1
 62
    18
420
        0
176
     1
 90
       50
176
     1
 90
        3
176
     1
 62
     5
420
      255
176
     1
290
     0
176
     1
 90
       50
176
     1
 90
       50
176
     1
 90
       50
176
     1
290
     0
176
     1
 90
       50
176
     1
 62
   256
176
     0
 40
1.0
176
     0
 90
        2
176
     1
  1
strokes_ogs.tif
176
     1
290
     0
176
     1
 40
1.0
176
     1
 40
1.0
176
     1
1001
ACAD
1000
AcDbSavedByObjectVersion
1070
     0
  0
VISUALSTYLE
  5
2E
102
{ACAD_REACTORS
330
2A
102
}
330
2A
100
AcDbVisualStyle
  2
GouraudWithEdges
 70
     3
177
     3
291
     1
 70
    58
 90
        2
176
     1
 90
        2
176
     1
 90
        1
176
     1
 90
        2
176
     1
 40
0.6
176
     1
 40
30.0
176
     1
 62
     7
420
 16777215
176
     1
 90
        1
176
     1
 90
        4
176
     1
 62
     7
176
     1
 62
   257
176
     1
 90
        1
176
     1
 90
        1
176
     1
 40
1.0
176
     1
 90
        0
176
     1
 62
   257
176
     1
 40
1.0
176
     1
 90
        1
176
     1
 90
        6
176
     1
 90
        2
176
     1
 62
     7
176
     1
 90
        5
176
     1
 90
        0
176
     1
 90
        0
176
     1
290
     0
176
     1
 90
       13
176
     1
 40
0.0
176
     1
 90
        0
176
     1
290
     0
176
     1
290
     1
176
     1
290
     1
176
     1
290
     0
176
     1
290
     0
176
     1
290
     0
176
     1
290
     0
176
     1
290
     0
176
     1
290
     0
176
     1
 90
       50
176
     1
 40
0.0
176
     1
 40
1.0
176
     1
 90
        0
176
     1
 62
    18
420
        0
176
     1
 90
       50
176
     1
 90
        3
176
     1
 62
     5
420
      255
176
     1
290
     0
176
     1
 90
       50
176
     1
 90
       50
176
     1
 90
       50
176
     1
290
     0
176
     1
 90
       50
176
     1
 62
   256
176
     0
 40
1.0
176
     0
 90
        2
176
     1
  1
strokes_ogs.tif
176
     1
290
     0
176
     1
 40
1.0
176
     1
 40
1.0
176
     1
1001
ACAD
1000
AcDbSavedByObjectVersion
1070
     0
  0
VISUALSTYLE
  5
D5
102
{ACAD_REACTORS
330
2A
102
}
330
2A
100
AcDbVisualStyle
  2
Hidden
 70
     6
177
     3
291
     0
 70
    58
 90
        1
176
     1
 90
        2
176
     1
 90
        2
176
     1
 90
        0
176
     1
 40
0.6
176
     1
 40
30.0
176
     1
 62
     7
420
 16777215
176
     1
 90
        2
176
     1
 90
        2
176
     1
 62
     7
176
     1
 62
   257
176
     1
 90
        2
176
     1
 90
        1
176
     1
 40
40.0
176
     1
 90
        0
176
     1
 62
   257
176
     1
 40
1.0
176
     1
 90
        1
176
     1
 90
        6
176
     1
 90
        2
176
     1
 62
     7
176
     1
 90
        3
176
     1
 90
        0
176
     1
 90
        0
176
     1
290
     0
176
     1
 90
        1
176
     1
 40
0.0
176
     1
 90
        0
176
     1
290
     0
176
     1
290
     1
176
     1
290
     1
176
     1
290
     0
176
     1
290
     0
176
     1
290
     0
176
     1
290
     0
176
     1
290
     0
176
     1
290
     0
176
     1
 90
       50
176
     1
 40
0.0
176
     1
 40
1.0
176
     1
 90
        0
176
     1
 62
    18
420
        0
176
     1
 90
       50
176
     1
 90
        3
176
     1
 62
     5
420
      255
176
     1
290
     0
176
     1
 90
       50
176
     1
 90
       50
176
     1
 90
       50
176
     1
290
     0
176
     1
 90
       50
176
     1
 62
   256
176
     0
 40
1.0
176
     0
 90
        2
176
     1
  1
strokes_ogs.tif
176
     1
290
     0
176
     1
 40
1.0
176
     1
 40
1.0
176
     1
1001
ACAD
1000
AcDbSavedByObjectVersion
1070
     0
  0
VISUALSTYLE
  5
DB
102
{ACAD_REACTORS
330
2A
102
}
330
2A
100
AcDbVisualStyle
  2
JitterOff
 70
    20
177
     3
291
     1
 70
    58
 90
        2
176
     0
 90
        2
176
     0
 90
        0
176
     0
 90
        0
176
     0
 40
0.6
176
     0
 40
30.0
176
     0
 62
     7
420
 16777215
176
     0
 90
        1
176
     0
 90
        4
176
     0
 62
     7
176
     0
 62
   257
176
     0
 90
        1
176
     0
 90
        1
176
     0
 40
1.0
176
     0
 90
       10
176
     2
 62
     7
176
     0
 40
1.0
176
     0
 90
        1
176
     0
 90
        6
176
     0
 90
        2
176
     0
 62
     7
176
     0
 90
        5
176
     0
 90
        0
176
     0
 90
        0
176
     0
290
     0
176
     0
 90
        1
176
     0
 40
0.0
176
     0
 90
        0
176
     0
290
     0
176
     1
290
     1
176
     1
290
     1
176
     1
290
     0
176
     1
290
     0
176
     1
290
     0
176
     1
290
     0
176
     1
290
     0
176
     1
290
     0
176
     1
 90
       50
176
     0
 40
0.0
176
     0
 40
1.0
176
     0
 90
        0
176
     0
 62
    18
420
        0
176
     0
 90
       50
176
     0
 90
        3
176
     0
 62
     5
420
      255
176
     0
290
     0
176
     1
 90
       50
176
     0
 90
       50
176
     0
 90
       50
176
     0
290
     0
176
     1
 90
       50
176
     0
 62
   256
176
     0
 40
1.0
176
     0
 90
        2
176
     0
  1
strokes_ogs.tif
176
     0
290
     0
176
     1
 40
1.0
176
     0
 40
1.0
176
     0
1001
ACAD
1000
AcDbSavedByObjectVersion
1070
     0
  0
VISUALSTYLE
  5
38
102
{ACAD_REACTORS
330
2A
102
}
330
2A
100
AcDbVisualStyle
  2
Linepattern
 70
    14
177
     3
291
     1
 70
    58
 90
        2
176
     1
 90
        2
176
     1
 90
        0
176
     1
 90
        0
176
     1
 40
0.6
176
     1
 40
30.0
176
     1
 62
     7
420
 16777215
176
     1
 90
        1
176
     1
 90
        4
176
     1
 62
     7
176
     1
 62
   257
176
     1
 90
        7
176
     1
 90
        7
176
     1
 40
1.0
176
     1
 90
        8
176
     1
 62
     7
176
     1
 40
1.0
176
     1
 90
        1
176
     1
 90
        6
176
     1
 90
        2
176
     1
 62
     7
176
     1
 90
        5
176
     1
 90
        0
176
     1
 90
        0
176
     1
290
     0
176
     1
 90
        1
176
     1
 40
0.0
176
     1
 90
        0
176
     1
290
     0
176
     1
290
     1
176
     1
290
     1
176
     1
290
     0
176
     1
290
     0
176
     1
290
     0
176
     1
290
     0
176
     1
290
     0
176
     1
290
     0
176
     1
 90
       50
176
     1
 40
0.0
176
     1
 40
1.0
176
     1
 90
        0
176
     1
 62
    18
420
        0
176
     1
 90
       50
176
     1
 90
        3
176
     1
 62
     5
420
      255
176
     1
290
     0
176
     1
 90
       50
176
     1
 90
       50
176
     1
 90
       50
176
     1
290
     0
176
     1
 90
       50
176
     1
 62
   256
176
     0
 40
1.0
176
     0
 90
        2
176
     1
  1
strokes_ogs.tif
176
     1
290
     0
176
     1
 40
1.0
176
     1
 40
1.0
176
     1
1001
ACAD
1000
AcDbSavedByObjectVersion
1070
     0
  0
VISUALSTYLE
  5
DC
102
{ACAD_REACTORS
330
2A
102
}
330
2A
100
AcDbVisualStyle
  2
OverhangOff
 70
    21
177
     3
291
     1
 70
    58
 90
        2
176
     0
 90
        2
176
     0
 90
        0
176
     0
 90
        0
176
     0
 40
0.6
176
     0
 40
30.0
176
     0
 62
     7
420
 16777215
176
     0
 90
        1
176
     0
 90
        4
176
     0
 62
     7
176
     0
 62
   257
176
     0
 90
        1
176
     0
 90
        1
176
     0
 40
1.0
176
     0
 90
        9
176
     2
 62
     7
176
     0
 40
1.0
176
     0
 90
        1
176
     0
 90
        6
176
     0
 90
        2
176
     0
 62
     7
176
     0
 90
        5
176
     0
 90
        0
176
     0
 90
        0
176
     0
290
     0
176
     0
 90
        1
176
     0
 40
0.0
176
     0
 90
        0
176
     0
290
     0
176
     1
290
     1
176
     1
290
     1
176
     1
290
     0
176
     1
290
     0
176
     1
290
     0
176
     1
290
     0
176
     1
290
     0
176
     1
290
     0
176
     1
 90
       50
176
     0
 40
0.0
176
     0
 40
1.0
176
     0
 90
        0
176
     0
 62
    18
420
        0
176
     0
 90
       50
176
     0
 90
        3
176
     0
 62
     5
420
      255
176
     0
290
     0
176
     1
 90
       50
176
     0
 90
       50
176
     0
 90
       50
176
     0
290
     0
176
     1
 90
       50
176
     0
 62
   256
176
     0
 40
1.0
176
     0
 90
        2
176
     0
  1
strokes_ogs.tif
176
     0
290
     0
176
     1
 40
1.0
176
     0
 40
1.0
176
     0
1001
ACAD
1000
AcDbSavedByObjectVersion
1070
     0
  0
VISUALSTYLE
  5
33
102
{ACAD_REACTORS
330
2A
102
}
330
2A
100
AcDbVisualStyle
  2
Realistic
 70
     8
177
     3
291
     0
 70
    58
 90
        2
176
     1
 90
        2
176
     1
 90
        0
176
     1
 90
        0
176
     1
 40
0.6
176
     1
 40
30.0
176
     1
 62
     7
420
 16777215
176
     1
 90
        1
176
     1
 90
        0
176
     1
 62
     7
176
     1
 62
   257
176
     1
 90
        1
176
     1
 90
        1
176
     1
 40
1.0
176
     1
 90
        8
176
     1
 62
     8
420
  7895160
176
     1
 40
1.0
176
     1
 90
        1
176
     1
 90
        6
176
     1
 90
        2
176
     1
 62
     7
176
     1
 90
        5
176
     1
 90
        0
176
     1
 90
        0
176
     1
290
     0
176
     1
 90
       13
176
     1
 40
0.0
176
     1
 90
        0
176
     1
290
     0
176
     1
290
     1
176
     1
290
     1
176
     1
290
     0
176
     1
290
     0
176
     1
290
     0
176
     1
290
     0
176
     1
290
     0
176
     1
290
     0
176
     1
 90
       50
176
     1
 40
0.0
176
     1
 40
1.0
176
     1
 90
        0
176
     1
 62
    18
420
        0
176
     1
 90
       50
176
     1
 90
        3
176
     1
 62
     5
420
      255
176
     1
290
     0
176
     1
 90
       50
176
     1
 90
       50
176
     1
 90
       50
176
     1
290
     0
176
     1
 90
       50
176
     1
 62
   256
176
     0
 40
1.0
176
     0
 90
        2
176
     1
  1
strokes_ogs.tif
176
     1
290
     0
176
     1
 40
1.0
176
     1
 40
1.0
176
     1
1001
ACAD
1000
AcDbSavedByObjectVersion
1070
     0
  0
VISUALSTYLE
  5
DA
102
{ACAD_REACTORS
330
2A
102
}
330
2A
100
AcDbVisualStyle
  2
Shaded
 70
    27
177
     3
291
     0
 70
    58
 90
        2
176
     1
 90
        2
176
     1
 90
        1
176
     1
 90
        2
176
     1
 40
0.6
176
     1
 40
30.0
176
     1
 62
     7
420
 16777215
176
     1
 90
        0
176
     1
 90
        4
176
     1
 62
     7
176
     1
 62
   257
176
     1
 90
        1
176
     1
 90
        1
176
     1
 40
1.0
176
     1
 90
        8
176
     1
 62
   257
176
     1
 40
1.0
176
     1
 90
        1
176
     1
 90
        6
176
     1
 90
        2
176
     1
 62
     8
420
  7895160
176
     1
 90
        3
176
     1
 90
        0
176
     1
 90
        0
176
     1
290
     0
176
     1
 90
        5
176
     1
 40
0.0
176
     1
 90
        0
176
     1
290
     0
176
     1
290
     1
176
     1
290
     1
176
     1
290
     0
176
     1
290
     0
176
     1
290
     0
176
     1
290
     0
176
     1
290
     0
176
     1
290
     0
176
     1
 90
       50
176
     1
 40
0.0
176
     1
 40
1.0
176
     1
 90
        0
176
     1
 62
    18
420
        0
176
     1
 90
       50
176
     1
 90
        3
176
     1
 62
     5
420
      255
176
     1
290
     0
176
     1
 90
       50
176
     1
 90
       50
176
     1
 90
       50
176
     1
290
     0
176
     1
 90
       50
176
     1
 62
   256
176
     0
 40
1.0
176
     0
 90
        2
176
     1
  1
strokes_ogs.tif
176
     1
290
     0
176
     1
 40
1.0
176
     1
 40
1.0
176
     1
1001
ACAD
1000
AcDbSavedByObjectVersion
1070
     0
  0
VISUALSTYLE
  5
D9
102
{ACAD_REACTORS
330
2A
102
}
330
2A
100
AcDbVisualStyle
  2
Shaded with edges
 70
    26
177
     3
291
     0
 70
    58
 90
        2
176
     1
 90
        2
176
     1
 90
        1
176
     1
 90
        2
176
     1
 40
0.6
176
     1
 40
30.0
176
     1
 62
     7
420
 16777215
176
     1
 90
        1
176
     1
 90
        2
176
     1
 62
     7
176
     1
 62
   257
176
     1
 90
        2
176
     1
 90
        1
176
     1
 40
1.0
176
     1
 90
        8
176
     1
 62
   257
176
     1
 40
1.0
176
     1
 90
        1
176
     1
 90
        6
176
     1
 90
        2
176
     1
 62
     7
176
     1
 90
        3
176
     1
 90
        0
176
     1
 90
        0
176
     1
290
     0
176
     1
 90
        5
176
     1
 40
0.0
176
     1
 90
        0
176
     1
290
     0
176
     1
290
     1
176
     1
290
     1
176
     1
290
     0
176
     1
290
     0
176
     1
290
     0
176
     1
290
     0
176
     1
290
     0
176
     1
290
     0
176
     1
 90
       50
176
     1
 40
0.0
176
     1
 40
1.0
176
     1
 90
        0
176
     1
 62
    18
420
        0
176
     1
 90
       50
176
     1
 90
        3
176
     1
 62
     5
420
      255
176
     1
290
     0
176
     1
 90
       50
176
     1
 90
       50
176
     1
 90
       50
176
     1
290
     0
176
     1
 90
       50
176
     1
 62
   256
176
     0
 40
1.0
176
     0
 90
        2
176
     1
  1
strokes_ogs.tif
176
     1
290
     0
176
     1
 40
1.0
176
     1
 40
1.0
176
     1
1001
ACAD
1000
AcDbSavedByObjectVersion
1070
     0
  0
VISUALSTYLE
  5
D6
102
{ACAD_REACTORS
330
2A
102
}
330
2A
100
AcDbVisualStyle
  2
Shades of Gray
 70
    23
177
     3
291
     0
 70
    58
 90
        2
176
     1
 90
        2
176
     1
 90
        3
176
     1
 90
        0
176
     1
 40
0.6
176
     1
 40
30.0
176
     1
 62
     7
420
 16777215
176
     1
 90
        2
176
     1
 90
        2
176
     1
 62
     7
176
     1
 62
     7
176
     1
 90
        1
176
     1
 90
        1
176
     1
 40
40.0
176
     1
 90
        8
176
     1
 62
     7
176
     1
 40
1.0
176
     1
 90
        1
176
     1
 90
        6
176
     1
 90
        2
176
     1
 62
     7
176
     1
 90
        3
176
     1
 90
        0
176
     1
 90
        0
176
     1
290
     0
176
     1
 90
        1
176
     1
 40
0.0
176
     1
 90
        0
176
     1
290
     0
176
     1
290
     1
176
     1
290
     1
176
     1
290
     0
176
     1
290
     0
176
     1
290
     0
176
     1
290
     0
176
     1
290
     0
176
     1
290
     0
176
     1
 90
       50
176
     1
 40
0.0
176
     1
 40
1.0
176
     1
 90
        0
176
     1
 62
    18
420
        0
176
     1
 90
       50
176
     1
 90
        3
176
     1
 62
     5
420
      255
176
     1
290
     0
176
     1
 90
       50
176
     1
 90
       50
176
     1
 90
       50
176
     1
290
     0
176
     1
 90
       50
176
     1
 62
   256
176
     0
 40
1.0
176
     0
 90
        2
176
     1
  1
strokes_ogs.tif
176
     1
290
     0
176
     1
 40
1.0
176
     1
 40
1.0
176
     1
1001
ACAD
1000
AcDbSavedByObjectVersion
1070
     0
  0
VISUALSTYLE
  5
D7
102
{ACAD_REACTORS
330
2A
102
}
330
2A
100
AcDbVisualStyle
  2
Sketchy
 70
    24
177
     3
291
     0
 70
    58
 90
        1
176
     1
 90
        2
176
     1
 90
        2
176
     1
 90
        0
176
     1
 40
0.6
176
     1
 40
30.0
176
     1
 62
     7
420
 16777215
176
     1
 90
        2
176
     1
 90
        2
176
     1
 62
     7
176
     1
 62
     7
176
     1
 90
        1
176
     1
 90
        1
176
     1
 40
40.0
176
     1
 90
       11
176
     1
 62
     7
176
     1
 40
1.0
176
     1
 90
        1
176
     1
 90
        6
176
     1
 90
        2
176
     1
 62
     7
176
     1
 90
        6
176
     1
 90
        0
176
     1
 90
        0
176
     1
290
     0
176
     1
 90
        1
176
     1
 40
0.0
176
     1
 90
        0
176
     1
290
     0
176
     1
290
     1
176
     1
290
     1
176
     1
290
     0
176
     1
290
     0
176
     1
290
     0
176
     1
290
     0
176
     1
290
     0
176
     1
290
     0
176
     1
 90
       50
176
     1
 40
0.0
176
     1
 40
1.0
176
     1
 90
        0
176
     1
 62
    18
420
        0
176
     1
 90
       50
176
     1
 90
        3
176
     1
 62
     5
420
      255
176
     1
290
     0
176
     1
 90
       50
176
     1
 90
       50
176
     1
 90
       50
176
     1
290
     0
176
     1
 90
       50
176
     1
 62
   256
176
     0
 40
1.0
176
     0
 90
        2
176
     1
  1
strokes_ogs.tif
176
     1
290
     0
176
     1
 40
1.0
176
     1
 40
1.0
176
     1
1001
ACAD
1000
AcDbSavedByObjectVersion
1070
     0
  0
VISUALSTYLE
  5
37
102
{ACAD_REACTORS
330
2A
102
}
330
2A
100
AcDbVisualStyle
  2
Thicken
 70
    13
177
     3
291
     1
 70
    58
 90
        2
176
     1
 90
        2
176
     1
 90
        0
176
     1
 90
        0
176
     1
 40
0.6
176
     1
 40
30.0
176
     1
 62
     7
420
 16777215
176
     1
 90
        1
176
     1
 90
        4
176
     1
 62
     7
176
     1
 62
   257
176
     1
 90
        1
176
     1
 90
        1
176
     1
 40
1.0
176
     1
 90
       12
176
     1
 62
     7
176
     1
 40
1.0
176
     1
 90
        1
176
     1
 90
        6
176
     1
 90
        2
176
     1
 62
     7
176
     1
 90
        5
176
     1
 90
        0
176
     1
 90
        0
176
     1
290
     0
176
     1
 90
        1
176
     1
 40
0.0
176
     1
 90
        0
176
     1
290
     0
176
     1
290
     1
176
     1
290
     1
176
     1
290
     0
176
     1
290
     0
176
     1
290
     0
176
     1
290
     0
176
     1
290
     0
176
     1
290
     0
176
     1
 90
       50
176
     1
 40
0.0
176
     1
 40
1.0
176
     1
 90
        0
176
     1
 62
    18
420
        0
176
     1
 90
       50
176
     1
 90
        3
176
     1
 62
     5
420
      255
176
     1
290
     0
176
     1
 90
       50
176
     1
 90
       50
176
     1
 90
       50
176
     1
290
     0
176
     1
 90
       50
176
     1
 62
   256
176
     0
 40
1.0
176
     0
 90
        2
176
     1
  1
strokes_ogs.tif
176
     1
290
     0
176
     1
 40
1.0
176
     1
 40
1.0
176
     1
1001
ACAD
1000
AcDbSavedByObjectVersion
1070
     0
  0
VISUALSTYLE
  5
D4
102
{ACAD_REACTORS
330
2A
102
}
330
2A
100
AcDbVisualStyle
  2
Wireframe
 70
     5
177
     3
291
     0
 70
    58
 90
        0
176
     1
 90
        2
176
     1
 90
        0
176
     1
 90
        0
176
     1
 40
0.6
176
     1
 40
30.0
176
     1
 62
     7
420
 16777215
176
     1
 90
        1
176
     1
 90
        4
176
     1
 62
     7
176
     1
 62
   257
176
     1
 90
        1
176
     1
 90
        1
176
     1
 40
1.0
176
     1
 90
        0
176
     1
 62
   257
176
     1
 40
1.0
176
     1
 90
        1
176
     1
 90
        6
176
     1
 90
        2
176
     1
 62
     7
176
     1
 90
        3
176
     1
 90
        0
176
     1
 90
        0
176
     1
290
     0
176
     1
 90
        1
176
     1
 40
0.0
176
     1
 90
        0
176
     1
290
     0
176
     1
290
     1
176
     1
290
     1
176
     1
290
     0
176
     1
290
     0
176
     1
290
     0
176
     1
290
     0
176
     1
290
     0
176
     1
290
     0
176
     1
 90
       50
176
     1
 40
0.0
176
     1
 40
1.0
176
     1
 90
        0
176
     1
 62
    18
420
        0
176
     1
 90
       50
176
     1
 90
        3
176
     1
 62
     5
420
      255
176
     1
290
     0
176
     1
 90
       50
176
     1
 90
       50
176
     1
 90
       50
176
     1
290
     0
176
     1
 90
       50
176
     1
 62
   256
176
     0
 40
1.0
176
     0
 90
        2
176
     1
  1
strokes_ogs.tif
176
     1
290
     0
176
     1
 40
1.0
176
     1
 40
1.0
176
     1
1001
ACAD
1000
AcDbSavedByObjectVersion
1070
     0
  0
VISUALSTYLE
  5
D8
102
{ACAD_REACTORS
330
2A
102
}
330
2A
100
AcDbVisualStyle
  2
X-Ray
 70
    25
177
     3
291
     0
 70
    58
 90
        2
176
     1
 90
        2
176
     1
 90
        1
176
     1
 90
        1
176
     1
 40
0.5
176
     1
 40
30.0
176
     1
 62
     7
420
 16777215
176
     1
 90
        1
176
     1
 90
        0
176
     1
 62
     7
176
     1
 62
   257
176
     1
 90
        1
176
     1
 90
        1
176
     1
 40
1.0
176
     1
 90
        8
176
     1
 62
     7
176
     1
 40
1.0
176
     1
 90
        1
176
     1
 90
        6
176
     1
 90
        2
176
     1
 62
     7
176
     1
 90
        3
176
     1
 90
        0
176
     1
 90
        0
176
     1
290
     0
176
     1
 90
       13
176
     1
 40
0.0
176
     1
 90
        0
176
     1
290
     0
176
     1
290
     1
176
     1
290
     1
176
     1
290
     0
176
     1
290
     0
176
     1
290
     0
176
     1
290
     0
176
     1
290
     0
176
     1
290
     0
176
     1
 90
       50
176
     1
 40
0.0
176
     1
 40
1.0
176
     1
 90
        0
176
     1
 62
    18
420
        0
176
     1
 90
       50
176
     1
 90
        3
176
     1
 62
     5
420
      255
176
     1
290
     0
176
     1
 90
       50
176
     1
 90
       50
176
     1
 90
       50
176
     1
290
     0
176
     1
 90
       50
176
     1
 62
   256
176
     0
 40
1.0
176
     0
 90
        2
176
     1
  1
strokes_ogs.tif
176
     1
290
     0
176
     1
 40
1.0
176
     1
 40
1.0
176
     1
1001
ACAD
1000
AcDbSavedByObjectVersion
1070
     0
  0
DICTIONARYVAR
  5
152
102
{ACAD_REACTORS
330
14D
102
}
330
14D
100
DictionaryVariables
280
     0
  1
1:1
  0
DICTIONARYVAR
  5
14F
102
{ACAD_REACTORS
330
14D
102
}
330
14D
100
DictionaryVariables
280
     0
  1
STANDARD
  0
DICTIONARYVAR
  5
14E
102
{ACAD_REACTORS
330
14D
102
}
330
14D
100
DictionaryVariables
280
     0
  1
STANDARD
  0
DICTIONARYVAR
  5
150
102
{ACAD_REACTORS
330
14D
102
}
330
14D
100
DictionaryVariables
280
     0
  1
Imperial24
  0
DICTIONARYVAR
  5
151
102
{ACAD_REACTORS
330
14D
102
}
330
14D
100
DictionaryVariables
280
     0
  1
Imperial24
  0
DICTIONARY
  5
159
330
FA
100
AcDbDictionary
280
     1
281
     1
  3
ACAD_XREC_ROUNDTRIP
360
15A
  0
DICTIONARY
  5
157
330
F8
100
AcDbDictionary
280
     1
281
     1
  3
ACAD_XREC_ROUNDTRIP
360
158
  0
DICTIONARY
  5
154
330
DF
100
AcDbDictionary
280
     1
281
     1
  3
ACAD_ROUNDTRIP_2008_TABLESTYLE_CELLSTYLEMAP
360
155
  0
XRECORD
  5
15A
102
{ACAD_REACTORS
330
159
102
}
330
159
100
AcDbXrecord
280
     1
102
DISPLAYNAME
  1
Imperial24
102
FLAGS
 90
        0
  0
XRECORD
  5
158
102
{ACAD_REACTORS
330
157
102
}
330
157
100
AcDbXrecord
280
     1
102
DISPLAYNAME
  1
Imperial24
102
FLAGS
 90
        0
  0
CELLSTYLEMAP
  5
155
102
{ACAD_REACTORS
330
154
102
}
330
154
100
AcDbCellStyleMap
 90
        3
300
CELLSTYLE
  1
TABLEFORMAT_BEGIN
 90
        5
170
     1
 91
        0
 92
    32768
 62
   257
 93
        1
300
CONTENTFORMAT
  1
CONTENTFORMAT_BEGIN
 90
        0
 91
        0
 92
      512
 93
        0
300

 40
0.0
140
1.0
 94
        5
 62
     0
340
11
144
0.25
309
CONTENTFORMAT_END
171
     0
 94
        0
309
TABLEFORMAT_END
  1
CELLSTYLE_BEGIN
 90
        1
 91
        1
300
_TITLE
309
CELLSTYLE_END
300
CELLSTYLE
  1
TABLEFORMAT_BEGIN
 90
        5
170
     1
 91
        0
 92
        0
 62
   257
 93
        1
300
CONTENTFORMAT
  1
CONTENTFORMAT_BEGIN
 90
        0
 91
        0
 92
      512
 93
        0
300

 40
0.0
140
1.0
 94
        5
 62
     0
340
11
144
0.18
309
CONTENTFORMAT_END
171
     0
 94
        0
309
TABLEFORMAT_END
  1
CELLSTYLE_BEGIN
 90
        2
 91
        1
300
_HEADER
309
CELLSTYLE_END
300
CELLSTYLE
  1
TABLEFORMAT_BEGIN
 90
        5
170
     1
 91
        0
 92
        0
 62
   257
 93
        1
300
CONTENTFORMAT
  1
CONTENTFORMAT_BEGIN
 90
        0
 91
        0
 92
      512
 93
        0
300

 40
0.0
140
1.0
 94
        2
 62
     0
340
11
144
0.18
309
CONTENTFORMAT_END
171
     0
 94
        0
309
TABLEFORMAT_END
  1
CELLSTYLE_BEGIN
 90
        3
 91
        2
300
_DATA
309
CELLSTYLE_END
  0
ENDSEC
  0
EOF
