  0
SECTION
  2
HEADER
  9
$ACADVER
  1
AC1027
  9
$ACADMAINTVER
 70
   125
  9
$DWGCODEPAGE
  3
ANSI_1252
  9
$LASTSAVEDBY
  1
andrea.ragusa
  9
$REQUIREDVERSIONS
160
                 0
  9
$INSBASE
 10
0.0
 20
0.0
 30
0.0
  9
$EXTMIN
 10
0.1794443374726597
 20
0.0135962725775016
 30
-0.0015258207003583
  9
$EXTMAX
 10
15.01556447126859
 20
21.99311865748973
 30
0.0000000349246037
  9
$LIMMIN
 10
0.0
 20
0.0
  9
$LIMMAX
 10
420.0
 20
297.0
  9
$ORTHOMODE
 70
     0
  9
$REGENMODE
 70
     1
  9
$FILLMODE
 70
     1
  9
$QTEXTMODE
 70
     0
  9
$MIRRTEXT
 70
     0
  9
$LTSCALE
 40
1.0
  9
$ATTMODE
 70
     1
  9
$TEXTSIZE
 40
2.5
  9
$TRACEWID
 40
1.0
  9
$TEXTSTYLE
  7
Standard
  9
$CLAYER
  8
0
  9
$CELTYPE
  6
ByLayer
  9
$CECOLOR
 62
   256
  9
$CELTSCALE
 40
1.0
  9
$DISPSILH
 70
     0
  9
$DIMSCALE
 40
1.0
  9
$DIMASZ
 40
2.5
  9
$DIMEXO
 40
0.625
  9
$DIMDLI
 40
3.75
  9
$DIMRND
 40
0.0
  9
$DIMDLE
 40
0.0
  9
$DIMEXE
 40
1.25
  9
$DIMTP
 40
0.0
  9
$DIMTM
 40
0.0
  9
$DIMTXT
 40
2.5
  9
$DIMCEN
 40
2.5
  9
$DIMTSZ
 40
0.0
  9
$DIMTOL
 70
     0
  9
$DIMLIM
 70
     0
  9
$DIMTIH
 70
     0
  9
$DIMTOH
 70
     0
  9
$DIMSE1
 70
     0
  9
$DIMSE2
 70
     0
  9
$DIMTAD
 70
     1
  9
$DIMZIN
 70
     8
  9
$DIMBLK
  1

  9
$DIMASO
 70
     1
  9
$DIMSHO
 70
     1
  9
$DIMPOST
  1

  9
$DIMAPOST
  1

  9
$DIMALT
 70
     0
  9
$DIMALTD
 70
     3
  9
$DIMALTF
 40
0.03937007874016
  9
$DIMLFAC
 40
1.0
  9
$DIMTOFL
 70
     1
  9
$DIMTVP
 40
0.0
  9
$DIMTIX
 70
     0
  9
$DIMSOXD
 70
     0
  9
$DIMSAH
 70
     0
  9
$DIMBLK1
  1

  9
$DIMBLK2
  1

  9
$DIMSTYLE
  2
ISO-25
  9
$DIMCLRD
 70
     0
  9
$DIMCLRE
 70
     0
  9
$DIMCLRT
 70
     0
  9
$DIMTFAC
 40
1.0
  9
$DIMGAP
 40
0.625
  9
$DIMJUST
 70
     0
  9
$DIMSD1
 70
     0
  9
$DIMSD2
 70
     0
  9
$DIMTOLJ
 70
     0
  9
$DIMTZIN
 70
     8
  9
$DIMALTZ
 70
     0
  9
$DIMALTTZ
 70
     0
  9
$DIMUPT
 70
     0
  9
$DIMDEC
 70
     2
  9
$DIMTDEC
 70
     2
  9
$DIMALTU
 70
     2
  9
$DIMALTTD
 70
     3
  9
$DIMTXSTY
  7
Standard
  9
$DIMAUNIT
 70
     0
  9
$DIMADEC
 70
     0
  9
$DIMALTRND
 40
0.0
  9
$DIMAZIN
 70
     0
  9
$DIMDSEP
 70
    44
  9
$DIMATFIT
 70
     3
  9
$DIMFRAC
 70
     0
  9
$DIMLDRBLK
  1

  9
$DIMLUNIT
 70
     2
  9
$DIMLWD
 70
    -2
  9
$DIMLWE
 70
    -2
  9
$DIMTMOVE
 70
     0
  9
$DIMFXL
 40
1.0
  9
$DIMFXLON
 70
     0
  9
$DIMJOGANG
 40
0.7853981633974483
  9
$DIMTFILL
 70
     0
  9
$DIMTFILLCLR
 70
     0
  9
$DIMARCSYM
 70
     0
  9
$DIMLTYPE
  6

  9
$DIMLTEX1
  6

  9
$DIMLTEX2
  6

  9
$DIMTXTDIRECTION
 70
     0
  9
$LUNITS
 70
     2
  9
$LUPREC
 70
     4
  9
$SKETCHINC
 40
1.0
  9
$FILLETRAD
 40
0.0
  9
$AUNITS
 70
     0
  9
$AUPREC
 70
     0
  9
$MENU
  1
.
  9
$ELEVATION
 40
0.0
  9
$PELEVATION
 40
0.0
  9
$THICKNESS
 40
0.0
  9
$LIMCHECK
 70
     0
  9
$CHAMFERA
 40
0.0
  9
$CHAMFERB
 40
0.0
  9
$CHAMFERC
 40
0.0
  9
$CHAMFERD
 40
0.0
  9
$SKPOLY
 70
     0
  9
$TDCREATE
 40
2459020.621932870
  9
$TDUCREATE
 40
2459020.538599537
  9
$TDUPDATE
 40
2459020.622141204
  9
$TDUUPDATE
 40
2459020.538807870
  9
$TDINDWG
 40
0.0002083333
  9
$TDUSRTIMER
 40
0.0002083333
  9
$USRTIMER
 70
     1
  9
$ANGBASE
 50
0.0
  9
$ANGDIR
 70
     0
  9
$PDMODE
 70
     0
  9
$PDSIZE
 40
0.0
  9
$PLINEWID
 40
0.0
  9
$SPLFRAME
 70
     0
  9
$SPLINETYPE
 70
     6
  9
$SPLINESEGS
 70
     8
  9
$HANDSEED
  5
B17
  9
$SURFTAB1
 70
     6
  9
$SURFTAB2
 70
     6
  9
$SURFTYPE
 70
     6
  9
$SURFU
 70
     6
  9
$SURFV
 70
     6
  9
$UCSBASE
  2

  9
$UCSNAME
  2

  9
$UCSORG
 10
0.0
 20
0.0
 30
0.0
  9
$UCSXDIR
 10
1.0
 20
0.0
 30
0.0
  9
$UCSYDIR
 10
0.0
 20
1.0
 30
0.0
  9
$UCSORTHOREF
  2

  9
$UCSORTHOVIEW
 70
     0
  9
$UCSORGTOP
 10
0.0
 20
0.0
 30
0.0
  9
$UCSORGBOTTOM
 10
0.0
 20
0.0
 30
0.0
  9
$UCSORGLEFT
 10
0.0
 20
0.0
 30
0.0
  9
$UCSORGRIGHT
 10
0.0
 20
0.0
 30
0.0
  9
$UCSORGFRONT
 10
0.0
 20
0.0
 30
0.0
  9
$UCSORGBACK
 10
0.0
 20
0.0
 30
0.0
  9
$PUCSBASE
  2

  9
$PUCSNAME
  2

  9
$PUCSORG
 10
0.0
 20
0.0
 30
0.0
  9
$PUCSXDIR
 10
1.0
 20
0.0
 30
0.0
  9
$PUCSYDIR
 10
0.0
 20
1.0
 30
0.0
  9
$PUCSORTHOREF
  2

  9
$PUCSORTHOVIEW
 70
     0
  9
$PUCSORGTOP
 10
0.0
 20
0.0
 30
0.0
  9
$PUCSORGBOTTOM
 10
0.0
 20
0.0
 30
0.0
  9
$PUCSORGLEFT
 10
0.0
 20
0.0
 30
0.0
  9
$PUCSORGRIGHT
 10
0.0
 20
0.0
 30
0.0
  9
$PUCSORGFRONT
 10
0.0
 20
0.0
 30
0.0
  9
$PUCSORGBACK
 10
0.0
 20
0.0
 30
0.0
  9
$USERI1
 70
     0
  9
$USERI2
 70
     0
  9
$USERI3
 70
     0
  9
$USERI4
 70
     0
  9
$USERI5
 70
     0
  9
$USERR1
 40
0.0
  9
$USERR2
 40
0.0
  9
$USERR3
 40
0.0
  9
$USERR4
 40
0.0
  9
$USERR5
 40
0.0
  9
$WORLDVIEW
 70
     1
  9
$SHADEDGE
 70
     3
  9
$SHADEDIF
 70
    70
  9
$TILEMODE
 70
     1
  9
$MAXACTVP
 70
    64
  9
$PINSBASE
 10
0.0
 20
0.0
 30
0.0
  9
$PLIMCHECK
 70
     0
  9
$PEXTMIN
 10
0.0
 20
0.0
 30
0.0
  9
$PEXTMAX
 10
0.0
 20
0.0
 30
0.0
  9
$PLIMMIN
 10
0.0
 20
0.0
  9
$PLIMMAX
 10
12.0
 20
9.0
  9
$UNITMODE
 70
     0
  9
$VISRETAIN
 70
     1
  9
$PLINEGEN
 70
     0
  9
$PSLTSCALE
 70
     1
  9
$TREEDEPTH
 70
  3020
  9
$CMLSTYLE
  2
Standard
  9
$CMLJUST
 70
     0
  9
$CMLSCALE
 40
20.0
  9
$PROXYGRAPHICS
 70
     1
  9
$MEASUREMENT
 70
     1
  9
$CELWEIGHT
370
    -1
  9
$ENDCAPS
280
     0
  9
$JOINSTYLE
280
     0
  9
$LWDISPLAY
290
     0
  9
$INSUNITS
 70
     4
  9
$HYPERLINKBASE
  1

  9
$STYLESHEET
  1

  9
$XEDIT
290
     1
  9
$CEPSNTYPE
380
     0
  9
$PSTYLEMODE
290
     1
  9
$FINGERPRINTGUID
  2
{CC3067B3-DA6B-FD4A-B079-022B704BA6D5}
  9
$VERSIONGUID
  2
{71DF9CC6-7E6D-3F42-919B-CBAE7276558A}
  9
$EXTNAMES
290
     1
  9
$PSVPSCALE
 40
0.0
  9
$OLESTARTUP
290
     0
  9
$SORTENTS
280
   127
  9
$INDEXCTL
280
     0
  9
$HIDETEXT
280
     1
  9
$XCLIPFRAME
280
     2
  9
$HALOGAP
280
     0
  9
$OBSCOLOR
 70
   257
  9
$OBSLTYPE
280
     0
  9
$INTERSECTIONDISPLAY
280
     0
  9
$INTERSECTIONCOLOR
 70
   257
  9
$DIMASSOC
280
     2
  9
$PROJECTNAME
  1

  9
$CAMERADISPLAY
290
     0
  9
$LENSLENGTH
 40
50.0
  9
$CAMERAHEIGHT
 40
0.0
  9
$STEPSPERSEC
 40
2.0
  9
$STEPSIZE
 40
6.0
  9
$3DDWFPREC
 40
2.0
  9
$PSOLWIDTH
 40
5.0
  9
$PSOLHEIGHT
 40
80.0
  9
$LOFTANG1
 40
1.570796326794896
  9
$LOFTANG2
 40
1.570796326794896
  9
$LOFTMAG1
 40
0.0
  9
$LOFTMAG2
 40
0.0
  9
$LOFTPARAM
 70
     7
  9
$LOFTNORMALS
280
     1
  9
$LATITUDE
 40
37.795
  9
$LONGITUDE
 40
-122.394
  9
$NORTHDIRECTION
 40
0.0
  9
$TIMEZONE
 70
 -8000
  9
$LIGHTGLYPHDISPLAY
280
     1
  9
$TILEMODELIGHTSYNCH
280
     1
  9
$CMATERIAL
347
EC
  9
$SOLIDHIST
280
     0
  9
$SHOWHIST
280
     1
  9
$DWFFRAME
280
     2
  9
$DGNFRAME
280
     0
  9
$REALWORLDSCALE
290
     1
  9
$INTERFERECOLOR
 62
     1
  9
$INTERFEREOBJVS
345
F9
  9
$INTERFEREVPVS
346
F6
  9
$CSHADOW
280
     0
  9
$SHADOWPLANELOCATION
 40
0.0
  0
ENDSEC
  0
SECTION
  2
CLASSES
  0
CLASS
  1
ACDBDICTIONARYWDFLT
  2
AcDbDictionaryWithDefault
  3
ObjectDBX Classes
 90
        0
 91
        1
280
     0
281
     0
  0
CLASS
  1
DICTIONARYVAR
  2
AcDbDictionaryVar
  3
ObjectDBX Classes
 90
        0
 91
       11
280
     0
281
     0
  0
CLASS
  1
TABLESTYLE
  2
AcDbTableStyle
  3
ObjectDBX Classes
 90
     4095
 91
        1
280
     0
281
     0
  0
CLASS
  1
MATERIAL
  2
AcDbMaterial
  3
ObjectDBX Classes
 90
     1153
 91
        3
280
     0
281
     0
  0
CLASS
  1
VISUALSTYLE
  2
AcDbVisualStyle
  3
ObjectDBX Classes
 90
     4095
 91
       24
280
     0
281
     0
  0
CLASS
  1
SCALE
  2
AcDbScale
  3
ObjectDBX Classes
 90
     1153
 91
       17
280
     0
281
     0
  0
CLASS
  1
MLEADERSTYLE
  2
AcDbMLeaderStyle
  3
ACDB_MLEADERSTYLE_CLASS
 90
     4095
 91
        2
280
     0
281
     0
  0
CLASS
  1
CELLSTYLEMAP
  2
AcDbCellStyleMap
  3
ObjectDBX Classes
 90
     1152
 91
        1
280
     0
281
     0
  0
CLASS
  1
EXACXREFPANELOBJECT
  2
ExAcXREFPanelObject
  3
EXAC_ESW
 90
     1025
 91
        0
280
     0
281
     0
  0
CLASS
  1
NPOCOLLECTION
  2
AcDbImpNonPersistentObjectsCollection
  3
ObjectDBX Classes
 90
     1153
 91
        0
280
     0
281
     0
  0
CLASS
  1
LAYER_INDEX
  2
AcDbLayerIndex
  3
ObjectDBX Classes
 90
        0
 91
        0
280
     0
281
     0
  0
CLASS
  1
SPATIAL_INDEX
  2
AcDbSpatialIndex
  3
ObjectDBX Classes
 90
        0
 91
        0
280
     0
281
     0
  0
CLASS
  1
IDBUFFER
  2
AcDbIdBuffer
  3
ObjectDBX Classes
 90
        0
 91
        0
280
     0
281
     0
  0
CLASS
  1
ACDBSECTIONVIEWSTYLE
  2
AcDbSectionViewStyle
  3
ObjectDBX Classes
 90
     1025
 91
        2
280
     0
281
     0
  0
CLASS
  1
ACDBDETAILVIEWSTYLE
  2
AcDbDetailViewStyle
  3
ObjectDBX Classes
 90
     1025
 91
        2
280
     0
281
     0
  0
CLASS
  1
SORTENTSTABLE
  2
AcDbSortentsTable
  3
ObjectDBX Classes
 90
        0
 91
        1
280
     0
281
     0
  0
ENDSEC
  0
SECTION
  2
TABLES
  0
TABLE
  2
VPORT
  5
8
330
0
100
AcDbSymbolTable
 70
     1
1001
ACAD
1000
DbSaveVer
1071
      208
  0
VPORT
  5
EA
330
8
100
AcDbSymbolTableRecord
100
AcDbViewportTableRecord
  2
*Active
 70
     0
 10
0.0
 20
0.0
 11
1.0
 21
1.0
 12
7.597504404370624
 22
11.00335746503361
 13
0.0
 23
0.0
 14
10.0
 24
10.0
 15
10.0
 25
10.0
 16
0.0
 26
0.0
 36
1.0
 17
0.0
 27
0.0
 37
0.0
 40
22.18303648106882
 41
2.452859350850077
 42
50.0
 43
0.0
 44
0.0
 50
0.0
 51
0.0
 71
     0
 72
  1000
 73
     1
 74
     3
 75
     0
 76
     1
 77
     0
 78
     0
281
     0
 65
     1
110
0.0
120
0.0
130
0.0
111
1.0
121
0.0
131
0.0
112
0.0
122
1.0
132
0.0
 79
     0
146
0.0
348
F5
 60
     3
 61
     5
292
     1
282
     1
141
0.0
142
0.0
 63
   250
421
  3355443
1001
ACAD_NAV_VCDISPLAY
1070
     3
  0
ENDTAB
  0
TABLE
  2
LTYPE
  5
5
330
0
100
AcDbSymbolTable
 70
     1
  0
LTYPE
  5
14
330
5
100
AcDbSymbolTableRecord
100
AcDbLinetypeTableRecord
  2
ByBlock
 70
     0
  3

 72
    65
 73
     0
 40
0.0
  0
LTYPE
  5
15
330
5
100
AcDbSymbolTableRecord
100
AcDbLinetypeTableRecord
  2
ByLayer
 70
     0
  3

 72
    65
 73
     0
 40
0.0
  0
LTYPE
  5
16
330
5
100
AcDbSymbolTableRecord
100
AcDbLinetypeTableRecord
  2
Continuous
 70
     0
  3
Solid line
 72
    65
 73
     0
 40
0.0
  0
ENDTAB
  0
TABLE
  2
LAYER
  5
2
102
{ACAD_XDICTIONARY
360
1FF
102
}
330
0
100
AcDbSymbolTable
 70
     2
  0
LAYER
  5
10
102
{ACAD_XDICTIONARY
360
13C
102
}
330
2
100
AcDbSymbolTableRecord
100
AcDbLayerTableRecord
  2
0
 70
     0
 62
     7
  6
Continuous
370
    -3
390
F
347
EE
348
0
  0
LAYER
  5
28C
330
2
100
AcDbSymbolTableRecord
100
AcDbLayerTableRecord
  2
Livello 1
 70
     0
 62
     7
  6
Continuous
370
    -3
390
F
347
EE
348
0
  0
ENDTAB
  0
TABLE
  2
STYLE
  5
3
330
0
100
AcDbSymbolTable
 70
     2
  0
STYLE
  5
11
330
3
100
AcDbSymbolTableRecord
100
AcDbTextStyleTableRecord
  2
Standard
 70
     0
 40
0.0
 41
1.0
 50
0.0
 71
     0
 42
2.5
  3
arial.ttf
  4

1001
ACAD
1000
Arial
1071
       34
  0
STYLE
  5
132
330
3
100
AcDbSymbolTableRecord
100
AcDbTextStyleTableRecord
  2
Annotativa
 70
     0
 40
0.0
 41
1.0
 50
0.0
 71
     0
 42
2.5
  3
arial.ttf
  4

1001
AcadAnnotative
1000
AnnotativeData
1002
{
1070
     1
1070
     1
1002
}
1001
ACAD
1000
Arial
1071
       34
  0
ENDTAB
  0
TABLE
  2
VIEW
  5
6
330
0
100
AcDbSymbolTable
 70
     0
  0
ENDTAB
  0
TABLE
  2
UCS
  5
7
330
0
100
AcDbSymbolTable
 70
     0
  0
ENDTAB
  0
TABLE
  2
APPID
  5
9
330
0
100
AcDbSymbolTable
 70
     8
  0
APPID
  5
12
330
9
100
AcDbSymbolTableRecord
100
AcDbRegAppTableRecord
  2
ACAD
 70
     0
  0
APPID
  5
9E
330
9
100
AcDbSymbolTableRecord
100
AcDbRegAppTableRecord
  2
ACAD_PSEXT
 70
     0
  0
APPID
  5
133
330
9
100
AcDbSymbolTableRecord
100
AcDbRegAppTableRecord
  2
AcadAnnoPO
 70
     0
  0
APPID
  5
134
330
9
100
AcDbSymbolTableRecord
100
AcDbRegAppTableRecord
  2
AcadAnnotative
 70
     0
  0
APPID
  5
135
330
9
100
AcDbSymbolTableRecord
100
AcDbRegAppTableRecord
  2
ACAD_DSTYLE_DIMJAG
 70
     0
  0
APPID
  5
136
330
9
100
AcDbSymbolTableRecord
100
AcDbRegAppTableRecord
  2
ACAD_DSTYLE_DIMTALN
 70
     0
  0
APPID
  5
165
330
9
100
AcDbSymbolTableRecord
100
AcDbRegAppTableRecord
  2
ACAD_MLEADERVER
 70
     0
  0
APPID
  5
217
330
9
100
AcDbSymbolTableRecord
100
AcDbRegAppTableRecord
  2
ACAD_NAV_VCDISPLAY
 70
     0
  0
ENDTAB
  0
TABLE
  2
DIMSTYLE
  5
A
330
0
100
AcDbSymbolTable
 70
     3
100
AcDbDimStyleTable
 71
     2
340
27
340
137
  0
DIMSTYLE
105
1B0
330
A
100
AcDbSymbolTableRecord
100
AcDbDimStyleTableRecord
  2
Standard
 70
     0
340
11
  0
DIMSTYLE
105
137
330
A
100
AcDbSymbolTableRecord
100
AcDbDimStyleTableRecord
  2
Annotativa
 70
     0
 40
0.0
 41
2.5
 42
0.625
 43
3.75
 44
1.25
 73
     0
 74
     0
 77
     1
 78
     8
140
2.5
141
2.5
143
0.03937007874016
147
0.625
171
     3
172
     1
271
     2
272
     2
274
     3
278
    44
283
     0
284
     8
340
11
1001
AcadAnnotative
1000
AnnotativeData
1002
{
1070
     1
1070
     1
1002
}
1001
ACAD_DSTYLE_DIMJAG
1070
   388
1040
1.5
1001
ACAD_DSTYLE_DIMTALN
1070
   392
1070
     0
  0
DIMSTYLE
105
27
330
A
100
AcDbSymbolTableRecord
100
AcDbDimStyleTableRecord
  2
ISO-25
 70
     0
 41
2.5
 42
0.625
 43
3.75
 44
1.25
 73
     0
 74
     0
 77
     1
 78
     8
140
2.5
141
2.5
143
0.03937007874016
147
0.625
171
     3
172
     1
271
     2
272
     2
274
     3
278
    44
283
     0
284
     8
340
11
  0
ENDTAB
  0
TABLE
  2
BLOCK_RECORD
  5
1
330
0
100
AcDbSymbolTable
 70
     2
  0
BLOCK_RECORD
  5
1F
102
{ACAD_XDICTIONARY
360
1CE
102
}
330
1
100
AcDbSymbolTableRecord
100
AcDbBlockTableRecord
  2
*Model_Space
340
22
 70
     0
280
     1
281
     0
  0
BLOCK_RECORD
  5
D2
330
1
100
AcDbSymbolTableRecord
100
AcDbBlockTableRecord
  2
*Paper_Space
340
D3
 70
     0
280
     1
281
     0
  0
BLOCK_RECORD
  5
D6
330
1
100
AcDbSymbolTableRecord
100
AcDbBlockTableRecord
  2
*Paper_Space0
340
D7
 70
     0
280
     1
281
     0
  0
ENDTAB
  0
ENDSEC
  0
SECTION
  2
BLOCKS
  0
BLOCK
  5
20
330
1F
100
AcDbEntity
  8
0
100
AcDbBlockBegin
  2
*Model_Space
 70
     0
 10
0.0
 20
0.0
 30
0.0
  3
*Model_Space
  1

  0
ENDBLK
  5
21
330
1F
100
AcDbEntity
  8
0
100
AcDbBlockEnd
  0
BLOCK
  5
D4
330
D2
100
AcDbEntity
 67
     1
  8
0
100
AcDbBlockBegin
  2
*Paper_Space
 70
     0
 10
0.0
 20
0.0
 30
0.0
  3
*Paper_Space
  1

  0
ENDBLK
  5
D5
330
D2
100
AcDbEntity
 67
     1
  8
0
100
AcDbBlockEnd
  0
BLOCK
  5
D8
330
D6
100
AcDbEntity
 67
     1
  8
0
100
AcDbBlockBegin
  2
*Paper_Space0
 70
     0
 10
0.0
 20
0.0
 30
0.0
  3
*Paper_Space0
  1

  0
ENDBLK
  5
D9
330
D6
100
AcDbEntity
 67
     1
  8
0
100
AcDbBlockEnd
  0
ENDSEC
  0
SECTION
  2
ENTITIES
  0
POLYLINE
  5
6CE
330
1F
100
AcDbEntity
  8
Livello 1
100
AcDb2dPolyline
 66
     1
 10
0.0
 20
0.0
 30
0.0
  0
VERTEX
  5
6CF
330
6CE
100
AcDbEntity
  8
Livello 1
100
AcDbVertex
100
AcDb2dVertex
 10
10.89987579994262
 20
5.965180373356929
 30
0.0
  0
VERTEX
  5
6D0
330
6CE
100
AcDbEntity
  8
Livello 1
100
AcDbVertex
100
AcDb2dVertex
 10
10.89987579994262
 20
2.512543358771438
 30
0.0
  0
SEQEND
  5
6D1
330
6CE
100
AcDbEntity
  8
Livello 1
  0
POLYLINE
  5
6D2
330
1F
100
AcDbEntity
  8
Livello 1
100
AcDb2dPolyline
 66
     1
 10
0.0
 20
0.0
 30
0.0
  0
VERTEX
  5
6D3
330
6D2
100
AcDbEntity
  8
Livello 1
100
AcDbVertex
100
AcDb2dVertex
 10
9.341726398985329
 20
11.18495085655243
 30
0.0
  0
VERTEX
  5
6D4
330
6D2
100
AcDbEntity
  8
Livello 1
100
AcDbVertex
100
AcDb2dVertex
 10
1.092369898090851
 20
11.18495085655243
 30
0.0
  0
SEQEND
  5
6D5
330
6D2
100
AcDbEntity
  8
Livello 1
  0
POLYLINE
  5
6D6
330
1F
100
AcDbEntity
  8
Livello 1
100
AcDb2dPolyline
 66
     1
 10
0.0
 20
0.0
 30
0.0
  0
VERTEX
  5
6D7
330
6D6
100
AcDbEntity
  8
Livello 1
100
AcDbVertex
100
AcDb2dVertex
 10
11.05668416561923
 20
20.60605834770372
 30
0.0
  0
VERTEX
  5
6D8
330
6D6
100
AcDbEntity
  8
Livello 1
100
AcDbVertex
100
AcDb2dVertex
 10
11.05668416561923
 20
12.35670184680924
 30
0.0
  0
SEQEND
  5
6D9
330
6D6
100
AcDbEntity
  8
Livello 1
  0
MTEXT
  5
6DA
330
1F
100
AcDbEntity
  8
Livello 1
100
AcDbMText
 10
13.98872788947614
 20
0.1279243348016337
 30
0.0
 40
2.123016666135912
 41
0.0
 46
0.0
 71
     7
 72
     1
  1
\fSource Sans Pro Light|b0|i0|c0|p34;\W1;38 mm
 11
-0.0000000000000002
 21
1.0
 31
0.0
 73
     1
 44
1.0
  0
MTEXT
  5
6DB
330
1F
100
AcDbEntity
  8
Livello 1
100
AcDbMText
 10
0.4807238102793861
 20
8.081476324593552
 30
0.0
 40
2.123016666135912
 41
0.0
 46
0.0
 71
     7
 72
     1
  1
\fSource Sans Pro Light|b0|i0|c0|p34;\W1;100 mm
 73
     1
 44
1.0
  0
MTEXT
  5
6DC
330
1F
100
AcDbEntity
  8
Livello 1
100
AcDbMText
 10
14.16009985802053
 20
11.74461405628985
 30
0.0
 40
2.123016666135912
 41
0.0
 46
0.0
 71
     7
 72
     1
  1
\fSource Sans Pro Light|b0|i0|c0|p34;\W1;100 mm
 11
-0.0000000000000002
 21
1.0
 31
0.0
 73
     1
 44
1.0
  0
SPLINE
  5
6DD
330
1F
100
AcDbEntity
  8
Livello 1
100
AcDbSpline
210
0.0
220
0.0
230
1.0
 70
     9
 71
     3
 72
    29
 73
    25
 74
     0
 42
0.000000001
 43
0.0000000001
 40
0.0
 40
0.0
 40
0.0
 40
0.0
 40
1.0
 40
1.0
 40
1.0
 40
2.0
 40
2.0
 40
2.0
 40
3.0
 40
3.0
 40
3.0
 40
4.0
 40
4.0
 40
4.0
 40
5.0
 40
5.0
 40
5.0
 40
6.0
 40
6.0
 40
6.0
 40
7.0
 40
7.0
 40
7.0
 40
8.0
 40
8.0
 40
8.0
 40
8.0
 10
0.5630969180629677
 20
15.81942922309333
 30
0.0
 10
0.5316994482323452
 20
15.82048697506656
 30
0.0
 10
0.5112374650865661
 20
15.83353796569784
 30
0.0
 10
0.4964208630191394
 20
15.86176083386836
 30
0.0
 10
0.4854853763343244
 20
15.88292663925594
 30
0.0
 10
0.4858379603253838
 20
15.90268210867914
 30
0.0
 10
0.486543128307531
 20
15.91996949016483
 30
0.0
 10
0.486543128307531
 20
15.91996949016483
 30
0.0
 10
0.486543128307531
 20
15.92949464088543
 30
0.0
 10
0.486543128307531
 20
15.92949464088543
 30
0.0
 10
0.486543128307531
 20
15.92949464088543
 30
0.0
 10
0.5338162979192163
 20
15.92949464088543
 30
0.0
 10
0.5338162979192163
 20
15.92949464088543
 30
0.0
 10
0.5338162979192163
 20
15.92949464088543
 30
0.0
 10
0.5338162979192163
 20
15.91891173819165
 30
0.0
 10
0.5338162979192163
 20
15.91891173819165
 30
0.0
 10
0.5334623681876849
 20
15.90515288809745
 30
0.0
 10
0.5331097841966397
 20
15.89386481742156
 30
0.0
 10
0.5384012355435175
 20
15.88363449871883
 30
0.0
 10
0.5454569525861502
 20
15.87058081660685
 30
0.0
 10
0.5503958199419543
 20
15.86705228521522
 30
0.0
 10
0.564507254027248
 20
15.86669970122413
 30
0.0
 10
0.564507254027248
 20
15.86669970122413
 30
0.0
 10
0.5630969180629677
 20
15.81942922309333
 30
0.0
 10
0.5630969180629677
 20
15.81942922309333
 30
0.0
  0
POLYLINE
  5
6DE
330
1F
100
AcDbEntity
  8
Livello 1
100
AcDb2dPolyline
 66
     1
 10
0.0
 20
0.0
 30
0.0
  0
VERTEX
  5
6DF
330
6DE
100
AcDbEntity
  8
Livello 1
100
AcDbVertex
100
AcDb2dVertex
 10
0.533817643659603
 20
15.92935468388134
 30
0.0
  0
VERTEX
  5
6E0
330
6DE
100
AcDbEntity
  8
Livello 1
100
AcDbVertex
100
AcDb2dVertex
 10
0.4865458197883754
 20
15.92935468388134
 30
0.0
  0
VERTEX
  5
6E1
330
6DE
100
AcDbEntity
  8
Livello 1
100
AcDbVertex
100
AcDb2dVertex
 10
0.4865458197883754
 20
17.26003358098244
 30
0.0
  0
VERTEX
  5
6E2
330
6DE
100
AcDbEntity
  8
Livello 1
100
AcDbVertex
100
AcDb2dVertex
 10
0.533817643659603
 20
17.26003358098244
 30
0.0
  0
VERTEX
  5
6E3
330
6DE
100
AcDbEntity
  8
Livello 1
100
AcDbVertex
100
AcDb2dVertex
 10
0.533817643659603
 20
15.92935468388134
 30
0.0
  0
SEQEND
  5
6E4
330
6DE
100
AcDbEntity
  8
Livello 1
  0
SPLINE
  5
6E5
330
1F
100
AcDbEntity
  8
Livello 1
100
AcDbSpline
210
0.0
220
0.0
230
1.0
 70
    11
 71
     3
 72
    29
 73
    25
 74
     0
 42
0.000000001
 43
0.0000000001
 40
0.0
 40
0.0
 40
0.0
 40
0.0
 40
1.0
 40
1.0
 40
1.0
 40
2.0
 40
2.0
 40
2.0
 40
3.0
 40
3.0
 40
3.0
 40
4.0
 40
4.0
 40
4.0
 40
5.0
 40
5.0
 40
5.0
 40
6.0
 40
6.0
 40
6.0
 40
7.0
 40
7.0
 40
7.0
 40
8.0
 40
8.0
 40
8.0
 40
8.0
 10
0.4865444740479603
 20
17.25996091099955
 30
0.0
 10
0.4865444740479603
 20
17.25996091099955
 30
0.0
 10
0.4861905443164858
 20
17.26948337023924
 30
0.0
 10
0.4861905443164858
 20
17.26948337023924
 30
0.0
 10
0.4858379603253838
 20
17.28677075172504
 30
0.0
 10
0.4854853763343244
 20
17.30652622114823
 30
0.0
 10
0.4964222087595687
 20
17.32769202653574
 30
0.0
 10
0.5112388108269812
 20
17.35591489470634
 30
0.0
 10
0.5316994482323452
 20
17.36896857681843
 30
0.0
 10
0.5630969180629677
 20
17.37002632879164
 30
0.0
 10
0.5630969180629677
 20
17.37002632879164
 30
0.0
 10
0.564507254027248
 20
17.32275315917994
 30
0.0
 10
0.564507254027248
 20
17.32275315917994
 30
0.0
 10
0.5503971656823837
 20
17.32240057518885
 30
0.0
 10
0.545104368595105
 20
17.31887473527823
 30
0.0
 10
0.5384025812839326
 20
17.30582105316614
 30
0.0
 10
0.5331111299370548
 20
17.29559073446344
 30
0.0
 10
0.5334637139281285
 20
17.28465524777864
 30
0.0
 10
0.5338162979192163
 20
17.27054381369335
 30
0.0
 10
0.5338162979192163
 20
17.27054381369335
 30
0.0
 10
0.5338162979192163
 20
17.25996091099955
 30
0.0
 10
0.5338162979192163
 20
17.25996091099955
 30
0.0
 10
0.5338162979192163
 20
17.25996091099955
 30
0.0
 10
0.4865444740479603
 20
17.25996091099955
 30
0.0
 10
0.4865444740479603
 20
17.25996091099955
 30
0.0
  0
SPLINE
  5
6E6
330
1F
100
AcDbEntity
  8
Livello 1
100
AcDbSpline
210
0.0
220
0.0
230
1.0
 70
    11
 71
     3
 72
    29
 73
    25
 74
     0
 42
0.000000001
 43
0.0000000001
 40
0.0
 40
0.0
 40
0.0
 40
0.0
 40
1.0
 40
1.0
 40
1.0
 40
2.0
 40
2.0
 40
2.0
 40
3.0
 40
3.0
 40
3.0
 40
4.0
 40
4.0
 40
4.0
 40
5.0
 40
5.0
 40
5.0
 40
6.0
 40
6.0
 40
6.0
 40
7.0
 40
7.0
 40
7.0
 40
8.0
 40
8.0
 40
8.0
 40
8.0
 10
9.938414245549736
 20
17.13906497427584
 30
0.0
 10
9.938414245549736
 20
17.13906497427584
 30
0.0
 10
9.891141075938094
 20
17.13906497427584
 30
0.0
 10
9.891141075938094
 20
17.13906497427584
 30
0.0
 10
9.891141075938094
 20
17.13906497427584
 30
0.0
 10
9.891493659929139
 20
17.15105821293384
 30
0.0
 10
9.891493659929139
 20
17.15105821293384
 30
0.0
 10
9.891846243920213
 20
17.16446447903695
 30
0.0
 10
9.8921988279113
 20
17.17504738173073
 30
0.0
 10
9.886907376564408
 20
17.18492511644234
 30
0.0
 10
9.88020558925325
 20
17.19797879855444
 30
0.0
 10
9.874914137906358
 20
17.20150463846514
 30
0.0
 10
9.860802703821079
 20
17.20185722245614
 30
0.0
 10
9.860802703821079
 20
17.20185722245614
 30
0.0
 10
9.861860455794314
 20
17.24913039206784
 30
0.0
 10
9.861860455794314
 20
17.24913039206784
 30
0.0
 10
9.893256579884493
 20
17.24842522408563
 30
0.0
 10
9.914072492761761
 20
17.23537154197365
 30
0.0
 10
9.928889094829173
 20
17.20679608981194
 30
0.0
 10
9.939824581514017
 20
17.18598286841555
 30
0.0
 10
9.939119413531869
 20
17.16657998298335
 30
0.0
 10
9.938766829540796
 20
17.14964787696955
 30
0.0
 10
9.938766829540796
 20
17.14964787696955
 30
0.0
 10
9.938414245549736
 20
17.13906497427584
 30
0.0
 10
9.938414245549736
 20
17.13906497427584
 30
0.0
  0
POLYLINE
  5
6E7
330
1F
100
AcDbEntity
  8
Livello 1
100
AcDb2dPolyline
 66
     1
 10
0.0
 20
0.0
 30
0.0
  0
VERTEX
  5
6E8
330
6E7
100
AcDbEntity
  8
Livello 1
100
AcDbVertex
100
AcDb2dVertex
 10
9.938519213302797
 20
15.80870367191474
 30
0.0
  0
VERTEX
  5
6E9
330
6E7
100
AcDbEntity
  8
Livello 1
100
AcDbVertex
100
AcDb2dVertex
 10
9.891246043691154
 20
15.80870367191474
 30
0.0
  0
VERTEX
  5
6EA
330
6E7
100
AcDbEntity
  8
Livello 1
100
AcDbVertex
100
AcDb2dVertex
 10
9.891246043691154
 20
17.13938256901585
 30
0.0
  0
VERTEX
  5
6EB
330
6E7
100
AcDbEntity
  8
Livello 1
100
AcDbVertex
100
AcDb2dVertex
 10
9.938519213302797
 20
17.13938256901585
 30
0.0
  0
VERTEX
  5
6EC
330
6E7
100
AcDbEntity
  8
Livello 1
100
AcDbVertex
100
AcDb2dVertex
 10
9.938519213302797
 20
15.80870367191474
 30
0.0
  0
SEQEND
  5
6ED
330
6E7
100
AcDbEntity
  8
Livello 1
  0
SPLINE
  5
6EE
330
1F
100
AcDbEntity
  8
Livello 1
100
AcDbSpline
210
0.0
220
0.0
230
1.0
 70
     9
 71
     3
 72
    29
 73
    25
 74
     0
 42
0.000000001
 43
0.0000000001
 40
0.0
 40
0.0
 40
0.0
 40
0.0
 40
1.0
 40
1.0
 40
1.0
 40
2.0
 40
2.0
 40
2.0
 40
3.0
 40
3.0
 40
3.0
 40
4.0
 40
4.0
 40
4.0
 40
5.0
 40
5.0
 40
5.0
 40
6.0
 40
6.0
 40
6.0
 40
7.0
 40
7.0
 40
7.0
 40
8.0
 40
8.0
 40
8.0
 40
8.0
 10
9.861968115028204
 20
15.69846061638674
 30
0.0
 10
9.861968115028204
 20
15.69846061638674
 30
0.0
 10
9.860907671574167
 20
15.74573109451754
 30
0.0
 10
9.860907671574167
 20
15.74573109451754
 30
0.0
 10
9.875019105659447
 20
15.74608367850855
 30
0.0
 10
9.879957973015251
 20
15.74961220990013
 30
0.0
 10
9.887015035798313
 20
15.76266589201213
 30
0.0
 10
9.891953903154146
 20
15.77254362672384
 30
0.0
 10
9.891953903154146
 20
15.78312652941756
 30
0.0
 10
9.891246043691154
 20
15.79653279552073
 30
0.0
 10
9.891246043691154
 20
15.79653279552073
 30
0.0
 10
9.891246043691154
 20
15.80852603417874
 30
0.0
 10
9.891246043691154
 20
15.80852603417874
 30
0.0
 10
9.891246043691154
 20
15.80852603417874
 30
0.0
 10
9.938519213302797
 20
15.80852603417874
 30
0.0
 10
9.938519213302797
 20
15.80852603417874
 30
0.0
 10
9.938519213302797
 20
15.80852603417874
 30
0.0
 10
9.938519213302797
 20
15.79794313148493
 30
0.0
 10
9.938519213302797
 20
15.79794313148493
 30
0.0
 10
9.939224381284944
 20
15.78100833399036
 30
0.0
 10
9.939929549267077
 20
15.76160544855814
 30
0.0
 10
9.928994062582262
 20
15.74079222716173
 30
0.0
 10
9.914177460514849
 20
15.71221677500004
 30
0.0
 10
9.893364239118398
 20
15.69916578436884
 30
0.0
 10
9.861968115028204
 20
15.69846061638674
 30
0.0
  0
POLYLINE
  5
6EF
330
1F
100
AcDbEntity
  8
Livello 1
100
AcDb2dPolyline
 66
     1
 10
0.0
 20
0.0
 30
0.0
  0
VERTEX
  5
6F0
330
6EF
100
AcDbEntity
  8
Livello 1
100
AcDbVertex
100
AcDb2dVertex
 10
7.831377697885855
 20
13.91851973616222
 30
0.0
  0
VERTEX
  5
6F1
330
6EF
100
AcDbEntity
  8
Livello 1
100
AcDbVertex
100
AcDb2dVertex
 10
2.647308362396657
 20
13.91851973616222
 30
0.0
  0
VERTEX
  5
6F2
330
6EF
100
AcDbEntity
  8
Livello 1
100
AcDbVertex
100
AcDb2dVertex
 10
2.647308362396657
 20
13.96579290577385
 30
0.0
  0
VERTEX
  5
6F3
330
6EF
100
AcDbEntity
  8
Livello 1
100
AcDbVertex
100
AcDb2dVertex
 10
7.831377697885855
 20
13.96579290577385
 30
0.0
  0
VERTEX
  5
6F4
330
6EF
100
AcDbEntity
  8
Livello 1
100
AcDbVertex
100
AcDb2dVertex
 10
7.831377697885855
 20
13.91851973616222
 30
0.0
  0
SEQEND
  5
6F5
330
6EF
100
AcDbEntity
  8
Livello 1
  0
POLYLINE
  5
6F6
330
1F
100
AcDbEntity
  8
Livello 1
100
AcDb2dPolyline
 66
     1
 10
0.0
 20
0.0
 30
0.0
  0
VERTEX
  5
6F7
330
6F6
100
AcDbEntity
  8
Livello 1
100
AcDbVertex
100
AcDb2dVertex
 10
2.671297531193573
 20
13.94215632096804
 30
0.0
  0
VERTEX
  5
6F8
330
6F6
100
AcDbEntity
  8
Livello 1
100
AcDbVertex
100
AcDb2dVertex
 10
2.624025707322331
 20
13.94215632096804
 30
0.0
  0
VERTEX
  5
6F9
330
6F6
100
AcDbEntity
  8
Livello 1
100
AcDbVertex
100
AcDb2dVertex
 10
2.624025707322331
 20
19.12622565645724
 30
0.0
  0
VERTEX
  5
6FA
330
6F6
100
AcDbEntity
  8
Livello 1
100
AcDbVertex
100
AcDb2dVertex
 10
2.671297531193573
 20
19.12622565645724
 30
0.0
  0
VERTEX
  5
6FB
330
6F6
100
AcDbEntity
  8
Livello 1
100
AcDbVertex
100
AcDb2dVertex
 10
2.671297531193573
 20
13.94215632096804
 30
0.0
  0
SEQEND
  5
6FC
330
6F6
100
AcDbEntity
  8
Livello 1
  0
POLYLINE
  5
6FD
330
1F
100
AcDbEntity
  8
Livello 1
100
AcDb2dPolyline
 66
     1
 10
0.0
 20
0.0
 30
0.0
  0
VERTEX
  5
6FE
330
6FD
100
AcDbEntity
  8
Livello 1
100
AcDbVertex
100
AcDb2dVertex
 10
7.831377697885855
 20
19.10258907165145
 30
0.0
  0
VERTEX
  5
6FF
330
6FD
100
AcDbEntity
  8
Livello 1
100
AcDbVertex
100
AcDb2dVertex
 10
2.647308362396657
 20
19.10258907165145
 30
0.0
  0
VERTEX
  5
700
330
6FD
100
AcDbEntity
  8
Livello 1
100
AcDbVertex
100
AcDb2dVertex
 10
2.647308362396657
 20
19.14986224126305
 30
0.0
  0
VERTEX
  5
701
330
6FD
100
AcDbEntity
  8
Livello 1
100
AcDbVertex
100
AcDb2dVertex
 10
7.831377697885855
 20
19.14986224126305
 30
0.0
  0
VERTEX
  5
702
330
6FD
100
AcDbEntity
  8
Livello 1
100
AcDbVertex
100
AcDb2dVertex
 10
7.831377697885855
 20
19.10258907165145
 30
0.0
  0
SEQEND
  5
703
330
6FD
100
AcDbEntity
  8
Livello 1
  0
POLYLINE
  5
704
330
1F
100
AcDbEntity
  8
Livello 1
100
AcDb2dPolyline
 66
     1
 10
0.0
 20
0.0
 30
0.0
  0
VERTEX
  5
705
330
704
100
AcDbEntity
  8
Livello 1
100
AcDbVertex
100
AcDb2dVertex
 10
7.855014282691684
 20
13.94215632096804
 30
0.0
  0
VERTEX
  5
706
330
704
100
AcDbEntity
  8
Livello 1
100
AcDbVertex
100
AcDb2dVertex
 10
7.807742458820456
 20
13.94215632096804
 30
0.0
  0
VERTEX
  5
707
330
704
100
AcDbEntity
  8
Livello 1
100
AcDbVertex
100
AcDb2dVertex
 10
7.807742458820456
 20
19.12622565645724
 30
0.0
  0
VERTEX
  5
708
330
704
100
AcDbEntity
  8
Livello 1
100
AcDbVertex
100
AcDb2dVertex
 10
7.855014282691684
 20
19.12622565645724
 30
0.0
  0
VERTEX
  5
709
330
704
100
AcDbEntity
  8
Livello 1
100
AcDbVertex
100
AcDb2dVertex
 10
7.855014282691684
 20
13.94215632096804
 30
0.0
  0
SEQEND
  5
70A
330
704
100
AcDbEntity
  8
Livello 1
  0
POLYLINE
  5
70B
330
1F
100
AcDbEntity
  8
Livello 1
100
AcDb2dPolyline
 66
     1
 10
0.0
 20
0.0
 30
0.0
  0
VERTEX
  5
70C
330
70B
100
AcDbEntity
  8
Livello 1
100
AcDbVertex
100
AcDb2dVertex
 10
9.559636762869928
 20
12.19061594665005
 30
0.0
  0
VERTEX
  5
70D
330
70B
100
AcDbEntity
  8
Livello 1
100
AcDbVertex
100
AcDb2dVertex
 10
0.9194032271440875
 20
12.19061594665005
 30
0.0
  0
VERTEX
  5
70E
330
70B
100
AcDbEntity
  8
Livello 1
100
AcDbVertex
100
AcDb2dVertex
 10
0.9194032271440875
 20
12.23788911626174
 30
0.0
  0
VERTEX
  5
70F
330
70B
100
AcDbEntity
  8
Livello 1
100
AcDbVertex
100
AcDb2dVertex
 10
9.559636762869928
 20
12.23788911626174
 30
0.0
  0
VERTEX
  5
710
330
70B
100
AcDbEntity
  8
Livello 1
100
AcDbVertex
100
AcDb2dVertex
 10
9.559636762869928
 20
12.19061594665005
 30
0.0
  0
SEQEND
  5
711
330
70B
100
AcDbEntity
  8
Livello 1
  0
POLYLINE
  5
712
330
1F
100
AcDbEntity
  8
Livello 1
100
AcDb2dPolyline
 66
     1
 10
0.0
 20
0.0
 30
0.0
  0
VERTEX
  5
713
330
712
100
AcDbEntity
  8
Livello 1
100
AcDbVertex
100
AcDb2dVertex
 10
9.583273347675742
 20
12.21424983997505
 30
0.0
  0
VERTEX
  5
714
330
712
100
AcDbEntity
  8
Livello 1
100
AcDbVertex
100
AcDb2dVertex
 10
9.536000178064071
 20
12.21424983997505
 30
0.0
  0
VERTEX
  5
715
330
712
100
AcDbEntity
  8
Livello 1
100
AcDbVertex
100
AcDb2dVertex
 10
9.536000178064071
 20
20.85448202996045
 30
0.0
  0
VERTEX
  5
716
330
712
100
AcDbEntity
  8
Livello 1
100
AcDbVertex
100
AcDb2dVertex
 10
9.583273347675742
 20
20.85448202996045
 30
0.0
  0
VERTEX
  5
717
330
712
100
AcDbEntity
  8
Livello 1
100
AcDbVertex
100
AcDb2dVertex
 10
9.583273347675742
 20
12.21424983997505
 30
0.0
  0
SEQEND
  5
718
330
712
100
AcDbEntity
  8
Livello 1
  0
POLYLINE
  5
719
330
1F
100
AcDbEntity
  8
Livello 1
100
AcDb2dPolyline
 66
     1
 10
0.0
 20
0.0
 30
0.0
  0
VERTEX
  5
71A
330
719
100
AcDbEntity
  8
Livello 1
100
AcDbVertex
100
AcDb2dVertex
 10
9.559636762869928
 20
20.83084813663544
 30
0.0
  0
VERTEX
  5
71B
330
719
100
AcDbEntity
  8
Livello 1
100
AcDbVertex
100
AcDb2dVertex
 10
0.9194032271440875
 20
20.83084813663544
 30
0.0
  0
VERTEX
  5
71C
330
719
100
AcDbEntity
  8
Livello 1
100
AcDbVertex
100
AcDb2dVertex
 10
0.9194032271440875
 20
20.87812130624714
 30
0.0
  0
VERTEX
  5
71D
330
719
100
AcDbEntity
  8
Livello 1
100
AcDbVertex
100
AcDb2dVertex
 10
9.559636762869928
 20
20.87812130624714
 30
0.0
  0
VERTEX
  5
71E
330
719
100
AcDbEntity
  8
Livello 1
100
AcDbVertex
100
AcDb2dVertex
 10
9.559636762869928
 20
20.83084813663544
 30
0.0
  0
SEQEND
  5
71F
330
719
100
AcDbEntity
  8
Livello 1
  0
POLYLINE
  5
720
330
1F
100
AcDbEntity
  8
Livello 1
100
AcDb2dPolyline
 66
     1
 10
0.0
 20
0.0
 30
0.0
  0
VERTEX
  5
721
330
720
100
AcDbEntity
  8
Livello 1
100
AcDbVertex
100
AcDb2dVertex
 10
0.9430398119499159
 20
12.21424983997505
 30
0.0
  0
VERTEX
  5
722
330
720
100
AcDbEntity
  8
Livello 1
100
AcDbVertex
100
AcDb2dVertex
 10
0.8957679880786884
 20
12.21424983997505
 30
0.0
  0
VERTEX
  5
723
330
720
100
AcDbEntity
  8
Livello 1
100
AcDbVertex
100
AcDb2dVertex
 10
0.8957679880786884
 20
20.85448202996045
 30
0.0
  0
VERTEX
  5
724
330
720
100
AcDbEntity
  8
Livello 1
100
AcDbVertex
100
AcDb2dVertex
 10
0.9430398119499159
 20
20.85448202996045
 30
0.0
  0
VERTEX
  5
725
330
720
100
AcDbEntity
  8
Livello 1
100
AcDbVertex
100
AcDb2dVertex
 10
0.9430398119499159
 20
12.21424983997505
 30
0.0
  0
SEQEND
  5
726
330
720
100
AcDbEntity
  8
Livello 1
  0
POLYLINE
  5
727
330
1F
100
AcDbEntity
  8
Livello 1
100
AcDb2dPolyline
 66
     1
 10
0.0
 20
0.0
 30
0.0
  0
VERTEX
  5
728
330
727
100
AcDbEntity
  8
Livello 1
100
AcDbVertex
100
AcDb2dVertex
 10
0.8156870126721287
 20
17.32282582916285
 30
0.0
  0
VERTEX
  5
729
330
727
100
AcDbEntity
  8
Livello 1
100
AcDbVertex
100
AcDb2dVertex
 10
0.7292568339454988
 20
17.32282582916285
 30
0.0
  0
VERTEX
  5
72A
330
727
100
AcDbEntity
  8
Livello 1
100
AcDbVertex
100
AcDb2dVertex
 10
0.7292568339454988
 20
17.37009899877455
 30
0.0
  0
VERTEX
  5
72B
330
727
100
AcDbEntity
  8
Livello 1
100
AcDbVertex
100
AcDb2dVertex
 10
0.8156870126721287
 20
17.37009899877455
 30
0.0
  0
VERTEX
  5
72C
330
727
100
AcDbEntity
  8
Livello 1
100
AcDbVertex
100
AcDb2dVertex
 10
0.8156870126721287
 20
17.32282582916285
 30
0.0
  0
SEQEND
  5
72D
330
727
100
AcDbEntity
  8
Livello 1
  0
POLYLINE
  5
72E
330
1F
100
AcDbEntity
  8
Livello 1
100
AcDb2dPolyline
 66
     1
 10
0.0
 20
0.0
 30
0.0
  0
VERTEX
  5
72F
330
72E
100
AcDbEntity
  8
Livello 1
100
AcDbVertex
100
AcDb2dVertex
 10
0.8005164808732132
 20
16.49097522647906
 30
0.0
  0
VERTEX
  5
730
330
72E
100
AcDbEntity
  8
Livello 1
100
AcDbVertex
100
AcDb2dVertex
 10
0.7532446570019858
 20
16.49097522647906
 30
0.0
  0
VERTEX
  5
731
330
72E
100
AcDbEntity
  8
Livello 1
100
AcDbVertex
100
AcDb2dVertex
 10
0.7532446570019858
 20
16.71569503690874
 30
0.0
  0
VERTEX
  5
732
330
72E
100
AcDbEntity
  8
Livello 1
100
AcDbVertex
100
AcDb2dVertex
 10
0.8005164808732132
 20
16.71569503690874
 30
0.0
  0
VERTEX
  5
733
330
72E
100
AcDbEntity
  8
Livello 1
100
AcDbVertex
100
AcDb2dVertex
 10
0.8005164808732132
 20
16.49097522647906
 30
0.0
  0
SEQEND
  5
734
330
72E
100
AcDbEntity
  8
Livello 1
  0
POLYLINE
  5
735
330
1F
100
AcDbEntity
  8
Livello 1
100
AcDb2dPolyline
 66
     1
 10
0.0
 20
0.0
 30
0.0
  0
VERTEX
  5
736
330
735
100
AcDbEntity
  8
Livello 1
100
AcDbVertex
100
AcDb2dVertex
 10
0.8005164808732132
 20
16.10221504133456
 30
0.0
  0
VERTEX
  5
737
330
735
100
AcDbEntity
  8
Livello 1
100
AcDbVertex
100
AcDb2dVertex
 10
0.7532446570019858
 20
16.10221504133456
 30
0.0
  0
VERTEX
  5
738
330
735
100
AcDbEntity
  8
Livello 1
100
AcDbVertex
100
AcDb2dVertex
 10
0.7532446570019858
 20
16.32693485176425
 30
0.0
  0
VERTEX
  5
739
330
735
100
AcDbEntity
  8
Livello 1
100
AcDbVertex
100
AcDb2dVertex
 10
0.8005164808732132
 20
16.32693485176425
 30
0.0
  0
VERTEX
  5
73A
330
735
100
AcDbEntity
  8
Livello 1
100
AcDbVertex
100
AcDb2dVertex
 10
0.8005164808732132
 20
16.10221504133456
 30
0.0
  0
SEQEND
  5
73B
330
735
100
AcDbEntity
  8
Livello 1
  0
POLYLINE
  5
73C
330
1F
100
AcDbEntity
  8
Livello 1
100
AcDb2dPolyline
 66
     1
 10
0.0
 20
0.0
 30
0.0
  0
VERTEX
  5
73D
330
73C
100
AcDbEntity
  8
Livello 1
100
AcDbVertex
100
AcDb2dVertex
 10
0.8005164808732132
 20
16.87973810310444
 30
0.0
  0
VERTEX
  5
73E
330
73C
100
AcDbEntity
  8
Livello 1
100
AcDbVertex
100
AcDb2dVertex
 10
0.7532446570019858
 20
16.87973810310444
 30
0.0
  0
VERTEX
  5
73F
330
73C
100
AcDbEntity
  8
Livello 1
100
AcDbVertex
100
AcDb2dVertex
 10
0.7532446570019858
 20
17.10445791353414
 30
0.0
  0
VERTEX
  5
740
330
73C
100
AcDbEntity
  8
Livello 1
100
AcDbVertex
100
AcDb2dVertex
 10
0.8005164808732132
 20
17.10445791353414
 30
0.0
  0
VERTEX
  5
741
330
73C
100
AcDbEntity
  8
Livello 1
100
AcDbVertex
100
AcDb2dVertex
 10
0.8005164808732132
 20
16.87973810310444
 30
0.0
  0
SEQEND
  5
742
330
73C
100
AcDbEntity
  8
Livello 1
  0
POLYLINE
  5
743
330
1F
100
AcDbEntity
  8
Livello 1
100
AcDb2dPolyline
 66
     1
 10
0.0
 20
0.0
 30
0.0
  0
VERTEX
  5
744
330
743
100
AcDbEntity
  8
Livello 1
100
AcDbVertex
100
AcDb2dVertex
 10
0.8671925359170273
 20
16.85610151829864
 30
0.0
  0
VERTEX
  5
745
330
743
100
AcDbEntity
  8
Livello 1
100
AcDbVertex
100
AcDb2dVertex
 10
0.7765286578167548
 20
16.85610151829864
 30
0.0
  0
VERTEX
  5
746
330
743
100
AcDbEntity
  8
Livello 1
100
AcDbVertex
100
AcDb2dVertex
 10
0.7765286578167548
 20
16.90337468791024
 30
0.0
  0
VERTEX
  5
747
330
743
100
AcDbEntity
  8
Livello 1
100
AcDbVertex
100
AcDb2dVertex
 10
0.8671925359170273
 20
16.90337468791024
 30
0.0
  0
VERTEX
  5
748
330
743
100
AcDbEntity
  8
Livello 1
100
AcDbVertex
100
AcDb2dVertex
 10
0.8671925359170273
 20
16.85610151829864
 30
0.0
  0
SEQEND
  5
749
330
743
100
AcDbEntity
  8
Livello 1
  0
POLYLINE
  5
74A
330
1F
100
AcDbEntity
  8
Livello 1
100
AcDb2dPolyline
 66
     1
 10
0.0
 20
0.0
 30
0.0
  0
VERTEX
  5
74B
330
74A
100
AcDbEntity
  8
Livello 1
100
AcDbVertex
100
AcDb2dVertex
 10
0.8671925359170273
 20
17.08082132872825
 30
0.0
  0
VERTEX
  5
74C
330
74A
100
AcDbEntity
  8
Livello 1
100
AcDbVertex
100
AcDb2dVertex
 10
0.7765286578167548
 20
17.08082132872825
 30
0.0
  0
VERTEX
  5
74D
330
74A
100
AcDbEntity
  8
Livello 1
100
AcDbVertex
100
AcDb2dVertex
 10
0.7765286578167548
 20
17.12809449833995
 30
0.0
  0
VERTEX
  5
74E
330
74A
100
AcDbEntity
  8
Livello 1
100
AcDbVertex
100
AcDb2dVertex
 10
0.8671925359170273
 20
17.12809449833995
 30
0.0
  0
VERTEX
  5
74F
330
74A
100
AcDbEntity
  8
Livello 1
100
AcDbVertex
100
AcDb2dVertex
 10
0.8671925359170273
 20
17.08082132872825
 30
0.0
  0
SEQEND
  5
750
330
74A
100
AcDbEntity
  8
Livello 1
  0
POLYLINE
  5
751
330
1F
100
AcDbEntity
  8
Livello 1
100
AcDb2dPolyline
 66
     1
 10
0.0
 20
0.0
 30
0.0
  0
VERTEX
  5
752
330
751
100
AcDbEntity
  8
Livello 1
100
AcDbVertex
100
AcDb2dVertex
 10
0.8908277749824691
 20
17.08082132872825
 30
0.0
  0
VERTEX
  5
753
330
751
100
AcDbEntity
  8
Livello 1
100
AcDbVertex
100
AcDb2dVertex
 10
0.8671911901766407
 20
17.08082132872825
 30
0.0
  0
VERTEX
  5
754
330
751
100
AcDbEntity
  8
Livello 1
100
AcDbVertex
100
AcDb2dVertex
 10
0.8671911901766407
 20
17.12809449833995
 30
0.0
  0
VERTEX
  5
755
330
751
100
AcDbEntity
  8
Livello 1
100
AcDbVertex
100
AcDb2dVertex
 10
0.8908277749824691
 20
17.12809449833995
 30
0.0
  0
VERTEX
  5
756
330
751
100
AcDbEntity
  8
Livello 1
100
AcDbVertex
100
AcDb2dVertex
 10
0.8908277749824691
 20
17.08082132872825
 30
0.0
  0
SEQEND
  5
757
330
751
100
AcDbEntity
  8
Livello 1
  0
POLYLINE
  5
758
330
1F
100
AcDbEntity
  8
Livello 1
100
AcDb2dPolyline
 66
     1
 10
0.0
 20
0.0
 30
0.0
  0
VERTEX
  5
759
330
758
100
AcDbEntity
  8
Livello 1
100
AcDbVertex
100
AcDb2dVertex
 10
0.8908277749824691
 20
16.85610151829864
 30
0.0
  0
VERTEX
  5
75A
330
758
100
AcDbEntity
  8
Livello 1
100
AcDbVertex
100
AcDb2dVertex
 10
0.8671911901766407
 20
16.85610151829864
 30
0.0
  0
VERTEX
  5
75B
330
758
100
AcDbEntity
  8
Livello 1
100
AcDbVertex
100
AcDb2dVertex
 10
0.8671911901766407
 20
16.90337468791024
 30
0.0
  0
VERTEX
  5
75C
330
758
100
AcDbEntity
  8
Livello 1
100
AcDbVertex
100
AcDb2dVertex
 10
0.8908277749824691
 20
16.90337468791024
 30
0.0
  0
VERTEX
  5
75D
330
758
100
AcDbEntity
  8
Livello 1
100
AcDbVertex
100
AcDb2dVertex
 10
0.8908277749824691
 20
16.85610151829864
 30
0.0
  0
SEQEND
  5
75E
330
758
100
AcDbEntity
  8
Livello 1
  0
POLYLINE
  5
75F
330
1F
100
AcDbEntity
  8
Livello 1
100
AcDb2dPolyline
 66
     1
 10
0.0
 20
0.0
 30
0.0
  0
VERTEX
  5
760
330
75F
100
AcDbEntity
  8
Livello 1
100
AcDbVertex
100
AcDb2dVertex
 10
0.8908277749824691
 20
16.30329826695843
 30
0.0
  0
VERTEX
  5
761
330
75F
100
AcDbEntity
  8
Livello 1
100
AcDbVertex
100
AcDb2dVertex
 10
0.8671911901766407
 20
16.30329826695843
 30
0.0
  0
VERTEX
  5
762
330
75F
100
AcDbEntity
  8
Livello 1
100
AcDbVertex
100
AcDb2dVertex
 10
0.8671911901766407
 20
16.35057143657006
 30
0.0
  0
VERTEX
  5
763
330
75F
100
AcDbEntity
  8
Livello 1
100
AcDbVertex
100
AcDb2dVertex
 10
0.8908277749824691
 20
16.35057143657006
 30
0.0
  0
VERTEX
  5
764
330
75F
100
AcDbEntity
  8
Livello 1
100
AcDbVertex
100
AcDb2dVertex
 10
0.8908277749824691
 20
16.30329826695843
 30
0.0
  0
SEQEND
  5
765
330
75F
100
AcDbEntity
  8
Livello 1
  0
POLYLINE
  5
766
330
1F
100
AcDbEntity
  8
Livello 1
100
AcDb2dPolyline
 66
     1
 10
0.0
 20
0.0
 30
0.0
  0
VERTEX
  5
767
330
766
100
AcDbEntity
  8
Livello 1
100
AcDbVertex
100
AcDb2dVertex
 10
0.8671925359170273
 20
16.30329826695843
 30
0.0
  0
VERTEX
  5
768
330
766
100
AcDbEntity
  8
Livello 1
100
AcDbVertex
100
AcDb2dVertex
 10
0.7765286578167548
 20
16.30329826695843
 30
0.0
  0
VERTEX
  5
769
330
766
100
AcDbEntity
  8
Livello 1
100
AcDbVertex
100
AcDb2dVertex
 10
0.7765286578167548
 20
16.35057143657006
 30
0.0
  0
VERTEX
  5
76A
330
766
100
AcDbEntity
  8
Livello 1
100
AcDbVertex
100
AcDb2dVertex
 10
0.8671925359170273
 20
16.35057143657006
 30
0.0
  0
VERTEX
  5
76B
330
766
100
AcDbEntity
  8
Livello 1
100
AcDbVertex
100
AcDb2dVertex
 10
0.8671925359170273
 20
16.30329826695843
 30
0.0
  0
SEQEND
  5
76C
330
766
100
AcDbEntity
  8
Livello 1
  0
POLYLINE
  5
76D
330
1F
100
AcDbEntity
  8
Livello 1
100
AcDb2dPolyline
 66
     1
 10
0.0
 20
0.0
 30
0.0
  0
VERTEX
  5
76E
330
76D
100
AcDbEntity
  8
Livello 1
100
AcDbVertex
100
AcDb2dVertex
 10
0.9194032271440875
 20
16.30329826695843
 30
0.0
  0
VERTEX
  5
76F
330
76D
100
AcDbEntity
  8
Livello 1
100
AcDbVertex
100
AcDb2dVertex
 10
0.8908277749824691
 20
16.30329826695843
 30
0.0
  0
VERTEX
  5
770
330
76D
100
AcDbEntity
  8
Livello 1
100
AcDbVertex
100
AcDb2dVertex
 10
0.8908277749824691
 20
16.35057143657006
 30
0.0
  0
VERTEX
  5
771
330
76D
100
AcDbEntity
  8
Livello 1
100
AcDbVertex
100
AcDb2dVertex
 10
0.9194032271440875
 20
16.35057143657006
 30
0.0
  0
VERTEX
  5
772
330
76D
100
AcDbEntity
  8
Livello 1
100
AcDbVertex
100
AcDb2dVertex
 10
0.9194032271440875
 20
16.30329826695843
 30
0.0
  0
SEQEND
  5
773
330
76D
100
AcDbEntity
  8
Livello 1
  0
POLYLINE
  5
774
330
1F
100
AcDbEntity
  8
Livello 1
100
AcDb2dPolyline
 66
     1
 10
0.0
 20
0.0
 30
0.0
  0
VERTEX
  5
775
330
774
100
AcDbEntity
  8
Livello 1
100
AcDbVertex
100
AcDb2dVertex
 10
0.9194032271440875
 20
17.08082132872825
 30
0.0
  0
VERTEX
  5
776
330
774
100
AcDbEntity
  8
Livello 1
100
AcDbVertex
100
AcDb2dVertex
 10
0.8908277749824691
 20
17.08082132872825
 30
0.0
  0
VERTEX
  5
777
330
774
100
AcDbEntity
  8
Livello 1
100
AcDbVertex
100
AcDb2dVertex
 10
0.8908277749824691
 20
17.12809449833995
 30
0.0
  0
VERTEX
  5
778
330
774
100
AcDbEntity
  8
Livello 1
100
AcDbVertex
100
AcDb2dVertex
 10
0.9194032271440875
 20
17.12809449833995
 30
0.0
  0
VERTEX
  5
779
330
774
100
AcDbEntity
  8
Livello 1
100
AcDbVertex
100
AcDb2dVertex
 10
0.9194032271440875
 20
17.08082132872825
 30
0.0
  0
SEQEND
  5
77A
330
774
100
AcDbEntity
  8
Livello 1
  0
POLYLINE
  5
77B
330
1F
100
AcDbEntity
  8
Livello 1
100
AcDb2dPolyline
 66
     1
 10
0.0
 20
0.0
 30
0.0
  0
VERTEX
  5
77C
330
77B
100
AcDbEntity
  8
Livello 1
100
AcDbVertex
100
AcDb2dVertex
 10
0.9194032271440875
 20
16.85610151829864
 30
0.0
  0
VERTEX
  5
77D
330
77B
100
AcDbEntity
  8
Livello 1
100
AcDbVertex
100
AcDb2dVertex
 10
0.8908277749824691
 20
16.85610151829864
 30
0.0
  0
VERTEX
  5
77E
330
77B
100
AcDbEntity
  8
Livello 1
100
AcDbVertex
100
AcDb2dVertex
 10
0.8908277749824691
 20
16.90337468791024
 30
0.0
  0
VERTEX
  5
77F
330
77B
100
AcDbEntity
  8
Livello 1
100
AcDbVertex
100
AcDb2dVertex
 10
0.9194032271440875
 20
16.90337468791024
 30
0.0
  0
VERTEX
  5
780
330
77B
100
AcDbEntity
  8
Livello 1
100
AcDbVertex
100
AcDb2dVertex
 10
0.9194032271440875
 20
16.85610151829864
 30
0.0
  0
SEQEND
  5
781
330
77B
100
AcDbEntity
  8
Livello 1
  0
POLYLINE
  5
782
330
1F
100
AcDbEntity
  8
Livello 1
100
AcDb2dPolyline
 66
     1
 10
0.0
 20
0.0
 30
0.0
  0
VERTEX
  5
783
330
782
100
AcDbEntity
  8
Livello 1
100
AcDbVertex
100
AcDb2dVertex
 10
0.8908277749824691
 20
16.46733864167325
 30
0.0
  0
VERTEX
  5
784
330
782
100
AcDbEntity
  8
Livello 1
100
AcDbVertex
100
AcDb2dVertex
 10
0.8671911901766407
 20
16.46733864167325
 30
0.0
  0
VERTEX
  5
785
330
782
100
AcDbEntity
  8
Livello 1
100
AcDbVertex
100
AcDb2dVertex
 10
0.8671911901766407
 20
16.51461181128495
 30
0.0
  0
VERTEX
  5
786
330
782
100
AcDbEntity
  8
Livello 1
100
AcDbVertex
100
AcDb2dVertex
 10
0.8908277749824691
 20
16.51461181128495
 30
0.0
  0
VERTEX
  5
787
330
782
100
AcDbEntity
  8
Livello 1
100
AcDbVertex
100
AcDb2dVertex
 10
0.8908277749824691
 20
16.46733864167325
 30
0.0
  0
SEQEND
  5
788
330
782
100
AcDbEntity
  8
Livello 1
  0
POLYLINE
  5
789
330
1F
100
AcDbEntity
  8
Livello 1
100
AcDb2dPolyline
 66
     1
 10
0.0
 20
0.0
 30
0.0
  0
VERTEX
  5
78A
330
789
100
AcDbEntity
  8
Livello 1
100
AcDbVertex
100
AcDb2dVertex
 10
0.9194032271440875
 20
16.46733864167325
 30
0.0
  0
VERTEX
  5
78B
330
789
100
AcDbEntity
  8
Livello 1
100
AcDbVertex
100
AcDb2dVertex
 10
0.8908277749824691
 20
16.46733864167325
 30
0.0
  0
VERTEX
  5
78C
330
789
100
AcDbEntity
  8
Livello 1
100
AcDbVertex
100
AcDb2dVertex
 10
0.8908277749824691
 20
16.51461181128495
 30
0.0
  0
VERTEX
  5
78D
330
789
100
AcDbEntity
  8
Livello 1
100
AcDbVertex
100
AcDb2dVertex
 10
0.9194032271440875
 20
16.51461181128495
 30
0.0
  0
VERTEX
  5
78E
330
789
100
AcDbEntity
  8
Livello 1
100
AcDbVertex
100
AcDb2dVertex
 10
0.9194032271440875
 20
16.46733864167325
 30
0.0
  0
SEQEND
  5
78F
330
789
100
AcDbEntity
  8
Livello 1
  0
POLYLINE
  5
790
330
1F
100
AcDbEntity
  8
Livello 1
100
AcDb2dPolyline
 66
     1
 10
0.0
 20
0.0
 30
0.0
  0
VERTEX
  5
791
330
790
100
AcDbEntity
  8
Livello 1
100
AcDbVertex
100
AcDb2dVertex
 10
0.8671925359170273
 20
16.46733864167325
 30
0.0
  0
VERTEX
  5
792
330
790
100
AcDbEntity
  8
Livello 1
100
AcDbVertex
100
AcDb2dVertex
 10
0.7765286578167548
 20
16.46733864167325
 30
0.0
  0
VERTEX
  5
793
330
790
100
AcDbEntity
  8
Livello 1
100
AcDbVertex
100
AcDb2dVertex
 10
0.7765286578167548
 20
16.51461181128495
 30
0.0
  0
VERTEX
  5
794
330
790
100
AcDbEntity
  8
Livello 1
100
AcDbVertex
100
AcDb2dVertex
 10
0.8671925359170273
 20
16.51461181128495
 30
0.0
  0
VERTEX
  5
795
330
790
100
AcDbEntity
  8
Livello 1
100
AcDbVertex
100
AcDb2dVertex
 10
0.8671925359170273
 20
16.46733864167325
 30
0.0
  0
SEQEND
  5
796
330
790
100
AcDbEntity
  8
Livello 1
  0
POLYLINE
  5
797
330
1F
100
AcDbEntity
  8
Livello 1
100
AcDb2dPolyline
 66
     1
 10
0.0
 20
0.0
 30
0.0
  0
VERTEX
  5
798
330
797
100
AcDbEntity
  8
Livello 1
100
AcDbVertex
100
AcDb2dVertex
 10
0.8908277749824691
 20
16.69205845210292
 30
0.0
  0
VERTEX
  5
799
330
797
100
AcDbEntity
  8
Livello 1
100
AcDbVertex
100
AcDb2dVertex
 10
0.8671911901766407
 20
16.69205845210292
 30
0.0
  0
VERTEX
  5
79A
330
797
100
AcDbEntity
  8
Livello 1
100
AcDbVertex
100
AcDb2dVertex
 10
0.8671911901766407
 20
16.73933162171464
 30
0.0
  0
VERTEX
  5
79B
330
797
100
AcDbEntity
  8
Livello 1
100
AcDbVertex
100
AcDb2dVertex
 10
0.8908277749824691
 20
16.73933162171464
 30
0.0
  0
VERTEX
  5
79C
330
797
100
AcDbEntity
  8
Livello 1
100
AcDbVertex
100
AcDb2dVertex
 10
0.8908277749824691
 20
16.69205845210292
 30
0.0
  0
SEQEND
  5
79D
330
797
100
AcDbEntity
  8
Livello 1
  0
POLYLINE
  5
79E
330
1F
100
AcDbEntity
  8
Livello 1
100
AcDb2dPolyline
 66
     1
 10
0.0
 20
0.0
 30
0.0
  0
VERTEX
  5
79F
330
79E
100
AcDbEntity
  8
Livello 1
100
AcDbVertex
100
AcDb2dVertex
 10
0.9194032271440875
 20
16.69205845210292
 30
0.0
  0
VERTEX
  5
7A0
330
79E
100
AcDbEntity
  8
Livello 1
100
AcDbVertex
100
AcDb2dVertex
 10
0.8908277749824691
 20
16.69205845210292
 30
0.0
  0
VERTEX
  5
7A1
330
79E
100
AcDbEntity
  8
Livello 1
100
AcDbVertex
100
AcDb2dVertex
 10
0.8908277749824691
 20
16.73933162171464
 30
0.0
  0
VERTEX
  5
7A2
330
79E
100
AcDbEntity
  8
Livello 1
100
AcDbVertex
100
AcDb2dVertex
 10
0.9194032271440875
 20
16.73933162171464
 30
0.0
  0
VERTEX
  5
7A3
330
79E
100
AcDbEntity
  8
Livello 1
100
AcDbVertex
100
AcDb2dVertex
 10
0.9194032271440875
 20
16.69205845210292
 30
0.0
  0
SEQEND
  5
7A4
330
79E
100
AcDbEntity
  8
Livello 1
  0
POLYLINE
  5
7A5
330
1F
100
AcDbEntity
  8
Livello 1
100
AcDb2dPolyline
 66
     1
 10
0.0
 20
0.0
 30
0.0
  0
VERTEX
  5
7A6
330
7A5
100
AcDbEntity
  8
Livello 1
100
AcDbVertex
100
AcDb2dVertex
 10
0.8671925359170273
 20
16.69205845210292
 30
0.0
  0
VERTEX
  5
7A7
330
7A5
100
AcDbEntity
  8
Livello 1
100
AcDbVertex
100
AcDb2dVertex
 10
0.7765286578167548
 20
16.69205845210292
 30
0.0
  0
VERTEX
  5
7A8
330
7A5
100
AcDbEntity
  8
Livello 1
100
AcDbVertex
100
AcDb2dVertex
 10
0.7765286578167548
 20
16.73933162171464
 30
0.0
  0
VERTEX
  5
7A9
330
7A5
100
AcDbEntity
  8
Livello 1
100
AcDbVertex
100
AcDb2dVertex
 10
0.8671925359170273
 20
16.73933162171464
 30
0.0
  0
VERTEX
  5
7AA
330
7A5
100
AcDbEntity
  8
Livello 1
100
AcDbVertex
100
AcDb2dVertex
 10
0.8671925359170273
 20
16.69205845210292
 30
0.0
  0
SEQEND
  5
7AB
330
7A5
100
AcDbEntity
  8
Livello 1
  0
POLYLINE
  5
7AC
330
1F
100
AcDbEntity
  8
Livello 1
100
AcDb2dPolyline
 66
     1
 10
0.0
 20
0.0
 30
0.0
  0
VERTEX
  5
7AD
330
7AC
100
AcDbEntity
  8
Livello 1
100
AcDbVertex
100
AcDb2dVertex
 10
0.8908277749824691
 20
16.07857845652874
 30
0.0
  0
VERTEX
  5
7AE
330
7AC
100
AcDbEntity
  8
Livello 1
100
AcDbVertex
100
AcDb2dVertex
 10
0.8671911901766407
 20
16.07857845652874
 30
0.0
  0
VERTEX
  5
7AF
330
7AC
100
AcDbEntity
  8
Livello 1
100
AcDbVertex
100
AcDb2dVertex
 10
0.8671911901766407
 20
16.12585162614044
 30
0.0
  0
VERTEX
  5
7B0
330
7AC
100
AcDbEntity
  8
Livello 1
100
AcDbVertex
100
AcDb2dVertex
 10
0.8908277749824691
 20
16.12585162614044
 30
0.0
  0
VERTEX
  5
7B1
330
7AC
100
AcDbEntity
  8
Livello 1
100
AcDbVertex
100
AcDb2dVertex
 10
0.8908277749824691
 20
16.07857845652874
 30
0.0
  0
SEQEND
  5
7B2
330
7AC
100
AcDbEntity
  8
Livello 1
  0
POLYLINE
  5
7B3
330
1F
100
AcDbEntity
  8
Livello 1
100
AcDb2dPolyline
 66
     1
 10
0.0
 20
0.0
 30
0.0
  0
VERTEX
  5
7B4
330
7B3
100
AcDbEntity
  8
Livello 1
100
AcDbVertex
100
AcDb2dVertex
 10
0.9194032271440875
 20
16.07857845652874
 30
0.0
  0
VERTEX
  5
7B5
330
7B3
100
AcDbEntity
  8
Livello 1
100
AcDbVertex
100
AcDb2dVertex
 10
0.8908277749824691
 20
16.07857845652874
 30
0.0
  0
VERTEX
  5
7B6
330
7B3
100
AcDbEntity
  8
Livello 1
100
AcDbVertex
100
AcDb2dVertex
 10
0.8908277749824691
 20
16.12585162614044
 30
0.0
  0
VERTEX
  5
7B7
330
7B3
100
AcDbEntity
  8
Livello 1
100
AcDbVertex
100
AcDb2dVertex
 10
0.9194032271440875
 20
16.12585162614044
 30
0.0
  0
VERTEX
  5
7B8
330
7B3
100
AcDbEntity
  8
Livello 1
100
AcDbVertex
100
AcDb2dVertex
 10
0.9194032271440875
 20
16.07857845652874
 30
0.0
  0
SEQEND
  5
7B9
330
7B3
100
AcDbEntity
  8
Livello 1
  0
POLYLINE
  5
7BA
330
1F
100
AcDbEntity
  8
Livello 1
100
AcDb2dPolyline
 66
     1
 10
0.0
 20
0.0
 30
0.0
  0
VERTEX
  5
7BB
330
7BA
100
AcDbEntity
  8
Livello 1
100
AcDbVertex
100
AcDb2dVertex
 10
0.8671925359170273
 20
16.07857845652874
 30
0.0
  0
VERTEX
  5
7BC
330
7BA
100
AcDbEntity
  8
Livello 1
100
AcDbVertex
100
AcDb2dVertex
 10
0.7765286578167548
 20
16.07857845652874
 30
0.0
  0
VERTEX
  5
7BD
330
7BA
100
AcDbEntity
  8
Livello 1
100
AcDbVertex
100
AcDb2dVertex
 10
0.7765286578167548
 20
16.12585162614044
 30
0.0
  0
VERTEX
  5
7BE
330
7BA
100
AcDbEntity
  8
Livello 1
100
AcDbVertex
100
AcDb2dVertex
 10
0.8671925359170273
 20
16.12585162614044
 30
0.0
  0
VERTEX
  5
7BF
330
7BA
100
AcDbEntity
  8
Livello 1
100
AcDbVertex
100
AcDb2dVertex
 10
0.8671925359170273
 20
16.07857845652874
 30
0.0
  0
SEQEND
  5
7C0
330
7BA
100
AcDbEntity
  8
Livello 1
  0
POLYLINE
  5
7C1
330
1F
100
AcDbEntity
  8
Livello 1
100
AcDb2dPolyline
 66
     1
 10
0.0
 20
0.0
 30
0.0
  0
VERTEX
  5
7C2
330
7C1
100
AcDbEntity
  8
Livello 1
100
AcDbVertex
100
AcDb2dVertex
 10
0.9194032271440875
 20
15.81928657460844
 30
0.0
  0
VERTEX
  5
7C3
330
7C1
100
AcDbEntity
  8
Livello 1
100
AcDbVertex
100
AcDb2dVertex
 10
0.856255703491783
 20
15.81928657460844
 30
0.0
  0
VERTEX
  5
7C4
330
7C1
100
AcDbEntity
  8
Livello 1
100
AcDbVertex
100
AcDb2dVertex
 10
0.856255703491783
 20
15.86655974422014
 30
0.0
  0
VERTEX
  5
7C5
330
7C1
100
AcDbEntity
  8
Livello 1
100
AcDbVertex
100
AcDb2dVertex
 10
0.9194032271440875
 20
15.86655974422014
 30
0.0
  0
VERTEX
  5
7C6
330
7C1
100
AcDbEntity
  8
Livello 1
100
AcDbVertex
100
AcDb2dVertex
 10
0.9194032271440875
 20
15.81928657460844
 30
0.0
  0
SEQEND
  5
7C7
330
7C1
100
AcDbEntity
  8
Livello 1
  0
POLYLINE
  5
7C8
330
1F
100
AcDbEntity
  8
Livello 1
100
AcDb2dPolyline
 66
     1
 10
0.0
 20
0.0
 30
0.0
  0
VERTEX
  5
7C9
330
7C8
100
AcDbEntity
  8
Livello 1
100
AcDbVertex
100
AcDb2dVertex
 10
0.7186725855113139
 20
15.81928657460844
 30
0.0
  0
VERTEX
  5
7CA
330
7C8
100
AcDbEntity
  8
Livello 1
100
AcDbVertex
100
AcDb2dVertex
 10
0.5652137677498246
 20
15.81928657460844
 30
0.0
  0
VERTEX
  5
7CB
330
7C8
100
AcDbEntity
  8
Livello 1
100
AcDbVertex
100
AcDb2dVertex
 10
0.5652137677498246
 20
15.86655974422014
 30
0.0
  0
VERTEX
  5
7CC
330
7C8
100
AcDbEntity
  8
Livello 1
100
AcDbVertex
100
AcDb2dVertex
 10
0.7186725855113139
 20
15.86655974422014
 30
0.0
  0
VERTEX
  5
7CD
330
7C8
100
AcDbEntity
  8
Livello 1
100
AcDbVertex
100
AcDb2dVertex
 10
0.7186725855113139
 20
15.81928657460844
 30
0.0
  0
SEQEND
  5
7CE
330
7C8
100
AcDbEntity
  8
Livello 1
  0
POLYLINE
  5
7CF
330
1F
100
AcDbEntity
  8
Livello 1
100
AcDb2dPolyline
 66
     1
 10
0.0
 20
0.0
 30
0.0
  0
VERTEX
  5
7D0
330
7CF
100
AcDbEntity
  8
Livello 1
100
AcDbVertex
100
AcDb2dVertex
 10
0.8156870126721287
 20
15.81928657460844
 30
0.0
  0
VERTEX
  5
7D1
330
7CF
100
AcDbEntity
  8
Livello 1
100
AcDbVertex
100
AcDb2dVertex
 10
0.7292568339454988
 20
15.81928657460844
 30
0.0
  0
VERTEX
  5
7D2
330
7CF
100
AcDbEntity
  8
Livello 1
100
AcDbVertex
100
AcDb2dVertex
 10
0.7292568339454988
 20
15.86655974422014
 30
0.0
  0
VERTEX
  5
7D3
330
7CF
100
AcDbEntity
  8
Livello 1
100
AcDbVertex
100
AcDb2dVertex
 10
0.8156870126721287
 20
15.86655974422014
 30
0.0
  0
VERTEX
  5
7D4
330
7CF
100
AcDbEntity
  8
Livello 1
100
AcDbVertex
100
AcDb2dVertex
 10
0.8156870126721287
 20
15.81928657460844
 30
0.0
  0
SEQEND
  5
7D5
330
7CF
100
AcDbEntity
  8
Livello 1
  0
POLYLINE
  5
7D6
330
1F
100
AcDbEntity
  8
Livello 1
100
AcDb2dPolyline
 66
     1
 10
0.0
 20
0.0
 30
0.0
  0
VERTEX
  5
7D7
330
7D6
100
AcDbEntity
  8
Livello 1
100
AcDbVertex
100
AcDb2dVertex
 10
0.8484948184670031
 20
15.81928657460844
 30
0.0
  0
VERTEX
  5
7D8
330
7D6
100
AcDbEntity
  8
Livello 1
100
AcDbVertex
100
AcDb2dVertex
 10
0.8248582336611747
 20
15.81928657460844
 30
0.0
  0
VERTEX
  5
7D9
330
7D6
100
AcDbEntity
  8
Livello 1
100
AcDbVertex
100
AcDb2dVertex
 10
0.8248582336611747
 20
15.86655974422014
 30
0.0
  0
VERTEX
  5
7DA
330
7D6
100
AcDbEntity
  8
Livello 1
100
AcDbVertex
100
AcDb2dVertex
 10
0.8484948184670031
 20
15.86655974422014
 30
0.0
  0
VERTEX
  5
7DB
330
7D6
100
AcDbEntity
  8
Livello 1
100
AcDbVertex
100
AcDb2dVertex
 10
0.8484948184670031
 20
15.81928657460844
 30
0.0
  0
SEQEND
  5
7DC
330
7D6
100
AcDbEntity
  8
Livello 1
  0
POLYLINE
  5
7DD
330
1F
100
AcDbEntity
  8
Livello 1
100
AcDb2dPolyline
 66
     1
 10
0.0
 20
0.0
 30
0.0
  0
VERTEX
  5
7DE
330
7DD
100
AcDbEntity
  8
Livello 1
100
AcDbVertex
100
AcDb2dVertex
 10
0.7186725855113139
 20
17.32282582916285
 30
0.0
  0
VERTEX
  5
7DF
330
7DD
100
AcDbEntity
  8
Livello 1
100
AcDbVertex
100
AcDb2dVertex
 10
0.5652137677498246
 20
17.32282582916285
 30
0.0
  0
VERTEX
  5
7E0
330
7DD
100
AcDbEntity
  8
Livello 1
100
AcDbVertex
100
AcDb2dVertex
 10
0.5652137677498246
 20
17.37009899877455
 30
0.0
  0
VERTEX
  5
7E1
330
7DD
100
AcDbEntity
  8
Livello 1
100
AcDbVertex
100
AcDb2dVertex
 10
0.7186725855113139
 20
17.37009899877455
 30
0.0
  0
VERTEX
  5
7E2
330
7DD
100
AcDbEntity
  8
Livello 1
100
AcDbVertex
100
AcDb2dVertex
 10
0.7186725855113139
 20
17.32282582916285
 30
0.0
  0
SEQEND
  5
7E3
330
7DD
100
AcDbEntity
  8
Livello 1
  0
POLYLINE
  5
7E4
330
1F
100
AcDbEntity
  8
Livello 1
100
AcDb2dPolyline
 66
     1
 10
0.0
 20
0.0
 30
0.0
  0
VERTEX
  5
7E5
330
7E4
100
AcDbEntity
  8
Livello 1
100
AcDbVertex
100
AcDb2dVertex
 10
0.9194032271440875
 20
17.32282582916285
 30
0.0
  0
VERTEX
  5
7E6
330
7E4
100
AcDbEntity
  8
Livello 1
100
AcDbVertex
100
AcDb2dVertex
 10
0.856255703491783
 20
17.32282582916285
 30
0.0
  0
VERTEX
  5
7E7
330
7E4
100
AcDbEntity
  8
Livello 1
100
AcDbVertex
100
AcDb2dVertex
 10
0.856255703491783
 20
17.37009899877455
 30
0.0
  0
VERTEX
  5
7E8
330
7E4
100
AcDbEntity
  8
Livello 1
100
AcDbVertex
100
AcDb2dVertex
 10
0.9194032271440875
 20
17.37009899877455
 30
0.0
  0
VERTEX
  5
7E9
330
7E4
100
AcDbEntity
  8
Livello 1
100
AcDbVertex
100
AcDb2dVertex
 10
0.9194032271440875
 20
17.32282582916285
 30
0.0
  0
SEQEND
  5
7EA
330
7E4
100
AcDbEntity
  8
Livello 1
  0
POLYLINE
  5
7EB
330
1F
100
AcDbEntity
  8
Livello 1
100
AcDb2dPolyline
 66
     1
 10
0.0
 20
0.0
 30
0.0
  0
VERTEX
  5
7EC
330
7EB
100
AcDbEntity
  8
Livello 1
100
AcDbVertex
100
AcDb2dVertex
 10
0.8484948184670031
 20
17.32282582916285
 30
0.0
  0
VERTEX
  5
7ED
330
7EB
100
AcDbEntity
  8
Livello 1
100
AcDbVertex
100
AcDb2dVertex
 10
0.8262699153658843
 20
17.32282582916285
 30
0.0
  0
VERTEX
  5
7EE
330
7EB
100
AcDbEntity
  8
Livello 1
100
AcDbVertex
100
AcDb2dVertex
 10
0.8262699153658843
 20
17.37009899877455
 30
0.0
  0
VERTEX
  5
7EF
330
7EB
100
AcDbEntity
  8
Livello 1
100
AcDbVertex
100
AcDb2dVertex
 10
0.8484948184670031
 20
17.37009899877455
 30
0.0
  0
VERTEX
  5
7F0
330
7EB
100
AcDbEntity
  8
Livello 1
100
AcDbVertex
100
AcDb2dVertex
 10
0.8484948184670031
 20
17.32282582916285
 30
0.0
  0
SEQEND
  5
7F1
330
7EB
100
AcDbEntity
  8
Livello 1
  0
POLYLINE
  5
7F2
330
1F
100
AcDbEntity
  8
Livello 1
100
AcDb2dPolyline
 66
     1
 10
0.0
 20
0.0
 30
0.0
  0
VERTEX
  5
7F3
330
7F2
100
AcDbEntity
  8
Livello 1
100
AcDbVertex
100
AcDb2dVertex
 10
9.695456960895043
 20
15.69828297865075
 30
0.0
  0
VERTEX
  5
7F4
330
7F2
100
AcDbEntity
  8
Livello 1
100
AcDbVertex
100
AcDb2dVertex
 10
9.621373950557938
 20
15.69828297865075
 30
0.0
  0
VERTEX
  5
7F5
330
7F2
100
AcDbEntity
  8
Livello 1
100
AcDbVertex
100
AcDb2dVertex
 10
9.621373950557938
 20
15.74555614826245
 30
0.0
  0
VERTEX
  5
7F6
330
7F2
100
AcDbEntity
  8
Livello 1
100
AcDbVertex
100
AcDb2dVertex
 10
9.695456960895043
 20
15.74555614826245
 30
0.0
  0
VERTEX
  5
7F7
330
7F2
100
AcDbEntity
  8
Livello 1
100
AcDbVertex
100
AcDb2dVertex
 10
9.695456960895043
 20
15.69828297865075
 30
0.0
  0
SEQEND
  5
7F8
330
7F2
100
AcDbEntity
  8
Livello 1
  0
POLYLINE
  5
7F9
330
1F
100
AcDbEntity
  8
Livello 1
100
AcDb2dPolyline
 66
     1
 10
0.0
 20
0.0
 30
0.0
  0
VERTEX
  5
7FA
330
7F9
100
AcDbEntity
  8
Livello 1
100
AcDbVertex
100
AcDb2dVertex
 10
9.672525544071348
 20
16.35268694051643
 30
0.0
  0
VERTEX
  5
7FB
330
7F9
100
AcDbEntity
  8
Livello 1
100
AcDbVertex
100
AcDb2dVertex
 10
9.625252374459677
 20
16.35268694051643
 30
0.0
  0
VERTEX
  5
7FC
330
7F9
100
AcDbEntity
  8
Livello 1
100
AcDbVertex
100
AcDb2dVertex
 10
9.625252374459677
 20
16.57740675094614
 30
0.0
  0
VERTEX
  5
7FD
330
7F9
100
AcDbEntity
  8
Livello 1
100
AcDbVertex
100
AcDb2dVertex
 10
9.672525544071348
 20
16.57740675094614
 30
0.0
  0
VERTEX
  5
7FE
330
7F9
100
AcDbEntity
  8
Livello 1
100
AcDbVertex
100
AcDb2dVertex
 10
9.672525544071348
 20
16.35268694051643
 30
0.0
  0
SEQEND
  5
7FF
330
7F9
100
AcDbEntity
  8
Livello 1
  0
POLYLINE
  5
800
330
1F
100
AcDbEntity
  8
Livello 1
100
AcDb2dPolyline
 66
     1
 10
0.0
 20
0.0
 30
0.0
  0
VERTEX
  5
801
330
800
100
AcDbEntity
  8
Livello 1
100
AcDbVertex
100
AcDb2dVertex
 10
9.672525544071348
 20
16.74144712566105
 30
0.0
  0
VERTEX
  5
802
330
800
100
AcDbEntity
  8
Livello 1
100
AcDbVertex
100
AcDb2dVertex
 10
9.625252374459677
 20
16.74144712566105
 30
0.0
  0
VERTEX
  5
803
330
800
100
AcDbEntity
  8
Livello 1
100
AcDbVertex
100
AcDb2dVertex
 10
9.625252374459677
 20
16.96616693609064
 30
0.0
  0
VERTEX
  5
804
330
800
100
AcDbEntity
  8
Livello 1
100
AcDbVertex
100
AcDb2dVertex
 10
9.672525544071348
 20
16.96616693609064
 30
0.0
  0
VERTEX
  5
805
330
800
100
AcDbEntity
  8
Livello 1
100
AcDbVertex
100
AcDb2dVertex
 10
9.672525544071348
 20
16.74144712566105
 30
0.0
  0
SEQEND
  5
806
330
800
100
AcDbEntity
  8
Livello 1
  0
POLYLINE
  5
807
330
1F
100
AcDbEntity
  8
Livello 1
100
AcDb2dPolyline
 66
     1
 10
0.0
 20
0.0
 30
0.0
  0
VERTEX
  5
808
330
807
100
AcDbEntity
  8
Livello 1
100
AcDbVertex
100
AcDb2dVertex
 10
9.672525544071348
 20
15.96392675537194
 30
0.0
  0
VERTEX
  5
809
330
807
100
AcDbEntity
  8
Livello 1
100
AcDbVertex
100
AcDb2dVertex
 10
9.625252374459677
 20
15.96392675537194
 30
0.0
  0
VERTEX
  5
80A
330
807
100
AcDbEntity
  8
Livello 1
100
AcDbVertex
100
AcDb2dVertex
 10
9.625252374459677
 20
16.18864656580164
 30
0.0
  0
VERTEX
  5
80B
330
807
100
AcDbEntity
  8
Livello 1
100
AcDbVertex
100
AcDb2dVertex
 10
9.672525544071348
 20
16.18864656580164
 30
0.0
  0
VERTEX
  5
80C
330
807
100
AcDbEntity
  8
Livello 1
100
AcDbVertex
100
AcDb2dVertex
 10
9.672525544071348
 20
15.96392675537194
 30
0.0
  0
SEQEND
  5
80D
330
807
100
AcDbEntity
  8
Livello 1
  0
POLYLINE
  5
80E
330
1F
100
AcDbEntity
  8
Livello 1
100
AcDb2dPolyline
 66
     1
 10
0.0
 20
0.0
 30
0.0
  0
VERTEX
  5
80F
330
80E
100
AcDbEntity
  8
Livello 1
100
AcDbVertex
100
AcDb2dVertex
 10
9.648888959265519
 20
16.16500998099585
 30
0.0
  0
VERTEX
  5
810
330
80E
100
AcDbEntity
  8
Livello 1
100
AcDbVertex
100
AcDb2dVertex
 10
9.569514497581522
 20
16.16500998099585
 30
0.0
  0
VERTEX
  5
811
330
80E
100
AcDbEntity
  8
Livello 1
100
AcDbVertex
100
AcDb2dVertex
 10
9.569514497581522
 20
16.21228315060743
 30
0.0
  0
VERTEX
  5
812
330
80E
100
AcDbEntity
  8
Livello 1
100
AcDbVertex
100
AcDb2dVertex
 10
9.648888959265519
 20
16.21228315060743
 30
0.0
  0
VERTEX
  5
813
330
80E
100
AcDbEntity
  8
Livello 1
100
AcDbVertex
100
AcDb2dVertex
 10
9.648888959265519
 20
16.16500998099585
 30
0.0
  0
SEQEND
  5
814
330
80E
100
AcDbEntity
  8
Livello 1
  0
POLYLINE
  5
815
330
1F
100
AcDbEntity
  8
Livello 1
100
AcDb2dPolyline
 66
     1
 10
0.0
 20
0.0
 30
0.0
  0
VERTEX
  5
816
330
815
100
AcDbEntity
  8
Livello 1
100
AcDbVertex
100
AcDb2dVertex
 10
9.648888959265519
 20
15.94029017056614
 30
0.0
  0
VERTEX
  5
817
330
815
100
AcDbEntity
  8
Livello 1
100
AcDbVertex
100
AcDb2dVertex
 10
9.569514497581522
 20
15.94029017056614
 30
0.0
  0
VERTEX
  5
818
330
815
100
AcDbEntity
  8
Livello 1
100
AcDbVertex
100
AcDb2dVertex
 10
9.569514497581522
 20
15.98756334017784
 30
0.0
  0
VERTEX
  5
819
330
815
100
AcDbEntity
  8
Livello 1
100
AcDbVertex
100
AcDb2dVertex
 10
9.648888959265519
 20
15.98756334017784
 30
0.0
  0
VERTEX
  5
81A
330
815
100
AcDbEntity
  8
Livello 1
100
AcDbVertex
100
AcDb2dVertex
 10
9.648888959265519
 20
15.94029017056614
 30
0.0
  0
SEQEND
  5
81B
330
815
100
AcDbEntity
  8
Livello 1
  0
POLYLINE
  5
81C
330
1F
100
AcDbEntity
  8
Livello 1
100
AcDb2dPolyline
 66
     1
 10
0.0
 20
0.0
 30
0.0
  0
VERTEX
  5
81D
330
81C
100
AcDbEntity
  8
Livello 1
100
AcDbVertex
100
AcDb2dVertex
 10
9.56845674560833
 20
15.94029017056614
 30
0.0
  0
VERTEX
  5
81E
330
81C
100
AcDbEntity
  8
Livello 1
100
AcDbVertex
100
AcDb2dVertex
 10
9.559636762869928
 20
15.94029017056614
 30
0.0
  0
VERTEX
  5
81F
330
81C
100
AcDbEntity
  8
Livello 1
100
AcDbVertex
100
AcDb2dVertex
 10
9.559636762869928
 20
15.98756334017784
 30
0.0
  0
VERTEX
  5
820
330
81C
100
AcDbEntity
  8
Livello 1
100
AcDbVertex
100
AcDb2dVertex
 10
9.56845674560833
 20
15.98756334017784
 30
0.0
  0
VERTEX
  5
821
330
81C
100
AcDbEntity
  8
Livello 1
100
AcDbVertex
100
AcDb2dVertex
 10
9.56845674560833
 20
15.94029017056614
 30
0.0
  0
SEQEND
  5
822
330
81C
100
AcDbEntity
  8
Livello 1
  0
POLYLINE
  5
823
330
1F
100
AcDbEntity
  8
Livello 1
100
AcDb2dPolyline
 66
     1
 10
0.0
 20
0.0
 30
0.0
  0
VERTEX
  5
824
330
823
100
AcDbEntity
  8
Livello 1
100
AcDbVertex
100
AcDb2dVertex
 10
9.56845674560833
 20
16.16500998099585
 30
0.0
  0
VERTEX
  5
825
330
823
100
AcDbEntity
  8
Livello 1
100
AcDbVertex
100
AcDb2dVertex
 10
9.559636762869928
 20
16.16500998099585
 30
0.0
  0
VERTEX
  5
826
330
823
100
AcDbEntity
  8
Livello 1
100
AcDbVertex
100
AcDb2dVertex
 10
9.559636762869928
 20
16.21228315060743
 30
0.0
  0
VERTEX
  5
827
330
823
100
AcDbEntity
  8
Livello 1
100
AcDbVertex
100
AcDb2dVertex
 10
9.56845674560833
 20
16.21228315060743
 30
0.0
  0
VERTEX
  5
828
330
823
100
AcDbEntity
  8
Livello 1
100
AcDbVertex
100
AcDb2dVertex
 10
9.56845674560833
 20
16.16500998099585
 30
0.0
  0
SEQEND
  5
829
330
823
100
AcDbEntity
  8
Livello 1
  0
POLYLINE
  5
82A
330
1F
100
AcDbEntity
  8
Livello 1
100
AcDb2dPolyline
 66
     1
 10
0.0
 20
0.0
 30
0.0
  0
VERTEX
  5
82B
330
82A
100
AcDbEntity
  8
Livello 1
100
AcDbVertex
100
AcDb2dVertex
 10
9.56845674560833
 20
16.71781323233605
 30
0.0
  0
VERTEX
  5
82C
330
82A
100
AcDbEntity
  8
Livello 1
100
AcDbVertex
100
AcDb2dVertex
 10
9.559636762869928
 20
16.71781323233605
 30
0.0
  0
VERTEX
  5
82D
330
82A
100
AcDbEntity
  8
Livello 1
100
AcDbVertex
100
AcDb2dVertex
 10
9.559636762869928
 20
16.76508640194764
 30
0.0
  0
VERTEX
  5
82E
330
82A
100
AcDbEntity
  8
Livello 1
100
AcDbVertex
100
AcDb2dVertex
 10
9.56845674560833
 20
16.76508640194764
 30
0.0
  0
VERTEX
  5
82F
330
82A
100
AcDbEntity
  8
Livello 1
100
AcDbVertex
100
AcDb2dVertex
 10
9.56845674560833
 20
16.71781323233605
 30
0.0
  0
SEQEND
  5
830
330
82A
100
AcDbEntity
  8
Livello 1
  0
POLYLINE
  5
831
330
1F
100
AcDbEntity
  8
Livello 1
100
AcDb2dPolyline
 66
     1
 10
0.0
 20
0.0
 30
0.0
  0
VERTEX
  5
832
330
831
100
AcDbEntity
  8
Livello 1
100
AcDbVertex
100
AcDb2dVertex
 10
9.648888959265519
 20
16.71781323233605
 30
0.0
  0
VERTEX
  5
833
330
831
100
AcDbEntity
  8
Livello 1
100
AcDbVertex
100
AcDb2dVertex
 10
9.569514497581522
 20
16.71781323233605
 30
0.0
  0
VERTEX
  5
834
330
831
100
AcDbEntity
  8
Livello 1
100
AcDbVertex
100
AcDb2dVertex
 10
9.569514497581522
 20
16.76508640194764
 30
0.0
  0
VERTEX
  5
835
330
831
100
AcDbEntity
  8
Livello 1
100
AcDbVertex
100
AcDb2dVertex
 10
9.648888959265519
 20
16.76508640194764
 30
0.0
  0
VERTEX
  5
836
330
831
100
AcDbEntity
  8
Livello 1
100
AcDbVertex
100
AcDb2dVertex
 10
9.648888959265519
 20
16.71781323233605
 30
0.0
  0
SEQEND
  5
837
330
831
100
AcDbEntity
  8
Livello 1
  0
POLYLINE
  5
838
330
1F
100
AcDbEntity
  8
Livello 1
100
AcDb2dPolyline
 66
     1
 10
0.0
 20
0.0
 30
0.0
  0
VERTEX
  5
839
330
838
100
AcDbEntity
  8
Livello 1
100
AcDbVertex
100
AcDb2dVertex
 10
9.56845674560833
 20
16.55377016614035
 30
0.0
  0
VERTEX
  5
83A
330
838
100
AcDbEntity
  8
Livello 1
100
AcDbVertex
100
AcDb2dVertex
 10
9.559636762869928
 20
16.55377016614035
 30
0.0
  0
VERTEX
  5
83B
330
838
100
AcDbEntity
  8
Livello 1
100
AcDbVertex
100
AcDb2dVertex
 10
9.559636762869928
 20
16.60104333575194
 30
0.0
  0
VERTEX
  5
83C
330
838
100
AcDbEntity
  8
Livello 1
100
AcDbVertex
100
AcDb2dVertex
 10
9.56845674560833
 20
16.60104333575194
 30
0.0
  0
VERTEX
  5
83D
330
838
100
AcDbEntity
  8
Livello 1
100
AcDbVertex
100
AcDb2dVertex
 10
9.56845674560833
 20
16.55377016614035
 30
0.0
  0
SEQEND
  5
83E
330
838
100
AcDbEntity
  8
Livello 1
  0
POLYLINE
  5
83F
330
1F
100
AcDbEntity
  8
Livello 1
100
AcDb2dPolyline
 66
     1
 10
0.0
 20
0.0
 30
0.0
  0
VERTEX
  5
840
330
83F
100
AcDbEntity
  8
Livello 1
100
AcDbVertex
100
AcDb2dVertex
 10
9.648888959265519
 20
16.55377016614035
 30
0.0
  0
VERTEX
  5
841
330
83F
100
AcDbEntity
  8
Livello 1
100
AcDbVertex
100
AcDb2dVertex
 10
9.569514497581522
 20
16.55377016614035
 30
0.0
  0
VERTEX
  5
842
330
83F
100
AcDbEntity
  8
Livello 1
100
AcDbVertex
100
AcDb2dVertex
 10
9.569514497581522
 20
16.60104333575194
 30
0.0
  0
VERTEX
  5
843
330
83F
100
AcDbEntity
  8
Livello 1
100
AcDbVertex
100
AcDb2dVertex
 10
9.648888959265519
 20
16.60104333575194
 30
0.0
  0
VERTEX
  5
844
330
83F
100
AcDbEntity
  8
Livello 1
100
AcDbVertex
100
AcDb2dVertex
 10
9.648888959265519
 20
16.55377016614035
 30
0.0
  0
SEQEND
  5
845
330
83F
100
AcDbEntity
  8
Livello 1
  0
POLYLINE
  5
846
330
1F
100
AcDbEntity
  8
Livello 1
100
AcDb2dPolyline
 66
     1
 10
0.0
 20
0.0
 30
0.0
  0
VERTEX
  5
847
330
846
100
AcDbEntity
  8
Livello 1
100
AcDbVertex
100
AcDb2dVertex
 10
9.56845674560833
 20
16.32905035571065
 30
0.0
  0
VERTEX
  5
848
330
846
100
AcDbEntity
  8
Livello 1
100
AcDbVertex
100
AcDb2dVertex
 10
9.559636762869928
 20
16.32905035571065
 30
0.0
  0
VERTEX
  5
849
330
846
100
AcDbEntity
  8
Livello 1
100
AcDbVertex
100
AcDb2dVertex
 10
9.559636762869928
 20
16.37632352532235
 30
0.0
  0
VERTEX
  5
84A
330
846
100
AcDbEntity
  8
Livello 1
100
AcDbVertex
100
AcDb2dVertex
 10
9.56845674560833
 20
16.37632352532235
 30
0.0
  0
VERTEX
  5
84B
330
846
100
AcDbEntity
  8
Livello 1
100
AcDbVertex
100
AcDb2dVertex
 10
9.56845674560833
 20
16.32905035571065
 30
0.0
  0
SEQEND
  5
84C
330
846
100
AcDbEntity
  8
Livello 1
  0
POLYLINE
  5
84D
330
1F
100
AcDbEntity
  8
Livello 1
100
AcDb2dPolyline
 66
     1
 10
0.0
 20
0.0
 30
0.0
  0
VERTEX
  5
84E
330
84D
100
AcDbEntity
  8
Livello 1
100
AcDbVertex
100
AcDb2dVertex
 10
9.648888959265519
 20
16.32905035571065
 30
0.0
  0
VERTEX
  5
84F
330
84D
100
AcDbEntity
  8
Livello 1
100
AcDbVertex
100
AcDb2dVertex
 10
9.569514497581522
 20
16.32905035571065
 30
0.0
  0
VERTEX
  5
850
330
84D
100
AcDbEntity
  8
Livello 1
100
AcDbVertex
100
AcDb2dVertex
 10
9.569514497581522
 20
16.37632352532235
 30
0.0
  0
VERTEX
  5
851
330
84D
100
AcDbEntity
  8
Livello 1
100
AcDbVertex
100
AcDb2dVertex
 10
9.648888959265519
 20
16.37632352532235
 30
0.0
  0
VERTEX
  5
852
330
84D
100
AcDbEntity
  8
Livello 1
100
AcDbVertex
100
AcDb2dVertex
 10
9.648888959265519
 20
16.32905035571065
 30
0.0
  0
SEQEND
  5
853
330
84D
100
AcDbEntity
  8
Livello 1
  0
POLYLINE
  5
854
330
1F
100
AcDbEntity
  8
Livello 1
100
AcDb2dPolyline
 66
     1
 10
0.0
 20
0.0
 30
0.0
  0
VERTEX
  5
855
330
854
100
AcDbEntity
  8
Livello 1
100
AcDbVertex
100
AcDb2dVertex
 10
9.56845674560833
 20
16.94253035128486
 30
0.0
  0
VERTEX
  5
856
330
854
100
AcDbEntity
  8
Livello 1
100
AcDbVertex
100
AcDb2dVertex
 10
9.559636762869928
 20
16.94253035128486
 30
0.0
  0
VERTEX
  5
857
330
854
100
AcDbEntity
  8
Livello 1
100
AcDbVertex
100
AcDb2dVertex
 10
9.559636762869928
 20
16.98980352089644
 30
0.0
  0
VERTEX
  5
858
330
854
100
AcDbEntity
  8
Livello 1
100
AcDbVertex
100
AcDb2dVertex
 10
9.56845674560833
 20
16.98980352089644
 30
0.0
  0
VERTEX
  5
859
330
854
100
AcDbEntity
  8
Livello 1
100
AcDbVertex
100
AcDb2dVertex
 10
9.56845674560833
 20
16.94253035128486
 30
0.0
  0
SEQEND
  5
85A
330
854
100
AcDbEntity
  8
Livello 1
  0
POLYLINE
  5
85B
330
1F
100
AcDbEntity
  8
Livello 1
100
AcDb2dPolyline
 66
     1
 10
0.0
 20
0.0
 30
0.0
  0
VERTEX
  5
85C
330
85B
100
AcDbEntity
  8
Livello 1
100
AcDbVertex
100
AcDb2dVertex
 10
9.648888959265519
 20
16.94253035128486
 30
0.0
  0
VERTEX
  5
85D
330
85B
100
AcDbEntity
  8
Livello 1
100
AcDbVertex
100
AcDb2dVertex
 10
9.569514497581522
 20
16.94253035128486
 30
0.0
  0
VERTEX
  5
85E
330
85B
100
AcDbEntity
  8
Livello 1
100
AcDbVertex
100
AcDb2dVertex
 10
9.569514497581522
 20
16.98980352089644
 30
0.0
  0
VERTEX
  5
85F
330
85B
100
AcDbEntity
  8
Livello 1
100
AcDbVertex
100
AcDb2dVertex
 10
9.648888959265519
 20
16.98980352089644
 30
0.0
  0
VERTEX
  5
860
330
85B
100
AcDbEntity
  8
Livello 1
100
AcDbVertex
100
AcDb2dVertex
 10
9.648888959265519
 20
16.94253035128486
 30
0.0
  0
SEQEND
  5
861
330
85B
100
AcDbEntity
  8
Livello 1
  0
POLYLINE
  5
862
330
1F
100
AcDbEntity
  8
Livello 1
100
AcDb2dPolyline
 66
     1
 10
0.0
 20
0.0
 30
0.0
  0
VERTEX
  5
863
330
862
100
AcDbEntity
  8
Livello 1
100
AcDbVertex
100
AcDb2dVertex
 10
9.581860320230589
 20
17.20182223320515
 30
0.0
  0
VERTEX
  5
864
330
862
100
AcDbEntity
  8
Livello 1
100
AcDbVertex
100
AcDb2dVertex
 10
9.559634071389041
 20
17.20182223320515
 30
0.0
  0
VERTEX
  5
865
330
862
100
AcDbEntity
  8
Livello 1
100
AcDbVertex
100
AcDb2dVertex
 10
9.559634071389041
 20
17.24909540281685
 30
0.0
  0
VERTEX
  5
866
330
862
100
AcDbEntity
  8
Livello 1
100
AcDbVertex
100
AcDb2dVertex
 10
9.581860320230589
 20
17.24909540281685
 30
0.0
  0
VERTEX
  5
867
330
862
100
AcDbEntity
  8
Livello 1
100
AcDbVertex
100
AcDb2dVertex
 10
9.581860320230589
 20
17.20182223320515
 30
0.0
  0
SEQEND
  5
868
330
862
100
AcDbEntity
  8
Livello 1
  0
POLYLINE
  5
869
330
1F
100
AcDbEntity
  8
Livello 1
100
AcDb2dPolyline
 66
     1
 10
0.0
 20
0.0
 30
0.0
  0
VERTEX
  5
86A
330
869
100
AcDbEntity
  8
Livello 1
100
AcDbVertex
100
AcDb2dVertex
 10
9.859849919600961
 20
17.20182223320515
 30
0.0
  0
VERTEX
  5
86B
330
869
100
AcDbEntity
  8
Livello 1
100
AcDbVertex
100
AcDb2dVertex
 10
9.706039863588785
 20
17.20182223320515
 30
0.0
  0
VERTEX
  5
86C
330
869
100
AcDbEntity
  8
Livello 1
100
AcDbVertex
100
AcDb2dVertex
 10
9.706039863588785
 20
17.24909540281685
 30
0.0
  0
VERTEX
  5
86D
330
869
100
AcDbEntity
  8
Livello 1
100
AcDbVertex
100
AcDb2dVertex
 10
9.859849919600961
 20
17.24909540281685
 30
0.0
  0
VERTEX
  5
86E
330
869
100
AcDbEntity
  8
Livello 1
100
AcDbVertex
100
AcDb2dVertex
 10
9.859849919600961
 20
17.20182223320515
 30
0.0
  0
SEQEND
  5
86F
330
869
100
AcDbEntity
  8
Livello 1
  0
POLYLINE
  5
870
330
1F
100
AcDbEntity
  8
Livello 1
100
AcDb2dPolyline
 66
     1
 10
0.0
 20
0.0
 30
0.0
  0
VERTEX
  5
871
330
870
100
AcDbEntity
  8
Livello 1
100
AcDbVertex
100
AcDb2dVertex
 10
9.695456960895043
 20
17.20182223320515
 30
0.0
  0
VERTEX
  5
872
330
870
100
AcDbEntity
  8
Livello 1
100
AcDbVertex
100
AcDb2dVertex
 10
9.621373950557938
 20
17.20182223320515
 30
0.0
  0
VERTEX
  5
873
330
870
100
AcDbEntity
  8
Livello 1
100
AcDbVertex
100
AcDb2dVertex
 10
9.621373950557938
 20
17.24909540281685
 30
0.0
  0
VERTEX
  5
874
330
870
100
AcDbEntity
  8
Livello 1
100
AcDbVertex
100
AcDb2dVertex
 10
9.695456960895043
 20
17.24909540281685
 30
0.0
  0
VERTEX
  5
875
330
870
100
AcDbEntity
  8
Livello 1
100
AcDbVertex
100
AcDb2dVertex
 10
9.695456960895043
 20
17.20182223320515
 30
0.0
  0
SEQEND
  5
876
330
870
100
AcDbEntity
  8
Livello 1
  0
POLYLINE
  5
877
330
1F
100
AcDbEntity
  8
Livello 1
100
AcDb2dPolyline
 66
     1
 10
0.0
 20
0.0
 30
0.0
  0
VERTEX
  5
878
330
877
100
AcDbEntity
  8
Livello 1
100
AcDbVertex
100
AcDb2dVertex
 10
9.612201383828448
 20
17.20182223320515
 30
0.0
  0
VERTEX
  5
879
330
877
100
AcDbEntity
  8
Livello 1
100
AcDbVertex
100
AcDb2dVertex
 10
9.589622550995827
 20
17.20182223320515
 30
0.0
  0
VERTEX
  5
87A
330
877
100
AcDbEntity
  8
Livello 1
100
AcDbVertex
100
AcDb2dVertex
 10
9.589622550995827
 20
17.24909540281685
 30
0.0
  0
VERTEX
  5
87B
330
877
100
AcDbEntity
  8
Livello 1
100
AcDbVertex
100
AcDb2dVertex
 10
9.612201383828448
 20
17.24909540281685
 30
0.0
  0
VERTEX
  5
87C
330
877
100
AcDbEntity
  8
Livello 1
100
AcDbVertex
100
AcDb2dVertex
 10
9.612201383828448
 20
17.20182223320515
 30
0.0
  0
SEQEND
  5
87D
330
877
100
AcDbEntity
  8
Livello 1
  0
POLYLINE
  5
87E
330
1F
100
AcDbEntity
  8
Livello 1
100
AcDb2dPolyline
 66
     1
 10
0.0
 20
0.0
 30
0.0
  0
VERTEX
  5
87F
330
87E
100
AcDbEntity
  8
Livello 1
100
AcDbVertex
100
AcDb2dVertex
 10
9.859849919600961
 20
15.69828297865075
 30
0.0
  0
VERTEX
  5
880
330
87E
100
AcDbEntity
  8
Livello 1
100
AcDbVertex
100
AcDb2dVertex
 10
9.706039863588785
 20
15.69828297865075
 30
0.0
  0
VERTEX
  5
881
330
87E
100
AcDbEntity
  8
Livello 1
100
AcDbVertex
100
AcDb2dVertex
 10
9.706039863588785
 20
15.74555614826245
 30
0.0
  0
VERTEX
  5
882
330
87E
100
AcDbEntity
  8
Livello 1
100
AcDbVertex
100
AcDb2dVertex
 10
9.859849919600961
 20
15.74555614826245
 30
0.0
  0
VERTEX
  5
883
330
87E
100
AcDbEntity
  8
Livello 1
100
AcDbVertex
100
AcDb2dVertex
 10
9.859849919600961
 20
15.69828297865075
 30
0.0
  0
SEQEND
  5
884
330
87E
100
AcDbEntity
  8
Livello 1
  0
POLYLINE
  5
885
330
1F
100
AcDbEntity
  8
Livello 1
100
AcDb2dPolyline
 66
     1
 10
0.0
 20
0.0
 30
0.0
  0
VERTEX
  5
886
330
885
100
AcDbEntity
  8
Livello 1
100
AcDbVertex
100
AcDb2dVertex
 10
9.581860320230589
 20
15.69828297865075
 30
0.0
  0
VERTEX
  5
887
330
885
100
AcDbEntity
  8
Livello 1
100
AcDbVertex
100
AcDb2dVertex
 10
9.559634071389041
 20
15.69828297865075
 30
0.0
  0
VERTEX
  5
888
330
885
100
AcDbEntity
  8
Livello 1
100
AcDbVertex
100
AcDb2dVertex
 10
9.559634071389041
 20
15.74555614826245
 30
0.0
  0
VERTEX
  5
889
330
885
100
AcDbEntity
  8
Livello 1
100
AcDbVertex
100
AcDb2dVertex
 10
9.581860320230589
 20
15.74555614826245
 30
0.0
  0
VERTEX
  5
88A
330
885
100
AcDbEntity
  8
Livello 1
100
AcDbVertex
100
AcDb2dVertex
 10
9.581860320230589
 20
15.69828297865075
 30
0.0
  0
SEQEND
  5
88B
330
885
100
AcDbEntity
  8
Livello 1
  0
POLYLINE
  5
88C
330
1F
100
AcDbEntity
  8
Livello 1
100
AcDb2dPolyline
 66
     1
 10
0.0
 20
0.0
 30
0.0
  0
VERTEX
  5
88D
330
88C
100
AcDbEntity
  8
Livello 1
100
AcDbVertex
100
AcDb2dVertex
 10
9.611493524365442
 20
15.69828297865075
 30
0.0
  0
VERTEX
  5
88E
330
88C
100
AcDbEntity
  8
Livello 1
100
AcDbVertex
100
AcDb2dVertex
 10
9.589622550995827
 20
15.69828297865075
 30
0.0
  0
VERTEX
  5
88F
330
88C
100
AcDbEntity
  8
Livello 1
100
AcDbVertex
100
AcDb2dVertex
 10
9.589622550995827
 20
15.74555614826245
 30
0.0
  0
VERTEX
  5
890
330
88C
100
AcDbEntity
  8
Livello 1
100
AcDbVertex
100
AcDb2dVertex
 10
9.611493524365442
 20
15.74555614826245
 30
0.0
  0
VERTEX
  5
891
330
88C
100
AcDbEntity
  8
Livello 1
100
AcDbVertex
100
AcDb2dVertex
 10
9.611493524365442
 20
15.69828297865075
 30
0.0
  0
SEQEND
  5
892
330
88C
100
AcDbEntity
  8
Livello 1
  0
POLYLINE
  5
893
330
1F
100
AcDbEntity
  8
Livello 1
100
AcDb2dPolyline
 66
     1
 10
0.0
 20
0.0
 30
0.0
  0
VERTEX
  5
894
330
893
100
AcDbEntity
  8
Livello 1
100
AcDbVertex
100
AcDb2dVertex
 10
9.592090638933299
 20
15.96392675537194
 30
0.0
  0
VERTEX
  5
895
330
893
100
AcDbEntity
  8
Livello 1
100
AcDbVertex
100
AcDb2dVertex
 10
9.544817469321642
 20
15.96392675537194
 30
0.0
  0
VERTEX
  5
896
330
893
100
AcDbEntity
  8
Livello 1
100
AcDbVertex
100
AcDb2dVertex
 10
9.544817469321642
 20
16.18864656580164
 30
0.0
  0
VERTEX
  5
897
330
893
100
AcDbEntity
  8
Livello 1
100
AcDbVertex
100
AcDb2dVertex
 10
9.592090638933299
 20
16.18864656580164
 30
0.0
  0
VERTEX
  5
898
330
893
100
AcDbEntity
  8
Livello 1
100
AcDbVertex
100
AcDb2dVertex
 10
9.592090638933299
 20
15.96392675537194
 30
0.0
  0
SEQEND
  5
899
330
893
100
AcDbEntity
  8
Livello 1
  0
POLYLINE
  5
89A
330
1F
100
AcDbEntity
  8
Livello 1
100
AcDb2dPolyline
 66
     1
 10
0.0
 20
0.0
 30
0.0
  0
VERTEX
  5
89B
330
89A
100
AcDbEntity
  8
Livello 1
100
AcDbVertex
100
AcDb2dVertex
 10
9.56986708157261
 20
15.75014243162714
 30
0.0
  0
VERTEX
  5
89C
330
89A
100
AcDbEntity
  8
Livello 1
100
AcDbVertex
100
AcDb2dVertex
 10
9.559636762869928
 20
15.75014243162714
 30
0.0
  0
VERTEX
  5
89D
330
89A
100
AcDbEntity
  8
Livello 1
100
AcDbVertex
100
AcDb2dVertex
 10
9.559636762869928
 20
15.79741560123885
 30
0.0
  0
VERTEX
  5
89E
330
89A
100
AcDbEntity
  8
Livello 1
100
AcDbVertex
100
AcDb2dVertex
 10
9.56986708157261
 20
15.79741560123885
 30
0.0
  0
VERTEX
  5
89F
330
89A
100
AcDbEntity
  8
Livello 1
100
AcDbVertex
100
AcDb2dVertex
 10
9.56986708157261
 20
15.75014243162714
 30
0.0
  0
SEQEND
  5
8A0
330
89A
100
AcDbEntity
  8
Livello 1
  0
SPLINE
  5
8A1
330
1F
100
AcDbEntity
  8
Livello 1
100
AcDbSpline
210
0.0
220
0.0
230
1.0
 70
     9
 71
     3
 72
    17
 73
    13
 74
     0
 42
0.000000001
 43
0.0000000001
 40
0.0
 40
0.0
 40
0.0
 40
0.0
 40
1.0
 40
1.0
 40
1.0
 40
2.0
 40
2.0
 40
2.0
 40
3.0
 40
3.0
 40
3.0
 40
4.0
 40
4.0
 40
4.0
 40
4.0
 10
9.5891273185198
 20
15.69842562713565
 30
0.0
 10
9.568663989633591
 20
15.69877821112673
 30
0.0
 10
9.553142219584046
 20
15.70653775041115
 30
0.0
 10
9.54079639693495
 20
15.72276468844274
 30
0.0
 10
9.54079639693495
 20
15.72276468844274
 30
0.0
 10
9.578189140354169
 20
15.75169272459556
 30
0.0
 10
9.578189140354169
 20
15.75169272459556
 30
0.0
 10
9.582070255736752
 20
15.74675385723975
 30
0.0
 10
9.583833175692078
 20
15.74604868925755
 30
0.0
 10
9.590185070493021
 20
15.74569610526644
 30
0.0
 10
9.590185070493021
 20
15.74569610526644
 30
0.0
 10
9.5891273185198
 20
15.69842562713565
 30
0.0
 10
9.5891273185198
 20
15.69842562713565
 30
0.0
  0
SPLINE
  5
8A2
330
1F
100
AcDbEntity
  8
Livello 1
100
AcDbSpline
210
0.0
220
0.0
230
1.0
 70
     9
 71
     3
 72
    20
 73
    16
 74
     0
 42
0.000000001
 43
0.0000000001
 40
0.0
 40
0.0
 40
0.0
 40
0.0
 40
1.0
 40
1.0
 40
1.0
 40
2.0
 40
2.0
 40
2.0
 40
3.0
 40
3.0
 40
3.0
 40
4.0
 40
4.0
 40
4.0
 40
5.0
 40
5.0
 40
5.0
 40
5.0
 10
9.621371259077093
 20
15.69842562713565
 30
0.0
 10
9.579742124803374
 20
15.69842562713565
 30
0.0
 10
9.545875221294863
 20
15.73228983916334
 30
0.0
 10
9.546227805285894
 20
15.77391897343705
 30
0.0
 10
9.546227805285894
 20
15.77391897343705
 30
0.0
 10
9.593500974897594
 20
15.77391897343705
 30
0.0
 10
9.593500974897594
 20
15.77391897343705
 30
0.0
 10
9.593500974897594
 20
15.76650932666294
 30
0.0
 10
9.596321646826126
 20
15.75945495536074
 30
0.0
 10
9.601613098173004
 20
15.75416350401384
 30
0.0
 10
9.606907241000726
 20
15.74851946867594
 30
0.0
 10
9.613961612302944
 20
15.74569610526644
 30
0.0
 10
9.621371259077093
 20
15.74569610526644
 30
0.0
 10
9.621371259077093
 20
15.74569610526644
 30
0.0
 10
9.621371259077093
 20
15.69842562713565
 30
0.0
 10
9.621371259077093
 20
15.69842562713565
 30
0.0
  0
SPLINE
  5
8A3
330
1F
100
AcDbEntity
  8
Livello 1
100
AcDbSpline
210
0.0
220
0.0
230
1.0
 70
     9
 71
     3
 72
    17
 73
    13
 74
     0
 42
0.000000001
 43
0.0000000001
 40
0.0
 40
0.0
 40
0.0
 40
0.0
 40
1.0
 40
1.0
 40
1.0
 40
2.0
 40
2.0
 40
2.0
 40
3.0
 40
3.0
 40
3.0
 40
4.0
 40
4.0
 40
4.0
 40
4.0
 10
9.676299000220026
 20
15.76813498109504
 30
0.0
 10
9.676299000220026
 20
15.76813498109504
 30
0.0
 10
9.63043616657265
 20
15.77977563576193
 30
0.0
 10
9.63043616657265
 20
15.77977563576193
 30
0.0
 10
9.632554361999893
 20
15.78859561850045
 30
0.0
 10
9.633259529982026
 20
15.79741290975794
 30
0.0
 10
9.632554361999893
 20
15.80658547648743
 30
0.0
 10
9.632554361999893
 20
15.80658547648743
 30
0.0
 10
9.67982484013072
 20
15.81046659187004
 30
0.0
 10
9.67982484013072
 20
15.81046659187004
 30
0.0
 10
9.680882592103941
 20
15.79600257379364
 30
0.0
 10
9.67982484013072
 20
15.78224372369944
 30
0.0
 10
9.676299000220026
 20
15.76813498109504
 30
0.0
  0
SPLINE
  5
8A4
330
1F
100
AcDbEntity
  8
Livello 1
100
AcDbSpline
210
0.0
220
0.0
230
1.0
 70
     9
 71
     3
 72
    23
 73
    19
 74
     0
 42
0.000000001
 43
0.0000000001
 40
0.0
 40
0.0
 40
0.0
 40
0.0
 40
1.0
 40
1.0
 40
1.0
 40
2.0
 40
2.0
 40
2.0
 40
3.0
 40
3.0
 40
3.0
 40
4.0
 40
4.0
 40
4.0
 40
5.0
 40
5.0
 40
5.0
 40
6.0
 40
6.0
 40
6.0
 40
6.0
 10
9.704982111615578
 20
15.69842562713565
 30
0.0
 10
9.684871366720443
 20
15.69842562713565
 30
0.0
 10
9.665823756760218
 20
15.70618516642004
 30
0.0
 10
9.651712322674924
 20
15.72064918449645
 30
0.0
 10
9.637600888589602
 20
15.73476061858164
 30
0.0
 10
9.629486073833348
 20
15.75381092002274
 30
0.0
 10
9.629838657824436
 20
15.77391897343705
 30
0.0
 10
9.629838657824436
 20
15.77391897343705
 30
0.0
 10
9.677111827436078
 20
15.77391897343705
 30
0.0
 10
9.677111827436078
 20
15.77391897343705
 30
0.0
 10
9.677111827436078
 20
15.76650932666294
 30
0.0
 10
9.679932499364639
 20
15.75945495536074
 30
0.0
 10
9.685223950711517
 20
15.75416350401384
 30
0.0
 10
9.690518093539239
 20
15.74851946867594
 30
0.0
 10
9.697572464841442
 20
15.74569610526644
 30
0.0
 10
9.704982111615578
 20
15.74569610526644
 30
0.0
 10
9.704982111615578
 20
15.74569610526644
 30
0.0
 10
9.704982111615578
 20
15.69842562713565
 30
0.0
 10
9.704982111615578
 20
15.69842562713565
 30
0.0
  0
POLYLINE
  5
8A5
330
1F
100
AcDbEntity
  8
Livello 1
100
AcDb2dPolyline
 66
     1
 10
0.0
 20
0.0
 30
0.0
  0
VERTEX
  5
8A6
330
8A5
100
AcDbEntity
  8
Livello 1
100
AcDbVertex
100
AcDb2dVertex
 10
9.867259566375082
 20
15.78471450311785
 30
0.0
  0
VERTEX
  5
8A7
330
8A5
100
AcDbEntity
  8
Livello 1
100
AcDbVertex
100
AcDb2dVertex
 10
9.712389066908869
 20
15.78471450311785
 30
0.0
  0
VERTEX
  5
8A8
330
8A5
100
AcDbEntity
  8
Livello 1
100
AcDbVertex
100
AcDb2dVertex
 10
9.712389066908869
 20
15.83198767272944
 30
0.0
  0
VERTEX
  5
8A9
330
8A5
100
AcDbEntity
  8
Livello 1
100
AcDbVertex
100
AcDb2dVertex
 10
9.867259566375082
 20
15.83198767272944
 30
0.0
  0
VERTEX
  5
8AA
330
8A5
100
AcDbEntity
  8
Livello 1
100
AcDbVertex
100
AcDb2dVertex
 10
9.867259566375082
 20
15.78471450311785
 30
0.0
  0
SEQEND
  5
8AB
330
8A5
100
AcDbEntity
  8
Livello 1
  0
POLYLINE
  5
8AC
330
1F
100
AcDbEntity
  8
Livello 1
100
AcDb2dPolyline
 66
     1
 10
0.0
 20
0.0
 30
0.0
  0
VERTEX
  5
8AD
330
8AC
100
AcDbEntity
  8
Livello 1
100
AcDbVertex
100
AcDb2dVertex
 10
9.736025651714683
 20
15.80870367191474
 30
0.0
  0
VERTEX
  5
8AE
330
8AC
100
AcDbEntity
  8
Livello 1
100
AcDbVertex
100
AcDb2dVertex
 10
9.688752482103041
 20
15.80870367191474
 30
0.0
  0
VERTEX
  5
8AF
330
8AC
100
AcDbEntity
  8
Livello 1
100
AcDbVertex
100
AcDb2dVertex
 10
9.688752482103041
 20
17.13938256901585
 30
0.0
  0
VERTEX
  5
8B0
330
8AC
100
AcDbEntity
  8
Livello 1
100
AcDbVertex
100
AcDb2dVertex
 10
9.736025651714683
 20
17.13938256901585
 30
0.0
  0
VERTEX
  5
8B1
330
8AC
100
AcDbEntity
  8
Livello 1
100
AcDbVertex
100
AcDb2dVertex
 10
9.736025651714683
 20
15.80870367191474
 30
0.0
  0
SEQEND
  5
8B2
330
8AC
100
AcDbEntity
  8
Livello 1
  0
POLYLINE
  5
8B3
330
1F
100
AcDbEntity
  8
Livello 1
100
AcDb2dPolyline
 66
     1
 10
0.0
 20
0.0
 30
0.0
  0
VERTEX
  5
8B4
330
8B3
100
AcDbEntity
  8
Livello 1
100
AcDbVertex
100
AcDb2dVertex
 10
9.89089345970008
 20
15.80870367191474
 30
0.0
  0
VERTEX
  5
8B5
330
8B3
100
AcDbEntity
  8
Livello 1
100
AcDbVertex
100
AcDb2dVertex
 10
9.843620290088395
 20
15.80870367191474
 30
0.0
  0
VERTEX
  5
8B6
330
8B3
100
AcDbEntity
  8
Livello 1
100
AcDbVertex
100
AcDb2dVertex
 10
9.843620290088395
 20
17.13938256901585
 30
0.0
  0
VERTEX
  5
8B7
330
8B3
100
AcDbEntity
  8
Livello 1
100
AcDbVertex
100
AcDb2dVertex
 10
9.89089345970008
 20
17.13938256901585
 30
0.0
  0
VERTEX
  5
8B8
330
8B3
100
AcDbEntity
  8
Livello 1
100
AcDbVertex
100
AcDb2dVertex
 10
9.89089345970008
 20
15.80870367191474
 30
0.0
  0
SEQEND
  5
8B9
330
8B3
100
AcDbEntity
  8
Livello 1
  0
POLYLINE
  5
8BA
330
1F
100
AcDbEntity
  8
Livello 1
100
AcDb2dPolyline
 66
     1
 10
0.0
 20
0.0
 30
0.0
  0
VERTEX
  5
8BB
330
8BA
100
AcDbEntity
  8
Livello 1
100
AcDbVertex
100
AcDb2dVertex
 10
9.867259566375082
 20
17.11539340021895
 30
0.0
  0
VERTEX
  5
8BC
330
8BA
100
AcDbEntity
  8
Livello 1
100
AcDbVertex
100
AcDb2dVertex
 10
9.712389066908869
 20
17.11539340021895
 30
0.0
  0
VERTEX
  5
8BD
330
8BA
100
AcDbEntity
  8
Livello 1
100
AcDbVertex
100
AcDb2dVertex
 10
9.712389066908869
 20
17.16266656983065
 30
0.0
  0
VERTEX
  5
8BE
330
8BA
100
AcDbEntity
  8
Livello 1
100
AcDbVertex
100
AcDb2dVertex
 10
9.867259566375082
 20
17.16266656983065
 30
0.0
  0
VERTEX
  5
8BF
330
8BA
100
AcDbEntity
  8
Livello 1
100
AcDbVertex
100
AcDb2dVertex
 10
9.867259566375082
 20
17.11539340021895
 30
0.0
  0
SEQEND
  5
8C0
330
8BA
100
AcDbEntity
  8
Livello 1
  0
POLYLINE
  5
8C1
330
1F
100
AcDbEntity
  8
Livello 1
100
AcDb2dPolyline
 66
     1
 10
0.0
 20
0.0
 30
0.0
  0
VERTEX
  5
8C2
330
8C1
100
AcDbEntity
  8
Livello 1
100
AcDbVertex
100
AcDb2dVertex
 10
9.679932499364639
 20
15.80870367191474
 30
0.0
  0
VERTEX
  5
8C3
330
8C1
100
AcDbEntity
  8
Livello 1
100
AcDbVertex
100
AcDb2dVertex
 10
9.632659329752954
 20
15.80870367191474
 30
0.0
  0
VERTEX
  5
8C4
330
8C1
100
AcDbEntity
  8
Livello 1
100
AcDbVertex
100
AcDb2dVertex
 10
9.632659329752954
 20
17.13938256901585
 30
0.0
  0
VERTEX
  5
8C5
330
8C1
100
AcDbEntity
  8
Livello 1
100
AcDbVertex
100
AcDb2dVertex
 10
9.679932499364639
 20
17.13938256901585
 30
0.0
  0
VERTEX
  5
8C6
330
8C1
100
AcDbEntity
  8
Livello 1
100
AcDbVertex
100
AcDb2dVertex
 10
9.679932499364639
 20
15.80870367191474
 30
0.0
  0
SEQEND
  5
8C7
330
8C1
100
AcDbEntity
  8
Livello 1
  0
POLYLINE
  5
8C8
330
1F
100
AcDbEntity
  8
Livello 1
100
AcDb2dPolyline
 66
     1
 10
0.0
 20
0.0
 30
0.0
  0
VERTEX
  5
8C9
330
8C8
100
AcDbEntity
  8
Livello 1
100
AcDbVertex
100
AcDb2dVertex
 10
9.56986708157261
 20
17.14996547170955
 30
0.0
  0
VERTEX
  5
8CA
330
8C8
100
AcDbEntity
  8
Livello 1
100
AcDbVertex
100
AcDb2dVertex
 10
9.559636762869928
 20
17.14996547170955
 30
0.0
  0
VERTEX
  5
8CB
330
8C8
100
AcDbEntity
  8
Livello 1
100
AcDbVertex
100
AcDb2dVertex
 10
9.559636762869928
 20
17.19723864132125
 30
0.0
  0
VERTEX
  5
8CC
330
8C8
100
AcDbEntity
  8
Livello 1
100
AcDbVertex
100
AcDb2dVertex
 10
9.56986708157261
 20
17.19723864132125
 30
0.0
  0
VERTEX
  5
8CD
330
8C8
100
AcDbEntity
  8
Livello 1
100
AcDbVertex
100
AcDb2dVertex
 10
9.56986708157261
 20
17.14996547170955
 30
0.0
  0
SEQEND
  5
8CE
330
8C8
100
AcDbEntity
  8
Livello 1
  0
SPLINE
  5
8CF
330
1F
100
AcDbEntity
  8
Livello 1
100
AcDbSpline
210
0.0
220
0.0
230
1.0
 70
     9
 71
     3
 72
    20
 73
    16
 74
     0
 42
0.000000001
 43
0.0000000001
 40
0.0
 40
0.0
 40
0.0
 40
0.0
 40
1.0
 40
1.0
 40
1.0
 40
2.0
 40
2.0
 40
2.0
 40
3.0
 40
3.0
 40
3.0
 40
4.0
 40
4.0
 40
4.0
 40
5.0
 40
5.0
 40
5.0
 40
5.0
 10
9.546090539762687
 20
17.17360205651543
 30
0.0
 10
9.546090539762687
 20
17.21522849930834
 30
0.0
 10
9.579954751790353
 20
17.24909540281685
 30
0.0
 10
9.621231302072999
 20
17.24909540281685
 30
0.0
 10
9.621231302072999
 20
17.24909540281685
 30
0.0
 10
9.62158388606403
 20
17.20182223320515
 30
0.0
 10
9.62158388606403
 20
17.20182223320515
 30
0.0
 10
9.614174239289923
 20
17.20182223320515
 30
0.0
 10
9.60676728399666
 20
17.19900156127656
 30
0.0
 10
9.601475832649768
 20
17.19371010992974
 30
0.0
 10
9.59618438130289
 20
17.18841865858285
 30
0.0
 10
9.593361017893485
 20
17.18100901180874
 30
0.0
 10
9.593361017893485
 20
17.17360205651543
 30
0.0
 10
9.593361017893485
 20
17.17360205651543
 30
0.0
 10
9.546090539762687
 20
17.17360205651543
 30
0.0
 10
9.546090539762687
 20
17.17360205651543
 30
0.0
  0
SPLINE
  5
8D0
330
1F
100
AcDbEntity
  8
Livello 1
100
AcDbSpline
210
0.0
220
0.0
230
1.0
 70
     9
 71
     3
 72
    17
 73
    13
 74
     0
 42
0.000000001
 43
0.0000000001
 40
0.0
 40
0.0
 40
0.0
 40
0.0
 40
1.0
 40
1.0
 40
1.0
 40
2.0
 40
2.0
 40
2.0
 40
3.0
 40
3.0
 40
3.0
 40
4.0
 40
4.0
 40
4.0
 40
4.0
 10
9.578299491068932
 20
17.19586060312714
 30
0.0
 10
9.578299491068932
 20
17.19586060312714
 30
0.0
 10
9.540904056168855
 20
17.22478594779906
 30
0.0
 10
9.540904056168855
 20
17.22478594779906
 30
0.0
 10
9.55324987881795
 20
17.24101557731156
 30
0.0
 10
9.568774340348369
 20
17.24877511659594
 30
0.0
 10
9.589234977753733
 20
17.24912770058694
 30
0.0
 10
9.589234977753733
 20
17.24912770058694
 30
0.0
 10
9.59029272972694
 20
17.20185722245614
 30
0.0
 10
9.59029272972694
 20
17.20185722245614
 30
0.0
 10
9.583943526406855
 20
17.20150463846514
 30
0.0
 10
9.582177914970685
 20
17.20079947048295
 30
0.0
 10
9.578299491068932
 20
17.19586060312714
 30
0.0
  0
SPLINE
  5
8D1
330
1F
100
AcDbEntity
  8
Livello 1
100
AcDbSpline
210
0.0
220
0.0
230
1.0
 70
     9
 71
     3
 72
    23
 73
    19
 74
     0
 42
0.000000001
 43
0.0000000001
 40
0.0
 40
0.0
 40
0.0
 40
0.0
 40
1.0
 40
1.0
 40
1.0
 40
2.0
 40
2.0
 40
2.0
 40
3.0
 40
3.0
 40
3.0
 40
4.0
 40
4.0
 40
4.0
 40
5.0
 40
5.0
 40
5.0
 40
6.0
 40
6.0
 40
6.0
 40
6.0
 10
9.629698700820327
 20
17.17360205651543
 30
0.0
 10
9.629698700820327
 20
17.19371010992974
 30
0.0
 10
9.637458240104677
 20
17.21275771988993
 30
0.0
 10
9.651569674189971
 20
17.22686915397524
 30
0.0
 10
9.666033692266324
 20
17.24133317205164
 30
0.0
 10
9.684731409716349
 20
17.24909540281685
 30
0.0
 10
9.704839463130639
 20
17.24909540281685
 30
0.0
 10
9.704839463130639
 20
17.24909540281685
 30
0.0
 10
9.705192047121727
 20
17.20182223320515
 30
0.0
 10
9.705192047121727
 20
17.20182223320515
 30
0.0
 10
9.697429816356518
 20
17.20182223320515
 30
0.0
 10
9.6903754450543
 20
17.19900156127656
 30
0.0
 10
9.685083993707422
 20
17.19371010992974
 30
0.0
 10
9.67979254236053
 20
17.18841865858285
 30
0.0
 10
9.676969178951139
 20
17.18100901180874
 30
0.0
 10
9.676969178951139
 20
17.17360205651543
 30
0.0
 10
9.676969178951139
 20
17.17360205651543
 30
0.0
 10
9.629698700820327
 20
17.17360205651543
 30
0.0
 10
9.629698700820327
 20
17.17360205651543
 30
0.0
  0
SPLINE
  5
8D2
330
1F
100
AcDbEntity
  8
Livello 1
100
AcDbSpline
210
0.0
220
0.0
230
1.0
 70
     9
 71
     3
 72
    17
 73
    13
 74
     0
 42
0.000000001
 43
0.0000000001
 40
0.0
 40
0.0
 40
0.0
 40
0.0
 40
1.0
 40
1.0
 40
1.0
 40
2.0
 40
2.0
 40
2.0
 40
3.0
 40
3.0
 40
3.0
 40
4.0
 40
4.0
 40
4.0
 40
4.0
 10
9.67979254236053
 20
17.13712441658444
 30
0.0
 10
9.67979254236053
 20
17.13712441658444
 30
0.0
 10
9.632519372748888
 20
17.14100284048625
 30
0.0
 10
9.632519372748888
 20
17.14100284048625
 30
0.0
 10
9.63357712472208
 20
17.15017540721573
 30
0.0
 10
9.632871956739933
 20
17.15899538995415
 30
0.0
 10
9.630401177321601
 20
17.16781537269256
 30
0.0
 10
9.630401177321601
 20
17.16781537269256
 30
0.0
 10
9.676264010969006
 20
17.17945602735943
 30
0.0
 10
9.676264010969006
 20
17.17945602735943
 30
0.0
 10
9.67979254236053
 20
17.16534459327424
 30
0.0
 10
9.680850294333737
 20
17.15158574317993
 30
0.0
 10
9.67979254236053
 20
17.13712441658444
 30
0.0
  0
POLYLINE
  5
8D3
330
1F
100
AcDbEntity
  8
Livello 1
100
AcDb2dPolyline
 66
     1
 10
0.0
 20
0.0
 30
0.0
  0
VERTEX
  5
8D4
330
8D3
100
AcDbEntity
  8
Livello 1
100
AcDbVertex
100
AcDb2dVertex
 10
9.592090638933299
 20
16.74144712566105
 30
0.0
  0
VERTEX
  5
8D5
330
8D3
100
AcDbEntity
  8
Livello 1
100
AcDbVertex
100
AcDb2dVertex
 10
9.544817469321642
 20
16.74144712566105
 30
0.0
  0
VERTEX
  5
8D6
330
8D3
100
AcDbEntity
  8
Livello 1
100
AcDbVertex
100
AcDb2dVertex
 10
9.544817469321642
 20
16.96616693609064
 30
0.0
  0
VERTEX
  5
8D7
330
8D3
100
AcDbEntity
  8
Livello 1
100
AcDbVertex
100
AcDb2dVertex
 10
9.592090638933299
 20
16.96616693609064
 30
0.0
  0
VERTEX
  5
8D8
330
8D3
100
AcDbEntity
  8
Livello 1
100
AcDbVertex
100
AcDb2dVertex
 10
9.592090638933299
 20
16.74144712566105
 30
0.0
  0
SEQEND
  5
8D9
330
8D3
100
AcDbEntity
  8
Livello 1
  0
POLYLINE
  5
8DA
330
1F
100
AcDbEntity
  8
Livello 1
100
AcDb2dPolyline
 66
     1
 10
0.0
 20
0.0
 30
0.0
  0
VERTEX
  5
8DB
330
8DA
100
AcDbEntity
  8
Livello 1
100
AcDbVertex
100
AcDb2dVertex
 10
9.592090638933299
 20
16.35268694051643
 30
0.0
  0
VERTEX
  5
8DC
330
8DA
100
AcDbEntity
  8
Livello 1
100
AcDbVertex
100
AcDb2dVertex
 10
9.544817469321642
 20
16.35268694051643
 30
0.0
  0
VERTEX
  5
8DD
330
8DA
100
AcDbEntity
  8
Livello 1
100
AcDbVertex
100
AcDb2dVertex
 10
9.544817469321642
 20
16.57740675094614
 30
0.0
  0
VERTEX
  5
8DE
330
8DA
100
AcDbEntity
  8
Livello 1
100
AcDbVertex
100
AcDb2dVertex
 10
9.592090638933299
 20
16.57740675094614
 30
0.0
  0
VERTEX
  5
8DF
330
8DA
100
AcDbEntity
  8
Livello 1
100
AcDbVertex
100
AcDb2dVertex
 10
9.592090638933299
 20
16.35268694051643
 30
0.0
  0
SEQEND
  5
8E0
330
8DA
100
AcDbEntity
  8
Livello 1
  0
POLYLINE
  5
8E1
330
1F
100
AcDbEntity
  8
Livello 1
100
AcDb2dPolyline
 66
     1
 10
0.0
 20
0.0
 30
0.0
  0
VERTEX
  5
8E2
330
8E1
100
AcDbEntity
  8
Livello 1
100
AcDbVertex
100
AcDb2dVertex
 10
9.593503666378438
 20
16.18864656580164
 30
0.0
  0
VERTEX
  5
8E3
330
8E1
100
AcDbEntity
  8
Livello 1
100
AcDbVertex
100
AcDb2dVertex
 10
9.546230496766753
 20
16.18864656580164
 30
0.0
  0
VERTEX
  5
8E4
330
8E1
100
AcDbEntity
  8
Livello 1
100
AcDbVertex
100
AcDb2dVertex
 10
9.546230496766753
 20
16.35268694051643
 30
0.0
  0
VERTEX
  5
8E5
330
8E1
100
AcDbEntity
  8
Livello 1
100
AcDbVertex
100
AcDb2dVertex
 10
9.593503666378438
 20
16.35268694051643
 30
0.0
  0
VERTEX
  5
8E6
330
8E1
100
AcDbEntity
  8
Livello 1
100
AcDbVertex
100
AcDb2dVertex
 10
9.593503666378438
 20
16.18864656580164
 30
0.0
  0
SEQEND
  5
8E7
330
8E1
100
AcDbEntity
  8
Livello 1
  0
POLYLINE
  5
8E8
330
1F
100
AcDbEntity
  8
Livello 1
100
AcDb2dPolyline
 66
     1
 10
0.0
 20
0.0
 30
0.0
  0
VERTEX
  5
8E9
330
8E8
100
AcDbEntity
  8
Livello 1
100
AcDbVertex
100
AcDb2dVertex
 10
9.593503666378438
 20
15.77377901643294
 30
0.0
  0
VERTEX
  5
8EA
330
8E8
100
AcDbEntity
  8
Livello 1
100
AcDbVertex
100
AcDb2dVertex
 10
9.546230496766753
 20
15.77377901643294
 30
0.0
  0
VERTEX
  5
8EB
330
8E8
100
AcDbEntity
  8
Livello 1
100
AcDbVertex
100
AcDb2dVertex
 10
9.546230496766753
 20
15.96392675537194
 30
0.0
  0
VERTEX
  5
8EC
330
8E8
100
AcDbEntity
  8
Livello 1
100
AcDbVertex
100
AcDb2dVertex
 10
9.593503666378438
 20
15.96392675537194
 30
0.0
  0
VERTEX
  5
8ED
330
8E8
100
AcDbEntity
  8
Livello 1
100
AcDbVertex
100
AcDb2dVertex
 10
9.593503666378438
 20
15.77377901643294
 30
0.0
  0
SEQEND
  5
8EE
330
8E8
100
AcDbEntity
  8
Livello 1
  0
POLYLINE
  5
8EF
330
1F
100
AcDbEntity
  8
Livello 1
100
AcDb2dPolyline
 66
     1
 10
0.0
 20
0.0
 30
0.0
  0
VERTEX
  5
8F0
330
8EF
100
AcDbEntity
  8
Livello 1
100
AcDbVertex
100
AcDb2dVertex
 10
9.593503666378438
 20
16.96616693609064
 30
0.0
  0
VERTEX
  5
8F1
330
8EF
100
AcDbEntity
  8
Livello 1
100
AcDbVertex
100
AcDb2dVertex
 10
9.546230496766753
 20
16.96616693609064
 30
0.0
  0
VERTEX
  5
8F2
330
8EF
100
AcDbEntity
  8
Livello 1
100
AcDbVertex
100
AcDb2dVertex
 10
9.546230496766753
 20
17.17359936503455
 30
0.0
  0
VERTEX
  5
8F3
330
8EF
100
AcDbEntity
  8
Livello 1
100
AcDbVertex
100
AcDb2dVertex
 10
9.593503666378438
 20
17.17359936503455
 30
0.0
  0
VERTEX
  5
8F4
330
8EF
100
AcDbEntity
  8
Livello 1
100
AcDbVertex
100
AcDb2dVertex
 10
9.593503666378438
 20
16.96616693609064
 30
0.0
  0
SEQEND
  5
8F5
330
8EF
100
AcDbEntity
  8
Livello 1
  0
POLYLINE
  5
8F6
330
1F
100
AcDbEntity
  8
Livello 1
100
AcDb2dPolyline
 66
     1
 10
0.0
 20
0.0
 30
0.0
  0
VERTEX
  5
8F7
330
8F6
100
AcDbEntity
  8
Livello 1
100
AcDbVertex
100
AcDb2dVertex
 10
9.593503666378438
 20
16.57740675094614
 30
0.0
  0
VERTEX
  5
8F8
330
8F6
100
AcDbEntity
  8
Livello 1
100
AcDbVertex
100
AcDb2dVertex
 10
9.546230496766753
 20
16.57740675094614
 30
0.0
  0
VERTEX
  5
8F9
330
8F6
100
AcDbEntity
  8
Livello 1
100
AcDbVertex
100
AcDb2dVertex
 10
9.546230496766753
 20
16.74144712566105
 30
0.0
  0
VERTEX
  5
8FA
330
8F6
100
AcDbEntity
  8
Livello 1
100
AcDbVertex
100
AcDb2dVertex
 10
9.593503666378438
 20
16.74144712566105
 30
0.0
  0
VERTEX
  5
8FB
330
8F6
100
AcDbEntity
  8
Livello 1
100
AcDbVertex
100
AcDb2dVertex
 10
9.593503666378438
 20
16.57740675094614
 30
0.0
  0
SEQEND
  5
8FC
330
8F6
100
AcDbEntity
  8
Livello 1
  0
POLYLINE
  5
8FD
330
1F
100
AcDbEntity
  8
Livello 1
100
AcDb2dPolyline
 66
     1
 10
0.0
 20
0.0
 30
0.0
  0
VERTEX
  5
8FE
330
8FD
100
AcDbEntity
  8
Livello 1
100
AcDbVertex
100
AcDb2dVertex
 10
0.8908277749824691
 20
17.27096637618643
 30
0.0
  0
VERTEX
  5
8FF
330
8FD
100
AcDbEntity
  8
Livello 1
100
AcDbVertex
100
AcDb2dVertex
 10
0.8671911901766407
 20
17.27096637618643
 30
0.0
  0
VERTEX
  5
900
330
8FD
100
AcDbEntity
  8
Livello 1
100
AcDbVertex
100
AcDb2dVertex
 10
0.8671911901766407
 20
17.31823954579813
 30
0.0
  0
VERTEX
  5
901
330
8FD
100
AcDbEntity
  8
Livello 1
100
AcDbVertex
100
AcDb2dVertex
 10
0.8908277749824691
 20
17.31823954579813
 30
0.0
  0
VERTEX
  5
902
330
8FD
100
AcDbEntity
  8
Livello 1
100
AcDbVertex
100
AcDb2dVertex
 10
0.8908277749824691
 20
17.27096637618643
 30
0.0
  0
SEQEND
  5
903
330
8FD
100
AcDbEntity
  8
Livello 1
  0
POLYLINE
  5
904
330
1F
100
AcDbEntity
  8
Livello 1
100
AcDb2dPolyline
 66
     1
 10
0.0
 20
0.0
 30
0.0
  0
VERTEX
  5
905
330
904
100
AcDbEntity
  8
Livello 1
100
AcDbVertex
100
AcDb2dVertex
 10
0.9194032271440875
 20
17.27096637618643
 30
0.0
  0
VERTEX
  5
906
330
904
100
AcDbEntity
  8
Livello 1
100
AcDbVertex
100
AcDb2dVertex
 10
0.8908277749824691
 20
17.27096637618643
 30
0.0
  0
VERTEX
  5
907
330
904
100
AcDbEntity
  8
Livello 1
100
AcDbVertex
100
AcDb2dVertex
 10
0.8908277749824691
 20
17.31823954579813
 30
0.0
  0
VERTEX
  5
908
330
904
100
AcDbEntity
  8
Livello 1
100
AcDbVertex
100
AcDb2dVertex
 10
0.9194032271440875
 20
17.31823954579813
 30
0.0
  0
VERTEX
  5
909
330
904
100
AcDbEntity
  8
Livello 1
100
AcDbVertex
100
AcDb2dVertex
 10
0.9194032271440875
 20
17.27096637618643
 30
0.0
  0
SEQEND
  5
90A
330
904
100
AcDbEntity
  8
Livello 1
  0
SPLINE
  5
90B
330
1F
100
AcDbEntity
  8
Livello 1
100
AcDbSpline
210
0.0
220
0.0
230
1.0
 70
     9
 71
     3
 72
    17
 73
    13
 74
     0
 42
0.000000001
 43
0.0000000001
 40
0.0
 40
0.0
 40
0.0
 40
0.0
 40
1.0
 40
1.0
 40
1.0
 40
2.0
 40
2.0
 40
2.0
 40
3.0
 40
3.0
 40
3.0
 40
4.0
 40
4.0
 40
4.0
 40
4.0
 10
0.7449185609991389
 20
17.25784540705315
 30
0.0
 10
0.7435068792944719
 20
17.27266200912064
 30
0.0
 10
0.7449185609991389
 20
17.28677075172504
 30
0.0
 10
0.749150914632395
 20
17.30123476980135
 30
0.0
 10
0.749150914632395
 20
17.30123476980135
 30
0.0
 10
0.794659818548297
 20
17.28818377917014
 30
0.0
 10
0.794659818548297
 20
17.28818377917014
 30
0.0
 10
0.7918378008793212
 20
17.27936379643174
 30
0.0
 10
0.7911312871567447
 20
17.27124898167544
 30
0.0
 10
0.7921903848703949
 20
17.26207641494605
 30
0.0
 10
0.7921903848703949
 20
17.26207641494605
 30
0.0
 10
0.7449185609991389
 20
17.25784540705315
 30
0.0
 10
0.7449185609991389
 20
17.25784540705315
 30
0.0
  0
SPLINE
  5
90C
330
1F
100
AcDbEntity
  8
Livello 1
100
AcDbSpline
210
0.0
220
0.0
230
1.0
 70
     9
 71
     3
 72
    17
 73
    13
 74
     0
 42
0.000000001
 43
0.0000000001
 40
0.0
 40
0.0
 40
0.0
 40
0.0
 40
1.0
 40
1.0
 40
1.0
 40
2.0
 40
2.0
 40
2.0
 40
3.0
 40
3.0
 40
3.0
 40
4.0
 40
4.0
 40
4.0
 40
4.0
 10
0.7954363107728995
 20
17.29453298249024
 30
0.0
 10
0.7954363107728995
 20
17.29453298249024
 30
0.0
 10
0.7481631411612426
 20
17.29453298249024
 30
0.0
 10
0.7481631411612426
 20
17.29453298249024
 30
0.0
 10
0.7481631411612426
 20
17.31005475253985
 30
0.0
 10
0.7354633887806444
 20
17.32275315917994
 30
0.0
 10
0.7199416187310988
 20
17.32275315917994
 30
0.0
 10
0.7199416187310988
 20
17.32275315917994
 30
0.0
 10
0.720294202722144
 20
17.37002632879164
 30
0.0
 10
0.720294202722144
 20
17.37002632879164
 30
0.0
 10
0.7615694072643891
 20
17.37002632879164
 30
0.0
 10
0.7954363107728995
 20
17.33615942528316
 30
0.0
 10
0.7954363107728995
 20
17.29453298249024
 30
0.0
  0
POLYLINE
  5
90D
330
1F
100
AcDbEntity
  8
Livello 1
100
AcDb2dPolyline
 66
     1
 10
0.0
 20
0.0
 30
0.0
  0
VERTEX
  5
90E
330
90D
100
AcDbEntity
  8
Livello 1
100
AcDbVertex
100
AcDb2dVertex
 10
0.7119694524597549
 20
17.23639430469575
 30
0.0
  0
VERTEX
  5
90F
330
90D
100
AcDbEntity
  8
Livello 1
100
AcDbVertex
100
AcDb2dVertex
 10
0.5571002987339569
 20
17.23639430469575
 30
0.0
  0
VERTEX
  5
910
330
90D
100
AcDbEntity
  8
Livello 1
100
AcDbVertex
100
AcDb2dVertex
 10
0.5571002987339569
 20
17.28366747430745
 30
0.0
  0
VERTEX
  5
911
330
90D
100
AcDbEntity
  8
Livello 1
100
AcDbVertex
100
AcDb2dVertex
 10
0.7119694524597549
 20
17.28366747430745
 30
0.0
  0
VERTEX
  5
912
330
90D
100
AcDbEntity
  8
Livello 1
100
AcDbVertex
100
AcDb2dVertex
 10
0.7119694524597549
 20
17.23639430469575
 30
0.0
  0
SEQEND
  5
913
330
90D
100
AcDbEntity
  8
Livello 1
  0
POLYLINE
  5
914
330
1F
100
AcDbEntity
  8
Livello 1
100
AcDb2dPolyline
 66
     1
 10
0.0
 20
0.0
 30
0.0
  0
VERTEX
  5
915
330
914
100
AcDbEntity
  8
Livello 1
100
AcDbVertex
100
AcDb2dVertex
 10
0.7356060372655833
 20
15.92935468388134
 30
0.0
  0
VERTEX
  5
916
330
914
100
AcDbEntity
  8
Livello 1
100
AcDbVertex
100
AcDb2dVertex
 10
0.6883342133943558
 20
15.92935468388134
 30
0.0
  0
VERTEX
  5
917
330
914
100
AcDbEntity
  8
Livello 1
100
AcDbVertex
100
AcDb2dVertex
 10
0.6883342133943558
 20
17.26003358098244
 30
0.0
  0
VERTEX
  5
918
330
914
100
AcDbEntity
  8
Livello 1
100
AcDbVertex
100
AcDb2dVertex
 10
0.7356060372655833
 20
17.26003358098244
 30
0.0
  0
VERTEX
  5
919
330
914
100
AcDbEntity
  8
Livello 1
100
AcDbVertex
100
AcDb2dVertex
 10
0.7356060372655833
 20
15.92935468388134
 30
0.0
  0
SEQEND
  5
91A
330
914
100
AcDbEntity
  8
Livello 1
  0
POLYLINE
  5
91B
330
1F
100
AcDbEntity
  8
Livello 1
100
AcDb2dPolyline
 66
     1
 10
0.0
 20
0.0
 30
0.0
  0
VERTEX
  5
91C
330
91B
100
AcDbEntity
  8
Livello 1
100
AcDbVertex
100
AcDb2dVertex
 10
0.5807368835397853
 20
15.92935468388134
 30
0.0
  0
VERTEX
  5
91D
330
91B
100
AcDbEntity
  8
Livello 1
100
AcDbVertex
100
AcDb2dVertex
 10
0.5334650596685578
 20
15.92935468388134
 30
0.0
  0
VERTEX
  5
91E
330
91B
100
AcDbEntity
  8
Livello 1
100
AcDbVertex
100
AcDb2dVertex
 10
0.5334650596685578
 20
17.26003358098244
 30
0.0
  0
VERTEX
  5
91F
330
91B
100
AcDbEntity
  8
Livello 1
100
AcDbVertex
100
AcDb2dVertex
 10
0.5807368835397853
 20
17.26003358098244
 30
0.0
  0
VERTEX
  5
920
330
91B
100
AcDbEntity
  8
Livello 1
100
AcDbVertex
100
AcDb2dVertex
 10
0.5807368835397853
 20
15.92935468388134
 30
0.0
  0
SEQEND
  5
921
330
91B
100
AcDbEntity
  8
Livello 1
  0
POLYLINE
  5
922
330
1F
100
AcDbEntity
  8
Livello 1
100
AcDb2dPolyline
 66
     1
 10
0.0
 20
0.0
 30
0.0
  0
VERTEX
  5
923
330
922
100
AcDbEntity
  8
Livello 1
100
AcDbVertex
100
AcDb2dVertex
 10
0.7119694524597549
 20
15.90571809907556
 30
0.0
  0
VERTEX
  5
924
330
922
100
AcDbEntity
  8
Livello 1
100
AcDbVertex
100
AcDb2dVertex
 10
0.5571002987339569
 20
15.90571809907556
 30
0.0
  0
VERTEX
  5
925
330
922
100
AcDbEntity
  8
Livello 1
100
AcDbVertex
100
AcDb2dVertex
 10
0.5571002987339569
 20
15.95299126868714
 30
0.0
  0
VERTEX
  5
926
330
922
100
AcDbEntity
  8
Livello 1
100
AcDbVertex
100
AcDb2dVertex
 10
0.7119694524597549
 20
15.95299126868714
 30
0.0
  0
VERTEX
  5
927
330
922
100
AcDbEntity
  8
Livello 1
100
AcDbVertex
100
AcDb2dVertex
 10
0.7119694524597549
 20
15.90571809907556
 30
0.0
  0
SEQEND
  5
928
330
922
100
AcDbEntity
  8
Livello 1
  0
POLYLINE
  5
929
330
1F
100
AcDbEntity
  8
Livello 1
100
AcDb2dPolyline
 66
     1
 10
0.0
 20
0.0
 30
0.0
  0
VERTEX
  5
92A
330
929
100
AcDbEntity
  8
Livello 1
100
AcDbVertex
100
AcDb2dVertex
 10
0.7920504278663003
 20
15.92935468388134
 30
0.0
  0
VERTEX
  5
92B
330
929
100
AcDbEntity
  8
Livello 1
100
AcDbVertex
100
AcDb2dVertex
 10
0.7447786039950586
 20
15.92935468388134
 30
0.0
  0
VERTEX
  5
92C
330
929
100
AcDbEntity
  8
Livello 1
100
AcDbVertex
100
AcDb2dVertex
 10
0.7447786039950586
 20
17.26003358098244
 30
0.0
  0
VERTEX
  5
92D
330
929
100
AcDbEntity
  8
Livello 1
100
AcDbVertex
100
AcDb2dVertex
 10
0.7920504278663003
 20
17.26003358098244
 30
0.0
  0
VERTEX
  5
92E
330
929
100
AcDbEntity
  8
Livello 1
100
AcDbVertex
100
AcDb2dVertex
 10
0.7920504278663003
 20
15.92935468388134
 30
0.0
  0
SEQEND
  5
92F
330
929
100
AcDbEntity
  8
Livello 1
  0
POLYLINE
  5
930
330
1F
100
AcDbEntity
  8
Livello 1
100
AcDb2dPolyline
 66
     1
 10
0.0
 20
0.0
 30
0.0
  0
VERTEX
  5
931
330
930
100
AcDbEntity
  8
Livello 1
100
AcDbVertex
100
AcDb2dVertex
 10
0.8908277749824691
 20
15.87114602758484
 30
0.0
  0
VERTEX
  5
932
330
930
100
AcDbEntity
  8
Livello 1
100
AcDbVertex
100
AcDb2dVertex
 10
0.8671911901766407
 20
15.87114602758484
 30
0.0
  0
VERTEX
  5
933
330
930
100
AcDbEntity
  8
Livello 1
100
AcDbVertex
100
AcDb2dVertex
 10
0.8671911901766407
 20
15.91841919719654
 30
0.0
  0
VERTEX
  5
934
330
930
100
AcDbEntity
  8
Livello 1
100
AcDbVertex
100
AcDb2dVertex
 10
0.8908277749824691
 20
15.91841919719654
 30
0.0
  0
VERTEX
  5
935
330
930
100
AcDbEntity
  8
Livello 1
100
AcDbVertex
100
AcDb2dVertex
 10
0.8908277749824691
 20
15.87114602758484
 30
0.0
  0
SEQEND
  5
936
330
930
100
AcDbEntity
  8
Livello 1
  0
POLYLINE
  5
937
330
1F
100
AcDbEntity
  8
Livello 1
100
AcDb2dPolyline
 66
     1
 10
0.0
 20
0.0
 30
0.0
  0
VERTEX
  5
938
330
937
100
AcDbEntity
  8
Livello 1
100
AcDbVertex
100
AcDb2dVertex
 10
0.8671925359170273
 20
15.87114602758484
 30
0.0
  0
VERTEX
  5
939
330
937
100
AcDbEntity
  8
Livello 1
100
AcDbVertex
100
AcDb2dVertex
 10
0.7715897904609222
 20
15.87114602758484
 30
0.0
  0
VERTEX
  5
93A
330
937
100
AcDbEntity
  8
Livello 1
100
AcDbVertex
100
AcDb2dVertex
 10
0.7715897904609222
 20
15.91841919719654
 30
0.0
  0
VERTEX
  5
93B
330
937
100
AcDbEntity
  8
Livello 1
100
AcDbVertex
100
AcDb2dVertex
 10
0.8671925359170273
 20
15.91841919719654
 30
0.0
  0
VERTEX
  5
93C
330
937
100
AcDbEntity
  8
Livello 1
100
AcDbVertex
100
AcDb2dVertex
 10
0.8671925359170273
 20
15.87114602758484
 30
0.0
  0
SEQEND
  5
93D
330
937
100
AcDbEntity
  8
Livello 1
  0
SPLINE
  5
93E
330
1F
100
AcDbEntity
  8
Livello 1
100
AcDbSpline
210
0.0
220
0.0
230
1.0
 70
     9
 71
     3
 72
    17
 73
    13
 74
     0
 42
0.000000001
 43
0.0000000001
 40
0.0
 40
0.0
 40
0.0
 40
0.0
 40
1.0
 40
1.0
 40
1.0
 40
2.0
 40
2.0
 40
2.0
 40
3.0
 40
3.0
 40
3.0
 40
4.0
 40
4.0
 40
4.0
 40
4.0
 10
0.720224224220118
 20
15.81939154236154
 30
0.0
 10
0.720224224220118
 20
15.81939154236154
 30
0.0
 10
0.7198702944886435
 20
15.86666202049234
 30
0.0
 10
0.7198702944886435
 20
15.86666202049234
 30
0.0
 10
0.7353934102786042
 20
15.86666202049234
 30
0.0
 10
0.7480931626591883
 20
15.87936311861334
 30
0.0
 10
0.7480931626591883
 20
15.89488488866293
 30
0.0
 10
0.7480931626591883
 20
15.89488488866293
 30
0.0
 10
0.79536498653043
 20
15.89488488866293
 30
0.0
 10
0.79536498653043
 20
15.89488488866293
 30
0.0
 10
0.79536498653043
 20
15.85325575438914
 30
0.0
 10
0.7618506670129932
 20
15.81939154236154
 30
0.0
 10
0.720224224220118
 20
15.81939154236154
 30
0.0
  0
SPLINE
  5
93F
330
1F
100
AcDbEntity
  8
Livello 1
100
AcDbSpline
210
0.0
220
0.0
230
1.0
 70
     9
 71
     3
 72
    17
 73
    13
 74
     0
 42
0.000000001
 43
0.0000000001
 40
0.0
 40
0.0
 40
0.0
 40
0.0
 40
1.0
 40
1.0
 40
1.0
 40
2.0
 40
2.0
 40
2.0
 40
3.0
 40
3.0
 40
3.0
 40
4.0
 40
4.0
 40
4.0
 40
4.0
 10
0.7490109576283288
 20
15.88832574983664
 30
0.0
 10
0.7447772582546435
 20
15.90278707643213
 30
0.0
 10
0.7433655765499481
 20
15.91689851051745
 30
0.0
 10
0.7447772582546435
 20
15.93171511258494
 30
0.0
 10
0.7447772582546435
 20
15.93171511258494
 30
0.0
 10
0.7920490821258852
 20
15.92712882922015
 30
0.0
 10
0.7920490821258852
 20
15.92712882922015
 30
0.0
 10
0.7913439141437522
 20
15.91831153796265
 30
0.0
 10
0.7920490821258852
 20
15.91019672320635
 30
0.0
 10
0.7945185158037873
 20
15.90137674046794
 30
0.0
 10
0.7945185158037873
 20
15.90137674046794
 30
0.0
 10
0.7490109576283288
 20
15.88832574983664
 30
0.0
 10
0.7490109576283288
 20
15.88832574983664
 30
0.0
  0
POLYLINE
  5
940
330
1F
100
AcDbEntity
  8
Livello 1
100
AcDb2dPolyline
 66
     1
 10
0.0
 20
0.0
 30
0.0
  0
VERTEX
  5
941
330
940
100
AcDbEntity
  8
Livello 1
100
AcDbVertex
100
AcDb2dVertex
 10
0.9194032271440875
 20
15.87114602758484
 30
0.0
  0
VERTEX
  5
942
330
940
100
AcDbEntity
  8
Livello 1
100
AcDbVertex
100
AcDb2dVertex
 10
0.8908277749824691
 20
15.87114602758484
 30
0.0
  0
VERTEX
  5
943
330
940
100
AcDbEntity
  8
Livello 1
100
AcDbVertex
100
AcDb2dVertex
 10
0.8908277749824691
 20
15.91841919719654
 30
0.0
  0
VERTEX
  5
944
330
940
100
AcDbEntity
  8
Livello 1
100
AcDbVertex
100
AcDb2dVertex
 10
0.9194032271440875
 20
15.91841919719654
 30
0.0
  0
VERTEX
  5
945
330
940
100
AcDbEntity
  8
Livello 1
100
AcDbVertex
100
AcDb2dVertex
 10
0.9194032271440875
 20
15.87114602758484
 30
0.0
  0
SEQEND
  5
946
330
940
100
AcDbEntity
  8
Livello 1
  0
POLYLINE
  5
947
330
1F
100
AcDbEntity
  8
Livello 1
100
AcDb2dPolyline
 66
     1
 10
0.0
 20
0.0
 30
0.0
  0
VERTEX
  5
948
330
947
100
AcDbEntity
  8
Livello 1
100
AcDbVertex
100
AcDb2dVertex
 10
0.8671925359170273
 20
17.27096637618643
 30
0.0
  0
VERTEX
  5
949
330
947
100
AcDbEntity
  8
Livello 1
100
AcDbVertex
100
AcDb2dVertex
 10
0.7715897904609222
 20
17.27096637618643
 30
0.0
  0
VERTEX
  5
94A
330
947
100
AcDbEntity
  8
Livello 1
100
AcDbVertex
100
AcDb2dVertex
 10
0.7715897904609222
 20
17.31823954579813
 30
0.0
  0
VERTEX
  5
94B
330
947
100
AcDbEntity
  8
Livello 1
100
AcDbVertex
100
AcDb2dVertex
 10
0.8671925359170273
 20
17.31823954579813
 30
0.0
  0
VERTEX
  5
94C
330
947
100
AcDbEntity
  8
Livello 1
100
AcDbVertex
100
AcDb2dVertex
 10
0.8671925359170273
 20
17.27096637618643
 30
0.0
  0
SEQEND
  5
94D
330
947
100
AcDbEntity
  8
Livello 1
  0
SPLINE
  5
94E
330
1F
100
AcDbEntity
  8
Livello 1
100
AcDbSpline
210
0.0
220
0.0
230
1.0
 70
     8
 71
     3
 72
    11
 73
     7
 74
     0
 42
0.000000001
 43
0.0000000001
 40
0.0
 40
0.0
 40
0.0
 40
0.0
 40
1.0
 40
1.0
 40
1.0
 40
2.0
 40
2.0
 40
2.0
 40
2.0
 10
0.563979723781074
 20
16.83137219226854
 30
0.0
 10
0.540695722966305
 20
16.83207736025075
 30
0.0
 10
0.5283485545767946
 20
16.84089465150823
 30
0.0
 10
0.517765651883039
 20
16.86100539640342
 30
0.0
 10
0.5078879171714164
 20
16.88005300636364
 30
0.0
 10
0.5103573508493185
 20
16.89839813982264
 30
0.0
 10
0.5103573508493185
 20
16.91780102525473
 30
0.0
  0
SPLINE
  5
94F
330
1F
100
AcDbEntity
  8
Livello 1
100
AcDbSpline
210
0.0
220
0.0
230
1.0
 70
     8
 71
     3
 72
    11
 73
     7
 74
     0
 42
0.000000001
 43
0.0000000001
 40
0.0
 40
0.0
 40
0.0
 40
0.0
 40
1.0
 40
1.0
 40
1.0
 40
2.0
 40
2.0
 40
2.0
 40
2.0
 10
9.914955298479853
 20
16.79676244004605
 30
0.0
 10
9.914955298479853
 20
16.77735955461384
 30
0.0
 10
9.918128554399487
 20
16.75901442115494
 30
0.0
 10
9.908250819687864
 20
16.73996411971385
 30
0.0
 10
9.897667916994095
 20
16.71950348230845
 30
0.0
 10
9.884966818873138
 20
16.71103608356114
 30
0.0
 10
9.861685509539185
 20
16.71033091557893
 30
0.0
  0
SPLINE
  5
950
330
1F
100
AcDbEntity
  8
Livello 1
100
AcDbSpline
210
0.0
220
0.0
230
1.0
 70
     8
 71
     3
 72
     8
 73
     4
 74
     0
 42
0.000000001
 43
0.0000000001
 40
0.0
 40
0.0
 40
0.0
 40
0.0
 40
1.0
 40
1.0
 40
1.0
 40
1.0
 10
9.559776719874022
 20
16.72553778236936
 30
0.0
 10
9.56788884314939
 20
16.71495218819474
 30
0.0
 10
9.57635624189676
 20
16.71071848882106
 30
0.0
 10
9.589762507999893
 20
16.71036590483004
 30
0.0
  0
SPLINE
  5
951
330
1F
100
AcDbEntity
  8
Livello 1
100
AcDbSpline
210
0.0
220
0.0
230
1.0
 70
     8
 71
     3
 72
     8
 73
     4
 74
     0
 42
0.000000001
 43
0.0000000001
 40
0.0
 40
0.0
 40
0.0
 40
0.0
 40
1.0
 40
1.0
 40
1.0
 40
1.0
 10
9.569972049325656
 20
16.76219036855544
 30
0.0
 10
9.569972049325656
 20
16.73361491639375
 30
0.0
 10
9.592900774668493
 20
16.71033091557893
 30
0.0
 10
9.621476226830154
 20
16.71033091557893
 30
0.0
  0
SPLINE
  5
952
330
1F
100
AcDbEntity
  8
Livello 1
100
AcDbSpline
210
0.0
220
0.0
230
1.0
 70
     8
 71
     3
 72
     8
 73
     4
 74
     0
 42
0.000000001
 43
0.0000000001
 40
0.0
 40
0.0
 40
0.0
 40
0.0
 40
1.0
 40
1.0
 40
1.0
 40
1.0
 10
9.65358021038331
 20
16.76219036855544
 30
0.0
 10
9.656400882311871
 20
16.77383102322236
 30
0.0
 10
9.657458634285077
 20
16.78476650990713
 30
0.0
 10
9.656400882311871
 20
16.79676244004605
 30
0.0
  0
SPLINE
  5
953
330
1F
100
AcDbEntity
  8
Livello 1
100
AcDbSpline
210
0.0
220
0.0
230
1.0
 70
     8
 71
     3
 72
     8
 73
     4
 74
     0
 42
0.000000001
 43
0.0000000001
 40
0.0
 40
0.0
 40
0.0
 40
0.0
 40
1.0
 40
1.0
 40
1.0
 40
1.0
 10
9.705262025623753
 20
16.71036859631084
 30
0.0
 10
9.676686573462134
 20
16.71036859631084
 30
0.0
 10
9.653402572647351
 20
16.73364990564474
 30
0.0
 10
9.653402572647351
 20
16.76222535780644
 30
0.0
  0
SPLINE
  5
954
330
1F
100
AcDbEntity
  8
Livello 1
100
AcDbSpline
210
0.0
220
0.0
230
1.0
 70
     8
 71
     3
 72
     8
 73
     4
 74
     0
 42
0.000000001
 43
0.0000000001
 40
0.0
 40
0.0
 40
0.0
 40
0.0
 40
1.0
 40
1.0
 40
1.0
 40
1.0
 10
0.7719773637030443
 20
16.88315897526205
 30
0.0
 10
0.7719773637030443
 20
16.85458352310044
 30
0.0
 10
0.7490459468793205
 20
16.83129952228563
 30
0.0
 10
0.7204704947177163
 20
16.83129952228563
 30
0.0
  0
SPLINE
  5
955
330
1F
100
AcDbEntity
  8
Livello 1
100
AcDbSpline
210
0.0
220
0.0
230
1.0
 70
     8
 71
     3
 72
     8
 73
     4
 74
     0
 42
0.000000001
 43
0.0000000001
 40
0.0
 40
0.0
 40
0.0
 40
0.0
 40
1.0
 40
1.0
 40
1.0
 40
1.0
 10
0.7686964485494912
 20
16.91773104675275
 30
0.0
 10
0.7676373508358694
 20
16.90573511661385
 30
0.0
 10
0.7686964485494912
 20
16.89479962992905
 30
0.0
 10
0.7718710502095405
 20
16.88315628378125
 30
0.0
  0
SPLINE
  5
956
330
1F
100
AcDbEntity
  8
Livello 1
100
AcDbSpline
210
0.0
220
0.0
230
1.0
 70
     9
 71
     3
 72
    17
 73
    13
 74
     0
 42
0.000000001
 43
0.0000000001
 40
0.0
 40
0.0
 40
0.0
 40
0.0
 40
1.0
 40
1.0
 40
1.0
 40
2.0
 40
2.0
 40
2.0
 40
3.0
 40
3.0
 40
3.0
 40
4.0
 40
4.0
 40
4.0
 40
4.0
 10
2.11888319883586
 20
5.42091449926616
 30
0.0
 10
2.115707251435395
 20
5.421972251239338
 30
0.0
 10
2.112180065784272
 20
5.423383932944062
 30
0.0
 10
2.109358048115325
 20
5.424794268908357
 30
0.0
 10
2.109358048115325
 20
5.424794268908357
 30
0.0
 10
2.127349251842787
 20
5.468538907128447
 30
0.0
 10
2.127349251842787
 20
5.468538907128447
 30
0.0
 10
2.127349251842787
 20
5.468538907128447
 30
0.0
 10
2.135110136867581
 20
5.465364305468455
 30
0.0
 10
2.135110136867581
 20
5.465364305468455
 30
0.0
 10
2.135110136867581
 20
5.465364305468455
 30
0.0
 10
2.11888319883586
 20
5.42091449926616
 30
0.0
 10
2.11888319883586
 20
5.42091449926616
 30
0.0
  0
SPLINE
  5
957
330
1F
100
AcDbEntity
  8
Livello 1
100
AcDbSpline
210
0.0
220
0.0
230
1.0
 70
     9
 71
     3
 72
    17
 73
    13
 74
     0
 42
0.000000001
 43
0.0000000001
 40
0.0
 40
0.0
 40
0.0
 40
0.0
 40
1.0
 40
1.0
 40
1.0
 40
2.0
 40
2.0
 40
2.0
 40
3.0
 40
3.0
 40
3.0
 40
4.0
 40
4.0
 40
4.0
 40
4.0
 10
2.393803164299214
 20
5.934911979742054
 30
0.0
 10
2.386393517525078
 20
5.939850847097829
 30
0.0
 10
2.378985216491386
 20
5.944789714453634
 30
0.0
 10
2.371224331466592
 20
5.949022068086833
 30
0.0
 10
2.371224331466592
 20
5.949022068086833
 30
0.0
 10
2.394860916272449
 20
5.990297272629163
 30
0.0
 10
2.394860916272449
 20
5.990297272629163
 30
0.0
 10
2.403680899010851
 20
5.985005821282243
 30
0.0
 10
2.412146952017764
 20
5.979714369935351
 30
0.0
 10
2.420613005024677
 20
5.974068988857055
 30
0.0
 10
2.420613005024677
 20
5.974068988857055
 30
0.0
 10
2.393803164299214
 20
5.934911979742054
 30
0.0
 10
2.393803164299214
 20
5.934911979742054
 30
0.0
  0
SPLINE
  5
958
330
1F
100
AcDbEntity
  8
Livello 1
100
AcDbSpline
210
0.0
220
0.0
230
1.0
 70
     9
 71
     3
 72
    17
 73
    13
 74
     0
 42
0.000000001
 43
0.0000000001
 40
0.0
 40
0.0
 40
0.0
 40
0.0
 40
1.0
 40
1.0
 40
1.0
 40
2.0
 40
2.0
 40
2.0
 40
3.0
 40
3.0
 40
3.0
 40
4.0
 40
4.0
 40
4.0
 40
4.0
 10
1.956817025322934
 20
5.401970511318552
 30
0.0
 10
1.938119307872881
 20
5.419961715046042
 30
0.0
 10
1.921891024100759
 20
5.438658086755651
 30
0.0
 10
1.907074422033346
 20
5.459825237883563
 30
0.0
 10
1.907074422033346
 20
5.459825237883563
 30
0.0
 10
1.945880192897675
 20
5.486636424349455
 30
0.0
 10
1.945880192897675
 20
5.486636424349455
 30
0.0
 10
1.958579945278245
 20
5.468292636630849
 30
0.0
 10
1.973043963354598
 20
5.452064352858741
 30
0.0
 10
1.989272247126734
 20
5.436542582809124
 30
0.0
 10
1.989272247126734
 20
5.436542582809124
 30
0.0
 10
1.956817025322934
 20
5.401970511318552
 30
0.0
 10
1.956817025322934
 20
5.401970511318552
 30
0.0
  0
SPLINE
  5
959
330
1F
100
AcDbEntity
  8
Livello 1
100
AcDbSpline
210
0.0
220
0.0
230
1.0
 70
     9
 71
     3
 72
    17
 73
    13
 74
     0
 42
0.000000001
 43
0.0000000001
 40
0.0
 40
0.0
 40
0.0
 40
0.0
 40
1.0
 40
1.0
 40
1.0
 40
2.0
 40
2.0
 40
2.0
 40
3.0
 40
3.0
 40
3.0
 40
4.0
 40
4.0
 40
4.0
 40
4.0
 10
2.121281308271306
 20
5.311906833447352
 30
0.0
 10
2.095880457769709
 20
5.318256036767451
 30
0.0
 10
2.071891288972807
 20
5.327076019505852
 30
0.0
 10
2.04790346591632
 20
5.338716674172729
 30
0.0
 10
2.04790346591632
 20
5.338716674172729
 30
0.0
 10
2.068716687312758
 20
5.381403560419727
 30
0.0
 10
2.068716687312758
 20
5.381403560419727
 30
0.0
 10
2.089531254449624
 20
5.371173241717059
 30
0.0
 10
2.110344475846076
 20
5.363412356692236
 30
0.0
 10
2.132569378947209
 20
5.357766975613856
 30
0.0
 10
2.132569378947209
 20
5.357766975613856
 30
0.0
 10
2.121281308271306
 20
5.311906833447352
 30
0.0
 10
2.121281308271306
 20
5.311906833447352
 30
0.0
  0
SPLINE
  5
95A
330
1F
100
AcDbEntity
  8
Livello 1
100
AcDbSpline
210
0.0
220
0.0
230
1.0
 70
     9
 71
     3
 72
    23
 73
    19
 74
     0
 42
0.000000001
 43
0.0000000001
 40
0.0
 40
0.0
 40
0.0
 40
0.0
 40
1.0
 40
1.0
 40
1.0
 40
2.0
 40
2.0
 40
2.0
 40
3.0
 40
3.0
 40
3.0
 40
4.0
 40
4.0
 40
4.0
 40
5.0
 40
5.0
 40
5.0
 40
6.0
 40
6.0
 40
6.0
 40
6.0
 10
2.342861506291939
 20
5.325524380797048
 30
0.0
 10
2.342861506291939
 20
5.325524380797048
 30
0.0
 10
2.325928054537669
 20
5.369621603008226
 30
0.0
 10
2.325928054537669
 20
5.369621603008226
 30
0.0
 10
2.439169419730205
 20
5.413364895487944
 30
0.0
 10
2.515369279754139
 20
5.51108449063085
 30
0.0
 10
2.530185881821566
 20
5.631734156857049
 30
0.0
 10
2.544649899897891
 20
5.752032584832647
 30
0.0
 10
2.493849544635139
 20
5.865273950025141
 30
0.0
 10
2.394013099805377
 20
5.934418093006456
 30
0.0
 10
2.394013099805377
 20
5.934418093006456
 30
0.0
 10
2.4211768702623
 20
5.973576447861859
 30
0.0
 10
2.4211768702623
 20
5.973576447861859
 30
0.0
 10
2.535477333168429
 20
5.894201986177847
 30
0.0
 10
2.59368598946493
 20
5.764379753222158
 30
0.0
 10
2.577105121701734
 20
5.626090121519155
 30
0.0
 10
2.560524253938538
 20
5.487801835556552
 30
0.0
 10
2.472682393507213
 20
5.375265638346149
 30
0.0
 10
2.342861506291939
 20
5.325524380797048
 30
0.0
  0
SPLINE
  5
95B
330
1F
100
AcDbEntity
  8
Livello 1
100
AcDbSpline
210
0.0
220
0.0
230
1.0
 70
     9
 71
     3
 72
    17
 73
    13
 74
     0
 42
0.000000001
 43
0.0000000001
 40
0.0
 40
0.0
 40
0.0
 40
0.0
 40
1.0
 40
1.0
 40
1.0
 40
2.0
 40
2.0
 40
2.0
 40
3.0
 40
3.0
 40
3.0
 40
4.0
 40
4.0
 40
4.0
 40
4.0
 10
2.346495005436537
 20
5.441975336900554
 30
0.0
 10
2.346495005436537
 20
5.441975336900554
 30
0.0
 10
2.322153252648575
 20
5.482544027720251
 30
0.0
 10
2.322153252648575
 20
5.482544027720251
 30
0.0
 10
2.386358528274101
 20
5.520644630602447
 30
0.0
 10
2.426222051111594
 20
5.588024507887951
 30
0.0
 10
2.428691484789482
 20
5.662814031947647
 30
0.0
 10
2.428691484789482
 20
5.662814031947647
 30
0.0
 10
2.475963308660737
 20
5.661049766251863
 30
0.0
 10
2.475963308660737
 20
5.661049766251863
 30
0.0
 10
2.472788707000717
 20
5.570385888151548
 30
0.0
 10
2.42445778541581
 20
5.488188063058231
 30
0.0
 10
2.346495005436537
 20
5.441975336900554
 30
0.0
  0
SPLINE
  5
95C
330
1F
100
AcDbEntity
  8
Livello 1
100
AcDbSpline
210
0.0
220
0.0
230
1.0
 70
     9
 71
     3
 72
    17
 73
    13
 74
     0
 42
0.000000001
 43
0.0000000001
 40
0.0
 40
0.0
 40
0.0
 40
0.0
 40
1.0
 40
1.0
 40
1.0
 40
2.0
 40
2.0
 40
2.0
 40
3.0
 40
3.0
 40
3.0
 40
4.0
 40
4.0
 40
4.0
 40
4.0
 10
2.015872152346034
 20
5.489601090503356
 30
0.0
 10
1.977066381481719
 20
5.531227533296146
 30
0.0
 10
1.955899230353807
 20
5.575324755507352
 30
0.0
 10
1.947785761337968
 20
5.631770491848556
 30
0.0
 10
1.947785761337968
 20
5.631770491848556
 30
0.0
 10
1.994705001218122
 20
5.638824863150745
 30
0.0
 10
1.994705001218122
 20
5.638824863150745
 30
0.0
 10
2.001408134269667
 20
5.59155303927946
 30
0.0
 10
2.018341586023936
 20
5.556628383797743
 30
0.0
 10
2.050444223836706
 20
5.521703728316055
 30
0.0
 10
2.050444223836706
 20
5.521703728316055
 30
0.0
 10
2.015872152346034
 20
5.489601090503356
 30
0.0
 10
2.015872152346034
 20
5.489601090503356
 30
0.0
  0
SPLINE
  5
95D
330
1F
100
AcDbEntity
  8
Livello 1
100
AcDbSpline
210
0.0
220
0.0
230
1.0
 70
     9
 71
     3
 72
    23
 73
    19
 74
     0
 42
0.000000001
 43
0.0000000001
 40
0.0
 40
0.0
 40
0.0
 40
0.0
 40
1.0
 40
1.0
 40
1.0
 40
2.0
 40
2.0
 40
2.0
 40
3.0
 40
3.0
 40
3.0
 40
4.0
 40
4.0
 40
4.0
 40
5.0
 40
5.0
 40
5.0
 40
6.0
 40
6.0
 40
6.0
 40
6.0
 10
8.023253367529164
 20
5.45146549837014
 30
0.0
 10
7.951991029120634
 20
5.501559339910329
 30
0.0
 10
7.910717170318804
 20
5.580581217603224
 30
0.0
 10
7.910363240587329
 20
5.667717910052431
 30
0.0
 10
7.910010656596242
 20
5.754853256761123
 30
0.0
 10
7.950580693156354
 20
5.834229064185535
 30
0.0
 10
8.021489101833395
 20
5.884675489716926
 30
0.0
 10
8.021489101833395
 20
5.884675489716926
 30
0.0
 10
8.049005456281435
 20
5.846223648584043
 30
0.0
 10
8.049005456281435
 20
5.846223648584043
 30
0.0
 10
7.990444215993875
 20
5.804595860050739
 30
0.0
 10
7.957283826207927
 20
5.739684070702736
 30
0.0
 10
7.957636410198986
 20
5.668070494043433
 30
0.0
 10
7.957988994190074
 20
5.596104333393242
 30
0.0
 10
7.99185589769857
 20
5.531545128036242
 30
0.0
 10
8.050417137986144
 20
5.490269923494054
 30
0.0
 10
8.050417137986144
 20
5.490269923494054
 30
0.0
 10
8.023253367529164
 20
5.45146549837014
 30
0.0
 10
8.023253367529164
 20
5.45146549837014
 30
0.0
  0
SPLINE
  5
95E
330
1F
100
AcDbEntity
  8
Livello 1
100
AcDbSpline
210
0.0
220
0.0
230
1.0
 70
     9
 71
     3
 72
    23
 73
    19
 74
     0
 42
0.000000001
 43
0.0000000001
 40
0.0
 40
0.0
 40
0.0
 40
0.0
 40
1.0
 40
1.0
 40
1.0
 40
2.0
 40
2.0
 40
2.0
 40
3.0
 40
3.0
 40
3.0
 40
4.0
 40
4.0
 40
4.0
 40
5.0
 40
5.0
 40
5.0
 40
6.0
 40
6.0
 40
6.0
 40
6.0
 10
8.330946149536401
 20
5.453088461321328
 30
0.0
 10
8.330946149536401
 20
5.453088461321328
 30
0.0
 10
8.303428449347975
 20
5.491540302454154
 30
0.0
 10
8.303428449347975
 20
5.491540302454154
 30
0.0
 10
8.400442876508762
 20
5.561390959158046
 30
0.0
 10
8.423371601851627
 20
5.697562395433863
 30
0.0
 10
8.353874874879238
 20
5.795281990576739
 30
0.0
 10
8.284378147906892
 20
5.89300158571973
 30
0.0
 10
8.148206711631104
 20
5.916285586534456
 30
0.0
 10
8.050134532497082
 20
5.847494027544229
 30
0.0
 10
8.050134532497082
 20
5.847494027544229
 30
0.0
 10
8.022970762040159
 20
5.885945868677055
 30
0.0
 10
8.022970762040159
 20
5.885945868677055
 30
0.0
 10
8.142208746561664
 20
5.969906613725754
 30
0.0
 10
8.308014732712706
 20
5.941332507304565
 30
0.0
 10
8.392328061752508
 20
5.82279834502475
 30
0.0
 10
8.476993974783354
 20
5.703912944494334
 30
0.0
 10
8.449478966075773
 20
5.538106958343234
 30
0.0
 10
8.330946149536401
 20
5.453088461321328
 30
0.0
  0
SPLINE
  5
95F
330
1F
100
AcDbEntity
  8
Livello 1
100
AcDbSpline
210
0.0
220
0.0
230
1.0
 70
     9
 71
     3
 72
    17
 73
    13
 74
     0
 42
0.000000001
 43
0.0000000001
 40
0.0
 40
0.0
 40
0.0
 40
0.0
 40
1.0
 40
1.0
 40
1.0
 40
2.0
 40
2.0
 40
2.0
 40
3.0
 40
3.0
 40
3.0
 40
4.0
 40
4.0
 40
4.0
 40
4.0
 10
8.250831530619237
 20
5.414000084968051
 30
0.0
 10
8.250831530619237
 20
5.414000084968051
 30
0.0
 10
8.237425264516105
 20
5.459507643143552
 30
0.0
 10
8.237425264516105
 20
5.459507643143552
 30
0.0
 10
8.261061849321947
 20
5.466210776195055
 30
0.0
 10
8.282227654709444
 20
5.476441094897722
 30
0.0
 10
8.302335708123735
 20
5.490905112974161
 30
0.0
 10
8.302335708123735
 20
5.490905112974161
 30
0.0
 10
8.329500824321101
 20
5.452099342109733
 30
0.0
 10
8.329500824321101
 20
5.452099342109733
 30
0.0
 10
8.30515907153314
 20
5.434813306364446
 30
0.0
 10
8.279404291300039
 20
5.422466137974936
 30
0.0
 10
8.250831530619237
 20
5.414000084968051
 30
0.0
  0
SPLINE
  5
960
330
1F
100
AcDbEntity
  8
Livello 1
100
AcDbSpline
210
0.0
220
0.0
230
1.0
 70
     9
 71
     3
 72
    23
 73
    19
 74
     0
 42
0.000000001
 43
0.0000000001
 40
0.0
 40
0.0
 40
0.0
 40
0.0
 40
1.0
 40
1.0
 40
1.0
 40
2.0
 40
2.0
 40
2.0
 40
3.0
 40
3.0
 40
3.0
 40
4.0
 40
4.0
 40
4.0
 40
5.0
 40
5.0
 40
5.0
 40
6.0
 40
6.0
 40
6.0
 40
6.0
 10
0.556006211769315
 20
2.369387529695558
 30
0.0
 10
0.5358968126145954
 20
2.371150449650855
 30
0.0
 10
0.5175530248960456
 20
2.380323016380344
 30
0.0
 10
0.504499342783987
 20
2.395844786429847
 30
0.0
 10
0.4914470064123151
 20
2.411367902219865
 30
0.0
 10
0.4854503870833043
 20
2.430770787652051
 30
0.0
 10
0.487213307038644
 20
2.450878841066355
 30
0.0
 10
0.487213307038644
 20
2.450878841066355
 30
0.0
 10
0.5341338926592414
 20
2.446997725683729
 30
0.0
 10
0.5341338926592414
 20
2.446997725683729
 30
0.0
 10
0.5334273789366933
 20
2.439589424650051
 30
0.0
 10
0.5358968126145954
 20
2.432181123616231
 30
0.0
 10
0.5408356799703995
 20
2.426537088278365
 30
0.0
 10
0.5454219633351301
 20
2.420539123208953
 30
0.0
 10
0.5524776803777627
 20
2.417011937557845
 30
0.0
 10
0.5598859814114974
 20
2.416659353566757
 30
0.0
 10
0.5598859814114974
 20
2.416659353566757
 30
0.0
 10
0.556006211769315
 20
2.369387529695558
 30
0.0
 10
0.556006211769315
 20
2.369387529695558
 30
0.0
  0
POLYLINE
  5
961
330
1F
100
AcDbEntity
  8
Livello 1
100
AcDb2dPolyline
 66
     1
 10
0.0
 20
0.0
 30
0.0
  0
VERTEX
  5
962
330
961
100
AcDbEntity
  8
Livello 1
100
AcDbVertex
100
AcDb2dVertex
 10
0.5341702276506908
 20
2.446997725683729
 30
0.0
  0
VERTEX
  5
963
330
961
100
AcDbEntity
  8
Livello 1
100
AcDbVertex
100
AcDb2dVertex
 10
0.486897058039034
 20
2.450877495325926
 30
0.0
  0
VERTEX
  5
964
330
961
100
AcDbEntity
  8
Livello 1
100
AcDbVertex
100
AcDb2dVertex
 10
0.4897190757079813
 20
2.485449566816555
 30
0.0
  0
VERTEX
  5
965
330
961
100
AcDbEntity
  8
Livello 1
100
AcDbVertex
100
AcDb2dVertex
 10
0.5369922453196665
 20
2.48156979717433
 30
0.0
  0
VERTEX
  5
966
330
961
100
AcDbEntity
  8
Livello 1
100
AcDbVertex
100
AcDb2dVertex
 10
0.5341702276506908
 20
2.446997725683729
 30
0.0
  0
SEQEND
  5
967
330
961
100
AcDbEntity
  8
Livello 1
  0
POLYLINE
  5
968
330
1F
100
AcDbEntity
  8
Livello 1
100
AcDb2dPolyline
 66
     1
 10
0.0
 20
0.0
 30
0.0
  0
VERTEX
  5
969
330
968
100
AcDbEntity
  8
Livello 1
100
AcDbVertex
100
AcDb2dVertex
 10
0.5370272345706724
 20
2.481393505178829
 30
0.0
  0
VERTEX
  5
96A
330
968
100
AcDbEntity
  8
Livello 1
100
AcDbVertex
100
AcDb2dVertex
 10
0.4897540649590014
 20
2.485273274821054
 30
0.0
  0
VERTEX
  5
96B
330
968
100
AcDbEntity
  8
Livello 1
100
AcDbVertex
100
AcDb2dVertex
 10
0.5733622260166698
 20
3.484692783611137
 30
0.0
  0
VERTEX
  5
96C
330
968
100
AcDbEntity
  8
Livello 1
100
AcDbVertex
100
AcDb2dVertex
 10
0.6206353956283551
 20
3.480811668228568
 30
0.0
  0
VERTEX
  5
96D
330
968
100
AcDbEntity
  8
Livello 1
100
AcDbVertex
100
AcDb2dVertex
 10
0.5370272345706724
 20
2.481393505178829
 30
0.0
  0
SEQEND
  5
96E
330
968
100
AcDbEntity
  8
Livello 1
  0
SPLINE
  5
96F
330
1F
100
AcDbEntity
  8
Livello 1
100
AcDbSpline
210
0.0
220
0.0
230
1.0
 70
     9
 71
     3
 72
    17
 73
    13
 74
     0
 42
0.000000001
 43
0.0000000001
 40
0.0
 40
0.0
 40
0.0
 40
0.0
 40
1.0
 40
1.0
 40
1.0
 40
2.0
 40
2.0
 40
2.0
 40
3.0
 40
3.0
 40
3.0
 40
4.0
 40
4.0
 40
4.0
 40
4.0
 10
0.6206004063773066
 20
3.480884338211438
 30
0.0
 10
0.6206004063773066
 20
3.480884338211438
 30
0.0
 10
0.5733272367656639
 20
3.484764107853635
 30
0.0
 10
0.5733272367656639
 20
3.484764107853635
 30
0.0
 10
0.5796777858261635
 20
3.559906215904362
 30
0.0
 10
0.6026078569094296
 20
3.623758907538729
 30
0.0
 10
0.6456473271474295
 20
3.685847333477454
 30
0.0
 10
0.6456473271474295
 20
3.685847333477454
 30
0.0
 10
0.6848056820028319
 20
3.658683563020559
 30
0.0
 10
0.6848056820028319
 20
3.658683563020559
 30
0.0
 10
0.6459999111384889
 20
3.603296924392935
 30
0.0
 10
0.626244441715258
 20
3.548264215496942
 30
0.0
 10
0.6206004063773066
 20
3.480884338211438
 30
0.0
  0
POLYLINE
  5
970
330
1F
100
AcDbEntity
  8
Livello 1
100
AcDb2dPolyline
 66
     1
 10
0.0
 20
0.0
 30
0.0
  0
VERTEX
  5
971
330
970
100
AcDbEntity
  8
Livello 1
100
AcDbVertex
100
AcDb2dVertex
 10
1.246039997098932
 20
4.417791512829353
 30
0.0
  0
VERTEX
  5
972
330
970
100
AcDbEntity
  8
Livello 1
100
AcDbVertex
100
AcDb2dVertex
 10
1.203353110852006
 20
4.447424716964235
 30
0.0
  0
VERTEX
  5
973
330
970
100
AcDbEntity
  8
Livello 1
100
AcDbVertex
100
AcDb2dVertex
 10
1.230516881308929
 20
4.486229142088149
 30
0.0
  0
VERTEX
  5
974
330
970
100
AcDbEntity
  8
Livello 1
100
AcDbVertex
100
AcDb2dVertex
 10
1.272849837824367
 20
4.456595937953238
 30
0.0
  0
VERTEX
  5
975
330
970
100
AcDbEntity
  8
Livello 1
100
AcDbVertex
100
AcDb2dVertex
 10
1.246039997098932
 20
4.417791512829353
 30
0.0
  0
SEQEND
  5
976
330
970
100
AcDbEntity
  8
Livello 1
  0
POLYLINE
  5
977
330
1F
100
AcDbEntity
  8
Livello 1
100
AcDb2dPolyline
 66
     1
 10
0.0
 20
0.0
 30
0.0
  0
VERTEX
  5
978
330
977
100
AcDbEntity
  8
Livello 1
100
AcDbVertex
100
AcDb2dVertex
 10
1.373780369618813
 20
4.32903185742893
 30
0.0
  0
VERTEX
  5
979
330
977
100
AcDbEntity
  8
Livello 1
100
AcDbVertex
100
AcDb2dVertex
 10
1.246073640609509
 20
4.417931469833433
 30
0.0
  0
VERTEX
  5
97A
330
977
100
AcDbEntity
  8
Livello 1
100
AcDbVertex
100
AcDb2dVertex
 10
1.272884827075387
 20
4.456737240697719
 30
0.0
  0
VERTEX
  5
97B
330
977
100
AcDbEntity
  8
Livello 1
100
AcDbVertex
100
AcDb2dVertex
 10
1.400590210344233
 20
4.367836282552843
 30
0.0
  0
VERTEX
  5
97C
330
977
100
AcDbEntity
  8
Livello 1
100
AcDbVertex
100
AcDb2dVertex
 10
1.373780369618813
 20
4.32903185742893
 30
0.0
  0
SEQEND
  5
97D
330
977
100
AcDbEntity
  8
Livello 1
  0
POLYLINE
  5
97E
330
1F
100
AcDbEntity
  8
Livello 1
100
AcDb2dPolyline
 66
     1
 10
0.0
 20
0.0
 30
0.0
  0
VERTEX
  5
97F
330
97E
100
AcDbEntity
  8
Livello 1
100
AcDbVertex
100
AcDb2dVertex
 10
0.7953663322708451
 20
2.459803791557732
 30
0.0
  0
VERTEX
  5
980
330
97E
100
AcDbEntity
  8
Livello 1
100
AcDbVertex
100
AcDb2dVertex
 10
0.7480931626591883
 20
2.463683561199928
 30
0.0
  0
VERTEX
  5
981
330
97E
100
AcDbEntity
  8
Livello 1
100
AcDbVertex
100
AcDb2dVertex
 10
0.8317013237168424
 20
3.463103069990154
 30
0.0
  0
VERTEX
  5
982
330
97E
100
AcDbEntity
  8
Livello 1
100
AcDbVertex
100
AcDb2dVertex
 10
0.8789744933285135
 20
3.459221954607556
 30
0.0
  0
VERTEX
  5
983
330
97E
100
AcDbEntity
  8
Livello 1
100
AcDbVertex
100
AcDb2dVertex
 10
0.7953663322708451
 20
2.459803791557732
 30
0.0
  0
SEQEND
  5
984
330
97E
100
AcDbEntity
  8
Livello 1
  0
POLYLINE
  5
985
330
1F
100
AcDbEntity
  8
Livello 1
100
AcDb2dPolyline
 66
     1
 10
0.0
 20
0.0
 30
0.0
  0
VERTEX
  5
986
330
985
100
AcDbEntity
  8
Livello 1
100
AcDbVertex
100
AcDb2dVertex
 10
0.684629390007288
 20
3.658754887262944
 30
0.0
  0
VERTEX
  5
987
330
985
100
AcDbEntity
  8
Livello 1
100
AcDbVertex
100
AcDb2dVertex
 10
0.6458236191429734
 20
3.685564727988435
 30
0.0
  0
VERTEX
  5
988
330
985
100
AcDbEntity
  8
Livello 1
100
AcDbVertex
100
AcDb2dVertex
 10
1.197567772769531
 20
4.480373825503647
 30
0.0
  0
VERTEX
  5
989
330
985
100
AcDbEntity
  8
Livello 1
100
AcDbVertex
100
AcDb2dVertex
 10
1.23637354363386
 20
4.453210055046639
 30
0.0
  0
VERTEX
  5
98A
330
985
100
AcDbEntity
  8
Livello 1
100
AcDbVertex
100
AcDb2dVertex
 10
0.684629390007288
 20
3.658754887262944
 30
0.0
  0
SEQEND
  5
98B
330
985
100
AcDbEntity
  8
Livello 1
  0
POLYLINE
  5
98C
330
1F
100
AcDbEntity
  8
Livello 1
100
AcDb2dPolyline
 66
     1
 10
0.0
 20
0.0
 30
0.0
  0
VERTEX
  5
98D
330
98C
100
AcDbEntity
  8
Livello 1
100
AcDbVertex
100
AcDb2dVertex
 10
0.7109117004865482
 20
2.356405171825855
 30
0.0
  0
VERTEX
  5
98E
330
98C
100
AcDbEntity
  8
Livello 1
100
AcDbVertex
100
AcDb2dVertex
 10
0.5560412010203351
 20
2.369457508197541
 30
0.0
  0
VERTEX
  5
98F
330
98C
100
AcDbEntity
  8
Livello 1
100
AcDbVertex
100
AcDb2dVertex
 10
0.5599223164029326
 20
2.416729332068854
 30
0.0
  0
VERTEX
  5
990
330
98C
100
AcDbEntity
  8
Livello 1
100
AcDbVertex
100
AcDb2dVertex
 10
0.7147914701287448
 20
2.403676995697139
 30
0.0
  0
VERTEX
  5
991
330
98C
100
AcDbEntity
  8
Livello 1
100
AcDbVertex
100
AcDb2dVertex
 10
0.7109117004865482
 20
2.356405171825855
 30
0.0
  0
SEQEND
  5
992
330
98C
100
AcDbEntity
  8
Livello 1
  0
SPLINE
  5
993
330
1F
100
AcDbEntity
  8
Livello 1
100
AcDbSpline
210
0.0
220
0.0
230
1.0
 70
     9
 71
     3
 72
    23
 73
    19
 74
     0
 42
0.000000001
 43
0.0000000001
 40
0.0
 40
0.0
 40
0.0
 40
0.0
 40
1.0
 40
1.0
 40
1.0
 40
2.0
 40
2.0
 40
2.0
 40
3.0
 40
3.0
 40
3.0
 40
4.0
 40
4.0
 40
4.0
 40
5.0
 40
5.0
 40
5.0
 40
6.0
 40
6.0
 40
6.0
 40
6.0
 10
0.7172972387980821
 20
2.356122566336836
 30
0.0
 10
0.7151803891112536
 20
2.356122566336836
 30
0.0
 10
0.713063539424411
 20
2.356122566336836
 30
0.0
 10
0.7109466897375683
 20
2.356475150327923
 30
0.0
 10
0.7109466897375683
 20
2.356475150327923
 30
0.0
 10
0.7148264593797507
 20
2.403394390208148
 30
0.0
 10
0.7148264593797507
 20
2.403394390208148
 30
0.0
 10
0.7299969911786662
 20
2.402689222225944
 30
0.0
 10
0.7441070795235448
 20
2.413977292901847
 30
0.0
 10
0.7451661772371523
 20
2.429146478960348
 30
0.0
 10
0.7451661772371523
 20
2.429146478960348
 30
0.0
 10
0.7924380011083941
 20
2.425266709318151
 30
0.0
 10
0.7924380011083941
 20
2.425266709318151
 30
0.0
 10
0.7906737354126392
 20
2.405158655903846
 30
0.0
 10
0.781502514423579
 20
2.387166106435927
 30
0.0
 10
0.7659793986335899
 20
2.374113770064326
 30
0.0
 10
0.752221894279785
 20
2.362471769656963
 30
0.0
 10
0.7352884425255298
 20
2.356122566336836
 30
0.0
 10
0.7172972387980821
 20
2.356122566336836
 30
0.0
  0
POLYLINE
  5
994
330
1F
100
AcDbEntity
  8
Livello 1
100
AcDb2dPolyline
 66
     1
 10
0.0
 20
0.0
 30
0.0
  0
VERTEX
  5
995
330
994
100
AcDbEntity
  8
Livello 1
100
AcDbVertex
100
AcDb2dVertex
 10
0.7924380011083941
 20
2.425373022811641
 30
0.0
  0
VERTEX
  5
996
330
994
100
AcDbEntity
  8
Livello 1
100
AcDbVertex
100
AcDb2dVertex
 10
0.7451648314967514
 20
2.429252792453837
 30
0.0
  0
VERTEX
  5
997
330
994
100
AcDbEntity
  8
Livello 1
100
AcDbVertex
100
AcDb2dVertex
 10
0.7483407788972017
 20
2.463824863944552
 30
0.0
  0
VERTEX
  5
998
330
994
100
AcDbEntity
  8
Livello 1
100
AcDbVertex
100
AcDb2dVertex
 10
0.7952600187773698
 20
2.459945094302355
 30
0.0
  0
VERTEX
  5
999
330
994
100
AcDbEntity
  8
Livello 1
100
AcDbVertex
100
AcDb2dVertex
 10
0.7924380011083941
 20
2.425373022811641
 30
0.0
  0
SEQEND
  5
99A
330
994
100
AcDbEntity
  8
Livello 1
  0
POLYLINE
  5
99B
330
1F
100
AcDbEntity
  8
Livello 1
100
AcDb2dPolyline
 66
     1
 10
0.0
 20
0.0
 30
0.0
  0
VERTEX
  5
99C
330
99B
100
AcDbEntity
  8
Livello 1
100
AcDbVertex
100
AcDb2dVertex
 10
0.897495918783008
 20
3.510905115588343
 30
0.0
  0
VERTEX
  5
99D
330
99B
100
AcDbEntity
  8
Livello 1
100
AcDbVertex
100
AcDb2dVertex
 10
0.8586901479186792
 20
3.537714956313834
 30
0.0
  0
VERTEX
  5
99E
330
99B
100
AcDbEntity
  8
Livello 1
100
AcDbVertex
100
AcDb2dVertex
 10
1.410434301545251
 20
4.332524053829047
 30
0.0
  0
VERTEX
  5
99F
330
99B
100
AcDbEntity
  8
Livello 1
100
AcDbVertex
100
AcDb2dVertex
 10
1.449240072409594
 20
4.305360283372039
 30
0.0
  0
VERTEX
  5
9A0
330
99B
100
AcDbEntity
  8
Livello 1
100
AcDbVertex
100
AcDb2dVertex
 10
0.897495918783008
 20
3.510905115588343
 30
0.0
  0
SEQEND
  5
9A1
330
99B
100
AcDbEntity
  8
Livello 1
  0
POLYLINE
  5
9A2
330
1F
100
AcDbEntity
  8
Livello 1
100
AcDb2dPolyline
 66
     1
 10
0.0
 20
0.0
 30
0.0
  0
VERTEX
  5
9A3
330
9A2
100
AcDbEntity
  8
Livello 1
100
AcDbVertex
100
AcDb2dVertex
 10
1.415655774390089
 20
4.299963864272143
 30
0.0
  0
VERTEX
  5
9A4
330
9A2
100
AcDbEntity
  8
Livello 1
100
AcDbVertex
100
AcDb2dVertex
 10
1.37367405612531
 20
4.32889055468442
 30
0.0
  0
VERTEX
  5
9A5
330
9A2
100
AcDbEntity
  8
Livello 1
100
AcDbVertex
100
AcDb2dVertex
 10
1.400837826582232
 20
4.368048909539851
 30
0.0
  0
VERTEX
  5
9A6
330
9A2
100
AcDbEntity
  8
Livello 1
100
AcDbVertex
100
AcDb2dVertex
 10
1.442465615115523
 20
4.338768289396028
 30
0.0
  0
VERTEX
  5
9A7
330
9A2
100
AcDbEntity
  8
Livello 1
100
AcDbVertex
100
AcDb2dVertex
 10
1.415655774390089
 20
4.299963864272143
 30
0.0
  0
SEQEND
  5
9A8
330
9A2
100
AcDbEntity
  8
Livello 1
  0
SPLINE
  5
9A9
330
1F
100
AcDbEntity
  8
Livello 1
100
AcDbSpline
210
0.0
220
0.0
230
1.0
 70
     9
 71
     3
 72
    17
 73
    13
 74
     0
 42
0.000000001
 43
0.0000000001
 40
0.0
 40
0.0
 40
0.0
 40
0.0
 40
1.0
 40
1.0
 40
1.0
 40
2.0
 40
2.0
 40
2.0
 40
3.0
 40
3.0
 40
3.0
 40
4.0
 40
4.0
 40
4.0
 40
4.0
 10
0.8789395040774934
 20
3.459294624590427
 30
0.0
 10
0.8789395040774934
 20
3.459294624590427
 30
0.0
 10
0.8316663344658508
 20
3.463174394232538
 30
0.0
 10
0.8316663344658508
 20
3.463174394232538
 30
0.0
 10
0.8341357681437528
 20
3.491043332671637
 30
0.0
 10
0.8426031668910951
 20
3.515032501468539
 30
0.0
 10
0.8584775209317143
 20
3.537963918292234
 30
0.0
 10
0.8584775209317143
 20
3.537963918292234
 30
0.0
 10
0.8976358757870883
 20
3.510800147835368
 30
0.0
 10
0.8976358757870883
 20
3.510800147835368
 30
0.0
 10
0.8863478051111997
 20
3.494924448054234
 30
0.0
 10
0.8807024240328331
 20
3.478696164282126
 30
0.0
 10
0.8789395040774934
 20
3.459294624590427
 30
0.0
  0
POLYLINE
  5
9AA
330
1F
100
AcDbEntity
  8
Livello 1
100
AcDb2dPolyline
 66
     1
 10
0.0
 20
0.0
 30
0.0
  0
VERTEX
  5
9AB
330
9AA
100
AcDbEntity
  8
Livello 1
100
AcDbVertex
100
AcDb2dVertex
 10
1.300297559510767
 20
4.408936540839931
 30
0.0
  0
VERTEX
  5
9AC
330
9AA
100
AcDbEntity
  8
Livello 1
100
AcDbVertex
100
AcDb2dVertex
 10
1.261491788646452
 20
4.435746381565451
 30
0.0
  0
VERTEX
  5
9AD
330
9AA
100
AcDbEntity
  8
Livello 1
100
AcDbVertex
100
AcDb2dVertex
 10
2.049950337101137
 20
5.571338672371723
 30
0.0
  0
VERTEX
  5
9AE
330
9AA
100
AcDbEntity
  8
Livello 1
100
AcDbVertex
100
AcDb2dVertex
 10
2.088754762225008
 20
5.544174901914743
 30
0.0
  0
VERTEX
  5
9AF
330
9AA
100
AcDbEntity
  8
Livello 1
100
AcDbVertex
100
AcDb2dVertex
 10
1.300297559510767
 20
4.408936540839931
 30
0.0
  0
SEQEND
  5
9B0
330
9AA
100
AcDbEntity
  8
Livello 1
  0
POLYLINE
  5
9B1
330
1F
100
AcDbEntity
  8
Livello 1
100
AcDb2dPolyline
 66
     1
 10
0.0
 20
0.0
 30
0.0
  0
VERTEX
  5
9B2
330
9B1
100
AcDbEntity
  8
Livello 1
100
AcDbVertex
100
AcDb2dVertex
 10
1.385493694268646
 20
4.349776446063742
 30
0.0
  0
VERTEX
  5
9B3
330
9B1
100
AcDbEntity
  8
Livello 1
100
AcDbVertex
100
AcDb2dVertex
 10
1.346687923404331
 20
4.376586286789233
 30
0.0
  0
VERTEX
  5
9B4
330
9B1
100
AcDbEntity
  8
Livello 1
100
AcDbVertex
100
AcDb2dVertex
 10
2.107628771670562
 20
5.472667638749044
 30
0.0
  0
VERTEX
  5
9B5
330
9B1
100
AcDbEntity
  8
Livello 1
100
AcDbVertex
100
AcDb2dVertex
 10
2.146434542534876
 20
5.445503868292149
 30
0.0
  0
VERTEX
  5
9B6
330
9B1
100
AcDbEntity
  8
Livello 1
100
AcDbVertex
100
AcDb2dVertex
 10
1.385493694268646
 20
4.349776446063742
 30
0.0
  0
SEQEND
  5
9B7
330
9B1
100
AcDbEntity
  8
Livello 1
  0
POLYLINE
  5
9B8
330
1F
100
AcDbEntity
  8
Livello 1
100
AcDb2dPolyline
 66
     1
 10
0.0
 20
0.0
 30
0.0
  0
VERTEX
  5
9B9
330
9B8
100
AcDbEntity
  8
Livello 1
100
AcDbVertex
100
AcDb2dVertex
 10
2.088896064969517
 20
5.544352539650731
 30
0.0
  0
VERTEX
  5
9BA
330
9B8
100
AcDbEntity
  8
Livello 1
100
AcDbVertex
100
AcDb2dVertex
 10
2.050090294105203
 20
5.571162380376165
 30
0.0
  0
VERTEX
  5
9BB
330
9B8
100
AcDbEntity
  8
Livello 1
100
AcDbVertex
100
AcDb2dVertex
 10
2.107592436679126
 20
5.654417957442746
 30
0.0
  0
VERTEX
  5
9BC
330
9B8
100
AcDbEntity
  8
Livello 1
100
AcDbVertex
100
AcDb2dVertex
 10
2.146398207543441
 20
5.627254186985851
 30
0.0
  0
VERTEX
  5
9BD
330
9B8
100
AcDbEntity
  8
Livello 1
100
AcDbVertex
100
AcDb2dVertex
 10
2.088896064969517
 20
5.544352539650731
 30
0.0
  0
SEQEND
  5
9BE
330
9B8
100
AcDbEntity
  8
Livello 1
  0
SPLINE
  5
9BF
330
1F
100
AcDbEntity
  8
Livello 1
100
AcDbSpline
210
0.0
220
0.0
230
1.0
 70
     9
 71
     3
 72
    17
 73
    13
 74
     0
 42
0.000000001
 43
0.0000000001
 40
0.0
 40
0.0
 40
0.0
 40
0.0
 40
1.0
 40
1.0
 40
1.0
 40
2.0
 40
2.0
 40
2.0
 40
3.0
 40
3.0
 40
3.0
 40
4.0
 40
4.0
 40
4.0
 40
4.0
 10
1.951806833724646
 20
5.468292636630849
 30
0.0
 10
1.951806833724646
 20
5.468292636630849
 30
0.0
 10
1.913001062860317
 20
5.49510247735634
 30
0.0
 10
1.913001062860317
 20
5.49510247735634
 30
0.0
 10
1.944397186950524
 20
5.540611381272242
 30
0.0
 10
1.954276267402534
 20
5.58118141783234
 30
0.0
 10
1.947220550359901
 20
5.635861542737245
 30
0.0
 10
1.947220550359901
 20
5.635861542737245
 30
0.0
 10
1.994139790240069
 20
5.641858162066228
 30
0.0
 10
1.994139790240069
 20
5.641858162066228
 30
0.0
 10
2.002605843246996
 20
5.575536036753959
 30
0.0
 10
1.9902586748575
 20
5.523325345526956
 30
0.0
 10
1.951806833724646
 20
5.468292636630849
 30
0.0
  0
SPLINE
  5
9C0
330
1F
100
AcDbEntity
  8
Livello 1
100
AcDbSpline
210
0.0
220
0.0
230
1.0
 70
     9
 71
     3
 72
    17
 73
    13
 74
     0
 42
0.000000001
 43
0.0000000001
 40
0.0
 40
0.0
 40
0.0
 40
0.0
 40
1.0
 40
1.0
 40
1.0
 40
2.0
 40
2.0
 40
2.0
 40
3.0
 40
3.0
 40
3.0
 40
4.0
 40
4.0
 40
4.0
 40
4.0
 10
1.866682023209222
 20
5.527454077147552
 30
0.0
 10
1.866682023209222
 20
5.527454077147552
 30
0.0
 10
1.827876252344893
 20
5.554263917872958
 30
0.0
 10
1.827876252344893
 20
5.554263917872958
 30
0.0
 10
1.843398022394438
 20
5.576490166714563
 30
0.0
 10
1.847984305759212
 20
5.595539122415146
 30
0.0
 10
1.844455774367659
 20
5.622702892872155
 30
0.0
 10
1.844455774367659
 20
5.622702892872155
 30
0.0
 10
1.891376359988242
 20
5.628700857941566
 30
0.0
 10
1.891376359988242
 20
5.628700857941566
 30
0.0
 10
1.896315227344075
 20
5.590247671068226
 30
0.0
 10
1.888552996578866
 20
5.559202785228734
 30
0.0
 10
1.866682023209222
 20
5.527454077147552
 30
0.0
  0
POLYLINE
  5
9C1
330
1F
100
AcDbEntity
  8
Livello 1
100
AcDb2dPolyline
 66
     1
 10
0.0
 20
0.0
 30
0.0
  0
VERTEX
  5
9C2
330
9C1
100
AcDbEntity
  8
Livello 1
100
AcDbVertex
100
AcDb2dVertex
 10
1.663588261392035
 20
5.234930481198745
 30
0.0
  0
VERTEX
  5
9C3
330
9C1
100
AcDbEntity
  8
Livello 1
100
AcDbVertex
100
AcDb2dVertex
 10
1.624782490527721
 20
5.261740321924236
 30
0.0
  0
VERTEX
  5
9C4
330
9C1
100
AcDbEntity
  8
Livello 1
100
AcDbVertex
100
AcDb2dVertex
 10
1.827982565838397
 20
5.554546523361949
 30
0.0
  0
VERTEX
  5
9C5
330
9C1
100
AcDbEntity
  8
Livello 1
100
AcDbVertex
100
AcDb2dVertex
 10
1.866786990962296
 20
5.527382752905054
 30
0.0
  0
VERTEX
  5
9C6
330
9C1
100
AcDbEntity
  8
Livello 1
100
AcDbVertex
100
AcDb2dVertex
 10
1.663588261392035
 20
5.234930481198745
 30
0.0
  0
SEQEND
  5
9C7
330
9C1
100
AcDbEntity
  8
Livello 1
  0
POLYLINE
  5
9C8
330
1F
100
AcDbEntity
  8
Livello 1
100
AcDb2dPolyline
 66
     1
 10
0.0
 20
0.0
 30
0.0
  0
VERTEX
  5
9C9
330
9C8
100
AcDbEntity
  8
Livello 1
100
AcDbVertex
100
AcDb2dVertex
 10
1.748713071907445
 20
5.175769040682155
 30
0.0
  0
VERTEX
  5
9CA
330
9C8
100
AcDbEntity
  8
Livello 1
100
AcDbVertex
100
AcDb2dVertex
 10
1.709907301043145
 20
5.202578881407561
 30
0.0
  0
VERTEX
  5
9CB
330
9C8
100
AcDbEntity
  8
Livello 1
100
AcDbVertex
100
AcDb2dVertex
 10
1.913107376353806
 20
5.495385082845359
 30
0.0
  0
VERTEX
  5
9CC
330
9C8
100
AcDbEntity
  8
Livello 1
100
AcDbVertex
100
AcDb2dVertex
 10
1.95191180147772
 20
5.468221312388436
 30
0.0
  0
VERTEX
  5
9CD
330
9C8
100
AcDbEntity
  8
Livello 1
100
AcDbVertex
100
AcDb2dVertex
 10
1.748713071907445
 20
5.175769040682155
 30
0.0
  0
SEQEND
  5
9CE
330
9C8
100
AcDbEntity
  8
Livello 1
  0
POLYLINE
  5
9CF
330
1F
100
AcDbEntity
  8
Livello 1
100
AcDb2dPolyline
 66
     1
 10
0.0
 20
0.0
 30
0.0
  0
VERTEX
  5
9D0
330
9CF
100
AcDbEntity
  8
Livello 1
100
AcDbVertex
100
AcDb2dVertex
 10
1.71491749264139
 20
5.170407610833223
 30
0.0
  0
VERTEX
  5
9D1
330
9CF
100
AcDbEntity
  8
Livello 1
100
AcDbVertex
100
AcDb2dVertex
 10
1.630602817861216
 20
5.228967505380353
 30
0.0
  0
VERTEX
  5
9D2
330
9CF
100
AcDbEntity
  8
Livello 1
100
AcDbVertex
100
AcDb2dVertex
 10
1.657766588318153
 20
5.267773276244639
 30
0.0
  0
VERTEX
  5
9D3
330
9CF
100
AcDbEntity
  8
Livello 1
100
AcDbVertex
100
AcDb2dVertex
 10
1.741727333366867
 20
5.209212035957136
 30
0.0
  0
VERTEX
  5
9D4
330
9CF
100
AcDbEntity
  8
Livello 1
100
AcDbVertex
100
AcDb2dVertex
 10
1.71491749264139
 20
5.170407610833223
 30
0.0
  0
SEQEND
  5
9D5
330
9CF
100
AcDbEntity
  8
Livello 1
  0
SPLINE
  5
9D6
330
1F
100
AcDbEntity
  8
Livello 1
100
AcDbSpline
210
0.0
220
0.0
230
1.0
 70
     9
 71
     3
 72
    17
 73
    13
 74
     0
 42
0.000000001
 43
0.0000000001
 40
0.0
 40
0.0
 40
0.0
 40
0.0
 40
1.0
 40
1.0
 40
1.0
 40
2.0
 40
2.0
 40
2.0
 40
3.0
 40
3.0
 40
3.0
 40
4.0
 40
4.0
 40
4.0
 40
4.0
 10
8.521516450968533
 20
5.530206116314445
 30
0.0
 10
8.49999537010909
 20
5.560544488431446
 30
0.0
 10
8.49188055535285
 20
5.590530276557359
 30
0.0
 10
8.495409086744359
 20
5.62792436571695
 30
0.0
 10
8.495409086744359
 20
5.62792436571695
 30
0.0
 10
8.542329672364957
 20
5.623339428092634
 30
0.0
 10
8.542329672364957
 20
5.623339428092634
 30
0.0
 10
8.539858892946639
 20
5.597585993599921
 30
0.0
 10
8.545150344293517
 20
5.578535692158851
 30
0.0
 10
8.55996694636093
 20
5.557722470762456
 30
0.0
 10
8.55996694636093
 20
5.557722470762456
 30
0.0
 10
8.521516450968533
 20
5.530206116314445
 30
0.0
 10
8.521516450968533
 20
5.530206116314445
 30
0.0
  0
POLYLINE
  5
9D7
330
1F
100
AcDbEntity
  8
Livello 1
100
AcDb2dPolyline
 66
     1
 10
0.0
 20
0.0
 30
0.0
  0
VERTEX
  5
9D8
330
9D7
100
AcDbEntity
  8
Livello 1
100
AcDbVertex
100
AcDb2dVertex
 10
8.728173733428249
 20
5.240186943294645
 30
0.0
  0
VERTEX
  5
9D9
330
9D7
100
AcDbEntity
  8
Livello 1
100
AcDbVertex
100
AcDb2dVertex
 10
8.521443780985663
 20
5.530169781322939
 30
0.0
  0
VERTEX
  5
9DA
330
9D7
100
AcDbEntity
  8
Livello 1
100
AcDbVertex
100
AcDb2dVertex
 10
8.55989696785889
 20
5.55768613577095
 30
0.0
  0
VERTEX
  5
9DB
330
9D7
100
AcDbEntity
  8
Livello 1
100
AcDbVertex
100
AcDb2dVertex
 10
8.76662422882066
 20
5.267703297742627
 30
0.0
  0
VERTEX
  5
9DC
330
9D7
100
AcDbEntity
  8
Livello 1
100
AcDbVertex
100
AcDb2dVertex
 10
8.728173733428249
 20
5.240186943294645
 30
0.0
  0
SEQEND
  5
9DD
330
9D7
100
AcDbEntity
  8
Livello 1
  0
POLYLINE
  5
9DE
330
1F
100
AcDbEntity
  8
Livello 1
100
AcDb2dPolyline
 66
     1
 10
0.0
 20
0.0
 30
0.0
  0
VERTEX
  5
9DF
330
9DE
100
AcDbEntity
  8
Livello 1
100
AcDbVertex
100
AcDb2dVertex
 10
8.643755436635373
 20
5.18000274005584
 30
0.0
  0
VERTEX
  5
9E0
330
9DE
100
AcDbEntity
  8
Livello 1
100
AcDbVertex
100
AcDb2dVertex
 10
8.443024795002628
 20
5.461518179336849
 30
0.0
  0
VERTEX
  5
9E1
330
9DE
100
AcDbEntity
  8
Livello 1
100
AcDbVertex
100
AcDb2dVertex
 10
8.481475290395053
 20
5.48903587952526
 30
0.0
  0
VERTEX
  5
9E2
330
9DE
100
AcDbEntity
  8
Livello 1
100
AcDbVertex
100
AcDb2dVertex
 10
8.682205932027812
 20
5.207519094503851
 30
0.0
  0
VERTEX
  5
9E3
330
9DE
100
AcDbEntity
  8
Livello 1
100
AcDbVertex
100
AcDb2dVertex
 10
8.643755436635373
 20
5.18000274005584
 30
0.0
  0
SEQEND
  5
9E4
330
9DE
100
AcDbEntity
  8
Livello 1
  0
POLYLINE
  5
9E5
330
1F
100
AcDbEntity
  8
Livello 1
100
AcDb2dPolyline
 66
     1
 10
0.0
 20
0.0
 30
0.0
  0
VERTEX
  5
9E6
330
9E5
100
AcDbEntity
  8
Livello 1
100
AcDbVertex
100
AcDb2dVertex
 10
8.677587350892878
 20
5.175063872700036
 30
0.0
  0
VERTEX
  5
9E7
330
9E5
100
AcDbEntity
  8
Livello 1
100
AcDbVertex
100
AcDb2dVertex
 10
8.650069650704438
 20
5.213515713832833
 30
0.0
  0
VERTEX
  5
9E8
330
9E5
100
AcDbEntity
  8
Livello 1
100
AcDbVertex
100
AcDb2dVertex
 10
8.733677811762106
 20
5.273136051834057
 30
0.0
  0
VERTEX
  5
9E9
330
9E5
100
AcDbEntity
  8
Livello 1
100
AcDbVertex
100
AcDb2dVertex
 10
8.761195511950546
 20
5.234682864960745
 30
0.0
  0
VERTEX
  5
9EA
330
9E5
100
AcDbEntity
  8
Livello 1
100
AcDbVertex
100
AcDb2dVertex
 10
8.677587350892878
 20
5.175063872700036
 30
0.0
  0
SEQEND
  5
9EB
330
9E5
100
AcDbEntity
  8
Livello 1
  0
POLYLINE
  5
9EC
330
1F
100
AcDbEntity
  8
Livello 1
100
AcDb2dPolyline
 66
     1
 10
0.0
 20
0.0
 30
0.0
  0
VERTEX
  5
9ED
330
9EC
100
AcDbEntity
  8
Livello 1
100
AcDbVertex
100
AcDb2dVertex
 10
9.016958862479327
 20
4.358453780317233
 30
0.0
  0
VERTEX
  5
9EE
330
9EC
100
AcDbEntity
  8
Livello 1
100
AcDbVertex
100
AcDb2dVertex
 10
8.402771007442169
 20
5.220288825386433
 30
0.0
  0
VERTEX
  5
9EF
330
9EC
100
AcDbEntity
  8
Livello 1
100
AcDbVertex
100
AcDb2dVertex
 10
8.441224194315424
 20
5.247806525574844
 30
0.0
  0
VERTEX
  5
9F0
330
9EC
100
AcDbEntity
  8
Livello 1
100
AcDbVertex
100
AcDb2dVertex
 10
9.055409357871724
 20
4.385970134765216
 30
0.0
  0
VERTEX
  5
9F1
330
9EC
100
AcDbEntity
  8
Livello 1
100
AcDbVertex
100
AcDb2dVertex
 10
9.016958862479327
 20
4.358453780317233
 30
0.0
  0
SEQEND
  5
9F2
330
9EC
100
AcDbEntity
  8
Livello 1
  0
POLYLINE
  5
9F3
330
1F
100
AcDbEntity
  8
Livello 1
100
AcDb2dPolyline
 66
     1
 10
0.0
 20
0.0
 30
0.0
  0
VERTEX
  5
9F4
330
9F3
100
AcDbEntity
  8
Livello 1
100
AcDbVertex
100
AcDb2dVertex
 10
9.101377159272175
 20
4.418637983556038
 30
0.0
  0
VERTEX
  5
9F5
330
9F3
100
AcDbEntity
  8
Livello 1
100
AcDbVertex
100
AcDb2dVertex
 10
8.48718930423503
 20
5.280473028625237
 30
0.0
  0
VERTEX
  5
9F6
330
9F3
100
AcDbEntity
  8
Livello 1
100
AcDbVertex
100
AcDb2dVertex
 10
8.525642491108285
 20
5.307990728813649
 30
0.0
  0
VERTEX
  5
9F7
330
9F3
100
AcDbEntity
  8
Livello 1
100
AcDbVertex
100
AcDb2dVertex
 10
9.139827654664586
 20
4.446154338004049
 30
0.0
  0
VERTEX
  5
9F8
330
9F3
100
AcDbEntity
  8
Livello 1
100
AcDbVertex
100
AcDb2dVertex
 10
9.101377159272175
 20
4.418637983556038
 30
0.0
  0
SEQEND
  5
9F9
330
9F3
100
AcDbEntity
  8
Livello 1
  0
POLYLINE
  5
9FA
330
1F
100
AcDbEntity
  8
Livello 1
100
AcDb2dPolyline
 66
     1
 10
0.0
 20
0.0
 30
0.0
  0
VERTEX
  5
9FB
330
9FA
100
AcDbEntity
  8
Livello 1
100
AcDbVertex
100
AcDb2dVertex
 10
8.471670225666329
 20
5.302416671977852
 30
0.0
  0
VERTEX
  5
9FC
330
9FA
100
AcDbEntity
  8
Livello 1
100
AcDbVertex
100
AcDb2dVertex
 10
8.397231939857292
 20
5.40683805443183
 30
0.0
  0
VERTEX
  5
9FD
330
9FA
100
AcDbEntity
  8
Livello 1
100
AcDbVertex
100
AcDb2dVertex
 10
8.435685126730533
 20
5.434354408879926
 30
0.0
  0
VERTEX
  5
9FE
330
9FA
100
AcDbEntity
  8
Livello 1
100
AcDbVertex
100
AcDb2dVertex
 10
8.510120721058726
 20
5.329933026425834
 30
0.0
  0
VERTEX
  5
9FF
330
9FA
100
AcDbEntity
  8
Livello 1
100
AcDbVertex
100
AcDb2dVertex
 10
8.471670225666329
 20
5.302416671977852
 30
0.0
  0
SEQEND
  5
A00
330
9FA
100
AcDbEntity
  8
Livello 1
  0
SPLINE
  5
A01
330
1F
100
AcDbEntity
  8
Livello 1
100
AcDbSpline
210
0.0
220
0.0
230
1.0
 70
     9
 71
     3
 72
    17
 73
    13
 74
     0
 42
0.000000001
 43
0.0000000001
 40
0.0
 40
0.0
 40
0.0
 40
0.0
 40
1.0
 40
1.0
 40
1.0
 40
2.0
 40
2.0
 40
2.0
 40
3.0
 40
3.0
 40
3.0
 40
4.0
 40
4.0
 40
4.0
 40
4.0
 10
9.79218878256681
 20
3.498840552687852
 30
0.0
 10
9.785836887765881
 20
3.566220429973441
 30
0.0
 10
9.765376250360517
 20
3.620900554878346
 30
0.0
 10
9.726217895505143
 20
3.675934609514854
 30
0.0
 10
9.726217895505143
 20
3.675934609514854
 30
0.0
 10
9.764671082378384
 20
3.703450963962836
 30
0.0
 10
9.764671082378384
 20
3.703450963962836
 30
0.0
 10
9.808415720598517
 20
3.642067706006258
 30
0.0
 10
9.83205230540436
 20
3.578567598362951
 30
0.0
 10
9.839459260697651
 20
3.503425490312224
 30
0.0
 10
9.839459260697651
 20
3.503425490312224
 30
0.0
 10
9.79218878256681
 20
3.498840552687852
 30
0.0
 10
9.79218878256681
 20
3.498840552687852
 30
0.0
  0
POLYLINE
  5
A02
330
1F
100
AcDbEntity
  8
Livello 1
100
AcDb2dPolyline
 66
     1
 10
0.0
 20
0.0
 30
0.0
  0
VERTEX
  5
A03
330
A02
100
AcDbEntity
  8
Livello 1
100
AcDbVertex
100
AcDb2dVertex
 10
9.887825171533521
 20
2.500478795870947
 30
0.0
  0
VERTEX
  5
A04
330
A02
100
AcDbEntity
  8
Livello 1
100
AcDbVertex
100
AcDb2dVertex
 10
9.792221080336986
 20
3.498839206947451
 30
0.0
  0
VERTEX
  5
A05
330
A02
100
AcDbEntity
  8
Livello 1
100
AcDbVertex
100
AcDb2dVertex
 10
9.839494249948657
 20
3.503425490312224
 30
0.0
  0
VERTEX
  5
A06
330
A02
100
AcDbEntity
  8
Livello 1
100
AcDbVertex
100
AcDb2dVertex
 10
9.935095649664319
 20
2.505063733495234
 30
0.0
  0
VERTEX
  5
A07
330
A02
100
AcDbEntity
  8
Livello 1
100
AcDbVertex
100
AcDb2dVertex
 10
9.887825171533521
 20
2.500478795870947
 30
0.0
  0
SEQEND
  5
A08
330
A02
100
AcDbEntity
  8
Livello 1
  0
POLYLINE
  5
A09
330
1F
100
AcDbEntity
  8
Livello 1
100
AcDb2dPolyline
 66
     1
 10
0.0
 20
0.0
 30
0.0
  0
VERTEX
  5
A0A
330
A09
100
AcDbEntity
  8
Livello 1
100
AcDbVertex
100
AcDb2dVertex
 10
9.891106086687045
 20
2.466083016375847
 30
0.0
  0
VERTEX
  5
A0B
330
A09
100
AcDbEntity
  8
Livello 1
100
AcDbVertex
100
AcDb2dVertex
 10
9.887930139286609
 20
2.500655087866448
 30
0.0
  0
VERTEX
  5
A0C
330
A09
100
AcDbEntity
  8
Livello 1
100
AcDbVertex
100
AcDb2dVertex
 10
9.93484803342632
 20
2.504887441499732
 30
0.0
  0
VERTEX
  5
A0D
330
A09
100
AcDbEntity
  8
Livello 1
100
AcDbVertex
100
AcDb2dVertex
 10
9.938376564817886
 20
2.470667954000134
 30
0.0
  0
VERTEX
  5
A0E
330
A09
100
AcDbEntity
  8
Livello 1
100
AcDbVertex
100
AcDb2dVertex
 10
9.891106086687045
 20
2.466083016375847
 30
0.0
  0
SEQEND
  5
A0F
330
A09
100
AcDbEntity
  8
Livello 1
  0
SPLINE
  5
A10
330
1F
100
AcDbEntity
  8
Livello 1
100
AcDbSpline
210
0.0
220
0.0
230
1.0
 70
     9
 71
     3
 72
    23
 73
    19
 74
     0
 42
0.000000001
 43
0.0000000001
 40
0.0
 40
0.0
 40
0.0
 40
0.0
 40
1.0
 40
1.0
 40
1.0
 40
2.0
 40
2.0
 40
2.0
 40
3.0
 40
3.0
 40
3.0
 40
4.0
 40
4.0
 40
4.0
 40
5.0
 40
5.0
 40
5.0
 40
6.0
 40
6.0
 40
6.0
 40
6.0
 10
9.870292865290636
 20
2.388225204149648
 30
0.0
 10
9.870292865290636
 20
2.388225204149648
 30
0.0
 10
9.865706581925891
 20
2.435497028020847
 30
0.0
 10
9.865706581925891
 20
2.435497028020847
 30
0.0
 10
9.873113537219154
 20
2.436202196003051
 30
0.0
 10
9.880170600002244
 20
2.439730727394561
 30
0.0
 10
9.884754191886131
 20
2.445374762732427
 30
0.0
 10
9.88969305924192
 20
2.451371382061552
 30
0.0
 10
9.891811254669207
 20
2.458427099104142
 30
0.0
 10
9.891106086687045
 20
2.466187984128936
 30
0.0
 10
9.891106086687045
 20
2.466187984128936
 30
0.0
 10
9.938376564817886
 20
2.470774267493652
 30
0.0
 10
9.938376564817886
 20
2.470774267493652
 30
0.0
 10
9.940142176254042
 20
2.450666214079348
 30
0.0
 10
9.934145556925045
 20
2.430910744656159
 30
0.0
 10
9.921444458804032
 20
2.415388974606543
 30
0.0
 10
9.908390776691973
 20
2.399865858816554
 30
0.0
 10
9.890400918704926
 20
2.390340708096061
 30
0.0
 10
9.870292865290636
 20
2.388225204149648
 30
0.0
  0
POLYLINE
  5
A11
330
1F
100
AcDbEntity
  8
Livello 1
100
AcDb2dPolyline
 66
     1
 10
0.0
 20
0.0
 30
0.0
  0
VERTEX
  5
A12
330
A11
100
AcDbEntity
  8
Livello 1
100
AcDbVertex
100
AcDb2dVertex
 10
9.514974329680669
 20
3.525581760651732
 30
0.0
  0
VERTEX
  5
A13
330
A11
100
AcDbEntity
  8
Livello 1
100
AcDbVertex
100
AcDb2dVertex
 10
8.953703679593147
 20
4.31333379538384
 30
0.0
  0
VERTEX
  5
A14
330
A11
100
AcDbEntity
  8
Livello 1
100
AcDbVertex
100
AcDb2dVertex
 10
8.992156866466359
 20
4.340850149831851
 30
0.0
  0
VERTEX
  5
A15
330
A11
100
AcDbEntity
  8
Livello 1
100
AcDbVertex
100
AcDb2dVertex
 10
9.553424825073065
 20
3.553098115099743
 30
0.0
  0
VERTEX
  5
A16
330
A11
100
AcDbEntity
  8
Livello 1
100
AcDbVertex
100
AcDb2dVertex
 10
9.514974329680669
 20
3.525581760651732
 30
0.0
  0
SEQEND
  5
A17
330
A11
100
AcDbEntity
  8
Livello 1
  0
POLYLINE
  5
A18
330
1F
100
AcDbEntity
  8
Livello 1
100
AcDb2dPolyline
 66
     1
 10
0.0
 20
0.0
 30
0.0
  0
VERTEX
  5
A19
330
A18
100
AcDbEntity
  8
Livello 1
100
AcDbVertex
100
AcDb2dVertex
 10
8.987325658344488
 20
4.308324949526053
 30
0.0
  0
VERTEX
  5
A1A
330
A18
100
AcDbEntity
  8
Livello 1
100
AcDbVertex
100
AcDb2dVertex
 10
8.959807958156034
 20
4.34677679065885
 30
0.0
  0
VERTEX
  5
A1B
330
A18
100
AcDbEntity
  8
Livello 1
100
AcDbVertex
100
AcDb2dVertex
 10
9.001434400948909
 20
4.376409994793647
 30
0.0
  0
VERTEX
  5
A1C
330
A18
100
AcDbEntity
  8
Livello 1
100
AcDbVertex
100
AcDb2dVertex
 10
9.028952101137349
 20
4.337958153660849
 30
0.0
  0
VERTEX
  5
A1D
330
A18
100
AcDbEntity
  8
Livello 1
100
AcDbVertex
100
AcDb2dVertex
 10
8.987325658344488
 20
4.308324949526053
 30
0.0
  0
SEQEND
  5
A1E
330
A18
100
AcDbEntity
  8
Livello 1
  0
POLYLINE
  5
A1F
330
1F
100
AcDbEntity
  8
Livello 1
100
AcDb2dPolyline
 66
     1
 10
0.0
 20
0.0
 30
0.0
  0
VERTEX
  5
A20
330
A1F
100
AcDbEntity
  8
Livello 1
100
AcDbVertex
100
AcDb2dVertex
 10
9.028847133384275
 20
4.337921818669343
 30
0.0
  0
VERTEX
  5
A21
330
A1F
100
AcDbEntity
  8
Livello 1
100
AcDbVertex
100
AcDb2dVertex
 10
9.001329433195849
 20
4.376373659802226
 30
0.0
  0
VERTEX
  5
A22
330
A1F
100
AcDbEntity
  8
Livello 1
100
AcDbVertex
100
AcDb2dVertex
 10
9.127977064491517
 20
4.466684953911453
 30
0.0
  0
VERTEX
  5
A23
330
A1F
100
AcDbEntity
  8
Livello 1
100
AcDbVertex
100
AcDb2dVertex
 10
9.155492073199084
 20
4.428231767038226
 30
0.0
  0
VERTEX
  5
A24
330
A1F
100
AcDbEntity
  8
Livello 1
100
AcDbVertex
100
AcDb2dVertex
 10
9.028847133384275
 20
4.337921818669343
 30
0.0
  0
SEQEND
  5
A25
330
A1F
100
AcDbEntity
  8
Livello 1
  0
POLYLINE
  5
A26
330
1F
100
AcDbEntity
  8
Livello 1
100
AcDb2dPolyline
 66
     1
 10
0.0
 20
0.0
 30
0.0
  0
VERTEX
  5
A27
330
A26
100
AcDbEntity
  8
Livello 1
100
AcDbVertex
100
AcDb2dVertex
 10
9.155494764679929
 20
4.428128145025539
 30
0.0
  0
VERTEX
  5
A28
330
A26
100
AcDbEntity
  8
Livello 1
100
AcDbVertex
100
AcDb2dVertex
 10
9.127977064491517
 20
4.466579986158336
 30
0.0
  0
VERTEX
  5
A29
330
A26
100
AcDbEntity
  8
Livello 1
100
AcDbVertex
100
AcDb2dVertex
 10
9.17031136674737
 20
4.496919704015851
 30
0.0
  0
VERTEX
  5
A2A
330
A26
100
AcDbEntity
  8
Livello 1
100
AcDbVertex
100
AcDb2dVertex
 10
9.197826375454937
 20
4.458113933151452
 30
0.0
  0
VERTEX
  5
A2B
330
A26
100
AcDbEntity
  8
Livello 1
100
AcDbVertex
100
AcDb2dVertex
 10
9.155494764679929
 20
4.428128145025539
 30
0.0
  0
SEQEND
  5
A2C
330
A26
100
AcDbEntity
  8
Livello 1
  0
POLYLINE
  5
A2D
330
1F
100
AcDbEntity
  8
Livello 1
100
AcDb2dPolyline
 66
     1
 10
0.0
 20
0.0
 30
0.0
  0
VERTEX
  5
A2E
330
A2D
100
AcDbEntity
  8
Livello 1
100
AcDbVertex
100
AcDb2dVertex
 10
9.726112927752069
 20
3.675969598765846
 30
0.0
  0
VERTEX
  5
A2F
330
A2D
100
AcDbEntity
  8
Livello 1
100
AcDbVertex
100
AcDb2dVertex
 10
9.164842277664519
 20
4.463721633497954
 30
0.0
  0
VERTEX
  5
A30
330
A2D
100
AcDbEntity
  8
Livello 1
100
AcDbVertex
100
AcDb2dVertex
 10
9.203295464537745
 20
4.491237987945936
 30
0.0
  0
VERTEX
  5
A31
330
A2D
100
AcDbEntity
  8
Livello 1
100
AcDbVertex
100
AcDb2dVertex
 10
9.764563423144451
 20
3.703485953213856
 30
0.0
  0
VERTEX
  5
A32
330
A2D
100
AcDbEntity
  8
Livello 1
100
AcDbVertex
100
AcDb2dVertex
 10
9.726112927752069
 20
3.675969598765846
 30
0.0
  0
SEQEND
  5
A33
330
A2D
100
AcDbEntity
  8
Livello 1
  0
POLYLINE
  5
A34
330
1F
100
AcDbEntity
  8
Livello 1
100
AcDb2dPolyline
 66
     1
 10
0.0
 20
0.0
 30
0.0
  0
VERTEX
  5
A35
330
A34
100
AcDbEntity
  8
Livello 1
100
AcDbVertex
100
AcDb2dVertex
 10
9.633119572977946
 20
2.441353690345721
 30
0.0
  0
VERTEX
  5
A36
330
A34
100
AcDbEntity
  8
Livello 1
100
AcDbVertex
100
AcDb2dVertex
 10
9.629943625577482
 20
2.475925761836435
 30
0.0
  0
VERTEX
  5
A37
330
A34
100
AcDbEntity
  8
Livello 1
100
AcDbVertex
100
AcDb2dVertex
 10
9.676861519717235
 20
2.480158115469663
 30
0.0
  0
VERTEX
  5
A38
330
A34
100
AcDbEntity
  8
Livello 1
100
AcDbVertex
100
AcDb2dVertex
 10
9.680390051108759
 20
2.445938627970065
 30
0.0
  0
VERTEX
  5
A39
330
A34
100
AcDbEntity
  8
Livello 1
100
AcDbVertex
100
AcDb2dVertex
 10
9.633119572977946
 20
2.441353690345721
 30
0.0
  0
SEQEND
  5
A3A
330
A34
100
AcDbEntity
  8
Livello 1
  0
POLYLINE
  5
A3B
330
1F
100
AcDbEntity
  8
Livello 1
100
AcDb2dPolyline
 66
     1
 10
0.0
 20
0.0
 30
0.0
  0
VERTEX
  5
A3C
330
A3B
100
AcDbEntity
  8
Livello 1
100
AcDbVertex
100
AcDb2dVertex
 10
9.629838657824436
 20
2.475749469840934
 30
0.0
  0
VERTEX
  5
A3D
330
A3B
100
AcDbEntity
  8
Livello 1
100
AcDbVertex
100
AcDb2dVertex
 10
9.534234566627887
 20
3.474109880917438
 30
0.0
  0
VERTEX
  5
A3E
330
A3B
100
AcDbEntity
  8
Livello 1
100
AcDbVertex
100
AcDb2dVertex
 10
9.581155152248499
 20
3.478696164282126
 30
0.0
  0
VERTEX
  5
A3F
330
A3B
100
AcDbEntity
  8
Livello 1
100
AcDbVertex
100
AcDb2dVertex
 10
9.677109135955234
 20
2.480334407465221
 30
0.0
  0
VERTEX
  5
A40
330
A3B
100
AcDbEntity
  8
Livello 1
100
AcDbVertex
100
AcDb2dVertex
 10
9.629838657824436
 20
2.475749469840934
 30
0.0
  0
SEQEND
  5
A41
330
A3B
100
AcDbEntity
  8
Livello 1
  0
SPLINE
  5
A42
330
1F
100
AcDbEntity
  8
Livello 1
100
AcDbSpline
210
0.0
220
0.0
230
1.0
 70
     9
 71
     3
 72
    17
 73
    13
 74
     0
 42
0.000000001
 43
0.0000000001
 40
0.0
 40
0.0
 40
0.0
 40
0.0
 40
1.0
 40
1.0
 40
1.0
 40
2.0
 40
2.0
 40
2.0
 40
3.0
 40
3.0
 40
3.0
 40
4.0
 40
4.0
 40
4.0
 40
4.0
 10
9.534164588125861
 20
3.474181205159851
 30
0.0
 10
9.532398976689634
 20
3.493582744851664
 30
0.0
 10
9.526402357360652
 20
3.509458444632656
 30
0.0
 10
9.515114286684735
 20
3.525686728404735
 30
0.0
 10
9.515114286684735
 20
3.525686728404735
 30
0.0
 10
9.55356478207716
 20
3.553203082852718
 30
0.0
 10
9.55356478207716
 20
3.553203082852718
 30
0.0
 10
9.569794411589683
 20
3.530271666029051
 30
0.0
 10
9.578614394328127
 20
3.506636426963723
 30
0.0
 10
9.581435066256659
 20
3.478766142784138
 30
0.0
 10
9.581435066256659
 20
3.478766142784138
 30
0.0
 10
9.534164588125861
 20
3.474181205159851
 30
0.0
 10
9.534164588125861
 20
3.474181205159851
 30
0.0
  0
SPLINE
  5
A43
330
1F
100
AcDbEntity
  8
Livello 1
100
AcDbSpline
210
0.0
220
0.0
230
1.0
 70
     9
 71
     3
 72
    26
 73
    22
 74
     0
 42
0.000000001
 43
0.0000000001
 40
0.0
 40
0.0
 40
0.0
 40
0.0
 40
1.0
 40
1.0
 40
1.0
 40
2.0
 40
2.0
 40
2.0
 40
3.0
 40
3.0
 40
3.0
 40
4.0
 40
4.0
 40
4.0
 40
5.0
 40
5.0
 40
5.0
 40
6.0
 40
6.0
 40
6.0
 40
7.0
 40
7.0
 40
7.0
 40
7.0
 10
9.708120378284164
 20
2.373056018091148
 30
0.0
 10
9.690832996798434
 20
2.373056018091148
 30
0.0
 10
9.673900890784608
 20
2.37905263742013
 30
0.0
 10
9.660142040690359
 20
2.390342053836434
 30
0.0
 10
9.644620270640814
 20
2.403041806217032
 30
0.0
 10
9.635095119920293
 20
2.421385593935553
 30
0.0
 10
9.632976924493007
 20
2.44149364734983
 30
0.0
 10
9.632976924493007
 20
2.44149364734983
 30
0.0
 10
9.680250094104692
 20
2.445727346723543
 30
0.0
 10
9.680250094104692
 20
2.445727346723543
 30
0.0
 10
9.680955262086811
 20
2.438319045689866
 30
0.0
 10
9.684483793478349
 20
2.431615912638221
 30
0.0
 10
9.69048041280736
 20
2.426677045282445
 30
0.0
 10
9.696124448145297
 20
2.42209210765813
 30
0.0
 10
9.703534094919447
 20
2.419622673980228
 30
0.0
 10
9.710941050212724
 20
2.420680425953463
 30
0.0
 10
9.710941050212724
 20
2.420680425953463
 30
0.0
 10
9.715527333577455
 20
2.373408602082236
 30
0.0
 10
9.715527333577455
 20
2.373408602082236
 30
0.0
 10
9.713059245639982
 20
2.373056018091148
 30
0.0
 10
9.710588466221679
 20
2.373056018091148
 30
0.0
 10
9.708120378284164
 20
2.373056018091148
 30
0.0
  0
POLYLINE
  5
A44
330
1F
100
AcDbEntity
  8
Livello 1
100
AcDb2dPolyline
 66
     1
 10
0.0
 20
0.0
 30
0.0
  0
VERTEX
  5
A45
330
A44
100
AcDbEntity
  8
Livello 1
100
AcDbVertex
100
AcDb2dVertex
 10
9.7154573550754
 20
2.37337361283113
 30
0.0
  0
VERTEX
  5
A46
330
A44
100
AcDbEntity
  8
Livello 1
100
AcDbVertex
100
AcDb2dVertex
 10
9.710871071710684
 20
2.420645436702443
 30
0.0
  0
VERTEX
  5
A47
330
A44
100
AcDbEntity
  8
Livello 1
100
AcDbVertex
100
AcDb2dVertex
 10
9.865738879696039
 20
2.435462038769827
 30
0.0
  0
VERTEX
  5
A48
330
A44
100
AcDbEntity
  8
Livello 1
100
AcDbVertex
100
AcDb2dVertex
 10
9.870325163060797
 20
2.388190214898656
 30
0.0
  0
VERTEX
  5
A49
330
A44
100
AcDbEntity
  8
Livello 1
100
AcDbVertex
100
AcDb2dVertex
 10
9.7154573550754
 20
2.37337361283113
 30
0.0
  0
SEQEND
  5
A4A
330
A44
100
AcDbEntity
  8
Livello 1
  0
POLYLINE
  5
A4B
330
1F
100
AcDbEntity
  8
Livello 1
100
AcDb2dPolyline
 66
     1
 10
0.0
 20
0.0
 30
0.0
  0
VERTEX
  5
A4C
330
A4B
100
AcDbEntity
  8
Livello 1
100
AcDbVertex
100
AcDb2dVertex
 10
7.515288841373759
 20
3.717244803308062
 30
0.0
  0
VERTEX
  5
A4D
330
A4B
100
AcDbEntity
  8
Livello 1
100
AcDbVertex
100
AcDb2dVertex
 10
2.855799889054225
 20
3.717244803308062
 30
0.0
  0
VERTEX
  5
A4E
330
A4B
100
AcDbEntity
  8
Livello 1
100
AcDbVertex
100
AcDb2dVertex
 10
2.855799889054225
 20
3.764516627179233
 30
0.0
  0
VERTEX
  5
A4F
330
A4B
100
AcDbEntity
  8
Livello 1
100
AcDbVertex
100
AcDb2dVertex
 10
7.515288841373759
 20
3.764516627179233
 30
0.0
  0
VERTEX
  5
A50
330
A4B
100
AcDbEntity
  8
Livello 1
100
AcDbVertex
100
AcDb2dVertex
 10
7.515288841373759
 20
3.717244803308062
 30
0.0
  0
SEQEND
  5
A51
330
A4B
100
AcDbEntity
  8
Livello 1
  0
POLYLINE
  5
A52
330
1F
100
AcDbEntity
  8
Livello 1
100
AcDb2dPolyline
 66
     1
 10
0.0
 20
0.0
 30
0.0
  0
VERTEX
  5
A53
330
A52
100
AcDbEntity
  8
Livello 1
100
AcDbVertex
100
AcDb2dVertex
 10
7.788692157379358
 20
2.911500219108063
 30
0.0
  0
VERTEX
  5
A54
330
A52
100
AcDbEntity
  8
Livello 1
100
AcDbVertex
100
AcDb2dVertex
 10
7.741420333508131
 20
2.911500219108063
 30
0.0
  0
VERTEX
  5
A55
330
A52
100
AcDbEntity
  8
Livello 1
100
AcDbVertex
100
AcDb2dVertex
 10
7.741420333508131
 20
3.740881388113848
 30
0.0
  0
VERTEX
  5
A56
330
A52
100
AcDbEntity
  8
Livello 1
100
AcDbVertex
100
AcDb2dVertex
 10
7.788692157379358
 20
3.740881388113848
 30
0.0
  0
VERTEX
  5
A57
330
A52
100
AcDbEntity
  8
Livello 1
100
AcDbVertex
100
AcDb2dVertex
 10
7.788692157379358
 20
2.911500219108063
 30
0.0
  0
SEQEND
  5
A58
330
A52
100
AcDbEntity
  8
Livello 1
  0
POLYLINE
  5
A59
330
1F
100
AcDbEntity
  8
Livello 1
100
AcDb2dPolyline
 66
     1
 10
0.0
 20
0.0
 30
0.0
  0
VERTEX
  5
A5A
330
A59
100
AcDbEntity
  8
Livello 1
100
AcDbVertex
100
AcDb2dVertex
 10
7.538925426179574
 20
2.876928147617434
 30
0.0
  0
VERTEX
  5
A5B
330
A59
100
AcDbEntity
  8
Livello 1
100
AcDbVertex
100
AcDb2dVertex
 10
7.491653602308346
 20
2.876928147617434
 30
0.0
  0
VERTEX
  5
A5C
330
A59
100
AcDbEntity
  8
Livello 1
100
AcDbVertex
100
AcDb2dVertex
 10
7.491653602308346
 20
3.740881388113848
 30
0.0
  0
VERTEX
  5
A5D
330
A59
100
AcDbEntity
  8
Livello 1
100
AcDbVertex
100
AcDb2dVertex
 10
7.538925426179574
 20
3.740881388113848
 30
0.0
  0
VERTEX
  5
A5E
330
A59
100
AcDbEntity
  8
Livello 1
100
AcDbVertex
100
AcDb2dVertex
 10
7.538925426179574
 20
2.876928147617434
 30
0.0
  0
SEQEND
  5
A5F
330
A59
100
AcDbEntity
  8
Livello 1
  0
POLYLINE
  5
A60
330
1F
100
AcDbEntity
  8
Livello 1
100
AcDb2dPolyline
 66
     1
 10
0.0
 20
0.0
 30
0.0
  0
VERTEX
  5
A61
330
A60
100
AcDbEntity
  8
Livello 1
100
AcDbVertex
100
AcDb2dVertex
 10
7.76505557257353
 20
3.717244803308062
 30
0.0
  0
VERTEX
  5
A62
330
A60
100
AcDbEntity
  8
Livello 1
100
AcDbVertex
100
AcDb2dVertex
 10
7.515288841373759
 20
3.717244803308062
 30
0.0
  0
VERTEX
  5
A63
330
A60
100
AcDbEntity
  8
Livello 1
100
AcDbVertex
100
AcDb2dVertex
 10
7.515288841373759
 20
3.764516627179233
 30
0.0
  0
VERTEX
  5
A64
330
A60
100
AcDbEntity
  8
Livello 1
100
AcDbVertex
100
AcDb2dVertex
 10
7.76505557257353
 20
3.764516627179233
 30
0.0
  0
VERTEX
  5
A65
330
A60
100
AcDbEntity
  8
Livello 1
100
AcDbVertex
100
AcDb2dVertex
 10
7.76505557257353
 20
3.717244803308062
 30
0.0
  0
SEQEND
  5
A66
330
A60
100
AcDbEntity
  8
Livello 1
  0
POLYLINE
  5
A67
330
1F
100
AcDbEntity
  8
Livello 1
100
AcDb2dPolyline
 66
     1
 10
0.0
 20
0.0
 30
0.0
  0
VERTEX
  5
A68
330
A67
100
AcDbEntity
  8
Livello 1
100
AcDbVertex
100
AcDb2dVertex
 10
2.879436473860025
 20
2.876928147617434
 30
0.0
  0
VERTEX
  5
A69
330
A67
100
AcDbEntity
  8
Livello 1
100
AcDbVertex
100
AcDb2dVertex
 10
2.832164649988783
 20
2.876928147617434
 30
0.0
  0
VERTEX
  5
A6A
330
A67
100
AcDbEntity
  8
Livello 1
100
AcDbVertex
100
AcDb2dVertex
 10
2.832164649988783
 20
3.740881388113848
 30
0.0
  0
VERTEX
  5
A6B
330
A67
100
AcDbEntity
  8
Livello 1
100
AcDbVertex
100
AcDb2dVertex
 10
2.879436473860025
 20
3.740881388113848
 30
0.0
  0
VERTEX
  5
A6C
330
A67
100
AcDbEntity
  8
Livello 1
100
AcDbVertex
100
AcDb2dVertex
 10
2.879436473860025
 20
2.876928147617434
 30
0.0
  0
SEQEND
  5
A6D
330
A67
100
AcDbEntity
  8
Livello 1
  0
POLYLINE
  5
A6E
330
1F
100
AcDbEntity
  8
Livello 1
100
AcDb2dPolyline
 66
     1
 10
0.0
 20
0.0
 30
0.0
  0
VERTEX
  5
A6F
330
A6E
100
AcDbEntity
  8
Livello 1
100
AcDbVertex
100
AcDb2dVertex
 10
2.630022326651328
 20
2.911500219108063
 30
0.0
  0
VERTEX
  5
A70
330
A6E
100
AcDbEntity
  8
Livello 1
100
AcDbVertex
100
AcDb2dVertex
 10
2.582750502780086
 20
2.911500219108063
 30
0.0
  0
VERTEX
  5
A71
330
A6E
100
AcDbEntity
  8
Livello 1
100
AcDbVertex
100
AcDb2dVertex
 10
2.582750502780086
 20
3.740881388113848
 30
0.0
  0
VERTEX
  5
A72
330
A6E
100
AcDbEntity
  8
Livello 1
100
AcDbVertex
100
AcDb2dVertex
 10
2.630022326651328
 20
3.740881388113848
 30
0.0
  0
VERTEX
  5
A73
330
A6E
100
AcDbEntity
  8
Livello 1
100
AcDbVertex
100
AcDb2dVertex
 10
2.630022326651328
 20
2.911500219108063
 30
0.0
  0
SEQEND
  5
A74
330
A6E
100
AcDbEntity
  8
Livello 1
  0
POLYLINE
  5
A75
330
1F
100
AcDbEntity
  8
Livello 1
100
AcDb2dPolyline
 66
     1
 10
0.0
 20
0.0
 30
0.0
  0
VERTEX
  5
A76
330
A75
100
AcDbEntity
  8
Livello 1
100
AcDbVertex
100
AcDb2dVertex
 10
2.855799889054225
 20
3.717244803308062
 30
0.0
  0
VERTEX
  5
A77
330
A75
100
AcDbEntity
  8
Livello 1
100
AcDbVertex
100
AcDb2dVertex
 10
2.606033157854426
 20
3.717244803308062
 30
0.0
  0
VERTEX
  5
A78
330
A75
100
AcDbEntity
  8
Livello 1
100
AcDbVertex
100
AcDb2dVertex
 10
2.606033157854426
 20
3.764516627179233
 30
0.0
  0
VERTEX
  5
A79
330
A75
100
AcDbEntity
  8
Livello 1
100
AcDbVertex
100
AcDb2dVertex
 10
2.855799889054225
 20
3.764516627179233
 30
0.0
  0
VERTEX
  5
A7A
330
A75
100
AcDbEntity
  8
Livello 1
100
AcDbVertex
100
AcDb2dVertex
 10
2.855799889054225
 20
3.717244803308062
 30
0.0
  0
SEQEND
  5
A7B
330
A75
100
AcDbEntity
  8
Livello 1
  0
POLYLINE
  5
A7C
330
1F
100
AcDbEntity
  8
Livello 1
100
AcDb2dPolyline
 66
     1
 10
0.0
 20
0.0
 30
0.0
  0
VERTEX
  5
A7D
330
A7C
100
AcDbEntity
  8
Livello 1
100
AcDbVertex
100
AcDb2dVertex
 10
2.334394107544611
 20
4.495120449068934
 30
0.0
  0
VERTEX
  5
A7E
330
A7C
100
AcDbEntity
  8
Livello 1
100
AcDbVertex
100
AcDb2dVertex
 10
2.126960332860249
 20
4.495120449068934
 30
0.0
  0
VERTEX
  5
A7F
330
A7C
100
AcDbEntity
  8
Livello 1
100
AcDbVertex
100
AcDb2dVertex
 10
2.126960332860249
 20
4.542392272940247
 30
0.0
  0
VERTEX
  5
A80
330
A7C
100
AcDbEntity
  8
Livello 1
100
AcDbVertex
100
AcDb2dVertex
 10
2.334394107544611
 20
4.542392272940247
 30
0.0
  0
VERTEX
  5
A81
330
A7C
100
AcDbEntity
  8
Livello 1
100
AcDbVertex
100
AcDb2dVertex
 10
2.334394107544611
 20
4.495120449068934
 30
0.0
  0
SEQEND
  5
A82
330
A7C
100
AcDbEntity
  8
Livello 1
  0
POLYLINE
  5
A83
330
1F
100
AcDbEntity
  8
Livello 1
100
AcDb2dPolyline
 66
     1
 10
0.0
 20
0.0
 30
0.0
  0
VERTEX
  5
A84
330
A83
100
AcDbEntity
  8
Livello 1
100
AcDbVertex
100
AcDb2dVertex
 10
8.244127051827248
 20
4.495120449068934
 30
0.0
  0
VERTEX
  5
A85
330
A83
100
AcDbEntity
  8
Livello 1
100
AcDbVertex
100
AcDb2dVertex
 10
8.036693277142916
 20
4.495120449068934
 30
0.0
  0
VERTEX
  5
A86
330
A83
100
AcDbEntity
  8
Livello 1
100
AcDbVertex
100
AcDb2dVertex
 10
8.036693277142916
 20
4.542392272940247
 30
0.0
  0
VERTEX
  5
A87
330
A83
100
AcDbEntity
  8
Livello 1
100
AcDbVertex
100
AcDb2dVertex
 10
8.244127051827248
 20
4.542392272940247
 30
0.0
  0
VERTEX
  5
A88
330
A83
100
AcDbEntity
  8
Livello 1
100
AcDbVertex
100
AcDb2dVertex
 10
8.244127051827248
 20
4.495120449068934
 30
0.0
  0
SEQEND
  5
A89
330
A83
100
AcDbEntity
  8
Livello 1
  0
POLYLINE
  5
A8A
330
1F
100
AcDbEntity
  8
Livello 1
100
AcDb2dPolyline
 66
     1
 10
0.0
 20
0.0
 30
0.0
  0
VERTEX
  5
A8B
330
A8A
100
AcDbEntity
  8
Livello 1
100
AcDbVertex
100
AcDb2dVertex
 10
2.334394107544611
 20
5.790873344947925
 30
0.0
  0
VERTEX
  5
A8C
330
A8A
100
AcDbEntity
  8
Livello 1
100
AcDbVertex
100
AcDb2dVertex
 10
2.126960332860249
 20
5.790873344947925
 30
0.0
  0
VERTEX
  5
A8D
330
A8A
100
AcDbEntity
  8
Livello 1
100
AcDbVertex
100
AcDb2dVertex
 10
2.126960332860249
 20
5.838145168819238
 30
0.0
  0
VERTEX
  5
A8E
330
A8A
100
AcDbEntity
  8
Livello 1
100
AcDbVertex
100
AcDb2dVertex
 10
2.334394107544611
 20
5.838145168819238
 30
0.0
  0
VERTEX
  5
A8F
330
A8A
100
AcDbEntity
  8
Livello 1
100
AcDbVertex
100
AcDb2dVertex
 10
2.334394107544611
 20
5.790873344947925
 30
0.0
  0
SEQEND
  5
A90
330
A8A
100
AcDbEntity
  8
Livello 1
  0
POLYLINE
  5
A91
330
1F
100
AcDbEntity
  8
Livello 1
100
AcDb2dPolyline
 66
     1
 10
0.0
 20
0.0
 30
0.0
  0
VERTEX
  5
A92
330
A91
100
AcDbEntity
  8
Livello 1
100
AcDbVertex
100
AcDb2dVertex
 10
8.244127051827248
 20
5.790873344947925
 30
0.0
  0
VERTEX
  5
A93
330
A91
100
AcDbEntity
  8
Livello 1
100
AcDbVertex
100
AcDb2dVertex
 10
8.036693277142916
 20
5.790873344947925
 30
0.0
  0
VERTEX
  5
A94
330
A91
100
AcDbEntity
  8
Livello 1
100
AcDbVertex
100
AcDb2dVertex
 10
8.036693277142916
 20
5.838145168819238
 30
0.0
  0
VERTEX
  5
A95
330
A91
100
AcDbEntity
  8
Livello 1
100
AcDbVertex
100
AcDb2dVertex
 10
8.244127051827248
 20
5.838145168819238
 30
0.0
  0
VERTEX
  5
A96
330
A91
100
AcDbEntity
  8
Livello 1
100
AcDbVertex
100
AcDb2dVertex
 10
8.244127051827248
 20
5.790873344947925
 30
0.0
  0
SEQEND
  5
A97
330
A91
100
AcDbEntity
  8
Livello 1
  0
POLYLINE
  5
A98
330
1F
100
AcDbEntity
  8
Livello 1
100
AcDb2dPolyline
 66
     1
 10
0.0
 20
0.0
 30
0.0
  0
VERTEX
  5
A99
330
A98
100
AcDbEntity
  8
Livello 1
100
AcDbVertex
100
AcDb2dVertex
 10
8.267763636633091
 20
4.518757033874834
 30
0.0
  0
VERTEX
  5
A9A
330
A98
100
AcDbEntity
  8
Livello 1
100
AcDbVertex
100
AcDb2dVertex
 10
8.220490467021448
 20
4.518757033874834
 30
0.0
  0
VERTEX
  5
A9B
330
A98
100
AcDbEntity
  8
Livello 1
100
AcDbVertex
100
AcDb2dVertex
 10
8.220490467021448
 20
5.814862513744856
 30
0.0
  0
VERTEX
  5
A9C
330
A98
100
AcDbEntity
  8
Livello 1
100
AcDbVertex
100
AcDb2dVertex
 10
8.267763636633091
 20
5.814862513744856
 30
0.0
  0
VERTEX
  5
A9D
330
A98
100
AcDbEntity
  8
Livello 1
100
AcDbVertex
100
AcDb2dVertex
 10
8.267763636633091
 20
4.518757033874834
 30
0.0
  0
SEQEND
  5
A9E
330
A98
100
AcDbEntity
  8
Livello 1
  0
POLYLINE
  5
A9F
330
1F
100
AcDbEntity
  8
Livello 1
100
AcDb2dPolyline
 66
     1
 10
0.0
 20
0.0
 30
0.0
  0
VERTEX
  5
AA0
330
A9F
100
AcDbEntity
  8
Livello 1
100
AcDbVertex
100
AcDb2dVertex
 10
8.267763636633091
 20
2.876928147617434
 30
0.0
  0
VERTEX
  5
AA1
330
A9F
100
AcDbEntity
  8
Livello 1
100
AcDbVertex
100
AcDb2dVertex
 10
8.220490467021448
 20
2.876928147617434
 30
0.0
  0
VERTEX
  5
AA2
330
A9F
100
AcDbEntity
  8
Livello 1
100
AcDbVertex
100
AcDb2dVertex
 10
8.220490467021448
 20
4.518403104143345
 30
0.0
  0
VERTEX
  5
AA3
330
A9F
100
AcDbEntity
  8
Livello 1
100
AcDbVertex
100
AcDb2dVertex
 10
8.267763636633091
 20
4.518403104143345
 30
0.0
  0
VERTEX
  5
AA4
330
A9F
100
AcDbEntity
  8
Livello 1
100
AcDbVertex
100
AcDb2dVertex
 10
8.267763636633091
 20
2.876928147617434
 30
0.0
  0
SEQEND
  5
AA5
330
A9F
100
AcDbEntity
  8
Livello 1
  0
POLYLINE
  5
AA6
330
1F
100
AcDbEntity
  8
Livello 1
100
AcDb2dPolyline
 66
     1
 10
0.0
 20
0.0
 30
0.0
  0
VERTEX
  5
AA7
330
AA6
100
AcDbEntity
  8
Livello 1
100
AcDbVertex
100
AcDb2dVertex
 10
8.060683791680233
 20
4.518757033874834
 30
0.0
  0
VERTEX
  5
AA8
330
AA6
100
AcDbEntity
  8
Livello 1
100
AcDbVertex
100
AcDb2dVertex
 10
8.013411967809005
 20
4.518757033874834
 30
0.0
  0
VERTEX
  5
AA9
330
AA6
100
AcDbEntity
  8
Livello 1
100
AcDbVertex
100
AcDb2dVertex
 10
8.013411967809005
 20
5.814862513744856
 30
0.0
  0
VERTEX
  5
AAA
330
AA6
100
AcDbEntity
  8
Livello 1
100
AcDbVertex
100
AcDb2dVertex
 10
8.060683791680233
 20
5.814862513744856
 30
0.0
  0
VERTEX
  5
AAB
330
AA6
100
AcDbEntity
  8
Livello 1
100
AcDbVertex
100
AcDb2dVertex
 10
8.060683791680233
 20
4.518757033874834
 30
0.0
  0
SEQEND
  5
AAC
330
AA6
100
AcDbEntity
  8
Livello 1
  0
POLYLINE
  5
AAD
330
1F
100
AcDbEntity
  8
Livello 1
100
AcDb2dPolyline
 66
     1
 10
0.0
 20
0.0
 30
0.0
  0
VERTEX
  5
AAE
330
AAD
100
AcDbEntity
  8
Livello 1
100
AcDbVertex
100
AcDb2dVertex
 10
8.060683791680233
 20
2.911500219108063
 30
0.0
  0
VERTEX
  5
AAF
330
AAD
100
AcDbEntity
  8
Livello 1
100
AcDbVertex
100
AcDb2dVertex
 10
8.013411967809005
 20
2.911500219108063
 30
0.0
  0
VERTEX
  5
AB0
330
AAD
100
AcDbEntity
  8
Livello 1
100
AcDbVertex
100
AcDb2dVertex
 10
8.013411967809005
 20
4.518403104143345
 30
0.0
  0
VERTEX
  5
AB1
330
AAD
100
AcDbEntity
  8
Livello 1
100
AcDbVertex
100
AcDb2dVertex
 10
8.060683791680233
 20
4.518403104143345
 30
0.0
  0
VERTEX
  5
AB2
330
AAD
100
AcDbEntity
  8
Livello 1
100
AcDbVertex
100
AcDb2dVertex
 10
8.060683791680233
 20
2.911500219108063
 30
0.0
  0
SEQEND
  5
AB3
330
AAD
100
AcDbEntity
  8
Livello 1
  0
POLYLINE
  5
AB4
330
1F
100
AcDbEntity
  8
Livello 1
100
AcDb2dPolyline
 66
     1
 10
0.0
 20
0.0
 30
0.0
  0
VERTEX
  5
AB5
330
AB4
100
AcDbEntity
  8
Livello 1
100
AcDbVertex
100
AcDb2dVertex
 10
2.358030692350439
 20
2.911500219108063
 30
0.0
  0
VERTEX
  5
AB6
330
AB4
100
AcDbEntity
  8
Livello 1
100
AcDbVertex
100
AcDb2dVertex
 10
2.310758868479211
 20
2.911500219108063
 30
0.0
  0
VERTEX
  5
AB7
330
AB4
100
AcDbEntity
  8
Livello 1
100
AcDbVertex
100
AcDb2dVertex
 10
2.310758868479211
 20
4.518403104143345
 30
0.0
  0
VERTEX
  5
AB8
330
AB4
100
AcDbEntity
  8
Livello 1
100
AcDbVertex
100
AcDb2dVertex
 10
2.358030692350439
 20
4.518403104143345
 30
0.0
  0
VERTEX
  5
AB9
330
AB4
100
AcDbEntity
  8
Livello 1
100
AcDbVertex
100
AcDb2dVertex
 10
2.358030692350439
 20
2.911500219108063
 30
0.0
  0
SEQEND
  5
ABA
330
AB4
100
AcDbEntity
  8
Livello 1
  0
POLYLINE
  5
ABB
330
1F
100
AcDbEntity
  8
Livello 1
100
AcDb2dPolyline
 66
     1
 10
0.0
 20
0.0
 30
0.0
  0
VERTEX
  5
ABC
330
ABB
100
AcDbEntity
  8
Livello 1
100
AcDbVertex
100
AcDb2dVertex
 10
2.358030692350439
 20
4.518757033874834
 30
0.0
  0
VERTEX
  5
ABD
330
ABB
100
AcDbEntity
  8
Livello 1
100
AcDbVertex
100
AcDb2dVertex
 10
2.310758868479211
 20
4.518757033874834
 30
0.0
  0
VERTEX
  5
ABE
330
ABB
100
AcDbEntity
  8
Livello 1
100
AcDbVertex
100
AcDb2dVertex
 10
2.310758868479211
 20
5.814862513744856
 30
0.0
  0
VERTEX
  5
ABF
330
ABB
100
AcDbEntity
  8
Livello 1
100
AcDbVertex
100
AcDb2dVertex
 10
2.358030692350439
 20
5.814862513744856
 30
0.0
  0
VERTEX
  5
AC0
330
ABB
100
AcDbEntity
  8
Livello 1
100
AcDbVertex
100
AcDb2dVertex
 10
2.358030692350439
 20
4.518757033874834
 30
0.0
  0
SEQEND
  5
AC1
330
ABB
100
AcDbEntity
  8
Livello 1
  0
POLYLINE
  5
AC2
330
1F
100
AcDbEntity
  8
Livello 1
100
AcDb2dPolyline
 66
     1
 10
0.0
 20
0.0
 30
0.0
  0
VERTEX
  5
AC3
330
AC2
100
AcDbEntity
  8
Livello 1
100
AcDbVertex
100
AcDb2dVertex
 10
2.150596917666092
 20
4.518757033874834
 30
0.0
  0
VERTEX
  5
AC4
330
AC2
100
AcDbEntity
  8
Livello 1
100
AcDbVertex
100
AcDb2dVertex
 10
2.10332509379485
 20
4.518757033874834
 30
0.0
  0
VERTEX
  5
AC5
330
AC2
100
AcDbEntity
  8
Livello 1
100
AcDbVertex
100
AcDb2dVertex
 10
2.10332509379485
 20
5.814862513744856
 30
0.0
  0
VERTEX
  5
AC6
330
AC2
100
AcDbEntity
  8
Livello 1
100
AcDbVertex
100
AcDb2dVertex
 10
2.150596917666092
 20
5.814862513744856
 30
0.0
  0
VERTEX
  5
AC7
330
AC2
100
AcDbEntity
  8
Livello 1
100
AcDbVertex
100
AcDb2dVertex
 10
2.150596917666092
 20
4.518757033874834
 30
0.0
  0
SEQEND
  5
AC8
330
AC2
100
AcDbEntity
  8
Livello 1
  0
POLYLINE
  5
AC9
330
1F
100
AcDbEntity
  8
Livello 1
100
AcDb2dPolyline
 66
     1
 10
0.0
 20
0.0
 30
0.0
  0
VERTEX
  5
ACA
330
AC9
100
AcDbEntity
  8
Livello 1
100
AcDbVertex
100
AcDb2dVertex
 10
2.150596917666092
 20
2.876928147617434
 30
0.0
  0
VERTEX
  5
ACB
330
AC9
100
AcDbEntity
  8
Livello 1
100
AcDbVertex
100
AcDb2dVertex
 10
2.10332509379485
 20
2.876928147617434
 30
0.0
  0
VERTEX
  5
ACC
330
AC9
100
AcDbEntity
  8
Livello 1
100
AcDbVertex
100
AcDb2dVertex
 10
2.10332509379485
 20
4.518403104143345
 30
0.0
  0
VERTEX
  5
ACD
330
AC9
100
AcDbEntity
  8
Livello 1
100
AcDbVertex
100
AcDb2dVertex
 10
2.150596917666092
 20
4.518403104143345
 30
0.0
  0
VERTEX
  5
ACE
330
AC9
100
AcDbEntity
  8
Livello 1
100
AcDbVertex
100
AcDb2dVertex
 10
2.150596917666092
 20
2.876928147617434
 30
0.0
  0
SEQEND
  5
ACF
330
AC9
100
AcDbEntity
  8
Livello 1
  0
POLYLINE
  5
AD0
330
1F
100
AcDbEntity
  8
Livello 1
100
AcDb2dPolyline
 66
     1
 10
0.0
 20
0.0
 30
0.0
  0
VERTEX
  5
AD1
330
AD0
100
AcDbEntity
  8
Livello 1
100
AcDbVertex
100
AcDb2dVertex
 10
0.8894174390181746
 20
2.738639861654746
 30
0.0
  0
VERTEX
  5
AD2
330
AD0
100
AcDbEntity
  8
Livello 1
100
AcDbVertex
100
AcDb2dVertex
 10
0.8421456151469186
 20
2.738639861654746
 30
0.0
  0
VERTEX
  5
AD3
330
AD0
100
AcDbEntity
  8
Livello 1
100
AcDbVertex
100
AcDb2dVertex
 10
0.8421456151469186
 20
2.876928147617434
 30
0.0
  0
VERTEX
  5
AD4
330
AD0
100
AcDbEntity
  8
Livello 1
100
AcDbVertex
100
AcDb2dVertex
 10
0.8894174390181746
 20
2.876928147617434
 30
0.0
  0
VERTEX
  5
AD5
330
AD0
100
AcDbEntity
  8
Livello 1
100
AcDbVertex
100
AcDb2dVertex
 10
0.8894174390181746
 20
2.738639861654746
 30
0.0
  0
SEQEND
  5
AD6
330
AD0
100
AcDbEntity
  8
Livello 1
  0
POLYLINE
  5
AD7
330
1F
100
AcDbEntity
  8
Livello 1
100
AcDb2dPolyline
 66
     1
 10
0.0
 20
0.0
 30
0.0
  0
VERTEX
  5
AD8
330
AD7
100
AcDbEntity
  8
Livello 1
100
AcDbVertex
100
AcDb2dVertex
 10
9.529298390752927
 20
2.738639861654746
 30
0.0
  0
VERTEX
  5
AD9
330
AD7
100
AcDbEntity
  8
Livello 1
100
AcDbVertex
100
AcDb2dVertex
 10
9.482025221141299
 20
2.738639861654746
 30
0.0
  0
VERTEX
  5
ADA
330
AD7
100
AcDbEntity
  8
Livello 1
100
AcDbVertex
100
AcDb2dVertex
 10
9.482025221141299
 20
2.876928147617434
 30
0.0
  0
VERTEX
  5
ADB
330
AD7
100
AcDbEntity
  8
Livello 1
100
AcDbVertex
100
AcDb2dVertex
 10
9.529298390752927
 20
2.876928147617434
 30
0.0
  0
VERTEX
  5
ADC
330
AD7
100
AcDbEntity
  8
Livello 1
100
AcDbVertex
100
AcDb2dVertex
 10
9.529298390752927
 20
2.738639861654746
 30
0.0
  0
SEQEND
  5
ADD
330
AD7
100
AcDbEntity
  8
Livello 1
  0
POLYLINE
  5
ADE
330
1F
100
AcDbEntity
  8
Livello 1
100
AcDb2dPolyline
 66
     1
 10
0.0
 20
0.0
 30
0.0
  0
VERTEX
  5
ADF
330
ADE
100
AcDbEntity
  8
Livello 1
100
AcDbVertex
100
AcDb2dVertex
 10
9.505661805947084
 20
2.853292908551935
 30
0.0
  0
VERTEX
  5
AE0
330
ADE
100
AcDbEntity
  8
Livello 1
100
AcDbVertex
100
AcDb2dVertex
 10
0.8654282702212725
 20
2.853292908551935
 30
0.0
  0
VERTEX
  5
AE1
330
ADE
100
AcDbEntity
  8
Livello 1
100
AcDbVertex
100
AcDb2dVertex
 10
0.8654282702212725
 20
2.900564732423248
 30
0.0
  0
VERTEX
  5
AE2
330
ADE
100
AcDbEntity
  8
Livello 1
100
AcDbVertex
100
AcDb2dVertex
 10
9.505661805947084
 20
2.900564732423248
 30
0.0
  0
VERTEX
  5
AE3
330
ADE
100
AcDbEntity
  8
Livello 1
100
AcDbVertex
100
AcDb2dVertex
 10
9.505661805947084
 20
2.853292908551935
 30
0.0
  0
SEQEND
  5
AE4
330
ADE
100
AcDbEntity
  8
Livello 1
  0
POLYLINE
  5
AE5
330
1F
100
AcDbEntity
  8
Livello 1
100
AcDb2dPolyline
 66
     1
 10
0.0
 20
0.0
 30
0.0
  0
VERTEX
  5
AE6
330
AE5
100
AcDbEntity
  8
Livello 1
100
AcDbVertex
100
AcDb2dVertex
 10
2.334217815549067
 20
2.886172038589336
 30
0.0
  0
VERTEX
  5
AE7
330
AE5
100
AcDbEntity
  8
Livello 1
100
AcDbVertex
100
AcDb2dVertex
 10
2.325397832810665
 20
2.889699224240445
 30
0.0
  0
VERTEX
  5
AE8
330
AE5
100
AcDbEntity
  8
Livello 1
100
AcDbVertex
100
AcDb2dVertex
 10
2.343036452547025
 20
2.933443862460535
 30
0.0
  0
VERTEX
  5
AE9
330
AE5
100
AcDbEntity
  8
Livello 1
100
AcDbVertex
100
AcDb2dVertex
 10
2.351856435285455
 20
2.929915331069054
 30
0.0
  0
VERTEX
  5
AEA
330
AE5
100
AcDbEntity
  8
Livello 1
100
AcDbVertex
100
AcDb2dVertex
 10
2.334217815549067
 20
2.886172038589336
 30
0.0
  0
SEQEND
  5
AEB
330
AE5
100
AcDbEntity
  8
Livello 1
  0
POLYLINE
  5
AEC
330
1F
100
AcDbEntity
  8
Livello 1
100
AcDb2dPolyline
 66
     1
 10
0.0
 20
0.0
 30
0.0
  0
VERTEX
  5
AED
330
AEC
100
AcDbEntity
  8
Livello 1
100
AcDbVertex
100
AcDb2dVertex
 10
9.505661805947084
 20
2.715003276848932
 30
0.0
  0
VERTEX
  5
AEE
330
AEC
100
AcDbEntity
  8
Livello 1
100
AcDbVertex
100
AcDb2dVertex
 10
0.8654282702212725
 20
2.715003276848932
 30
0.0
  0
VERTEX
  5
AEF
330
AEC
100
AcDbEntity
  8
Livello 1
100
AcDbVertex
100
AcDb2dVertex
 10
0.8654282702212725
 20
2.762275100720131
 30
0.0
  0
VERTEX
  5
AF0
330
AEC
100
AcDbEntity
  8
Livello 1
100
AcDbVertex
100
AcDb2dVertex
 10
9.505661805947084
 20
2.762275100720131
 30
0.0
  0
VERTEX
  5
AF1
330
AEC
100
AcDbEntity
  8
Livello 1
100
AcDbVertex
100
AcDb2dVertex
 10
9.505661805947084
 20
2.715003276848932
 30
0.0
  0
SEQEND
  5
AF2
330
AEC
100
AcDbEntity
  8
Livello 1
  0
SPLINE
  5
AF3
330
1F
100
AcDbEntity
  8
Livello 1
100
AcDbSpline
210
0.0
220
0.0
230
1.0
 70
     9
 71
     3
 72
    41
 73
    37
 74
     0
 42
0.000000001
 43
0.0000000001
 40
0.0
 40
0.0
 40
0.0
 40
0.0
 40
1.0
 40
1.0
 40
1.0
 40
2.0
 40
2.0
 40
2.0
 40
3.0
 40
3.0
 40
3.0
 40
4.0
 40
4.0
 40
4.0
 40
5.0
 40
5.0
 40
5.0
 40
6.0
 40
6.0
 40
6.0
 40
7.0
 40
7.0
 40
7.0
 40
8.0
 40
8.0
 40
8.0
 40
9.0
 40
9.0
 40
9.0
 40
10.0
 40
10.0
 40
10.0
 40
11.0
 40
11.0
 40
11.0
 40
12.0
 40
12.0
 40
12.0
 40
12.0
 10
8.383968322239084
 20
5.371490836457041
 30
0.0
 10
8.383968322239084
 20
5.371490836457041
 30
0.0
 10
8.356803206041732
 20
5.409942677589839
 30
0.0
 10
8.356803206041732
 20
5.409942677589839
 30
0.0
 10
8.389964941568081
 20
5.433579262395738
 30
0.0
 10
8.417832534266736
 20
5.463565050521651
 30
0.0
 10
8.440058783108284
 20
5.498842289994428
 30
0.0
 10
8.461929756477942
 20
5.533415707225429
 30
0.0
 10
8.477101634017287
 20
5.572220132349428
 30
0.0
 10
8.483803421328445
 20
5.611378487204717
 30
0.0
 10
8.497562271422651
 20
5.690401710638155
 30
0.0
 10
8.478864553972641
 20
5.776831889364757
 30
0.0
 10
8.433004411806081
 20
5.842448846694935
 30
0.0
 10
8.387141578158676
 20
5.908770972007232
 30
0.0
 10
8.312353399839437
 20
5.956395379869547
 30
0.0
 10
8.23297893815544
 20
5.970506813954841
 30
0.0
 10
8.153957060462545
 20
5.984265664049047
 30
0.0
 10
8.068584633709136
 20
5.964862778616947
 30
0.0
 10
8.004025428352122
 20
5.918648706718954
 30
0.0
 10
8.004025428352122
 20
5.918648706718954
 30
0.0
 10
7.976509073904125
 20
5.956747963860664
 30
0.0
 10
7.976509073904125
 20
5.956747963860664
 30
0.0
 10
8.050946013972719
 20
6.01072292078345
 30
0.0
 10
8.150075945079933
 20
6.033301753616058
 30
0.0
 10
8.241091061430893
 20
6.01707346984395
 30
0.0
 10
8.332814037244816
 20
6.001199115803331
 30
0.0
 10
8.418892977720815
 20
5.945812477175849
 30
0.0
 10
8.472162766661469
 20
5.869260033160855
 30
0.0
 10
8.525429864121306
 20
5.792706243405348
 30
0.0
 10
8.546598360989648
 20
5.695693161984934
 30
0.0
 10
8.530368731477125
 20
5.603265018188949
 30
0.0
 10
8.522609192192746
 20
5.558110044004564
 30
0.0
 10
8.505321810707016
 20
5.513306308070752
 30
0.0
 10
8.480274889936879
 20
5.473442785233231
 30
0.0
 10
8.454875385175725
 20
5.432874094413563
 30
0.0
 10
8.422418817631495
 20
5.398654606913936
 30
0.0
 10
8.383968322239084
 20
5.371490836457041
 30
0.0
  0
SPLINE
  5
AF4
330
1F
100
AcDbEntity
  8
Livello 1
100
AcDbSpline
210
0.0
220
0.0
230
1.0
 70
     9
 71
     3
 72
    23
 73
    19
 74
     0
 42
0.000000001
 43
0.0000000001
 40
0.0
 40
0.0
 40
0.0
 40
0.0
 40
1.0
 40
1.0
 40
1.0
 40
2.0
 40
2.0
 40
2.0
 40
3.0
 40
3.0
 40
3.0
 40
4.0
 40
4.0
 40
4.0
 40
5.0
 40
5.0
 40
5.0
 40
6.0
 40
6.0
 40
6.0
 40
6.0
 10
8.026675585427227
 20
5.363976221929846
 30
0.0
 10
7.914844556199014
 20
5.417244665130141
 30
0.0
 10
7.841819297835073
 20
5.522725145297869
 30
0.0
 10
7.831588979132405
 20
5.646198174933431
 30
0.0
 10
7.821006076438649
 20
5.769669858828649
 30
0.0
 10
7.875333617352538
 20
5.885733241690047
 30
0.0
 10
7.976580398146609
 20
5.956995580098663
 30
0.0
 10
7.976580398146609
 20
5.956995580098663
 30
0.0
 10
8.003744168603532
 20
5.918542393225436
 30
0.0
 10
8.003744168603532
 20
5.918542393225436
 30
0.0
 10
7.916608821894755
 20
5.856806551277855
 30
0.0
 10
7.869688236274157
 20
5.756617522456934
 30
0.0
 10
7.878508219012559
 20
5.650077944575627
 30
0.0
 10
7.887680785742034
 20
5.543539712434636
 30
0.0
 10
7.95047437966285
 20
5.452523250343347
 30
0.0
 10
8.047136222832605
 20
5.406661762436328
 30
0.0
 10
8.047136222832605
 20
5.406661762436328
 30
0.0
 10
8.026675585427227
 20
5.363976221929846
 30
0.0
 10
8.026675585427227
 20
5.363976221929846
 30
0.0
  0
SPLINE
  5
AF5
330
1F
100
AcDbEntity
  8
Livello 1
100
AcDbSpline
210
0.0
220
0.0
230
1.0
 70
     9
 71
     3
 72
    17
 73
    13
 74
     0
 42
0.000000001
 43
0.0000000001
 40
0.0
 40
0.0
 40
0.0
 40
0.0
 40
1.0
 40
1.0
 40
1.0
 40
2.0
 40
2.0
 40
2.0
 40
3.0
 40
3.0
 40
3.0
 40
4.0
 40
4.0
 40
4.0
 40
4.0
 10
8.487191995715875
 20
5.280544352867735
 30
0.0
 10
8.438861074131011
 20
5.348276814144355
 30
0.0
 10
8.327382628893843
 20
5.392021452364446
 30
0.0
 10
8.242008856400005
 20
5.400134921380356
 30
0.0
 10
8.242008856400005
 20
5.400134921380356
 30
0.0
 10
8.246242555773676
 20
5.447408090991928
 30
0.0
 10
8.246242555773676
 20
5.447408090991928
 30
0.0
 10
8.339375867551879
 20
5.438588108253554
 30
0.0
 10
8.466376082838607
 20
5.391316284382355
 30
0.0
 10
8.525642491108285
 20
5.308060707315746
 30
0.0
 10
8.525642491108285
 20
5.308060707315746
 30
0.0
 10
8.487191995715875
 20
5.280544352867735
 30
0.0
 10
8.487191995715875
 20
5.280544352867735
 30
0.0
  0
SPLINE
  5
AF6
330
1F
100
AcDbEntity
  8
Livello 1
100
AcDbSpline
210
0.0
220
0.0
230
1.0
 70
     9
 71
     3
 72
    17
 73
    13
 74
     0
 42
0.000000001
 43
0.0000000001
 40
0.0
 40
0.0
 40
0.0
 40
0.0
 40
1.0
 40
1.0
 40
1.0
 40
2.0
 40
2.0
 40
2.0
 40
3.0
 40
3.0
 40
3.0
 40
4.0
 40
4.0
 40
4.0
 40
4.0
 10
8.402771007442169
 20
5.220396484620351
 30
0.0
 10
8.375253307253714
 20
5.259200909744237
 30
0.0
 10
8.290234810231794
 20
5.290598379574845
 30
0.0
 10
8.241551304655871
 20
5.296242414912825
 30
0.0
 10
8.241551304655871
 20
5.296242414912825
 30
0.0
 10
8.246842756002735
 20
5.343515584524453
 30
0.0
 10
8.246842756002735
 20
5.343515584524453
 30
0.0
 10
8.302580632880889
 20
5.336812451472923
 30
0.0
 10
8.402771007442169
 20
5.302240379982237
 30
0.0
 10
8.441221502834565
 20
5.247912839068334
 30
0.0
 10
8.441221502834565
 20
5.247912839068334
 30
0.0
 10
8.402771007442169
 20
5.220396484620351
 30
0.0
 10
8.402771007442169
 20
5.220396484620351
 30
0.0
  0
POLYLINE
  5
AF7
330
1F
100
AcDbEntity
  8
Livello 1
100
AcDb2dPolyline
 66
     1
 10
0.0
 20
0.0
 30
0.0
  0
VERTEX
  5
AF8
330
AF7
100
AcDbEntity
  8
Livello 1
100
AcDbVertex
100
AcDb2dVertex
 10
8.436075391453485
 20
5.215033709031047
 30
0.0
  0
VERTEX
  5
AF9
330
AF7
100
AcDbEntity
  8
Livello 1
100
AcDbVertex
100
AcDb2dVertex
 10
8.408557691265045
 20
5.253485550163844
 30
0.0
  0
VERTEX
  5
AFA
330
AF7
100
AcDbEntity
  8
Livello 1
100
AcDbVertex
100
AcDb2dVertex
 10
8.492165852322671
 20
5.313105888165068
 30
0.0
  0
VERTEX
  5
AFB
330
AF7
100
AcDbEntity
  8
Livello 1
100
AcDbVertex
100
AcDb2dVertex
 10
8.519683552511153
 20
5.274652701291728
 30
0.0
  0
VERTEX
  5
AFC
330
AF7
100
AcDbEntity
  8
Livello 1
100
AcDbVertex
100
AcDb2dVertex
 10
8.436075391453485
 20
5.215033709031047
 30
0.0
  0
SEQEND
  5
AFD
330
AF7
100
AcDbEntity
  8
Livello 1
  0
SPLINE
  5
AFE
330
1F
100
AcDbEntity
  8
Livello 1
100
AcDbSpline
210
0.0
220
0.0
230
1.0
 70
     9
 71
     3
 72
    17
 73
    13
 74
     0
 42
0.000000001
 43
0.0000000001
 40
0.0
 40
0.0
 40
0.0
 40
0.0
 40
1.0
 40
1.0
 40
1.0
 40
2.0
 40
2.0
 40
2.0
 40
3.0
 40
3.0
 40
3.0
 40
4.0
 40
4.0
 40
4.0
 40
4.0
 10
2.010403063263197
 20
5.480816097015946
 30
0.0
 10
1.982532779083726
 20
5.509390203437135
 30
0.0
 10
1.963129893651583
 20
5.540435089276655
 30
0.0
 10
1.949018459566261
 20
5.578181762427362
 30
0.0
 10
1.949018459566261
 20
5.578181762427362
 30
0.0
 10
1.993469611508956
 20
5.594410046199556
 30
0.0
 10
1.993469611508956
 20
5.594410046199556
 30
0.0
 10
2.005110266175933
 20
5.56336516035995
 30
0.0
 10
2.02133854994804
 20
5.537613071607751
 30
0.0
 10
2.044268621031307
 20
5.513976486801851
 30
0.0
 10
2.044268621031307
 20
5.513976486801851
 30
0.0
 10
2.010403063263197
 20
5.480816097015946
 30
0.0
 10
2.010403063263197
 20
5.480816097015946
 30
0.0
  0
SPLINE
  5
AFF
330
1F
100
AcDbEntity
  8
Livello 1
100
AcDbSpline
210
0.0
220
0.0
230
1.0
 70
     9
 71
     3
 72
    23
 73
    19
 74
     0
 42
0.000000001
 43
0.0000000001
 40
0.0
 40
0.0
 40
0.0
 40
0.0
 40
1.0
 40
1.0
 40
1.0
 40
2.0
 40
2.0
 40
2.0
 40
3.0
 40
3.0
 40
3.0
 40
4.0
 40
4.0
 40
4.0
 40
5.0
 40
5.0
 40
5.0
 40
6.0
 40
6.0
 40
6.0
 40
6.0
 10
2.346425026934483
 20
5.435519820087051
 30
0.0
 10
2.346425026934483
 20
5.435519820087051
 30
0.0
 10
2.322435858137609
 20
5.476441094897722
 30
0.0
 10
2.322435858137609
 20
5.476441094897722
 30
0.0
 10
2.388051469727358
 20
5.514894281771063
 30
0.0
 10
2.428621506287441
 20
5.582980672779058
 30
0.0
 10
2.431796107947505
 20
5.659180532803048
 30
0.0
 10
2.434619471356882
 20
5.735027808835951
 30
0.0
 10
2.399340886143676
 20
5.806288801504052
 30
0.0
 10
2.336899876213948
 20
5.84968085573314
 30
0.0
 10
2.336899876213948
 20
5.84968085573314
 30
0.0
 10
2.364063646670885
 20
5.888485280857054
 30
0.0
 10
2.364063646670885
 20
5.888485280857054
 30
0.0
 10
2.439558338712714
 20
5.835922005638934
 30
0.0
 10
2.482596463210299
 20
5.749139242921245
 30
0.0
 10
2.479069277559162
 20
5.657416267107237
 30
0.0
 10
2.475540746167638
 20
5.564988123311252
 30
0.0
 10
2.42579948861848
 20
5.48208647597616
 30
0.0
 10
2.346425026934483
 20
5.435519820087051
 30
0.0
  0
SPLINE
  5
B00
330
1F
100
AcDbEntity
  8
Livello 1
100
AcDbSpline
210
0.0
220
0.0
230
1.0
 70
     9
 71
     3
 72
    17
 73
    13
 74
     0
 42
0.000000001
 43
0.0000000001
 40
0.0
 40
0.0
 40
0.0
 40
0.0
 40
1.0
 40
1.0
 40
1.0
 40
2.0
 40
2.0
 40
2.0
 40
3.0
 40
3.0
 40
3.0
 40
4.0
 40
4.0
 40
4.0
 40
4.0
 10
2.119518388315967
 20
5.411883235281152
 30
0.0
 10
2.114578175219719
 20
5.413646155236563
 30
0.0
 10
2.109639307863943
 20
5.415410420932232
 30
0.0
 10
2.104700440508139
 20
5.41752727061916
 30
0.0
 10
2.104700440508139
 20
5.41752727061916
 30
0.0
 10
2.122340405984928
 20
5.461271908839222
 30
0.0
 10
2.122340405984928
 20
5.461271908839222
 30
0.0
 10
2.126220175627139
 20
5.459860227134555
 30
0.0
 10
2.130453875000796
 20
5.458095961438857
 30
0.0
 10
2.134334990383379
 20
5.456685625474563
 30
0.0
 10
2.134334990383379
 20
5.456685625474563
 30
0.0
 10
2.119518388315967
 20
5.411883235281152
 30
0.0
 10
2.119518388315967
 20
5.411883235281152
 30
0.0
  0
SPLINE
  5
B01
330
1F
100
AcDbEntity
  8
Livello 1
100
AcDbSpline
210
0.0
220
0.0
230
1.0
 70
     9
 71
     3
 72
    23
 73
    19
 74
     0
 42
0.000000001
 43
0.0000000001
 40
0.0
 40
0.0
 40
0.0
 40
0.0
 40
1.0
 40
1.0
 40
1.0
 40
2.0
 40
2.0
 40
2.0
 40
3.0
 40
3.0
 40
3.0
 40
4.0
 40
4.0
 40
4.0
 40
5.0
 40
5.0
 40
5.0
 40
6.0
 40
6.0
 40
6.0
 40
6.0
 10
1.902665776404575
 20
5.76430842897966
 30
0.0
 10
1.902665776404575
 20
5.76430842897966
 30
0.0
 10
1.857509456479732
 20
5.778065933333436
 30
0.0
 10
1.857509456479732
 20
5.778065933333436
 30
0.0
 10
1.890317262274621
 20
5.886368431170154
 30
0.0
 10
1.969693069699033
 20
5.972093441914637
 30
0.0
 10
2.074820965875673
 20
6.013368646456939
 30
0.0
 10
2.179948862052341
 20
6.054643850999156
 30
0.0
 10
2.29636482890487
 20
6.045823868260725
 30
0.0
 10
2.394437008038877
 20
5.989026893668949
 30
0.0
 10
2.394437008038877
 20
5.989026893668949
 30
0.0
 10
2.370447839242018
 20
5.948105618858164
 30
0.0
 10
2.370447839242018
 20
5.948105618858164
 30
0.0
 10
2.285429342220069
 20
5.997494292416234
 30
0.0
 10
2.183828631694524
 20
6.005255177441057
 30
0.0
 10
2.092107001621016
 20
5.969271424245732
 30
0.0
 10
2.000384025807093
 20
5.933287671050351
 30
0.0
 10
1.931239882825749
 20
5.858499492731141
 30
0.0
 10
1.902665776404575
 20
5.76430842897966
 30
0.0
  0
SPLINE
  5
B02
330
1F
100
AcDbEntity
  8
Livello 1
100
AcDbSpline
210
0.0
220
0.0
230
1.0
 70
     9
 71
     3
 72
    23
 73
    19
 74
     0
 42
0.000000001
 43
0.0000000001
 40
0.0
 40
0.0
 40
0.0
 40
0.0
 40
1.0
 40
1.0
 40
1.0
 40
2.0
 40
2.0
 40
2.0
 40
3.0
 40
3.0
 40
3.0
 40
4.0
 40
4.0
 40
4.0
 40
5.0
 40
5.0
 40
5.0
 40
6.0
 40
6.0
 40
6.0
 40
6.0
 10
2.00158442626521
 20
5.73326488888054
 30
0.0
 10
2.00158442626521
 20
5.73326488888054
 30
0.0
 10
1.95642810634041
 20
5.747022393234345
 30
0.0
 10
1.95642810634041
 20
5.747022393234345
 30
0.0
 10
1.981122443119446
 20
5.829572802318836
 30
0.0
 10
2.042153117084879
 20
5.893072909962143
 30
0.0
 10
2.123644428455733
 20
5.92164701638336
 30
0.0
 10
2.20513708556696
 20
5.949869884553919
 30
0.0
 10
2.292625016266796
 20
5.938227884146556
 30
0.0
 10
2.363533424943867
 20
5.889191794579545
 30
0.0
 10
2.363533424943867
 20
5.889191794579545
 30
0.0
 10
2.336369654486915
 20
5.850033439724228
 30
0.0
 10
2.336369654486915
 20
5.850033439724228
 30
0.0
 10
2.278160998190443
 20
5.89060347628424
 30
0.0
 10
2.206194837540166
 20
5.900128627004846
 30
0.0
 10
2.13916754424568
 20
5.876844626190063
 30
0.0
 10
2.07249148920188
 20
5.853561971115738
 30
0.0
 10
2.022045063670589
 20
5.801349934148248
 30
0.0
 10
2.00158442626521
 20
5.73326488888054
 30
0.0
  0
SPLINE
  5
B03
330
1F
100
AcDbEntity
  8
Livello 1
100
AcDbSpline
210
0.0
220
0.0
230
1.0
 70
     9
 71
     3
 72
    17
 73
    13
 74
     0
 42
0.000000001
 43
0.0000000001
 40
0.0
 40
0.0
 40
0.0
 40
0.0
 40
1.0
 40
1.0
 40
1.0
 40
2.0
 40
2.0
 40
2.0
 40
3.0
 40
3.0
 40
3.0
 40
4.0
 40
4.0
 40
4.0
 40
4.0
 10
1.947185561108895
 20
5.635932866979743
 30
0.0
 10
1.942245348012647
 20
5.67438470811254
 30
0.0
 10
1.945068711422038
 20
5.709663293325746
 30
0.0
 10
1.956356782097927
 20
5.747057382485422
 30
0.0
 10
1.956356782097927
 20
5.747057382485422
 30
0.0
 10
2.001513102022755
 20
5.73329853239116
 30
0.0
 10
2.001513102022755
 20
5.73329853239116
 30
0.0
 10
1.992340535293294
 20
5.702607576283128
 30
0.0
 10
1.989871101615364
 20
5.67367954013045
 30
0.0
 10
1.994104800989035
 20
5.641929486308725
 30
0.0
 10
1.994104800989035
 20
5.641929486308725
 30
0.0
 10
1.947185561108895
 20
5.635932866979743
 30
0.0
 10
1.947185561108895
 20
5.635932866979743
 30
0.0
  0
SPLINE
  5
B04
330
1F
100
AcDbEntity
  8
Livello 1
100
AcDbSpline
210
0.0
220
0.0
230
1.0
 70
     9
 71
     3
 72
    17
 73
    13
 74
     0
 42
0.000000001
 43
0.0000000001
 40
0.0
 40
0.0
 40
0.0
 40
0.0
 40
1.0
 40
1.0
 40
1.0
 40
2.0
 40
2.0
 40
2.0
 40
3.0
 40
3.0
 40
3.0
 40
4.0
 40
4.0
 40
4.0
 40
4.0
 10
1.844350806614599
 20
5.622527946617054
 30
0.0
 10
1.837295089571966
 20
5.675796389817236
 30
0.0
 10
1.841527443205222
 20
5.724479895393159
 30
0.0
 10
1.856697975004095
 20
5.776338002629159
 30
0.0
 10
1.856697975004095
 20
5.776338002629159
 30
0.0
 10
1.902205533179582
 20
5.762580498275355
 30
0.0
 10
1.902205533179582
 20
5.762580498275355
 30
0.0
 10
1.888800612816865
 20
5.717776762341628
 30
0.0
 10
1.885272081425327
 20
5.675091221835145
 30
0.0
 10
1.891270046494767
 20
5.628524565946037
 30
0.0
 10
1.891270046494767
 20
5.628524565946037
 30
0.0
 10
1.844350806614599
 20
5.622527946617054
 30
0.0
 10
1.844350806614599
 20
5.622527946617054
 30
0.0
  0
ENDSEC
  0
SECTION
  2
OBJECTS
  0
DICTIONARY
  5
C
330
0
100
AcDbDictionary
281
     1
  3
ACAD_CIP_PREVIOUS_PRODUCT_INFO
350
216
  3
ACAD_COLOR
350
6B
  3
ACAD_DETAILVIEWSTYLE
350
21B
  3
ACAD_GROUP
350
D
  3
ACAD_LAYOUT
350
1A
  3
ACAD_MATERIAL
350
6A
  3
ACAD_MLEADERSTYLE
350
12D
  3
ACAD_MLINESTYLE
350
17
  3
ACAD_PLOTSETTINGS
350
19
  3
ACAD_PLOTSTYLENAME
350
E
  3
ACAD_SCALELIST
350
10C
  3
ACAD_SECTIONVIEWSTYLE
350
219
  3
ACAD_TABLESTYLE
350
7E
  3
ACAD_VISUALSTYLE
350
EF
  3
ACDB_RECOMPOSE_DATA
350
B06
  3
AcDbVariableDictionary
350
5E
  3
AcDsDecomposeData
350
B0C
  0
DICTIONARY
  5
1FF
330
2
100
AcDbDictionary
280
     1
281
     1
  3
ACAD_LAYERSTATES
360
200
  0
DICTIONARY
  5
13C
330
10
100
AcDbDictionary
280
     1
281
     1
  0
DICTIONARY
  5
1CE
330
1F
100
AcDbDictionary
280
     1
281
     1
  0
XRECORD
  5
216
102
{ACAD_REACTORS
330
C
102
}
330
C
100
AcDbXrecord
280
     1
300
ACD
300
2020
300

  0
DICTIONARY
  5
6B
102
{ACAD_REACTORS
330
C
102
}
330
C
100
AcDbDictionary
281
     1
  0
DICTIONARY
  5
21B
102
{ACAD_REACTORS
330
C
102
}
330
C
100
AcDbDictionary
281
     1
  3
Imperial24
350
28E
  3
Metric50
350
21C
  0
DICTIONARY
  5
D
102
{ACAD_REACTORS
330
C
102
}
330
C
100
AcDbDictionary
281
     1
  0
DICTIONARY
  5
1A
102
{ACAD_REACTORS
330
C
102
}
330
C
100
AcDbDictionary
281
     1
  3
Layout1
350
D3
  3
Layout2
350
D7
  3
Model
350
22
  0
DICTIONARY
  5
6A
102
{ACAD_REACTORS
330
C
102
}
330
C
100
AcDbDictionary
281
     1
  3
ByBlock
350
ED
  3
ByLayer
350
EC
  3
Global
350
EE
  0
DICTIONARY
  5
12D
102
{ACAD_REACTORS
330
C
102
}
330
C
100
AcDbDictionary
281
     1
  3
Annotativa
350
13B
  3
Standard
350
12E
  0
DICTIONARY
  5
17
102
{ACAD_REACTORS
330
C
102
}
330
C
100
AcDbDictionary
281
     1
  3
Standard
350
18
  0
DICTIONARY
  5
19
102
{ACAD_REACTORS
330
C
102
}
330
C
100
AcDbDictionary
281
     1
  0
ACDBDICTIONARYWDFLT
  5
E
102
{ACAD_REACTORS
330
C
102
}
330
C
100
AcDbDictionary
281
     1
  3
Normal
350
F
100
AcDbDictionaryWithDefault
340
F
  0
DICTIONARY
  5
10C
102
{ACAD_REACTORS
330
C
102
}
330
C
100
AcDbDictionary
281
     1
  3
A0
350
10D
  3
A1
350
1BE
  3
A2
350
1BF
  3
A3
350
1C0
  3
A4
350
1C1
  3
A5
350
1C2
  3
A6
350
1C3
  3
A7
350
1C4
  3
A8
350
1C5
  3
A9
350
1C6
  3
B0
350
1C7
  3
B1
350
1C8
  3
B2
350
1C9
  3
B3
350
1CA
  3
B4
350
1CB
  3
B5
350
1CC
  3
B6
350
1CD
  0
DICTIONARY
  5
219
102
{ACAD_REACTORS
330
C
102
}
330
C
100
AcDbDictionary
281
     1
  3
Imperial24
350
28D
  3
Metric50
350
21A
  0
DICTIONARY
  5
7E
102
{ACAD_REACTORS
330
C
102
}
330
C
100
AcDbDictionary
281
     1
  3
Standard
350
7F
  0
DICTIONARY
  5
EF
102
{ACAD_REACTORS
330
C
102
}
330
C
100
AcDbDictionary
281
     1
  3
2dWireframe
350
F5
  3
Basic
350
F4
  3
Brighten
350
FB
  3
ColorChange
350
FF
  3
Conceptual
350
F8
  3
Dim
350
FA
  3
EdgeColorOff
350
1E6
  3
Facepattern
350
FE
  3
Flat
350
F0
  3
FlatWithEdges
350
F1
  3
Gouraud
350
F2
  3
GouraudWithEdges
350
F3
  3
Hidden
350
F7
  3
JitterOff
350
1E4
  3
Linepattern
350
FD
  3
OverhangOff
350
1E5
  3
Realistic
350
F9
  3
Shaded
350
1F3
  3
Shaded with edges
350
1F2
  3
Shades of Gray
350
1EF
  3
Sketchy
350
1F0
  3
Thicken
350
FC
  3
Wireframe
350
F6
  3
X-Ray
350
1F1
  0
XRECORD
  5
B06
102
{ACAD_REACTORS
330
C
102
}
330
C
100
AcDbXrecord
280
     1
 90
        1
330
7F
  0
DICTIONARY
  5
5E
102
{ACAD_REACTORS
330
C
102
}
330
C
100
AcDbDictionary
281
     1
  3
CANNOSCALE
350
146
  3
CENTEREXE
350
259
  3
CENTERLTYPEFILE
350
25A
  3
CMLEADERSTYLE
350
145
  3
CTABLESTYLE
350
84
  3
CVIEWDETAILSTYLE
350
227
  3
CVIEWSECTIONSTYLE
350
228
  3
DIMASSOC
350
5F
  3
HIDETEXT
350
63
  3
LAYEREVAL
350
1AE
  3
LAYERNOTIFY
350
1AF
  0
DICTIONARY
  5
B0C
102
{ACAD_REACTORS
330
C
102
}
330
C
100
AcDbDictionary
281
     1
  3
AcDsRecords
350
B0E
  3
AcDsSchemas
350
B0D
1001
ACAD
1070
     2
  0
DICTIONARY
  5
200
102
{ACAD_REACTORS
330
1FF
102
}
330
1FF
100
AcDbDictionary
281
     1
  0
ACDBDETAILVIEWSTYLE
  5
28E
102
{ACAD_XDICTIONARY
360
B15
102
}
102
{ACAD_REACTORS
330
21B
102
}
330
21B
100
AcDbModelDocViewStyle
 70
     0
  3
Imperial24
290
     0
100
AcDbDetailViewStyle
 70
     0
 71
     0
 90
        3
 71
     1
340
11
 62
   256
 40
0.24
340
0
 62
   256
 40
0.24
300

 40
0.36
280
     3
 71
     2
340
16
 90
       25
 62
   256
 71
     3
340
11
 62
   256
 40
0.24
 90
        1
 40
0.75
 90
        1
300
%<\AcVar ViewType \f "%tc1">% %<\AcVar ViewDetailId>%\PSCALA %<\AcVar ViewScale \f "%sn">%
 71
     4
340
16
 90
       25
 62
   256
340
16
 90
       25
 62
   256
280
     0
  0
ACDBDETAILVIEWSTYLE
  5
21C
102
{ACAD_XDICTIONARY
360
B11
102
}
102
{ACAD_REACTORS
330
21B
102
}
330
21B
100
AcDbModelDocViewStyle
 70
     0
  3
Metric50
290
     0
100
AcDbDetailViewStyle
 70
     0
 71
     0
 90
        3
 71
     1
340
11
 62
   256
 40
5.0
340
0
 62
   256
 40
5.0
300

 40
0.0
280
     1
 71
     2
340
16
 90
       25
 62
   256
 71
     3
340
11
 62
   256
 40
5.0
 90
        0
 40
15.0
 90
        1
300
%<\AcVar ViewDetailId>% (%<\AcVar ViewScale \f "%sn">%)
 71
     4
340
16
 90
       25
 62
   256
340
16
 90
       25
 62
   256
280
     0
  0
LAYOUT
  5
D3
102
{ACAD_REACTORS
330
1A
102
}
330
1A
100
AcDbPlotSettings
  1

  2
C:\Documents and Settings\basas\Application Data\Autodesk\AutoCAD 2005\R16.1\enu\plotters\Default Windows System Printer.pc3
  4

  6

 40
0.0
 41
0.0
 42
0.0
 43
0.0
 44
0.0
 45
0.0
 46
0.0
 47
0.0
 48
0.0
 49
0.0
140
0.0
141
0.0
142
1.0
143
1.0
 70
   688
 72
     0
 73
     0
 74
     5
  7

 75
    16
147
1.0
 76
     0
 77
     2
 78
   300
148
0.0
149
0.0
100
AcDbLayout
  1
Layout1
 70
     1
 71
     1
 10
0.0
 20
0.0
 11
12.0
 21
9.0
 12
0.0
 22
0.0
 32
0.0
 14
0.0
 24
0.0
 34
0.0
 15
0.0
 25
0.0
 35
0.0
146
0.0
 13
0.0
 23
0.0
 33
0.0
 16
1.0
 26
0.0
 36
0.0
 17
0.0
 27
1.0
 37
0.0
 76
     0
330
D2
  0
LAYOUT
  5
D7
102
{ACAD_REACTORS
330
1A
102
}
330
1A
100
AcDbPlotSettings
  1

  2
C:\Documents and Settings\basas\Application Data\Autodesk\AutoCAD 2005\R16.1\enu\plotters\Default Windows System Printer.pc3
  4

  6

 40
0.0
 41
0.0
 42
0.0
 43
0.0
 44
0.0
 45
0.0
 46
0.0
 47
0.0
 48
0.0
 49
0.0
140
0.0
141
0.0
142
1.0
143
1.0
 70
   688
 72
     0
 73
     0
 74
     5
  7

 75
    16
147
1.0
 76
     0
 77
     2
 78
   300
148
0.0
149
0.0
100
AcDbLayout
  1
Layout2
 70
     1
 71
     2
 10
0.0
 20
0.0
 11
12.0
 21
9.0
 12
0.0
 22
0.0
 32
0.0
 14
0.0
 24
0.0
 34
0.0
 15
0.0
 25
0.0
 35
0.0
146
0.0
 13
0.0
 23
0.0
 33
0.0
 16
1.0
 26
0.0
 36
0.0
 17
0.0
 27
1.0
 37
0.0
 76
     0
330
D6
  0
LAYOUT
  5
22
102
{ACAD_XDICTIONARY
360
205
102
}
102
{ACAD_REACTORS
330
1A
102
}
330
1A
100
AcDbPlotSettings
  1

  2
none_device
  4
ISO_A4_(210.00_x_297.00_MM)
  6

 40
7.5
 41
20.0
 42
7.5
 43
20.0
 44
210.0
 45
297.0
 46
11.54999923706054
 47
-13.65000009536743
 48
0.0
 49
0.0
140
0.0
141
0.0
142
1.0
143
8.704084754739808
 70
 11952
 72
     1
 73
     0
 74
     0
  7

 75
     0
147
0.1148885871608098
 76
     0
 77
     2
 78
   300
148
0.0
149
0.0
100
AcDbLayout
  1
Model
 70
     1
 71
     0
 10
0.0
 20
0.0
 11
12.0
 21
9.0
 12
0.0
 22
0.0
 32
0.0
 14
0.0
 24
0.0
 34
0.0
 15
0.0
 25
0.0
 35
0.0
146
0.0
 13
0.0
 23
0.0
 33
0.0
 16
1.0
 26
0.0
 36
0.0
 17
0.0
 27
1.0
 37
0.0
 76
     0
330
1F
331
EA
1001
ACAD_PSEXT
1000
None
1000
None
1000
Not applicable
1000
The layout will not be plotted unless a new plotter configuration name is selected.
1070
     0
  0
MATERIAL
  5
ED
102
{ACAD_XDICTIONARY
360
1F9
102
}
102
{ACAD_REACTORS
330
6A
102
}
330
6A
100
AcDbMaterial
  1
ByBlock
 94
       63
  0
MATERIAL
  5
EC
102
{ACAD_XDICTIONARY
360
1F7
102
}
102
{ACAD_REACTORS
330
6A
102
}
330
6A
100
AcDbMaterial
  1
ByLayer
 94
       63
  0
MATERIAL
  5
EE
102
{ACAD_XDICTIONARY
360
173
102
}
102
{ACAD_REACTORS
330
6A
102
}
330
6A
100
AcDbMaterial
  1
Global
 43
0.0007999999797903
 43
0.0
 43
0.0
 43
0.0
 43
0.0
 43
0.0007999999797903
 43
0.0
 43
0.0
 43
0.0
 43
0.0
 43
1.0
 43
0.0
 43
0.0
 43
0.0
 43
0.0
 43
1.0
 49
0.0007999999797903
 49
0.0
 49
0.0
 49
0.0
 49
0.0
 49
0.0007999999797903
 49
0.0
 49
0.0
 49
0.0
 49
0.0
 49
1.0
 49
0.0
 49
0.0
 49
0.0
 49
0.0
 49
1.0
142
0.0007999999797903
142
0.0
142
0.0
142
0.0
142
0.0
142
0.0007999999797903
142
0.0
142
0.0
142
0.0
142
0.0
142
1.0
142
0.0
142
0.0
142
0.0
142
0.0
142
1.0
144
0.0007999999797903
144
0.0
144
0.0
144
0.0
144
0.0
144
0.0007999999797903
144
0.0
144
0.0
144
0.0
144
0.0
144
1.0
144
0.0
144
0.0
144
0.0
144
0.0
144
1.0
 94
       63
1001
ACAD
1070
    -1
1070
     3
1070
     0
1000

1071
        0
1070
     0
  0
MLEADERSTYLE
  5
13B
102
{ACAD_REACTORS
330
12D
102
}
330
12D
100
AcDbMLeaderStyle
179
     2
170
     2
171
     1
172
     0
 90
        2
 40
0.0
 41
0.0
173
     1
 91
-1056964608
340
14
 92
       -2
290
     1
 42
2.0
291
     1
 43
8.0
  3
Standard
 44
4.0
300

342
11
174
     1
178
     1
175
     1
176
     0
 93
-1056964608
 45
4.0
292
     0
297
     0
 46
4.0
 94
-1056964608
 47
1.0
 49
1.0
140
1.0
293
     1
141
0.0
294
     1
177
     0
142
1.0
295
     0
296
     1
143
3.75
271
     0
272
     9
273
     9
298
     0
  0
MLEADERSTYLE
  5
12E
102
{ACAD_REACTORS
330
12D
102
}
330
12D
100
AcDbMLeaderStyle
179
     2
170
     2
171
     1
172
     0
 90
        2
 40
0.0
 41
0.0
173
     1
 91
-1056964608
340
14
 92
       -2
290
     1
 42
2.0
291
     1
 43
8.0
  3
Standard
 44
4.0
300

342
11
174
     1
178
     1
175
     1
176
     0
 93
-1056964608
 45
4.0
292
     0
297
     0
 46
4.0
 94
-1056964608
 47
1.0
 49
1.0
140
1.0
293
     1
141
0.0
294
     1
177
     0
142
1.0
295
     0
296
     0
143
3.75
271
     0
272
     9
273
     9
298
     0
  0
MLINESTYLE
  5
18
102
{ACAD_REACTORS
330
17
102
}
330
17
100
AcDbMlineStyle
  2
STANDARD
 70
     0
  3

 62
   256
 51
90.0
 52
90.0
 71
     2
 49
0.5
 62
   256
  6
BYLAYER
 49
-0.5
 62
   256
  6
BYLAYER
  0
ACDBPLACEHOLDER
  5
F
102
{ACAD_REACTORS
330
E
102
}
330
E
  0
SCALE
  5
10D
102
{ACAD_REACTORS
330
10C
102
}
330
10C
100
AcDbScale
 70
     0
300
1:1
140
1.0
141
1.0
290
     1
  0
SCALE
  5
1BE
102
{ACAD_REACTORS
330
10C
102
}
330
10C
100
AcDbScale
 70
     0
300
1:2
140
1.0
141
2.0
290
     0
  0
SCALE
  5
1BF
102
{ACAD_REACTORS
330
10C
102
}
330
10C
100
AcDbScale
 70
     0
300
1:4
140
1.0
141
4.0
290
     0
  0
SCALE
  5
1C0
102
{ACAD_REACTORS
330
10C
102
}
330
10C
100
AcDbScale
 70
     0
300
1:5
140
1.0
141
5.0
290
     0
  0
SCALE
  5
1C1
102
{ACAD_REACTORS
330
10C
102
}
330
10C
100
AcDbScale
 70
     0
300
1:8
140
1.0
141
8.0
290
     0
  0
SCALE
  5
1C2
102
{ACAD_REACTORS
330
10C
102
}
330
10C
100
AcDbScale
 70
     0
300
1:10
140
1.0
141
10.0
290
     0
  0
SCALE
  5
1C3
102
{ACAD_REACTORS
330
10C
102
}
330
10C
100
AcDbScale
 70
     0
300
1:16
140
1.0
141
16.0
290
     0
  0
SCALE
  5
1C4
102
{ACAD_REACTORS
330
10C
102
}
330
10C
100
AcDbScale
 70
     0
300
1:20
140
1.0
141
20.0
290
     0
  0
SCALE
  5
1C5
102
{ACAD_REACTORS
330
10C
102
}
330
10C
100
AcDbScale
 70
     0
300
1:30
140
1.0
141
30.0
290
     0
  0
SCALE
  5
1C6
102
{ACAD_REACTORS
330
10C
102
}
330
10C
100
AcDbScale
 70
     0
300
1:40
140
1.0
141
40.0
290
     0
  0
SCALE
  5
1C7
102
{ACAD_REACTORS
330
10C
102
}
330
10C
100
AcDbScale
 70
     0
300
1:50
140
1.0
141
50.0
290
     0
  0
SCALE
  5
1C8
102
{ACAD_REACTORS
330
10C
102
}
330
10C
100
AcDbScale
 70
     0
300
1:100
140
1.0
141
100.0
290
     0
  0
SCALE
  5
1C9
102
{ACAD_REACTORS
330
10C
102
}
330
10C
100
AcDbScale
 70
     0
300
2:1
140
2.0
141
1.0
290
     0
  0
SCALE
  5
1CA
102
{ACAD_REACTORS
330
10C
102
}
330
10C
100
AcDbScale
 70
     0
300
4:1
140
4.0
141
1.0
290
     0
  0
SCALE
  5
1CB
102
{ACAD_REACTORS
330
10C
102
}
330
10C
100
AcDbScale
 70
     0
300
8:1
140
8.0
141
1.0
290
     0
  0
SCALE
  5
1CC
102
{ACAD_REACTORS
330
10C
102
}
330
10C
100
AcDbScale
 70
     0
300
10:1
140
10.0
141
1.0
290
     0
  0
SCALE
  5
1CD
102
{ACAD_REACTORS
330
10C
102
}
330
10C
100
AcDbScale
 70
     0
300
100:1
140
100.0
141
1.0
290
     0
  0
ACDBSECTIONVIEWSTYLE
  5
28D
102
{ACAD_XDICTIONARY
360
B13
102
}
102
{ACAD_REACTORS
330
219
102
}
330
219
100
AcDbModelDocViewStyle
 70
     0
  3
Imperial24
290
     0
100
AcDbSectionViewStyle
 70
     0
 71
     0
 90
       78
 71
     1
340
11
 62
   256
 40
0.24
340
0
340
0
 62
   256
 40
0.24
300
I, O, Q, S, X, Z
 40
0.48
 90
        3
 40
0.18
 90
        1
 71
     2
340
16
 90
       25
 62
   256
340
16
 90
       50
 62
   256
 40
0.24
 40
0.0
 40
0.24
 71
     3
340
11
 62
   256
 40
0.24
 90
        1
 40
0.75
 90
        1
300
%<\AcVar ViewType \f "%tc1">% %<\AcVar ViewSectionStartId>%-%<\AcVar ViewSectionEndId>%\PSCALA %<\AcVar ViewScale \f "%sn">%
 71
     4
 62
   256
 62
   257
300
ANSI31
 40
1.0
 90
        0
290
     0
290
     0
 90
        6
 40
0.0
 40
1.570796326794896
 40
0.2617993877991494
 40
1.308996938995747
 40
-0.2617993877991494
 40
1.832595714594046
  0
ACDBSECTIONVIEWSTYLE
  5
21A
102
{ACAD_XDICTIONARY
360
B0F
102
}
102
{ACAD_REACTORS
330
219
102
}
330
219
100
AcDbModelDocViewStyle
 70
     0
  3
Metric50
290
     0
100
AcDbSectionViewStyle
 70
     0
 71
     0
 90
      102
 71
     1
340
11
 62
   256
 40
5.0
340
0
340
0
 62
   256
 40
5.0
300
I, O, Q, S, X, Z
 40
10.0
 90
        0
 40
2.5
 90
        0
 71
     2
340
16
 90
       25
 62
   256
340
16
 90
       50
 62
   256
 40
5.0
 40
2.5
 40
5.0
 71
     3
340
11
 62
   256
 40
5.0
 90
        0
 40
15.0
 90
        1
300
%<\AcVar ViewSectionStartId>%-%<\AcVar ViewSectionEndId>% (%<\AcVar ViewScale \f "%sn">%)
 71
     4
 62
   256
 62
   257
300
ANSI31
 40
1.0
 90
        0
290
     0
290
     0
 90
        6
 40
0.0
 40
1.570796326794896
 40
0.2617993877991494
 40
1.308996938995747
 40
-0.2617993877991494
 40
1.832595714594046
  0
TABLESTYLE
  5
7F
102
{ACAD_XDICTIONARY
360
162
102
}
102
{ACAD_REACTORS
330
7E
102
}
330
7E
100
AcDbTableStyle
280
     0
  3
Standard
 70
     0
 71
     0
 40
1.5
 41
1.5
280
     0
281
     0
  7
Standard
140
4.5
170
     2
 62
     0
 63
     7
283
     0
 90
      512
 91
        0
  1

274
    -2
284
     1
 64
     0
275
    -2
285
     1
 65
     0
276
    -2
286
     1
 66
     0
277
    -2
287
     1
 67
     0
278
    -2
288
     1
 68
     0
279
    -2
289
     1
 69
     0
  7
Standard
140
6.0
170
     5
 62
     0
 63
     7
283
     0
 90
      512
 91
        0
  1

274
    -2
284
     1
 64
     0
275
    -2
285
     1
 65
     0
276
    -2
286
     1
 66
     0
277
    -2
287
     1
 67
     0
278
    -2
288
     1
 68
     0
279
    -2
289
     1
 69
     0
  7
Standard
140
4.5
170
     5
 62
     0
 63
     7
283
     0
 90
      512
 91
        0
  1

274
    -2
284
     1
 64
     0
275
    -2
285
     1
 65
     0
276
    -2
286
     1
 66
     0
277
    -2
287
     1
 67
     0
278
    -2
288
     1
 68
     0
279
    -2
289
     1
 69
     0
  0
VISUALSTYLE
  5
F5
102
{ACAD_REACTORS
330
EF
102
}
330
EF
100
AcDbVisualStyle
  2
2dWireframe
 70
     4
177
     3
291
     0
 70
    58
 90
        0
176
     1
 90
        2
176
     1
 90
        1
176
     1
 90
        0
176
     1
 40
0.6
176
     1
 40
30.0
176
     1
 62
     7
420
 16777215
176
     1
 90
        1
176
     1
 90
        4
176
     1
 62
     7
176
     1
 62
   257
176
     1
 90
        1
176
     1
 90
        1
176
     1
 40
1.0
176
     1
 90
        0
176
     1
 62
   257
176
     1
 40
1.0
176
     1
 90
        1
176
     1
 90
        6
176
     1
 90
        2
176
     1
 62
     7
176
     1
 90
        5
176
     1
 90
        0
176
     1
 90
        0
176
     1
290
     0
176
     1
 90
        1
176
     1
 40
0.0
176
     1
 90
        0
176
     1
290
     1
176
     1
290
     1
176
     1
290
     0
176
     1
290
     0
176
     1
290
     0
176
     1
290
     0
176
     1
290
     0
176
     1
290
     0
176
     1
290
     0
176
     1
 90
       50
176
     1
 40
0.0
176
     1
 40
1.0
176
     1
 90
        0
176
     1
 62
    18
420
        0
176
     1
 90
       50
176
     1
 90
        3
176
     1
 62
     5
420
      255
176
     1
290
     0
176
     1
 90
       50
176
     1
 90
       50
176
     1
 90
       50
176
     1
290
     0
176
     1
 90
       50
176
     1
 62
   256
176
     0
 40
1.0
176
     0
 90
        2
176
     1
  1
strokes_ogs.tif
176
     1
290
     0
176
     1
 40
1.0
176
     1
 40
1.0
176
     1
1001
ACAD
1000
AcDbSavedByObjectVersion
1070
     0
  0
VISUALSTYLE
  5
F4
102
{ACAD_REACTORS
330
EF
102
}
330
EF
100
AcDbVisualStyle
  2
Basic
 70
     7
177
     3
291
     1
 70
    58
 90
        1
176
     1
 90
        0
176
     1
 90
        1
176
     1
 90
        0
176
     1
 40
0.6
176
     1
 40
30.0
176
     1
 62
     7
420
 16777215
176
     1
 90
        0
176
     1
 90
        4
176
     1
 62
     7
176
     1
 62
   257
176
     1
 90
        1
176
     1
 90
        1
176
     1
 40
1.0
176
     1
 90
        8
176
     1
 62
     7
176
     1
 40
1.0
176
     1
 90
        1
176
     1
 90
        6
176
     1
 90
        2
176
     1
 62
     7
176
     1
 90
        5
176
     1
 90
        0
176
     1
 90
        0
176
     1
290
     0
176
     1
 90
        1
176
     1
 40
0.0
176
     1
 90
        0
176
     1
290
     0
176
     1
290
     1
176
     1
290
     1
176
     1
290
     0
176
     1
290
     0
176
     1
290
     0
176
     1
290
     0
176
     1
290
     0
176
     1
290
     0
176
     1
 90
       50
176
     1
 40
0.0
176
     1
 40
1.0
176
     1
 90
        0
176
     1
 62
    18
420
        0
176
     1
 90
       50
176
     1
 90
        3
176
     1
 62
     5
420
      255
176
     1
290
     0
176
     1
 90
       50
176
     1
 90
       50
176
     1
 90
       50
176
     1
290
     0
176
     1
 90
       50
176
     1
 62
   256
176
     0
 40
1.0
176
     0
 90
        2
176
     1
  1
strokes_ogs.tif
176
     1
290
     0
176
     1
 40
1.0
176
     1
 40
1.0
176
     1
1001
ACAD
1000
AcDbSavedByObjectVersion
1070
     0
  0
VISUALSTYLE
  5
FB
102
{ACAD_REACTORS
330
EF
102
}
330
EF
100
AcDbVisualStyle
  2
Brighten
 70
    12
177
     3
291
     1
 70
    58
 90
        2
176
     1
 90
        2
176
     1
 90
        1
176
     1
 90
        0
176
     1
 40
0.6
176
     1
 40
30.0
176
     1
 62
     7
420
 16777215
176
     1
 90
        1
176
     1
 90
        4
176
     1
 62
     7
176
     1
 62
   257
176
     1
 90
        1
176
     1
 90
        1
176
     1
 40
1.0
176
     1
 90
        8
176
     1
 62
     7
176
     1
 40
1.0
176
     1
 90
        1
176
     1
 90
        6
176
     1
 90
        2
176
     1
 62
     7
176
     1
 90
        5
176
     1
 90
        0
176
     1
 90
        0
176
     1
290
     0
176
     1
 90
        1
176
     1
 40
50.0
176
     1
 90
        0
176
     1
290
     0
176
     1
290
     1
176
     1
290
     1
176
     1
290
     0
176
     1
290
     0
176
     1
290
     0
176
     1
290
     0
176
     1
290
     0
176
     1
290
     0
176
     1
 90
       50
176
     1
 40
0.0
176
     1
 40
1.0
176
     1
 90
        0
176
     1
 62
    18
420
        0
176
     1
 90
       50
176
     1
 90
        3
176
     1
 62
     5
420
      255
176
     1
290
     0
176
     1
 90
       50
176
     1
 90
       50
176
     1
 90
       50
176
     1
290
     0
176
     1
 90
       50
176
     1
 62
   256
176
     0
 40
1.0
176
     0
 90
        2
176
     1
  1
strokes_ogs.tif
176
     1
290
     0
176
     1
 40
1.0
176
     1
 40
1.0
176
     1
1001
ACAD
1000
AcDbSavedByObjectVersion
1070
     0
  0
VISUALSTYLE
  5
FF
102
{ACAD_REACTORS
330
EF
102
}
330
EF
100
AcDbVisualStyle
  2
ColorChange
 70
    16
177
     3
291
     1
 70
    58
 90
        2
176
     1
 90
        2
176
     1
 90
        3
176
     1
 90
        0
176
     1
 40
0.6
176
     1
 40
30.0
176
     1
 62
     8
420
  8421504
176
     1
 90
        1
176
     1
 90
        4
176
     1
 62
     7
176
     1
 62
   257
176
     1
 90
        1
176
     1
 90
        1
176
     1
 40
1.0
176
     1
 90
        8
176
     1
 62
     8
420
  8421504
176
     1
 40
1.0
176
     1
 90
        1
176
     1
 90
        6
176
     1
 90
        2
176
     1
 62
     7
176
     1
 90
        5
176
     1
 90
        0
176
     1
 90
        0
176
     1
290
     0
176
     1
 90
        1
176
     1
 40
0.0
176
     1
 90
        0
176
     1
290
     0
176
     1
290
     1
176
     1
290
     1
176
     1
290
     0
176
     1
290
     0
176
     1
290
     0
176
     1
290
     0
176
     1
290
     0
176
     1
290
     0
176
     1
 90
       50
176
     1
 40
0.0
176
     1
 40
1.0
176
     1
 90
        0
176
     1
 62
    18
420
        0
176
     1
 90
       50
176
     1
 90
        3
176
     1
 62
     5
420
      255
176
     1
290
     0
176
     1
 90
       50
176
     1
 90
       50
176
     1
 90
       50
176
     1
290
     0
176
     1
 90
       50
176
     1
 62
   256
176
     0
 40
1.0
176
     0
 90
        2
176
     1
  1
strokes_ogs.tif
176
     1
290
     0
176
     1
 40
1.0
176
     1
 40
1.0
176
     1
1001
ACAD
1000
AcDbSavedByObjectVersion
1070
     0
  0
VISUALSTYLE
  5
F8
102
{ACAD_REACTORS
330
EF
102
}
330
EF
100
AcDbVisualStyle
  2
Conceptual
 70
     9
177
     3
291
     0
 70
    58
 90
        3
176
     1
 90
        2
176
     1
 90
        1
176
     1
 90
        0
176
     1
 40
0.6
176
     1
 40
30.0
176
     1
 62
     7
420
 16777215
176
     1
 90
        2
176
     1
 90
        2
176
     1
 62
     7
176
     1
 62
   257
176
     1
 90
        1
176
     1
 90
        1
176
     1
 40
40.0
176
     1
 90
        8
176
     1
 62
     7
176
     1
 40
1.0
176
     1
 90
        1
176
     1
 90
        6
176
     1
 90
        2
176
     1
 62
     7
176
     1
 90
        3
176
     1
 90
        0
176
     1
 90
        0
176
     1
290
     0
176
     1
 90
        1
176
     1
 40
0.0
176
     1
 90
        0
176
     1
290
     0
176
     1
290
     1
176
     1
290
     1
176
     1
290
     0
176
     1
290
     0
176
     1
290
     0
176
     1
290
     0
176
     1
290
     0
176
     1
290
     0
176
     1
 90
       50
176
     1
 40
0.0
176
     1
 40
1.0
176
     1
 90
        0
176
     1
 62
    18
420
        0
176
     1
 90
       50
176
     1
 90
        3
176
     1
 62
     5
420
      255
176
     1
290
     0
176
     1
 90
       50
176
     1
 90
       50
176
     1
 90
       50
176
     1
290
     0
176
     1
 90
       50
176
     1
 62
   256
176
     0
 40
1.0
176
     0
 90
        2
176
     1
  1
strokes_ogs.tif
176
     1
290
     0
176
     1
 40
1.0
176
     1
 40
1.0
176
     1
1001
ACAD
1000
AcDbSavedByObjectVersion
1070
     0
  0
VISUALSTYLE
  5
FA
102
{ACAD_REACTORS
330
EF
102
}
330
EF
100
AcDbVisualStyle
  2
Dim
 70
    11
177
     3
291
     1
 70
    58
 90
        2
176
     1
 90
        2
176
     1
 90
        1
176
     1
 90
        0
176
     1
 40
0.6
176
     1
 40
30.0
176
     1
 62
     7
420
 16777215
176
     1
 90
        1
176
     1
 90
        4
176
     1
 62
     7
176
     1
 62
   257
176
     1
 90
        1
176
     1
 90
        1
176
     1
 40
1.0
176
     1
 90
        8
176
     1
 62
     7
176
     1
 40
1.0
176
     1
 90
        1
176
     1
 90
        6
176
     1
 90
        2
176
     1
 62
     7
176
     1
 90
        5
176
     1
 90
        0
176
     1
 90
        0
176
     1
290
     0
176
     1
 90
        1
176
     1
 40
-50.0
176
     1
 90
        0
176
     1
290
     0
176
     1
290
     1
176
     1
290
     1
176
     1
290
     0
176
     1
290
     0
176
     1
290
     0
176
     1
290
     0
176
     1
290
     0
176
     1
290
     0
176
     1
 90
       50
176
     1
 40
0.0
176
     1
 40
1.0
176
     1
 90
        0
176
     1
 62
    18
420
        0
176
     1
 90
       50
176
     1
 90
        3
176
     1
 62
     5
420
      255
176
     1
290
     0
176
     1
 90
       50
176
     1
 90
       50
176
     1
 90
       50
176
     1
290
     0
176
     1
 90
       50
176
     1
 62
   256
176
     0
 40
1.0
176
     0
 90
        2
176
     1
  1
strokes_ogs.tif
176
     1
290
     0
176
     1
 40
1.0
176
     1
 40
1.0
176
     1
1001
ACAD
1000
AcDbSavedByObjectVersion
1070
     0
  0
VISUALSTYLE
  5
1E6
102
{ACAD_REACTORS
330
EF
102
}
330
EF
100
AcDbVisualStyle
  2
EdgeColorOff
 70
    22
177
     3
291
     1
 70
    58
 90
        2
176
     0
 90
        2
176
     0
 90
        0
176
     0
 90
        0
176
     0
 40
0.6
176
     0
 40
30.0
176
     0
 62
     7
420
 16777215
176
     0
 90
        1
176
     0
 90
        4
176
     0
 62
     7
176
     0
 62
   257
176
     0
 90
        1
176
     0
 90
        1
176
     0
 40
1.0
176
     0
 90
        8
176
     2
 62
     7
176
     0
 40
1.0
176
     0
 90
        1
176
     0
 90
        6
176
     0
 90
        2
176
     0
 62
     7
176
     0
 90
        5
176
     0
 90
        0
176
     0
 90
        0
176
     0
290
     0
176
     0
 90
        1
176
     0
 40
0.0
176
     0
 90
        0
176
     0
290
     0
176
     1
290
     1
176
     1
290
     1
176
     1
290
     0
176
     1
290
     0
176
     1
290
     0
176
     1
290
     0
176
     1
290
     0
176
     1
290
     0
176
     1
 90
       50
176
     1
 40
0.0
176
     1
 40
1.0
176
     1
 90
        0
176
     1
 62
    18
420
        0
176
     1
 90
       50
176
     1
 90
        3
176
     1
 62
     5
420
      255
176
     1
290
     0
176
     1
 90
       50
176
     1
 90
       50
176
     1
 90
       50
176
     1
290
     0
176
     1
 90
       50
176
     1
 62
   256
176
     0
 40
1.0
176
     0
 90
        2
176
     1
  1
strokes_ogs.tif
176
     1
290
     0
176
     1
 40
1.0
176
     1
 40
1.0
176
     1
1001
ACAD
1000
AcDbSavedByObjectVersion
1070
     0
  0
VISUALSTYLE
  5
FE
102
{ACAD_REACTORS
330
EF
102
}
330
EF
100
AcDbVisualStyle
  2
Facepattern
 70
    15
177
     3
291
     1
 70
    58
 90
        2
176
     1
 90
        2
176
     1
 90
        1
176
     1
 90
        0
176
     1
 40
0.6
176
     1
 40
30.0
176
     1
 62
     7
420
 16777215
176
     1
 90
        1
176
     1
 90
        4
176
     1
 62
     7
176
     1
 62
   257
176
     1
 90
        1
176
     1
 90
        1
176
     1
 40
1.0
176
     1
 90
        8
176
     1
 62
     7
176
     1
 40
1.0
176
     1
 90
        1
176
     1
 90
        6
176
     1
 90
        2
176
     1
 62
     7
176
     1
 90
        5
176
     1
 90
        0
176
     1
 90
        0
176
     1
290
     0
176
     1
 90
        1
176
     1
 40
0.0
176
     1
 90
        0
176
     1
290
     0
176
     1
290
     1
176
     1
290
     1
176
     1
290
     0
176
     1
290
     0
176
     1
290
     0
176
     1
290
     0
176
     1
290
     0
176
     1
290
     0
176
     1
 90
       50
176
     1
 40
0.0
176
     1
 40
1.0
176
     1
 90
        0
176
     1
 62
    18
420
        0
176
     1
 90
       50
176
     1
 90
        3
176
     1
 62
     5
420
      255
176
     1
290
     0
176
     1
 90
       50
176
     1
 90
       50
176
     1
 90
       50
176
     1
290
     0
176
     1
 90
       50
176
     1
 62
   256
176
     0
 40
1.0
176
     0
 90
        2
176
     1
  1
strokes_ogs.tif
176
     1
290
     0
176
     1
 40
1.0
176
     1
 40
1.0
176
     1
1001
ACAD
1000
AcDbSavedByObjectVersion
1070
     0
  0
VISUALSTYLE
  5
F0
102
{ACAD_REACTORS
330
EF
102
}
330
EF
100
AcDbVisualStyle
  2
Flat
 70
     0
177
     3
291
     1
 70
    58
 90
        2
176
     1
 90
        1
176
     1
 90
        1
176
     1
 90
        2
176
     1
 40
0.6
176
     1
 40
30.0
176
     1
 62
     7
420
 16777215
176
     1
 90
        0
176
     1
 90
        0
176
     1
 62
     7
176
     1
 62
   257
176
     1
 90
        1
176
     1
 90
        1
176
     1
 40
1.0
176
     1
 90
        8
176
     1
 62
     7
176
     1
 40
1.0
176
     1
 90
        1
176
     1
 90
        6
176
     1
 90
        2
176
     1
 62
     7
176
     1
 90
        5
176
     1
 90
        0
176
     1
 90
        0
176
     1
290
     0
176
     1
 90
       13
176
     1
 40
0.0
176
     1
 90
        0
176
     1
290
     0
176
     1
290
     1
176
     1
290
     1
176
     1
290
     0
176
     1
290
     0
176
     1
290
     0
176
     1
290
     0
176
     1
290
     0
176
     1
290
     0
176
     1
 90
       50
176
     1
 40
0.0
176
     1
 40
1.0
176
     1
 90
        0
176
     1
 62
    18
420
        0
176
     1
 90
       50
176
     1
 90
        3
176
     1
 62
     5
420
      255
176
     1
290
     0
176
     1
 90
       50
176
     1
 90
       50
176
     1
 90
       50
176
     1
290
     0
176
     1
 90
       50
176
     1
 62
   256
176
     0
 40
1.0
176
     0
 90
        2
176
     1
  1
strokes_ogs.tif
176
     1
290
     0
176
     1
 40
1.0
176
     1
 40
1.0
176
     1
1001
ACAD
1000
AcDbSavedByObjectVersion
1070
     0
  0
VISUALSTYLE
  5
F1
102
{ACAD_REACTORS
330
EF
102
}
330
EF
100
AcDbVisualStyle
  2
FlatWithEdges
 70
     1
177
     3
291
     1
 70
    58
 90
        2
176
     1
 90
        1
176
     1
 90
        1
176
     1
 90
        2
176
     1
 40
0.6
176
     1
 40
30.0
176
     1
 62
     7
420
 16777215
176
     1
 90
        1
176
     1
 90
        0
176
     1
 62
     7
176
     1
 62
   257
176
     1
 90
        1
176
     1
 90
        1
176
     1
 40
1.0
176
     1
 90
        0
176
     1
 62
   257
176
     1
 40
1.0
176
     1
 90
        1
176
     1
 90
        6
176
     1
 90
        2
176
     1
 62
     7
176
     1
 90
        5
176
     1
 90
        0
176
     1
 90
        0
176
     1
290
     0
176
     1
 90
       13
176
     1
 40
0.0
176
     1
 90
        0
176
     1
290
     0
176
     1
290
     1
176
     1
290
     1
176
     1
290
     0
176
     1
290
     0
176
     1
290
     0
176
     1
290
     0
176
     1
290
     0
176
     1
290
     0
176
     1
 90
       50
176
     1
 40
0.0
176
     1
 40
1.0
176
     1
 90
        0
176
     1
 62
    18
420
        0
176
     1
 90
       50
176
     1
 90
        3
176
     1
 62
     5
420
      255
176
     1
290
     0
176
     1
 90
       50
176
     1
 90
       50
176
     1
 90
       50
176
     1
290
     0
176
     1
 90
       50
176
     1
 62
   256
176
     0
 40
1.0
176
     0
 90
        2
176
     1
  1
strokes_ogs.tif
176
     1
290
     0
176
     1
 40
1.0
176
     1
 40
1.0
176
     1
1001
ACAD
1000
AcDbSavedByObjectVersion
1070
     0
  0
VISUALSTYLE
  5
F2
102
{ACAD_REACTORS
330
EF
102
}
330
EF
100
AcDbVisualStyle
  2
Gouraud
 70
     2
177
     3
291
     1
 70
    58
 90
        2
176
     1
 90
        2
176
     1
 90
        1
176
     1
 90
        2
176
     1
 40
0.6
176
     1
 40
30.0
176
     1
 62
     7
420
 16777215
176
     1
 90
        0
176
     1
 90
        0
176
     1
 62
     7
176
     1
 62
   257
176
     1
 90
        1
176
     1
 90
        1
176
     1
 40
1.0
176
     1
 90
        0
176
     1
 62
     7
176
     1
 40
1.0
176
     1
 90
        1
176
     1
 90
        6
176
     1
 90
        2
176
     1
 62
     7
176
     1
 90
        5
176
     1
 90
        0
176
     1
 90
        0
176
     1
290
     0
176
     1
 90
       13
176
     1
 40
0.0
176
     1
 90
        0
176
     1
290
     0
176
     1
290
     1
176
     1
290
     1
176
     1
290
     0
176
     1
290
     0
176
     1
290
     0
176
     1
290
     0
176
     1
290
     0
176
     1
290
     0
176
     1
 90
       50
176
     1
 40
0.0
176
     1
 40
1.0
176
     1
 90
        0
176
     1
 62
    18
420
        0
176
     1
 90
       50
176
     1
 90
        3
176
     1
 62
     5
420
      255
176
     1
290
     0
176
     1
 90
       50
176
     1
 90
       50
176
     1
 90
       50
176
     1
290
     0
176
     1
 90
       50
176
     1
 62
   256
176
     0
 40
1.0
176
     0
 90
        2
176
     1
  1
strokes_ogs.tif
176
     1
290
     0
176
     1
 40
1.0
176
     1
 40
1.0
176
     1
1001
ACAD
1000
AcDbSavedByObjectVersion
1070
     0
  0
VISUALSTYLE
  5
F3
102
{ACAD_REACTORS
330
EF
102
}
330
EF
100
AcDbVisualStyle
  2
GouraudWithEdges
 70
     3
177
     3
291
     1
 70
    58
 90
        2
176
     1
 90
        2
176
     1
 90
        1
176
     1
 90
        2
176
     1
 40
0.6
176
     1
 40
30.0
176
     1
 62
     7
420
 16777215
176
     1
 90
        1
176
     1
 90
        0
176
     1
 62
     7
176
     1
 62
   257
176
     1
 90
        1
176
     1
 90
        1
176
     1
 40
1.0
176
     1
 90
        0
176
     1
 62
   257
176
     1
 40
1.0
176
     1
 90
        1
176
     1
 90
        6
176
     1
 90
        2
176
     1
 62
     7
176
     1
 90
        5
176
     1
 90
        0
176
     1
 90
        0
176
     1
290
     0
176
     1
 90
       13
176
     1
 40
0.0
176
     1
 90
        0
176
     1
290
     0
176
     1
290
     1
176
     1
290
     1
176
     1
290
     0
176
     1
290
     0
176
     1
290
     0
176
     1
290
     0
176
     1
290
     0
176
     1
290
     0
176
     1
 90
       50
176
     1
 40
0.0
176
     1
 40
1.0
176
     1
 90
        0
176
     1
 62
    18
420
        0
176
     1
 90
       50
176
     1
 90
        3
176
     1
 62
     5
420
      255
176
     1
290
     0
176
     1
 90
       50
176
     1
 90
       50
176
     1
 90
       50
176
     1
290
     0
176
     1
 90
       50
176
     1
 62
   256
176
     0
 40
1.0
176
     0
 90
        2
176
     1
  1
strokes_ogs.tif
176
     1
290
     0
176
     1
 40
1.0
176
     1
 40
1.0
176
     1
1001
ACAD
1000
AcDbSavedByObjectVersion
1070
     0
  0
VISUALSTYLE
  5
F7
102
{ACAD_REACTORS
330
EF
102
}
330
EF
100
AcDbVisualStyle
  2
Hidden
 70
     6
177
     3
291
     0
 70
    58
 90
        1
176
     1
 90
        2
176
     1
 90
        2
176
     1
 90
        0
176
     1
 40
0.6
176
     1
 40
30.0
176
     1
 62
     7
420
 16777215
176
     1
 90
        2
176
     1
 90
        2
176
     1
 62
     7
176
     1
 62
   257
176
     1
 90
        2
176
     1
 90
        1
176
     1
 40
40.0
176
     1
 90
        0
176
     1
 62
   257
176
     1
 40
1.0
176
     1
 90
        1
176
     1
 90
        6
176
     1
 90
        2
176
     1
 62
     7
176
     1
 90
        3
176
     1
 90
        0
176
     1
 90
        0
176
     1
290
     0
176
     1
 90
        1
176
     1
 40
0.0
176
     1
 90
        0
176
     1
290
     0
176
     1
290
     1
176
     1
290
     1
176
     1
290
     0
176
     1
290
     0
176
     1
290
     0
176
     1
290
     0
176
     1
290
     0
176
     1
290
     0
176
     1
 90
       50
176
     1
 40
0.0
176
     1
 40
1.0
176
     1
 90
        0
176
     1
 62
    18
420
        0
176
     1
 90
       50
176
     1
 90
        3
176
     1
 62
     5
420
      255
176
     1
290
     0
176
     1
 90
       50
176
     1
 90
       50
176
     1
 90
       50
176
     1
290
     0
176
     1
 90
       50
176
     1
 62
   256
176
     0
 40
1.0
176
     0
 90
        2
176
     1
  1
strokes_ogs.tif
176
     1
290
     0
176
     1
 40
1.0
176
     1
 40
1.0
176
     1
1001
ACAD
1000
AcDbSavedByObjectVersion
1070
     0
  0
VISUALSTYLE
  5
1E4
102
{ACAD_REACTORS
330
EF
102
}
330
EF
100
AcDbVisualStyle
  2
JitterOff
 70
    20
177
     3
291
     1
 70
    58
 90
        2
176
     0
 90
        2
176
     0
 90
        0
176
     0
 90
        0
176
     0
 40
0.6
176
     0
 40
30.0
176
     0
 62
     7
420
 16777215
176
     0
 90
        1
176
     0
 90
        4
176
     0
 62
     7
176
     0
 62
   257
176
     0
 90
        1
176
     0
 90
        1
176
     0
 40
1.0
176
     0
 90
       10
176
     2
 62
     7
176
     0
 40
1.0
176
     0
 90
        1
176
     0
 90
        6
176
     0
 90
        2
176
     0
 62
     7
176
     0
 90
        5
176
     0
 90
        0
176
     0
 90
        0
176
     0
290
     0
176
     0
 90
        1
176
     0
 40
0.0
176
     0
 90
        0
176
     0
290
     0
176
     1
290
     1
176
     1
290
     1
176
     1
290
     0
176
     1
290
     0
176
     1
290
     0
176
     1
290
     0
176
     1
290
     0
176
     1
290
     0
176
     1
 90
       50
176
     1
 40
0.0
176
     1
 40
1.0
176
     1
 90
        0
176
     1
 62
    18
420
        0
176
     1
 90
       50
176
     1
 90
        3
176
     1
 62
     5
420
      255
176
     1
290
     0
176
     1
 90
       50
176
     1
 90
       50
176
     1
 90
       50
176
     1
290
     0
176
     1
 90
       50
176
     1
 62
   256
176
     0
 40
1.0
176
     0
 90
        2
176
     1
  1
strokes_ogs.tif
176
     1
290
     0
176
     1
 40
1.0
176
     1
 40
1.0
176
     1
1001
ACAD
1000
AcDbSavedByObjectVersion
1070
     0
  0
VISUALSTYLE
  5
FD
102
{ACAD_REACTORS
330
EF
102
}
330
EF
100
AcDbVisualStyle
  2
Linepattern
 70
    14
177
     3
291
     1
 70
    58
 90
        2
176
     1
 90
        2
176
     1
 90
        1
176
     1
 90
        0
176
     1
 40
0.6
176
     1
 40
30.0
176
     1
 62
     7
420
 16777215
176
     1
 90
        1
176
     1
 90
        4
176
     1
 62
     7
176
     1
 62
   257
176
     1
 90
        7
176
     1
 90
        7
176
     1
 40
1.0
176
     1
 90
        8
176
     1
 62
     7
176
     1
 40
1.0
176
     1
 90
        1
176
     1
 90
        6
176
     1
 90
        2
176
     1
 62
     7
176
     1
 90
        5
176
     1
 90
        0
176
     1
 90
        0
176
     1
290
     0
176
     1
 90
        1
176
     1
 40
0.0
176
     1
 90
        0
176
     1
290
     0
176
     1
290
     1
176
     1
290
     1
176
     1
290
     0
176
     1
290
     0
176
     1
290
     0
176
     1
290
     0
176
     1
290
     0
176
     1
290
     0
176
     1
 90
       50
176
     1
 40
0.0
176
     1
 40
1.0
176
     1
 90
        0
176
     1
 62
    18
420
        0
176
     1
 90
       50
176
     1
 90
        3
176
     1
 62
     5
420
      255
176
     1
290
     0
176
     1
 90
       50
176
     1
 90
       50
176
     1
 90
       50
176
     1
290
     0
176
     1
 90
       50
176
     1
 62
   256
176
     0
 40
1.0
176
     0
 90
        2
176
     1
  1
strokes_ogs.tif
176
     1
290
     0
176
     1
 40
1.0
176
     1
 40
1.0
176
     1
1001
ACAD
1000
AcDbSavedByObjectVersion
1070
     0
  0
VISUALSTYLE
  5
1E5
102
{ACAD_REACTORS
330
EF
102
}
330
EF
100
AcDbVisualStyle
  2
OverhangOff
 70
    21
177
     3
291
     1
 70
    58
 90
        2
176
     0
 90
        2
176
     0
 90
        0
176
     0
 90
        0
176
     0
 40
0.6
176
     0
 40
30.0
176
     0
 62
     7
420
 16777215
176
     0
 90
        1
176
     0
 90
        4
176
     0
 62
     7
176
     0
 62
   257
176
     0
 90
        1
176
     0
 90
        1
176
     0
 40
1.0
176
     0
 90
        9
176
     2
 62
     7
176
     0
 40
1.0
176
     0
 90
        1
176
     0
 90
        6
176
     0
 90
        2
176
     0
 62
     7
176
     0
 90
        5
176
     0
 90
        0
176
     0
 90
        0
176
     0
290
     0
176
     0
 90
        1
176
     0
 40
0.0
176
     0
 90
        0
176
     0
290
     0
176
     1
290
     1
176
     1
290
     1
176
     1
290
     0
176
     1
290
     0
176
     1
290
     0
176
     1
290
     0
176
     1
290
     0
176
     1
290
     0
176
     1
 90
       50
176
     1
 40
0.0
176
     1
 40
1.0
176
     1
 90
        0
176
     1
 62
    18
420
        0
176
     1
 90
       50
176
     1
 90
        3
176
     1
 62
     5
420
      255
176
     1
290
     0
176
     1
 90
       50
176
     1
 90
       50
176
     1
 90
       50
176
     1
290
     0
176
     1
 90
       50
176
     1
 62
   256
176
     0
 40
1.0
176
     0
 90
        2
176
     1
  1
strokes_ogs.tif
176
     1
290
     0
176
     1
 40
1.0
176
     1
 40
1.0
176
     1
1001
ACAD
1000
AcDbSavedByObjectVersion
1070
     0
  0
VISUALSTYLE
  5
F9
102
{ACAD_REACTORS
330
EF
102
}
330
EF
100
AcDbVisualStyle
  2
Realistic
 70
     8
177
     3
291
     0
 70
    58
 90
        2
176
     1
 90
        3
176
     1
 90
        0
176
     1
 90
        2
176
     1
 40
0.6
176
     1
 40
30.0
176
     1
 62
     7
420
 16777215
176
     1
 90
        0
176
     1
 90
        0
176
     1
 62
     7
176
     1
 62
   257
176
     1
 90
        1
176
     1
 90
        1
176
     1
 40
1.0
176
     1
 90
        8
176
     1
 62
   257
176
     1
 40
1.0
176
     1
 90
        1
176
     1
 90
        6
176
     1
 90
        2
176
     1
 62
     7
176
     1
 90
        3
176
     1
 90
        0
176
     1
 90
        0
176
     1
290
     0
176
     1
 90
       13
176
     1
 40
0.0
176
     1
 90
        0
176
     1
290
     0
176
     1
290
     1
176
     1
290
     1
176
     1
290
     0
176
     1
290
     0
176
     1
290
     0
176
     1
290
     0
176
     1
290
     0
176
     1
290
     0
176
     1
 90
       50
176
     1
 40
0.0
176
     1
 40
1.0
176
     1
 90
        0
176
     1
 62
    18
420
        0
176
     1
 90
       50
176
     1
 90
        3
176
     1
 62
     5
420
      255
176
     1
290
     0
176
     1
 90
       50
176
     1
 90
       50
176
     1
 90
       50
176
     1
290
     0
176
     1
 90
       50
176
     1
 62
   256
176
     0
 40
1.0
176
     0
 90
        2
176
     1
  1
strokes_ogs.tif
176
     1
290
     0
176
     1
 40
1.0
176
     1
 40
1.0
176
     1
1001
ACAD
1000
AcDbSavedByObjectVersion
1070
     0
  0
VISUALSTYLE
  5
1F3
102
{ACAD_REACTORS
330
EF
102
}
330
EF
100
AcDbVisualStyle
  2
Shaded
 70
    27
177
     3
291
     0
 70
    58
 90
        2
176
     1
 90
        2
176
     1
 90
        1
176
     1
 90
        2
176
     1
 40
0.6
176
     1
 40
30.0
176
     1
 62
     7
420
 16777215
176
     1
 90
        0
176
     1
 90
        4
176
     1
 62
     7
176
     1
 62
   257
176
     1
 90
        1
176
     1
 90
        1
176
     1
 40
1.0
176
     1
 90
        8
176
     1
 62
   257
176
     1
 40
1.0
176
     1
 90
        1
176
     1
 90
        6
176
     1
 90
        2
176
     1
 62
     8
420
  7895160
176
     1
 90
        3
176
     1
 90
        0
176
     1
 90
        0
176
     1
290
     0
176
     1
 90
        5
176
     1
 40
0.0
176
     1
 90
        0
176
     1
290
     0
176
     1
290
     1
176
     1
290
     1
176
     1
290
     0
176
     1
290
     0
176
     1
290
     0
176
     1
290
     0
176
     1
290
     0
176
     1
290
     0
176
     1
 90
       50
176
     1
 40
0.0
176
     1
 40
1.0
176
     1
 90
        0
176
     1
 62
    18
420
        0
176
     1
 90
       50
176
     1
 90
        3
176
     1
 62
     5
420
      255
176
     1
290
     0
176
     1
 90
       50
176
     1
 90
       50
176
     1
 90
       50
176
     1
290
     0
176
     1
 90
       50
176
     1
 62
   256
176
     0
 40
1.0
176
     0
 90
        2
176
     1
  1
strokes_ogs.tif
176
     1
290
     0
176
     1
 40
1.0
176
     1
 40
1.0
176
     1
1001
ACAD
1000
AcDbSavedByObjectVersion
1070
     0
  0
VISUALSTYLE
  5
1F2
102
{ACAD_REACTORS
330
EF
102
}
330
EF
100
AcDbVisualStyle
  2
Shaded with edges
 70
    26
177
     3
291
     0
 70
    58
 90
        2
176
     1
 90
        2
176
     1
 90
        1
176
     1
 90
        2
176
     1
 40
0.6
176
     1
 40
30.0
176
     1
 62
     7
420
 16777215
176
     1
 90
        1
176
     1
 90
        2
176
     1
 62
     7
176
     1
 62
   257
176
     1
 90
        2
176
     1
 90
        1
176
     1
 40
1.0
176
     1
 90
        8
176
     1
 62
   257
176
     1
 40
1.0
176
     1
 90
        1
176
     1
 90
        6
176
     1
 90
        2
176
     1
 62
     7
176
     1
 90
        3
176
     1
 90
        0
176
     1
 90
        0
176
     1
290
     0
176
     1
 90
        5
176
     1
 40
0.0
176
     1
 90
        0
176
     1
290
     0
176
     1
290
     1
176
     1
290
     1
176
     1
290
     0
176
     1
290
     0
176
     1
290
     0
176
     1
290
     0
176
     1
290
     0
176
     1
290
     0
176
     1
 90
       50
176
     1
 40
0.0
176
     1
 40
1.0
176
     1
 90
        0
176
     1
 62
    18
420
        0
176
     1
 90
       50
176
     1
 90
        3
176
     1
 62
     5
420
      255
176
     1
290
     0
176
     1
 90
       50
176
     1
 90
       50
176
     1
 90
       50
176
     1
290
     0
176
     1
 90
       50
176
     1
 62
   256
176
     0
 40
1.0
176
     0
 90
        2
176
     1
  1
strokes_ogs.tif
176
     1
290
     0
176
     1
 40
1.0
176
     1
 40
1.0
176
     1
1001
ACAD
1000
AcDbSavedByObjectVersion
1070
     0
  0
VISUALSTYLE
  5
1EF
102
{ACAD_REACTORS
330
EF
102
}
330
EF
100
AcDbVisualStyle
  2
Shades of Gray
 70
    23
177
     3
291
     0
 70
    58
 90
        2
176
     1
 90
        2
176
     1
 90
        3
176
     1
 90
        0
176
     1
 40
0.6
176
     1
 40
30.0
176
     1
 62
     7
420
 16777215
176
     1
 90
        2
176
     1
 90
        2
176
     1
 62
     7
176
     1
 62
     7
176
     1
 90
        1
176
     1
 90
        1
176
     1
 40
40.0
176
     1
 90
        8
176
     1
 62
     7
176
     1
 40
1.0
176
     1
 90
        1
176
     1
 90
        6
176
     1
 90
        2
176
     1
 62
     7
176
     1
 90
        3
176
     1
 90
        0
176
     1
 90
        0
176
     1
290
     0
176
     1
 90
        1
176
     1
 40
0.0
176
     1
 90
        0
176
     1
290
     0
176
     1
290
     1
176
     1
290
     1
176
     1
290
     0
176
     1
290
     0
176
     1
290
     0
176
     1
290
     0
176
     1
290
     0
176
     1
290
     0
176
     1
 90
       50
176
     1
 40
0.0
176
     1
 40
1.0
176
     1
 90
        0
176
     1
 62
    18
420
        0
176
     1
 90
       50
176
     1
 90
        3
176
     1
 62
     5
420
      255
176
     1
290
     0
176
     1
 90
       50
176
     1
 90
       50
176
     1
 90
       50
176
     1
290
     0
176
     1
 90
       50
176
     1
 62
   256
176
     0
 40
1.0
176
     0
 90
        2
176
     1
  1
strokes_ogs.tif
176
     1
290
     0
176
     1
 40
1.0
176
     1
 40
1.0
176
     1
1001
ACAD
1000
AcDbSavedByObjectVersion
1070
     0
  0
VISUALSTYLE
  5
1F0
102
{ACAD_REACTORS
330
EF
102
}
330
EF
100
AcDbVisualStyle
  2
Sketchy
 70
    24
177
     3
291
     0
 70
    58
 90
        1
176
     1
 90
        2
176
     1
 90
        2
176
     1
 90
        0
176
     1
 40
0.6
176
     1
 40
30.0
176
     1
 62
     7
420
 16777215
176
     1
 90
        2
176
     1
 90
        2
176
     1
 62
     7
176
     1
 62
     7
176
     1
 90
        1
176
     1
 90
        1
176
     1
 40
40.0
176
     1
 90
       11
176
     1
 62
     7
176
     1
 40
1.0
176
     1
 90
        1
176
     1
 90
        6
176
     1
 90
        2
176
     1
 62
     7
176
     1
 90
        6
176
     1
 90
        0
176
     1
 90
        0
176
     1
290
     0
176
     1
 90
        1
176
     1
 40
0.0
176
     1
 90
        0
176
     1
290
     0
176
     1
290
     1
176
     1
290
     1
176
     1
290
     0
176
     1
290
     0
176
     1
290
     0
176
     1
290
     0
176
     1
290
     0
176
     1
290
     0
176
     1
 90
       50
176
     1
 40
0.0
176
     1
 40
1.0
176
     1
 90
        0
176
     1
 62
    18
420
        0
176
     1
 90
       50
176
     1
 90
        3
176
     1
 62
     5
420
      255
176
     1
290
     0
176
     1
 90
       50
176
     1
 90
       50
176
     1
 90
       50
176
     1
290
     0
176
     1
 90
       50
176
     1
 62
   256
176
     0
 40
1.0
176
     0
 90
        2
176
     1
  1
strokes_ogs.tif
176
     1
290
     0
176
     1
 40
1.0
176
     1
 40
1.0
176
     1
1001
ACAD
1000
AcDbSavedByObjectVersion
1070
     0
  0
VISUALSTYLE
  5
FC
102
{ACAD_REACTORS
330
EF
102
}
330
EF
100
AcDbVisualStyle
  2
Thicken
 70
    13
177
     3
291
     1
 70
    58
 90
        2
176
     1
 90
        2
176
     1
 90
        1
176
     1
 90
        0
176
     1
 40
0.6
176
     1
 40
30.0
176
     1
 62
     7
420
 16777215
176
     1
 90
        1
176
     1
 90
        4
176
     1
 62
     7
176
     1
 62
   257
176
     1
 90
        1
176
     1
 90
        1
176
     1
 40
1.0
176
     1
 90
       12
176
     1
 62
     7
176
     1
 40
1.0
176
     1
 90
        1
176
     1
 90
        6
176
     1
 90
        2
176
     1
 62
     7
176
     1
 90
        5
176
     1
 90
        0
176
     1
 90
        0
176
     1
290
     0
176
     1
 90
        1
176
     1
 40
0.0
176
     1
 90
        0
176
     1
290
     0
176
     1
290
     1
176
     1
290
     1
176
     1
290
     0
176
     1
290
     0
176
     1
290
     0
176
     1
290
     0
176
     1
290
     0
176
     1
290
     0
176
     1
 90
       50
176
     1
 40
0.0
176
     1
 40
1.0
176
     1
 90
        0
176
     1
 62
    18
420
        0
176
     1
 90
       50
176
     1
 90
        3
176
     1
 62
     5
420
      255
176
     1
290
     0
176
     1
 90
       50
176
     1
 90
       50
176
     1
 90
       50
176
     1
290
     0
176
     1
 90
       50
176
     1
 62
   256
176
     0
 40
1.0
176
     0
 90
        2
176
     1
  1
strokes_ogs.tif
176
     1
290
     0
176
     1
 40
1.0
176
     1
 40
1.0
176
     1
1001
ACAD
1000
AcDbSavedByObjectVersion
1070
     0
  0
VISUALSTYLE
  5
F6
102
{ACAD_REACTORS
330
EF
102
}
330
EF
100
AcDbVisualStyle
  2
Wireframe
 70
     5
177
     3
291
     0
 70
    58
 90
        0
176
     1
 90
        2
176
     1
 90
        0
176
     1
 90
        0
176
     1
 40
0.6
176
     1
 40
30.0
176
     1
 62
     7
420
 16777215
176
     1
 90
        1
176
     1
 90
        4
176
     1
 62
     7
176
     1
 62
   257
176
     1
 90
        1
176
     1
 90
        1
176
     1
 40
1.0
176
     1
 90
        0
176
     1
 62
   257
176
     1
 40
1.0
176
     1
 90
        1
176
     1
 90
        6
176
     1
 90
        2
176
     1
 62
     7
176
     1
 90
        3
176
     1
 90
        0
176
     1
 90
        0
176
     1
290
     0
176
     1
 90
        1
176
     1
 40
0.0
176
     1
 90
        0
176
     1
290
     0
176
     1
290
     1
176
     1
290
     1
176
     1
290
     0
176
     1
290
     0
176
     1
290
     0
176
     1
290
     0
176
     1
290
     0
176
     1
290
     0
176
     1
 90
       50
176
     1
 40
0.0
176
     1
 40
1.0
176
     1
 90
        0
176
     1
 62
    18
420
        0
176
     1
 90
       50
176
     1
 90
        3
176
     1
 62
     5
420
      255
176
     1
290
     0
176
     1
 90
       50
176
     1
 90
       50
176
     1
 90
       50
176
     1
290
     0
176
     1
 90
       50
176
     1
 62
   256
176
     0
 40
1.0
176
     0
 90
        2
176
     1
  1
strokes_ogs.tif
176
     1
290
     0
176
     1
 40
1.0
176
     1
 40
1.0
176
     1
1001
ACAD
1000
AcDbSavedByObjectVersion
1070
     0
  0
VISUALSTYLE
  5
1F1
102
{ACAD_REACTORS
330
EF
102
}
330
EF
100
AcDbVisualStyle
  2
X-Ray
 70
    25
177
     3
291
     0
 70
    58
 90
        2
176
     1
 90
        2
176
     1
 90
        1
176
     1
 90
        1
176
     1
 40
0.5
176
     1
 40
30.0
176
     1
 62
     7
420
 16777215
176
     1
 90
        1
176
     1
 90
        0
176
     1
 62
     7
176
     1
 62
   257
176
     1
 90
        1
176
     1
 90
        1
176
     1
 40
1.0
176
     1
 90
        8
176
     1
 62
     7
176
     1
 40
1.0
176
     1
 90
        1
176
     1
 90
        6
176
     1
 90
        2
176
     1
 62
     7
176
     1
 90
        3
176
     1
 90
        0
176
     1
 90
        0
176
     1
290
     0
176
     1
 90
       13
176
     1
 40
0.0
176
     1
 90
        0
176
     1
290
     0
176
     1
290
     1
176
     1
290
     1
176
     1
290
     0
176
     1
290
     0
176
     1
290
     0
176
     1
290
     0
176
     1
290
     0
176
     1
290
     0
176
     1
 90
       50
176
     1
 40
0.0
176
     1
 40
1.0
176
     1
 90
        0
176
     1
 62
    18
420
        0
176
     1
 90
       50
176
     1
 90
        3
176
     1
 62
     5
420
      255
176
     1
290
     0
176
     1
 90
       50
176
     1
 90
       50
176
     1
 90
       50
176
     1
290
     0
176
     1
 90
       50
176
     1
 62
   256
176
     0
 40
1.0
176
     0
 90
        2
176
     1
  1
strokes_ogs.tif
176
     1
290
     0
176
     1
 40
1.0
176
     1
 40
1.0
176
     1
1001
ACAD
1000
AcDbSavedByObjectVersion
1070
     0
  0
DICTIONARYVAR
  5
146
102
{ACAD_REACTORS
330
5E
102
}
330
5E
100
DictionaryVariables
280
     0
  1
1:1
  0
DICTIONARYVAR
  5
259
102
{ACAD_REACTORS
330
5E
102
}
330
5E
100
DictionaryVariables
280
     0
  1
3.500000
  0
DICTIONARYVAR
  5
25A
102
{ACAD_REACTORS
330
5E
102
}
330
5E
100
DictionaryVariables
280
     0
  1
acadiso.lin
  0
DICTIONARYVAR
  5
145
102
{ACAD_REACTORS
330
5E
102
}
330
5E
100
DictionaryVariables
280
     0
  1
STANDARD
  0
DICTIONARYVAR
  5
84
102
{ACAD_REACTORS
330
5E
102
}
330
5E
100
DictionaryVariables
280
     0
  1
STANDARD
  0
DICTIONARYVAR
  5
227
102
{ACAD_REACTORS
330
5E
102
}
330
5E
100
DictionaryVariables
280
     0
  1
Metric50
  0
DICTIONARYVAR
  5
228
102
{ACAD_REACTORS
330
5E
102
}
330
5E
100
DictionaryVariables
280
     0
  1
Metric50
  0
DICTIONARYVAR
  5
5F
102
{ACAD_REACTORS
330
5E
102
}
330
5E
100
DictionaryVariables
280
     0
  1
2
  0
DICTIONARYVAR
  5
63
102
{ACAD_REACTORS
330
5E
102
}
330
5E
100
DictionaryVariables
280
     0
  1
1
  0
DICTIONARYVAR
  5
1AE
102
{ACAD_REACTORS
330
5E
102
}
330
5E
100
DictionaryVariables
280
     0
  1
0
  0
DICTIONARYVAR
  5
1AF
102
{ACAD_REACTORS
330
5E
102
}
330
5E
100
DictionaryVariables
280
     0
  1
0
  0
DICTIONARY
  5
B0E
102
{ACAD_REACTORS
330
B0C
102
}
330
B0C
100
AcDbDictionary
281
     1
  0
DICTIONARY
  5
B0D
102
{ACAD_REACTORS
330
B0C
102
}
330
B0C
100
AcDbDictionary
281
     1
  3
2313755757808
350
B07
  3
2313755757824
350
B08
  3
2313755757840
350
B09
  3
2313755757856
350
B0A
  3
2313755757872
350
B0B
  0
DICTIONARY
  5
B15
330
28E
100
AcDbDictionary
280
     1
281
     1
  3
ACAD_XREC_ROUNDTRIP
360
B16
  0
DICTIONARY
  5
B11
330
21C
100
AcDbDictionary
280
     1
281
     1
  3
ACAD_XREC_ROUNDTRIP
360
B12
  0
DICTIONARY
  5
205
330
22
100
AcDbDictionary
280
     1
281
     1
  0
DICTIONARY
  5
1F9
330
ED
100
AcDbDictionary
280
     1
281
     1
  3
FBXASSET
360
1FA
  0
DICTIONARY
  5
1F7
330
EC
100
AcDbDictionary
280
     1
281
     1
  3
FBXASSET
360
1F8
  0
DICTIONARY
  5
173
330
EE
100
AcDbDictionary
280
     1
281
     1
  3
BUMPTILE
360
175
  3
DIFFUSETILE
360
174
  3
FBXASSET
360
1FB
  3
OPACITYTILE
360
176
  3
REFLECTIONTILE
360
177
  0
DICTIONARY
  5
B13
330
28D
100
AcDbDictionary
280
     1
281
     1
  3
ACAD_XREC_ROUNDTRIP
360
B14
  0
DICTIONARY
  5
B0F
330
21A
100
AcDbDictionary
280
     1
281
     1
  3
ACAD_XREC_ROUNDTRIP
360
B10
  0
DICTIONARY
  5
162
330
7F
100
AcDbDictionary
280
     1
281
     1
  3
ACAD_ROUNDTRIP_2008_TABLESTYLE_CELLSTYLEMAP
360
B05
  0
XRECORD
  5
B07
102
{ACAD_REACTORS
330
B0D
102
}
330
B0D
100
AcDbXrecord
280
     1
  1
AcDb_Thumbnail_Schema
102
{ATTRRECORD
341
B08
  2
AcDbDs::TreatedAsObjectData
280
     1
291
     1
102
ATTRRECORD}
102
{ATTRRECORD
341
B09
  2
AcDbDs::Legacy
280
     1
291
     1
102
ATTRRECORD}
  2
AcDbDs::ID
280
    10
 91
        8
102
{ATTRRECORD
341
B0A
  2
AcDs:Indexable
280
     1
291
     1
102
ATTRRECORD}
102
{ATTRRECORD
341
B0B
  2
AcDbDs::HandleAttribute
280
     7
282
     1
102
ATTRRECORD}
  2
Thumbnail_Data
280
    15
 91
        0
  0
XRECORD
  5
B08
102
{ACAD_REACTORS
330
B0D
102
}
330
B0D
100
AcDbXrecord
280
     1
  1
AcDbDs::TreatedAsObjectDataSchema
  2
AcDbDs::TreatedAsObjectData
280
     1
 91
        0
  0
XRECORD
  5
B09
102
{ACAD_REACTORS
330
B0D
102
}
330
B0D
100
AcDbXrecord
280
     1
  1
AcDbDs::LegacySchema
  2
AcDbDs::Legacy
280
     1
 91
        0
  0
XRECORD
  5
B0A
102
{ACAD_REACTORS
330
B0D
102
}
330
B0D
100
AcDbXrecord
280
     1
  1
AcDbDs::IndexedPropertySchema
  2
AcDs:Indexable
280
     1
 91
        0
  0
XRECORD
  5
B0B
102
{ACAD_REACTORS
330
B0D
102
}
330
B0D
100
AcDbXrecord
280
     1
  1
AcDbDs::HandleAttributeSchema
  2
AcDbDs::HandleAttribute
280
     7
 91
        1
284
     1
  0
XRECORD
  5
B16
102
{ACAD_REACTORS
330
B15
102
}
330
B15
100
AcDbXrecord
280
     1
102
DISPLAYNAME
  1
Imperial24
102
FLAGS
 90
        0
  0
XRECORD
  5
B12
102
{ACAD_REACTORS
330
B11
102
}
330
B11
100
AcDbXrecord
280
     1
102
DISPLAYNAME
  1
Metric50
102
FLAGS
 90
        0
  0
XRECORD
  5
1FA
102
{ACAD_REACTORS
330
1F9
102
}
330
1F9
100
AcDbXrecord
280
     1
 70
     1
 90
429727718
  1
D62C5603-E3A1-4AEA-B7FB-FE5D8D0755AF
310
504B03040A0000080000CC70623B3DEE336E79000000790000001B0000006175746F6465736B2D64657369676E2D7061636B6167652E786D6C3C3F786D6C2076657273696F6E3D22312E302220656E636F64696E673D227574662D3822203F3E3C666F726D6174733E3C666F726D61743E687474703A2F2F736368656D612E
310
6175746F6465736B2E636F6D2F64657369676E2D7061636B6167652F323030393C2F666F726D61743E3C2F666F726D6174733E504B0304140006080800CC70623BD486FD9CA0000000F4000000130000005B436F6E74656E745F54797065735D2E786D6C7D8EC10E82300C865F65E91D8A1E8C310C0EEA1BF002731658846E
310
D98AC1B77784ABF1D8FE5FBFBF75BBCE937A534CCEB38643598122B6FEE978D0B0485F9C41B54DDD7D022595594E1A469170414C76A4D9A4D207E29CF43ECE46F218070CC6BECC4078ACAA135ACF422C856C0E68EA1BF5669944DDD7BCDE7B1F8E415D77AECB980613C2E4AC91FC167A2B244592486606FC29C8FD7F045B9A
310
EF7053A7E60B504B0304140006080800CC70623B853B8169EB0000007C01000008000000636F72652E786D6C8D90416EC3201045AF62CDB6C206821CC7C244919D9CA01740401C94182C03558F5F9C3852BBEB6A467FFE9B197D7EFC9E1EC5975982F5AE035262288C535E5B377690E21535501C055FBC8FBF6C503839990E
310
5619041F179FE64D52DE45E362569DD7661365082642A11EB9E920A89B99642953CC8E702F67A9EE7234257977194EC9EAE275C4EABCCF5EAD5940D4AC6F0E35A568B8F43562CD7046CD199FD07E60174276A7BE677B5EADB0E0D14EEFFB6A31321A0D82627C4084204C3F096B71DD52F6819B16635EADF63F509AF53FA164
310
5DDCD1EDDD17164090FCC8732078B56691CB33A85CD7DCC40F504B0304140006080800CC70623B55019EA25F0000007C00000007000000636E782E786D6C4DCB3B0E80201045D1AD90E915ED2CF8AC45050C11660C8261F98AB1B07AC9C97D42D718D865D3E909258CFD00CCE24AC6E326A164D74DC0B4128928FF32603847
310
2BA13128B1252AC747C6BAB984FC68F0B87FE8960A5C09FE86CFB69FBA01504B0304140006080800CC70623BDBABAAF470010000D40300000C0000006662782F636F72652E786D6CC553D16E823014FD95A6AF4B694182CC941A83FA05FB810A9511A125A5257EFE2E82712ECEB8A7F100CD39F7F69E734AF9FADC366850B6
310
AF8DCE7018308C942E4C59EB2AC3DE1D498AD15A706B8CFB56869196ADCAF00863C12B6B7C374385D14E6907A836A59A41D9F7CA615434B0C8705F7CAA5606D23BA8E84F41278B93AC54100640439DE0BDB320004D43C63716C7C399D30917DCFBBA9CD9BA8469F5B156168B24CED3F7248AC8769F27244EB73B92EED8862C
310
B7F13E0C179B3C8F979C8ECD82BBBABDAA2BAC924E9558448CBD9330242CFA08E3154B5651FCC6D215639C8EE5774DBE2B5F6CF2B5768B68963BB5F5588420E442FC700B1139D4CB01F450C1E918227C2E09DF070D8140C84E1E9AAB8F1340832A9CB13130A5F1376A908D57309505ECF2A0DF179C4E9D30F5B239B87E3823
310
7A79C6F31DE1A8A5AEC08474B03C7837EAE4938639B44E5932B833D2C6B6B279CDC613877FA26EE21F4A2A4C63EC7F29A2F301D1F9F7A0E37D145F504B0304140006080800CC70623B9C113CC27E0000009D0000000B0000006662782F636E782E786D6C4DCCDF0A83201C86E15B91DFB94BFB330DD428C8FB886521330DA7
310
6397BF1A1DECE883878F57749FCDA1B7892F1BBC047A23808C7F84D9FA55424E0BE6803A256208E9EF06C84F9B91703228B1C690F78B66B34CD9A5439DF5CF0BFBF65E35BCA1B8D6A5C6F540381E886698B5741C695F9503EBA150A2F8958E3DC3EA0B504B0304140006080800CC70623B7DF2F77C2A010000120200003100
310
00006662782F41393633353835312D344632462D344230382D423046372D3739314545314133324237412F636F72652E786D6C8D51DB8EC22014FC15C2939B0D2DB4B45643319AE817EC0F6041255A68B86CFCFC856D4D76DF7CE190393373060EDB3DC707F856CE6B6B7A480A0C81328395DA5C7B18C3057510EC3873D686
310
3F34088C18550F330C39BB3A1BA7051AAC09CA84841A2BD5020AEF55806078A44B0FFD7053A328440C89E1EFC52486BBB8AA8214A99D789CF9E05200300FC927E4FB4D5B375D43103D5527440FB843077C5AA3F5861C8F645F5787F59E95B390B318B55CE45AA638FAA2957BD7248B390B7A7CC51F9C124149C82B8C378810
310
84AB2F42B7B8DD56F413775B8C5999E9FF4471926F8AA236A1AE96B8B3CC434E5839373893369E1FAF30EA395917409EB7F26AF8801C171837A4A6AC9C89E9F9C9B1A58BA30FD6A5EF5DDDCF894B9AD9B6A59C957943A9FCAE2FD5BC4DFE03504B0304140006080800CC70623BAD7543B64E01000033030000300000006662
310
782F41393633353835312D344632462D344230382D423046372D3739314545314133324237412F636E782E786D6CD593CD6EC32010845F0571AD6CE3D48AD20813A9873E410FBD12D82434182C7EAAE6EDBB2424CD25871E7B41D6EC30B3FA84F9E67BB2E40B4234DE8DB46F1925E094D7C6ED479AD3AE5951B2113C789FEE
310
6C943839C1488B4C05DF079FE72A69D8C96C13AAD6B8631503449F83828872B949AC57D26200B826A308D316B4064D6E46FCDA41C05550DC9E483A00797BFD207EFB092A45DE9514C1BBD22178396BD39D891265658C238DEA00936C654E5E433CB65A26D9F6EDB5EBC14EBF49A45CB856E66048291F6939A9A81BB5C89177
310
38143CA680F4AA299D66A042CEB3354A2684DC9D8D178FE0D9B8B41CAAD720F880EE7EF93C0C18769E099ECC04D5A102C8049A8A05632F4DDF376CF1DE0F6BB65C2F8627B65A33C6BB62177CEBBDAD973006829F89F22E814B54F4BC2BE347F8AA8F681390B50FA73F804400B5F542E796F19FF974E7F78DB802FE05E20750
310
4B0304140006080800CC70623BE75B7789680500003C100000340000006662782F41393633353835312D344632462D344230382D423046372D3739314545314133324237412F6F626A656374732E786D6CAD575B8F9B3818FD2B887D06C22499CB8AA1CA655245D5B455A356FB305264C061D8018C6C3393D95FBFC7600890
310
A4CD5EF210B0B1BFEBF98E3F7B1FF6596ABC522E1296DF9BAE3D320D9A872C4AF2F8DE2CE5CEBA358D0FBEC719939D65A691938CDE9B6ADAF4BD98B3B2D05311DD91329583D9D5FC0F438434A7A611A644887B5384CF34233629258BA878B12322891DEFF6B66BD70BFB62634E8AE781D082709A4B588AF91C528CDA28B73F
310
1C998EEF39EABBEFA97FBD6A7C7E9553F9D3D79FE442923C3C523610337627CB87ABE99D359D4CC6D6E4FACAB5E6ABF9D2726FC6A3C5F56271377BB88362213924694B38DD99FE47C48627A1E7D49F5A8BB5E1A74C0A599ED3B0F21F1E56366B89112D681E218F0915D0D6F17AD41FBA2A369DCF6335D62ABBD39779D5DDD1
310
11D4D8DE3CBB96B2E04FB8202E41051754A1AA8E8F76B4C6DFE810B580B1547F4B84911149794252234D024EF8BBE963A95AE27B3D310A9D5C215C7960FAEE415ED75694C6AFB17BCACA5D99A60A9AA65F217B0BFC53292ACB92BF283FAD0D3621576592CB5BED907C2FA8E9DF794E35E97BEA31BED21FEB401ABB94C44839
310
DCACBF0E1C5DA8DA5B2F4DFFD32AD86F543D9E565E7056502E157C00AD2671CD534549AB752FCA9CDA00677A313F04E51B22FF19E57B300579E3C97EB29F682D92935CEC18CF901B7B54FD8C51F362B56FC72FE0B3C1EAE335EDCCBF5AEC39ADB17DC238973F804BA5E6F6BFE7AF1FB32E523BE9F3BD571418E3631DCA4D48
310
5250CF639223210A9446CA30052EDF057BD35F8329C1ECD84552BF0DC8D18BE7BCE23BFE6BD960AB4A7DE79923A103BEBD80F911CBAA2C60DB19B01CF164A5583B772EE6D3FFA56666CBCDA74DC97724A48F9A58967497E489C4D979006FD7A05E227A1EBDD0F737C623387A9C844D3709995625106D157315F8B8392CD4E0
310
A0B9A720C4BE9829CEF37EA1E13111214D53925356365ADA634861B52519DD27A00AEB808EAF0628E6F435519D446F45CF2C9CF5214F0A15B2F6D06B79DA3EE3CBF7F56780D2F4E7EF73A0F5E5B02A38D07DC852C6B7C1FBB6664213E0C39E3EBA7FF4E1AD23EA2829407C85E586727488B751B2DB9502BC7B228A3FD68B6E
310
A65A22397E690AA8D158D7E404EC8CDA235CC3B7D1898680131CEC2CDF2638C65196279577750F15884AEE19F94199155B92B13297978469D4F8D358DF0AEF7631E28DC8F0D9F437D5D39A83B2231A1D52D543813A824EF8D44BCFF2FA6A31BD1E8DAD87F1CCB526B3879935BF59CDADD5C37479BB1CDD4CA7B3556B516589
310
EF352754B706114D9C885EC9131DE6EFEB43D99AFE2391C2F958179413D7CFEF6B1B6DB1E7600F00DE6E5C67454A339A4BA2E0FBA85ED26F045D454F463DBFCE484C2F90F2E5E3666003662ED8F755951A7D1BECD5B30B550B2785C8E7320B7292A4838DDA71BBC863ED7613CAF659337A3354231D4FF4A182A54904C2898C
310
98B28C4AD0CE056CCF332A80986E571EE9DBC305BB5FEB7E509220A58D25CF042D712A806AC0AD0C657FDEF80D2D9CEAA2EE4D1C76F60BFE74219A06527D6F82DF6412526107381E55E353090704D085B52408A8913C4ED159D79BDA71BB4BC506F4831350EB6F975CD22D69BF7AC49B91A2C0A9DDA3D5CA36AD20FC478E37
310
E61844E2352865EBCB61A275A65283CAAA9DD27703B4102F5AF51EF5F573B75CBB5AD38BC845F7A49F82A0966A49C2E3EA5EA0ECD326CD965F1DB402C6FA8B51A4658C5C5E2EC9E214602E55810345408596591009A82E7E7FFACA19EEA299B14A0081A705CB3296EBC14CDF658DCD336EA6D1136881AAEB87B81AB9EE53D5
310
F5EB8BC8362082DA24122F98680A4E7930C01A0079749CEA14382A0783E5EBA5A10F8C098456A03D6A4AEB6BB881E2513747552A5DB22C7EDAF83BD5528081A365F7FF06504B0304140006080000CC70623B000000000000000000000000350000006662782F41393633353835312D344632462D344230382D423046372D37
310
39314545314133324237412F76657274696365732E62696E504B0304140006080800CC70623BF270F1330600000004000000360000006662782F41393633353835312D344632462D344230382D423046372D3739314545314133324237412F747269616E676C65732E62696E636660600000504B0304140006080000CC7062
310
3B000000000000000000000000370000006662782F41393633353835312D344632462D344230382D423046372D3739314545314133324237412F617474726962757465732E62696E504B0304140006080800CC70623B08DA0BD19000000041010000360000006662782F41393633353835312D344632462D344230382D4230
310
46372D3739314545314133324237412F6469726563746F72792E786D6C858F410AC3201045AF22B36F53E9A60B35CBEEBAE80D244E44489C6234F4F835464A48035D0DF398FF9F8AF63D0E6CC63039F212F8F9020C7D47C6792B21C5FE7403D62A1188E2E60C98D7234A5830286103A55745067B9D86B8A3CF9C7F90C11DE6
310
07FB144396D7B6A82D282E9A152AD114D5EF2CB866EEE831B8EEA07A7BB5A8D7D61A2BAAEB7FD5F70921FF497D00504B0304140006080800CC70623BEDD1DC58FD000000A00100003B0000006662782F41393633353835312D344632462D344230382D423046372D3739314545314133324237412F7265736F75726365732F
310
636F72652E786D6C8D504B6E833010BD0A9A6D65B00922041947112427E8052C33A156828DFCA97AFC9A40A576D7CDCCE87D344F8F9FBFE667F689CE6B6B3A6039850C8DB2A336530731DC4903D95970676DF82583CCC8193B5861107C72362E3BA4AC096842428D1D7107A5F7182053CF7474E0D507CE32973124857FE48B
310
540F3961CEF244279DE03EB81420DB9EAC1384436FA353E879B1B182C7A8C75DA3C7F453DF353A1075D537A7BA6464B8F535A99AE14A9A2BBD90E350DD183B5CFABE3AF262350B1EF4FC9351399401471025A527C218A1E53BAB5A5AB765F5469B96525EACF23FA6B88CFF34456DC2A1DCE36E360F82A5202F42F062ED2BAD
310
579969AFDD8A6F504B010214000A0000080000CC70623B3DEE336E79000000790000001B00000000000000000000000000000000006175746F6465736B2D64657369676E2D7061636B6167652E786D6C504B01021400140006080800CC70623BD486FD9CA0000000F40000001300000000000000000000000000B20000005B
310
436F6E74656E745F54797065735D2E786D6C504B01021400140006080800CC70623B853B8169EB0000007C010000080000000000000000000000000083010000636F72652E786D6C504B01021400140006080800CC70623B55019EA25F0000007C000000070000000000000000000000000094020000636E782E786D6C504B
310
01021400140006080800CC70623BDBABAAF470010000D40300000C00000000000000000000000000180300006662782F636F72652E786D6C504B01021400140006080800CC70623B9C113CC27E0000009D0000000B00000000000000000000000000B20400006662782F636E782E786D6C504B01021400140006080800CC70
310
623B7DF2F77C2A010000120200003100000000000000000000000000590500006662782F41393633353835312D344632462D344230382D423046372D3739314545314133324237412F636F72652E786D6C504B01021400140006080800CC70623BAD7543B64E010000330300003000000000000000000000000000D2060000
310
6662782F41393633353835312D344632462D344230382D423046372D3739314545314133324237412F636E782E786D6C504B01021400140006080800CC70623BE75B7789680500003C10000034000000000000000000000000006E0800006662782F41393633353835312D344632462D344230382D423046372D3739314545
310
314133324237412F6F626A656374732E786D6C504B01021400140006080000CC70623B0000000000000000000000003500000000000000000000000000280E00006662782F41393633353835312D344632462D344230382D423046372D3739314545314133324237412F76657274696365732E62696E504B01021400140006
310
080800CC70623BF270F133060000000400000036000000000000000000000000007B0E00006662782F41393633353835312D344632462D344230382D423046372D3739314545314133324237412F747269616E676C65732E62696E504B01021400140006080000CC70623B0000000000000000000000003700000000000000
310
000000000000D50E00006662782F41393633353835312D344632462D344230382D423046372D3739314545314133324237412F617474726962757465732E62696E504B01021400140006080800CC70623B08DA0BD1900000004101000036000000000000000000000000002A0F00006662782F41393633353835312D344632
310
462D344230382D423046372D3739314545314133324237412F6469726563746F72792E786D6C504B01021400140006080800CC70623BEDD1DC58FD000000A00100003B000000000000000000000000000E1000006662782F41393633353835312D344632462D344230382D423046372D3739314545314133324237412F7265
310
736F75726365732F636F72652E786D6C504B0506000000000E000E0080040000641100000000
  0
XRECORD
  5
1F8
102
{ACAD_REACTORS
330
1F7
102
}
330
1F7
100
AcDbXrecord
280
     1
 70
     1
 90
429727718
  1
30362254-06B7-45E0-A893-8CFA70E3D6BC
310
504B03040A0000080000CC70623B3DEE336E79000000790000001B0000006175746F6465736B2D64657369676E2D7061636B6167652E786D6C3C3F786D6C2076657273696F6E3D22312E302220656E636F64696E673D227574662D3822203F3E3C666F726D6174733E3C666F726D61743E687474703A2F2F736368656D612E
310
6175746F6465736B2E636F6D2F64657369676E2D7061636B6167652F323030393C2F666F726D61743E3C2F666F726D6174733E504B0304140006080800CC70623BD486FD9CA0000000F4000000130000005B436F6E74656E745F54797065735D2E786D6C7D8EC10E82300C865F65E91D8A1E8C310C0EEA1BF002731658846E
310
D98AC1B77784ABF1D8FE5FBFBF75BBCE937A534CCEB38643598122B6FEE978D0B0485F9C41B54DDD7D022595594E1A469170414C76A4D9A4D207E29CF43ECE46F218070CC6BECC4078ACAA135ACF422C856C0E68EA1BF5669944DDD7BCDE7B1F8E415D77AECB980613C2E4AC91FC167A2B244592486606FC29C8FD7F045B9A
310
EF7053A7E60B504B0304140006080800CC70623B1EC5D7A3EB0000007C01000008000000636F72652E786D6C8D90416EC3201045AF82665B6103C6756C6122AB4D4ED00B204C5C94182C03558F5F9C3852BBEB6A467FFE9B197D71FC9E6FE8CBACC17AD7032D0820E3B41FAD9B7A48F1820F808E52ACDEC75F36404ECDA687
310
4D0629A6D5A76597B477D1B89855E747B38B2A041301E95B6E7A08FAD3CCAA50296647B8168BD2573599823EBB0CA76447F43862C7BCCF5EAC59410E4DDD9C7973C2755553CCCFA4C603E3040F1565ED3B1FDE4E432BCA0D9622DAF9795FAF464533826484B498524CD807E51D79ED187F21878E10516EF63F505AC67F42C9
310
BA58B1FDDD071640D2FCC87D2045B96591CB3DA85CB7DCE40F504B0304140006080800CC70623B55019EA25F0000007C00000007000000636E782E786D6C4DCB3B0E80201045D1AD90E915ED2CF8AC45050C11660C8261F98AB1B07AC9C97D42D718D865D3E909258CFD00CCE24AC6E326A164D74DC0B4128928FF32603847
310
2BA13128B1252AC747C6BAB984FC68F0B87FE8960A5C09FE86CFB69FBA01504B0304140006080800CC70623B8C9102E971010000D40300000C0000006662782F636F72652E786D6CC5535B6E833010BC8AE5DF0A6C08340F1947A84D4ED00B38C6A128602363A31CBFCB234A53A551FA553EC09AD9F5CE8C31DB9E9B1AF5CA
310
7695D1198E428A91D2D214952E33ECDD315861B4E5CC1AE3BE9561A445A3323CC098B3D21ADFCE9034DA29ED00D5A6503328BA4E398C640D8B0C77F253352214DE4145770A5B214FA2546114020D759C75CE8200340D19DE981F0F6746269C33EFAB6266AB02A655C74A59CCF365BADC27CB5D902ED22848F6340DF238A141
310
BE88E2F57B92BFEDF23523433367AE6A2EEAA455C2A902F398D2751045018D3FA264435F3771F242571B4A1919CA6F9A7C5B3CD9E42BED16F12C776AEB308F40C848FC700B1139D4891EF410CEC810227CC6846F8386402064270EF5C5C709A05E49676C024C61FC95EA45ED154CA5211D1FF4FB8291A913A68E9B83EBBB33
310
E2A7673CDE118E5AE8124C0807CB8377834E366998436B950D7A7746DAD846D4CFD978E0F04FD455FC5D49D2D4C6FE9722321F10997F0F32DC47FE05504B0304140006080800CC70623BFFEA85907E0000009D0000000B0000006662782F636E782E786D6C4DCCD10A83201886E15B91FFDC95D95A811AB6F23E625948A6C3
310
E9D8E5AF46073BFAE0E1E365ED67B3E8ADC3CB78C7815C7240DA3DFC64DCC221C519D7805AC182F7F1EF06C88D9BE6703008B6049F9E274D7A1E938DBB5AE3D6131B2589BA0D3D965551E0B2EA732C9B9A624AAEB41E3A557677029960D9AFB4EF11165F504B0304140006080800CC70623B4FEEA4082C0100001202000031
310
0000006662782F39464131463745442D413632322D343644302D413938332D3331353338454246344243312F636F72652E786D6C8D515B6EC32010BC0AE2AB55850DD871ED0813254D72825EC00192A2C460F1A872FC42ED48ED5F7E00CDCECCCEB26C731F6FE05B39AFADE921293004CA082BB5B9F43086336A21D870E6AC
310
0D7F68109861543DCC30E4ECE26C9C164858139409093556AA051CBC570102714B8F1E7AF1A5C6A11862480C7F2DA6415C878B2A4891CA89C7990F2E050073937C42DE1DB7E4F87ED8A36D4329AA9B3D46DBAEAD504556557BD81DEBDD0761E52CE42C462D17B996298E3E6BE59E35C962CE821E1FF18553435012728A7187
310
0841987E927A8D9B35ADDF70BBC6989599FE4F1427F9A4286A132ABAC49D651EF234CD5CE04CDA78BA3DC2A8FB645D00B9DF8B57E215725C60BCA2A463E54C4CE327C7A65E1C7DB02E7DEFCBF594B864C5CA6CDBD49C957943E9FA5D5FBAF336F90F504B0304140006080800CC70623BAD7543B64E01000033030000300000
310
006662782F39464131463745442D413632322D343644302D413938332D3331353338454246344243312F636E782E786D6CD593CD6EC32010845F0571AD6CE3D48AD20813A9873E410FBD12D82434182C7EAAE6EDBB2424CD25871E7B41D6EC30B3FA84F9E67BB2E40B4234DE8DB46F1925E094D7C6ED479AD3AE5951B2113C
310
789FEE6C943839C1488B4C05DF079FE72A69D8C96C13AAD6B8631503449F83828872B949AC57D26200B826A308D316B4064D6E46FCDA41C05550DC9E483A00797BFD207EFB092A45DE9514C1BBD22178396BD39D891265658C238DEA00936C654E5E433CB65A26D9F6EDB5EBC14EBF49A45CB856E66048291F6939A9A81BB5
310
C8917738143CA680F4AA299D66A042CEB3354A2684DC9D8D178FE0D9B8B41CAAD720F880EE7EF93C0C18769E099ECC04D5A102C8049A8A05632F4DDF376CF1DE0F6BB65C2F8627B65A33C6BB62177CEBBDAD973006829F89F22E814B54F4BC2BE347F8AA8F681390B50FA73F804400B5F542E796F19FF974E7F78DB802FE05
310
E207504B0304140006080800CC70623B16AB87BA640500003C100000340000006662782F39464131463745442D413632322D343644302D413938332D3331353338454246344243312F6F626A656374732E786D6CAD575B6FA33818FD2B887DE6924B3BED8A326A92B68A663B534DD4D13E548A0C38942D60649B369D5FBFC7
310
600890A493BDE42160637FD7F31D7FF63E6FB3D478A55C242CBF3247B66B1A340F5994E4F19559CA8D75611A9F7D8F33263BCB4C232719BD32D5B4E97B316765A1A722BA21652A07B3B7B33F0D11D29C9A46981221AE4C113ED38CD8A4942CA2E2C58E882476BCD9DA23BB5ED8171B73523C0F841684D35CC252CCE79062D4
310
468DFA43D7747CCF51DF7D4FFDEB5593E3AB9CCA9FBEFE241792E4E19EB28198C968BAB8199F5D5A67D3E9C49A9E8F47D6EC76B6B0469F26EEFC7C3EBFBCBEB98462213924694B38DD98FE1D62C393D073EA4FADC5DAF04326852CCF6958F90F0F2B9BB5C48816348F90C7840A68EB78EDF68723159BCEE7891A6B95DDE9D3
310
BCEAEEE8086A6C6F9E5D4B59F0175C10A7A0820BAA5055C7473B5AE3CFDD452D602CD5DF12616444529E90D448938013FE6EFA58AA96F85E4F8C42275708571E98FE6827AF6B2B4AE3D7D83D64E5A64C53054DD3AF90BD06FEA9149565C94FCA0F6B834DC85599E4F2423B24DF0B6AFA979E534DFA9E7A4CC6FA631D486393
310
921829879BF5D781A373557BCB85E97FB90DB62B558F8795179C15944B051F40AB495CF35451D26A4727654E6D8033BD98EF82F21D91FF8AF2DD9982BCF1643BDD4EB516C9492E368C67C88DED563FC36D5EACF66DFF057C3658BDBFA69DF9578B3DA735B64F18C7F20770A9D45CFCF7FCF563D6456A277DBEF78A02637CA2
310
43B90A490AEAB94F72244481D24819A6C0E59B606BFA4B3025981DBB48EAB701D97BF19C577CC77F2D1B6C55A9EF3C732474C0B727303F625995056C3B02963D9EAC146BE78EC5FCEC7FA999EBC5EACBAAE41B12D27B4D2C0BBA49F244E2ECDC81B76B502F113D8F5EE8FB1BE3111CDD4FC2AA9B844CAB1288B68AB90A7CDC
310
1C166AB0D3DC5310625FCC14E779BFD0709F8890A629C9292B1B2DED31A4B0DA928CEE135085754027E3018A397D4D5427D15BD1330B677DC8934285AC3DF45A9EB68FF8F2B8FC0A509AFEECFD0FF2DE25CC6047F7214B195F07EFEB9A094D800F7BFAE8FED187B78EA8A3A400F115961BCAD1215E47C966530AF0EE8128FE
310
58CEBB996A8964FFA529A046635D9353B0336A8F700DDF46271A024E70B0B37C9DE01847591E54DED53D54202AB947E4076556AC49C6CA5C9E1226B7F1A7B1BE15DEED62C41B91E1B3E9AFAAA735036547343A925075041DF0A9979E893B391F8FCFA6967B3EFB644DCF6E5CEBFAE272625DCC6FAF3FB93793C5F90CE1EF57
310
407342756B10D1C489E8953CD1617E5CEECAD6F4EF8914CE5D5D504E5C3F1F9736DA62CFC11E00BCDDB8CC8A9466349744C1F75EBDA4DF09BA8A9E8C7A7E9991989E20E5DBDD6A6003664ED8F7A04A8DBE0DF6EAD9B9AA858342E47399053949D2C146EDB85DE4B176BB0965FBAC19BD19AA918E27FA50C1D22402E144464C
310
59462568E704B6E71915404CB72B8FF4EDE184DDAF753F284990D2C6926782963815403548A70C657FDEF80D2D9CEAA2AE4C1C76F60BFE74219A06527D6582DF6412526107381E55E353090704D085B52408D0933C4ED159D79BDA71BB4BC506F4831350EB6F979CD22D69BF7AC49B91A2C0A9DDA3D5CA36AD20FC478E37E6
310
1844E2352865EBCB6EA275A652E3836BE04EFB400BF1A2556F515F1FBB35B2AB35BD889C744FFA1004B5544B121E57F70215746DD2F5E2C1412B602CBF19455AC6C8E5E9922C4E01E65215385004546899059180EAFCF7A707CE7017CD8CDB0410789AB32C63B91E5CEBBBACB17AC6CD347A022D5075FD106377347AAABA7E
310
7D11590744509B44E205134DC1290F06580320F78E537D3D73540E06CB970B431F185308AD40BBD794D6D77003C5A36E8EAA54BA64597CD8F83BD552A080A365F7FF06504B0304140006080000CC70623B000000000000000000000000350000006662782F39464131463745442D413632322D343644302D413938332D3331
310
353338454246344243312F76657274696365732E62696E504B0304140006080800CC70623BF270F1330600000004000000360000006662782F39464131463745442D413632322D343644302D413938332D3331353338454246344243312F747269616E676C65732E62696E636660600000504B0304140006080000CC70623B
310
000000000000000000000000370000006662782F39464131463745442D413632322D343644302D413938332D3331353338454246344243312F617474726962757465732E62696E504B0304140006080800CC70623B08DA0BD19000000041010000360000006662782F39464131463745442D413632322D343644302D413938
310
332D3331353338454246344243312F6469726563746F72792E786D6C858F410AC3201045AF22B36F53E9A60B35CBEEBAE80D244E44489C6234F4F835464A48035D0DF398FF9F8AF63D0E6CC63039F212F8F9020C7D47C6792B21C5FE7403D62A1188E2E60C98D7234A5830286103A55745067B9D86B8A3CF9C7F90C11DE607
310
FB144396D7B6A82D282E9A152AD114D5EF2CB866EEE831B8EEA07A7BB5A8D7D61A2BAAEB7FD5F70921FF497D00504B0304140006080800CC70623B0D6EF93BFE000000A00100003B0000006662782F39464131463745442D413632322D343644302D413938332D3331353338454246344243312F7265736F75726365732F63
310
6F72652E786D6C8D50596E833010BD0A9ADFCA60B334011947A8694ED00B586642AC041B79A97AFC9A40A5F6AF3F33A3B7689E1E3F7DCD8FEC139DD7D6F4C0720A191A65476DA61E62B892236427C19DB5E1970C322367EC618541F0C9D9B8EC90B226A009093576C41D94DE63804C3DD2D18357379C652E63480A7FCF17A9
310
EE72C29CE5894E3AC17D702940B63D59270887DE46A7D0F36263058F518FBB468FE9A7BE6A7420864373B8D4873369AA8691FA421B3294352543C5CAF65C0F6FEF43CB8BD52C78D0F34F46E550061C419494B6843142CB0F5677F4B52BEB177AEC28E5C52AFF638ACBF84F53D42654E51E77B379102C05791282176B5F693D
310
CB4C7BED567C03504B010214000A0000080000CC70623B3DEE336E79000000790000001B00000000000000000000000000000000006175746F6465736B2D64657369676E2D7061636B6167652E786D6C504B01021400140006080800CC70623BD486FD9CA0000000F40000001300000000000000000000000000B20000005B
310
436F6E74656E745F54797065735D2E786D6C504B01021400140006080800CC70623B1EC5D7A3EB0000007C010000080000000000000000000000000083010000636F72652E786D6C504B01021400140006080800CC70623B55019EA25F0000007C000000070000000000000000000000000094020000636E782E786D6C504B
310
01021400140006080800CC70623B8C9102E971010000D40300000C00000000000000000000000000180300006662782F636F72652E786D6C504B01021400140006080800CC70623BFFEA85907E0000009D0000000B00000000000000000000000000B30400006662782F636E782E786D6C504B01021400140006080800CC70
310
623B4FEEA4082C0100001202000031000000000000000000000000005A0500006662782F39464131463745442D413632322D343644302D413938332D3331353338454246344243312F636F72652E786D6C504B01021400140006080800CC70623BAD7543B64E010000330300003000000000000000000000000000D5060000
310
6662782F39464131463745442D413632322D343644302D413938332D3331353338454246344243312F636E782E786D6C504B01021400140006080800CC70623B16AB87BA640500003C1000003400000000000000000000000000710800006662782F39464131463745442D413632322D343644302D413938332D3331353338
310
454246344243312F6F626A656374732E786D6C504B01021400140006080000CC70623B0000000000000000000000003500000000000000000000000000270E00006662782F39464131463745442D413632322D343644302D413938332D3331353338454246344243312F76657274696365732E62696E504B01021400140006
310
080800CC70623BF270F133060000000400000036000000000000000000000000007A0E00006662782F39464131463745442D413632322D343644302D413938332D3331353338454246344243312F747269616E676C65732E62696E504B01021400140006080000CC70623B0000000000000000000000003700000000000000
310
000000000000D40E00006662782F39464131463745442D413632322D343644302D413938332D3331353338454246344243312F617474726962757465732E62696E504B01021400140006080800CC70623B08DA0BD190000000410100003600000000000000000000000000290F00006662782F39464131463745442D413632
310
322D343644302D413938332D3331353338454246344243312F6469726563746F72792E786D6C504B01021400140006080800CC70623B0D6EF93BFE000000A00100003B000000000000000000000000000D1000006662782F39464131463745442D413632322D343644302D413938332D3331353338454246344243312F7265
310
736F75726365732F636F72652E786D6C504B0506000000000E000E0080040000641100000000
  0
XRECORD
  5
175
102
{ACAD_REACTORS
330
173
102
}
330
173
100
AcDbXrecord
280
     1
270
     1
271
     1
  0
XRECORD
  5
174
102
{ACAD_REACTORS
330
173
102
}
330
173
100
AcDbXrecord
280
     1
270
     1
271
     1
  0
XRECORD
  5
1FB
102
{ACAD_REACTORS
330
173
102
}
330
173
100
AcDbXrecord
280
     1
 70
     0
 90
1673772943
  1
ECE7A1D2-D628-4531-984C-D00F80459256
310
504B03040A0000080000CC70623B3DEE336E79000000790000001B0000006175746F6465736B2D64657369676E2D7061636B6167652E786D6C3C3F786D6C2076657273696F6E3D22312E302220656E636F64696E673D227574662D3822203F3E3C666F726D6174733E3C666F726D61743E687474703A2F2F736368656D612E
310
6175746F6465736B2E636F6D2F64657369676E2D7061636B6167652F323030393C2F666F726D61743E3C2F666F726D6174733E504B0304140006080800CC70623BD486FD9CA0000000F4000000130000005B436F6E74656E745F54797065735D2E786D6C7D8EC10E82300C865F65E91D8A1E8C310C0EEA1BF002731658846E
310
D98AC1B77784ABF1D8FE5FBFBF75BBCE937A534CCEB38643598122B6FEE978D0B0485F9C41B54DDD7D022595594E1A469170414C76A4D9A4D207E29CF43ECE46F218070CC6BECC4078ACAA135ACF422C856C0E68EA1BF5669944DDD7BCDE7B1F8E415D77AECB980613C2E4AC91FC167A2B244592486606FC29C8FD7F045B9A
310
EF7053A7E60B504B0304140006080800CC70623BD9DDAED0EC0000007C01000008000000636F72652E786D6C8D90416EC3201045AF82665B61836D9CD8C2444DD39CA01740405C94182C03558F5F9C3852BBEB6A467FFE9B197D7EF89E6EE8CB2CC17A37002D0820E394D7D68D03A478C17B4007C117EFE32F1B20272733C0
310
2A83E0E3E2D3BC49CABB685CCCAAF3DA6CA20CC14440EA969B0182FA34932C648AD911AEC52CD5558EA6A0CF2EC329598D1E47ACCEFBECC59A050463A7EA5833865FEBDD0E37353BE3EE8DBDE3F6786A48D375FBF6CC78B9C282473B3DEFABC5C86834888A900E538A49F5419B9EB47DD5BC907D4F082F57FB1F28CDFA9F50
310
B22ED6D5F6EE030B20687EE43E10BC5CB3C8E51E54AE6B6EE207504B0304140006080800CC70623B55019EA25F0000007C00000007000000636E782E786D6C4DCB3B0E80201045D1AD90E915ED2CF8AC45050C11660C8261F98AB1B07AC9C97D42D718D865D3E909258CFD00CCE24AC6E326A164D74DC0B4128928FF326038
310
472BA13128B1252AC747C6BAB984FC68F0B87FE8960A5C09FE86CFB69FBA01504B0304140006080800CC70623BA24EB22D72010000D40300000C0000006662782F636F72652E786D6CC5535B6E833010BC8AE5DF0A6C5E49888CA3A6694ED00B38E05014B091B1518EDFE511A5A9D228FD2A1F60CDEC7A67C6986DCE4D8D7A
310
69BA4AAB0C073EC548AA5C17952A33ECECD15B61B4E1CC686DBF9561A44423333CC098B3D268D7CE50AE9595CA02AA74216750749DB418E5352C32DCE59FB211BE70162ABA93DF8AFC244AE9073ED050C759670D0840D390E18DF9F1706664C23973AE2A66B62A605A75ACA4C13C4976E1364A12EF355A2EBD384AF65EFA96
310
BC7B8BED2EA6719AAE16FB8491A199335B351775B991C2CA02F390D2D40B028F861F41BCA68B7518BFD0D59A524686F29B26D7164F36B94AD9289CE54E6D1DE6010819891F6E21228B3AD1831EC219194284CF98F06DD01008846CC5A1BEF83801D4CBDC6A1303536877A57A513B0953A94FC707FDBE6064EA84A9E3E6E0FA
310
EE8CF0E9198F7784A316AA0413C2C2F2E0ECA0934D1AE6D05A69BCDE9E91D2A611F573361E38FC1375157F5752AE6B6DFE4B11990F88CCBF0719EE23FF02504B0304140006080800CC70623B408A7D3B7C0000009D0000000B0000006662782F636E782E786D6C4DCCD10A83201886E15B91FFDC552A92A0064DBC8F581632
310
D3703A76F9ABD1C18E3E78F878E5F0D9027ABBFCF2292AE86E2D20171F69F6715550CB827B40839639A5F2770314A7CD293819B45C73AAFB45B35BA61ACAA1C1C7E7855C58C15BC331339661262CC762340413D68D77DA5B42298546CBE6573AF60CEB2F504B0304140006080800CC70623B449FB9BD290100001202000031
310
0000006662782F36394639363044362D344446342D343946362D394244322D3234314243333846323333332F636F72652E786D6C8D515B6EC32010BC0AE22B55850D98B871848994463E412FE002495162B07854397EA176A4F62F3F2C9A9D991D587EB84F37F0AD7D30CEF6905418026DA553C65E7A98E219ED203808EE9D
310
8B7F6810D871D23D2C3014FCE25D9A57483A1BB58D19B54EE9151C43D0110279CB971E06F9A5A7B11A53CC8C70ADE6515EC78BAE4895DB992778883E0700CB907242D17643D7E2538BD869608875438BBAE38922CAC8F1BDD90DB4691A5E2F42C153326A951B95E398B3D1FE599322163C9AE9115F7A3D46ADA0A018778810
310
84E907617BDCEE297BC5BB3DC6BC2EF47FA234AB2745C9D8D8D035EE220B50105E2F0DC1954B9FB747187D9F9D8FA0CCDB042D5FA0C015C65B42DF78BD10F3F3B363CB56C7109DCFDFBBB97E662ED92EB62D13BC2E1BCAE5777DB9966D8A1F504B0304140006080800CC70623BAD7543B64E01000033030000300000006662
310
782F36394639363044362D344446342D343946362D394244322D3234314243333846323333332F636E782E786D6CD593CD6EC32010845F0571AD6CE3D48AD20813A9873E410FBD12D82434182C7EAAE6EDBB2424CD25871E7B41D6EC30B3FA84F9E67BB2E40B4234DE8DB46F1925E094D7C6ED479AD3AE5951B2113C789FEE
310
6C943839C1488B4C05DF079FE72A69D8C96C13AAD6B8631503449F83828872B949AC57D26200B826A308D316B4064D6E46FCDA41C05550DC9E483A00797BFD207EFB092A45DE9514C1BBD22178396BD39D891265658C238DEA00936C654E5E433CB65A26D9F6EDB5EBC14EBF49A45CB856E66048291F6939A9A81BB5C89177
310
38143CA680F4AA299D66A042CEB3354A2684DC9D8D178FE0D9B8B41CAAD720F880EE7EF93C0C18769E099ECC04D5A102C8049A8A05632F4DDF376CF1DE0F6BB65C2F8627B65A33C6BB62177CEBBDAD973006829F89F22E814B54F4BC2BE347F8AA8F681390B50FA73F804400B5F542E796F19FF974E7F78DB802FE05E20750
310
4B0304140006080800CC70623B8D05915C650500003B100000340000006662782F36394639363044362D344446342D343946362D394244322D3234314243333846323333332F6F626A656374732E786D6CAD575B6FA33814FE2B887D06429276DA1565D4266D158D3A339A6846FB502932E050B66023DB74D2FDF5FB190C01
310
9276B2973C046C8ECFF53B17071F77456EBD502133CEAE6CDF9DD81665314F32965ED995DA3A17B6F5310C04E7AA47665B8C14F4CAD6DB7618A48257A5D94AE89654B91AEDDEDDFC61C998326A5B714EA4BCB265FC440BE2924AF184CA6737218AB8E976E7FA6E4338649B0A523E8D98964450A6A029F619B8588D52FE7039
310
B1BD30F0F4F730D0FF866AF6369557DB33949F31A9088B0F848DD8CCFCF9F2767A76E99CCDE733677E3EF59D9BBB9BA5E37F984D16E78BC5E5F5ED25044B25C0C96822E8D60EEFE11B91C581D77CEA34368A1F5329E68CD1B8B61F16D63A1B8E092D294B10C78C4A48EB593D192E7DED9BDEE7995E1B91FDEDD3ACEA9FE831
310
6A756F9F7D4D79F4274C90A7A04248AA51D5F8C718DAE06FB2F75AC4796EBE65D22A88A22223B995679120E2D50E41AA49C260C046A35368846B0BECD0DFF3EBEB8AD4F835768F69B9ADF25C43D30E6B646F807FAA64AD59F61715C7A54127C4AACA98BA3006A9D792DAE165E0D59B61A01FB3A9F9D838D2DAE62445C86166
310
F37564E842E7DE6A69879FEEA2DD5AE7E371E1A5E025154AC307D06A03D73EB5978C58FFA4C8E9033066E0F3BD53BEC1F39F91BE7B55103791EDE6BBB991A2046172CB4581D8B893FA674DDA17A77B3B7C413D1B511FD2743BFF8A38F03A658705E3ADF8015C3A3417FF3D7E439FF591DA0B5F18BC20C1B8981957AE6392A3
310
F43C640C01D1A0B4728E2DD4F26DB4B3C3152A252A3B4E913CEC1C72F012782FF88EFF8637AA552DBEF76408E8A8DE9E50F9E1CB3A2DA0DB1B6039A893B56063DC5B3E3FFB5F72E67AB9FEB4AEC496C4F4C1149625DD662C53E89D7BF0F6151A046260D1337DFDC94502430F83B0EE07A130A224BCAD7DAE1D9FB6CD422FF6
310
920702629C4BB9AE79C12F243C6432A6794E18E5552BA56B431AAB5D91317302B2B071E86C3A42B1A02F999E24061403B5D0EB639195DA655DD3EBEAB4FB862DDF579F014AD0E73C22F99E28DA57FB98E75C6CA2D74D53086D600F4786E0FE3144B771A8A7B900F03594DB8A633CBC49B2EDB69228BB479CF863B5E807AAAB
310
23872F6DFEB4129B949CA33823F58830E86D65621E10047D9DB34D862E8EAC3C2ABC2F7B2C40D67CDFE01F5545B92105AF983AC54D93D69E56FB8E797F88913F898A9FEC705D3F9D1B54EC8426FB500D40A03BD0119B06E1B95DDC7EB8F6975367793EBD70E66733DFB9BC982F9CE564727731999F5D4ECFCE3B8D6A4DC2A0
310
6D50FD148437D110834A64C6CDDF57FBACB5C307A2A477DFE4939736CFEF2B175371E0E10CF0DD1D5C15654E0BCA14D1E87DD02FF93782A162C0A3D95F1524A52770F972BF1EE9809D13CE7DD599467F8ECE9ADD85CE85A34CD45355448C64F9E8A031DC2D596ACC6E5DD93D9B82DE2EF5CAF81363A8E47996A0DE24564A79
310
4115AACE09C55E14540231FDA13C319787134EBF34E3A022514E5B4D9E0826E25C02D5805B15ABE1BEF51B26383D445DD9E875EE33FE4C22DA16427D65A3BCA92CA6D28DD01DF5DC53330704308475351050232CCD31583787BA75774AFB06E5070DD0C8EF484E19968C5D83BA5B90B244D31E54D55A372320FE4786B7EA58
310
44E135AA5467CB7EA333A61683CC6A8C3257034C10CF46F40EF9F5BE59BE5BD30C3C72D235E95D10345C1D45445A5F0BB47E46A5EBE5570F9380B5FA629579952296A773720405982B9DE04011506178964401AA8BDF1FBF0A8EAB6861DD6580C0E38217056766716DAEB2D6FA0917D3E4116581EADB879C4E7CFFB11EFACD
310
3D641311495D92C8676CB409A72D18610D803CE8A626049E8EC1887CB5B44CC39883690DDA8399B4B9855B481E7D71D4A9D22F96E5BB73BF5793020C02137BF837504B0304140006080000CC70623B000000000000000000000000350000006662782F36394639363044362D344446342D343946362D394244322D32343142
310
43333846323333332F76657274696365732E62696E504B0304140006080800CC70623BF270F1330600000004000000360000006662782F36394639363044362D344446342D343946362D394244322D3234314243333846323333332F747269616E676C65732E62696E636660600000504B0304140006080000CC70623B0000
310
00000000000000000000370000006662782F36394639363044362D344446342D343946362D394244322D3234314243333846323333332F617474726962757465732E62696E504B0304140006080800CC70623B08DA0BD19000000041010000360000006662782F36394639363044362D344446342D343946362D394244322D
310
3234314243333846323333332F6469726563746F72792E786D6C858F410AC3201045AF22B36F53E9A60B35CBEEBAE80D244E44489C6234F4F835464A48035D0DF398FF9F8AF63D0E6CC63039F212F8F9020C7D47C6792B21C5FE7403D62A1188E2E60C98D7234A5830286103A55745067B9D86B8A3CF9C7F90C11DE607FB14
310
4396D7B6A82D282E9A152AD114D5EF2CB866EEE831B8EEA07A7BB5A8D7D61A2BAAEB7FD5F70921FF497D00504B0304140006080800CC70623BCA768048FE000000A00100003B0000006662782F36394639363044362D344446342D343946362D394244322D3234314243333846323333332F7265736F75726365732F636F72
310
652E786D6C8D50596E833010BD0A9ADFCA60D600328E9AA639412F609909B1126CE4A5EAF16B0295DABFFECC8CDEA2797AECF8353F924FB44E193D409E5248504B332A3D0D10FC95B4901C39B3C6F85F3248B49871801506CE266BC2B243D2688FDA47549B11775038871E12F988C7004EDE7016A9083E2ADC3D5D84BC8B09
310
D33C8D74D471E6BC8D0192EDC93A815B742658898E651BCB59086ADC356A8C3FD555A1055ED7E7E254D615792D0F075295F585746FF53B694EE78A565DD736979A65AB9933AFE69F8CD2A2F038022F28ED489E135A7CE4554F9BBEA85E68DB53CAB255FEC71496F19FA6A0B42F8B3DEE6673C0F318E4497096AD7DC5F52C33
310
EEB55BFE0D504B010214000A0000080000CC70623B3DEE336E79000000790000001B00000000000000000000000000000000006175746F6465736B2D64657369676E2D7061636B6167652E786D6C504B01021400140006080800CC70623BD486FD9CA0000000F40000001300000000000000000000000000B20000005B436F
310
6E74656E745F54797065735D2E786D6C504B01021400140006080800CC70623BD9DDAED0EC0000007C010000080000000000000000000000000083010000636F72652E786D6C504B01021400140006080800CC70623B55019EA25F0000007C000000070000000000000000000000000095020000636E782E786D6C504B0102
310
1400140006080800CC70623BA24EB22D72010000D40300000C00000000000000000000000000190300006662782F636F72652E786D6C504B01021400140006080800CC70623B408A7D3B7C0000009D0000000B00000000000000000000000000B50400006662782F636E782E786D6C504B01021400140006080800CC70623B
310
449FB9BD290100001202000031000000000000000000000000005A0500006662782F36394639363044362D344446342D343946362D394244322D3234314243333846323333332F636F72652E786D6C504B01021400140006080800CC70623BAD7543B64E010000330300003000000000000000000000000000D20600006662
310
782F36394639363044362D344446342D343946362D394244322D3234314243333846323333332F636E782E786D6C504B01021400140006080800CC70623B8D05915C650500003B10000034000000000000000000000000006E0800006662782F36394639363044362D344446342D343946362D394244322D32343142433338
310
46323333332F6F626A656374732E786D6C504B01021400140006080000CC70623B0000000000000000000000003500000000000000000000000000250E00006662782F36394639363044362D344446342D343946362D394244322D3234314243333846323333332F76657274696365732E62696E504B010214001400060808
310
00CC70623BF270F13306000000040000003600000000000000000000000000780E00006662782F36394639363044362D344446342D343946362D394244322D3234314243333846323333332F747269616E676C65732E62696E504B01021400140006080000CC70623B00000000000000000000000037000000000000000000
310
00000000D20E00006662782F36394639363044362D344446342D343946362D394244322D3234314243333846323333332F617474726962757465732E62696E504B01021400140006080800CC70623B08DA0BD190000000410100003600000000000000000000000000270F00006662782F36394639363044362D344446342D
310
343946362D394244322D3234314243333846323333332F6469726563746F72792E786D6C504B01021400140006080800CC70623BCA768048FE000000A00100003B000000000000000000000000000B1000006662782F36394639363044362D344446342D343946362D394244322D3234314243333846323333332F7265736F
310
75726365732F636F72652E786D6C504B0506000000000E000E0080040000621100000000
  0
XRECORD
  5
176
102
{ACAD_REACTORS
330
173
102
}
330
173
100
AcDbXrecord
280
     1
270
     1
271
     1
  0
XRECORD
  5
177
102
{ACAD_REACTORS
330
173
102
}
330
173
100
AcDbXrecord
280
     1
270
     1
271
     1
  0
XRECORD
  5
B14
102
{ACAD_REACTORS
330
B13
102
}
330
B13
100
AcDbXrecord
280
     1
102
DISPLAYNAME
  1
Imperial24
102
FLAGS
 90
        0
  0
XRECORD
  5
B10
102
{ACAD_REACTORS
330
B0F
102
}
330
B0F
100
AcDbXrecord
280
     1
102
DISPLAYNAME
  1
Metric50
102
FLAGS
 90
        0
  0
CELLSTYLEMAP
  5
B05
102
{ACAD_REACTORS
330
162
102
}
330
162
100
AcDbCellStyleMap
 90
        3
300
CELLSTYLE
  1
TABLEFORMAT_BEGIN
 90
        5
170
     1
 91
        0
 92
    32768
 62
   257
 93
        1
300
CONTENTFORMAT
  1
CONTENTFORMAT_BEGIN
 90
        0
 91
        0
 92
      512
 93
        0
300

 40
0.0
140
1.0
 94
        5
 62
     0
340
11
144
6.0
309
CONTENTFORMAT_END
171
     1
301
MARGIN
  1
CELLMARGIN_BEGIN
 40
1.5
 40
1.5
 40
1.5
 40
1.5
 40
4.5
 40
4.5
309
CELLMARGIN_END
 94
        6
 95
        1
302
GRIDFORMAT
  1
GRIDFORMAT_BEGIN
 90
        0
 91
        1
 62
     0
 92
       -2
340
14
 93
        0
 40
1.125
309
GRIDFORMAT_END
 95
        2
302
GRIDFORMAT
  1
GRIDFORMAT_BEGIN
 90
        0
 91
        1
 62
     0
 92
       -2
340
14
 93
        0
 40
1.125
309
GRIDFORMAT_END
 95
        4
302
GRIDFORMAT
  1
GRIDFORMAT_BEGIN
 90
        0
 91
        1
 62
     0
 92
       -2
340
14
 93
        0
 40
1.125
309
GRIDFORMAT_END
 95
        8
302
GRIDFORMAT
  1
GRIDFORMAT_BEGIN
 90
        0
 91
        1
 62
     0
 92
       -2
340
14
 93
        0
 40
1.125
309
GRIDFORMAT_END
 95
       16
302
GRIDFORMAT
  1
GRIDFORMAT_BEGIN
 90
        0
 91
        1
 62
     0
 92
       -2
340
14
 93
        0
 40
1.125
309
GRIDFORMAT_END
 95
       32
302
GRIDFORMAT
  1
GRIDFORMAT_BEGIN
 90
        0
 91
        1
 62
     0
 92
       -2
340
14
 93
        0
 40
1.125
309
GRIDFORMAT_END
309
TABLEFORMAT_END
  1
CELLSTYLE_BEGIN
 90
        1
 91
        1
300
_TITLE
309
CELLSTYLE_END
300
CELLSTYLE
  1
TABLEFORMAT_BEGIN
 90
        5
170
     1
 91
        0
 92
        0
 62
   257
 93
        1
300
CONTENTFORMAT
  1
CONTENTFORMAT_BEGIN
 90
        0
 91
        0
 92
      512
 93
        0
300

 40
0.0
140
1.0
 94
        5
 62
     0
340
11
144
4.5
309
CONTENTFORMAT_END
171
     1
301
MARGIN
  1
CELLMARGIN_BEGIN
 40
1.5
 40
1.5
 40
1.5
 40
1.5
 40
4.5
 40
4.5
309
CELLMARGIN_END
 94
        6
 95
        1
302
GRIDFORMAT
  1
GRIDFORMAT_BEGIN
 90
        0
 91
        1
 62
     0
 92
       -2
340
14
 93
        0
 40
1.125
309
GRIDFORMAT_END
 95
        2
302
GRIDFORMAT
  1
GRIDFORMAT_BEGIN
 90
        0
 91
        1
 62
     0
 92
       -2
340
14
 93
        0
 40
1.125
309
GRIDFORMAT_END
 95
        4
302
GRIDFORMAT
  1
GRIDFORMAT_BEGIN
 90
        0
 91
        1
 62
     0
 92
       -2
340
14
 93
        0
 40
1.125
309
GRIDFORMAT_END
 95
        8
302
GRIDFORMAT
  1
GRIDFORMAT_BEGIN
 90
        0
 91
        1
 62
     0
 92
       -2
340
14
 93
        0
 40
1.125
309
GRIDFORMAT_END
 95
       16
302
GRIDFORMAT
  1
GRIDFORMAT_BEGIN
 90
        0
 91
        1
 62
     0
 92
       -2
340
14
 93
        0
 40
1.125
309
GRIDFORMAT_END
 95
       32
302
GRIDFORMAT
  1
GRIDFORMAT_BEGIN
 90
        0
 91
        1
 62
     0
 92
       -2
340
14
 93
        0
 40
1.125
309
GRIDFORMAT_END
309
TABLEFORMAT_END
  1
CELLSTYLE_BEGIN
 90
        2
 91
        1
300
_HEADER
309
CELLSTYLE_END
300
CELLSTYLE
  1
TABLEFORMAT_BEGIN
 90
        5
170
     1
 91
        0
 92
        0
 62
   257
 93
        1
300
CONTENTFORMAT
  1
CONTENTFORMAT_BEGIN
 90
        0
 91
        0
 92
      512
 93
        0
300

 40
0.0
140
1.0
 94
        2
 62
     0
340
11
144
4.5
309
CONTENTFORMAT_END
171
     1
301
MARGIN
  1
CELLMARGIN_BEGIN
 40
1.5
 40
1.5
 40
1.5
 40
1.5
 40
4.5
 40
4.5
309
CELLMARGIN_END
 94
        6
 95
        1
302
GRIDFORMAT
  1
GRIDFORMAT_BEGIN
 90
        0
 91
        1
 62
     0
 92
       -2
340
14
 93
        0
 40
1.125
309
GRIDFORMAT_END
 95
        2
302
GRIDFORMAT
  1
GRIDFORMAT_BEGIN
 90
        0
 91
        1
 62
     0
 92
       -2
340
14
 93
        0
 40
1.125
309
GRIDFORMAT_END
 95
        4
302
GRIDFORMAT
  1
GRIDFORMAT_BEGIN
 90
        0
 91
        1
 62
     0
 92
       -2
340
14
 93
        0
 40
1.125
309
GRIDFORMAT_END
 95
        8
302
GRIDFORMAT
  1
GRIDFORMAT_BEGIN
 90
        0
 91
        1
 62
     0
 92
       -2
340
14
 93
        0
 40
1.125
309
GRIDFORMAT_END
 95
       16
302
GRIDFORMAT
  1
GRIDFORMAT_BEGIN
 90
        0
 91
        1
 62
     0
 92
       -2
340
14
 93
        0
 40
1.125
309
GRIDFORMAT_END
 95
       32
302
GRIDFORMAT
  1
GRIDFORMAT_BEGIN
 90
        0
 91
        1
 62
     0
 92
       -2
340
14
 93
        0
 40
1.125
309
GRIDFORMAT_END
309
TABLEFORMAT_END
  1
CELLSTYLE_BEGIN
 90
        3
 91
        2
300
_DATA
309
CELLSTYLE_END
  0
ENDSEC
  0
SECTION
  2
ACDSDATA
 70
     2
 71
     8
  0
ACDSSCHEMA
 90
        0
  1
AcDb_Thumbnail_Schema
  2
AcDbDs::ID
280
    10
 91
        8
  2
Thumbnail_Data
280
    15
 91
        0
101
ACDSRECORD
 95
        0
 90
        1
  2
AcDbDs::TreatedAsObjectData
280
     1
291
     1
101
ACDSRECORD
 95
        0
 90
        2
  2
AcDbDs::Legacy
280
     1
291
     1
101
ACDSRECORD
  1
AcDbDs::ID
 90
        3
  2
AcDs:Indexable
280
     1
291
     1
101
ACDSRECORD
  1
AcDbDs::ID
 90
        4
  2
AcDbDs::HandleAttribute
280
     7
282
     1
  0
ACDSSCHEMA
 90
        1
  1
AcDbDs::TreatedAsObjectDataSchema
  2
AcDbDs::TreatedAsObjectData
280
     1
 91
        0
  0
ACDSSCHEMA
 90
        2
  1
AcDbDs::LegacySchema
  2
AcDbDs::Legacy
280
     1
 91
        0
  0
ACDSSCHEMA
 90
        3
  1
AcDbDs::IndexedPropertySchema
  2
AcDs:Indexable
280
     1
 91
        0
  0
ACDSSCHEMA
 90
        4
  1
AcDbDs::HandleAttributeSchema
  2
AcDbDs::HandleAttribute
280
     7
 91
        1
284
     1
  0
ACDSRECORD
 90
        0
  2
AcDbDs::ID
280
    10
320
22
  2
Thumbnail_Data
280
    15
 94
      896
310
89504E470D0A1A0A0000000D49484452000001000000009108030000001BE1960600000300504C5445212830FFFFFF2128300000000000000000000000000000000000000000000000000000330000660000990000CC0000FF0033000033330033660033990033CC0033FF0066000066330066660066990066CC0066FF0099
310
000099330099660099990099CC0099FF00CC0000CC3300CC6600CC9900CCCC00CCFF00FF0000FF3300FF6600FF9900FFCC00FFFF3300003300333300663300993300CC3300FF3333003333333333663333993333CC3333FF3366003366333366663366993366CC3366FF3399003399333399663399993399CC3399FF33CC00
310
33CC3333CC6633CC9933CCCC33CCFF33FF0033FF3333FF6633FF9933FFCC33FFFF6600006600336600666600996600CC6600FF6633006633336633666633996633CC6633FF6666006666336666666666996666CC6666FF6699006699336699666699996699CC6699FF66CC0066CC3366CC6666CC9966CCCC66CCFF66FF0066
310
FF3366FF6666FF9966FFCC66FFFF9900009900339900669900999900CC9900FF9933009933339933669933999933CC9933FF9966009966339966669966999966CC9966FF9999009999339999669999999999CC9999FF99CC0099CC3399CC6699CC9999CCCC99CCFF99FF0099FF3399FF6699FF9999FFCC99FFFFCC0000CC00
310
33CC0066CC0099CC00CCCC00FFCC3300CC3333CC3366CC3399CC33CCCC33FFCC6600CC6633CC6666CC6699CC66CCCC66FFCC9900CC9933CC9966CC9999CC99CCCC99FFCCCC00CCCC33CCCC66CCCC99CCCCCCCCCCFFCCFF00CCFF33CCFF66CCFF99CCFFCCCCFFFFFF0000FF0033FF0066FF0099FF00CCFF00FFFF3300FF3333
310
FF3366FF3399FF33CCFF33FFFF6600FF6633FF6666FF6699FF66CCFF66FFFF9900FF9933FF9966FF9999FF99CCFF99FFFFCC00FFCC33FFCC66FFCC99FFCCCCFFCCFFFFFF00FFFF33FFFF66FFFF99FFFFCCFFFFFF0000000D0D0D1A1A1A2828283535354343435050505D5D5D6B6B6B787878868686939393A1A1A1AEAEAEBB
310
BBBBC9C9C9D6D6D6E4E4E4F1F1F1FFFFFF0000000000000000000000000000000000000000000000000000000000002E4550F10000003B4944415478DAEDC13101000000C2A0F54F6D0B2FA0000000000000000000000000000000000000000000000000000000000000000000000000CE06919100016C9A5B1B0000000049
310
454E44AE426082
  0
ENDSEC
  0
EOF
