  0
SECTION
  2
HEADER
  9
$ACADVER
  1
AC1027
  9
$ACADMAINTVER
 70
   125
  9
$DWGCODEPAGE
  3
ANSI_1252
  9
$LASTSAVEDBY
  1
ufficio.tecnico
  9
$REQUIREDVERSIONS
160
                 0
  9
$INSBASE
 10
0.0
 20
0.0
 30
0.0
  9
$EXTMIN
 10
5.63639462185081
 20
-263.4171684454305
 30
0.0
  9
$EXTMAX
 10
200.3746771417466
 20
-24.29181030872885
 30
0.0
  9
$LIMMIN
 10
0.0
 20
0.0
  9
$LIMMAX
 10
12.0
 20
9.0
  9
$ORTHOMODE
 70
     0
  9
$REGENMODE
 70
     1
  9
$FILLMODE
 70
     1
  9
$QTEXTMODE
 70
     0
  9
$MIRRTEXT
 70
     0
  9
$LTSCALE
 40
1.0
  9
$ATTMODE
 70
     1
  9
$TEXTSIZE
 40
0.2
  9
$TRACEWID
 40
0.05
  9
$TEXTSTYLE
  7
Standard
  9
$CLAYER
  8
0
  9
$CELTYPE
  6
ByLayer
  9
$CECOLOR
 62
   256
  9
$CELTSCALE
 40
1.0
  9
$DISPSILH
 70
     0
  9
$DIMSCALE
 40
1.0
  9
$DIMASZ
 40
0.18
  9
$DIMEXO
 40
0.0625
  9
$DIMDLI
 40
0.38
  9
$DIMRND
 40
0.0
  9
$DIMDLE
 40
0.0
  9
$DIMEXE
 40
0.18
  9
$DIMTP
 40
0.0
  9
$DIMTM
 40
0.0
  9
$DIMTXT
 40
0.18
  9
$DIMCEN
 40
0.09
  9
$DIMTSZ
 40
0.0
  9
$DIMTOL
 70
     0
  9
$DIMLIM
 70
     0
  9
$DIMTIH
 70
     1
  9
$DIMTOH
 70
     1
  9
$DIMSE1
 70
     0
  9
$DIMSE2
 70
     0
  9
$DIMTAD
 70
     0
  9
$DIMZIN
 70
     0
  9
$DIMBLK
  1

  9
$DIMASO
 70
     1
  9
$DIMSHO
 70
     1
  9
$DIMPOST
  1

  9
$DIMAPOST
  1

  9
$DIMALT
 70
     0
  9
$DIMALTD
 70
     2
  9
$DIMALTF
 40
25.4
  9
$DIMLFAC
 40
1.0
  9
$DIMTOFL
 70
     0
  9
$DIMTVP
 40
0.0
  9
$DIMTIX
 70
     0
  9
$DIMSOXD
 70
     0
  9
$DIMSAH
 70
     0
  9
$DIMBLK1
  1

  9
$DIMBLK2
  1

  9
$DIMSTYLE
  2
Standard
  9
$DIMCLRD
 70
     0
  9
$DIMCLRE
 70
     0
  9
$DIMCLRT
 70
     0
  9
$DIMTFAC
 40
1.0
  9
$DIMGAP
 40
0.09
  9
$DIMJUST
 70
     0
  9
$DIMSD1
 70
     0
  9
$DIMSD2
 70
     0
  9
$DIMTOLJ
 70
     1
  9
$DIMTZIN
 70
     0
  9
$DIMALTZ
 70
     0
  9
$DIMALTTZ
 70
     0
  9
$DIMUPT
 70
     0
  9
$DIMDEC
 70
     4
  9
$DIMTDEC
 70
     4
  9
$DIMALTU
 70
     2
  9
$DIMALTTD
 70
     2
  9
$DIMTXSTY
  7
Standard
  9
$DIMAUNIT
 70
     0
  9
$DIMADEC
 70
     0
  9
$DIMALTRND
 40
0.0
  9
$DIMAZIN
 70
     0
  9
$DIMDSEP
 70
    46
  9
$DIMATFIT
 70
     3
  9
$DIMFRAC
 70
     0
  9
$DIMLDRBLK
  1

  9
$DIMLUNIT
 70
     2
  9
$DIMLWD
 70
    -2
  9
$DIMLWE
 70
    -2
  9
$DIMTMOVE
 70
     0
  9
$DIMFXL
 40
1.0
  9
$DIMFXLON
 70
     0
  9
$DIMJOGANG
 40
0.7853981633974483
  9
$DIMTFILL
 70
     0
  9
$DIMTFILLCLR
 70
     0
  9
$DIMARCSYM
 70
     0
  9
$DIMLTYPE
  6

  9
$DIMLTEX1
  6

  9
$DIMLTEX2
  6

  9
$DIMTXTDIRECTION
 70
     0
  9
$LUNITS
 70
     2
  9
$LUPREC
 70
     4
  9
$SKETCHINC
 40
0.1
  9
$FILLETRAD
 40
0.0
  9
$AUNITS
 70
     0
  9
$AUPREC
 70
     0
  9
$MENU
  1
.
  9
$ELEVATION
 40
0.0
  9
$PELEVATION
 40
0.0
  9
$THICKNESS
 40
0.0
  9
$LIMCHECK
 70
     0
  9
$CHAMFERA
 40
0.0
  9
$CHAMFERB
 40
0.0
  9
$CHAMFERC
 40
0.0
  9
$CHAMFERD
 40
0.0
  9
$SKPOLY
 70
     0
  9
$TDCREATE
 40
2459328.419375000
  9
$TDUCREATE
 40
2459328.336041667
  9
$TDUPDATE
 40
2459341.352893519
  9
$TDUUPDATE
 40
2459341.269560185
  9
$TDINDWG
 40
0.0025810185
  9
$TDUSRTIMER
 40
0.0025810185
  9
$USRTIMER
 70
     1
  9
$ANGBASE
 50
0.0
  9
$ANGDIR
 70
     0
  9
$PDMODE
 70
     0
  9
$PDSIZE
 40
0.0
  9
$PLINEWID
 40
0.0
  9
$SPLFRAME
 70
     0
  9
$SPLINETYPE
 70
     6
  9
$SPLINESEGS
 70
     8
  9
$HANDSEED
  5
191
  9
$SURFTAB1
 70
     6
  9
$SURFTAB2
 70
     6
  9
$SURFTYPE
 70
     6
  9
$SURFU
 70
     6
  9
$SURFV
 70
     6
  9
$UCSBASE
  2

  9
$UCSNAME
  2

  9
$UCSORG
 10
0.0
 20
0.0
 30
0.0
  9
$UCSXDIR
 10
1.0
 20
0.0
 30
0.0
  9
$UCSYDIR
 10
0.0
 20
1.0
 30
0.0
  9
$UCSORTHOREF
  2

  9
$UCSORTHOVIEW
 70
     0
  9
$UCSORGTOP
 10
0.0
 20
0.0
 30
0.0
  9
$UCSORGBOTTOM
 10
0.0
 20
0.0
 30
0.0
  9
$UCSORGLEFT
 10
0.0
 20
0.0
 30
0.0
  9
$UCSORGRIGHT
 10
0.0
 20
0.0
 30
0.0
  9
$UCSORGFRONT
 10
0.0
 20
0.0
 30
0.0
  9
$UCSORGBACK
 10
0.0
 20
0.0
 30
0.0
  9
$PUCSBASE
  2

  9
$PUCSNAME
  2

  9
$PUCSORG
 10
0.0
 20
0.0
 30
0.0
  9
$PUCSXDIR
 10
1.0
 20
0.0
 30
0.0
  9
$PUCSYDIR
 10
0.0
 20
1.0
 30
0.0
  9
$PUCSORTHOREF
  2

  9
$PUCSORTHOVIEW
 70
     0
  9
$PUCSORGTOP
 10
0.0
 20
0.0
 30
0.0
  9
$PUCSORGBOTTOM
 10
0.0
 20
0.0
 30
0.0
  9
$PUCSORGLEFT
 10
0.0
 20
0.0
 30
0.0
  9
$PUCSORGRIGHT
 10
0.0
 20
0.0
 30
0.0
  9
$PUCSORGFRONT
 10
0.0
 20
0.0
 30
0.0
  9
$PUCSORGBACK
 10
0.0
 20
0.0
 30
0.0
  9
$USERI1
 70
     0
  9
$USERI2
 70
     0
  9
$USERI3
 70
     0
  9
$USERI4
 70
     0
  9
$USERI5
 70
     0
  9
$USERR1
 40
0.0
  9
$USERR2
 40
0.0
  9
$USERR3
 40
0.0
  9
$USERR4
 40
0.0
  9
$USERR5
 40
0.0
  9
$WORLDVIEW
 70
     1
  9
$SHADEDGE
 70
     3
  9
$SHADEDIF
 70
    70
  9
$TILEMODE
 70
     1
  9
$MAXACTVP
 70
    64
  9
$PINSBASE
 10
0.0
 20
0.0
 30
0.0
  9
$PLIMCHECK
 70
     0
  9
$PEXTMIN
 10
1.000000000000000E+20
 20
1.000000000000000E+20
 30
1.000000000000000E+20
  9
$PEXTMAX
 10
-1.000000000000000E+20
 20
-1.000000000000000E+20
 30
-1.000000000000000E+20
  9
$PLIMMIN
 10
0.0
 20
0.0
  9
$PLIMMAX
 10
12.0
 20
9.0
  9
$UNITMODE
 70
     0
  9
$VISRETAIN
 70
     1
  9
$PLINEGEN
 70
     0
  9
$PSLTSCALE
 70
     1
  9
$TREEDEPTH
 70
  3020
  9
$CMLSTYLE
  2
Standard
  9
$CMLJUST
 70
     0
  9
$CMLSCALE
 40
1.0
  9
$PROXYGRAPHICS
 70
     1
  9
$MEASUREMENT
 70
     0
  9
$CELWEIGHT
370
    -1
  9
$ENDCAPS
280
     0
  9
$JOINSTYLE
280
     0
  9
$LWDISPLAY
290
     1
  9
$INSUNITS
 70
     4
  9
$HYPERLINKBASE
  1

  9
$STYLESHEET
  1

  9
$XEDIT
290
     1
  9
$CEPSNTYPE
380
     0
  9
$PSTYLEMODE
290
     1
  9
$FINGERPRINTGUID
  2
{2D0EA390-CB87-BB4E-8522-3B6DE88F79E2}
  9
$VERSIONGUID
  2
{979282C0-D575-2549-86E4-ADFF352350B0}
  9
$EXTNAMES
290
     1
  9
$PSVPSCALE
 40
0.0
  9
$OLESTARTUP
290
     0
  9
$SORTENTS
280
   127
  9
$INDEXCTL
280
     0
  9
$HIDETEXT
280
     1
  9
$XCLIPFRAME
280
     2
  9
$HALOGAP
280
     0
  9
$OBSCOLOR
 70
   257
  9
$OBSLTYPE
280
     0
  9
$INTERSECTIONDISPLAY
280
     0
  9
$INTERSECTIONCOLOR
 70
   257
  9
$DIMASSOC
280
     2
  9
$PROJECTNAME
  1

  9
$CAMERADISPLAY
290
     0
  9
$LENSLENGTH
 40
50.0
  9
$CAMERAHEIGHT
 40
0.0
  9
$STEPSPERSEC
 40
2.0
  9
$STEPSIZE
 40
6.0
  9
$3DDWFPREC
 40
2.0
  9
$PSOLWIDTH
 40
0.25
  9
$PSOLHEIGHT
 40
4.0
  9
$LOFTANG1
 40
1.570796326794896
  9
$LOFTANG2
 40
1.570796326794896
  9
$LOFTMAG1
 40
0.0
  9
$LOFTMAG2
 40
0.0
  9
$LOFTPARAM
 70
     7
  9
$LOFTNORMALS
280
     1
  9
$LATITUDE
 40
37.795
  9
$LONGITUDE
 40
-122.394
  9
$NORTHDIRECTION
 40
0.0
  9
$TIMEZONE
 70
 -8000
  9
$LIGHTGLYPHDISPLAY
280
     1
  9
$TILEMODELIGHTSYNCH
280
     1
  9
$CMATERIAL
347
11
  9
$SOLIDHIST
280
     0
  9
$SHOWHIST
280
     1
  9
$DWFFRAME
280
     2
  9
$DGNFRAME
280
     0
  9
$REALWORLDSCALE
290
     1
  9
$INTERFERECOLOR
 62
     1
  9
$INTERFEREOBJVS
345
33
  9
$INTERFEREVPVS
346
30
  9
$CSHADOW
280
     0
  9
$SHADOWPLANELOCATION
 40
0.0
  0
ENDSEC
  0
SECTION
  2
CLASSES
  0
CLASS
  1
ACDBDICTIONARYWDFLT
  2
AcDbDictionaryWithDefault
  3
ObjectDBX Classes
 90
        0
 91
        1
280
     0
281
     0
  0
CLASS
  1
MATERIAL
  2
AcDbMaterial
  3
ObjectDBX Classes
 90
     1153
 91
        3
280
     0
281
     0
  0
CLASS
  1
VISUALSTYLE
  2
AcDbVisualStyle
  3
ObjectDBX Classes
 90
     4095
 91
       24
280
     0
281
     0
  0
CLASS
  1
SCALE
  2
AcDbScale
  3
ObjectDBX Classes
 90
     1153
 91
       17
280
     0
281
     0
  0
CLASS
  1
TABLESTYLE
  2
AcDbTableStyle
  3
ObjectDBX Classes
 90
     4095
 91
        1
280
     0
281
     0
  0
CLASS
  1
MLEADERSTYLE
  2
AcDbMLeaderStyle
  3
ACDB_MLEADERSTYLE_CLASS
 90
     4095
 91
        1
280
     0
281
     0
  0
CLASS
  1
ACDBSECTIONVIEWSTYLE
  2
AcDbSectionViewStyle
  3
ObjectDBX Classes
 90
     1025
 91
        1
280
     0
281
     0
  0
CLASS
  1
ACDBDETAILVIEWSTYLE
  2
AcDbDetailViewStyle
  3
ObjectDBX Classes
 90
     1025
 91
        1
280
     0
281
     0
  0
CLASS
  1
DICTIONARYVAR
  2
AcDbDictionaryVar
  3
ObjectDBX Classes
 90
        0
 91
        5
280
     0
281
     0
  0
CLASS
  1
CELLSTYLEMAP
  2
AcDbCellStyleMap
  3
ObjectDBX Classes
 90
     1152
 91
        2
280
     0
281
     0
  0
CLASS
  1
SORTENTSTABLE
  2
AcDbSortentsTable
  3
ObjectDBX Classes
 90
        0
 91
        1
280
     0
281
     0
  0
ENDSEC
  0
SECTION
  2
TABLES
  0
TABLE
  2
VPORT
  5
8
330
0
100
AcDbSymbolTable
 70
     1
1001
ACAD
1000
DbSaveVer
1071
      105
  0
VPORT
  5
57
330
8
100
AcDbSymbolTableRecord
100
AcDbViewportTableRecord
  2
*Active
 70
     0
 10
0.0
 20
0.0
 11
1.0
 21
1.0
 12
41.20586672471193
 22
-9.187897246343595
 13
0.0
 23
0.0
 14
1.0
 24
1.0
 15
0.0
 25
0.0
 16
0.0
 26
0.0
 36
1.0
 17
104.9999999737534
 27
-148.4999999628701
 37
0.0
 40
485.1950832381387
 41
1.932867132867133
 42
50.0
 43
0.0
 44
0.0
 50
0.0
 51
0.0
 71
     0
 72
   100
 73
     1
 74
     0
 75
     1
 76
     0
 77
     0
 78
     0
281
     0
 65
     1
110
0.0
120
0.0
130
0.0
111
1.0
121
0.0
131
0.0
112
0.0
122
1.0
132
0.0
 79
     0
146
0.0
348
2F
 60
     3
 61
     5
292
     1
282
     1
141
0.0
142
0.0
 63
   250
421
  3355443
1001
ACAD_NAV_VCDISPLAY
1070
     3
  0
ENDTAB
  0
TABLE
  2
LTYPE
  5
5
330
0
100
AcDbSymbolTable
 70
     1
  0
LTYPE
  5
5B
330
5
100
AcDbSymbolTableRecord
100
AcDbLinetypeTableRecord
  2
ByBlock
 70
     0
  3

 72
    65
 73
     0
 40
0.0
  0
LTYPE
  5
5C
330
5
100
AcDbSymbolTableRecord
100
AcDbLinetypeTableRecord
  2
ByLayer
 70
     0
  3

 72
    65
 73
     0
 40
0.0
  0
LTYPE
  5
5D
330
5
100
AcDbSymbolTableRecord
100
AcDbLinetypeTableRecord
  2
Continuous
 70
     0
  3
Solid line
 72
    65
 73
     0
 40
0.0
  0
ENDTAB
  0
TABLE
  2
LAYER
  5
2
330
0
100
AcDbSymbolTable
 70
     2
  0
LAYER
  5
54
330
2
100
AcDbSymbolTableRecord
100
AcDbLayerTableRecord
  2
0
 70
     0
 62
     7
  6
Continuous
370
    -3
390
F
347
21
348
0
  0
LAYER
  5
78
330
2
100
AcDbSymbolTableRecord
100
AcDbLayerTableRecord
  2
Livello 1
 70
     0
 62
     7
  6
Continuous
370
     0
390
F
347
21
348
0
  0
ENDTAB
  0
TABLE
  2
STYLE
  5
3
330
0
100
AcDbSymbolTable
 70
     2
  0
STYLE
  5
55
330
3
100
AcDbSymbolTableRecord
100
AcDbTextStyleTableRecord
  2
Standard
 70
     0
 40
0.0
 41
1.0
 50
0.0
 71
     0
 42
0.2
  3
txt
  4

  0
STYLE
  5
5A
330
3
100
AcDbSymbolTableRecord
100
AcDbTextStyleTableRecord
  2
Annotative
 70
     0
 40
0.0
 41
1.0
 50
0.0
 71
     0
 42
0.2
  3
txt
  4

1001
AcadAnnotative
1000
AnnotativeData
1002
{
1070
     1
1070
     1
1002
}
  0
ENDTAB
  0
TABLE
  2
VIEW
  5
6
330
0
100
AcDbSymbolTable
 70
     0
  0
ENDTAB
  0
TABLE
  2
UCS
  5
7
330
0
100
AcDbSymbolTable
 70
     0
  0
ENDTAB
  0
TABLE
  2
APPID
  5
9
330
0
100
AcDbSymbolTable
 70
     3
  0
APPID
  5
56
330
9
100
AcDbSymbolTableRecord
100
AcDbRegAppTableRecord
  2
ACAD
 70
     0
  0
APPID
  5
5E
330
9
100
AcDbSymbolTableRecord
100
AcDbRegAppTableRecord
  2
AcadAnnotative
 70
     0
  0
APPID
  5
18A
330
9
100
AcDbSymbolTableRecord
100
AcDbRegAppTableRecord
  2
ACAD_NAV_VCDISPLAY
 70
     0
  0
ENDTAB
  0
TABLE
  2
DIMSTYLE
  5
A
330
0
100
AcDbSymbolTable
 70
     2
100
AcDbDimStyleTable
 71
     0
  0
DIMSTYLE
105
58
330
A
100
AcDbSymbolTableRecord
100
AcDbDimStyleTableRecord
  2
Standard
 70
     0
340
55
  0
DIMSTYLE
105
59
330
A
100
AcDbSymbolTableRecord
100
AcDbDimStyleTableRecord
  2
Annotative
 70
     0
340
55
1001
AcadAnnotative
1000
AnnotativeData
1002
{
1070
     1
1070
     1
1002
}
  0
ENDTAB
  0
TABLE
  2
BLOCK_RECORD
  5
1
330
0
100
AcDbSymbolTable
 70
    17
  0
BLOCK_RECORD
  5
70
102
{ACAD_XDICTIONARY
360
14C
102
}
330
1
100
AcDbSymbolTableRecord
100
AcDbBlockTableRecord
  2
*Model_Space
340
73
 70
     0
280
     1
281
     0
  0
BLOCK_RECORD
  5
6C
330
1
100
AcDbSymbolTableRecord
100
AcDbBlockTableRecord
  2
*Paper_Space
340
6F
 70
     0
280
     1
281
     0
  0
BLOCK_RECORD
  5
74
330
1
100
AcDbSymbolTableRecord
100
AcDbBlockTableRecord
  2
*Paper_Space0
340
77
 70
     0
280
     1
281
     0
  0
BLOCK_RECORD
  5
95
330
1
100
AcDbSymbolTableRecord
100
AcDbBlockTableRecord
  2
Block_0
340
0
 70
     0
280
     1
281
     0
  0
BLOCK_RECORD
  5
99
330
1
100
AcDbSymbolTableRecord
100
AcDbBlockTableRecord
  2
Block_1
340
0
102
{BLKREFS
331
9A
102
}
 70
     0
280
     1
281
     0
  0
BLOCK_RECORD
  5
A3
330
1
100
AcDbSymbolTableRecord
100
AcDbBlockTableRecord
  2
Block_2
340
0
 70
     0
280
     1
281
     0
  0
BLOCK_RECORD
  5
A7
330
1
100
AcDbSymbolTableRecord
100
AcDbBlockTableRecord
  2
Block_3
340
0
102
{BLKREFS
331
A8
102
}
 70
     0
280
     1
281
     0
  0
BLOCK_RECORD
  5
B1
330
1
100
AcDbSymbolTableRecord
100
AcDbBlockTableRecord
  2
Block_4
340
0
 70
     0
280
     1
281
     0
  0
BLOCK_RECORD
  5
B5
330
1
100
AcDbSymbolTableRecord
100
AcDbBlockTableRecord
  2
Block_5
340
0
102
{BLKREFS
331
B6
102
}
 70
     0
280
     1
281
     0
  0
BLOCK_RECORD
  5
BF
330
1
100
AcDbSymbolTableRecord
100
AcDbBlockTableRecord
  2
Block_6
340
0
 70
     0
280
     1
281
     0
  0
BLOCK_RECORD
  5
C3
330
1
100
AcDbSymbolTableRecord
100
AcDbBlockTableRecord
  2
Block_7
340
0
102
{BLKREFS
331
C4
102
}
 70
     0
280
     1
281
     0
  0
BLOCK_RECORD
  5
CC
330
1
100
AcDbSymbolTableRecord
100
AcDbBlockTableRecord
  2
Block_8
340
0
 70
     0
280
     1
281
     0
  0
BLOCK_RECORD
  5
D0
330
1
100
AcDbSymbolTableRecord
100
AcDbBlockTableRecord
  2
Block_9
340
0
102
{BLKREFS
331
D1
102
}
 70
     0
280
     1
281
     0
  0
BLOCK_RECORD
  5
DB
330
1
100
AcDbSymbolTableRecord
100
AcDbBlockTableRecord
  2
Block_10
340
0
 70
     0
280
     1
281
     0
  0
BLOCK_RECORD
  5
DF
330
1
100
AcDbSymbolTableRecord
100
AcDbBlockTableRecord
  2
Block_11
340
0
102
{BLKREFS
331
E0
102
}
 70
     0
280
     1
281
     0
  0
BLOCK_RECORD
  5
EE
330
1
100
AcDbSymbolTableRecord
100
AcDbBlockTableRecord
  2
Block_12
340
0
 70
     0
280
     1
281
     0
  0
BLOCK_RECORD
  5
F2
330
1
100
AcDbSymbolTableRecord
100
AcDbBlockTableRecord
  2
Block_13
340
0
102
{BLKREFS
331
F3
331
188
102
}
 70
     0
280
     1
281
     0
  0
BLOCK_RECORD
  5
FB
330
1
100
AcDbSymbolTableRecord
100
AcDbBlockTableRecord
  2
Block_14
340
0
 70
     0
280
     1
281
     0
  0
BLOCK_RECORD
  5
FF
330
1
100
AcDbSymbolTableRecord
100
AcDbBlockTableRecord
  2
Block_15
340
0
102
{BLKREFS
331
100
331
189
102
}
 70
     0
280
     1
281
     0
  0
ENDTAB
  0
ENDSEC
  0
SECTION
  2
BLOCKS
  0
BLOCK
  5
71
330
70
100
AcDbEntity
  8
0
100
AcDbBlockBegin
  2
*Model_Space
 70
     0
 10
0.0
 20
0.0
 30
0.0
  3
*Model_Space
  1

  0
ENDBLK
  5
72
330
70
100
AcDbEntity
  8
0
100
AcDbBlockEnd
  0
BLOCK
  5
6D
330
6C
100
AcDbEntity
 67
     1
  8
0
100
AcDbBlockBegin
  2
*Paper_Space
 70
     0
 10
0.0
 20
0.0
 30
0.0
  3
*Paper_Space
  1

  0
ENDBLK
  5
6E
330
6C
100
AcDbEntity
 67
     1
  8
0
100
AcDbBlockEnd
  0
BLOCK
  5
75
330
74
100
AcDbEntity
 67
     1
  8
0
100
AcDbBlockBegin
  2
*Paper_Space0
 70
     0
 10
0.0
 20
0.0
 30
0.0
  3
*Paper_Space0
  1

  0
ENDBLK
  5
76
330
74
100
AcDbEntity
 67
     1
  8
0
100
AcDbBlockEnd
  0
BLOCK
  5
97
330
95
100
AcDbEntity
  8
0
100
AcDbBlockBegin
  2
Block_0
 70
     0
 10
0.0
 20
0.0
 30
0.0
  3
Block_0
  1

  0
INSERT
  5
9A
330
95
100
AcDbEntity
  8
Livello 1
100
AcDbBlockReference
  2
Block_1
 10
0.0
 20
0.0
 30
0.0
  0
ENDBLK
  5
98
330
95
100
AcDbEntity
  8
0
100
AcDbBlockEnd
  0
BLOCK
  5
9B
330
99
100
AcDbEntity
  8
0
100
AcDbBlockBegin
  2
Block_1
 70
     0
 10
0.0
 20
0.0
 30
0.0
  3
Block_1
  1

  0
SPLINE
  5
9D
330
99
100
AcDbEntity
  8
Livello 1
100
AcDbSpline
210
0.0
220
0.0
230
1.0
 70
    11
 71
     3
 72
    29
 73
    25
 74
     0
 42
0.000000001
 43
0.0000000001
 40
0.0
 40
0.0
 40
0.0
 40
0.0
 40
1.0
 40
1.0
 40
1.0
 40
2.0
 40
2.0
 40
2.0
 40
3.0
 40
3.0
 40
3.0
 40
4.0
 40
4.0
 40
4.0
 40
5.0
 40
5.0
 40
5.0
 40
6.0
 40
6.0
 40
6.0
 40
7.0
 40
7.0
 40
7.0
 40
8.0
 40
8.0
 40
8.0
 40
8.0
 10
44.97055391670874
 20
-119.5101901285426
 30
0.0
 10
44.97055391670874
 20
-119.5101901285426
 30
0.0
 10
44.97055391670874
 20
-120.2465792885147
 30
0.0
 10
44.97055391670874
 20
-120.2465792885147
 30
0.0
 10
44.97055391670874
 20
-120.2465792885147
 30
0.0
 10
41.37680256127039
 20
-127.7641221468784
 30
0.0
 10
41.37680256127039
 20
-127.7641221468784
 30
0.0
 10
41.37680256127039
 20
-127.7641221468784
 30
0.0
 10
40.22131753551759
 20
-127.7641221468784
 30
0.0
 10
40.22131753551759
 20
-127.7641221468784
 30
0.0
 10
40.22131753551759
 20
-127.7641221468784
 30
0.0
 10
43.80232203766053
 20
-120.4625867754399
 30
0.0
 10
43.80232203766053
 20
-120.4625867754399
 30
0.0
 10
43.80232203766053
 20
-120.4625867754399
 30
0.0
 10
43.80232203766053
 20
-120.437093068849
 30
0.0
 10
43.80232203766053
 20
-120.437093068849
 30
0.0
 10
43.80232203766053
 20
-120.437093068849
 30
0.0
 10
39.76415336462494
 20
-120.437093068849
 30
0.0
 10
39.76415336462494
 20
-120.437093068849
 30
0.0
 10
39.76415336462494
 20
-120.437093068849
 30
0.0
 10
39.76415336462494
 20
-119.5101901285426
 30
0.0
 10
39.76415336462494
 20
-119.5101901285426
 30
0.0
 10
39.76415336462494
 20
-119.5101901285426
 30
0.0
 10
44.97055391670874
 20
-119.5101901285426
 30
0.0
 10
44.97055391670874
 20
-119.5101901285426
 30
0.0
  0
HATCH
  5
9E
330
99
100
AcDbEntity
  8
Livello 1
 62
   250
420
  1907995
440
 33554687
100
AcDbHatch
 10
0.0
 20
0.0
 30
0.0
210
0.0
220
0.0
230
1.0
  2
SOLID
 70
     1
 71
     1
 91
        1
 92
        1
 93
        1
 72
     4
 94
        3
 73
     0
 74
     0
 95
       29
 96
       25
 40
0.0
 40
0.0
 40
0.0
 40
0.0
 40
1.0
 40
1.0
 40
1.0
 40
2.0
 40
2.0
 40
2.0
 40
3.0
 40
3.0
 40
3.0
 40
4.0
 40
4.0
 40
4.0
 40
5.0
 40
5.0
 40
5.0
 40
6.0
 40
6.0
 40
6.0
 40
7.0
 40
7.0
 40
7.0
 40
8.0
 40
8.0
 40
8.0
 40
8.0
 10
44.97055391670874
 20
-119.5101901285426
 10
44.97055391670874
 20
-119.5101901285426
 10
44.97055391670874
 20
-120.2465792885147
 10
44.97055391670874
 20
-120.2465792885147
 10
44.97055391670874
 20
-120.2465792885147
 10
41.37680256127039
 20
-127.7641221468784
 10
41.37680256127039
 20
-127.7641221468784
 10
41.37680256127039
 20
-127.7641221468784
 10
40.22131753551759
 20
-127.7641221468784
 10
40.22131753551759
 20
-127.7641221468784
 10
40.22131753551759
 20
-127.7641221468784
 10
43.80232203766053
 20
-120.4625867754399
 10
43.80232203766053
 20
-120.4625867754399
 10
43.80232203766053
 20
-120.4625867754399
 10
43.80232203766053
 20
-120.437093068849
 10
43.80232203766053
 20
-120.437093068849
 10
43.80232203766053
 20
-120.437093068849
 10
39.76415336462494
 20
-120.437093068849
 10
39.76415336462494
 20
-120.437093068849
 10
39.76415336462494
 20
-120.437093068849
 10
39.76415336462494
 20
-119.5101901285426
 10
39.76415336462494
 20
-119.5101901285426
 10
39.76415336462494
 20
-119.5101901285426
 10
44.97055391670874
 20
-119.5101901285426
 10
44.97055391670874
 20
-119.5101901285426
 97
        0
 97
        1
330
9D
 75
     2
 76
     1
 98
        1
 10
0.0
 20
0.0
450
        0
451
        0
460
0.0
461
0.0
452
        0
462
0.0
453
        0
470

  0
SPLINE
  5
9F
330
99
100
AcDbEntity
  8
Livello 1
100
AcDbSpline
210
0.0
220
0.0
230
1.0
 70
     9
 71
     3
 72
    17
 73
    13
 74
     0
 42
0.000000001
 43
0.0000000001
 40
0.0
 40
0.0
 40
0.0
 40
0.0
 40
1.0
 40
1.0
 40
1.0
 40
2.0
 40
2.0
 40
2.0
 40
3.0
 40
3.0
 40
3.0
 40
4.0
 40
4.0
 40
4.0
 40
4.0
 10
47.39641790264743
 20
-121.4911200325612
 30
0.0
 10
47.39641790264743
 20
-122.3165649108271
 30
0.0
 10
48.01860214728353
 20
-122.7609822284243
 30
0.0
 10
48.97099879418085
 20
-123.0148857656872
 30
0.0
 10
49.68223875711069
 20
-122.7737290817197
 30
0.0
 10
50.22811413674853
 20
-122.2657497524197
 30
0.0
 10
50.22811413674853
 20
-121.5164414843778
 30
0.0
 10
50.22811413674853
 20
-120.8561889346297
 30
0.0
 10
49.83451197755872
 20
-120.1704426782907
 30
0.0
 10
48.83130017225398
 20
-120.1704426782907
 30
0.0
 10
47.9043972319475
 20
-120.1704426782907
 30
0.0
 10
47.39641790264743
 20
-120.7800523244057
 30
0.0
 10
47.39641790264743
 20
-121.4911200325612
 30
0.0
  0
SPLINE
  5
A0
330
99
100
AcDbEntity
  8
Livello 1
100
AcDbSpline
210
0.0
220
0.0
230
1.0
 70
     9
 71
     3
 72
    17
 73
    13
 74
     0
 42
0.000000001
 43
0.0000000001
 40
0.0
 40
0.0
 40
0.0
 40
0.0
 40
1.0
 40
1.0
 40
1.0
 40
2.0
 40
2.0
 40
2.0
 40
3.0
 40
3.0
 40
3.0
 40
4.0
 40
4.0
 40
4.0
 40
4.0
 10
50.46944307549028
 20
-125.6181721691163
 30
0.0
 10
50.46944307549028
 20
-124.6149603638115
 30
0.0
 10
49.77112222063014
 20
-124.132302486328
 30
0.0
 10
48.65353324521509
 20
-123.8148369373623
 30
0.0
 10
47.68856199979661
 20
-124.094234181216
 30
0.0
 10
47.1678358172011
 20
-124.7291652791476
 30
0.0
 10
47.1678358172011
 20
-125.5165418523014
 30
0.0
 10
47.12976751208908
 20
-126.3545613290884
 30
0.0
 10
47.76469861002063
 20
-127.0911227438348
 30
0.0
 10
48.81872557373283
 20
-127.0911227438348
 30
0.0
 10
49.82193737903757
 20
-127.0911227438348
 30
0.0
 10
50.46944307549028
 20
-126.4689384991987
 30
0.0
 10
50.46944307549028
 20
-125.6181721691163
 30
0.0
  0
SPLINE
  5
A1
330
99
100
AcDbEntity
  8
Livello 1
100
AcDbSpline
210
0.0
220
0.0
230
1.0
 70
     9
 71
     3
 72
    35
 73
    31
 74
     0
 42
0.000000001
 43
0.0000000001
 40
0.0
 40
0.0
 40
0.0
 40
0.0
 40
1.0
 40
1.0
 40
1.0
 40
2.0
 40
2.0
 40
2.0
 40
3.0
 40
3.0
 40
3.0
 40
4.0
 40
4.0
 40
4.0
 40
5.0
 40
5.0
 40
5.0
 40
6.0
 40
6.0
 40
6.0
 40
7.0
 40
7.0
 40
7.0
 40
8.0
 40
8.0
 40
8.0
 40
9.0
 40
9.0
 40
9.0
 40
10.0
 40
10.0
 40
10.0
 40
10.0
 10
46.02509764474373
 20
-125.6688150727494
 30
0.0
 10
46.02509764474373
 20
-124.6275349623327
 30
0.0
 10
46.64728188937984
 20
-123.8911458023605
 30
0.0
 10
47.66306829320575
 20
-123.4593030832844
 30
0.0
 10
47.66306829320575
 20
-123.4593030832844
 30
0.0
 10
47.65049369468459
 20
-123.4212347781725
 30
0.0
 10
47.65049369468459
 20
-123.4212347781725
 30
0.0
 10
46.73616535289928
 20
-122.9895643138706
 30
0.0
 10
46.34256319370949
 20
-122.2784966057151
 30
0.0
 10
46.34256319370949
 20
-121.5672566427853
 30
0.0
 10
46.34256319370949
 20
-120.2593261418102
 30
0.0
 10
47.44723306105486
 20
-119.3704915066157
 30
0.0
 10
48.89486218395684
 20
-119.3704915066157
 30
0.0
 10
50.49493678208111
 20
-119.3704915066157
 30
0.0
 10
51.29488795375614
 20
-120.3737033119204
 30
0.0
 10
51.29488795375614
 20
-121.4022365690418
 30
0.0
 10
51.29488795375614
 20
-122.1005574239019
 30
0.0
 10
50.95192869819952
 20
-122.8498656919438
 30
0.0
 10
49.93614229437359
 20
-123.332351314653
 30
0.0
 10
49.93614229437359
 20
-123.332351314653
 30
0.0
 10
49.93614229437359
 20
-123.370419619765
 30
0.0
 10
49.93614229437359
 20
-123.370419619765
 30
0.0
 10
50.96467555149494
 20
-123.7767686322502
 30
0.0
 10
51.59960664942649
 20
-124.5005831937012
 30
0.0
 10
51.59960664942649
 20
-125.503794999006
 30
0.0
 10
51.59960664942649
 20
-126.9386772686125
 30
0.0
 10
50.3678127586754
 20
-127.9038207688053
 30
0.0
 10
48.79323186714197
 20
-127.9038207688053
 30
0.0
 10
47.06637775516049
 20
-127.9038207688053
 30
0.0
 10
46.02509764474373
 20
-126.8752875116839
 30
0.0
 10
46.02509764474373
 20
-125.6688150727494
 30
0.0
  0
HATCH
  5
A2
330
99
100
AcDbEntity
  8
Livello 1
 62
   250
420
  1907995
440
 33554687
100
AcDbHatch
 10
0.0
 20
0.0
 30
0.0
210
0.0
220
0.0
230
1.0
  2
SOLID
 70
     1
 71
     1
 91
        3
 92
        1
 93
        1
 72
     4
 94
        3
 73
     0
 74
     0
 95
       17
 96
       13
 40
0.0
 40
0.0
 40
0.0
 40
0.0
 40
1.0
 40
1.0
 40
1.0
 40
2.0
 40
2.0
 40
2.0
 40
3.0
 40
3.0
 40
3.0
 40
4.0
 40
4.0
 40
4.0
 40
4.0
 10
47.39641790264743
 20
-121.4911200325612
 10
47.39641790264743
 20
-122.3165649108271
 10
48.01860214728353
 20
-122.7609822284243
 10
48.97099879418085
 20
-123.0148857656872
 10
49.68223875711069
 20
-122.7737290817197
 10
50.22811413674853
 20
-122.2657497524197
 10
50.22811413674853
 20
-121.5164414843778
 10
50.22811413674853
 20
-120.8561889346297
 10
49.83451197755872
 20
-120.1704426782907
 10
48.83130017225398
 20
-120.1704426782907
 10
47.9043972319475
 20
-120.1704426782907
 10
47.39641790264743
 20
-120.7800523244057
 10
47.39641790264743
 20
-121.4911200325612
 97
        0
 97
        1
330
9F
 92
        1
 93
        1
 72
     4
 94
        3
 73
     0
 74
     0
 95
       17
 96
       13
 40
0.0
 40
0.0
 40
0.0
 40
0.0
 40
1.0
 40
1.0
 40
1.0
 40
2.0
 40
2.0
 40
2.0
 40
3.0
 40
3.0
 40
3.0
 40
4.0
 40
4.0
 40
4.0
 40
4.0
 10
50.46944307549028
 20
-125.6181721691163
 10
50.46944307549028
 20
-124.6149603638115
 10
49.77112222063014
 20
-124.132302486328
 10
48.65353324521509
 20
-123.8148369373623
 10
47.68856199979661
 20
-124.094234181216
 10
47.1678358172011
 20
-124.7291652791476
 10
47.1678358172011
 20
-125.5165418523014
 10
47.12976751208908
 20
-126.3545613290884
 10
47.76469861002063
 20
-127.0911227438348
 10
48.81872557373283
 20
-127.0911227438348
 10
49.82193737903757
 20
-127.0911227438348
 10
50.46944307549028
 20
-126.4689384991987
 10
50.46944307549028
 20
-125.6181721691163
 97
        0
 97
        1
330
A0
 92
        1
 93
        1
 72
     4
 94
        3
 73
     0
 74
     0
 95
       35
 96
       31
 40
0.0
 40
0.0
 40
0.0
 40
0.0
 40
1.0
 40
1.0
 40
1.0
 40
2.0
 40
2.0
 40
2.0
 40
3.0
 40
3.0
 40
3.0
 40
4.0
 40
4.0
 40
4.0
 40
5.0
 40
5.0
 40
5.0
 40
6.0
 40
6.0
 40
6.0
 40
7.0
 40
7.0
 40
7.0
 40
8.0
 40
8.0
 40
8.0
 40
9.0
 40
9.0
 40
9.0
 40
10.0
 40
10.0
 40
10.0
 40
10.0
 10
46.02509764474373
 20
-125.6688150727494
 10
46.02509764474373
 20
-124.6275349623327
 10
46.64728188937984
 20
-123.8911458023605
 10
47.66306829320575
 20
-123.4593030832844
 10
47.66306829320575
 20
-123.4593030832844
 10
47.65049369468459
 20
-123.4212347781725
 10
47.65049369468459
 20
-123.4212347781725
 10
46.73616535289928
 20
-122.9895643138706
 10
46.34256319370949
 20
-122.2784966057151
 10
46.34256319370949
 20
-121.5672566427853
 10
46.34256319370949
 20
-120.2593261418102
 10
47.44723306105486
 20
-119.3704915066157
 10
48.89486218395684
 20
-119.3704915066157
 10
50.49493678208111
 20
-119.3704915066157
 10
51.29488795375614
 20
-120.3737033119204
 10
51.29488795375614
 20
-121.4022365690418
 10
51.29488795375614
 20
-122.1005574239019
 10
50.95192869819952
 20
-122.8498656919438
 10
49.93614229437359
 20
-123.332351314653
 10
49.93614229437359
 20
-123.332351314653
 10
49.93614229437359
 20
-123.370419619765
 10
49.93614229437359
 20
-123.370419619765
 10
50.96467555149494
 20
-123.7767686322502
 10
51.59960664942649
 20
-124.5005831937012
 10
51.59960664942649
 20
-125.503794999006
 10
51.59960664942649
 20
-126.9386772686125
 10
50.3678127586754
 20
-127.9038207688053
 10
48.79323186714197
 20
-127.9038207688053
 10
47.06637775516049
 20
-127.9038207688053
 10
46.02509764474373
 20
-126.8752875116839
 10
46.02509764474373
 20
-125.6688150727494
 97
        0
 97
        1
330
A1
 75
     2
 76
     1
 98
        1
 10
0.0
 20
0.0
450
        0
451
        0
460
0.0
461
0.0
452
        0
462
0.0
453
        0
470

  0
ENDBLK
  5
9C
330
99
100
AcDbEntity
  8
0
100
AcDbBlockEnd
  0
BLOCK
  5
A5
330
A3
100
AcDbEntity
  8
0
100
AcDbBlockBegin
  2
Block_2
 70
     0
 10
0.0
 20
0.0
 30
0.0
  3
Block_2
  1

  0
INSERT
  5
A8
330
A3
100
AcDbEntity
  8
Livello 1
100
AcDbBlockReference
  2
Block_3
 10
0.0
 20
0.0
 30
0.0
  0
ENDBLK
  5
A6
330
A3
100
AcDbEntity
  8
0
100
AcDbBlockEnd
  0
BLOCK
  5
A9
330
A7
100
AcDbEntity
  8
0
100
AcDbBlockBegin
  2
Block_3
 70
     0
 10
0.0
 20
0.0
 30
0.0
  3
Block_3
  1

  0
SPLINE
  5
AB
330
A7
100
AcDbEntity
  8
Livello 1
100
AcDbSpline
210
0.0
220
0.0
230
1.0
 70
    11
 71
     3
 72
    29
 73
    25
 74
     0
 42
0.000000001
 43
0.0000000001
 40
0.0
 40
0.0
 40
0.0
 40
0.0
 40
1.0
 40
1.0
 40
1.0
 40
2.0
 40
2.0
 40
2.0
 40
3.0
 40
3.0
 40
3.0
 40
4.0
 40
4.0
 40
4.0
 40
5.0
 40
5.0
 40
5.0
 40
6.0
 40
6.0
 40
6.0
 40
7.0
 40
7.0
 40
7.0
 40
8.0
 40
8.0
 40
8.0
 40
8.0
 10
95.42776690322641
 20
-62.0956068095629
 30
0.0
 10
95.42776690322641
 20
-62.0956068095629
 30
0.0
 10
96.16432831797284
 20
-62.0956068095629
 30
0.0
 10
96.16432831797284
 20
-62.0956068095629
 30
0.0
 10
96.16432831797284
 20
-62.0956068095629
 30
0.0
 10
103.6816989215622
 20
-65.68935816500128
 30
0.0
 10
103.6816989215622
 20
-65.68935816500128
 30
0.0
 10
103.6816989215622
 20
-65.68935816500128
 30
0.0
 10
103.6816989215622
 20
-66.84484319075408
 30
0.0
 10
103.6816989215622
 20
-66.84484319075408
 30
0.0
 10
103.6816989215622
 20
-66.84484319075408
 30
0.0
 10
96.38016355012371
 20
-63.26383868861111
 30
0.0
 10
96.38016355012371
 20
-63.26383868861111
 30
0.0
 10
96.38016355012371
 20
-63.26383868861111
 30
0.0
 10
96.35466984353286
 20
-63.26383868861111
 30
0.0
 10
96.35466984353286
 20
-63.26383868861111
 30
0.0
 10
96.35466984353286
 20
-63.26383868861111
 30
0.0
 10
96.35466984353286
 20
-67.30200736164673
 30
0.0
 10
96.35466984353286
 20
-67.30200736164673
 30
0.0
 10
96.35466984353286
 20
-67.30200736164673
 30
0.0
 10
95.42776690322641
 20
-67.30200736164673
 30
0.0
 10
95.42776690322641
 20
-67.30200736164673
 30
0.0
 10
95.42776690322641
 20
-67.30200736164673
 30
0.0
 10
95.42776690322641
 20
-62.0956068095629
 30
0.0
 10
95.42776690322641
 20
-62.0956068095629
 30
0.0
  0
HATCH
  5
AC
330
A7
100
AcDbEntity
  8
Livello 1
 62
   250
420
  1907995
440
 33554687
100
AcDbHatch
 10
0.0
 20
0.0
 30
0.0
210
0.0
220
0.0
230
1.0
  2
SOLID
 70
     1
 71
     1
 91
        1
 92
        1
 93
        1
 72
     4
 94
        3
 73
     0
 74
     0
 95
       29
 96
       25
 40
0.0
 40
0.0
 40
0.0
 40
0.0
 40
1.0
 40
1.0
 40
1.0
 40
2.0
 40
2.0
 40
2.0
 40
3.0
 40
3.0
 40
3.0
 40
4.0
 40
4.0
 40
4.0
 40
5.0
 40
5.0
 40
5.0
 40
6.0
 40
6.0
 40
6.0
 40
7.0
 40
7.0
 40
7.0
 40
8.0
 40
8.0
 40
8.0
 40
8.0
 10
95.42776690322641
 20
-62.0956068095629
 10
95.42776690322641
 20
-62.0956068095629
 10
96.16432831797284
 20
-62.0956068095629
 10
96.16432831797284
 20
-62.0956068095629
 10
96.16432831797284
 20
-62.0956068095629
 10
103.6816989215622
 20
-65.68935816500128
 10
103.6816989215622
 20
-65.68935816500128
 10
103.6816989215622
 20
-65.68935816500128
 10
103.6816989215622
 20
-66.84484319075408
 10
103.6816989215622
 20
-66.84484319075408
 10
103.6816989215622
 20
-66.84484319075408
 10
96.38016355012371
 20
-63.26383868861111
 10
96.38016355012371
 20
-63.26383868861111
 10
96.38016355012371
 20
-63.26383868861111
 10
96.35466984353286
 20
-63.26383868861111
 10
96.35466984353286
 20
-63.26383868861111
 10
96.35466984353286
 20
-63.26383868861111
 10
96.35466984353286
 20
-67.30200736164673
 10
96.35466984353286
 20
-67.30200736164673
 10
96.35466984353286
 20
-67.30200736164673
 10
95.42776690322641
 20
-67.30200736164673
 10
95.42776690322641
 20
-67.30200736164673
 10
95.42776690322641
 20
-67.30200736164673
 10
95.42776690322641
 20
-62.0956068095629
 10
95.42776690322641
 20
-62.0956068095629
 97
        0
 97
        1
330
AB
 75
     2
 76
     1
 98
        1
 10
0.0
 20
0.0
450
        0
451
        0
460
0.0
461
0.0
452
        0
462
0.0
453
        0
470

  0
SPLINE
  5
AD
330
A7
100
AcDbEntity
  8
Livello 1
100
AcDbSpline
210
0.0
220
0.0
230
1.0
 70
     9
 71
     3
 72
    17
 73
    13
 74
     0
 42
0.000000001
 43
0.0000000001
 40
0.0
 40
0.0
 40
0.0
 40
0.0
 40
1.0
 40
1.0
 40
1.0
 40
2.0
 40
2.0
 40
2.0
 40
3.0
 40
3.0
 40
3.0
 40
4.0
 40
4.0
 40
4.0
 40
4.0
 10
101.5357489438001
 20
-56.59671765078138
 30
0.0
 10
100.5325371384953
 20
-56.59671765078138
 30
0.0
 10
100.0498792610118
 20
-57.29503850564153
 30
0.0
 10
99.73241371204608
 20
-58.41262748105656
 30
0.0
 10
100.0118109558998
 20
-59.37759872647505
 30
0.0
 10
100.6467420538313
 20
-59.89832490907056
 30
0.0
 10
101.4341186269852
 20
-59.89832490907056
 30
0.0
 10
102.2721381037722
 20
-59.93639321418257
 30
0.0
 10
103.0086995185186
 20
-59.30146211625102
 30
0.0
 10
103.0086995185186
 20
-58.24743515253884
 30
0.0
 10
103.0086995185186
 20
-57.24439560200835
 30
0.0
 10
102.3865152738825
 20
-56.59671765078138
 30
0.0
 10
101.5357489438001
 20
-56.59671765078138
 30
0.0
  0
SPLINE
  5
AE
330
A7
100
AcDbEntity
  8
Livello 1
100
AcDbSpline
210
0.0
220
0.0
230
1.0
 70
     9
 71
     3
 72
    17
 73
    13
 74
     0
 42
0.000000001
 43
0.0000000001
 40
0.0
 40
0.0
 40
0.0
 40
0.0
 40
1.0
 40
1.0
 40
1.0
 40
2.0
 40
2.0
 40
2.0
 40
3.0
 40
3.0
 40
3.0
 40
4.0
 40
4.0
 40
4.0
 40
4.0
 10
97.40869680724507
 20
-59.66974282362422
 30
0.0
 10
98.23414168551092
 20
-59.66974282362422
 30
0.0
 10
98.67855900310814
 20
-59.04755857898812
 30
0.0
 10
98.93246254037107
 20
-58.0951619320908
 30
0.0
 10
98.69130585640355
 20
-57.38392196916096
 30
0.0
 10
98.18332652710347
 20
-56.83787433474886
 30
0.0
 10
97.43401825906165
 20
-56.83787433474886
 30
0.0
 10
96.7737657093135
 20
-56.83787433474886
 30
0.0
 10
96.0880194529745
 20
-57.23164874871292
 30
0.0
 10
96.0880194529745
 20
-58.23486055401768
 30
0.0
 10
96.0880194529745
 20
-59.16176349432415
 30
0.0
 10
96.69762909908948
 20
-59.66974282362422
 30
0.0
 10
97.40869680724507
 20
-59.66974282362422
 30
0.0
  0
SPLINE
  5
AF
330
A7
100
AcDbEntity
  8
Livello 1
100
AcDbSpline
210
0.0
220
0.0
230
1.0
 70
     9
 71
     3
 72
    35
 73
    31
 74
     0
 42
0.000000001
 43
0.0000000001
 40
0.0
 40
0.0
 40
0.0
 40
0.0
 40
1.0
 40
1.0
 40
1.0
 40
2.0
 40
2.0
 40
2.0
 40
3.0
 40
3.0
 40
3.0
 40
4.0
 40
4.0
 40
4.0
 40
5.0
 40
5.0
 40
5.0
 40
6.0
 40
6.0
 40
6.0
 40
7.0
 40
7.0
 40
7.0
 40
8.0
 40
8.0
 40
8.0
 40
9.0
 40
9.0
 40
9.0
 40
10.0
 40
10.0
 40
10.0
 40
10.0
 10
101.5863918474332
 20
-61.04106308152793
 30
0.0
 10
100.5451117370165
 20
-61.04106308152793
 30
0.0
 10
99.80872257704435
 20
-60.41887883689181
 30
0.0
 10
99.37687985796827
 20
-59.4030924330659
 30
0.0
 10
99.37687985796827
 20
-59.4030924330659
 30
0.0
 10
99.33881155285627
 20
-59.41566703158707
 30
0.0
 10
99.33881155285627
 20
-59.41566703158707
 30
0.0
 10
98.90714108855448
 20
-60.32999537337236
 30
0.0
 10
98.19590112562465
 20
-60.72359753256216
 30
0.0
 10
97.48483341746908
 20
-60.72359753256216
 30
0.0
 10
96.17690291649395
 20
-60.72359753256216
 30
0.0
 10
95.28806828129951
 20
-59.6189276652168
 30
0.0
 10
95.28806828129951
 20
-58.17129854231481
 30
0.0
 10
95.28806828129951
 20
-56.57122394419053
 30
0.0
 10
96.2912800866043
 20
-55.77127277251552
 30
0.0
 10
97.31981334372562
 20
-55.77127277251552
 30
0.0
 10
98.01813419858575
 20
-55.77127277251552
 30
0.0
 10
98.76744246662759
 20
-56.11423202807213
 30
0.0
 10
99.24992808933685
 20
-57.13001843189805
 30
0.0
 10
99.24992808933685
 20
-57.13001843189805
 30
0.0
 10
99.28799639444886
 20
-57.13001843189805
 30
0.0
 10
99.28799639444886
 20
-57.13001843189805
 30
0.0
 10
99.69434540693407
 20
-56.10148517477671
 30
0.0
 10
100.418159968385
 20
-55.46655407684517
 30
0.0
 10
101.4213717736898
 20
-55.46655407684517
 30
0.0
 10
102.8562540432963
 20
-55.46655407684517
 30
0.0
 10
103.8213975434891
 20
-56.69834796759626
 30
0.0
 10
103.8213975434891
 20
-58.27292885912967
 30
0.0
 10
103.8213975434891
 20
-59.99978297111115
 30
0.0
 10
102.7928642863677
 20
-61.04106308152793
 30
0.0
 10
101.5863918474332
 20
-61.04106308152793
 30
0.0
  0
HATCH
  5
B0
330
A7
100
AcDbEntity
  8
Livello 1
 62
   250
420
  1907995
440
 33554687
100
AcDbHatch
 10
0.0
 20
0.0
 30
0.0
210
0.0
220
0.0
230
1.0
  2
SOLID
 70
     1
 71
     1
 91
        3
 92
        1
 93
        1
 72
     4
 94
        3
 73
     0
 74
     0
 95
       17
 96
       13
 40
0.0
 40
0.0
 40
0.0
 40
0.0
 40
1.0
 40
1.0
 40
1.0
 40
2.0
 40
2.0
 40
2.0
 40
3.0
 40
3.0
 40
3.0
 40
4.0
 40
4.0
 40
4.0
 40
4.0
 10
101.5357489438001
 20
-56.59671765078138
 10
100.5325371384953
 20
-56.59671765078138
 10
100.0498792610118
 20
-57.29503850564153
 10
99.73241371204608
 20
-58.41262748105656
 10
100.0118109558998
 20
-59.37759872647505
 10
100.6467420538313
 20
-59.89832490907056
 10
101.4341186269852
 20
-59.89832490907056
 10
102.2721381037722
 20
-59.93639321418257
 10
103.0086995185186
 20
-59.30146211625102
 10
103.0086995185186
 20
-58.24743515253884
 10
103.0086995185186
 20
-57.24439560200835
 10
102.3865152738825
 20
-56.59671765078138
 10
101.5357489438001
 20
-56.59671765078138
 97
        0
 97
        1
330
AD
 92
        1
 93
        1
 72
     4
 94
        3
 73
     0
 74
     0
 95
       17
 96
       13
 40
0.0
 40
0.0
 40
0.0
 40
0.0
 40
1.0
 40
1.0
 40
1.0
 40
2.0
 40
2.0
 40
2.0
 40
3.0
 40
3.0
 40
3.0
 40
4.0
 40
4.0
 40
4.0
 40
4.0
 10
97.40869680724507
 20
-59.66974282362422
 10
98.23414168551092
 20
-59.66974282362422
 10
98.67855900310814
 20
-59.04755857898812
 10
98.93246254037107
 20
-58.0951619320908
 10
98.69130585640355
 20
-57.38392196916096
 10
98.18332652710347
 20
-56.83787433474886
 10
97.43401825906165
 20
-56.83787433474886
 10
96.7737657093135
 20
-56.83787433474886
 10
96.0880194529745
 20
-57.23164874871292
 10
96.0880194529745
 20
-58.23486055401768
 10
96.0880194529745
 20
-59.16176349432415
 10
96.69762909908948
 20
-59.66974282362422
 10
97.40869680724507
 20
-59.66974282362422
 97
        0
 97
        1
330
AE
 92
        1
 93
        1
 72
     4
 94
        3
 73
     0
 74
     0
 95
       35
 96
       31
 40
0.0
 40
0.0
 40
0.0
 40
0.0
 40
1.0
 40
1.0
 40
1.0
 40
2.0
 40
2.0
 40
2.0
 40
3.0
 40
3.0
 40
3.0
 40
4.0
 40
4.0
 40
4.0
 40
5.0
 40
5.0
 40
5.0
 40
6.0
 40
6.0
 40
6.0
 40
7.0
 40
7.0
 40
7.0
 40
8.0
 40
8.0
 40
8.0
 40
9.0
 40
9.0
 40
9.0
 40
10.0
 40
10.0
 40
10.0
 40
10.0
 10
101.5863918474332
 20
-61.04106308152793
 10
100.5451117370165
 20
-61.04106308152793
 10
99.80872257704435
 20
-60.41887883689181
 10
99.37687985796827
 20
-59.4030924330659
 10
99.37687985796827
 20
-59.4030924330659
 10
99.33881155285627
 20
-59.41566703158707
 10
99.33881155285627
 20
-59.41566703158707
 10
98.90714108855448
 20
-60.32999537337236
 10
98.19590112562465
 20
-60.72359753256216
 10
97.48483341746908
 20
-60.72359753256216
 10
96.17690291649395
 20
-60.72359753256216
 10
95.28806828129951
 20
-59.6189276652168
 10
95.28806828129951
 20
-58.17129854231481
 10
95.28806828129951
 20
-56.57122394419053
 10
96.2912800866043
 20
-55.77127277251552
 10
97.31981334372562
 20
-55.77127277251552
 10
98.01813419858575
 20
-55.77127277251552
 10
98.76744246662759
 20
-56.11423202807213
 10
99.24992808933685
 20
-57.13001843189805
 10
99.24992808933685
 20
-57.13001843189805
 10
99.28799639444886
 20
-57.13001843189805
 10
99.28799639444886
 20
-57.13001843189805
 10
99.69434540693407
 20
-56.10148517477671
 10
100.418159968385
 20
-55.46655407684517
 10
101.4213717736898
 20
-55.46655407684517
 10
102.8562540432963
 20
-55.46655407684517
 10
103.8213975434891
 20
-56.69834796759626
 10
103.8213975434891
 20
-58.27292885912967
 10
103.8213975434891
 20
-59.99978297111115
 10
102.7928642863677
 20
-61.04106308152793
 10
101.5863918474332
 20
-61.04106308152793
 97
        0
 97
        1
330
AF
 75
     2
 76
     1
 98
        1
 10
0.0
 20
0.0
450
        0
451
        0
460
0.0
461
0.0
452
        0
462
0.0
453
        0
470

  0
ENDBLK
  5
AA
330
A7
100
AcDbEntity
  8
0
100
AcDbBlockEnd
  0
BLOCK
  5
B3
330
B1
100
AcDbEntity
  8
0
100
AcDbBlockBegin
  2
Block_4
 70
     0
 10
0.0
 20
0.0
 30
0.0
  3
Block_4
  1

  0
INSERT
  5
B6
330
B1
100
AcDbEntity
  8
Livello 1
100
AcDbBlockReference
  2
Block_5
 10
0.0
 20
0.0
 30
0.0
  0
ENDBLK
  5
B4
330
B1
100
AcDbEntity
  8
0
100
AcDbBlockEnd
  0
BLOCK
  5
B7
330
B5
100
AcDbEntity
  8
0
100
AcDbBlockBegin
  2
Block_5
 70
     0
 10
0.0
 20
0.0
 30
0.0
  3
Block_5
  1

  0
SPLINE
  5
B9
330
B5
100
AcDbEntity
  8
Livello 1
100
AcDbSpline
210
0.0
220
0.0
230
1.0
 70
    11
 71
     3
 72
    50
 73
    46
 74
     0
 42
0.000000001
 43
0.0000000001
 40
0.0
 40
0.0
 40
0.0
 40
0.0
 40
1.0
 40
1.0
 40
1.0
 40
2.0
 40
2.0
 40
2.0
 40
3.0
 40
3.0
 40
3.0
 40
4.0
 40
4.0
 40
4.0
 40
5.0
 40
5.0
 40
5.0
 40
6.0
 40
6.0
 40
6.0
 40
7.0
 40
7.0
 40
7.0
 40
8.0
 40
8.0
 40
8.0
 40
9.0
 40
9.0
 40
9.0
 40
10.0
 40
10.0
 40
10.0
 40
11.0
 40
11.0
 40
11.0
 40
12.0
 40
12.0
 40
12.0
 40
13.0
 40
13.0
 40
13.0
 40
14.0
 40
14.0
 40
14.0
 40
15.0
 40
15.0
 40
15.0
 40
15.0
 10
155.4327175175654
 20
-120.4498399221445
 30
0.0
 10
155.4327175175654
 20
-120.4498399221445
 30
0.0
 10
152.2835557344985
 20
-120.4498399221445
 30
0.0
 10
152.2835557344985
 20
-120.4498399221445
 30
0.0
 10
152.2835557344985
 20
-120.4498399221445
 30
0.0
 10
151.966262440307
 20
-122.57046844809
 30
0.0
 10
151.966262440307
 20
-122.57046844809
 30
0.0
 10
152.1567762206414
 20
-122.5451469962734
 30
0.0
 10
152.3345431476802
 20
-122.5196532896826
 30
0.0
 10
152.6390895885763
 20
-122.5196532896826
 30
0.0
 10
153.2740206865079
 20
-122.5196532896826
 30
0.0
 10
153.9089517844394
 20
-122.6593519116095
 30
0.0
 10
154.4171033685137
 20
-122.9640706072798
 30
0.0
 10
155.0644368101921
 20
-123.332351314653
 30
0.0
 10
155.5980821008574
 20
-124.0434190228086
 30
0.0
 10
155.5980821008574
 20
-125.0846991332253
 30
0.0
 10
155.5980821008574
 20
-126.697520584645
 30
0.0
 10
154.3154730516989
 20
-127.9038207688053
 30
0.0
 10
152.5250569280146
 20
-127.9038207688053
 30
0.0
 10
151.6234754395247
 20
-127.9038207688053
 30
0.0
 10
150.8614203181874
 20
-127.6499172315424
 30
0.0
 10
150.4676459042233
 20
-127.3958414395052
 30
0.0
 10
150.4676459042233
 20
-127.3958414395052
 30
0.0
 10
150.7470431480771
 20
-126.5450751094227
 30
0.0
 10
150.7470431480771
 20
-126.5450751094227
 30
0.0
 10
151.0898301488595
 20
-126.7481634882782
 30
0.0
 10
151.7630018066773
 20
-127.0022392803154
 30
0.0
 10
152.5123100747191
 20
-127.0022392803154
 30
0.0
 10
153.5661647836571
 20
-127.0022392803154
 30
0.0
 10
154.4677462721469
 20
-126.3164930239764
 30
0.0
 10
154.4677462721469
 20
-125.2118231566311
 30
0.0
 10
154.4549994188515
 20
-124.1450493396234
 30
0.0
 10
153.7439317106959
 20
-123.3831664730604
 30
0.0
 10
152.0930419541642
 20
-123.3831664730604
 30
0.0
 10
151.6234754395247
 20
-123.3831664730604
 30
0.0
 10
151.2551947321515
 20
-123.4339816314679
 30
0.0
 10
150.9503037817069
 20
-123.4720499365799
 30
0.0
 10
150.9503037817069
 20
-123.4720499365799
 30
0.0
 10
151.4836045628235
 20
-119.5101901285426
 30
0.0
 10
151.4836045628235
 20
-119.5101901285426
 30
0.0
 10
151.4836045628235
 20
-119.5101901285426
 30
0.0
 10
155.4327175175654
 20
-119.5101901285426
 30
0.0
 10
155.4327175175654
 20
-119.5101901285426
 30
0.0
 10
155.4327175175654
 20
-119.5101901285426
 30
0.0
 10
155.4327175175654
 20
-120.4498399221445
 30
0.0
 10
155.4327175175654
 20
-120.4498399221445
 30
0.0
  0
HATCH
  5
BA
330
B5
100
AcDbEntity
  8
Livello 1
 62
   250
420
  1907995
440
 33554687
100
AcDbHatch
 10
0.0
 20
0.0
 30
0.0
210
0.0
220
0.0
230
1.0
  2
SOLID
 70
     1
 71
     1
 91
        1
 92
        1
 93
        1
 72
     4
 94
        3
 73
     0
 74
     0
 95
       50
 96
       46
 40
0.0
 40
0.0
 40
0.0
 40
0.0
 40
1.0
 40
1.0
 40
1.0
 40
2.0
 40
2.0
 40
2.0
 40
3.0
 40
3.0
 40
3.0
 40
4.0
 40
4.0
 40
4.0
 40
5.0
 40
5.0
 40
5.0
 40
6.0
 40
6.0
 40
6.0
 40
7.0
 40
7.0
 40
7.0
 40
8.0
 40
8.0
 40
8.0
 40
9.0
 40
9.0
 40
9.0
 40
10.0
 40
10.0
 40
10.0
 40
11.0
 40
11.0
 40
11.0
 40
12.0
 40
12.0
 40
12.0
 40
13.0
 40
13.0
 40
13.0
 40
14.0
 40
14.0
 40
14.0
 40
15.0
 40
15.0
 40
15.0
 40
15.0
 10
155.4327175175654
 20
-120.4498399221445
 10
155.4327175175654
 20
-120.4498399221445
 10
152.2835557344985
 20
-120.4498399221445
 10
152.2835557344985
 20
-120.4498399221445
 10
152.2835557344985
 20
-120.4498399221445
 10
151.966262440307
 20
-122.57046844809
 10
151.966262440307
 20
-122.57046844809
 10
152.1567762206414
 20
-122.5451469962734
 10
152.3345431476802
 20
-122.5196532896826
 10
152.6390895885763
 20
-122.5196532896826
 10
153.2740206865079
 20
-122.5196532896826
 10
153.9089517844394
 20
-122.6593519116095
 10
154.4171033685137
 20
-122.9640706072798
 10
155.0644368101921
 20
-123.332351314653
 10
155.5980821008574
 20
-124.0434190228086
 10
155.5980821008574
 20
-125.0846991332253
 10
155.5980821008574
 20
-126.697520584645
 10
154.3154730516989
 20
-127.9038207688053
 10
152.5250569280146
 20
-127.9038207688053
 10
151.6234754395247
 20
-127.9038207688053
 10
150.8614203181874
 20
-127.6499172315424
 10
150.4676459042233
 20
-127.3958414395052
 10
150.4676459042233
 20
-127.3958414395052
 10
150.7470431480771
 20
-126.5450751094227
 10
150.7470431480771
 20
-126.5450751094227
 10
151.0898301488595
 20
-126.7481634882782
 10
151.7630018066773
 20
-127.0022392803154
 10
152.5123100747191
 20
-127.0022392803154
 10
153.5661647836571
 20
-127.0022392803154
 10
154.4677462721469
 20
-126.3164930239764
 10
154.4677462721469
 20
-125.2118231566311
 10
154.4549994188515
 20
-124.1450493396234
 10
153.7439317106959
 20
-123.3831664730604
 10
152.0930419541642
 20
-123.3831664730604
 10
151.6234754395247
 20
-123.3831664730604
 10
151.2551947321515
 20
-123.4339816314679
 10
150.9503037817069
 20
-123.4720499365799
 10
150.9503037817069
 20
-123.4720499365799
 10
151.4836045628235
 20
-119.5101901285426
 10
151.4836045628235
 20
-119.5101901285426
 10
151.4836045628235
 20
-119.5101901285426
 10
155.4327175175654
 20
-119.5101901285426
 10
155.4327175175654
 20
-119.5101901285426
 10
155.4327175175654
 20
-119.5101901285426
 10
155.4327175175654
 20
-120.4498399221445
 10
155.4327175175654
 20
-120.4498399221445
 97
        0
 97
        1
330
B9
 75
     2
 76
     1
 98
        1
 10
0.0
 20
0.0
450
        0
451
        0
460
0.0
461
0.0
452
        0
462
0.0
453
        0
470

  0
SPLINE
  5
BB
330
B5
100
AcDbEntity
  8
Livello 1
100
AcDbSpline
210
0.0
220
0.0
230
1.0
 70
     9
 71
     3
 72
    17
 73
    13
 74
     0
 42
0.000000001
 43
0.0000000001
 40
0.0
 40
0.0
 40
0.0
 40
0.0
 40
1.0
 40
1.0
 40
1.0
 40
2.0
 40
2.0
 40
2.0
 40
3.0
 40
3.0
 40
3.0
 40
4.0
 40
4.0
 40
4.0
 40
4.0
 10
158.2904242225802
 20
-121.4911200325612
 30
0.0
 10
158.2904242225802
 20
-122.3165649108271
 30
0.0
 10
158.9126084672163
 20
-122.7609822284243
 30
0.0
 10
159.8651773688879
 20
-123.0148857656872
 30
0.0
 10
160.5762450770434
 20
-122.7737290817197
 30
0.0
 10
161.1222927114555
 20
-122.2657497524197
 30
0.0
 10
161.1222927114555
 20
-121.5164414843778
 30
0.0
 10
161.1222927114555
 20
-120.8561889346297
 30
0.0
 10
160.7285182974915
 20
-120.1704426782907
 30
0.0
 10
159.7253064921867
 20
-120.1704426782907
 30
0.0
 10
158.7985758066545
 20
-120.1704426782907
 30
0.0
 10
158.2904242225802
 20
-120.7800523244057
 30
0.0
 10
158.2904242225802
 20
-121.4911200325612
 30
0.0
  0
SPLINE
  5
BC
330
B5
100
AcDbEntity
  8
Livello 1
100
AcDbSpline
210
0.0
220
0.0
230
1.0
 70
     9
 71
     3
 72
    17
 73
    13
 74
     0
 42
0.000000001
 43
0.0000000001
 40
0.0
 40
0.0
 40
0.0
 40
0.0
 40
1.0
 40
1.0
 40
1.0
 40
2.0
 40
2.0
 40
2.0
 40
3.0
 40
3.0
 40
3.0
 40
4.0
 40
4.0
 40
4.0
 40
4.0
 10
161.363449395423
 20
-125.6181721691163
 30
0.0
 10
161.363449395423
 20
-124.6149603638115
 30
0.0
 10
160.6651285405629
 20
-124.132302486328
 30
0.0
 10
159.5475395651478
 20
-123.8148369373623
 30
0.0
 10
158.5825683197294
 20
-124.094234181216
 30
0.0
 10
158.0620143919081
 20
-124.7291652791476
 30
0.0
 10
158.0620143919081
 20
-125.5165418523014
 30
0.0
 10
158.0237738320218
 20
-126.3545613290884
 30
0.0
 10
158.6587049299534
 20
-127.0911227438348
 30
0.0
 10
159.7129041484398
 20
-127.0911227438348
 30
0.0
 10
160.7161159537445
 20
-127.0911227438348
 30
0.0
 10
161.363449395423
 20
-126.4689384991987
 30
0.0
 10
161.363449395423
 20
-125.6181721691163
 30
0.0
  0
SPLINE
  5
BD
330
B5
100
AcDbEntity
  8
Livello 1
100
AcDbSpline
210
0.0
220
0.0
230
1.0
 70
     9
 71
     3
 72
    35
 73
    31
 74
     0
 42
0.000000001
 43
0.0000000001
 40
0.0
 40
0.0
 40
0.0
 40
0.0
 40
1.0
 40
1.0
 40
1.0
 40
2.0
 40
2.0
 40
2.0
 40
3.0
 40
3.0
 40
3.0
 40
4.0
 40
4.0
 40
4.0
 40
5.0
 40
5.0
 40
5.0
 40
6.0
 40
6.0
 40
6.0
 40
7.0
 40
7.0
 40
7.0
 40
8.0
 40
8.0
 40
8.0
 40
9.0
 40
9.0
 40
9.0
 40
10.0
 40
10.0
 40
10.0
 40
10.0
 10
156.9192762194507
 20
-125.6688150727494
 30
0.0
 10
156.9192762194507
 20
-124.6275349623327
 30
0.0
 10
157.5414604640869
 20
-123.8911458023605
 30
0.0
 10
158.5570746131385
 20
-123.4593030832844
 30
0.0
 10
158.5570746131385
 20
-123.4593030832844
 30
0.0
 10
158.5446722693916
 20
-123.4212347781725
 30
0.0
 10
158.5446722693916
 20
-123.4212347781725
 30
0.0
 10
157.6303439276063
 20
-122.9895643138706
 30
0.0
 10
157.2365695136422
 20
-122.2784966057151
 30
0.0
 10
157.2365695136422
 20
-121.5672566427853
 30
0.0
 10
157.2365695136422
 20
-120.2593261418102
 30
0.0
 10
158.3414116357619
 20
-119.3704915066157
 30
0.0
 10
159.7890407586638
 20
-119.3704915066157
 30
0.0
 10
161.3889431020139
 20
-119.3704915066157
 30
0.0
 10
162.1888942736889
 20
-120.3737033119204
 30
0.0
 10
162.1888942736889
 20
-121.4022365690418
 30
0.0
 10
162.1888942736889
 20
-122.1005574239019
 30
0.0
 10
161.8461072729065
 20
-122.8498656919438
 30
0.0
 10
160.8301486143063
 20
-123.332351314653
 30
0.0
 10
160.8301486143063
 20
-123.332351314653
 30
0.0
 10
160.8301486143063
 20
-123.370419619765
 30
0.0
 10
160.8301486143063
 20
-123.370419619765
 30
0.0
 10
161.8588541262019
 20
-123.7767686322502
 30
0.0
 10
162.4937852241335
 20
-124.5005831937012
 30
0.0
 10
162.4937852241335
 20
-125.503794999006
 30
0.0
 10
162.4937852241335
 20
-126.9386772686125
 30
0.0
 10
161.2618190786081
 20
-127.9038207688053
 30
0.0
 10
159.6874104418489
 20
-127.9038207688053
 30
0.0
 10
157.9603840750932
 20
-127.9038207688053
 30
0.0
 10
156.9192762194507
 20
-126.8752875116839
 30
0.0
 10
156.9192762194507
 20
-125.6688150727494
 30
0.0
  0
HATCH
  5
BE
330
B5
100
AcDbEntity
  8
Livello 1
 62
   250
420
  1907995
440
 33554687
100
AcDbHatch
 10
0.0
 20
0.0
 30
0.0
210
0.0
220
0.0
230
1.0
  2
SOLID
 70
     1
 71
     1
 91
        3
 92
        1
 93
        1
 72
     4
 94
        3
 73
     0
 74
     0
 95
       17
 96
       13
 40
0.0
 40
0.0
 40
0.0
 40
0.0
 40
1.0
 40
1.0
 40
1.0
 40
2.0
 40
2.0
 40
2.0
 40
3.0
 40
3.0
 40
3.0
 40
4.0
 40
4.0
 40
4.0
 40
4.0
 10
158.2904242225802
 20
-121.4911200325612
 10
158.2904242225802
 20
-122.3165649108271
 10
158.9126084672163
 20
-122.7609822284243
 10
159.8651773688879
 20
-123.0148857656872
 10
160.5762450770434
 20
-122.7737290817197
 10
161.1222927114555
 20
-122.2657497524197
 10
161.1222927114555
 20
-121.5164414843778
 10
161.1222927114555
 20
-120.8561889346297
 10
160.7285182974915
 20
-120.1704426782907
 10
159.7253064921867
 20
-120.1704426782907
 10
158.7985758066545
 20
-120.1704426782907
 10
158.2904242225802
 20
-120.7800523244057
 10
158.2904242225802
 20
-121.4911200325612
 97
        0
 97
        1
330
BB
 92
        1
 93
        1
 72
     4
 94
        3
 73
     0
 74
     0
 95
       17
 96
       13
 40
0.0
 40
0.0
 40
0.0
 40
0.0
 40
1.0
 40
1.0
 40
1.0
 40
2.0
 40
2.0
 40
2.0
 40
3.0
 40
3.0
 40
3.0
 40
4.0
 40
4.0
 40
4.0
 40
4.0
 10
161.363449395423
 20
-125.6181721691163
 10
161.363449395423
 20
-124.6149603638115
 10
160.6651285405629
 20
-124.132302486328
 10
159.5475395651478
 20
-123.8148369373623
 10
158.5825683197294
 20
-124.094234181216
 10
158.0620143919081
 20
-124.7291652791476
 10
158.0620143919081
 20
-125.5165418523014
 10
158.0237738320218
 20
-126.3545613290884
 10
158.6587049299534
 20
-127.0911227438348
 10
159.7129041484398
 20
-127.0911227438348
 10
160.7161159537445
 20
-127.0911227438348
 10
161.363449395423
 20
-126.4689384991987
 10
161.363449395423
 20
-125.6181721691163
 97
        0
 97
        1
330
BC
 92
        1
 93
        1
 72
     4
 94
        3
 73
     0
 74
     0
 95
       35
 96
       31
 40
0.0
 40
0.0
 40
0.0
 40
0.0
 40
1.0
 40
1.0
 40
1.0
 40
2.0
 40
2.0
 40
2.0
 40
3.0
 40
3.0
 40
3.0
 40
4.0
 40
4.0
 40
4.0
 40
5.0
 40
5.0
 40
5.0
 40
6.0
 40
6.0
 40
6.0
 40
7.0
 40
7.0
 40
7.0
 40
8.0
 40
8.0
 40
8.0
 40
9.0
 40
9.0
 40
9.0
 40
10.0
 40
10.0
 40
10.0
 40
10.0
 10
156.9192762194507
 20
-125.6688150727494
 10
156.9192762194507
 20
-124.6275349623327
 10
157.5414604640869
 20
-123.8911458023605
 10
158.5570746131385
 20
-123.4593030832844
 10
158.5570746131385
 20
-123.4593030832844
 10
158.5446722693916
 20
-123.4212347781725
 10
158.5446722693916
 20
-123.4212347781725
 10
157.6303439276063
 20
-122.9895643138706
 10
157.2365695136422
 20
-122.2784966057151
 10
157.2365695136422
 20
-121.5672566427853
 10
157.2365695136422
 20
-120.2593261418102
 10
158.3414116357619
 20
-119.3704915066157
 10
159.7890407586638
 20
-119.3704915066157
 10
161.3889431020139
 20
-119.3704915066157
 10
162.1888942736889
 20
-120.3737033119204
 10
162.1888942736889
 20
-121.4022365690418
 10
162.1888942736889
 20
-122.1005574239019
 10
161.8461072729065
 20
-122.8498656919438
 10
160.8301486143063
 20
-123.332351314653
 10
160.8301486143063
 20
-123.332351314653
 10
160.8301486143063
 20
-123.370419619765
 10
160.8301486143063
 20
-123.370419619765
 10
161.8588541262019
 20
-123.7767686322502
 10
162.4937852241335
 20
-124.5005831937012
 10
162.4937852241335
 20
-125.503794999006
 10
162.4937852241335
 20
-126.9386772686125
 10
161.2618190786081
 20
-127.9038207688053
 10
159.6874104418489
 20
-127.9038207688053
 10
157.9603840750932
 20
-127.9038207688053
 10
156.9192762194507
 20
-126.8752875116839
 10
156.9192762194507
 20
-125.6688150727494
 97
        0
 97
        1
330
BD
 75
     2
 76
     1
 98
        1
 10
0.0
 20
0.0
450
        0
451
        0
460
0.0
461
0.0
452
        0
462
0.0
453
        0
470

  0
ENDBLK
  5
B8
330
B5
100
AcDbEntity
  8
0
100
AcDbBlockEnd
  0
BLOCK
  5
C1
330
BF
100
AcDbEntity
  8
0
100
AcDbBlockBegin
  2
Block_6
 70
     0
 10
0.0
 20
0.0
 30
0.0
  3
Block_6
  1

  0
INSERT
  5
C4
330
BF
100
AcDbEntity
  8
Livello 1
100
AcDbBlockReference
  2
Block_7
 10
0.0
 20
0.0
 30
0.0
  0
ENDBLK
  5
C2
330
BF
100
AcDbEntity
  8
0
100
AcDbBlockEnd
  0
BLOCK
  5
C5
330
C3
100
AcDbEntity
  8
0
100
AcDbBlockBegin
  2
Block_7
 70
     0
 10
0.0
 20
0.0
 30
0.0
  3
Block_7
  1

  0
SPLINE
  5
C7
330
C3
100
AcDbEntity
  8
Livello 1
100
AcDbSpline
210
0.0
220
0.0
230
1.0
 70
    11
 71
     3
 72
    50
 73
    46
 74
     0
 42
0.000000001
 43
0.0000000001
 40
0.0
 40
0.0
 40
0.0
 40
0.0
 40
1.0
 40
1.0
 40
1.0
 40
2.0
 40
2.0
 40
2.0
 40
3.0
 40
3.0
 40
3.0
 40
4.0
 40
4.0
 40
4.0
 40
5.0
 40
5.0
 40
5.0
 40
6.0
 40
6.0
 40
6.0
 40
7.0
 40
7.0
 40
7.0
 40
8.0
 40
8.0
 40
8.0
 40
9.0
 40
9.0
 40
9.0
 40
10.0
 40
10.0
 40
10.0
 40
11.0
 40
11.0
 40
11.0
 40
12.0
 40
12.0
 40
12.0
 40
13.0
 40
13.0
 40
13.0
 40
14.0
 40
14.0
 40
14.0
 40
15.0
 40
15.0
 40
15.0
 40
15.0
 10
192.9205240403115
 20
-78.47169594392375
 30
0.0
 10
192.9205240403115
 20
-78.47169594392375
 30
0.0
 10
192.9205240403115
 20
-81.62085772699063
 30
0.0
 10
192.9205240403115
 20
-81.62085772699063
 30
0.0
 10
192.9205240403115
 20
-81.62085772699063
 30
0.0
 10
195.0413248210313
 20
-81.93832327595639
 30
0.0
 10
195.0413248210313
 20
-81.93832327595639
 30
0.0
 10
195.0158311144405
 20
-81.74780949562208
 30
0.0
 10
194.9903374078496
 20
-81.5700425685832
 30
0.0
 10
194.9903374078496
 20
-81.26532387291284
 30
0.0
 10
194.9903374078496
 20
-80.6303927749813
 30
0.0
 10
195.1302082845508
 20
-79.99546167704973
 30
0.0
 10
195.4347547254469
 20
-79.48748234774964
 30
0.0
 10
195.8030354328201
 20
-78.83997665129695
 30
0.0
 10
196.5141031409756
 20
-78.30650361540602
 30
0.0
 10
197.5555555061666
 20
-78.30650361540602
 30
0.0
 10
199.1682047028121
 20
-78.30650361540602
 30
0.0
 10
200.3746771417466
 20
-79.58911266456451
 30
0.0
 10
200.3746771417466
 20
-81.37952878824888
 30
0.0
 10
200.3746771417466
 20
-82.28111027673874
 30
0.0
 10
200.1207736044837
 20
-83.04316539807601
 30
0.0
 10
199.8665255576723
 20
-83.43676755726582
 30
0.0
 10
199.8665255576723
 20
-83.43676755726582
 30
0.0
 10
199.0159314823641
 20
-83.15737031341205
 30
0.0
 10
199.0159314823641
 20
-83.15737031341205
 30
0.0
 10
199.2191921159938
 20
-82.81458331262969
 30
0.0
 10
199.4730956532567
 20
-82.14141165481187
 30
0.0
 10
199.4730956532567
 20
-81.39227564154429
 30
0.0
 10
199.4730956532567
 20
-80.33824867783211
 30
0.0
 10
198.7871771421435
 20
-79.43666718934223
 30
0.0
 10
197.6826795295724
 20
-79.43666718934223
 30
0.0
 10
196.6157334577905
 20
-79.44941404263765
 30
0.0
 10
195.8540228460018
 20
-80.16048175079319
 30
0.0
 10
195.8540228460018
 20
-81.81137150732494
 30
0.0
 10
195.8540228460018
 20
-82.28111027673874
 30
0.0
 10
195.9046657496349
 20
-82.64939098411195
 30
0.0
 10
195.9429063095212
 20
-82.95410967978233
 30
0.0
 10
195.9429063095212
 20
-82.95410967978233
 30
0.0
 10
191.9810465014839
 20
-82.42080889866564
 30
0.0
 10
191.9810465014839
 20
-82.42080889866564
 30
0.0
 10
191.9810465014839
 20
-82.42080889866564
 30
0.0
 10
191.9810465014839
 20
-78.47169594392375
 30
0.0
 10
191.9810465014839
 20
-78.47169594392375
 30
0.0
 10
191.9810465014839
 20
-78.47169594392375
 30
0.0
 10
192.9205240403115
 20
-78.47169594392375
 30
0.0
 10
192.9205240403115
 20
-78.47169594392375
 30
0.0
  0
HATCH
  5
C8
330
C3
100
AcDbEntity
  8
Livello 1
 62
   250
420
  1907995
440
 33554687
100
AcDbHatch
 10
0.0
 20
0.0
 30
0.0
210
0.0
220
0.0
230
1.0
  2
SOLID
 70
     1
 71
     1
 91
        1
 92
        1
 93
        1
 72
     4
 94
        3
 73
     0
 74
     0
 95
       50
 96
       46
 40
0.0
 40
0.0
 40
0.0
 40
0.0
 40
1.0
 40
1.0
 40
1.0
 40
2.0
 40
2.0
 40
2.0
 40
3.0
 40
3.0
 40
3.0
 40
4.0
 40
4.0
 40
4.0
 40
5.0
 40
5.0
 40
5.0
 40
6.0
 40
6.0
 40
6.0
 40
7.0
 40
7.0
 40
7.0
 40
8.0
 40
8.0
 40
8.0
 40
9.0
 40
9.0
 40
9.0
 40
10.0
 40
10.0
 40
10.0
 40
11.0
 40
11.0
 40
11.0
 40
12.0
 40
12.0
 40
12.0
 40
13.0
 40
13.0
 40
13.0
 40
14.0
 40
14.0
 40
14.0
 40
15.0
 40
15.0
 40
15.0
 40
15.0
 10
192.9205240403115
 20
-78.47169594392375
 10
192.9205240403115
 20
-78.47169594392375
 10
192.9205240403115
 20
-81.62085772699063
 10
192.9205240403115
 20
-81.62085772699063
 10
192.9205240403115
 20
-81.62085772699063
 10
195.0413248210313
 20
-81.93832327595639
 10
195.0413248210313
 20
-81.93832327595639
 10
195.0158311144405
 20
-81.74780949562208
 10
194.9903374078496
 20
-81.5700425685832
 10
194.9903374078496
 20
-81.26532387291284
 10
194.9903374078496
 20
-80.6303927749813
 10
195.1302082845508
 20
-79.99546167704973
 10
195.4347547254469
 20
-79.48748234774964
 10
195.8030354328201
 20
-78.83997665129695
 10
196.5141031409756
 20
-78.30650361540602
 10
197.5555555061666
 20
-78.30650361540602
 10
199.1682047028121
 20
-78.30650361540602
 10
200.3746771417466
 20
-79.58911266456451
 10
200.3746771417466
 20
-81.37952878824888
 10
200.3746771417466
 20
-82.28111027673874
 10
200.1207736044837
 20
-83.04316539807601
 10
199.8665255576723
 20
-83.43676755726582
 10
199.8665255576723
 20
-83.43676755726582
 10
199.0159314823641
 20
-83.15737031341205
 10
199.0159314823641
 20
-83.15737031341205
 10
199.2191921159938
 20
-82.81458331262969
 10
199.4730956532567
 20
-82.14141165481187
 10
199.4730956532567
 20
-81.39227564154429
 10
199.4730956532567
 20
-80.33824867783211
 10
198.7871771421435
 20
-79.43666718934223
 10
197.6826795295724
 20
-79.43666718934223
 10
196.6157334577905
 20
-79.44941404263765
 10
195.8540228460018
 20
-80.16048175079319
 10
195.8540228460018
 20
-81.81137150732494
 10
195.8540228460018
 20
-82.28111027673874
 10
195.9046657496349
 20
-82.64939098411195
 10
195.9429063095212
 20
-82.95410967978233
 10
195.9429063095212
 20
-82.95410967978233
 10
191.9810465014839
 20
-82.42080889866564
 10
191.9810465014839
 20
-82.42080889866564
 10
191.9810465014839
 20
-82.42080889866564
 10
191.9810465014839
 20
-78.47169594392375
 10
191.9810465014839
 20
-78.47169594392375
 10
191.9810465014839
 20
-78.47169594392375
 10
192.9205240403115
 20
-78.47169594392375
 10
192.9205240403115
 20
-78.47169594392375
 97
        0
 97
        1
330
C7
 75
     2
 76
     1
 98
        1
 10
0.0
 20
0.0
450
        0
451
        0
460
0.0
461
0.0
452
        0
462
0.0
453
        0
470

  0
SPLINE
  5
C9
330
C3
100
AcDbEntity
  8
Livello 1
100
AcDbSpline
210
0.0
220
0.0
230
1.0
 70
     9
 71
     3
 72
    20
 73
    16
 74
     0
 42
0.000000001
 43
0.0000000001
 40
0.0
 40
0.0
 40
0.0
 40
0.0
 40
1.0
 40
1.0
 40
1.0
 40
2.0
 40
2.0
 40
2.0
 40
3.0
 40
3.0
 40
3.0
 40
4.0
 40
4.0
 40
4.0
 40
5.0
 40
5.0
 40
5.0
 40
5.0
 10
194.698537820249
 20
-75.8298244710599
 30
0.0
 10
195.726898822596
 20
-75.8298244710599
 30
0.0
 10
196.450713384047
 20
-75.20764022642379
 30
0.0
 10
196.450713384047
 20
-74.24249672623105
 30
0.0
 10
196.450713384047
 20
-73.49336071296345
 30
0.0
 10
196.0824326766738
 20
-72.90924477343934
 30
0.0
 10
195.5873724554434
 20
-72.61710067629016
 30
0.0
 10
195.4857421386286
 20
-72.55371091936158
 30
0.0
 10
195.3586181152228
 20
-72.5154703594753
 30
0.0
 10
195.1808511881839
 20
-72.5154703594753
 30
0.0
 10
193.7714626251682
 20
-72.5154703594753
 30
0.0
 10
192.6921142096395
 20
-73.03619654207081
 30
0.0
 10
192.6921142096395
 20
-74.20442842111903
 30
0.0
 10
192.6921142096395
 20
-75.15682506801635
 30
0.0
 10
193.5303059412007
 20
-75.8298244710599
 30
0.0
 10
194.698537820249
 20
-75.8298244710599
 30
0.0
  0
SPLINE
  5
CA
330
C3
100
AcDbEntity
  8
Livello 1
100
AcDbSpline
210
0.0
220
0.0
230
1.0
 70
     9
 71
     3
 72
    41
 73
    37
 74
     0
 42
0.000000001
 43
0.0000000001
 40
0.0
 40
0.0
 40
0.0
 40
0.0
 40
1.0
 40
1.0
 40
1.0
 40
2.0
 40
2.0
 40
2.0
 40
3.0
 40
3.0
 40
3.0
 40
4.0
 40
4.0
 40
4.0
 40
5.0
 40
5.0
 40
5.0
 40
6.0
 40
6.0
 40
6.0
 40
7.0
 40
7.0
 40
7.0
 40
8.0
 40
8.0
 40
8.0
 40
9.0
 40
9.0
 40
9.0
 40
10.0
 40
10.0
 40
10.0
 40
11.0
 40
11.0
 40
11.0
 40
12.0
 40
12.0
 40
12.0
 40
12.0
 10
199.4476019466659
 20
-76.23617348354511
 30
0.0
 10
199.4730956532567
 20
-75.99484454480337
 30
0.0
 10
199.4476019466659
 20
-75.71561955572388
 30
0.0
 10
199.4093613867796
 20
-75.33459199505525
 30
0.0
 10
199.3204779232602
 20
-74.68691404382828
 30
0.0
 10
199.0538275327018
 20
-74.07747665248756
 30
0.0
 10
198.6094102151046
 20
-73.6075656282995
 30
0.0
 10
198.1143499938742
 20
-73.0615179938874
 30
0.0
 10
197.3905354324232
 20
-72.6679158346976
 30
0.0
 10
196.4128173337093
 20
-72.5154703594753
 30
0.0
 10
196.4128173337093
 20
-72.5154703594753
 30
0.0
 10
196.4128173337093
 20
-72.55371091936158
 30
0.0
 10
196.4128173337093
 20
-72.55371091936158
 30
0.0
 10
196.9712673118683
 20
-73.01070283547996
 30
0.0
 10
197.3016519689037
 20
-73.67112764000236
 30
0.0
 10
197.3016519689037
 20
-74.49657251826822
 30
0.0
 10
197.3016519689037
 20
-75.9822699462822
 30
0.0
 10
196.1840629934887
 20
-76.93466659317953
 30
0.0
 10
194.774674430473
 20
-76.93466659317953
 30
0.0
 10
193.2126681374606
 20
-76.93466659317953
 30
0.0
 10
191.8411756247826
 20
-75.80450301924333
 30
0.0
 10
191.8411756247826
 20
-74.11554495759959
 30
0.0
 10
191.8411756247826
 20
-72.42658689595583
 30
0.0
 10
193.2126681374606
 20
-71.38530678553909
 30
0.0
 10
195.3207220648851
 20
-71.38530678553909
 30
0.0
 10
197.1366318951601
 20
-71.38530678553909
 30
0.0
 10
198.4064940910234
 20
-71.99491643165405
 30
0.0
 10
199.193698409403
 20
-72.80761445662449
 30
0.0
 10
199.8158826540391
 20
-73.44254555455603
 30
0.0
 10
200.1969102147077
 20
-74.31863333645506
 30
0.0
 10
200.2985405315226
 20
-75.20764022642379
 30
0.0
 10
200.3619302884512
 20
-75.613989238909
 30
0.0
 10
200.3746771417466
 20
-75.96952309298679
 30
0.0
 10
200.3619302884512
 20
-76.23617348354511
 30
0.0
 10
200.3619302884512
 20
-76.23617348354511
 30
0.0
 10
199.4476019466659
 20
-76.23617348354511
 30
0.0
 10
199.4476019466659
 20
-76.23617348354511
 30
0.0
  0
HATCH
  5
CB
330
C3
100
AcDbEntity
  8
Livello 1
 62
   250
420
  1907995
440
 33554687
100
AcDbHatch
 10
0.0
 20
0.0
 30
0.0
210
0.0
220
0.0
230
1.0
  2
SOLID
 70
     1
 71
     1
 91
        2
 92
        1
 93
        1
 72
     4
 94
        3
 73
     0
 74
     0
 95
       20
 96
       16
 40
0.0
 40
0.0
 40
0.0
 40
0.0
 40
1.0
 40
1.0
 40
1.0
 40
2.0
 40
2.0
 40
2.0
 40
3.0
 40
3.0
 40
3.0
 40
4.0
 40
4.0
 40
4.0
 40
5.0
 40
5.0
 40
5.0
 40
5.0
 10
194.698537820249
 20
-75.8298244710599
 10
195.726898822596
 20
-75.8298244710599
 10
196.450713384047
 20
-75.20764022642379
 10
196.450713384047
 20
-74.24249672623105
 10
196.450713384047
 20
-73.49336071296345
 10
196.0824326766738
 20
-72.90924477343934
 10
195.5873724554434
 20
-72.61710067629016
 10
195.4857421386286
 20
-72.55371091936158
 10
195.3586181152228
 20
-72.5154703594753
 10
195.1808511881839
 20
-72.5154703594753
 10
193.7714626251682
 20
-72.5154703594753
 10
192.6921142096395
 20
-73.03619654207081
 10
192.6921142096395
 20
-74.20442842111903
 10
192.6921142096395
 20
-75.15682506801635
 10
193.5303059412007
 20
-75.8298244710599
 10
194.698537820249
 20
-75.8298244710599
 97
        0
 97
        1
330
C9
 92
        1
 93
        1
 72
     4
 94
        3
 73
     0
 74
     0
 95
       41
 96
       37
 40
0.0
 40
0.0
 40
0.0
 40
0.0
 40
1.0
 40
1.0
 40
1.0
 40
2.0
 40
2.0
 40
2.0
 40
3.0
 40
3.0
 40
3.0
 40
4.0
 40
4.0
 40
4.0
 40
5.0
 40
5.0
 40
5.0
 40
6.0
 40
6.0
 40
6.0
 40
7.0
 40
7.0
 40
7.0
 40
8.0
 40
8.0
 40
8.0
 40
9.0
 40
9.0
 40
9.0
 40
10.0
 40
10.0
 40
10.0
 40
11.0
 40
11.0
 40
11.0
 40
12.0
 40
12.0
 40
12.0
 40
12.0
 10
199.4476019466659
 20
-76.23617348354511
 10
199.4730956532567
 20
-75.99484454480337
 10
199.4476019466659
 20
-75.71561955572388
 10
199.4093613867796
 20
-75.33459199505525
 10
199.3204779232602
 20
-74.68691404382828
 10
199.0538275327018
 20
-74.07747665248756
 10
198.6094102151046
 20
-73.6075656282995
 10
198.1143499938742
 20
-73.0615179938874
 10
197.3905354324232
 20
-72.6679158346976
 10
196.4128173337093
 20
-72.5154703594753
 10
196.4128173337093
 20
-72.5154703594753
 10
196.4128173337093
 20
-72.55371091936158
 10
196.4128173337093
 20
-72.55371091936158
 10
196.9712673118683
 20
-73.01070283547996
 10
197.3016519689037
 20
-73.67112764000236
 10
197.3016519689037
 20
-74.49657251826822
 10
197.3016519689037
 20
-75.9822699462822
 10
196.1840629934887
 20
-76.93466659317953
 10
194.774674430473
 20
-76.93466659317953
 10
193.2126681374606
 20
-76.93466659317953
 10
191.8411756247826
 20
-75.80450301924333
 10
191.8411756247826
 20
-74.11554495759959
 10
191.8411756247826
 20
-72.42658689595583
 10
193.2126681374606
 20
-71.38530678553909
 10
195.3207220648851
 20
-71.38530678553909
 10
197.1366318951601
 20
-71.38530678553909
 10
198.4064940910234
 20
-71.99491643165405
 10
199.193698409403
 20
-72.80761445662449
 10
199.8158826540391
 20
-73.44254555455603
 10
200.1969102147077
 20
-74.31863333645506
 10
200.2985405315226
 20
-75.20764022642379
 10
200.3619302884512
 20
-75.613989238909
 10
200.3746771417466
 20
-75.96952309298679
 10
200.3619302884512
 20
-76.23617348354511
 10
200.3619302884512
 20
-76.23617348354511
 10
199.4476019466659
 20
-76.23617348354511
 10
199.4476019466659
 20
-76.23617348354511
 97
        0
 97
        1
330
CA
 75
     2
 76
     1
 98
        1
 10
0.0
 20
0.0
450
        0
451
        0
460
0.0
461
0.0
452
        0
462
0.0
453
        0
470

  0
ENDBLK
  5
C6
330
C3
100
AcDbEntity
  8
0
100
AcDbBlockEnd
  0
BLOCK
  5
CE
330
CC
100
AcDbEntity
  8
0
100
AcDbBlockBegin
  2
Block_8
 70
     0
 10
0.0
 20
0.0
 30
0.0
  3
Block_8
  1

  0
INSERT
  5
D1
330
CC
100
AcDbEntity
  8
Livello 1
100
AcDbBlockReference
  2
Block_9
 10
0.0
 20
0.0
 30
0.0
  0
ENDBLK
  5
CF
330
CC
100
AcDbEntity
  8
0
100
AcDbBlockEnd
  0
BLOCK
  5
D2
330
D0
100
AcDbEntity
  8
0
100
AcDbBlockBegin
  2
Block_9
 70
     0
 10
0.0
 20
0.0
 30
0.0
  3
Block_9
  1

  0
SPLINE
  5
D4
330
D0
100
AcDbEntity
  8
Livello 1
100
AcDbSpline
210
0.0
220
0.0
230
1.0
 70
    11
 71
     3
 72
    26
 73
    22
 74
     0
 42
0.000000001
 43
0.0000000001
 40
0.0
 40
0.0
 40
0.0
 40
0.0
 40
1.0
 40
1.0
 40
1.0
 40
2.0
 40
2.0
 40
2.0
 40
3.0
 40
3.0
 40
3.0
 40
4.0
 40
4.0
 40
4.0
 40
5.0
 40
5.0
 40
5.0
 40
6.0
 40
6.0
 40
6.0
 40
7.0
 40
7.0
 40
7.0
 40
7.0
 10
45.83699543124907
 20
-260.1536294922533
 30
0.0
 10
45.83699543124907
 20
-260.1536294922533
 30
0.0
 10
45.83699543124907
 20
-257.3978976136019
 30
0.0
 10
45.83699543124907
 20
-257.3978976136019
 30
0.0
 10
45.83699543124907
 20
-256.9662271493001
 30
0.0
 10
45.8497422845445
 20
-256.5345566849984
 30
0.0
 10
45.87506373636109
 20
-256.1028862206965
 30
0.0
 10
45.87506373636109
 20
-256.1028862206965
 30
0.0
 10
45.83699543124907
 20
-256.1028862206965
 30
0.0
 10
45.83699543124907
 20
-256.1028862206965
 30
0.0
 10
45.5829196392119
 20
-256.5851995886315
 30
0.0
 10
45.37983126035642
 20
-256.9407334427093
 30
0.0
 10
45.1512491749101
 20
-257.3217610033779
 30
0.0
 10
45.1512491749101
 20
-257.3217610033779
 30
0.0
 10
43.13225096577943
 20
-260.1281357856624
 30
0.0
 10
43.13225096577943
 20
-260.1281357856624
 30
0.0
 10
43.13225096577943
 20
-260.1281357856624
 30
0.0
 10
43.13225096577943
 20
-260.1536294922533
 30
0.0
 10
43.13225096577943
 20
-260.1536294922533
 30
0.0
 10
43.13225096577943
 20
-260.1536294922533
 30
0.0
 10
45.83699543124907
 20
-260.1536294922533
 30
0.0
 10
45.83699543124907
 20
-260.1536294922533
 30
0.0
  0
SPLINE
  5
D5
330
D0
100
AcDbEntity
  8
Livello 1
100
AcDbSpline
210
0.0
220
0.0
230
1.0
 70
    11
 71
     3
 72
    38
 73
    34
 74
     0
 42
0.000000001
 43
0.0000000001
 40
0.0
 40
0.0
 40
0.0
 40
0.0
 40
1.0
 40
1.0
 40
1.0
 40
2.0
 40
2.0
 40
2.0
 40
3.0
 40
3.0
 40
3.0
 40
4.0
 40
4.0
 40
4.0
 40
5.0
 40
5.0
 40
5.0
 40
6.0
 40
6.0
 40
6.0
 40
7.0
 40
7.0
 40
7.0
 40
8.0
 40
8.0
 40
8.0
 40
9.0
 40
9.0
 40
9.0
 40
10.0
 40
10.0
 40
10.0
 40
11.0
 40
11.0
 40
11.0
 40
11.0
 10
45.83699543124907
 20
-263.2772975687294
 30
0.0
 10
45.83699543124907
 20
-263.2772975687294
 30
0.0
 10
45.83699543124907
 20
-261.0297172741523
 30
0.0
 10
45.83699543124907
 20
-261.0297172741523
 30
0.0
 10
45.83699543124907
 20
-261.0297172741523
 30
0.0
 10
42.00208739184322
 20
-261.0297172741523
 30
0.0
 10
42.00208739184322
 20
-261.0297172741523
 30
0.0
 10
42.00208739184322
 20
-261.0297172741523
 30
0.0
 10
42.00208739184322
 20
-260.2931558594059
 30
0.0
 10
42.00208739184322
 20
-260.2931558594059
 30
0.0
 10
42.00208739184322
 20
-260.2931558594059
 30
0.0
 10
45.68454995602677
 20
-255.0235378051677
 30
0.0
 10
45.68454995602677
 20
-255.0235378051677
 30
0.0
 10
45.68454995602677
 20
-255.0235378051677
 30
0.0
 10
46.890850140187
 20
-255.0235378051677
 30
0.0
 10
46.890850140187
 20
-255.0235378051677
 30
0.0
 10
46.890850140187
 20
-255.0235378051677
 30
0.0
 10
46.890850140187
 20
-260.1536294922533
 30
0.0
 10
46.890850140187
 20
-260.1536294922533
 30
0.0
 10
46.890850140187
 20
-260.1536294922533
 30
0.0
 10
48.04650742071407
 20
-260.1536294922533
 30
0.0
 10
48.04650742071407
 20
-260.1536294922533
 30
0.0
 10
48.04650742071407
 20
-260.1536294922533
 30
0.0
 10
48.04650742071407
 20
-261.0297172741523
 30
0.0
 10
48.04650742071407
 20
-261.0297172741523
 30
0.0
 10
48.04650742071407
 20
-261.0297172741523
 30
0.0
 10
46.890850140187
 20
-261.0297172741523
 30
0.0
 10
46.890850140187
 20
-261.0297172741523
 30
0.0
 10
46.890850140187
 20
-261.0297172741523
 30
0.0
 10
46.890850140187
 20
-263.2772975687294
 30
0.0
 10
46.890850140187
 20
-263.2772975687294
 30
0.0
 10
46.890850140187
 20
-263.2772975687294
 30
0.0
 10
45.83699543124907
 20
-263.2772975687294
 30
0.0
 10
45.83699543124907
 20
-263.2772975687294
 30
0.0
  0
HATCH
  5
D6
330
D0
100
AcDbEntity
  8
Livello 1
 62
   250
420
  1907995
440
 33554687
100
AcDbHatch
 10
0.0
 20
0.0
 30
0.0
210
0.0
220
0.0
230
1.0
  2
SOLID
 70
     1
 71
     1
 91
        2
 92
        1
 93
        1
 72
     4
 94
        3
 73
     0
 74
     0
 95
       26
 96
       22
 40
0.0
 40
0.0
 40
0.0
 40
0.0
 40
1.0
 40
1.0
 40
1.0
 40
2.0
 40
2.0
 40
2.0
 40
3.0
 40
3.0
 40
3.0
 40
4.0
 40
4.0
 40
4.0
 40
5.0
 40
5.0
 40
5.0
 40
6.0
 40
6.0
 40
6.0
 40
7.0
 40
7.0
 40
7.0
 40
7.0
 10
45.83699543124907
 20
-260.1536294922533
 10
45.83699543124907
 20
-260.1536294922533
 10
45.83699543124907
 20
-257.3978976136019
 10
45.83699543124907
 20
-257.3978976136019
 10
45.83699543124907
 20
-256.9662271493001
 10
45.8497422845445
 20
-256.5345566849984
 10
45.87506373636109
 20
-256.1028862206965
 10
45.87506373636109
 20
-256.1028862206965
 10
45.83699543124907
 20
-256.1028862206965
 10
45.83699543124907
 20
-256.1028862206965
 10
45.5829196392119
 20
-256.5851995886315
 10
45.37983126035642
 20
-256.9407334427093
 10
45.1512491749101
 20
-257.3217610033779
 10
45.1512491749101
 20
-257.3217610033779
 10
43.13225096577943
 20
-260.1281357856624
 10
43.13225096577943
 20
-260.1281357856624
 10
43.13225096577943
 20
-260.1281357856624
 10
43.13225096577943
 20
-260.1536294922533
 10
43.13225096577943
 20
-260.1536294922533
 10
43.13225096577943
 20
-260.1536294922533
 10
45.83699543124907
 20
-260.1536294922533
 10
45.83699543124907
 20
-260.1536294922533
 97
        0
 97
        1
330
D4
 92
        1
 93
        1
 72
     4
 94
        3
 73
     0
 74
     0
 95
       38
 96
       34
 40
0.0
 40
0.0
 40
0.0
 40
0.0
 40
1.0
 40
1.0
 40
1.0
 40
2.0
 40
2.0
 40
2.0
 40
3.0
 40
3.0
 40
3.0
 40
4.0
 40
4.0
 40
4.0
 40
5.0
 40
5.0
 40
5.0
 40
6.0
 40
6.0
 40
6.0
 40
7.0
 40
7.0
 40
7.0
 40
8.0
 40
8.0
 40
8.0
 40
9.0
 40
9.0
 40
9.0
 40
10.0
 40
10.0
 40
10.0
 40
11.0
 40
11.0
 40
11.0
 40
11.0
 10
45.83699543124907
 20
-263.2772975687294
 10
45.83699543124907
 20
-263.2772975687294
 10
45.83699543124907
 20
-261.0297172741523
 10
45.83699543124907
 20
-261.0297172741523
 10
45.83699543124907
 20
-261.0297172741523
 10
42.00208739184322
 20
-261.0297172741523
 10
42.00208739184322
 20
-261.0297172741523
 10
42.00208739184322
 20
-261.0297172741523
 10
42.00208739184322
 20
-260.2931558594059
 10
42.00208739184322
 20
-260.2931558594059
 10
42.00208739184322
 20
-260.2931558594059
 10
45.68454995602677
 20
-255.0235378051677
 10
45.68454995602677
 20
-255.0235378051677
 10
45.68454995602677
 20
-255.0235378051677
 10
46.890850140187
 20
-255.0235378051677
 10
46.890850140187
 20
-255.0235378051677
 10
46.890850140187
 20
-255.0235378051677
 10
46.890850140187
 20
-260.1536294922533
 10
46.890850140187
 20
-260.1536294922533
 10
46.890850140187
 20
-260.1536294922533
 10
48.04650742071407
 20
-260.1536294922533
 10
48.04650742071407
 20
-260.1536294922533
 10
48.04650742071407
 20
-260.1536294922533
 10
48.04650742071407
 20
-261.0297172741523
 10
48.04650742071407
 20
-261.0297172741523
 10
48.04650742071407
 20
-261.0297172741523
 10
46.890850140187
 20
-261.0297172741523
 10
46.890850140187
 20
-261.0297172741523
 10
46.890850140187
 20
-261.0297172741523
 10
46.890850140187
 20
-263.2772975687294
 10
46.890850140187
 20
-263.2772975687294
 10
46.890850140187
 20
-263.2772975687294
 10
45.83699543124907
 20
-263.2772975687294
 10
45.83699543124907
 20
-263.2772975687294
 97
        0
 97
        1
330
D5
 75
     2
 76
     1
 98
        1
 10
0.0
 20
0.0
450
        0
451
        0
460
0.0
461
0.0
452
        0
462
0.0
453
        0
470

  0
SPLINE
  5
D7
330
D0
100
AcDbEntity
  8
Livello 1
100
AcDbSpline
210
0.0
220
0.0
230
1.0
 70
     9
 71
     3
 72
    17
 73
    13
 74
     0
 42
0.000000001
 43
0.0000000001
 40
0.0
 40
0.0
 40
0.0
 40
0.0
 40
1.0
 40
1.0
 40
1.0
 40
2.0
 40
2.0
 40
2.0
 40
3.0
 40
3.0
 40
3.0
 40
4.0
 40
4.0
 40
4.0
 40
4.0
 10
50.1676527109824
 20
-257.0044677091864
 30
0.0
 10
50.1676527109824
 20
-257.8299125874523
 30
0.0
 10
50.78983695561852
 20
-258.2743299050495
 30
0.0
 10
51.74223360251583
 20
-258.5282334423124
 30
0.0
 10
52.45347356544566
 20
-258.2870767583449
 30
0.0
 10
52.9993489450835
 20
-257.7789251742706
 30
0.0
 10
52.9993489450835
 20
-257.0296169062288
 30
0.0
 10
52.9993489450835
 20
-256.3695366112548
 30
0.0
 10
52.60574678589371
 20
-255.6836181001416
 30
0.0
 10
51.60253498058895
 20
-255.6836181001416
 30
0.0
 10
50.67563204028248
 20
-255.6836181001416
 30
0.0
 10
50.1676527109824
 20
-256.2934000010308
 30
0.0
 10
50.1676527109824
 20
-257.0044677091864
 30
0.0
  0
SPLINE
  5
D8
330
D0
100
AcDbEntity
  8
Livello 1
100
AcDbSpline
210
0.0
220
0.0
230
1.0
 70
     9
 71
     3
 72
    17
 73
    13
 74
     0
 42
0.000000001
 43
0.0000000001
 40
0.0
 40
0.0
 40
0.0
 40
0.0
 40
1.0
 40
1.0
 40
1.0
 40
2.0
 40
2.0
 40
2.0
 40
3.0
 40
3.0
 40
3.0
 40
4.0
 40
4.0
 40
4.0
 40
4.0
 10
53.24067788382524
 20
-261.1313475909672
 30
0.0
 10
53.24067788382524
 20
-260.1281357856624
 30
0.0
 10
52.54235702896512
 20
-259.6454779081789
 30
0.0
 10
51.42476805355006
 20
-259.3281846139874
 30
0.0
 10
50.45979680813157
 20
-259.6075818578412
 30
0.0
 10
49.93907062553606
 20
-260.2425129557727
 30
0.0
 10
49.93907062553606
 20
-261.0297172741523
 30
0.0
 10
49.90100232042404
 20
-261.8679090057136
 30
0.0
 10
50.5359334183556
 20
-262.60447042046
 30
0.0
 10
51.58996038206779
 20
-262.60447042046
 30
0.0
 10
52.59317218737255
 20
-262.60447042046
 30
0.0
 10
53.24067788382524
 20
-261.9822861758239
 30
0.0
 10
53.24067788382524
 20
-261.1313475909672
 30
0.0
  0
SPLINE
  5
D9
330
D0
100
AcDbEntity
  8
Livello 1
100
AcDbSpline
210
0.0
220
0.0
230
1.0
 70
     9
 71
     3
 72
    35
 73
    31
 74
     0
 42
0.000000001
 43
0.0000000001
 40
0.0
 40
0.0
 40
0.0
 40
0.0
 40
1.0
 40
1.0
 40
1.0
 40
2.0
 40
2.0
 40
2.0
 40
3.0
 40
3.0
 40
3.0
 40
4.0
 40
4.0
 40
4.0
 40
5.0
 40
5.0
 40
5.0
 40
6.0
 40
6.0
 40
6.0
 40
7.0
 40
7.0
 40
7.0
 40
8.0
 40
8.0
 40
8.0
 40
9.0
 40
9.0
 40
9.0
 40
10.0
 40
10.0
 40
10.0
 40
10.0
 10
48.7963324530787
 20
-261.1819904946004
 30
0.0
 10
48.7963324530787
 20
-260.1408826389579
 30
0.0
 10
49.41851669771481
 20
-259.4043212242115
 30
0.0
 10
50.43430310154072
 20
-258.9726507599096
 30
0.0
 10
50.43430310154072
 20
-258.9726507599096
 30
0.0
 10
50.42172850301957
 20
-258.9344102000234
 30
0.0
 10
50.42172850301957
 20
-258.9344102000234
 30
0.0
 10
49.50740016123425
 20
-258.5027397357215
 30
0.0
 10
49.11379800204446
 20
-257.791672027566
 30
0.0
 10
49.11379800204446
 20
-257.0806043194104
 30
0.0
 10
49.11379800204446
 20
-255.7725015636611
 30
0.0
 10
50.21846786938983
 20
-254.8836669284666
 30
0.0
 10
51.66609699229181
 20
-254.8836669284666
 30
0.0
 10
53.2661715904161
 20
-254.8836669284666
 30
0.0
 10
54.06612276209111
 20
-255.8868787337714
 30
0.0
 10
54.06612276209111
 20
-256.915584245667
 30
0.0
 10
54.06612276209111
 20
-257.6139051005271
 30
0.0
 10
53.72316350653449
 20
-258.3632133685689
 30
0.0
 10
52.70737710270857
 20
-258.8455267365039
 30
0.0
 10
52.70737710270857
 20
-258.8455267365039
 30
0.0
 10
52.70737710270857
 20
-258.8837672963902
 30
0.0
 10
52.70737710270857
 20
-258.8837672963902
 30
0.0
 10
53.7359103598299
 20
-259.2899440541011
 30
0.0
 10
54.37084145776146
 20
-260.0137586155522
 30
0.0
 10
54.37084145776146
 20
-261.0169704208569
 30
0.0
 10
54.37084145776146
 20
-262.4518526904635
 30
0.0
 10
53.13904756701038
 20
-263.4171684454305
 30
0.0
 10
51.56446667547694
 20
-263.4171684454305
 30
0.0
 10
49.83761256349546
 20
-263.4171684454305
 30
0.0
 10
48.7963324530787
 20
-262.3884629335349
 30
0.0
 10
48.7963324530787
 20
-261.1819904946004
 30
0.0
  0
HATCH
  5
DA
330
D0
100
AcDbEntity
  8
Livello 1
 62
   250
420
  1907995
440
 33554687
100
AcDbHatch
 10
0.0
 20
0.0
 30
0.0
210
0.0
220
0.0
230
1.0
  2
SOLID
 70
     1
 71
     1
 91
        3
 92
        1
 93
        1
 72
     4
 94
        3
 73
     0
 74
     0
 95
       17
 96
       13
 40
0.0
 40
0.0
 40
0.0
 40
0.0
 40
1.0
 40
1.0
 40
1.0
 40
2.0
 40
2.0
 40
2.0
 40
3.0
 40
3.0
 40
3.0
 40
4.0
 40
4.0
 40
4.0
 40
4.0
 10
50.1676527109824
 20
-257.0044677091864
 10
50.1676527109824
 20
-257.8299125874523
 10
50.78983695561852
 20
-258.2743299050495
 10
51.74223360251583
 20
-258.5282334423124
 10
52.45347356544566
 20
-258.2870767583449
 10
52.9993489450835
 20
-257.7789251742706
 10
52.9993489450835
 20
-257.0296169062288
 10
52.9993489450835
 20
-256.3695366112548
 10
52.60574678589371
 20
-255.6836181001416
 10
51.60253498058895
 20
-255.6836181001416
 10
50.67563204028248
 20
-255.6836181001416
 10
50.1676527109824
 20
-256.2934000010308
 10
50.1676527109824
 20
-257.0044677091864
 97
        0
 97
        1
330
D7
 92
        1
 93
        1
 72
     4
 94
        3
 73
     0
 74
     0
 95
       17
 96
       13
 40
0.0
 40
0.0
 40
0.0
 40
0.0
 40
1.0
 40
1.0
 40
1.0
 40
2.0
 40
2.0
 40
2.0
 40
3.0
 40
3.0
 40
3.0
 40
4.0
 40
4.0
 40
4.0
 40
4.0
 10
53.24067788382524
 20
-261.1313475909672
 10
53.24067788382524
 20
-260.1281357856624
 10
52.54235702896512
 20
-259.6454779081789
 10
51.42476805355006
 20
-259.3281846139874
 10
50.45979680813157
 20
-259.6075818578412
 10
49.93907062553606
 20
-260.2425129557727
 10
49.93907062553606
 20
-261.0297172741523
 10
49.90100232042404
 20
-261.8679090057136
 10
50.5359334183556
 20
-262.60447042046
 10
51.58996038206779
 20
-262.60447042046
 10
52.59317218737255
 20
-262.60447042046
 10
53.24067788382524
 20
-261.9822861758239
 10
53.24067788382524
 20
-261.1313475909672
 97
        0
 97
        1
330
D8
 92
        1
 93
        1
 72
     4
 94
        3
 73
     0
 74
     0
 95
       35
 96
       31
 40
0.0
 40
0.0
 40
0.0
 40
0.0
 40
1.0
 40
1.0
 40
1.0
 40
2.0
 40
2.0
 40
2.0
 40
3.0
 40
3.0
 40
3.0
 40
4.0
 40
4.0
 40
4.0
 40
5.0
 40
5.0
 40
5.0
 40
6.0
 40
6.0
 40
6.0
 40
7.0
 40
7.0
 40
7.0
 40
8.0
 40
8.0
 40
8.0
 40
9.0
 40
9.0
 40
9.0
 40
10.0
 40
10.0
 40
10.0
 40
10.0
 10
48.7963324530787
 20
-261.1819904946004
 10
48.7963324530787
 20
-260.1408826389579
 10
49.41851669771481
 20
-259.4043212242115
 10
50.43430310154072
 20
-258.9726507599096
 10
50.43430310154072
 20
-258.9726507599096
 10
50.42172850301957
 20
-258.9344102000234
 10
50.42172850301957
 20
-258.9344102000234
 10
49.50740016123425
 20
-258.5027397357215
 10
49.11379800204446
 20
-257.791672027566
 10
49.11379800204446
 20
-257.0806043194104
 10
49.11379800204446
 20
-255.7725015636611
 10
50.21846786938983
 20
-254.8836669284666
 10
51.66609699229181
 20
-254.8836669284666
 10
53.2661715904161
 20
-254.8836669284666
 10
54.06612276209111
 20
-255.8868787337714
 10
54.06612276209111
 20
-256.915584245667
 10
54.06612276209111
 20
-257.6139051005271
 10
53.72316350653449
 20
-258.3632133685689
 10
52.70737710270857
 20
-258.8455267365039
 10
52.70737710270857
 20
-258.8455267365039
 10
52.70737710270857
 20
-258.8837672963902
 10
52.70737710270857
 20
-258.8837672963902
 10
53.7359103598299
 20
-259.2899440541011
 10
54.37084145776146
 20
-260.0137586155522
 10
54.37084145776146
 20
-261.0169704208569
 10
54.37084145776146
 20
-262.4518526904635
 10
53.13904756701038
 20
-263.4171684454305
 10
51.56446667547694
 20
-263.4171684454305
 10
49.83761256349546
 20
-263.4171684454305
 10
48.7963324530787
 20
-262.3884629335349
 10
48.7963324530787
 20
-261.1819904946004
 97
        0
 97
        1
330
D9
 75
     2
 76
     1
 98
        1
 10
0.0
 20
0.0
450
        0
451
        0
460
0.0
461
0.0
452
        0
462
0.0
453
        0
470

  0
ENDBLK
  5
D3
330
D0
100
AcDbEntity
  8
0
100
AcDbBlockEnd
  0
BLOCK
  5
DD
330
DB
100
AcDbEntity
  8
0
100
AcDbBlockBegin
  2
Block_10
 70
     0
 10
0.0
 20
0.0
 30
0.0
  3
Block_10
  1

  0
INSERT
  5
E0
330
DB
100
AcDbEntity
  8
Livello 1
100
AcDbBlockReference
  2
Block_11
 10
0.0
 20
0.0
 30
0.0
  0
ENDBLK
  5
DE
330
DB
100
AcDbEntity
  8
0
100
AcDbBlockEnd
  0
BLOCK
  5
E1
330
DF
100
AcDbEntity
  8
0
100
AcDbBlockBegin
  2
Block_11
 70
     0
 10
0.0
 20
0.0
 30
0.0
  3
Block_11
  1

  0
SPLINE
  5
E3
330
DF
100
AcDbEntity
  8
Livello 1
100
AcDbSpline
210
0.0
220
0.0
230
1.0
 70
    11
 71
     3
 72
    26
 73
    22
 74
     0
 42
0.000000001
 43
0.0000000001
 40
0.0
 40
0.0
 40
0.0
 40
0.0
 40
1.0
 40
1.0
 40
1.0
 40
2.0
 40
2.0
 40
2.0
 40
3.0
 40
3.0
 40
3.0
 40
4.0
 40
4.0
 40
4.0
 40
5.0
 40
5.0
 40
5.0
 40
6.0
 40
6.0
 40
6.0
 40
7.0
 40
7.0
 40
7.0
 40
7.0
 10
85.3742892581703
 20
-229.3400064530817
 30
0.0
 10
85.3742892581703
 20
-229.3400064530817
 30
0.0
 10
82.61872963429324
 20
-229.3400064530817
 30
0.0
 10
82.61872963429324
 20
-229.3400064530817
 30
0.0
 10
82.18705916999144
 20
-229.3400064530817
 30
0.0
 10
81.75521645091537
 20
-229.3276041093348
 30
0.0
 10
81.32354598661356
 20
-229.3021104027439
 30
0.0
 10
81.32354598661356
 20
-229.3021104027439
 30
0.0
 10
81.32354598661356
 20
-229.3400064530817
 30
0.0
 10
81.32354598661356
 20
-229.3400064530817
 30
0.0
 10
81.8060316093228
 20
-229.5942544998931
 30
0.0
 10
82.16156546340057
 20
-229.7975151335229
 30
0.0
 10
82.5425930240692
 20
-230.0259249641949
 30
0.0
 10
82.5425930240692
 20
-230.0259249641949
 30
0.0
 10
85.34896780635373
 20
-232.0450954280998
 30
0.0
 10
85.34896780635373
 20
-232.0450954280998
 30
0.0
 10
85.34896780635373
 20
-232.0450954280998
 30
0.0
 10
85.3742892581703
 20
-232.0450954280998
 30
0.0
 10
85.3742892581703
 20
-232.0450954280998
 30
0.0
 10
85.3742892581703
 20
-232.0450954280998
 30
0.0
 10
85.3742892581703
 20
-229.3400064530817
 30
0.0
 10
85.3742892581703
 20
-229.3400064530817
 30
0.0
  0
SPLINE
  5
E4
330
DF
100
AcDbEntity
  8
Livello 1
100
AcDbSpline
210
0.0
220
0.0
230
1.0
 70
    11
 71
     3
 72
    38
 73
    34
 74
     0
 42
0.000000001
 43
0.0000000001
 40
0.0
 40
0.0
 40
0.0
 40
0.0
 40
1.0
 40
1.0
 40
1.0
 40
2.0
 40
2.0
 40
2.0
 40
3.0
 40
3.0
 40
3.0
 40
4.0
 40
4.0
 40
4.0
 40
5.0
 40
5.0
 40
5.0
 40
6.0
 40
6.0
 40
6.0
 40
7.0
 40
7.0
 40
7.0
 40
8.0
 40
8.0
 40
8.0
 40
9.0
 40
9.0
 40
9.0
 40
10.0
 40
10.0
 40
10.0
 40
11.0
 40
11.0
 40
11.0
 40
11.0
 10
88.49812958942059
 20
-229.3400064530817
 30
0.0
 10
88.49812958942059
 20
-229.3400064530817
 30
0.0
 10
86.25054929484361
 20
-229.3400064530817
 30
0.0
 10
86.25054929484361
 20
-229.3400064530817
 30
0.0
 10
86.25054929484361
 20
-229.3400064530817
 30
0.0
 10
86.25054929484361
 20
-233.1750867472618
 30
0.0
 10
86.25054929484361
 20
-233.1750867472618
 30
0.0
 10
86.25054929484361
 20
-233.1750867472618
 30
0.0
 10
85.5139878800972
 20
-233.1750867472618
 30
0.0
 10
85.5139878800972
 20
-233.1750867472618
 30
0.0
 10
85.5139878800972
 20
-233.1750867472618
 30
0.0
 10
80.24419757108478
 20
-229.4926241830783
 30
0.0
 10
80.24419757108478
 20
-229.4926241830783
 30
0.0
 10
80.24419757108478
 20
-229.4926241830783
 30
0.0
 10
80.24419757108478
 20
-228.2861517441439
 30
0.0
 10
80.24419757108478
 20
-228.2861517441439
 30
0.0
 10
80.24419757108478
 20
-228.2861517441439
 30
0.0
 10
85.3742892581703
 20
-228.2861517441439
 30
0.0
 10
85.3742892581703
 20
-228.2861517441439
 30
0.0
 10
85.3742892581703
 20
-228.2861517441439
 30
0.0
 10
85.3742892581703
 20
-227.1306667183909
 30
0.0
 10
85.3742892581703
 20
-227.1306667183909
 30
0.0
 10
85.3742892581703
 20
-227.1306667183909
 30
0.0
 10
86.25054929484361
 20
-227.1306667183909
 30
0.0
 10
86.25054929484361
 20
-227.1306667183909
 30
0.0
 10
86.25054929484361
 20
-227.1306667183909
 30
0.0
 10
86.25054929484361
 20
-228.2861517441439
 30
0.0
 10
86.25054929484361
 20
-228.2861517441439
 30
0.0
 10
86.25054929484361
 20
-228.2861517441439
 30
0.0
 10
88.49812958942059
 20
-228.2861517441439
 30
0.0
 10
88.49812958942059
 20
-228.2861517441439
 30
0.0
 10
88.49812958942059
 20
-228.2861517441439
 30
0.0
 10
88.49812958942059
 20
-229.3400064530817
 30
0.0
 10
88.49812958942059
 20
-229.3400064530817
 30
0.0
  0
HATCH
  5
E5
330
DF
100
AcDbEntity
  8
Livello 1
 62
   250
420
  1907995
440
 33554687
100
AcDbHatch
 10
0.0
 20
0.0
 30
0.0
210
0.0
220
0.0
230
1.0
  2
SOLID
 70
     1
 71
     1
 91
        2
 92
        1
 93
        1
 72
     4
 94
        3
 73
     0
 74
     0
 95
       26
 96
       22
 40
0.0
 40
0.0
 40
0.0
 40
0.0
 40
1.0
 40
1.0
 40
1.0
 40
2.0
 40
2.0
 40
2.0
 40
3.0
 40
3.0
 40
3.0
 40
4.0
 40
4.0
 40
4.0
 40
5.0
 40
5.0
 40
5.0
 40
6.0
 40
6.0
 40
6.0
 40
7.0
 40
7.0
 40
7.0
 40
7.0
 10
85.3742892581703
 20
-229.3400064530817
 10
85.3742892581703
 20
-229.3400064530817
 10
82.61872963429324
 20
-229.3400064530817
 10
82.61872963429324
 20
-229.3400064530817
 10
82.18705916999144
 20
-229.3400064530817
 10
81.75521645091537
 20
-229.3276041093348
 10
81.32354598661356
 20
-229.3021104027439
 10
81.32354598661356
 20
-229.3021104027439
 10
81.32354598661356
 20
-229.3400064530817
 10
81.32354598661356
 20
-229.3400064530817
 10
81.8060316093228
 20
-229.5942544998931
 10
82.16156546340057
 20
-229.7975151335229
 10
82.5425930240692
 20
-230.0259249641949
 10
82.5425930240692
 20
-230.0259249641949
 10
85.34896780635373
 20
-232.0450954280998
 10
85.34896780635373
 20
-232.0450954280998
 10
85.34896780635373
 20
-232.0450954280998
 10
85.3742892581703
 20
-232.0450954280998
 10
85.3742892581703
 20
-232.0450954280998
 10
85.3742892581703
 20
-232.0450954280998
 10
85.3742892581703
 20
-229.3400064530817
 10
85.3742892581703
 20
-229.3400064530817
 97
        0
 97
        1
330
E3
 92
        1
 93
        1
 72
     4
 94
        3
 73
     0
 74
     0
 95
       38
 96
       34
 40
0.0
 40
0.0
 40
0.0
 40
0.0
 40
1.0
 40
1.0
 40
1.0
 40
2.0
 40
2.0
 40
2.0
 40
3.0
 40
3.0
 40
3.0
 40
4.0
 40
4.0
 40
4.0
 40
5.0
 40
5.0
 40
5.0
 40
6.0
 40
6.0
 40
6.0
 40
7.0
 40
7.0
 40
7.0
 40
8.0
 40
8.0
 40
8.0
 40
9.0
 40
9.0
 40
9.0
 40
10.0
 40
10.0
 40
10.0
 40
11.0
 40
11.0
 40
11.0
 40
11.0
 10
88.49812958942059
 20
-229.3400064530817
 10
88.49812958942059
 20
-229.3400064530817
 10
86.25054929484361
 20
-229.3400064530817
 10
86.25054929484361
 20
-229.3400064530817
 10
86.25054929484361
 20
-229.3400064530817
 10
86.25054929484361
 20
-233.1750867472618
 10
86.25054929484361
 20
-233.1750867472618
 10
86.25054929484361
 20
-233.1750867472618
 10
85.5139878800972
 20
-233.1750867472618
 10
85.5139878800972
 20
-233.1750867472618
 10
85.5139878800972
 20
-233.1750867472618
 10
80.24419757108478
 20
-229.4926241830783
 10
80.24419757108478
 20
-229.4926241830783
 10
80.24419757108478
 20
-229.4926241830783
 10
80.24419757108478
 20
-228.2861517441439
 10
80.24419757108478
 20
-228.2861517441439
 10
80.24419757108478
 20
-228.2861517441439
 10
85.3742892581703
 20
-228.2861517441439
 10
85.3742892581703
 20
-228.2861517441439
 10
85.3742892581703
 20
-228.2861517441439
 10
85.3742892581703
 20
-227.1306667183909
 10
85.3742892581703
 20
-227.1306667183909
 10
85.3742892581703
 20
-227.1306667183909
 10
86.25054929484361
 20
-227.1306667183909
 10
86.25054929484361
 20
-227.1306667183909
 10
86.25054929484361
 20
-227.1306667183909
 10
86.25054929484361
 20
-228.2861517441439
 10
86.25054929484361
 20
-228.2861517441439
 10
86.25054929484361
 20
-228.2861517441439
 10
88.49812958942059
 20
-228.2861517441439
 10
88.49812958942059
 20
-228.2861517441439
 10
88.49812958942059
 20
-228.2861517441439
 10
88.49812958942059
 20
-229.3400064530817
 10
88.49812958942059
 20
-229.3400064530817
 97
        0
 97
        1
330
E4
 75
     2
 76
     1
 98
        1
 10
0.0
 20
0.0
450
        0
451
        0
460
0.0
461
0.0
452
        0
462
0.0
453
        0
470

  0
SPLINE
  5
E6
330
DF
100
AcDbEntity
  8
Livello 1
100
AcDbSpline
210
0.0
220
0.0
230
1.0
 70
     9
 71
     3
 72
    17
 73
    13
 74
     0
 42
0.000000001
 43
0.0000000001
 40
0.0
 40
0.0
 40
0.0
 40
0.0
 40
1.0
 40
1.0
 40
1.0
 40
2.0
 40
2.0
 40
2.0
 40
3.0
 40
3.0
 40
3.0
 40
4.0
 40
4.0
 40
4.0
 40
4.0
 10
86.35217961165848
 20
-221.9364962552798
 30
0.0
 10
85.34896780635373
 20
-221.9364962552798
 30
0.0
 10
84.86630992887022
 20
-222.6348171101399
 30
0.0
 10
84.54884437990447
 20
-223.752406085555
 30
0.0
 10
84.82824162375822
 20
-224.7173773309735
 30
0.0
 10
85.46317272168977
 20
-225.2382757683432
 30
0.0
 10
86.25054929484361
 20
-225.2382757683432
 30
0.0
 10
87.08856877163063
 20
-225.276171818681
 30
0.0
 10
87.82513018637706
 20
-224.6412407207494
 30
0.0
 10
87.82513018637706
 20
-223.5873860118115
 30
0.0
 10
87.82513018637706
 20
-222.5841742065068
 30
0.0
 10
87.20294594174093
 20
-221.9364962552798
 30
0.0
 10
86.35217961165848
 20
-221.9364962552798
 30
0.0
  0
SPLINE
  5
E7
330
DF
100
AcDbEntity
  8
Livello 1
100
AcDbSpline
210
0.0
220
0.0
230
1.0
 70
     9
 71
     3
 72
    17
 73
    13
 74
     0
 42
0.000000001
 43
0.0000000001
 40
0.0
 40
0.0
 40
0.0
 40
0.0
 40
1.0
 40
1.0
 40
1.0
 40
2.0
 40
2.0
 40
2.0
 40
3.0
 40
3.0
 40
3.0
 40
4.0
 40
4.0
 40
4.0
 40
4.0
 10
82.22512747510345
 20
-225.0095214281226
 30
0.0
 10
83.0505723533693
 20
-225.0095214281226
 30
0.0
 10
83.49498967096653
 20
-224.3873371834865
 30
0.0
 10
83.74889320822942
 20
-223.4351127913634
 30
0.0
 10
83.50773652426196
 20
-222.7237005736593
 30
0.0
 10
82.99975719496186
 20
-222.1776529392473
 30
0.0
 10
82.25044892692002
 20
-222.1776529392473
 30
0.0
 10
81.59019637717189
 20
-222.1776529392473
 30
0.0
 10
80.90445012083291
 20
-222.5714273532113
 30
0.0
 10
80.90445012083291
 20
-223.5746391585161
 30
0.0
 10
80.90445012083291
 20
-224.5017143535968
 30
0.0
 10
81.51405976694787
 20
-225.0095214281226
 30
0.0
 10
82.22512747510345
 20
-225.0095214281226
 30
0.0
  0
SPLINE
  5
E8
330
DF
100
AcDbEntity
  8
Livello 1
100
AcDbSpline
210
0.0
220
0.0
230
1.0
 70
     9
 71
     3
 72
    35
 73
    31
 74
     0
 42
0.000000001
 43
0.0000000001
 40
0.0
 40
0.0
 40
0.0
 40
0.0
 40
1.0
 40
1.0
 40
1.0
 40
2.0
 40
2.0
 40
2.0
 40
3.0
 40
3.0
 40
3.0
 40
4.0
 40
4.0
 40
4.0
 40
5.0
 40
5.0
 40
5.0
 40
6.0
 40
6.0
 40
6.0
 40
7.0
 40
7.0
 40
7.0
 40
8.0
 40
8.0
 40
8.0
 40
9.0
 40
9.0
 40
9.0
 40
10.0
 40
10.0
 40
10.0
 40
10.0
 10
86.40282251529164
 20
-226.3806694312521
 30
0.0
 10
85.36154240487489
 20
-226.3806694312521
 30
0.0
 10
84.62515324490274
 20
-225.7584851866159
 30
0.0
 10
84.19331052582668
 20
-224.7428710375643
 30
0.0
 10
84.19331052582668
 20
-224.7428710375643
 30
0.0
 10
84.15524222071466
 20
-224.7552733813112
 30
0.0
 10
84.15524222071466
 20
-224.7552733813112
 30
0.0
 10
83.72357175641289
 20
-225.6696017230965
 30
0.0
 10
83.01233179348303
 20
-226.0633761370606
 30
0.0
 10
82.30126408532745
 20
-226.0633761370606
 30
0.0
 10
80.99333358435236
 20
-226.0633761370606
 30
0.0
 10
80.1044989491579
 20
-224.9585340149409
 30
0.0
 10
80.1044989491579
 20
-223.5109048920389
 30
0.0
 10
80.1044989491579
 20
-221.9110025486889
 30
0.0
 10
81.10771075446265
 20
-221.1110513770139
 30
0.0
 10
82.136244011584
 20
-221.1110513770139
 30
0.0
 10
82.83456486644414
 20
-221.1110513770139
 30
0.0
 10
83.58387313448599
 20
-221.4541828873448
 30
0.0
 10
84.06635875719521
 20
-222.4697970363965
 30
0.0
 10
84.06635875719521
 20
-222.4697970363965
 30
0.0
 10
84.10442706230723
 20
-222.4697970363965
 30
0.0
 10
84.10442706230723
 20
-222.4697970363965
 30
0.0
 10
84.51077607479245
 20
-221.4410915245009
 30
0.0
 10
85.23459063624343
 20
-220.8065049361178
 30
0.0
 10
86.2378024415482
 20
-220.8065049361178
 30
0.0
 10
87.67268471115475
 20
-220.8065049361178
 30
0.0
 10
88.6378282113475
 20
-222.0381265720947
 30
0.0
 10
88.6378282113475
 20
-223.6128797184024
 30
0.0
 10
88.6378282113475
 20
-225.3395615756096
 30
0.0
 10
87.60929495422614
 20
-226.3806694312521
 30
0.0
 10
86.40282251529164
 20
-226.3806694312521
 30
0.0
  0
HATCH
  5
E9
330
DF
100
AcDbEntity
  8
Livello 1
 62
   250
420
  1907995
440
 33554687
100
AcDbHatch
 10
0.0
 20
0.0
 30
0.0
210
0.0
220
0.0
230
1.0
  2
SOLID
 70
     1
 71
     1
 91
        3
 92
        1
 93
        1
 72
     4
 94
        3
 73
     0
 74
     0
 95
       17
 96
       13
 40
0.0
 40
0.0
 40
0.0
 40
0.0
 40
1.0
 40
1.0
 40
1.0
 40
2.0
 40
2.0
 40
2.0
 40
3.0
 40
3.0
 40
3.0
 40
4.0
 40
4.0
 40
4.0
 40
4.0
 10
86.35217961165848
 20
-221.9364962552798
 10
85.34896780635373
 20
-221.9364962552798
 10
84.86630992887022
 20
-222.6348171101399
 10
84.54884437990447
 20
-223.752406085555
 10
84.82824162375822
 20
-224.7173773309735
 10
85.46317272168977
 20
-225.2382757683432
 10
86.25054929484361
 20
-225.2382757683432
 10
87.08856877163063
 20
-225.276171818681
 10
87.82513018637706
 20
-224.6412407207494
 10
87.82513018637706
 20
-223.5873860118115
 10
87.82513018637706
 20
-222.5841742065068
 10
87.20294594174093
 20
-221.9364962552798
 10
86.35217961165848
 20
-221.9364962552798
 97
        0
 97
        1
330
E6
 92
        1
 93
        1
 72
     4
 94
        3
 73
     0
 74
     0
 95
       17
 96
       13
 40
0.0
 40
0.0
 40
0.0
 40
0.0
 40
1.0
 40
1.0
 40
1.0
 40
2.0
 40
2.0
 40
2.0
 40
3.0
 40
3.0
 40
3.0
 40
4.0
 40
4.0
 40
4.0
 40
4.0
 10
82.22512747510345
 20
-225.0095214281226
 10
83.0505723533693
 20
-225.0095214281226
 10
83.49498967096653
 20
-224.3873371834865
 10
83.74889320822942
 20
-223.4351127913634
 10
83.50773652426196
 20
-222.7237005736593
 10
82.99975719496186
 20
-222.1776529392473
 10
82.25044892692002
 20
-222.1776529392473
 10
81.59019637717189
 20
-222.1776529392473
 10
80.90445012083291
 20
-222.5714273532113
 10
80.90445012083291
 20
-223.5746391585161
 10
80.90445012083291
 20
-224.5017143535968
 10
81.51405976694787
 20
-225.0095214281226
 10
82.22512747510345
 20
-225.0095214281226
 97
        0
 97
        1
330
E7
 92
        1
 93
        1
 72
     4
 94
        3
 73
     0
 74
     0
 95
       35
 96
       31
 40
0.0
 40
0.0
 40
0.0
 40
0.0
 40
1.0
 40
1.0
 40
1.0
 40
2.0
 40
2.0
 40
2.0
 40
3.0
 40
3.0
 40
3.0
 40
4.0
 40
4.0
 40
4.0
 40
5.0
 40
5.0
 40
5.0
 40
6.0
 40
6.0
 40
6.0
 40
7.0
 40
7.0
 40
7.0
 40
8.0
 40
8.0
 40
8.0
 40
9.0
 40
9.0
 40
9.0
 40
10.0
 40
10.0
 40
10.0
 40
10.0
 10
86.40282251529164
 20
-226.3806694312521
 10
85.36154240487489
 20
-226.3806694312521
 10
84.62515324490274
 20
-225.7584851866159
 10
84.19331052582668
 20
-224.7428710375643
 10
84.19331052582668
 20
-224.7428710375643
 10
84.15524222071466
 20
-224.7552733813112
 10
84.15524222071466
 20
-224.7552733813112
 10
83.72357175641289
 20
-225.6696017230965
 10
83.01233179348303
 20
-226.0633761370606
 10
82.30126408532745
 20
-226.0633761370606
 10
80.99333358435236
 20
-226.0633761370606
 10
80.1044989491579
 20
-224.9585340149409
 10
80.1044989491579
 20
-223.5109048920389
 10
80.1044989491579
 20
-221.9110025486889
 10
81.10771075446265
 20
-221.1110513770139
 10
82.136244011584
 20
-221.1110513770139
 10
82.83456486644414
 20
-221.1110513770139
 10
83.58387313448599
 20
-221.4541828873448
 10
84.06635875719521
 20
-222.4697970363965
 10
84.06635875719521
 20
-222.4697970363965
 10
84.10442706230723
 20
-222.4697970363965
 10
84.10442706230723
 20
-222.4697970363965
 10
84.51077607479245
 20
-221.4410915245009
 10
85.23459063624343
 20
-220.8065049361178
 10
86.2378024415482
 20
-220.8065049361178
 10
87.67268471115475
 20
-220.8065049361178
 10
88.6378282113475
 20
-222.0381265720947
 10
88.6378282113475
 20
-223.6128797184024
 10
88.6378282113475
 20
-225.3395615756096
 10
87.60929495422614
 20
-226.3806694312521
 10
86.40282251529164
 20
-226.3806694312521
 97
        0
 97
        1
330
E8
 75
     2
 76
     1
 98
        1
 10
0.0
 20
0.0
450
        0
451
        0
460
0.0
461
0.0
452
        0
462
0.0
453
        0
470

  0
SPLINE
  5
EA
330
DF
100
AcDbEntity
  8
Livello 1
100
AcDbSpline
210
0.0
220
0.0
230
1.0
 70
     9
 71
     3
 72
    17
 73
    13
 74
     0
 42
0.000000001
 43
0.0000000001
 40
0.0
 40
0.0
 40
0.0
 40
0.0
 40
1.0
 40
1.0
 40
1.0
 40
2.0
 40
2.0
 40
2.0
 40
3.0
 40
3.0
 40
3.0
 40
4.0
 40
4.0
 40
4.0
 40
4.0
 10
90.05996362765861
 20
-220.132644259203
 30
0.0
 10
89.31082761439105
 20
-219.8535915248977
 30
0.0
 10
87.95208195500851
 20
-219.5104600145668
 30
0.0
 10
87.02517901470205
 20
-219.3705891378657
 30
0.0
 10
87.02517901470205
 20
-219.3705891378657
 30
0.0
 10
86.89805499129631
 20
-218.1262206485935
 30
0.0
 10
86.89805499129631
 20
-218.1262206485935
 30
0.0
 10
87.97757566159935
 20
-218.4183647457427
 30
0.0
 10
89.38696422461505
 20
-218.9771592334501
 30
0.0
 10
89.98382701743459
 20
-219.3326930875279
 30
0.0
 10
89.98382701743459
 20
-219.3326930875279
 30
0.0
 10
90.05996362765861
 20
-220.132644259203
 30
0.0
 10
90.05996362765861
 20
-220.132644259203
 30
0.0
  0
HATCH
  5
EB
330
DF
100
AcDbEntity
  8
Livello 1
 62
   250
420
  1907995
440
 33554687
100
AcDbHatch
 10
0.0
 20
0.0
 30
0.0
210
0.0
220
0.0
230
1.0
  2
SOLID
 70
     1
 71
     1
 91
        1
 92
        1
 93
        1
 72
     4
 94
        3
 73
     0
 74
     0
 95
       17
 96
       13
 40
0.0
 40
0.0
 40
0.0
 40
0.0
 40
1.0
 40
1.0
 40
1.0
 40
2.0
 40
2.0
 40
2.0
 40
3.0
 40
3.0
 40
3.0
 40
4.0
 40
4.0
 40
4.0
 40
4.0
 10
90.05996362765861
 20
-220.132644259203
 10
89.31082761439105
 20
-219.8535915248977
 10
87.95208195500851
 20
-219.5104600145668
 10
87.02517901470205
 20
-219.3705891378657
 10
87.02517901470205
 20
-219.3705891378657
 10
86.89805499129631
 20
-218.1262206485935
 10
86.89805499129631
 20
-218.1262206485935
 10
87.97757566159935
 20
-218.4183647457427
 10
89.38696422461505
 20
-218.9771592334501
 10
89.98382701743459
 20
-219.3326930875279
 10
89.98382701743459
 20
-219.3326930875279
 10
90.05996362765861
 20
-220.132644259203
 10
90.05996362765861
 20
-220.132644259203
 97
        0
 97
        1
330
EA
 75
     2
 76
     1
 98
        1
 10
0.0
 20
0.0
450
        0
451
        0
460
0.0
461
0.0
452
        0
462
0.0
453
        0
470

  0
SPLINE
  5
EC
330
DF
100
AcDbEntity
  8
Livello 1
100
AcDbSpline
210
0.0
220
0.0
230
1.0
 70
    11
 71
     3
 72
    50
 73
    46
 74
     0
 42
0.000000001
 43
0.0000000001
 40
0.0
 40
0.0
 40
0.0
 40
0.0
 40
1.0
 40
1.0
 40
1.0
 40
2.0
 40
2.0
 40
2.0
 40
3.0
 40
3.0
 40
3.0
 40
4.0
 40
4.0
 40
4.0
 40
5.0
 40
5.0
 40
5.0
 40
6.0
 40
6.0
 40
6.0
 40
7.0
 40
7.0
 40
7.0
 40
8.0
 40
8.0
 40
8.0
 40
9.0
 40
9.0
 40
9.0
 40
10.0
 40
10.0
 40
10.0
 40
11.0
 40
11.0
 40
11.0
 40
12.0
 40
12.0
 40
12.0
 40
13.0
 40
13.0
 40
13.0
 40
14.0
 40
14.0
 40
14.0
 40
15.0
 40
15.0
 40
15.0
 40
15.0
 10
81.18384736468668
 20
-212.2089246431283
 30
0.0
 10
81.18384736468668
 20
-212.2089246431283
 30
0.0
 10
81.18384736468668
 20
-215.3577419166467
 30
0.0
 10
81.18384736468668
 20
-215.3577419166467
 30
0.0
 10
81.18384736468668
 20
-215.3577419166467
 30
0.0
 10
83.30447589063222
 20
-215.6753797203867
 30
0.0
 10
83.30447589063222
 20
-215.6753797203867
 30
0.0
 10
83.27915443881563
 20
-215.4848659400524
 30
0.0
 10
83.25366073222481
 20
-215.3070990130135
 30
0.0
 10
83.25366073222481
 20
-215.0022080625689
 30
0.0
 10
83.25366073222481
 20
-214.3676214741859
 30
0.0
 10
83.39335935415167
 20
-213.7323458667058
 30
0.0
 10
83.69807804982201
 20
-213.22453879218
 30
0.0
 10
84.06635875719521
 20
-212.576860840953
 30
0.0
 10
84.77742646535078
 20
-212.0435600598364
 30
0.0
 10
85.81870657576756
 20
-212.0435600598364
 30
0.0
 10
87.43152802718725
 20
-212.0435600598364
 30
0.0
 10
88.6378282113475
 20
-213.3261691089948
 30
0.0
 10
88.6378282113475
 20
-215.1165852326792
 30
0.0
 10
88.6378282113475
 20
-216.0181667211691
 30
0.0
 10
88.38392467408459
 20
-216.7802218425063
 30
0.0
 10
88.12984888204741
 20
-217.1739962564704
 30
0.0
 10
88.12984888204741
 20
-217.1739962564704
 30
0.0
 10
87.27908255196494
 20
-216.8942545030681
 30
0.0
 10
87.27908255196494
 20
-216.8942545030681
 30
0.0
 10
87.48234318559472
 20
-216.5518120118343
 30
0.0
 10
87.73624672285761
 20
-215.8786403540164
 30
0.0
 10
87.73624672285761
 20
-215.1293320859746
 30
0.0
 10
87.73624672285761
 20
-214.0754773770367
 30
0.0
 10
87.05050046651862
 20
-213.1735513789983
 30
0.0
 10
85.94583059917326
 20
-213.1735513789983
 30
0.0
 10
84.87905678216566
 20
-213.1866427418422
 30
0.0
 10
84.11717391560264
 20
-213.8977104499978
 30
0.0
 10
84.11717391560264
 20
-215.5486002065295
 30
0.0
 10
84.11717391560264
 20
-216.0181667211691
 30
0.0
 10
84.16798907401009
 20
-216.3864474285424
 30
0.0
 10
84.20605737912209
 20
-216.6913383789869
 30
0.0
 10
84.20605737912209
 20
-216.6913383789869
 30
0.0
 10
80.24419757108478
 20
-216.1576930883217
 30
0.0
 10
80.24419757108478
 20
-216.1576930883217
 30
0.0
 10
80.24419757108478
 20
-216.1576930883217
 30
0.0
 10
80.24419757108478
 20
-212.2089246431283
 30
0.0
 10
80.24419757108478
 20
-212.2089246431283
 30
0.0
 10
80.24419757108478
 20
-212.2089246431283
 30
0.0
 10
81.18384736468668
 20
-212.2089246431283
 30
0.0
 10
81.18384736468668
 20
-212.2089246431283
 30
0.0
  0
HATCH
  5
ED
330
DF
100
AcDbEntity
  8
Livello 1
 62
   250
420
  1907995
440
 33554687
100
AcDbHatch
 10
0.0
 20
0.0
 30
0.0
210
0.0
220
0.0
230
1.0
  2
SOLID
 70
     1
 71
     1
 91
        1
 92
        1
 93
        1
 72
     4
 94
        3
 73
     0
 74
     0
 95
       50
 96
       46
 40
0.0
 40
0.0
 40
0.0
 40
0.0
 40
1.0
 40
1.0
 40
1.0
 40
2.0
 40
2.0
 40
2.0
 40
3.0
 40
3.0
 40
3.0
 40
4.0
 40
4.0
 40
4.0
 40
5.0
 40
5.0
 40
5.0
 40
6.0
 40
6.0
 40
6.0
 40
7.0
 40
7.0
 40
7.0
 40
8.0
 40
8.0
 40
8.0
 40
9.0
 40
9.0
 40
9.0
 40
10.0
 40
10.0
 40
10.0
 40
11.0
 40
11.0
 40
11.0
 40
12.0
 40
12.0
 40
12.0
 40
13.0
 40
13.0
 40
13.0
 40
14.0
 40
14.0
 40
14.0
 40
15.0
 40
15.0
 40
15.0
 40
15.0
 10
81.18384736468668
 20
-212.2089246431283
 10
81.18384736468668
 20
-212.2089246431283
 10
81.18384736468668
 20
-215.3577419166467
 10
81.18384736468668
 20
-215.3577419166467
 10
81.18384736468668
 20
-215.3577419166467
 10
83.30447589063222
 20
-215.6753797203867
 10
83.30447589063222
 20
-215.6753797203867
 10
83.27915443881563
 20
-215.4848659400524
 10
83.25366073222481
 20
-215.3070990130135
 10
83.25366073222481
 20
-215.0022080625689
 10
83.25366073222481
 20
-214.3676214741859
 10
83.39335935415167
 20
-213.7323458667058
 10
83.69807804982201
 20
-213.22453879218
 10
84.06635875719521
 20
-212.576860840953
 10
84.77742646535078
 20
-212.0435600598364
 10
85.81870657576756
 20
-212.0435600598364
 10
87.43152802718725
 20
-212.0435600598364
 10
88.6378282113475
 20
-213.3261691089948
 10
88.6378282113475
 20
-215.1165852326792
 10
88.6378282113475
 20
-216.0181667211691
 10
88.38392467408459
 20
-216.7802218425063
 10
88.12984888204741
 20
-217.1739962564704
 10
88.12984888204741
 20
-217.1739962564704
 10
87.27908255196494
 20
-216.8942545030681
 10
87.27908255196494
 20
-216.8942545030681
 10
87.48234318559472
 20
-216.5518120118343
 10
87.73624672285761
 20
-215.8786403540164
 10
87.73624672285761
 20
-215.1293320859746
 10
87.73624672285761
 20
-214.0754773770367
 10
87.05050046651862
 20
-213.1735513789983
 10
85.94583059917326
 20
-213.1735513789983
 10
84.87905678216566
 20
-213.1866427418422
 10
84.11717391560264
 20
-213.8977104499978
 10
84.11717391560264
 20
-215.5486002065295
 10
84.11717391560264
 20
-216.0181667211691
 10
84.16798907401009
 20
-216.3864474285424
 10
84.20605737912209
 20
-216.6913383789869
 10
84.20605737912209
 20
-216.6913383789869
 10
80.24419757108478
 20
-216.1576930883217
 10
80.24419757108478
 20
-216.1576930883217
 10
80.24419757108478
 20
-216.1576930883217
 10
80.24419757108478
 20
-212.2089246431283
 10
80.24419757108478
 20
-212.2089246431283
 10
80.24419757108478
 20
-212.2089246431283
 10
81.18384736468668
 20
-212.2089246431283
 10
81.18384736468668
 20
-212.2089246431283
 97
        0
 97
        1
330
EC
 75
     2
 76
     1
 98
        1
 10
0.0
 20
0.0
450
        0
451
        0
460
0.0
461
0.0
452
        0
462
0.0
453
        0
470

  0
ENDBLK
  5
E2
330
DF
100
AcDbEntity
  8
0
100
AcDbBlockEnd
  0
BLOCK
  5
F0
330
EE
100
AcDbEntity
  8
0
100
AcDbBlockBegin
  2
Block_12
 70
     0
 10
0.0
 20
0.0
 30
0.0
  3
Block_12
  1

  0
INSERT
  5
F3
330
EE
100
AcDbEntity
  8
Livello 1
100
AcDbBlockReference
  2
Block_13
 10
0.0
 20
0.0
 30
0.0
  0
ENDBLK
  5
F1
330
EE
100
AcDbEntity
  8
0
100
AcDbBlockEnd
  0
BLOCK
  5
F4
330
F2
100
AcDbEntity
  8
0
100
AcDbBlockBegin
  2
Block_13
 70
     0
 10
0.0
 20
0.0
 30
0.0
  3
Block_13
  1

  0
SPLINE
  5
F6
330
F2
100
AcDbEntity
  8
Livello 1
100
AcDbSpline
210
0.0
220
0.0
230
1.0
 70
     9
 71
     3
 72
    59
 73
    55
 74
     0
 42
0.000000001
 43
0.0000000001
 40
0.0
 40
0.0
 40
0.0
 40
0.0
 40
1.0
 40
1.0
 40
1.0
 40
2.0
 40
2.0
 40
2.0
 40
3.0
 40
3.0
 40
3.0
 40
4.0
 40
4.0
 40
4.0
 40
5.0
 40
5.0
 40
5.0
 40
6.0
 40
6.0
 40
6.0
 40
7.0
 40
7.0
 40
7.0
 40
8.0
 40
8.0
 40
8.0
 40
9.0
 40
9.0
 40
9.0
 40
10.0
 40
10.0
 40
10.0
 40
11.0
 40
11.0
 40
11.0
 40
12.0
 40
12.0
 40
12.0
 40
13.0
 40
13.0
 40
13.0
 40
14.0
 40
14.0
 40
14.0
 40
15.0
 40
15.0
 40
15.0
 40
16.0
 40
16.0
 40
16.0
 40
17.0
 40
17.0
 40
17.0
 40
18.0
 40
18.0
 40
18.0
 40
18.0
 10
149.1712564731238
 20
-261.9946885195708
 30
0.0
 10
149.4888942768639
 20
-262.1979491532005
 30
0.0
 10
150.2254556916103
 20
-262.5155869569407
 30
0.0
 10
150.9999131566944
 20
-262.5155869569407
 30
0.0
 10
152.434795426301
 20
-262.5155869569407
 30
0.0
 10
152.8792127438982
 20
-261.6012586151553
 30
0.0
 10
152.8668104001513
 20
-260.915340104042
 30
0.0
 10
152.8540635468559
 20
-259.7598550782892
 30
0.0
 10
151.8126111816649
 20
-259.2647948570588
 30
0.0
 10
150.7332627661361
 20
-259.2647948570588
 30
0.0
 10
150.7332627661361
 20
-259.2647948570588
 30
0.0
 10
150.1110785215
 20
-259.2647948570588
 30
0.0
 10
150.1110785215
 20
-259.2647948570588
 30
0.0
 10
150.1110785215
 20
-259.2647948570588
 30
0.0
 10
150.1110785215
 20
-258.4266031254975
 30
0.0
 10
150.1110785215
 20
-258.4266031254975
 30
0.0
 10
150.1110785215
 20
-258.4266031254975
 30
0.0
 10
150.7332627661361
 20
-258.4266031254975
 30
0.0
 10
150.7332627661361
 20
-258.4266031254975
 30
0.0
 10
151.5459607911066
 20
-258.4266031254975
 30
0.0
 10
152.5746663030021
 20
-258.0076795144911
 30
0.0
 10
152.5746663030021
 20
-257.0296169062288
 30
0.0
 10
152.5746663030021
 20
-256.3695366112548
 30
0.0
 10
152.1553981824473
 20
-255.7852484169565
 30
0.0
 10
151.1270371801002
 20
-255.7852484169565
 30
0.0
 10
150.4666123755778
 20
-255.7852484169565
 30
0.0
 10
149.8316812776461
 20
-256.0773925141057
 30
0.0
 10
149.4761474235684
 20
-256.3312960513686
 30
0.0
 10
149.4761474235684
 20
-256.3312960513686
 30
0.0
 10
149.1840033264193
 20
-255.5185980263981
 30
0.0
 10
149.1840033264193
 20
-255.5185980263981
 30
0.0
 10
149.6160183002696
 20
-255.2013047322066
 30
0.0
 10
150.4538655222823
 20
-254.8836669284666
 30
0.0
 10
151.3427001574768
 20
-254.8836669284666
 30
0.0
 10
152.9680962074177
 20
-254.8836669284666
 30
0.0
 10
153.7046576221641
 20
-255.8489826834336
 30
0.0
 10
153.7046576221641
 20
-256.8518499791898
 30
0.0
 10
153.7046576221641
 20
-257.7027885640466
 30
0.0
 10
153.1968505476383
 20
-258.4266031254975
 30
0.0
 10
152.1808918890381
 20
-258.7948838328706
 30
0.0
 10
152.1808918890381
 20
-258.7948838328706
 30
0.0
 10
152.1808918890381
 20
-258.8203775394616
 30
0.0
 10
152.1808918890381
 20
-258.8203775394616
 30
0.0
 10
153.1968505476383
 20
-259.0232936635428
 30
0.0
 10
154.0222954259041
 20
-259.7853487848801
 30
0.0
 10
154.0222954259041
 20
-260.9408338106328
 30
0.0
 10
154.0222954259041
 20
-262.2613389101291
 30
0.0
 10
152.9935899140085
 20
-263.4171684454305
 30
0.0
 10
151.0126600099899
 20
-263.4171684454305
 30
0.0
 10
150.0855848149091
 20
-263.4171684454305
 30
0.0
 10
149.2728867899386
 20
-263.1250243482813
 30
0.0
 10
148.8667100322278
 20
-262.8583739577229
 30
0.0
 10
148.8667100322278
 20
-262.8583739577229
 30
0.0
 10
149.1712564731238
 20
-261.9946885195708
 30
0.0
 10
149.1712564731238
 20
-261.9946885195708
 30
0.0
  0
HATCH
  5
F7
330
F2
100
AcDbEntity
  8
Livello 1
 62
   250
420
  1907995
440
 33554687
100
AcDbHatch
 10
0.0
 20
0.0
 30
0.0
210
0.0
220
0.0
230
1.0
  2
SOLID
 70
     1
 71
     1
 91
        1
 92
        1
 93
        1
 72
     4
 94
        3
 73
     0
 74
     0
 95
       59
 96
       55
 40
0.0
 40
0.0
 40
0.0
 40
0.0
 40
1.0
 40
1.0
 40
1.0
 40
2.0
 40
2.0
 40
2.0
 40
3.0
 40
3.0
 40
3.0
 40
4.0
 40
4.0
 40
4.0
 40
5.0
 40
5.0
 40
5.0
 40
6.0
 40
6.0
 40
6.0
 40
7.0
 40
7.0
 40
7.0
 40
8.0
 40
8.0
 40
8.0
 40
9.0
 40
9.0
 40
9.0
 40
10.0
 40
10.0
 40
10.0
 40
11.0
 40
11.0
 40
11.0
 40
12.0
 40
12.0
 40
12.0
 40
13.0
 40
13.0
 40
13.0
 40
14.0
 40
14.0
 40
14.0
 40
15.0
 40
15.0
 40
15.0
 40
16.0
 40
16.0
 40
16.0
 40
17.0
 40
17.0
 40
17.0
 40
18.0
 40
18.0
 40
18.0
 40
18.0
 10
149.1712564731238
 20
-261.9946885195708
 10
149.4888942768639
 20
-262.1979491532005
 10
150.2254556916103
 20
-262.5155869569407
 10
150.9999131566944
 20
-262.5155869569407
 10
152.434795426301
 20
-262.5155869569407
 10
152.8792127438982
 20
-261.6012586151553
 10
152.8668104001513
 20
-260.915340104042
 10
152.8540635468559
 20
-259.7598550782892
 10
151.8126111816649
 20
-259.2647948570588
 10
150.7332627661361
 20
-259.2647948570588
 10
150.7332627661361
 20
-259.2647948570588
 10
150.1110785215
 20
-259.2647948570588
 10
150.1110785215
 20
-259.2647948570588
 10
150.1110785215
 20
-259.2647948570588
 10
150.1110785215
 20
-258.4266031254975
 10
150.1110785215
 20
-258.4266031254975
 10
150.1110785215
 20
-258.4266031254975
 10
150.7332627661361
 20
-258.4266031254975
 10
150.7332627661361
 20
-258.4266031254975
 10
151.5459607911066
 20
-258.4266031254975
 10
152.5746663030021
 20
-258.0076795144911
 10
152.5746663030021
 20
-257.0296169062288
 10
152.5746663030021
 20
-256.3695366112548
 10
152.1553981824473
 20
-255.7852484169565
 10
151.1270371801002
 20
-255.7852484169565
 10
150.4666123755778
 20
-255.7852484169565
 10
149.8316812776461
 20
-256.0773925141057
 10
149.4761474235684
 20
-256.3312960513686
 10
149.4761474235684
 20
-256.3312960513686
 10
149.1840033264193
 20
-255.5185980263981
 10
149.1840033264193
 20
-255.5185980263981
 10
149.6160183002696
 20
-255.2013047322066
 10
150.4538655222823
 20
-254.8836669284666
 10
151.3427001574768
 20
-254.8836669284666
 10
152.9680962074177
 20
-254.8836669284666
 10
153.7046576221641
 20
-255.8489826834336
 10
153.7046576221641
 20
-256.8518499791898
 10
153.7046576221641
 20
-257.7027885640466
 10
153.1968505476383
 20
-258.4266031254975
 10
152.1808918890381
 20
-258.7948838328706
 10
152.1808918890381
 20
-258.7948838328706
 10
152.1808918890381
 20
-258.8203775394616
 10
152.1808918890381
 20
-258.8203775394616
 10
153.1968505476383
 20
-259.0232936635428
 10
154.0222954259041
 20
-259.7853487848801
 10
154.0222954259041
 20
-260.9408338106328
 10
154.0222954259041
 20
-262.2613389101291
 10
152.9935899140085
 20
-263.4171684454305
 10
151.0126600099899
 20
-263.4171684454305
 10
150.0855848149091
 20
-263.4171684454305
 10
149.2728867899386
 20
-263.1250243482813
 10
148.8667100322278
 20
-262.8583739577229
 10
148.8667100322278
 20
-262.8583739577229
 10
149.1712564731238
 20
-261.9946885195708
 10
149.1712564731238
 20
-261.9946885195708
 97
        0
 97
        1
330
F6
 75
     2
 76
     1
 98
        1
 10
0.0
 20
0.0
450
        0
451
        0
460
0.0
461
0.0
452
        0
462
0.0
453
        0
470

  0
SPLINE
  5
F8
330
F2
100
AcDbEntity
  8
Livello 1
100
AcDbSpline
210
0.0
220
0.0
230
1.0
 70
     9
 71
     3
 72
    17
 73
    13
 74
     0
 42
0.000000001
 43
0.0000000001
 40
0.0
 40
0.0
 40
0.0
 40
0.0
 40
1.0
 40
1.0
 40
1.0
 40
2.0
 40
2.0
 40
2.0
 40
3.0
 40
3.0
 40
3.0
 40
4.0
 40
4.0
 40
4.0
 40
4.0
 10
156.4228379600262
 20
-259.1886582468348
 30
0.0
 10
156.4228379600262
 20
-261.3346082245969
 30
0.0
 10
157.0829182550001
 20
-262.5534830072783
 30
0.0
 10
158.0988769136003
 20
-262.5534830072783
 30
0.0
 10
159.2419595956062
 20
-262.5534830072783
 30
0.0
 10
159.7880072300183
 20
-261.2202310544867
 30
0.0
 10
159.7880072300183
 20
-259.1121771270622
 30
0.0
 10
159.7880072300183
 20
-257.0806043194104
 30
0.0
 10
159.2671087926485
 20
-255.7473523666188
 30
0.0
 10
158.1116237668957
 20
-255.7473523666188
 30
0.0
 10
157.1339056681818
 20
-255.7473523666188
 30
0.0
 10
156.4228379600262
 20
-256.9407334427093
 30
0.0
 10
156.4228379600262
 20
-259.1886582468348
 30
0.0
  0
SPLINE
  5
F9
330
F2
100
AcDbEntity
  8
Livello 1
100
AcDbSpline
210
0.0
220
0.0
230
1.0
 70
     9
 71
     3
 72
    17
 73
    13
 74
     0
 42
0.000000001
 43
0.0000000001
 40
0.0
 40
0.0
 40
0.0
 40
0.0
 40
1.0
 40
1.0
 40
1.0
 40
2.0
 40
2.0
 40
2.0
 40
3.0
 40
3.0
 40
3.0
 40
4.0
 40
4.0
 40
4.0
 40
4.0
 10
160.9052516958848
 20
-259.0615342234291
 30
0.0
 10
160.9052516958848
 20
-261.8679090057136
 30
0.0
 10
159.8641438402423
 20
-263.4171684454305
 30
0.0
 10
158.0354871566717
 20
-263.4171684454305
 30
0.0
 10
156.4228379600262
 20
-263.4171684454305
 30
0.0
 10
155.330742691202
 20
-261.9058050560513
 30
0.0
 10
155.3052489846112
 20
-259.1759113935394
 30
0.0
 10
155.3052489846112
 20
-256.4074326615926
 30
0.0
 10
156.4989745702502
 20
-254.8836669284666
 30
0.0
 10
158.1750135238243
 20
-254.8836669284666
 30
0.0
 10
159.9147867438755
 20
-254.8836669284666
 30
0.0
 10
160.9052516958848
 20
-256.4329263681835
 30
0.0
 10
160.9052516958848
 20
-259.0615342234291
 30
0.0
  0
HATCH
  5
FA
330
F2
100
AcDbEntity
  8
Livello 1
 62
   250
420
  1907995
440
 33554687
100
AcDbHatch
 10
0.0
 20
0.0
 30
0.0
210
0.0
220
0.0
230
1.0
  2
SOLID
 70
     1
 71
     1
 91
        2
 92
        1
 93
        1
 72
     4
 94
        3
 73
     0
 74
     0
 95
       17
 96
       13
 40
0.0
 40
0.0
 40
0.0
 40
0.0
 40
1.0
 40
1.0
 40
1.0
 40
2.0
 40
2.0
 40
2.0
 40
3.0
 40
3.0
 40
3.0
 40
4.0
 40
4.0
 40
4.0
 40
4.0
 10
156.4228379600262
 20
-259.1886582468348
 10
156.4228379600262
 20
-261.3346082245969
 10
157.0829182550001
 20
-262.5534830072783
 10
158.0988769136003
 20
-262.5534830072783
 10
159.2419595956062
 20
-262.5534830072783
 10
159.7880072300183
 20
-261.2202310544867
 10
159.7880072300183
 20
-259.1121771270622
 10
159.7880072300183
 20
-257.0806043194104
 10
159.2671087926485
 20
-255.7473523666188
 10
158.1116237668957
 20
-255.7473523666188
 10
157.1339056681818
 20
-255.7473523666188
 10
156.4228379600262
 20
-256.9407334427093
 10
156.4228379600262
 20
-259.1886582468348
 97
        0
 97
        1
330
F8
 92
        1
 93
        1
 72
     4
 94
        3
 73
     0
 74
     0
 95
       17
 96
       13
 40
0.0
 40
0.0
 40
0.0
 40
0.0
 40
1.0
 40
1.0
 40
1.0
 40
2.0
 40
2.0
 40
2.0
 40
3.0
 40
3.0
 40
3.0
 40
4.0
 40
4.0
 40
4.0
 40
4.0
 10
160.9052516958848
 20
-259.0615342234291
 10
160.9052516958848
 20
-261.8679090057136
 10
159.8641438402423
 20
-263.4171684454305
 10
158.0354871566717
 20
-263.4171684454305
 10
156.4228379600262
 20
-263.4171684454305
 10
155.330742691202
 20
-261.9058050560513
 10
155.3052489846112
 20
-259.1759113935394
 10
155.3052489846112
 20
-256.4074326615926
 10
156.4989745702502
 20
-254.8836669284666
 10
158.1750135238243
 20
-254.8836669284666
 10
159.9147867438755
 20
-254.8836669284666
 10
160.9052516958848
 20
-256.4329263681835
 10
160.9052516958848
 20
-259.0615342234291
 97
        0
 97
        1
330
F9
 75
     2
 76
     1
 98
        1
 10
0.0
 20
0.0
450
        0
451
        0
460
0.0
461
0.0
452
        0
462
0.0
453
        0
470

  0
ENDBLK
  5
F5
330
F2
100
AcDbEntity
  8
0
100
AcDbBlockEnd
  0
BLOCK
  5
FD
330
FB
100
AcDbEntity
  8
0
100
AcDbBlockBegin
  2
Block_14
 70
     0
 10
0.0
 20
0.0
 30
0.0
  3
Block_14
  1

  0
INSERT
  5
100
330
FB
100
AcDbEntity
  8
Livello 1
100
AcDbBlockReference
  2
Block_15
 10
0.0
 20
0.0
 30
0.0
  0
ENDBLK
  5
FE
330
FB
100
AcDbEntity
  8
0
100
AcDbBlockEnd
  0
BLOCK
  5
101
330
FF
100
AcDbEntity
  8
0
100
AcDbBlockBegin
  2
Block_15
 70
     0
 10
0.0
 20
0.0
 30
0.0
  3
Block_15
  1

  0
SPLINE
  5
103
330
FF
100
AcDbEntity
  8
Livello 1
100
AcDbSpline
210
0.0
220
0.0
230
1.0
 70
     9
 71
     3
 72
    59
 73
    55
 74
     0
 42
0.000000001
 43
0.0000000001
 40
0.0
 40
0.0
 40
0.0
 40
0.0
 40
1.0
 40
1.0
 40
1.0
 40
2.0
 40
2.0
 40
2.0
 40
3.0
 40
3.0
 40
3.0
 40
4.0
 40
4.0
 40
4.0
 40
5.0
 40
5.0
 40
5.0
 40
6.0
 40
6.0
 40
6.0
 40
7.0
 40
7.0
 40
7.0
 40
8.0
 40
8.0
 40
8.0
 40
9.0
 40
9.0
 40
9.0
 40
10.0
 40
10.0
 40
10.0
 40
11.0
 40
11.0
 40
11.0
 40
12.0
 40
12.0
 40
12.0
 40
13.0
 40
13.0
 40
13.0
 40
14.0
 40
14.0
 40
14.0
 40
15.0
 40
15.0
 40
15.0
 40
16.0
 40
16.0
 40
16.0
 40
17.0
 40
17.0
 40
17.0
 40
18.0
 40
18.0
 40
18.0
 40
18.0
 10
189.1164496054986
 20
-229.372390350643
 30
0.0
 10
189.3197102391284
 20
-229.0550970564515
 30
0.0
 10
189.6373480428684
 20
-228.3185356417051
 30
0.0
 10
189.6373480428684
 20
-227.5437336670724
 30
0.0
 10
189.6373480428684
 20
-226.1091959070144
 30
0.0
 10
188.7230197010831
 20
-225.6647785894172
 30
0.0
 10
188.0371011899699
 20
-225.677180933164
 30
0.0
 10
186.8816161642171
 20
-225.6899277864595
 30
0.0
 10
186.3865559429867
 20
-226.7313801516505
 30
0.0
 10
186.3865559429867
 20
-227.8103840576307
 30
0.0
 10
186.3865559429867
 20
-227.8103840576307
 30
0.0
 10
186.3865559429867
 20
-228.4325683022669
 30
0.0
 10
186.3865559429867
 20
-228.4325683022669
 30
0.0
 10
186.3865559429867
 20
-228.4325683022669
 30
0.0
 10
185.5483642114254
 20
-228.4325683022669
 30
0.0
 10
185.5483642114254
 20
-228.4325683022669
 30
0.0
 10
185.5483642114254
 20
-228.4325683022669
 30
0.0
 10
185.5483642114254
 20
-227.8103840576307
 30
0.0
 10
185.5483642114254
 20
-227.8103840576307
 30
0.0
 10
185.5483642114254
 20
-226.9980305422088
 30
0.0
 10
185.129440600419
 20
-225.9693250303132
 30
0.0
 10
184.1513779921566
 20
-225.9693250303132
 30
0.0
 10
183.4912976971827
 20
-225.9693250303132
 30
0.0
 10
182.9070095028843
 20
-226.3882486413196
 30
0.0
 10
182.9070095028843
 20
-227.4169541532152
 30
0.0
 10
182.9070095028843
 20
-228.0770344481891
 30
0.0
 10
183.1991536000335
 20
-228.7123100556692
 30
0.0
 10
183.4530571372964
 20
-229.0678439097469
 30
0.0
 10
183.4530571372964
 20
-229.0678439097469
 30
0.0
 10
182.640359112326
 20
-229.3599880068961
 30
0.0
 10
182.640359112326
 20
-229.3599880068961
 30
0.0
 10
182.3230658181345
 20
-228.9279730330458
 30
0.0
 10
182.0054280143945
 20
-228.090125811033
 30
0.0
 10
182.0054280143945
 20
-227.2012911758386
 30
0.0
 10
182.0054280143945
 20
-225.5758951258977
 30
0.0
 10
182.9707437693615
 20
-224.8393337111513
 30
0.0
 10
183.9736110651177
 20
-224.8393337111513
 30
0.0
 10
184.8245496499744
 20
-224.8393337111513
 30
0.0
 10
185.5483642114254
 20
-225.3471407856771
 30
0.0
 10
185.9166449187986
 20
-226.3627549347288
 30
0.0
 10
185.9166449187986
 20
-226.3627549347288
 30
0.0
 10
185.9421386253895
 20
-226.3627549347288
 30
0.0
 10
185.9421386253895
 20
-226.3627549347288
 30
0.0
 10
186.1450547494706
 20
-225.3471407856771
 30
0.0
 10
186.9071098708079
 20
-224.5216959074113
 30
0.0
 10
188.0625948965606
 20
-224.5216959074113
 30
0.0
 10
189.3834445056055
 20
-224.5216959074113
 30
0.0
 10
190.5389295313583
 20
-225.5504014193069
 30
0.0
 10
190.5389295313583
 20
-227.5313313233255
 30
0.0
 10
190.5389295313583
 20
-228.4580620088577
 30
0.0
 10
190.2467854342091
 20
-229.2711045433767
 30
0.0
 10
189.9801350436508
 20
-229.6772813010877
 30
0.0
 10
189.9801350436508
 20
-229.6772813010877
 30
0.0
 10
189.1164496054986
 20
-229.372390350643
 30
0.0
 10
189.1164496054986
 20
-229.372390350643
 30
0.0
  0
HATCH
  5
104
330
FF
100
AcDbEntity
  8
Livello 1
 62
   250
420
  1907995
440
 33554687
100
AcDbHatch
 10
0.0
 20
0.0
 30
0.0
210
0.0
220
0.0
230
1.0
  2
SOLID
 70
     1
 71
     1
 91
        1
 92
        1
 93
        1
 72
     4
 94
        3
 73
     0
 74
     0
 95
       59
 96
       55
 40
0.0
 40
0.0
 40
0.0
 40
0.0
 40
1.0
 40
1.0
 40
1.0
 40
2.0
 40
2.0
 40
2.0
 40
3.0
 40
3.0
 40
3.0
 40
4.0
 40
4.0
 40
4.0
 40
5.0
 40
5.0
 40
5.0
 40
6.0
 40
6.0
 40
6.0
 40
7.0
 40
7.0
 40
7.0
 40
8.0
 40
8.0
 40
8.0
 40
9.0
 40
9.0
 40
9.0
 40
10.0
 40
10.0
 40
10.0
 40
11.0
 40
11.0
 40
11.0
 40
12.0
 40
12.0
 40
12.0
 40
13.0
 40
13.0
 40
13.0
 40
14.0
 40
14.0
 40
14.0
 40
15.0
 40
15.0
 40
15.0
 40
16.0
 40
16.0
 40
16.0
 40
17.0
 40
17.0
 40
17.0
 40
18.0
 40
18.0
 40
18.0
 40
18.0
 10
189.1164496054986
 20
-229.372390350643
 10
189.3197102391284
 20
-229.0550970564515
 10
189.6373480428684
 20
-228.3185356417051
 10
189.6373480428684
 20
-227.5437336670724
 10
189.6373480428684
 20
-226.1091959070144
 10
188.7230197010831
 20
-225.6647785894172
 10
188.0371011899699
 20
-225.677180933164
 10
186.8816161642171
 20
-225.6899277864595
 10
186.3865559429867
 20
-226.7313801516505
 10
186.3865559429867
 20
-227.8103840576307
 10
186.3865559429867
 20
-227.8103840576307
 10
186.3865559429867
 20
-228.4325683022669
 10
186.3865559429867
 20
-228.4325683022669
 10
186.3865559429867
 20
-228.4325683022669
 10
185.5483642114254
 20
-228.4325683022669
 10
185.5483642114254
 20
-228.4325683022669
 10
185.5483642114254
 20
-228.4325683022669
 10
185.5483642114254
 20
-227.8103840576307
 10
185.5483642114254
 20
-227.8103840576307
 10
185.5483642114254
 20
-226.9980305422088
 10
185.129440600419
 20
-225.9693250303132
 10
184.1513779921566
 20
-225.9693250303132
 10
183.4912976971827
 20
-225.9693250303132
 10
182.9070095028843
 20
-226.3882486413196
 10
182.9070095028843
 20
-227.4169541532152
 10
182.9070095028843
 20
-228.0770344481891
 10
183.1991536000335
 20
-228.7123100556692
 10
183.4530571372964
 20
-229.0678439097469
 10
183.4530571372964
 20
-229.0678439097469
 10
182.640359112326
 20
-229.3599880068961
 10
182.640359112326
 20
-229.3599880068961
 10
182.3230658181345
 20
-228.9279730330458
 10
182.0054280143945
 20
-228.090125811033
 10
182.0054280143945
 20
-227.2012911758386
 10
182.0054280143945
 20
-225.5758951258977
 10
182.9707437693615
 20
-224.8393337111513
 10
183.9736110651177
 20
-224.8393337111513
 10
184.8245496499744
 20
-224.8393337111513
 10
185.5483642114254
 20
-225.3471407856771
 10
185.9166449187986
 20
-226.3627549347288
 10
185.9166449187986
 20
-226.3627549347288
 10
185.9421386253895
 20
-226.3627549347288
 10
185.9421386253895
 20
-226.3627549347288
 10
186.1450547494706
 20
-225.3471407856771
 10
186.9071098708079
 20
-224.5216959074113
 10
188.0625948965606
 20
-224.5216959074113
 10
189.3834445056055
 20
-224.5216959074113
 10
190.5389295313583
 20
-225.5504014193069
 10
190.5389295313583
 20
-227.5313313233255
 10
190.5389295313583
 20
-228.4580620088577
 10
190.2467854342091
 20
-229.2711045433767
 10
189.9801350436508
 20
-229.6772813010877
 10
189.9801350436508
 20
-229.6772813010877
 10
189.1164496054986
 20
-229.372390350643
 10
189.1164496054986
 20
-229.372390350643
 97
        0
 97
        1
330
103
 75
     2
 76
     1
 98
        1
 10
0.0
 20
0.0
450
        0
451
        0
460
0.0
461
0.0
452
        0
462
0.0
453
        0
470

  0
SPLINE
  5
105
330
FF
100
AcDbEntity
  8
Livello 1
100
AcDbSpline
210
0.0
220
0.0
230
1.0
 70
     9
 71
     3
 72
    17
 73
    13
 74
     0
 42
0.000000001
 43
0.0000000001
 40
0.0
 40
0.0
 40
0.0
 40
0.0
 40
1.0
 40
1.0
 40
1.0
 40
2.0
 40
2.0
 40
2.0
 40
3.0
 40
3.0
 40
3.0
 40
4.0
 40
4.0
 40
4.0
 40
4.0
 10
186.3104193327627
 20
-222.1211533732891
 30
0.0
 10
188.4563693105248
 20
-222.1211533732891
 30
0.0
 10
189.6752440932061
 20
-221.4607285687668
 30
0.0
 10
189.6752440932061
 20
-220.4447699101666
 30
0.0
 10
189.6752440932061
 20
-219.3020317377092
 30
0.0
 10
188.3419921404145
 20
-218.7559841032971
 30
0.0
 10
186.2339382129901
 20
-218.7559841032971
 30
0.0
 10
184.2023654053383
 20
-218.7559841032971
 30
0.0
 10
182.8691134525465
 20
-219.2768825406669
 30
0.0
 10
182.8691134525465
 20
-220.4323675664197
 30
0.0
 10
182.8691134525465
 20
-221.4100856651336
 30
0.0
 10
184.062494528637
 20
-222.1211533732891
 30
0.0
 10
186.3104193327627
 20
-222.1211533732891
 30
0.0
  0
SPLINE
  5
106
330
FF
100
AcDbEntity
  8
Livello 1
100
AcDbSpline
210
0.0
220
0.0
230
1.0
 70
     9
 71
     3
 72
    17
 73
    13
 74
     0
 42
0.000000001
 43
0.0000000001
 40
0.0
 40
0.0
 40
0.0
 40
0.0
 40
1.0
 40
1.0
 40
1.0
 40
2.0
 40
2.0
 40
2.0
 40
3.0
 40
3.0
 40
3.0
 40
4.0
 40
4.0
 40
4.0
 40
4.0
 10
186.1832953093569
 20
-217.6383951278821
 30
0.0
 10
188.9896700916414
 20
-217.6383951278821
 30
0.0
 10
190.5389295313583
 20
-218.6798474930731
 30
0.0
 10
190.5389295313583
 20
-220.5085041766437
 30
0.0
 10
190.5389295313583
 20
-222.1211533732891
 30
0.0
 10
189.0275661419791
 20
-223.2132486421134
 30
0.0
 10
186.2976724794672
 20
-223.2387423487042
 30
0.0
 10
183.5291937475204
 20
-223.2387423487042
 30
0.0
 10
182.0054280143945
 20
-222.0450167630652
 30
0.0
 10
182.0054280143945
 20
-220.3689778094911
 30
0.0
 10
182.0054280143945
 20
-218.6292045894399
 30
0.0
 10
183.5546874541113
 20
-217.6383951278821
 30
0.0
 10
186.1832953093569
 20
-217.6383951278821
 30
0.0
  0
HATCH
  5
107
330
FF
100
AcDbEntity
  8
Livello 1
 62
   250
420
  1907995
440
 33554687
100
AcDbHatch
 10
0.0
 20
0.0
 30
0.0
210
0.0
220
0.0
230
1.0
  2
SOLID
 70
     1
 71
     1
 91
        2
 92
        1
 93
        1
 72
     4
 94
        3
 73
     0
 74
     0
 95
       17
 96
       13
 40
0.0
 40
0.0
 40
0.0
 40
0.0
 40
1.0
 40
1.0
 40
1.0
 40
2.0
 40
2.0
 40
2.0
 40
3.0
 40
3.0
 40
3.0
 40
4.0
 40
4.0
 40
4.0
 40
4.0
 10
186.3104193327627
 20
-222.1211533732891
 10
188.4563693105248
 20
-222.1211533732891
 10
189.6752440932061
 20
-221.4607285687668
 10
189.6752440932061
 20
-220.4447699101666
 10
189.6752440932061
 20
-219.3020317377092
 10
188.3419921404145
 20
-218.7559841032971
 10
186.2339382129901
 20
-218.7559841032971
 10
184.2023654053383
 20
-218.7559841032971
 10
182.8691134525465
 20
-219.2768825406669
 10
182.8691134525465
 20
-220.4323675664197
 10
182.8691134525465
 20
-221.4100856651336
 10
184.062494528637
 20
-222.1211533732891
 10
186.3104193327627
 20
-222.1211533732891
 97
        0
 97
        1
330
105
 92
        1
 93
        1
 72
     4
 94
        3
 73
     0
 74
     0
 95
       17
 96
       13
 40
0.0
 40
0.0
 40
0.0
 40
0.0
 40
1.0
 40
1.0
 40
1.0
 40
2.0
 40
2.0
 40
2.0
 40
3.0
 40
3.0
 40
3.0
 40
4.0
 40
4.0
 40
4.0
 40
4.0
 10
186.1832953093569
 20
-217.6383951278821
 10
188.9896700916414
 20
-217.6383951278821
 10
190.5389295313583
 20
-218.6798474930731
 10
190.5389295313583
 20
-220.5085041766437
 10
190.5389295313583
 20
-222.1211533732891
 10
189.0275661419791
 20
-223.2132486421134
 10
186.2976724794672
 20
-223.2387423487042
 10
183.5291937475204
 20
-223.2387423487042
 10
182.0054280143945
 20
-222.0450167630652
 10
182.0054280143945
 20
-220.3689778094911
 10
182.0054280143945
 20
-218.6292045894399
 10
183.5546874541113
 20
-217.6383951278821
 10
186.1832953093569
 20
-217.6383951278821
 97
        0
 97
        1
330
106
 75
     2
 76
     1
 98
        1
 10
0.0
 20
0.0
450
        0
451
        0
460
0.0
461
0.0
452
        0
462
0.0
453
        0
470

  0
ENDBLK
  5
102
330
FF
100
AcDbEntity
  8
0
100
AcDbBlockEnd
  0
ENDSEC
  0
SECTION
  2
ENTITIES
  0
SPLINE
  5
84
330
70
100
AcDbEntity
  8
Livello 1
100
AcDbSpline
210
0.0
220
0.0
230
1.0
 70
     8
 71
     3
 72
    17
 73
    13
 74
     0
 42
0.000000001
 43
0.0000000001
 40
0.0
 40
0.0
 40
0.0
 40
0.0
 40
1.0
 40
1.0
 40
1.0
 40
2.0
 40
2.0
 40
2.0
 40
3.0
 40
3.0
 40
3.0
 40
4.0
 40
4.0
 40
4.0
 40
4.0
 10
146.979526531121
 20
-239.483423715067
 30
0.0
 10
138.450646190477
 20
-236.8382466461444
 30
0.0
 10
132.0352051243293
 20
-229.1364321144438
 30
0.0
 10
132.0352051243293
 20
-219.6716591361026
 30
0.0
 10
132.0352051243293
 20
-207.88091512313
 30
0.0
 10
141.5934916924878
 20
-198.3226285549728
 30
0.0
 10
153.3842357054598
 20
-198.3226285549728
 30
0.0
 10
165.1749797184319
 20
-198.3226285549728
 30
0.0
 10
174.733266286589
 20
-207.88091512313
 30
0.0
 10
174.733266286589
 20
-219.6716591361026
 30
0.0
 10
174.733266286589
 20
-229.1363986443985
 30
0.0
 10
168.3554356174982
 20
-236.8594090050574
 30
0.0
 10
159.8266021976287
 20
-239.5046120316585
 30
0.0
  0
LINE
  5
85
330
70
100
AcDbEntity
  8
Livello 1
100
AcDbLine
 10
159.7889448797986
 20
-239.483423715067
 30
0.0
 11
146.979526531121
 21
-239.483423715067
 31
0.0
  0
LINE
  5
93
330
70
100
AcDbEntity
  8
Livello 1
100
AcDbLine
 10
132.0352051243293
 20
-252.6672838874487
 30
0.0
 11
174.733266286589
 21
-252.6672838874487
 31
0.0
  0
LINE
  5
94
330
70
100
AcDbEntity
  8
Livello 1
100
AcDbLine
 10
179.485493782289
 20
-198.3226285549728
 30
0.0
 11
179.485493782289
 21
-241.1057893252427
 31
0.0
  0
LINE
  5
16A
330
70
100
AcDbEntity
  8
Livello 1
100
AcDbLine
 10
148.5807038247052
 20
-241.1057893252427
 30
0.0
 11
146.979526531121
 21
-241.1057893252427
 31
0.0
  0
LINE
  5
16B
330
70
100
AcDbEntity
  8
Livello 1
100
AcDbLine
 10
146.979526531121
 20
-241.1057893252427
 30
0.0
 11
146.979526531121
 21
-239.5046120316585
 31
0.0
  0
LINE
  5
16C
330
70
100
AcDbEntity
  8
Livello 1
100
AcDbLine
 10
146.979526531121
 20
-239.5046120316585
 30
0.0
 11
148.5807038247052
 21
-239.5046120316585
 31
0.0
  0
LINE
  5
16D
330
70
100
AcDbEntity
  8
Livello 1
100
AcDbLine
 10
148.5807038247052
 20
-239.5046120316585
 30
0.0
 11
148.5807038247052
 21
-241.1057893252427
 31
0.0
  0
LINE
  5
16E
330
70
100
AcDbEntity
  8
Livello 1
100
AcDbLine
 10
154.1848243522513
 20
-241.1057893252427
 30
0.0
 11
152.5836470586671
 21
-241.1057893252427
 31
0.0
  0
LINE
  5
16F
330
70
100
AcDbEntity
  8
Livello 1
100
AcDbLine
 10
152.5836470586671
 20
-241.1057893252427
 30
0.0
 11
152.5836470586671
 21
-239.5046120316585
 31
0.0
  0
LINE
  5
170
330
70
100
AcDbEntity
  8
Livello 1
100
AcDbLine
 10
152.5836470586671
 20
-239.5046120316585
 30
0.0
 11
154.1848243522513
 21
-239.5046120316585
 31
0.0
  0
LINE
  5
171
330
70
100
AcDbEntity
  8
Livello 1
100
AcDbLine
 10
154.1848243522513
 20
-239.5046120316585
 30
0.0
 11
154.1848243522513
 21
-241.1057893252427
 31
0.0
  0
LINE
  5
172
330
70
100
AcDbEntity
  8
Livello 1
100
AcDbLine
 10
159.8266021976287
 20
-241.1057893252427
 30
0.0
 11
158.2254249040444
 21
-241.1057893252427
 31
0.0
  0
LINE
  5
173
330
70
100
AcDbEntity
  8
Livello 1
100
AcDbLine
 10
158.2254249040444
 20
-241.1057893252427
 30
0.0
 11
158.2254249040444
 21
-239.5046120316585
 31
0.0
  0
LINE
  5
174
330
70
100
AcDbEntity
  8
Livello 1
100
AcDbLine
 10
158.2254249040444
 20
-239.5046120316585
 30
0.0
 11
159.8266021976287
 21
-239.5046120316585
 31
0.0
  0
LINE
  5
175
330
70
100
AcDbEntity
  8
Livello 1
100
AcDbLine
 10
159.8266021976287
 20
-239.5046120316585
 30
0.0
 11
159.8266021976287
 21
-241.1057893252427
 31
0.0
  0
INSERT
  5
188
330
70
100
AcDbEntity
  8
Livello 1
100
AcDbBlockReference
  2
Block_13
 10
0.0
 20
0.0
 30
0.0
  0
INSERT
  5
189
330
70
100
AcDbEntity
  8
Livello 1
100
AcDbBlockReference
  2
Block_15
 10
0.0
 20
0.0
 30
0.0
  0
ENDSEC
  0
SECTION
  2
OBJECTS
  0
DICTIONARY
  5
C
330
0
100
AcDbDictionary
281
     1
  3
ACAD_CIP_PREVIOUS_PRODUCT_INFO
350
14B
  3
ACAD_COLOR
350
63
  3
ACAD_DETAILVIEWSTYLE
350
6A
  3
ACAD_GROUP
350
D
  3
ACAD_LAYOUT
350
62
  3
ACAD_MATERIAL
350
10
  3
ACAD_MLEADERSTYLE
350
66
  3
ACAD_MLINESTYLE
350
5F
  3
ACAD_PLOTSETTINGS
350
61
  3
ACAD_PLOTSTYLENAME
350
E
  3
ACAD_SCALELIST
350
42
  3
ACAD_SECTIONVIEWSTYLE
350
68
  3
ACAD_TABLESTYLE
350
64
  3
ACAD_VISUALSTYLE
350
29
  3
ACDB_RECOMPOSE_DATA
350
18C
  3
AcDbVariableDictionary
350
108
  0
DICTIONARY
  5
14C
330
70
100
AcDbDictionary
280
     1
281
     1
  3
ACAD_SORTENTS
360
14D
  0
XRECORD
  5
14B
102
{ACAD_REACTORS
330
C
102
}
330
C
100
AcDbXrecord
280
     1
300
ACD
300
2019
300
ACD_F_S
  0
DICTIONARY
  5
63
102
{ACAD_REACTORS
330
C
102
}
330
C
100
AcDbDictionary
281
     1
  0
DICTIONARY
  5
6A
102
{ACAD_REACTORS
330
C
102
}
330
C
100
AcDbDictionary
281
     1
  3
Imperial24
350
6B
  0
DICTIONARY
  5
D
102
{ACAD_REACTORS
330
C
102
}
330
C
100
AcDbDictionary
281
     1
  0
DICTIONARY
  5
62
102
{ACAD_REACTORS
330
C
102
}
330
C
100
AcDbDictionary
281
     1
  3
Layout1
350
6F
  3
Layout2
350
77
  3
Model
350
73
  0
DICTIONARY
  5
10
102
{ACAD_REACTORS
330
C
102
}
330
C
100
AcDbDictionary
281
     1
  3
ByBlock
350
19
  3
ByLayer
350
11
  3
Global
350
21
  0
DICTIONARY
  5
66
102
{ACAD_REACTORS
330
C
102
}
330
C
100
AcDbDictionary
281
     1
  3
Standard
350
67
  0
DICTIONARY
  5
5F
102
{ACAD_REACTORS
330
C
102
}
330
C
100
AcDbDictionary
281
     1
  3
Standard
350
60
  0
DICTIONARY
  5
61
102
{ACAD_REACTORS
330
C
102
}
330
C
100
AcDbDictionary
281
     1
  0
ACDBDICTIONARYWDFLT
  5
E
102
{ACAD_REACTORS
330
C
102
}
330
C
100
AcDbDictionary
281
     1
  3
Normal
350
F
100
AcDbDictionaryWithDefault
340
F
  0
DICTIONARY
  5
42
102
{ACAD_REACTORS
330
C
102
}
330
C
100
AcDbDictionary
281
     1
  3
A0
350
43
  3
A1
350
44
  3
A2
350
45
  3
A3
350
46
  3
A4
350
47
  3
A5
350
48
  3
A6
350
49
  3
A7
350
4A
  3
A8
350
4B
  3
A9
350
4C
  3
B0
350
4D
  3
B1
350
4E
  3
B2
350
4F
  3
B3
350
50
  3
B4
350
51
  3
B5
350
52
  3
B6
350
53
  0
DICTIONARY
  5
68
102
{ACAD_REACTORS
330
C
102
}
330
C
100
AcDbDictionary
281
     1
  3
Imperial24
350
69
  0
DICTIONARY
  5
64
102
{ACAD_REACTORS
330
C
102
}
330
C
100
AcDbDictionary
281
     1
  3
Standard
350
65
  0
DICTIONARY
  5
29
102
{ACAD_REACTORS
330
C
102
}
330
C
100
AcDbDictionary
281
     1
  3
2dWireframe
350
2F
  3
Basic
350
2E
  3
Brighten
350
35
  3
ColorChange
350
39
  3
Conceptual
350
32
  3
Dim
350
34
  3
EdgeColorOff
350
41
  3
Facepattern
350
38
  3
Flat
350
2A
  3
FlatWithEdges
350
2B
  3
Gouraud
350
2C
  3
GouraudWithEdges
350
2D
  3
Hidden
350
31
  3
JitterOff
350
3F
  3
Linepattern
350
37
  3
OverhangOff
350
40
  3
Realistic
350
33
  3
Shaded
350
3E
  3
Shaded with edges
350
3D
  3
Shades of Gray
350
3A
  3
Sketchy
350
3B
  3
Thicken
350
36
  3
Wireframe
350
30
  3
X-Ray
350
3C
  0
XRECORD
  5
18C
102
{ACAD_REACTORS
330
C
102
}
330
C
100
AcDbXrecord
280
     1
 90
        1
330
65
  0
DICTIONARY
  5
108
102
{ACAD_REACTORS
330
C
102
}
330
C
100
AcDbDictionary
281
     1
  3
CANNOSCALE
350
10D
  3
CMLEADERSTYLE
350
10A
  3
CTABLESTYLE
350
109
  3
CVIEWDETAILSTYLE
350
10B
  3
CVIEWSECTIONSTYLE
350
10C
  0
SORTENTSTABLE
  5
14D
102
{ACAD_REACTORS
330
14C
102
}
330
14C
100
AcDbSortentsTable
330
70
331
85
  5
160
331
93
  5
180
331
94
  5
181
331
16A
  5
161
331
16B
  5
162
331
16C
  5
163
331
16D
  5
164
331
16E
  5
165
331
16F
  5
166
331
170
  5
167
331
171
  5
168
331
172
  5
169
331
173
  5
16A
331
174
  5
16B
331
175
  5
16C
  0
ACDBDETAILVIEWSTYLE
  5
6B
102
{ACAD_XDICTIONARY
360
18F
102
}
102
{ACAD_REACTORS
330
6A
102
}
330
6A
100
AcDbModelDocViewStyle
 70
     0
  3
Imperial24
290
     0
100
AcDbDetailViewStyle
 70
     0
 71
     0
 90
        3
 71
     1
340
55
 62
   256
 40
0.24
340
0
 62
   256
 40
0.24
300

 40
0.36
280
     3
 71
     2
340
5D
 90
       25
 62
   256
 71
     3
340
55
 62
   256
 40
0.24
 90
        1
 40
0.75
 90
        1
300
%<\AcVar ViewType \f "%tc1">% %<\AcVar ViewDetailId>%\PSCALE %<\AcVar ViewScale \f "%sn">%
 71
     4
340
5D
 90
       25
 62
   256
340
5D
 90
       25
 62
   256
280
     0
  0
LAYOUT
  5
6F
102
{ACAD_REACTORS
330
62
102
}
330
62
100
AcDbPlotSettings
  1

  2

  4

  6

 40
0.0
 41
0.0
 42
0.0
 43
0.0
 44
0.0
 45
0.0
 46
0.0
 47
0.0
 48
0.0
 49
0.0
140
0.0
141
0.0
142
1.0
143
1.0
 70
   688
 72
     0
 73
     0
 74
     5
  7

 75
    16
147
1.0
 76
     0
 77
     2
 78
   300
148
0.0
149
0.0
100
AcDbLayout
  1
Layout1
 70
     1
 71
     1
 10
0.0
 20
0.0
 11
12.0
 21
9.0
 12
0.0
 22
0.0
 32
0.0
 14
1.000000000000000E+20
 24
1.000000000000000E+20
 34
1.000000000000000E+20
 15
-1.000000000000000E+20
 25
-1.000000000000000E+20
 35
-1.000000000000000E+20
146
0.0
 13
0.0
 23
0.0
 33
0.0
 16
1.0
 26
0.0
 36
0.0
 17
0.0
 27
1.0
 37
0.0
 76
     0
330
6C
  0
LAYOUT
  5
77
102
{ACAD_REACTORS
330
62
102
}
330
62
100
AcDbPlotSettings
  1

  2

  4

  6

 40
0.0
 41
0.0
 42
0.0
 43
0.0
 44
0.0
 45
0.0
 46
0.0
 47
0.0
 48
0.0
 49
0.0
140
0.0
141
0.0
142
1.0
143
1.0
 70
   688
 72
     0
 73
     0
 74
     5
  7

 75
    16
147
1.0
 76
     0
 77
     2
 78
   300
148
0.0
149
0.0
100
AcDbLayout
  1
Layout2
 70
     1
 71
     2
 10
0.0
 20
0.0
 11
12.0
 21
9.0
 12
0.0
 22
0.0
 32
0.0
 14
0.0
 24
0.0
 34
0.0
 15
0.0
 25
0.0
 35
0.0
146
0.0
 13
0.0
 23
0.0
 33
0.0
 16
1.0
 26
0.0
 36
0.0
 17
0.0
 27
1.0
 37
0.0
 76
     0
330
74
  0
LAYOUT
  5
73
102
{ACAD_REACTORS
330
62
102
}
330
62
100
AcDbPlotSettings
  1

  2

  4

  6

 40
0.0
 41
0.0
 42
0.0
 43
0.0
 44
0.0
 45
0.0
 46
0.0
 47
0.0
 48
0.0
 49
0.0
140
0.0
141
0.0
142
1.0
143
1.0
 70
  1712
 72
     0
 73
     0
 74
     0
  7

 75
     0
147
1.0
 76
     0
 77
     2
 78
   300
148
0.0
149
0.0
100
AcDbLayout
  1
Model
 70
     1
 71
     0
 10
0.0
 20
0.0
 11
12.0
 21
9.0
 12
0.0
 22
0.0
 32
0.0
 14
0.0
 24
0.0
 34
0.0
 15
0.0
 25
0.0
 35
0.0
146
0.0
 13
0.0
 23
0.0
 33
0.0
 16
1.0
 26
0.0
 36
0.0
 17
0.0
 27
1.0
 37
0.0
 76
     0
330
70
331
57
  0
MATERIAL
  5
19
102
{ACAD_XDICTIONARY
360
1A
102
}
102
{ACAD_REACTORS
330
10
102
}
330
10
100
AcDbMaterial
  1
ByBlock
 72
     0
 43
0.0208333333333333
 43
0.0
 43
0.0
 43
0.0
 43
0.0
 43
0.0208333333333333
 43
0.0
 43
0.0
 43
0.0
 43
0.0
 43
1.0
 43
0.0
 43
0.0
 43
0.0
 43
0.0
 43
1.0
 77
     0
 47
0.0208333333333333
 47
0.0
 47
0.0
 47
0.0
 47
0.0
 47
0.0208333333333333
 47
0.0
 47
0.0
 47
0.0
 47
0.0
 47
1.0
 47
0.0
 47
0.0
 47
0.0
 47
0.0
 47
1.0
171
     0
 49
0.0208333333333333
 49
0.0
 49
0.0
 49
0.0
 49
0.0
 49
0.0208333333333333
 49
0.0
 49
0.0
 49
0.0
 49
0.0
 49
1.0
 49
0.0
 49
0.0
 49
0.0
 49
0.0
 49
1.0
175
     0
142
0.0208333333333333
142
0.0
142
0.0
142
0.0
142
0.0
142
0.0208333333333333
142
0.0
142
0.0
142
0.0
142
0.0
142
1.0
142
0.0
142
0.0
142
0.0
142
0.0
142
1.0
179
     0
144
0.0208333333333333
144
0.0
144
0.0
144
0.0
144
0.0
144
0.0208333333333333
144
0.0
144
0.0
144
0.0
144
0.0
144
1.0
144
0.0
144
0.0
144
0.0
144
0.0
144
1.0
147
0.0208333333333333
147
0.0
147
0.0
147
0.0
147
0.0
147
0.0208333333333333
147
0.0
147
0.0
147
0.0
147
0.0
147
1.0
147
0.0
147
0.0
147
0.0
147
0.0
147
1.0
  0
MATERIAL
  5
11
102
{ACAD_XDICTIONARY
360
12
102
}
102
{ACAD_REACTORS
330
10
102
}
330
10
100
AcDbMaterial
  1
ByLayer
 72
     0
 43
0.0208333333333333
 43
0.0
 43
0.0
 43
0.0
 43
0.0
 43
0.0208333333333333
 43
0.0
 43
0.0
 43
0.0
 43
0.0
 43
1.0
 43
0.0
 43
0.0
 43
0.0
 43
0.0
 43
1.0
 77
     0
 47
0.0208333333333333
 47
0.0
 47
0.0
 47
0.0
 47
0.0
 47
0.0208333333333333
 47
0.0
 47
0.0
 47
0.0
 47
0.0
 47
1.0
 47
0.0
 47
0.0
 47
0.0
 47
0.0
 47
1.0
171
     0
 49
0.0208333333333333
 49
0.0
 49
0.0
 49
0.0
 49
0.0
 49
0.0208333333333333
 49
0.0
 49
0.0
 49
0.0
 49
0.0
 49
1.0
 49
0.0
 49
0.0
 49
0.0
 49
0.0
 49
1.0
175
     0
142
0.0208333333333333
142
0.0
142
0.0
142
0.0
142
0.0
142
0.0208333333333333
142
0.0
142
0.0
142
0.0
142
0.0
142
1.0
142
0.0
142
0.0
142
0.0
142
0.0
142
1.0
179
     0
144
0.0208333333333333
144
0.0
144
0.0
144
0.0
144
0.0
144
0.0208333333333333
144
0.0
144
0.0
144
0.0
144
0.0
144
1.0
144
0.0
144
0.0
144
0.0
144
0.0
144
1.0
147
0.0208333333333333
147
0.0
147
0.0
147
0.0
147
0.0
147
0.0208333333333333
147
0.0
147
0.0
147
0.0
147
0.0
147
1.0
147
0.0
147
0.0
147
0.0
147
0.0
147
1.0
  0
MATERIAL
  5
21
102
{ACAD_XDICTIONARY
360
22
102
}
102
{ACAD_REACTORS
330
10
102
}
330
10
100
AcDbMaterial
  1
Global
 72
     0
 43
0.0208333333333333
 43
0.0
 43
0.0
 43
0.0
 43
0.0
 43
0.0208333333333333
 43
0.0
 43
0.0
 43
0.0
 43
0.0
 43
1.0
 43
0.0
 43
0.0
 43
0.0
 43
0.0
 43
1.0
 77
     0
 47
0.0208333333333333
 47
0.0
 47
0.0
 47
0.0
 47
0.0
 47
0.0208333333333333
 47
0.0
 47
0.0
 47
0.0
 47
0.0
 47
1.0
 47
0.0
 47
0.0
 47
0.0
 47
0.0
 47
1.0
171
     0
 49
0.0208333333333333
 49
0.0
 49
0.0
 49
0.0
 49
0.0
 49
0.0208333333333333
 49
0.0
 49
0.0
 49
0.0
 49
0.0
 49
1.0
 49
0.0
 49
0.0
 49
0.0
 49
0.0
 49
1.0
175
     0
142
0.0208333333333333
142
0.0
142
0.0
142
0.0
142
0.0
142
0.0208333333333333
142
0.0
142
0.0
142
0.0
142
0.0
142
1.0
142
0.0
142
0.0
142
0.0
142
0.0
142
1.0
179
     0
144
0.0208333333333333
144
0.0
144
0.0
144
0.0
144
0.0
144
0.0208333333333333
144
0.0
144
0.0
144
0.0
144
0.0
144
1.0
144
0.0
144
0.0
144
0.0
144
0.0
144
1.0
147
0.0208333333333333
147
0.0
147
0.0
147
0.0
147
0.0
147
0.0208333333333333
147
0.0
147
0.0
147
0.0
147
0.0
147
1.0
147
0.0
147
0.0
147
0.0
147
0.0
147
1.0
  0
MLEADERSTYLE
  5
67
102
{ACAD_REACTORS
330
66
102
}
330
66
100
AcDbMLeaderStyle
179
     2
170
     2
171
     1
172
     0
 90
        2
 40
0.0
 41
0.0
173
     1
 91
-1056964608
340
5B
 92
       -2
290
     1
 42
0.09
291
     1
 43
0.36
  3
Standard
 44
0.18
300

342
55
174
     1
178
     6
175
     1
176
     0
 93
-1056964608
 45
0.18
292
     0
297
     0
 46
0.18
 94
-1056964608
 47
1.0
 49
1.0
140
1.0
293
     1
141
0.0
294
     1
177
     0
142
1.0
295
     0
296
     0
143
0.125
271
     0
272
     9
273
     9
298
     1
  0
MLINESTYLE
  5
60
102
{ACAD_REACTORS
330
5F
102
}
330
5F
100
AcDbMlineStyle
  2
STANDARD
 70
     0
  3

 62
   256
 51
90.0
 52
90.0
 71
     2
 49
0.5
 62
   256
  6
BYLAYER
 49
-0.5
 62
   256
  6
BYLAYER
  0
ACDBPLACEHOLDER
  5
F
102
{ACAD_REACTORS
330
E
102
}
330
E
  0
SCALE
  5
43
102
{ACAD_REACTORS
330
42
102
}
330
42
100
AcDbScale
 70
     0
300
1:1
140
1.0
141
1.0
290
     1
  0
SCALE
  5
44
102
{ACAD_REACTORS
330
42
102
}
330
42
100
AcDbScale
 70
     0
300
1/128" = 1'-0"
140
0.0078125
141
12.0
290
     0
  0
SCALE
  5
45
102
{ACAD_REACTORS
330
42
102
}
330
42
100
AcDbScale
 70
     0
300
1/64" = 1'-0"
140
0.015625
141
12.0
290
     0
  0
SCALE
  5
46
102
{ACAD_REACTORS
330
42
102
}
330
42
100
AcDbScale
 70
     0
300
1/32" = 1'-0"
140
0.03125
141
12.0
290
     0
  0
SCALE
  5
47
102
{ACAD_REACTORS
330
42
102
}
330
42
100
AcDbScale
 70
     0
300
1/16" = 1'-0"
140
0.0625
141
12.0
290
     0
  0
SCALE
  5
48
102
{ACAD_REACTORS
330
42
102
}
330
42
100
AcDbScale
 70
     0
300
3/32" = 1'-0"
140
0.09375
141
12.0
290
     0
  0
SCALE
  5
49
102
{ACAD_REACTORS
330
42
102
}
330
42
100
AcDbScale
 70
     0
300
1/8" = 1'-0"
140
0.125
141
12.0
290
     0
  0
SCALE
  5
4A
102
{ACAD_REACTORS
330
42
102
}
330
42
100
AcDbScale
 70
     0
300
3/16" = 1'-0"
140
0.1875
141
12.0
290
     0
  0
SCALE
  5
4B
102
{ACAD_REACTORS
330
42
102
}
330
42
100
AcDbScale
 70
     0
300
1/4" = 1'-0"
140
0.25
141
12.0
290
     0
  0
SCALE
  5
4C
102
{ACAD_REACTORS
330
42
102
}
330
42
100
AcDbScale
 70
     0
300
3/8" = 1'-0"
140
0.375
141
12.0
290
     0
  0
SCALE
  5
4D
102
{ACAD_REACTORS
330
42
102
}
330
42
100
AcDbScale
 70
     0
300
1/2" = 1'-0"
140
0.5
141
12.0
290
     0
  0
SCALE
  5
4E
102
{ACAD_REACTORS
330
42
102
}
330
42
100
AcDbScale
 70
     0
300
3/4" = 1'-0"
140
0.75
141
12.0
290
     0
  0
SCALE
  5
4F
102
{ACAD_REACTORS
330
42
102
}
330
42
100
AcDbScale
 70
     0
300
1" = 1'-0"
140
1.0
141
12.0
290
     0
  0
SCALE
  5
50
102
{ACAD_REACTORS
330
42
102
}
330
42
100
AcDbScale
 70
     0
300
1-1/2" = 1'-0"
140
1.5
141
12.0
290
     0
  0
SCALE
  5
51
102
{ACAD_REACTORS
330
42
102
}
330
42
100
AcDbScale
 70
     0
300
3" = 1'-0"
140
3.0
141
12.0
290
     0
  0
SCALE
  5
52
102
{ACAD_REACTORS
330
42
102
}
330
42
100
AcDbScale
 70
     0
300
6" = 1'-0"
140
6.0
141
12.0
290
     0
  0
SCALE
  5
53
102
{ACAD_REACTORS
330
42
102
}
330
42
100
AcDbScale
 70
     0
300
1'-0" = 1'-0"
140
12.0
141
12.0
290
     0
  0
ACDBSECTIONVIEWSTYLE
  5
69
102
{ACAD_XDICTIONARY
360
18D
102
}
102
{ACAD_REACTORS
330
68
102
}
330
68
100
AcDbModelDocViewStyle
 70
     0
  3
Imperial24
290
     0
100
AcDbSectionViewStyle
 70
     0
 71
     0
 90
       78
 71
     1
340
55
 62
   256
 40
0.24
340
0
340
0
 62
   256
 40
0.24
300
I, O, Q, S, X, Z
 40
0.48
 90
        3
 40
0.18
 90
        1
 71
     2
340
5D
 90
       25
 62
   256
340
5D
 90
       50
 62
   256
 40
0.24
 40
0.0
 40
0.24
 71
     3
340
55
 62
   256
 40
0.24
 90
        1
 40
0.75
 90
        1
300
%<\AcVar ViewType \f "%tc1">% %<\AcVar ViewSectionStartId>%-%<\AcVar ViewSectionEndId>%\PSCALE %<\AcVar ViewScale \f "%sn">%
 71
     4
 62
   256
 62
   257
300
ANSI31
 40
1.0
 90
        0
290
     0
290
     0
 90
        6
 40
0.0
 40
1.570796326794896
 40
0.2617993877991494
 40
1.308996938995747
 40
-0.2617993877991494
 40
1.832595714594045
  0
TABLESTYLE
  5
65
102
{ACAD_XDICTIONARY
360
10E
102
}
102
{ACAD_REACTORS
330
64
102
}
330
64
100
AcDbTableStyle
280
     0
  3
Standard
 70
     0
 71
     0
 40
0.06
 41
0.06
280
     0
281
     0
  7
Standard
140
0.18
170
     2
 62
     0
 63
     7
283
     0
 90
      512
 91
        0
  1

274
    -2
284
     1
 64
     0
275
    -2
285
     1
 65
     0
276
    -2
286
     1
 66
     0
277
    -2
287
     1
 67
     0
278
    -2
288
     1
 68
     0
279
    -2
289
     1
 69
     0
  7
Standard
140
0.25
170
     5
 62
     0
 63
     7
283
     0
 90
      512
 91
        0
  1

274
    -2
284
     1
 64
     0
275
    -2
285
     1
 65
     0
276
    -2
286
     1
 66
     0
277
    -2
287
     1
 67
     0
278
    -2
288
     1
 68
     0
279
    -2
289
     1
 69
     0
  7
Standard
140
0.18
170
     5
 62
     0
 63
     7
283
     0
 90
      512
 91
        0
  1

274
    -2
284
     1
 64
     0
275
    -2
285
     1
 65
     0
276
    -2
286
     1
 66
     0
277
    -2
287
     1
 67
     0
278
    -2
288
     1
 68
     0
279
    -2
289
     1
 69
     0
  0
VISUALSTYLE
  5
2F
102
{ACAD_REACTORS
330
29
102
}
330
29
100
AcDbVisualStyle
  2
2dWireframe
 70
     4
177
     3
291
     0
 70
    58
 90
        0
176
     1
 90
        2
176
     1
 90
        0
176
     1
 90
        0
176
     1
 40
0.6
176
     1
 40
30.0
176
     1
 62
     7
420
 16777215
176
     1
 90
        1
176
     1
 90
        4
176
     1
 62
     7
176
     1
 62
   257
176
     1
 90
        1
176
     1
 90
        1
176
     1
 40
1.0
176
     1
 90
        0
176
     1
 62
   257
176
     1
 40
1.0
176
     1
 90
        1
176
     1
 90
        6
176
     1
 90
        2
176
     1
 62
     7
176
     1
 90
        5
176
     1
 90
        0
176
     1
 90
        0
176
     1
290
     0
176
     1
 90
        1
176
     1
 40
0.0
176
     1
 90
        0
176
     1
290
     1
176
     1
290
     1
176
     1
290
     0
176
     1
290
     0
176
     1
290
     0
176
     1
290
     0
176
     1
290
     0
176
     1
290
     0
176
     1
290
     0
176
     1
 90
       50
176
     1
 40
0.0
176
     1
 40
1.0
176
     1
 90
        0
176
     1
 62
    18
420
        0
176
     1
 90
       50
176
     1
 90
        3
176
     1
 62
     5
420
      255
176
     1
290
     0
176
     1
 90
       50
176
     1
 90
       50
176
     1
 90
       50
176
     1
290
     0
176
     1
 90
       50
176
     1
 62
   256
176
     0
 40
1.0
176
     0
 90
        2
176
     1
  1
strokes_ogs.tif
176
     1
290
     0
176
     1
 40
1.0
176
     1
 40
1.0
176
     1
1001
ACAD
1000
AcDbSavedByObjectVersion
1070
     0
  0
VISUALSTYLE
  5
2E
102
{ACAD_REACTORS
330
29
102
}
330
29
100
AcDbVisualStyle
  2
Basic
 70
     7
177
     3
291
     1
 70
    58
 90
        1
176
     1
 90
        0
176
     1
 90
        1
176
     1
 90
        0
176
     1
 40
0.6
176
     1
 40
30.0
176
     1
 62
     7
420
 16777215
176
     1
 90
        0
176
     1
 90
        4
176
     1
 62
     7
176
     1
 62
   257
176
     1
 90
        1
176
     1
 90
        1
176
     1
 40
1.0
176
     1
 90
        8
176
     1
 62
     7
176
     1
 40
1.0
176
     1
 90
        1
176
     1
 90
        6
176
     1
 90
        2
176
     1
 62
     7
176
     1
 90
        5
176
     1
 90
        0
176
     1
 90
        0
176
     1
290
     0
176
     1
 90
        1
176
     1
 40
0.0
176
     1
 90
        0
176
     1
290
     0
176
     1
290
     1
176
     1
290
     1
176
     1
290
     0
176
     1
290
     0
176
     1
290
     0
176
     1
290
     0
176
     1
290
     0
176
     1
290
     0
176
     1
 90
       50
176
     1
 40
0.0
176
     1
 40
1.0
176
     1
 90
        0
176
     1
 62
    18
420
        0
176
     1
 90
       50
176
     1
 90
        3
176
     1
 62
     5
420
      255
176
     1
290
     0
176
     1
 90
       50
176
     1
 90
       50
176
     1
 90
       50
176
     1
290
     0
176
     1
 90
       50
176
     1
 62
   256
176
     0
 40
1.0
176
     0
 90
        2
176
     1
  1
strokes_ogs.tif
176
     1
290
     0
176
     1
 40
1.0
176
     1
 40
1.0
176
     1
1001
ACAD
1000
AcDbSavedByObjectVersion
1070
     0
  0
VISUALSTYLE
  5
35
102
{ACAD_REACTORS
330
29
102
}
330
29
100
AcDbVisualStyle
  2
Brighten
 70
    12
177
     3
291
     1
 70
    58
 90
        2
176
     1
 90
        2
176
     1
 90
        0
176
     1
 90
        0
176
     1
 40
0.6
176
     1
 40
30.0
176
     1
 62
     7
420
 16777215
176
     1
 90
        1
176
     1
 90
        4
176
     1
 62
     7
176
     1
 62
   257
176
     1
 90
        1
176
     1
 90
        1
176
     1
 40
1.0
176
     1
 90
        8
176
     1
 62
     7
176
     1
 40
1.0
176
     1
 90
        1
176
     1
 90
        6
176
     1
 90
        2
176
     1
 62
     7
176
     1
 90
        5
176
     1
 90
        0
176
     1
 90
        0
176
     1
290
     0
176
     1
 90
        1
176
     1
 40
50.0
176
     1
 90
        0
176
     1
290
     0
176
     1
290
     1
176
     1
290
     1
176
     1
290
     0
176
     1
290
     0
176
     1
290
     0
176
     1
290
     0
176
     1
290
     0
176
     1
290
     0
176
     1
 90
       50
176
     1
 40
0.0
176
     1
 40
1.0
176
     1
 90
        0
176
     1
 62
    18
420
        0
176
     1
 90
       50
176
     1
 90
        3
176
     1
 62
     5
420
      255
176
     1
290
     0
176
     1
 90
       50
176
     1
 90
       50
176
     1
 90
       50
176
     1
290
     0
176
     1
 90
       50
176
     1
 62
   256
176
     0
 40
1.0
176
     0
 90
        2
176
     1
  1
strokes_ogs.tif
176
     1
290
     0
176
     1
 40
1.0
176
     1
 40
1.0
176
     1
1001
ACAD
1000
AcDbSavedByObjectVersion
1070
     0
  0
VISUALSTYLE
  5
39
102
{ACAD_REACTORS
330
29
102
}
330
29
100
AcDbVisualStyle
  2
ColorChange
 70
    16
177
     3
291
     1
 70
    58
 90
        2
176
     1
 90
        2
176
     1
 90
        3
176
     1
 90
        0
176
     1
 40
0.6
176
     1
 40
30.0
176
     1
 62
     8
420
  8421504
176
     1
 90
        1
176
     1
 90
        4
176
     1
 62
     7
176
     1
 62
   257
176
     1
 90
        1
176
     1
 90
        1
176
     1
 40
1.0
176
     1
 90
        8
176
     1
 62
     8
420
  8421504
176
     1
 40
1.0
176
     1
 90
        1
176
     1
 90
        6
176
     1
 90
        2
176
     1
 62
     7
176
     1
 90
        5
176
     1
 90
        0
176
     1
 90
        0
176
     1
290
     0
176
     1
 90
        1
176
     1
 40
0.0
176
     1
 90
        0
176
     1
290
     0
176
     1
290
     1
176
     1
290
     1
176
     1
290
     0
176
     1
290
     0
176
     1
290
     0
176
     1
290
     0
176
     1
290
     0
176
     1
290
     0
176
     1
 90
       50
176
     1
 40
0.0
176
     1
 40
1.0
176
     1
 90
        0
176
     1
 62
    18
420
        0
176
     1
 90
       50
176
     1
 90
        3
176
     1
 62
     5
420
      255
176
     1
290
     0
176
     1
 90
       50
176
     1
 90
       50
176
     1
 90
       50
176
     1
290
     0
176
     1
 90
       50
176
     1
 62
   256
176
     0
 40
1.0
176
     0
 90
        2
176
     1
  1
strokes_ogs.tif
176
     1
290
     0
176
     1
 40
1.0
176
     1
 40
1.0
176
     1
1001
ACAD
1000
AcDbSavedByObjectVersion
1070
     0
  0
VISUALSTYLE
  5
32
102
{ACAD_REACTORS
330
29
102
}
330
29
100
AcDbVisualStyle
  2
Conceptual
 70
     9
177
     3
291
     0
 70
    58
 90
        3
176
     1
 90
        2
176
     1
 90
        0
176
     1
 90
        0
176
     1
 40
0.6
176
     1
 40
30.0
176
     1
 62
     7
420
 16777215
176
     1
 90
        2
176
     1
 90
        2
176
     1
 62
     7
176
     1
 62
   257
176
     1
 90
        1
176
     1
 90
        1
176
     1
 40
179.0
176
     1
 90
        8
176
     1
 62
     7
176
     1
 40
1.0
176
     1
 90
        1
176
     1
 90
        6
176
     1
 90
        2
176
     1
 62
     7
176
     1
 90
        3
176
     1
 90
        0
176
     1
 90
        0
176
     1
290
     0
176
     1
 90
        1
176
     1
 40
0.0
176
     1
 90
        0
176
     1
290
     0
176
     1
290
     1
176
     1
290
     1
176
     1
290
     0
176
     1
290
     0
176
     1
290
     0
176
     1
290
     0
176
     1
290
     0
176
     1
290
     0
176
     1
 90
       50
176
     1
 40
0.0
176
     1
 40
1.0
176
     1
 90
        0
176
     1
 62
    18
420
        0
176
     1
 90
       50
176
     1
 90
        3
176
     1
 62
     5
420
      255
176
     1
290
     0
176
     1
 90
       50
176
     1
 90
       50
176
     1
 90
       50
176
     1
290
     0
176
     1
 90
       50
176
     1
 62
   256
176
     0
 40
1.0
176
     0
 90
        2
176
     1
  1
strokes_ogs.tif
176
     1
290
     0
176
     1
 40
1.0
176
     1
 40
1.0
176
     1
1001
ACAD
1000
AcDbSavedByObjectVersion
1070
     0
  0
VISUALSTYLE
  5
34
102
{ACAD_REACTORS
330
29
102
}
330
29
100
AcDbVisualStyle
  2
Dim
 70
    11
177
     3
291
     1
 70
    58
 90
        2
176
     1
 90
        2
176
     1
 90
        0
176
     1
 90
        0
176
     1
 40
0.6
176
     1
 40
30.0
176
     1
 62
     7
420
 16777215
176
     1
 90
        1
176
     1
 90
        4
176
     1
 62
     7
176
     1
 62
   257
176
     1
 90
        1
176
     1
 90
        1
176
     1
 40
1.0
176
     1
 90
        8
176
     1
 62
     7
176
     1
 40
1.0
176
     1
 90
        1
176
     1
 90
        6
176
     1
 90
        2
176
     1
 62
     7
176
     1
 90
        5
176
     1
 90
        0
176
     1
 90
        0
176
     1
290
     0
176
     1
 90
        1
176
     1
 40
-50.0
176
     1
 90
        0
176
     1
290
     0
176
     1
290
     1
176
     1
290
     1
176
     1
290
     0
176
     1
290
     0
176
     1
290
     0
176
     1
290
     0
176
     1
290
     0
176
     1
290
     0
176
     1
 90
       50
176
     1
 40
0.0
176
     1
 40
1.0
176
     1
 90
        0
176
     1
 62
    18
420
        0
176
     1
 90
       50
176
     1
 90
        3
176
     1
 62
     5
420
      255
176
     1
290
     0
176
     1
 90
       50
176
     1
 90
       50
176
     1
 90
       50
176
     1
290
     0
176
     1
 90
       50
176
     1
 62
   256
176
     0
 40
1.0
176
     0
 90
        2
176
     1
  1
strokes_ogs.tif
176
     1
290
     0
176
     1
 40
1.0
176
     1
 40
1.0
176
     1
1001
ACAD
1000
AcDbSavedByObjectVersion
1070
     0
  0
VISUALSTYLE
  5
41
102
{ACAD_REACTORS
330
29
102
}
330
29
100
AcDbVisualStyle
  2
EdgeColorOff
 70
    22
177
     3
291
     1
 70
    58
 90
        2
176
     0
 90
        2
176
     0
 90
        0
176
     0
 90
        0
176
     0
 40
0.6
176
     0
 40
30.0
176
     0
 62
     7
420
 16777215
176
     0
 90
        1
176
     0
 90
        4
176
     0
 62
     7
176
     0
 62
   257
176
     0
 90
        1
176
     0
 90
        1
176
     0
 40
1.0
176
     0
 90
        8
176
     2
 62
     7
176
     0
 40
1.0
176
     0
 90
        1
176
     0
 90
        6
176
     0
 90
        2
176
     0
 62
     7
176
     0
 90
        5
176
     0
 90
        0
176
     0
 90
        0
176
     0
290
     0
176
     0
 90
        1
176
     0
 40
0.0
176
     0
 90
        0
176
     0
290
     0
176
     0
290
     1
176
     0
290
     1
176
     0
290
     0
176
     0
290
     0
176
     0
290
     0
176
     0
290
     0
176
     0
290
     0
176
     0
290
     0
176
     0
 90
       50
176
     0
 40
0.0
176
     0
 40
1.0
176
     0
 90
        0
176
     0
 62
    18
420
        0
176
     0
 90
       50
176
     0
 90
        3
176
     0
 62
     5
420
      255
176
     0
290
     0
176
     0
 90
       50
176
     0
 90
       50
176
     0
 90
       50
176
     0
290
     0
176
     0
 90
       50
176
     0
 62
   256
176
     0
 40
1.0
176
     0
 90
        2
176
     0
  1
strokes_ogs.tif
176
     0
290
     0
176
     0
 40
1.0
176
     0
 40
1.0
176
     0
1001
ACAD
1000
AcDbSavedByObjectVersion
1070
     0
  0
VISUALSTYLE
  5
38
102
{ACAD_REACTORS
330
29
102
}
330
29
100
AcDbVisualStyle
  2
Facepattern
 70
    15
177
     3
291
     1
 70
    58
 90
        2
176
     1
 90
        2
176
     1
 90
        0
176
     1
 90
        0
176
     1
 40
0.6
176
     1
 40
30.0
176
     1
 62
     7
420
 16777215
176
     1
 90
        1
176
     1
 90
        4
176
     1
 62
     7
176
     1
 62
   257
176
     1
 90
        1
176
     1
 90
        1
176
     1
 40
1.0
176
     1
 90
        8
176
     1
 62
     7
176
     1
 40
1.0
176
     1
 90
        1
176
     1
 90
        6
176
     1
 90
        2
176
     1
 62
     7
176
     1
 90
        5
176
     1
 90
        0
176
     1
 90
        0
176
     1
290
     0
176
     1
 90
        1
176
     1
 40
0.0
176
     1
 90
        0
176
     1
290
     0
176
     1
290
     1
176
     1
290
     1
176
     1
290
     0
176
     1
290
     0
176
     1
290
     0
176
     1
290
     0
176
     1
290
     0
176
     1
290
     0
176
     1
 90
       50
176
     1
 40
0.0
176
     1
 40
1.0
176
     1
 90
        0
176
     1
 62
    18
420
        0
176
     1
 90
       50
176
     1
 90
        3
176
     1
 62
     5
420
      255
176
     1
290
     0
176
     1
 90
       50
176
     1
 90
       50
176
     1
 90
       50
176
     1
290
     0
176
     1
 90
       50
176
     1
 62
   256
176
     0
 40
1.0
176
     0
 90
        2
176
     1
  1
strokes_ogs.tif
176
     1
290
     0
176
     1
 40
1.0
176
     1
 40
1.0
176
     1
1001
ACAD
1000
AcDbSavedByObjectVersion
1070
     0
  0
VISUALSTYLE
  5
2A
102
{ACAD_REACTORS
330
29
102
}
330
29
100
AcDbVisualStyle
  2
Flat
 70
     0
177
     3
291
     1
 70
    58
 90
        2
176
     1
 90
        1
176
     1
 90
        1
176
     1
 90
        2
176
     1
 40
0.6
176
     1
 40
30.0
176
     1
 62
     7
420
 16777215
176
     1
 90
        0
176
     1
 90
        0
176
     1
 62
     7
176
     1
 62
   257
176
     1
 90
        1
176
     1
 90
        1
176
     1
 40
1.0
176
     1
 90
        8
176
     1
 62
     7
176
     1
 40
1.0
176
     1
 90
        1
176
     1
 90
        6
176
     1
 90
        2
176
     1
 62
     7
176
     1
 90
        5
176
     1
 90
        0
176
     1
 90
        0
176
     1
290
     0
176
     1
 90
       13
176
     1
 40
0.0
176
     1
 90
        0
176
     1
290
     0
176
     1
290
     1
176
     1
290
     1
176
     1
290
     0
176
     1
290
     0
176
     1
290
     0
176
     1
290
     0
176
     1
290
     0
176
     1
290
     0
176
     1
 90
       50
176
     1
 40
0.0
176
     1
 40
1.0
176
     1
 90
        0
176
     1
 62
    18
420
        0
176
     1
 90
       50
176
     1
 90
        3
176
     1
 62
     5
420
      255
176
     1
290
     0
176
     1
 90
       50
176
     1
 90
       50
176
     1
 90
       50
176
     1
290
     0
176
     1
 90
       50
176
     1
 62
   256
176
     0
 40
1.0
176
     0
 90
        2
176
     1
  1
strokes_ogs.tif
176
     1
290
     0
176
     1
 40
1.0
176
     1
 40
1.0
176
     1
1001
ACAD
1000
AcDbSavedByObjectVersion
1070
     0
  0
VISUALSTYLE
  5
2B
102
{ACAD_REACTORS
330
29
102
}
330
29
100
AcDbVisualStyle
  2
FlatWithEdges
 70
     1
177
     3
291
     1
 70
    58
 90
        2
176
     1
 90
        1
176
     1
 90
        1
176
     1
 90
        2
176
     1
 40
0.6
176
     1
 40
30.0
176
     1
 62
     7
420
 16777215
176
     1
 90
        1
176
     1
 90
        0
176
     1
 62
     7
176
     1
 62
   257
176
     1
 90
        1
176
     1
 90
        1
176
     1
 40
1.0
176
     1
 90
        0
176
     1
 62
   257
176
     1
 40
1.0
176
     1
 90
        1
176
     1
 90
        6
176
     1
 90
        2
176
     1
 62
     7
176
     1
 90
        5
176
     1
 90
        0
176
     1
 90
        0
176
     1
290
     0
176
     1
 90
       13
176
     1
 40
0.0
176
     1
 90
        0
176
     1
290
     0
176
     1
290
     1
176
     1
290
     1
176
     1
290
     0
176
     1
290
     0
176
     1
290
     0
176
     1
290
     0
176
     1
290
     0
176
     1
290
     0
176
     1
 90
       50
176
     1
 40
0.0
176
     1
 40
1.0
176
     1
 90
        0
176
     1
 62
    18
420
        0
176
     1
 90
       50
176
     1
 90
        3
176
     1
 62
     5
420
      255
176
     1
290
     0
176
     1
 90
       50
176
     1
 90
       50
176
     1
 90
       50
176
     1
290
     0
176
     1
 90
       50
176
     1
 62
   256
176
     0
 40
1.0
176
     0
 90
        2
176
     1
  1
strokes_ogs.tif
176
     1
290
     0
176
     1
 40
1.0
176
     1
 40
1.0
176
     1
1001
ACAD
1000
AcDbSavedByObjectVersion
1070
     0
  0
VISUALSTYLE
  5
2C
102
{ACAD_REACTORS
330
29
102
}
330
29
100
AcDbVisualStyle
  2
Gouraud
 70
     2
177
     3
291
     1
 70
    58
 90
        2
176
     1
 90
        2
176
     1
 90
        1
176
     1
 90
        2
176
     1
 40
0.6
176
     1
 40
30.0
176
     1
 62
     7
420
 16777215
176
     1
 90
        0
176
     1
 90
        0
176
     1
 62
     7
176
     1
 62
   257
176
     1
 90
        1
176
     1
 90
        1
176
     1
 40
1.0
176
     1
 90
        0
176
     1
 62
     7
176
     1
 40
1.0
176
     1
 90
        1
176
     1
 90
        6
176
     1
 90
        2
176
     1
 62
     7
176
     1
 90
        5
176
     1
 90
        0
176
     1
 90
        0
176
     1
290
     0
176
     1
 90
       13
176
     1
 40
0.0
176
     1
 90
        0
176
     1
290
     0
176
     1
290
     1
176
     1
290
     1
176
     1
290
     0
176
     1
290
     0
176
     1
290
     0
176
     1
290
     0
176
     1
290
     0
176
     1
290
     0
176
     1
 90
       50
176
     1
 40
0.0
176
     1
 40
1.0
176
     1
 90
        0
176
     1
 62
    18
420
        0
176
     1
 90
       50
176
     1
 90
        3
176
     1
 62
     5
420
      255
176
     1
290
     0
176
     1
 90
       50
176
     1
 90
       50
176
     1
 90
       50
176
     1
290
     0
176
     1
 90
       50
176
     1
 62
   256
176
     0
 40
1.0
176
     0
 90
        2
176
     1
  1
strokes_ogs.tif
176
     1
290
     0
176
     1
 40
1.0
176
     1
 40
1.0
176
     1
1001
ACAD
1000
AcDbSavedByObjectVersion
1070
     0
  0
VISUALSTYLE
  5
2D
102
{ACAD_REACTORS
330
29
102
}
330
29
100
AcDbVisualStyle
  2
GouraudWithEdges
 70
     3
177
     3
291
     1
 70
    58
 90
        2
176
     1
 90
        2
176
     1
 90
        1
176
     1
 90
        2
176
     1
 40
0.6
176
     1
 40
30.0
176
     1
 62
     7
420
 16777215
176
     1
 90
        1
176
     1
 90
        0
176
     1
 62
     7
176
     1
 62
   257
176
     1
 90
        1
176
     1
 90
        1
176
     1
 40
1.0
176
     1
 90
        0
176
     1
 62
   257
176
     1
 40
1.0
176
     1
 90
        1
176
     1
 90
        6
176
     1
 90
        2
176
     1
 62
     7
176
     1
 90
        5
176
     1
 90
        0
176
     1
 90
        0
176
     1
290
     0
176
     1
 90
       13
176
     1
 40
0.0
176
     1
 90
        0
176
     1
290
     0
176
     1
290
     1
176
     1
290
     1
176
     1
290
     0
176
     1
290
     0
176
     1
290
     0
176
     1
290
     0
176
     1
290
     0
176
     1
290
     0
176
     1
 90
       50
176
     1
 40
0.0
176
     1
 40
1.0
176
     1
 90
        0
176
     1
 62
    18
420
        0
176
     1
 90
       50
176
     1
 90
        3
176
     1
 62
     5
420
      255
176
     1
290
     0
176
     1
 90
       50
176
     1
 90
       50
176
     1
 90
       50
176
     1
290
     0
176
     1
 90
       50
176
     1
 62
   256
176
     0
 40
1.0
176
     0
 90
        2
176
     1
  1
strokes_ogs.tif
176
     1
290
     0
176
     1
 40
1.0
176
     1
 40
1.0
176
     1
1001
ACAD
1000
AcDbSavedByObjectVersion
1070
     0
  0
VISUALSTYLE
  5
31
102
{ACAD_REACTORS
330
29
102
}
330
29
100
AcDbVisualStyle
  2
Hidden
 70
     6
177
     3
291
     0
 70
    58
 90
        1
176
     1
 90
        2
176
     1
 90
        2
176
     1
 90
        0
176
     1
 40
0.6
176
     1
 40
30.0
176
     1
 62
     7
420
 16777215
176
     1
 90
        2
176
     1
 90
        2
176
     1
 62
     7
176
     1
 62
   257
176
     1
 90
        2
176
     1
 90
        1
176
     1
 40
40.0
176
     1
 90
        0
176
     1
 62
   257
176
     1
 40
1.0
176
     1
 90
        1
176
     1
 90
        6
176
     1
 90
        2
176
     1
 62
     7
176
     1
 90
        3
176
     1
 90
        0
176
     1
 90
        0
176
     1
290
     0
176
     1
 90
        1
176
     1
 40
0.0
176
     1
 90
        0
176
     1
290
     0
176
     1
290
     1
176
     1
290
     1
176
     1
290
     0
176
     1
290
     0
176
     1
290
     0
176
     1
290
     0
176
     1
290
     0
176
     1
290
     0
176
     1
 90
       50
176
     1
 40
0.0
176
     1
 40
1.0
176
     1
 90
        0
176
     1
 62
    18
420
        0
176
     1
 90
       50
176
     1
 90
        3
176
     1
 62
     5
420
      255
176
     1
290
     0
176
     1
 90
       50
176
     1
 90
       50
176
     1
 90
       50
176
     1
290
     0
176
     1
 90
       50
176
     1
 62
   256
176
     0
 40
1.0
176
     0
 90
        2
176
     1
  1
strokes_ogs.tif
176
     1
290
     0
176
     1
 40
1.0
176
     1
 40
1.0
176
     1
1001
ACAD
1000
AcDbSavedByObjectVersion
1070
     0
  0
VISUALSTYLE
  5
3F
102
{ACAD_REACTORS
330
29
102
}
330
29
100
AcDbVisualStyle
  2
JitterOff
 70
    20
177
     3
291
     1
 70
    58
 90
        2
176
     0
 90
        2
176
     0
 90
        0
176
     0
 90
        0
176
     0
 40
0.6
176
     0
 40
30.0
176
     0
 62
     7
420
 16777215
176
     0
 90
        1
176
     0
 90
        4
176
     0
 62
     7
176
     0
 62
   257
176
     0
 90
        1
176
     0
 90
        1
176
     0
 40
1.0
176
     0
 90
       10
176
     2
 62
     7
176
     0
 40
1.0
176
     0
 90
        1
176
     0
 90
        6
176
     0
 90
        2
176
     0
 62
     7
176
     0
 90
        5
176
     0
 90
        0
176
     0
 90
        0
176
     0
290
     0
176
     0
 90
        1
176
     0
 40
0.0
176
     0
 90
        0
176
     0
290
     0
176
     0
290
     1
176
     0
290
     1
176
     0
290
     0
176
     0
290
     0
176
     0
290
     0
176
     0
290
     0
176
     0
290
     0
176
     0
290
     0
176
     0
 90
       50
176
     0
 40
0.0
176
     0
 40
1.0
176
     0
 90
        0
176
     0
 62
    18
420
        0
176
     0
 90
       50
176
     0
 90
        3
176
     0
 62
     5
420
      255
176
     0
290
     0
176
     0
 90
       50
176
     0
 90
       50
176
     0
 90
       50
176
     0
290
     0
176
     0
 90
       50
176
     0
 62
   256
176
     0
 40
1.0
176
     0
 90
        2
176
     0
  1
strokes_ogs.tif
176
     0
290
     0
176
     0
 40
1.0
176
     0
 40
1.0
176
     0
1001
ACAD
1000
AcDbSavedByObjectVersion
1070
     0
  0
VISUALSTYLE
  5
37
102
{ACAD_REACTORS
330
29
102
}
330
29
100
AcDbVisualStyle
  2
Linepattern
 70
    14
177
     3
291
     1
 70
    58
 90
        2
176
     1
 90
        2
176
     1
 90
        0
176
     1
 90
        0
176
     1
 40
0.6
176
     1
 40
30.0
176
     1
 62
     7
420
 16777215
176
     1
 90
        1
176
     1
 90
        4
176
     1
 62
     7
176
     1
 62
   257
176
     1
 90
        7
176
     1
 90
        7
176
     1
 40
1.0
176
     1
 90
        8
176
     1
 62
     7
176
     1
 40
1.0
176
     1
 90
        1
176
     1
 90
        6
176
     1
 90
        2
176
     1
 62
     7
176
     1
 90
        5
176
     1
 90
        0
176
     1
 90
        0
176
     1
290
     0
176
     1
 90
        1
176
     1
 40
0.0
176
     1
 90
        0
176
     1
290
     0
176
     1
290
     1
176
     1
290
     1
176
     1
290
     0
176
     1
290
     0
176
     1
290
     0
176
     1
290
     0
176
     1
290
     0
176
     1
290
     0
176
     1
 90
       50
176
     1
 40
0.0
176
     1
 40
1.0
176
     1
 90
        0
176
     1
 62
    18
420
        0
176
     1
 90
       50
176
     1
 90
        3
176
     1
 62
     5
420
      255
176
     1
290
     0
176
     1
 90
       50
176
     1
 90
       50
176
     1
 90
       50
176
     1
290
     0
176
     1
 90
       50
176
     1
 62
   256
176
     0
 40
1.0
176
     0
 90
        2
176
     1
  1
strokes_ogs.tif
176
     1
290
     0
176
     1
 40
1.0
176
     1
 40
1.0
176
     1
1001
ACAD
1000
AcDbSavedByObjectVersion
1070
     0
  0
VISUALSTYLE
  5
40
102
{ACAD_REACTORS
330
29
102
}
330
29
100
AcDbVisualStyle
  2
OverhangOff
 70
    21
177
     3
291
     1
 70
    58
 90
        2
176
     0
 90
        2
176
     0
 90
        0
176
     0
 90
        0
176
     0
 40
0.6
176
     0
 40
30.0
176
     0
 62
     7
420
 16777215
176
     0
 90
        1
176
     0
 90
        4
176
     0
 62
     7
176
     0
 62
   257
176
     0
 90
        1
176
     0
 90
        1
176
     0
 40
1.0
176
     0
 90
        9
176
     2
 62
     7
176
     0
 40
1.0
176
     0
 90
        1
176
     0
 90
        6
176
     0
 90
        2
176
     0
 62
     7
176
     0
 90
        5
176
     0
 90
        0
176
     0
 90
        0
176
     0
290
     0
176
     0
 90
        1
176
     0
 40
0.0
176
     0
 90
        0
176
     0
290
     0
176
     0
290
     1
176
     0
290
     1
176
     0
290
     0
176
     0
290
     0
176
     0
290
     0
176
     0
290
     0
176
     0
290
     0
176
     0
290
     0
176
     0
 90
       50
176
     0
 40
0.0
176
     0
 40
1.0
176
     0
 90
        0
176
     0
 62
    18
420
        0
176
     0
 90
       50
176
     0
 90
        3
176
     0
 62
     5
420
      255
176
     0
290
     0
176
     0
 90
       50
176
     0
 90
       50
176
     0
 90
       50
176
     0
290
     0
176
     0
 90
       50
176
     0
 62
   256
176
     0
 40
1.0
176
     0
 90
        2
176
     0
  1
strokes_ogs.tif
176
     0
290
     0
176
     0
 40
1.0
176
     0
 40
1.0
176
     0
1001
ACAD
1000
AcDbSavedByObjectVersion
1070
     0
  0
VISUALSTYLE
  5
33
102
{ACAD_REACTORS
330
29
102
}
330
29
100
AcDbVisualStyle
  2
Realistic
 70
     8
177
     3
291
     0
 70
    58
 90
        2
176
     1
 90
        3
176
     1
 90
        0
176
     1
 90
        2
176
     1
 40
0.6
176
     1
 40
30.0
176
     1
 62
     7
420
 16777215
176
     1
 90
        0
176
     1
 90
        0
176
     1
 62
     7
176
     1
 62
   257
176
     1
 90
        1
176
     1
 90
        1
176
     1
 40
1.0
176
     1
 90
        8
176
     1
 62
   257
176
     1
 40
1.0
176
     1
 90
        1
176
     1
 90
        6
176
     1
 90
        2
176
     1
 62
     7
176
     1
 90
        3
176
     1
 90
        0
176
     1
 90
        0
176
     1
290
     0
176
     1
 90
       13
176
     1
 40
0.0
176
     1
 90
        0
176
     1
290
     0
176
     1
290
     1
176
     1
290
     1
176
     1
290
     0
176
     1
290
     0
176
     1
290
     0
176
     1
290
     0
176
     1
290
     0
176
     1
290
     0
176
     1
 90
       50
176
     1
 40
0.0
176
     1
 40
1.0
176
     1
 90
        0
176
     1
 62
    18
420
        0
176
     1
 90
       50
176
     1
 90
        3
176
     1
 62
     5
420
      255
176
     1
290
     0
176
     1
 90
       50
176
     1
 90
       50
176
     1
 90
       50
176
     1
290
     0
176
     1
 90
       50
176
     1
 62
   256
176
     0
 40
1.0
176
     0
 90
        2
176
     1
  1
strokes_ogs.tif
176
     1
290
     0
176
     1
 40
1.0
176
     1
 40
1.0
176
     1
1001
ACAD
1000
AcDbSavedByObjectVersion
1070
     0
  0
VISUALSTYLE
  5
3E
102
{ACAD_REACTORS
330
29
102
}
330
29
100
AcDbVisualStyle
  2
Shaded
 70
    27
177
     3
291
     0
 70
    58
 90
        2
176
     1
 90
        2
176
     1
 90
        1
176
     1
 90
        2
176
     1
 40
0.6
176
     1
 40
30.0
176
     1
 62
     7
420
 16777215
176
     1
 90
        0
176
     1
 90
        4
176
     1
 62
     7
176
     1
 62
   257
176
     1
 90
        1
176
     1
 90
        1
176
     1
 40
1.0
176
     1
 90
        8
176
     1
 62
   257
176
     1
 40
1.0
176
     1
 90
        1
176
     1
 90
        6
176
     1
 90
        2
176
     1
 62
     8
420
  7895160
176
     1
 90
        3
176
     1
 90
        0
176
     1
 90
        0
176
     1
290
     0
176
     1
 90
        5
176
     1
 40
0.0
176
     1
 90
        0
176
     1
290
     0
176
     1
290
     1
176
     1
290
     1
176
     1
290
     0
176
     1
290
     0
176
     1
290
     0
176
     1
290
     0
176
     1
290
     0
176
     1
290
     0
176
     1
 90
       50
176
     1
 40
0.0
176
     1
 40
1.0
176
     1
 90
        0
176
     1
 62
    18
420
        0
176
     1
 90
       50
176
     1
 90
        3
176
     1
 62
     5
420
      255
176
     1
290
     0
176
     1
 90
       50
176
     1
 90
       50
176
     1
 90
       50
176
     1
290
     0
176
     1
 90
       50
176
     1
 62
   256
176
     0
 40
1.0
176
     0
 90
        2
176
     1
  1
strokes_ogs.tif
176
     1
290
     0
176
     1
 40
1.0
176
     1
 40
1.0
176
     1
1001
ACAD
1000
AcDbSavedByObjectVersion
1070
     0
  0
VISUALSTYLE
  5
3D
102
{ACAD_REACTORS
330
29
102
}
330
29
100
AcDbVisualStyle
  2
Shaded with edges
 70
    26
177
     3
291
     0
 70
    58
 90
        2
176
     1
 90
        2
176
     1
 90
        1
176
     1
 90
        2
176
     1
 40
0.6
176
     1
 40
30.0
176
     1
 62
     7
420
 16777215
176
     1
 90
        1
176
     1
 90
        2
176
     1
 62
     7
176
     1
 62
   257
176
     1
 90
        2
176
     1
 90
        1
176
     1
 40
1.0
176
     1
 90
        8
176
     1
 62
   257
176
     1
 40
1.0
176
     1
 90
        1
176
     1
 90
        6
176
     1
 90
        2
176
     1
 62
     7
176
     1
 90
        3
176
     1
 90
        0
176
     1
 90
        0
176
     1
290
     0
176
     1
 90
        5
176
     1
 40
0.0
176
     1
 90
        0
176
     1
290
     0
176
     1
290
     1
176
     1
290
     1
176
     1
290
     0
176
     1
290
     0
176
     1
290
     0
176
     1
290
     0
176
     1
290
     0
176
     1
290
     0
176
     1
 90
       50
176
     1
 40
0.0
176
     1
 40
1.0
176
     1
 90
        0
176
     1
 62
    18
420
        0
176
     1
 90
       50
176
     1
 90
        3
176
     1
 62
     5
420
      255
176
     1
290
     0
176
     1
 90
       50
176
     1
 90
       50
176
     1
 90
       50
176
     1
290
     0
176
     1
 90
       50
176
     1
 62
   256
176
     0
 40
1.0
176
     0
 90
        2
176
     1
  1
strokes_ogs.tif
176
     1
290
     0
176
     1
 40
1.0
176
     1
 40
1.0
176
     1
1001
ACAD
1000
AcDbSavedByObjectVersion
1070
     0
  0
VISUALSTYLE
  5
3A
102
{ACAD_REACTORS
330
29
102
}
330
29
100
AcDbVisualStyle
  2
Shades of Gray
 70
    23
177
     3
291
     0
 70
    58
 90
        2
176
     1
 90
        2
176
     1
 90
        3
176
     1
 90
        0
176
     1
 40
0.6
176
     1
 40
30.0
176
     1
 62
     7
420
 16777215
176
     1
 90
        2
176
     1
 90
        2
176
     1
 62
     7
176
     1
 62
     7
176
     1
 90
        1
176
     1
 90
        1
176
     1
 40
40.0
176
     1
 90
        8
176
     1
 62
     7
176
     1
 40
1.0
176
     1
 90
        1
176
     1
 90
        6
176
     1
 90
        2
176
     1
 62
     7
176
     1
 90
        3
176
     1
 90
        0
176
     1
 90
        0
176
     1
290
     0
176
     1
 90
        1
176
     1
 40
0.0
176
     1
 90
        0
176
     1
290
     0
176
     1
290
     1
176
     1
290
     1
176
     1
290
     0
176
     1
290
     0
176
     1
290
     0
176
     1
290
     0
176
     1
290
     0
176
     1
290
     0
176
     1
 90
       50
176
     1
 40
0.0
176
     1
 40
1.0
176
     1
 90
        0
176
     1
 62
    18
420
        0
176
     1
 90
       50
176
     1
 90
        3
176
     1
 62
     5
420
      255
176
     1
290
     0
176
     1
 90
       50
176
     1
 90
       50
176
     1
 90
       50
176
     1
290
     0
176
     1
 90
       50
176
     1
 62
   256
176
     0
 40
1.0
176
     0
 90
        2
176
     1
  1
strokes_ogs.tif
176
     1
290
     0
176
     1
 40
1.0
176
     1
 40
1.0
176
     1
1001
ACAD
1000
AcDbSavedByObjectVersion
1070
     0
  0
VISUALSTYLE
  5
3B
102
{ACAD_REACTORS
330
29
102
}
330
29
100
AcDbVisualStyle
  2
Sketchy
 70
    24
177
     3
291
     0
 70
    58
 90
        1
176
     1
 90
        2
176
     1
 90
        2
176
     1
 90
        0
176
     1
 40
0.6
176
     1
 40
30.0
176
     1
 62
     7
420
 16777215
176
     1
 90
        2
176
     1
 90
        2
176
     1
 62
     7
176
     1
 62
     7
176
     1
 90
        1
176
     1
 90
        1
176
     1
 40
40.0
176
     1
 90
       11
176
     1
 62
     7
176
     1
 40
1.0
176
     1
 90
        1
176
     1
 90
        6
176
     1
 90
        2
176
     1
 62
     7
176
     1
 90
        6
176
     1
 90
        0
176
     1
 90
        0
176
     1
290
     0
176
     1
 90
        1
176
     1
 40
0.0
176
     1
 90
        0
176
     1
290
     0
176
     1
290
     1
176
     1
290
     1
176
     1
290
     0
176
     1
290
     0
176
     1
290
     0
176
     1
290
     0
176
     1
290
     0
176
     1
290
     0
176
     1
 90
       50
176
     1
 40
0.0
176
     1
 40
1.0
176
     1
 90
        0
176
     1
 62
    18
420
        0
176
     1
 90
       50
176
     1
 90
        3
176
     1
 62
     5
420
      255
176
     1
290
     0
176
     1
 90
       50
176
     1
 90
       50
176
     1
 90
       50
176
     1
290
     0
176
     1
 90
       50
176
     1
 62
   256
176
     0
 40
1.0
176
     0
 90
        2
176
     1
  1
strokes_ogs.tif
176
     1
290
     0
176
     1
 40
1.0
176
     1
 40
1.0
176
     1
1001
ACAD
1000
AcDbSavedByObjectVersion
1070
     0
  0
VISUALSTYLE
  5
36
102
{ACAD_REACTORS
330
29
102
}
330
29
100
AcDbVisualStyle
  2
Thicken
 70
    13
177
     3
291
     1
 70
    58
 90
        2
176
     1
 90
        2
176
     1
 90
        0
176
     1
 90
        0
176
     1
 40
0.6
176
     1
 40
30.0
176
     1
 62
     7
420
 16777215
176
     1
 90
        1
176
     1
 90
        4
176
     1
 62
     7
176
     1
 62
   257
176
     1
 90
        1
176
     1
 90
        1
176
     1
 40
1.0
176
     1
 90
       12
176
     1
 62
     7
176
     1
 40
1.0
176
     1
 90
        1
176
     1
 90
        6
176
     1
 90
        2
176
     1
 62
     7
176
     1
 90
        5
176
     1
 90
        0
176
     1
 90
        0
176
     1
290
     0
176
     1
 90
        1
176
     1
 40
0.0
176
     1
 90
        0
176
     1
290
     0
176
     1
290
     1
176
     1
290
     1
176
     1
290
     0
176
     1
290
     0
176
     1
290
     0
176
     1
290
     0
176
     1
290
     0
176
     1
290
     0
176
     1
 90
       50
176
     1
 40
0.0
176
     1
 40
1.0
176
     1
 90
        0
176
     1
 62
    18
420
        0
176
     1
 90
       50
176
     1
 90
        3
176
     1
 62
     5
420
      255
176
     1
290
     0
176
     1
 90
       50
176
     1
 90
       50
176
     1
 90
       50
176
     1
290
     0
176
     1
 90
       50
176
     1
 62
   256
176
     0
 40
1.0
176
     0
 90
        2
176
     1
  1
strokes_ogs.tif
176
     1
290
     0
176
     1
 40
1.0
176
     1
 40
1.0
176
     1
1001
ACAD
1000
AcDbSavedByObjectVersion
1070
     0
  0
VISUALSTYLE
  5
30
102
{ACAD_REACTORS
330
29
102
}
330
29
100
AcDbVisualStyle
  2
Wireframe
 70
     5
177
     3
291
     0
 70
    58
 90
        0
176
     1
 90
        2
176
     1
 90
        0
176
     1
 90
        0
176
     1
 40
0.6
176
     1
 40
30.0
176
     1
 62
     7
420
 16777215
176
     1
 90
        1
176
     1
 90
        4
176
     1
 62
     7
176
     1
 62
   257
176
     1
 90
        1
176
     1
 90
        1
176
     1
 40
1.0
176
     1
 90
        0
176
     1
 62
   257
176
     1
 40
1.0
176
     1
 90
        1
176
     1
 90
        6
176
     1
 90
        2
176
     1
 62
     7
176
     1
 90
        3
176
     1
 90
        0
176
     1
 90
        0
176
     1
290
     0
176
     1
 90
        1
176
     1
 40
0.0
176
     1
 90
        0
176
     1
290
     0
176
     1
290
     1
176
     1
290
     1
176
     1
290
     0
176
     1
290
     0
176
     1
290
     0
176
     1
290
     0
176
     1
290
     0
176
     1
290
     0
176
     1
 90
       50
176
     1
 40
0.0
176
     1
 40
1.0
176
     1
 90
        0
176
     1
 62
    18
420
        0
176
     1
 90
       50
176
     1
 90
        3
176
     1
 62
     5
420
      255
176
     1
290
     0
176
     1
 90
       50
176
     1
 90
       50
176
     1
 90
       50
176
     1
290
     0
176
     1
 90
       50
176
     1
 62
   256
176
     0
 40
1.0
176
     0
 90
        2
176
     1
  1
strokes_ogs.tif
176
     1
290
     0
176
     1
 40
1.0
176
     1
 40
1.0
176
     1
1001
ACAD
1000
AcDbSavedByObjectVersion
1070
     0
  0
VISUALSTYLE
  5
3C
102
{ACAD_REACTORS
330
29
102
}
330
29
100
AcDbVisualStyle
  2
X-Ray
 70
    25
177
     3
291
     0
 70
    58
 90
        2
176
     1
 90
        2
176
     1
 90
        1
176
     1
 90
        1
176
     1
 40
0.5
176
     1
 40
30.0
176
     1
 62
     7
420
 16777215
176
     1
 90
        1
176
     1
 90
        0
176
     1
 62
     7
176
     1
 62
   257
176
     1
 90
        1
176
     1
 90
        1
176
     1
 40
1.0
176
     1
 90
        8
176
     1
 62
     7
176
     1
 40
1.0
176
     1
 90
        1
176
     1
 90
        6
176
     1
 90
        2
176
     1
 62
     7
176
     1
 90
        3
176
     1
 90
        0
176
     1
 90
        0
176
     1
290
     0
176
     1
 90
       13
176
     1
 40
0.0
176
     1
 90
        0
176
     1
290
     0
176
     1
290
     1
176
     1
290
     1
176
     1
290
     0
176
     1
290
     0
176
     1
290
     0
176
     1
290
     0
176
     1
290
     0
176
     1
290
     0
176
     1
 90
       50
176
     1
 40
0.0
176
     1
 40
1.0
176
     1
 90
        0
176
     1
 62
    18
420
        0
176
     1
 90
       50
176
     1
 90
        3
176
     1
 62
     5
420
      255
176
     1
290
     0
176
     1
 90
       50
176
     1
 90
       50
176
     1
 90
       50
176
     1
290
     0
176
     1
 90
       50
176
     1
 62
   256
176
     0
 40
1.0
176
     0
 90
        2
176
     1
  1
strokes_ogs.tif
176
     1
290
     0
176
     1
 40
1.0
176
     1
 40
1.0
176
     1
1001
ACAD
1000
AcDbSavedByObjectVersion
1070
     0
  0
DICTIONARYVAR
  5
10D
102
{ACAD_REACTORS
330
108
102
}
330
108
100
DictionaryVariables
280
     0
  1
1:1
  0
DICTIONARYVAR
  5
10A
102
{ACAD_REACTORS
330
108
102
}
330
108
100
DictionaryVariables
280
     0
  1
STANDARD
  0
DICTIONARYVAR
  5
109
102
{ACAD_REACTORS
330
108
102
}
330
108
100
DictionaryVariables
280
     0
  1
STANDARD
  0
DICTIONARYVAR
  5
10B
102
{ACAD_REACTORS
330
108
102
}
330
108
100
DictionaryVariables
280
     0
  1
Imperial24
  0
DICTIONARYVAR
  5
10C
102
{ACAD_REACTORS
330
108
102
}
330
108
100
DictionaryVariables
280
     0
  1
Imperial24
  0
DICTIONARY
  5
18F
330
6B
100
AcDbDictionary
280
     1
281
     1
  3
ACAD_XREC_ROUNDTRIP
360
190
  0
DICTIONARY
  5
1A
330
19
100
AcDbDictionary
280
     1
281
     1
  3
BUMPTILE
360
1C
  3
DIFFUSETILE
360
1B
  3
OPACITYTILE
360
1F
  3
REFLECTIONTILE
360
1E
  3
REFRACTIONTILE
360
20
  3
SPECULARTILE
360
1D
  0
DICTIONARY
  5
12
330
11
100
AcDbDictionary
280
     1
281
     1
  3
BUMPTILE
360
14
  3
DIFFUSETILE
360
13
  3
OPACITYTILE
360
17
  3
REFLECTIONTILE
360
16
  3
REFRACTIONTILE
360
18
  3
SPECULARTILE
360
15
  0
DICTIONARY
  5
22
330
21
100
AcDbDictionary
280
     1
281
     1
  3
BUMPTILE
360
24
  3
DIFFUSETILE
360
23
  3
OPACITYTILE
360
27
  3
REFLECTIONTILE
360
26
  3
REFRACTIONTILE
360
28
  3
SPECULARTILE
360
25
  0
DICTIONARY
  5
18D
330
69
100
AcDbDictionary
280
     1
281
     1
  3
ACAD_XREC_ROUNDTRIP
360
18E
  0
DICTIONARY
  5
10E
330
65
100
AcDbDictionary
280
     1
281
     1
  3
ACAD_ROUNDTRIP_2008_TABLESTYLE_CELLSTYLEMAP
360
18B
  0
XRECORD
  5
190
102
{ACAD_REACTORS
330
18F
102
}
330
18F
100
AcDbXrecord
280
     1
102
DISPLAYNAME
  1
Imperial24
102
FLAGS
 90
        0
  0
XRECORD
  5
1C
102
{ACAD_REACTORS
330
1A
102
}
330
1A
100
AcDbXrecord
280
     1
270
     1
271
     1
  0
XRECORD
  5
1B
102
{ACAD_REACTORS
330
1A
102
}
330
1A
100
AcDbXrecord
280
     1
270
     1
271
     1
  0
XRECORD
  5
1F
102
{ACAD_REACTORS
330
1A
102
}
330
1A
100
AcDbXrecord
280
     1
270
     1
271
     1
  0
XRECORD
  5
1E
102
{ACAD_REACTORS
330
1A
102
}
330
1A
100
AcDbXrecord
280
     1
270
     1
271
     1
  0
XRECORD
  5
20
102
{ACAD_REACTORS
330
1A
102
}
330
1A
100
AcDbXrecord
280
     1
270
     1
271
     1
  0
XRECORD
  5
1D
102
{ACAD_REACTORS
330
1A
102
}
330
1A
100
AcDbXrecord
280
     1
270
     1
271
     1
  0
XRECORD
  5
14
102
{ACAD_REACTORS
330
12
102
}
330
12
100
AcDbXrecord
280
     1
270
     1
271
     1
  0
XRECORD
  5
13
102
{ACAD_REACTORS
330
12
102
}
330
12
100
AcDbXrecord
280
     1
270
     1
271
     1
  0
XRECORD
  5
17
102
{ACAD_REACTORS
330
12
102
}
330
12
100
AcDbXrecord
280
     1
270
     1
271
     1
  0
XRECORD
  5
16
102
{ACAD_REACTORS
330
12
102
}
330
12
100
AcDbXrecord
280
     1
270
     1
271
     1
  0
XRECORD
  5
18
102
{ACAD_REACTORS
330
12
102
}
330
12
100
AcDbXrecord
280
     1
270
     1
271
     1
  0
XRECORD
  5
15
102
{ACAD_REACTORS
330
12
102
}
330
12
100
AcDbXrecord
280
     1
270
     1
271
     1
  0
XRECORD
  5
24
102
{ACAD_REACTORS
330
22
102
}
330
22
100
AcDbXrecord
280
     1
270
     1
271
     1
  0
XRECORD
  5
23
102
{ACAD_REACTORS
330
22
102
}
330
22
100
AcDbXrecord
280
     1
270
     1
271
     1
  0
XRECORD
  5
27
102
{ACAD_REACTORS
330
22
102
}
330
22
100
AcDbXrecord
280
     1
270
     1
271
     1
  0
XRECORD
  5
26
102
{ACAD_REACTORS
330
22
102
}
330
22
100
AcDbXrecord
280
     1
270
     1
271
     1
  0
XRECORD
  5
28
102
{ACAD_REACTORS
330
22
102
}
330
22
100
AcDbXrecord
280
     1
270
     1
271
     1
  0
XRECORD
  5
25
102
{ACAD_REACTORS
330
22
102
}
330
22
100
AcDbXrecord
280
     1
270
     1
271
     1
  0
XRECORD
  5
18E
102
{ACAD_REACTORS
330
18D
102
}
330
18D
100
AcDbXrecord
280
     1
102
DISPLAYNAME
  1
Imperial24
102
FLAGS
 90
        0
  0
CELLSTYLEMAP
  5
18B
102
{ACAD_REACTORS
330
10E
102
}
330
10E
100
AcDbCellStyleMap
 90
        3
300
CELLSTYLE
  1
TABLEFORMAT_BEGIN
 90
        5
170
     1
 91
        0
 92
    32768
 62
   257
 93
        1
300
CONTENTFORMAT
  1
CONTENTFORMAT_BEGIN
 90
        0
 91
        0
 92
      512
 93
        0
300

 40
0.0
140
1.0
 94
        5
 62
     0
340
55
144
0.25
309
CONTENTFORMAT_END
171
     1
301
MARGIN
  1
CELLMARGIN_BEGIN
 40
0.06
 40
0.06
 40
0.06
 40
0.06
 40
0.18
 40
0.18
309
CELLMARGIN_END
 94
        6
 95
        1
302
GRIDFORMAT
  1
GRIDFORMAT_BEGIN
 90
        0
 91
        1
 62
     0
 92
       -2
340
0
 93
        0
 40
0.045
309
GRIDFORMAT_END
 95
        2
302
GRIDFORMAT
  1
GRIDFORMAT_BEGIN
 90
        0
 91
        1
 62
     0
 92
       -2
340
0
 93
        0
 40
0.045
309
GRIDFORMAT_END
 95
        4
302
GRIDFORMAT
  1
GRIDFORMAT_BEGIN
 90
        0
 91
        1
 62
     0
 92
       -2
340
0
 93
        0
 40
0.045
309
GRIDFORMAT_END
 95
        8
302
GRIDFORMAT
  1
GRIDFORMAT_BEGIN
 90
        0
 91
        1
 62
     0
 92
       -2
340
0
 93
        0
 40
0.045
309
GRIDFORMAT_END
 95
       16
302
GRIDFORMAT
  1
GRIDFORMAT_BEGIN
 90
        0
 91
        1
 62
     0
 92
       -2
340
0
 93
        0
 40
0.045
309
GRIDFORMAT_END
 95
       32
302
GRIDFORMAT
  1
GRIDFORMAT_BEGIN
 90
        0
 91
        1
 62
     0
 92
       -2
340
0
 93
        0
 40
0.045
309
GRIDFORMAT_END
309
TABLEFORMAT_END
  1
CELLSTYLE_BEGIN
 90
        1
 91
        1
300
_TITLE
309
CELLSTYLE_END
300
CELLSTYLE
  1
TABLEFORMAT_BEGIN
 90
        5
170
     1
 91
        0
 92
        0
 62
   257
 93
        1
300
CONTENTFORMAT
  1
CONTENTFORMAT_BEGIN
 90
        0
 91
        0
 92
      512
 93
        0
300

 40
0.0
140
1.0
 94
        5
 62
     0
340
55
144
0.18
309
CONTENTFORMAT_END
171
     1
301
MARGIN
  1
CELLMARGIN_BEGIN
 40
0.06
 40
0.06
 40
0.06
 40
0.06
 40
0.18
 40
0.18
309
CELLMARGIN_END
 94
        6
 95
        1
302
GRIDFORMAT
  1
GRIDFORMAT_BEGIN
 90
        0
 91
        1
 62
     0
 92
       -2
340
0
 93
        0
 40
0.045
309
GRIDFORMAT_END
 95
        2
302
GRIDFORMAT
  1
GRIDFORMAT_BEGIN
 90
        0
 91
        1
 62
     0
 92
       -2
340
0
 93
        0
 40
0.045
309
GRIDFORMAT_END
 95
        4
302
GRIDFORMAT
  1
GRIDFORMAT_BEGIN
 90
        0
 91
        1
 62
     0
 92
       -2
340
0
 93
        0
 40
0.045
309
GRIDFORMAT_END
 95
        8
302
GRIDFORMAT
  1
GRIDFORMAT_BEGIN
 90
        0
 91
        1
 62
     0
 92
       -2
340
0
 93
        0
 40
0.045
309
GRIDFORMAT_END
 95
       16
302
GRIDFORMAT
  1
GRIDFORMAT_BEGIN
 90
        0
 91
        1
 62
     0
 92
       -2
340
0
 93
        0
 40
0.045
309
GRIDFORMAT_END
 95
       32
302
GRIDFORMAT
  1
GRIDFORMAT_BEGIN
 90
        0
 91
        1
 62
     0
 92
       -2
340
0
 93
        0
 40
0.045
309
GRIDFORMAT_END
309
TABLEFORMAT_END
  1
CELLSTYLE_BEGIN
 90
        2
 91
        1
300
_HEADER
309
CELLSTYLE_END
300
CELLSTYLE
  1
TABLEFORMAT_BEGIN
 90
        5
170
     1
 91
        0
 92
        0
 62
   257
 93
        1
300
CONTENTFORMAT
  1
CONTENTFORMAT_BEGIN
 90
        0
 91
        0
 92
      512
 93
        0
300

 40
0.0
140
1.0
 94
        2
 62
     0
340
55
144
0.18
309
CONTENTFORMAT_END
171
     1
301
MARGIN
  1
CELLMARGIN_BEGIN
 40
0.06
 40
0.06
 40
0.06
 40
0.06
 40
0.18
 40
0.18
309
CELLMARGIN_END
 94
        6
 95
        1
302
GRIDFORMAT
  1
GRIDFORMAT_BEGIN
 90
        0
 91
        1
 62
     0
 92
       -2
340
0
 93
        0
 40
0.045
309
GRIDFORMAT_END
 95
        2
302
GRIDFORMAT
  1
GRIDFORMAT_BEGIN
 90
        0
 91
        1
 62
     0
 92
       -2
340
0
 93
        0
 40
0.045
309
GRIDFORMAT_END
 95
        4
302
GRIDFORMAT
  1
GRIDFORMAT_BEGIN
 90
        0
 91
        1
 62
     0
 92
       -2
340
0
 93
        0
 40
0.045
309
GRIDFORMAT_END
 95
        8
302
GRIDFORMAT
  1
GRIDFORMAT_BEGIN
 90
        0
 91
        1
 62
     0
 92
       -2
340
0
 93
        0
 40
0.045
309
GRIDFORMAT_END
 95
       16
302
GRIDFORMAT
  1
GRIDFORMAT_BEGIN
 90
        0
 91
        1
 62
     0
 92
       -2
340
0
 93
        0
 40
0.045
309
GRIDFORMAT_END
 95
       32
302
GRIDFORMAT
  1
GRIDFORMAT_BEGIN
 90
        0
 91
        1
 62
     0
 92
       -2
340
0
 93
        0
 40
0.045
309
GRIDFORMAT_END
309
TABLEFORMAT_END
  1
CELLSTYLE_BEGIN
 90
        3
 91
        2
300
_DATA
309
CELLSTYLE_END
  0
ENDSEC
  0
EOF
