  0
SECTION
  2
HEADER
  9
$ACADVER
  1
AC1027
  9
$ACADMAINTVER
 70
   125
  9
$DWGCODEPAGE
  3
ANSI_1252
  9
$LASTSAVEDBY
  1
andrea.ragusa
  9
$REQUIREDVERSIONS
160
                 0
  9
$INSBASE
 10
0.0
 20
0.0
 30
0.0
  9
$EXTMIN
 10
0.0000014630703475
 20
0.0856597897321698
 30
0.0
  9
$EXTMAX
 10
30.09998912135755
 20
37.86380096602653
 30
0.0
  9
$LIMMIN
 10
0.0
 20
0.0
  9
$LIMMAX
 10
420.0
 20
297.0
  9
$ORTHOMODE
 70
     0
  9
$REGENMODE
 70
     1
  9
$FILLMODE
 70
     1
  9
$QTEXTMODE
 70
     0
  9
$MIRRTEXT
 70
     0
  9
$LTSCALE
 40
1.0
  9
$ATTMODE
 70
     1
  9
$TEXTSIZE
 40
2.5
  9
$TRACEWID
 40
1.0
  9
$TEXTSTYLE
  7
Standard
  9
$CLAYER
  8
0
  9
$CELTYPE
  6
ByLayer
  9
$CECOLOR
 62
   256
  9
$CELTSCALE
 40
1.0
  9
$DISPSILH
 70
     0
  9
$DIMSCALE
 40
1.0
  9
$DIMASZ
 40
2.5
  9
$DIMEXO
 40
0.625
  9
$DIMDLI
 40
3.75
  9
$DIMRND
 40
0.0
  9
$DIMDLE
 40
0.0
  9
$DIMEXE
 40
1.25
  9
$DIMTP
 40
0.0
  9
$DIMTM
 40
0.0
  9
$DIMTXT
 40
2.5
  9
$DIMCEN
 40
2.5
  9
$DIMTSZ
 40
0.0
  9
$DIMTOL
 70
     0
  9
$DIMLIM
 70
     0
  9
$DIMTIH
 70
     0
  9
$DIMTOH
 70
     0
  9
$DIMSE1
 70
     0
  9
$DIMSE2
 70
     0
  9
$DIMTAD
 70
     1
  9
$DIMZIN
 70
     8
  9
$DIMBLK
  1

  9
$DIMASO
 70
     1
  9
$DIMSHO
 70
     1
  9
$DIMPOST
  1

  9
$DIMAPOST
  1

  9
$DIMALT
 70
     0
  9
$DIMALTD
 70
     3
  9
$DIMALTF
 40
0.03937007874016
  9
$DIMLFAC
 40
1.0
  9
$DIMTOFL
 70
     1
  9
$DIMTVP
 40
0.0
  9
$DIMTIX
 70
     0
  9
$DIMSOXD
 70
     0
  9
$DIMSAH
 70
     0
  9
$DIMBLK1
  1

  9
$DIMBLK2
  1

  9
$DIMSTYLE
  2
ISO-25
  9
$DIMCLRD
 70
     0
  9
$DIMCLRE
 70
     0
  9
$DIMCLRT
 70
     0
  9
$DIMTFAC
 40
1.0
  9
$DIMGAP
 40
0.625
  9
$DIMJUST
 70
     0
  9
$DIMSD1
 70
     0
  9
$DIMSD2
 70
     0
  9
$DIMTOLJ
 70
     0
  9
$DIMTZIN
 70
     8
  9
$DIMALTZ
 70
     0
  9
$DIMALTTZ
 70
     0
  9
$DIMUPT
 70
     0
  9
$DIMDEC
 70
     2
  9
$DIMTDEC
 70
     2
  9
$DIMALTU
 70
     2
  9
$DIMALTTD
 70
     3
  9
$DIMTXSTY
  7
Standard
  9
$DIMAUNIT
 70
     0
  9
$DIMADEC
 70
     0
  9
$DIMALTRND
 40
0.0
  9
$DIMAZIN
 70
     0
  9
$DIMDSEP
 70
    44
  9
$DIMATFIT
 70
     3
  9
$DIMFRAC
 70
     0
  9
$DIMLDRBLK
  1

  9
$DIMLUNIT
 70
     2
  9
$DIMLWD
 70
    -2
  9
$DIMLWE
 70
    -2
  9
$DIMTMOVE
 70
     0
  9
$DIMFXL
 40
1.0
  9
$DIMFXLON
 70
     0
  9
$DIMJOGANG
 40
0.7853981633974483
  9
$DIMTFILL
 70
     0
  9
$DIMTFILLCLR
 70
     0
  9
$DIMARCSYM
 70
     0
  9
$DIMLTYPE
  6

  9
$DIMLTEX1
  6

  9
$DIMLTEX2
  6

  9
$DIMTXTDIRECTION
 70
     0
  9
$LUNITS
 70
     2
  9
$LUPREC
 70
     4
  9
$SKETCHINC
 40
1.0
  9
$FILLETRAD
 40
0.0
  9
$AUNITS
 70
     0
  9
$AUPREC
 70
     0
  9
$MENU
  1
.
  9
$ELEVATION
 40
0.0
  9
$PELEVATION
 40
0.0
  9
$THICKNESS
 40
0.0
  9
$LIMCHECK
 70
     0
  9
$CHAMFERA
 40
0.0
  9
$CHAMFERB
 40
0.0
  9
$CHAMFERC
 40
0.0
  9
$CHAMFERD
 40
0.0
  9
$SKPOLY
 70
     0
  9
$TDCREATE
 40
2459020.472465278
  9
$TDUCREATE
 40
2459020.389131945
  9
$TDUPDATE
 40
2459020.503391204
  9
$TDUUPDATE
 40
2459020.420057870
  9
$TDINDWG
 40
0.0014814815
  9
$TDUSRTIMER
 40
0.0014814815
  9
$USRTIMER
 70
     1
  9
$ANGBASE
 50
0.0
  9
$ANGDIR
 70
     0
  9
$PDMODE
 70
     0
  9
$PDSIZE
 40
0.0
  9
$PLINEWID
 40
0.0
  9
$SPLFRAME
 70
     0
  9
$SPLINETYPE
 70
     6
  9
$SPLINESEGS
 70
     8
  9
$HANDSEED
  5
9F7
  9
$SURFTAB1
 70
     6
  9
$SURFTAB2
 70
     6
  9
$SURFTYPE
 70
     6
  9
$SURFU
 70
     6
  9
$SURFV
 70
     6
  9
$UCSBASE
  2

  9
$UCSNAME
  2

  9
$UCSORG
 10
0.0
 20
0.0
 30
0.0
  9
$UCSXDIR
 10
1.0
 20
0.0
 30
0.0
  9
$UCSYDIR
 10
0.0
 20
1.0
 30
0.0
  9
$UCSORTHOREF
  2

  9
$UCSORTHOVIEW
 70
     0
  9
$UCSORGTOP
 10
0.0
 20
0.0
 30
0.0
  9
$UCSORGBOTTOM
 10
0.0
 20
0.0
 30
0.0
  9
$UCSORGLEFT
 10
0.0
 20
0.0
 30
0.0
  9
$UCSORGRIGHT
 10
0.0
 20
0.0
 30
0.0
  9
$UCSORGFRONT
 10
0.0
 20
0.0
 30
0.0
  9
$UCSORGBACK
 10
0.0
 20
0.0
 30
0.0
  9
$PUCSBASE
  2

  9
$PUCSNAME
  2

  9
$PUCSORG
 10
0.0
 20
0.0
 30
0.0
  9
$PUCSXDIR
 10
1.0
 20
0.0
 30
0.0
  9
$PUCSYDIR
 10
0.0
 20
1.0
 30
0.0
  9
$PUCSORTHOREF
  2

  9
$PUCSORTHOVIEW
 70
     0
  9
$PUCSORGTOP
 10
0.0
 20
0.0
 30
0.0
  9
$PUCSORGBOTTOM
 10
0.0
 20
0.0
 30
0.0
  9
$PUCSORGLEFT
 10
0.0
 20
0.0
 30
0.0
  9
$PUCSORGRIGHT
 10
0.0
 20
0.0
 30
0.0
  9
$PUCSORGFRONT
 10
0.0
 20
0.0
 30
0.0
  9
$PUCSORGBACK
 10
0.0
 20
0.0
 30
0.0
  9
$USERI1
 70
     0
  9
$USERI2
 70
     0
  9
$USERI3
 70
     0
  9
$USERI4
 70
     0
  9
$USERI5
 70
     0
  9
$USERR1
 40
0.0
  9
$USERR2
 40
0.0
  9
$USERR3
 40
0.0
  9
$USERR4
 40
0.0
  9
$USERR5
 40
0.0
  9
$WORLDVIEW
 70
     1
  9
$SHADEDGE
 70
     3
  9
$SHADEDIF
 70
    70
  9
$TILEMODE
 70
     1
  9
$MAXACTVP
 70
    64
  9
$PINSBASE
 10
0.0
 20
0.0
 30
0.0
  9
$PLIMCHECK
 70
     0
  9
$PEXTMIN
 10
0.0
 20
0.0
 30
0.0
  9
$PEXTMAX
 10
0.0
 20
0.0
 30
0.0
  9
$PLIMMIN
 10
0.0
 20
0.0
  9
$PLIMMAX
 10
12.0
 20
9.0
  9
$UNITMODE
 70
     0
  9
$VISRETAIN
 70
     1
  9
$PLINEGEN
 70
     0
  9
$PSLTSCALE
 70
     1
  9
$TREEDEPTH
 70
  3020
  9
$CMLSTYLE
  2
Standard
  9
$CMLJUST
 70
     0
  9
$CMLSCALE
 40
20.0
  9
$PROXYGRAPHICS
 70
     1
  9
$MEASUREMENT
 70
     1
  9
$CELWEIGHT
370
    -1
  9
$ENDCAPS
280
     0
  9
$JOINSTYLE
280
     0
  9
$LWDISPLAY
290
     0
  9
$INSUNITS
 70
     4
  9
$HYPERLINKBASE
  1

  9
$STYLESHEET
  1

  9
$XEDIT
290
     1
  9
$CEPSNTYPE
380
     0
  9
$PSTYLEMODE
290
     1
  9
$FINGERPRINTGUID
  2
{08BB0F2E-20ED-6A46-B0BC-64DAFB3E428A}
  9
$VERSIONGUID
  2
{DD6567F4-8B67-7147-BEB3-B6DA4BAC789E}
  9
$EXTNAMES
290
     1
  9
$PSVPSCALE
 40
0.0
  9
$OLESTARTUP
290
     0
  9
$SORTENTS
280
   127
  9
$INDEXCTL
280
     0
  9
$HIDETEXT
280
     1
  9
$XCLIPFRAME
280
     2
  9
$HALOGAP
280
     0
  9
$OBSCOLOR
 70
   257
  9
$OBSLTYPE
280
     0
  9
$INTERSECTIONDISPLAY
280
     0
  9
$INTERSECTIONCOLOR
 70
   257
  9
$DIMASSOC
280
     2
  9
$PROJECTNAME
  1

  9
$CAMERADISPLAY
290
     0
  9
$LENSLENGTH
 40
50.0
  9
$CAMERAHEIGHT
 40
0.0
  9
$STEPSPERSEC
 40
2.0
  9
$STEPSIZE
 40
6.0
  9
$3DDWFPREC
 40
2.0
  9
$PSOLWIDTH
 40
5.0
  9
$PSOLHEIGHT
 40
80.0
  9
$LOFTANG1
 40
1.570796326794896
  9
$LOFTANG2
 40
1.570796326794896
  9
$LOFTMAG1
 40
0.0
  9
$LOFTMAG2
 40
0.0
  9
$LOFTPARAM
 70
     7
  9
$LOFTNORMALS
280
     1
  9
$LATITUDE
 40
37.795
  9
$LONGITUDE
 40
-122.394
  9
$NORTHDIRECTION
 40
0.0
  9
$TIMEZONE
 70
 -8000
  9
$LIGHTGLYPHDISPLAY
280
     1
  9
$TILEMODELIGHTSYNCH
280
     1
  9
$CMATERIAL
347
EC
  9
$SOLIDHIST
280
     0
  9
$SHOWHIST
280
     1
  9
$DWFFRAME
280
     2
  9
$DGNFRAME
280
     0
  9
$REALWORLDSCALE
290
     1
  9
$INTERFERECOLOR
 62
     1
  9
$INTERFEREOBJVS
345
F9
  9
$INTERFEREVPVS
346
F6
  9
$CSHADOW
280
     0
  9
$SHADOWPLANELOCATION
 40
0.0
  0
ENDSEC
  0
SECTION
  2
CLASSES
  0
CLASS
  1
ACDBDICTIONARYWDFLT
  2
AcDbDictionaryWithDefault
  3
ObjectDBX Classes
 90
        0
 91
        1
280
     0
281
     0
  0
CLASS
  1
DICTIONARYVAR
  2
AcDbDictionaryVar
  3
ObjectDBX Classes
 90
        0
 91
       11
280
     0
281
     0
  0
CLASS
  1
TABLESTYLE
  2
AcDbTableStyle
  3
ObjectDBX Classes
 90
     4095
 91
        1
280
     0
281
     0
  0
CLASS
  1
MATERIAL
  2
AcDbMaterial
  3
ObjectDBX Classes
 90
     1153
 91
        3
280
     0
281
     0
  0
CLASS
  1
VISUALSTYLE
  2
AcDbVisualStyle
  3
ObjectDBX Classes
 90
     4095
 91
       24
280
     0
281
     0
  0
CLASS
  1
SCALE
  2
AcDbScale
  3
ObjectDBX Classes
 90
     1153
 91
       17
280
     0
281
     0
  0
CLASS
  1
MLEADERSTYLE
  2
AcDbMLeaderStyle
  3
ACDB_MLEADERSTYLE_CLASS
 90
     4095
 91
        2
280
     0
281
     0
  0
CLASS
  1
CELLSTYLEMAP
  2
AcDbCellStyleMap
  3
ObjectDBX Classes
 90
     1152
 91
        2
280
     0
281
     0
  0
CLASS
  1
EXACXREFPANELOBJECT
  2
ExAcXREFPanelObject
  3
EXAC_ESW
 90
     1025
 91
        0
280
     0
281
     0
  0
CLASS
  1
NPOCOLLECTION
  2
AcDbImpNonPersistentObjectsCollection
  3
ObjectDBX Classes
 90
     1153
 91
        0
280
     0
281
     0
  0
CLASS
  1
LAYER_INDEX
  2
AcDbLayerIndex
  3
ObjectDBX Classes
 90
        0
 91
        0
280
     0
281
     0
  0
CLASS
  1
SPATIAL_INDEX
  2
AcDbSpatialIndex
  3
ObjectDBX Classes
 90
        0
 91
        0
280
     0
281
     0
  0
CLASS
  1
IDBUFFER
  2
AcDbIdBuffer
  3
ObjectDBX Classes
 90
        0
 91
        0
280
     0
281
     0
  0
CLASS
  1
ACDBSECTIONVIEWSTYLE
  2
AcDbSectionViewStyle
  3
ObjectDBX Classes
 90
     1025
 91
        2
280
     0
281
     0
  0
CLASS
  1
ACDBDETAILVIEWSTYLE
  2
AcDbDetailViewStyle
  3
ObjectDBX Classes
 90
     1025
 91
        2
280
     0
281
     0
  0
CLASS
  1
SORTENTSTABLE
  2
AcDbSortentsTable
  3
ObjectDBX Classes
 90
        0
 91
        0
280
     0
281
     0
  0
ENDSEC
  0
SECTION
  2
TABLES
  0
TABLE
  2
VPORT
  5
8
330
0
100
AcDbSymbolTable
 70
     1
1001
ACAD
1000
DbSaveVer
1071
      208
  0
VPORT
  5
EA
330
8
100
AcDbSymbolTableRecord
100
AcDbViewportTableRecord
  2
*Active
 70
     0
 10
0.0
 20
0.0
 11
1.0
 21
1.0
 12
18.89639451952524
 22
15.60370078698415
 13
0.0
 23
0.0
 14
10.0
 24
10.0
 15
10.0
 25
10.0
 16
0.0
 26
0.0
 36
1.0
 17
0.0
 27
0.0
 37
0.0
 40
62.66586115251546
 41
2.452859350850077
 42
50.0
 43
0.0
 44
0.0
 50
0.0
 51
0.0
 71
     0
 72
  1000
 73
     1
 74
     3
 75
     0
 76
     1
 77
     0
 78
     0
281
     0
 65
     1
110
0.0
120
0.0
130
0.0
111
1.0
121
0.0
131
0.0
112
0.0
122
1.0
132
0.0
 79
     0
146
0.0
348
F5
 60
     3
 61
     5
292
     1
282
     1
141
0.0
142
0.0
 63
   250
421
  3355443
1001
ACAD_NAV_VCDISPLAY
1070
     3
  0
ENDTAB
  0
TABLE
  2
LTYPE
  5
5
330
0
100
AcDbSymbolTable
 70
     1
  0
LTYPE
  5
14
330
5
100
AcDbSymbolTableRecord
100
AcDbLinetypeTableRecord
  2
ByBlock
 70
     0
  3

 72
    65
 73
     0
 40
0.0
  0
LTYPE
  5
15
330
5
100
AcDbSymbolTableRecord
100
AcDbLinetypeTableRecord
  2
ByLayer
 70
     0
  3

 72
    65
 73
     0
 40
0.0
  0
LTYPE
  5
16
330
5
100
AcDbSymbolTableRecord
100
AcDbLinetypeTableRecord
  2
Continuous
 70
     0
  3
Solid line
 72
    65
 73
     0
 40
0.0
  0
ENDTAB
  0
TABLE
  2
LAYER
  5
2
102
{ACAD_XDICTIONARY
360
1FF
102
}
330
0
100
AcDbSymbolTable
 70
     2
  0
LAYER
  5
10
102
{ACAD_XDICTIONARY
360
13C
102
}
330
2
100
AcDbSymbolTableRecord
100
AcDbLayerTableRecord
  2
0
 70
     0
 62
     7
  6
Continuous
370
    -3
390
F
347
EE
348
0
  0
LAYER
  5
28C
330
2
100
AcDbSymbolTableRecord
100
AcDbLayerTableRecord
  2
Livello 1
 70
     0
 62
     7
  6
Continuous
370
    -3
390
F
347
EE
348
0
  0
ENDTAB
  0
TABLE
  2
STYLE
  5
3
330
0
100
AcDbSymbolTable
 70
     3
  0
STYLE
  5
11
330
3
100
AcDbSymbolTableRecord
100
AcDbTextStyleTableRecord
  2
Standard
 70
     0
 40
0.0
 41
1.0
 50
0.0
 71
     0
 42
2.5
  3
arial.ttf
  4

1001
ACAD
1000
Arial
1071
       34
  0
STYLE
  5
132
330
3
100
AcDbSymbolTableRecord
100
AcDbTextStyleTableRecord
  2
Annotativa
 70
     0
 40
0.0
 41
1.0
 50
0.0
 71
     0
 42
2.5
  3
arial.ttf
  4

1001
AcadAnnotative
1000
AnnotativeData
1002
{
1070
     1
1070
     1
1002
}
1001
ACAD
1000
Arial
1071
       34
  0
STYLE
  5
28D
330
3
100
AcDbSymbolTableRecord
100
AcDbTextStyleTableRecord
  2
MtXpl_Source_Sans_Pr
 70
     0
 40
0.0
 41
1.0
 50
0.0
 71
     0
 42
0.2
  3

  4

1001
ACAD
1000
Source Sans Pro Light
1071
       34
  0
ENDTAB
  0
TABLE
  2
VIEW
  5
6
330
0
100
AcDbSymbolTable
 70
     1
  0
ENDTAB
  0
TABLE
  2
UCS
  5
7
330
0
100
AcDbSymbolTable
 70
     0
  0
ENDTAB
  0
TABLE
  2
APPID
  5
9
330
0
100
AcDbSymbolTable
 70
     8
  0
APPID
  5
12
330
9
100
AcDbSymbolTableRecord
100
AcDbRegAppTableRecord
  2
ACAD
 70
     0
  0
APPID
  5
9E
330
9
100
AcDbSymbolTableRecord
100
AcDbRegAppTableRecord
  2
ACAD_PSEXT
 70
     0
  0
APPID
  5
133
330
9
100
AcDbSymbolTableRecord
100
AcDbRegAppTableRecord
  2
AcadAnnoPO
 70
     0
  0
APPID
  5
134
330
9
100
AcDbSymbolTableRecord
100
AcDbRegAppTableRecord
  2
AcadAnnotative
 70
     0
  0
APPID
  5
135
330
9
100
AcDbSymbolTableRecord
100
AcDbRegAppTableRecord
  2
ACAD_DSTYLE_DIMJAG
 70
     0
  0
APPID
  5
136
330
9
100
AcDbSymbolTableRecord
100
AcDbRegAppTableRecord
  2
ACAD_DSTYLE_DIMTALN
 70
     0
  0
APPID
  5
165
330
9
100
AcDbSymbolTableRecord
100
AcDbRegAppTableRecord
  2
ACAD_MLEADERVER
 70
     0
  0
APPID
  5
217
330
9
100
AcDbSymbolTableRecord
100
AcDbRegAppTableRecord
  2
ACAD_NAV_VCDISPLAY
 70
     0
  0
ENDTAB
  0
TABLE
  2
DIMSTYLE
  5
A
330
0
100
AcDbSymbolTable
 70
     3
100
AcDbDimStyleTable
 71
     2
340
27
340
137
  0
DIMSTYLE
105
1B0
330
A
100
AcDbSymbolTableRecord
100
AcDbDimStyleTableRecord
  2
Standard
 70
     0
340
11
  0
DIMSTYLE
105
137
330
A
100
AcDbSymbolTableRecord
100
AcDbDimStyleTableRecord
  2
Annotativa
 70
     0
 40
0.0
 41
2.5
 42
0.625
 43
3.75
 44
1.25
 73
     0
 74
     0
 77
     1
 78
     8
140
2.5
141
2.5
143
0.03937007874016
147
0.625
171
     3
172
     1
271
     2
272
     2
274
     3
278
    44
283
     0
284
     8
340
11
1001
AcadAnnotative
1000
AnnotativeData
1002
{
1070
     1
1070
     1
1002
}
1001
ACAD_DSTYLE_DIMJAG
1070
   388
1040
1.5
1001
ACAD_DSTYLE_DIMTALN
1070
   392
1070
     0
  0
DIMSTYLE
105
27
330
A
100
AcDbSymbolTableRecord
100
AcDbDimStyleTableRecord
  2
ISO-25
 70
     0
 41
2.5
 42
0.625
 43
3.75
 44
1.25
 73
     0
 74
     0
 77
     1
 78
     8
140
2.5
141
2.5
143
0.03937007874016
147
0.625
171
     3
172
     1
271
     2
272
     2
274
     3
278
    44
283
     0
284
     8
340
11
  0
ENDTAB
  0
TABLE
  2
BLOCK_RECORD
  5
1
330
0
100
AcDbSymbolTable
 70
     1
  0
BLOCK_RECORD
  5
1F
102
{ACAD_XDICTIONARY
360
1CE
102
}
330
1
100
AcDbSymbolTableRecord
100
AcDbBlockTableRecord
  2
*Model_Space
340
22
 70
     0
280
     1
281
     0
  0
BLOCK_RECORD
  5
D2
330
1
100
AcDbSymbolTableRecord
100
AcDbBlockTableRecord
  2
*Paper_Space
340
D3
 70
     0
280
     1
281
     0
  0
BLOCK_RECORD
  5
D6
330
1
100
AcDbSymbolTableRecord
100
AcDbBlockTableRecord
  2
*Paper_Space0
340
D7
 70
     0
280
     1
281
     0
  0
ENDTAB
  0
ENDSEC
  0
SECTION
  2
BLOCKS
  0
BLOCK
  5
20
330
1F
100
AcDbEntity
  8
0
100
AcDbBlockBegin
  2
*Model_Space
 70
     0
 10
0.0
 20
0.0
 30
0.0
  3
*Model_Space
  1

  0
ENDBLK
  5
21
330
1F
100
AcDbEntity
  8
0
100
AcDbBlockEnd
  0
BLOCK
  5
D4
330
D2
100
AcDbEntity
 67
     1
  8
0
100
AcDbBlockBegin
  2
*Paper_Space
 70
     0
 10
0.0
 20
0.0
 30
0.0
  3
*Paper_Space
  1

  0
ENDBLK
  5
D5
330
D2
100
AcDbEntity
 67
     1
  8
0
100
AcDbBlockEnd
  0
BLOCK
  5
D8
330
D6
100
AcDbEntity
 67
     1
  8
0
100
AcDbBlockBegin
  2
*Paper_Space0
 70
     0
 10
0.0
 20
0.0
 30
0.0
  3
*Paper_Space0
  1

  0
ENDBLK
  5
D9
330
D6
100
AcDbEntity
 67
     1
  8
0
100
AcDbBlockEnd
  0
ENDSEC
  0
SECTION
  2
ENTITIES
  0
SPLINE
  5
48D
330
1F
100
AcDbEntity
  8
Livello 1
370
     0
100
AcDbSpline
210
0.0
220
0.0
230
1.0
 70
     9
 71
     3
 72
    17
 73
    13
 74
     0
 42
0.000000001
 43
0.0000000001
 40
0.0
 40
0.0
 40
0.0
 40
0.0
 40
1.0
 40
1.0
 40
1.0
 40
2.0
 40
2.0
 40
2.0
 40
3.0
 40
3.0
 40
3.0
 40
4.0
 40
4.0
 40
4.0
 40
4.0
 10
16.56581039091536
 20
23.32240819825887
 30
0.0
 10
16.56581039091536
 20
23.20563830167485
 30
0.0
 10
16.66070662264893
 20
23.11073937846046
 30
0.0
 10
16.77747651923293
 20
23.11073937846046
 30
0.0
 10
16.89424641581694
 20
23.11073937846046
 30
0.0
 10
16.98914264755053
 20
23.20563830167485
 30
0.0
 10
16.98914264755053
 20
23.32240819825887
 30
0.0
 10
16.98914264755053
 20
23.43917540336208
 30
0.0
 10
16.89424641581694
 20
23.53407432657647
 30
0.0
 10
16.77747651923293
 20
23.53407432657647
 30
0.0
 10
16.66070662264893
 20
23.53407432657647
 30
0.0
 10
16.56581039091536
 20
23.43917540336208
 30
0.0
 10
16.56581039091536
 20
23.32240819825887
 30
0.0
  0
SPLINE
  5
48E
330
1F
100
AcDbEntity
  8
Livello 1
370
     0
100
AcDbSpline
210
0.0
220
0.0
230
1.0
 70
     9
 71
     3
 72
    17
 73
    13
 74
     0
 42
0.000000001
 43
0.0000000001
 40
0.0
 40
0.0
 40
0.0
 40
0.0
 40
1.0
 40
1.0
 40
1.0
 40
2.0
 40
2.0
 40
2.0
 40
3.0
 40
3.0
 40
3.0
 40
4.0
 40
4.0
 40
4.0
 40
4.0
 10
13.13289520224246
 20
23.32240819825887
 30
0.0
 10
13.13289520224246
 20
23.20563830167485
 30
0.0
 10
13.22779143397603
 20
23.11073937846046
 30
0.0
 10
13.34456133056004
 20
23.11073937846046
 30
0.0
 10
13.46133122714415
 20
23.11073937846046
 30
0.0
 10
13.55622745887764
 20
23.20563830167485
 30
0.0
 10
13.55622745887764
 20
23.32240819825887
 30
0.0
 10
13.55622745887764
 20
23.43917540336208
 30
0.0
 10
13.46133122714415
 20
23.53407432657647
 30
0.0
 10
13.34456133056004
 20
23.53407432657647
 30
0.0
 10
13.22779143397603
 20
23.53407432657647
 30
0.0
 10
13.13289520224246
 20
23.43917540336208
 30
0.0
 10
13.13289520224246
 20
23.32240819825887
 30
0.0
  0
SPLINE
  5
48F
330
1F
100
AcDbEntity
  8
Livello 1
370
     0
100
AcDbSpline
210
0.0
220
0.0
230
1.0
 70
     9
 71
     3
 72
    17
 73
    13
 74
     0
 42
0.000000001
 43
0.0000000001
 40
0.0
 40
0.0
 40
0.0
 40
0.0
 40
1.0
 40
1.0
 40
1.0
 40
2.0
 40
2.0
 40
2.0
 40
3.0
 40
3.0
 40
3.0
 40
4.0
 40
4.0
 40
4.0
 40
4.0
 10
18.00084069196855
 20
31.43319380770173
 30
0.0
 10
18.11760924281214
 20
31.43319380770173
 30
0.0
 10
18.21250682028614
 20
31.52809003943528
 30
0.0
 10
18.21250682028614
 20
31.64485993601931
 30
0.0
 10
18.21250682028614
 20
31.76162983260335
 30
0.0
 10
18.11760924281214
 20
31.8565260643369
 30
0.0
 10
18.00084069196855
 20
31.8565260643369
 30
0.0
 10
17.88407079538456
 20
31.8565260643369
 30
0.0
 10
17.78917321791056
 20
31.76162983260335
 30
0.0
 10
17.78917321791056
 20
31.64485993601931
 30
0.0
 10
17.78917321791056
 20
31.52809003943528
 30
0.0
 10
17.88407079538456
 20
31.43319380770173
 30
0.0
 10
18.00084069196855
 20
31.43319380770173
 30
0.0
  0
SPLINE
  5
490
330
1F
100
AcDbEntity
  8
Livello 1
370
     0
100
AcDbSpline
210
0.0
220
0.0
230
1.0
 70
     9
 71
     3
 72
    17
 73
    13
 74
     0
 42
0.000000001
 43
0.0000000001
 40
0.0
 40
0.0
 40
0.0
 40
0.0
 40
1.0
 40
1.0
 40
1.0
 40
2.0
 40
2.0
 40
2.0
 40
3.0
 40
3.0
 40
3.0
 40
4.0
 40
4.0
 40
4.0
 40
4.0
 10
18.00084069196855
 20
24.33406856194505
 30
0.0
 10
18.11760924281214
 20
24.33406856194505
 30
0.0
 10
18.21250682028614
 20
24.42896479367859
 30
0.0
 10
18.21250682028614
 20
24.54573469026261
 30
0.0
 10
18.21250682028614
 20
24.66250458684666
 30
0.0
 10
18.11760924281214
 20
24.7574008185802
 30
0.0
 10
18.00084069196855
 20
24.7574008185802
 30
0.0
 10
17.88407079538456
 20
24.7574008185802
 30
0.0
 10
17.78917321791056
 20
24.66250458684666
 30
0.0
 10
17.78917321791056
 20
24.54573469026261
 30
0.0
 10
17.78917321791056
 20
24.42896479367859
 30
0.0
 10
17.88407079538456
 20
24.33406856194505
 30
0.0
 10
18.00084069196855
 20
24.33406856194505
 30
0.0
  0
SPLINE
  5
491
330
1F
100
AcDbEntity
  8
Livello 1
370
     0
100
AcDbSpline
210
0.0
220
0.0
230
1.0
 70
     9
 71
     3
 72
    17
 73
    13
 74
     0
 42
0.000000001
 43
0.0000000001
 40
0.0
 40
0.0
 40
0.0
 40
0.0
 40
1.0
 40
1.0
 40
1.0
 40
2.0
 40
2.0
 40
2.0
 40
3.0
 40
3.0
 40
3.0
 40
4.0
 40
4.0
 40
4.0
 40
4.0
 10
29.67665686472236
 20
4.030015120039421
 30
0.0
 10
29.67665686472236
 20
3.913245559890476
 30
0.0
 10
29.77155309645593
 20
3.818348318851618
 30
0.0
 10
29.88832299303995
 20
3.818348318851618
 30
0.0
 10
30.00509288962394
 20
3.818348318851618
 30
0.0
 10
30.09998912135755
 20
3.913245559890476
 30
0.0
 10
30.09998912135755
 20
4.030015120039421
 30
0.0
 10
30.09998912135755
 20
4.146784343753231
 30
0.0
 10
30.00509288962394
 20
4.24168158479209
 30
0.0
 10
29.88832299303995
 20
4.24168158479209
 30
0.0
 10
29.77155309645593
 20
4.24168158479209
 30
0.0
 10
29.67665686472236
 20
4.146784343753231
 30
0.0
 10
29.67665686472236
 20
4.030015120039421
 30
0.0
  0
SPLINE
  5
492
330
1F
100
AcDbEntity
  8
Livello 1
370
     0
100
AcDbSpline
210
0.0
220
0.0
230
1.0
 70
     9
 71
     3
 72
    17
 73
    13
 74
     0
 42
0.000000001
 43
0.0000000001
 40
0.0
 40
0.0
 40
0.0
 40
0.0
 40
1.0
 40
1.0
 40
1.0
 40
2.0
 40
2.0
 40
2.0
 40
3.0
 40
3.0
 40
3.0
 40
4.0
 40
4.0
 40
4.0
 40
4.0
 10
0.0000014630703475
 20
4.030015120039421
 30
0.0
 10
0.0000014630703475
 20
3.913245559890476
 30
0.0
 10
0.0948983676741193
 20
3.818348318851618
 30
0.0
 10
0.2116679278230293
 20
3.818348318851618
 30
0.0
 10
0.3284374879719252
 20
3.818348318851618
 30
0.0
 10
0.4233347290108327
 20
3.913245559890476
 30
0.0
 10
0.4233347290108327
 20
4.030015120039421
 30
0.0
 10
0.4233347290108327
 20
4.146784343753231
 30
0.0
 10
0.3284374879719252
 20
4.24168158479209
 30
0.0
 10
0.2116679278230293
 20
4.24168158479209
 30
0.0
 10
0.0948983676741193
 20
4.24168158479209
 30
0.0
 10
0.0000014630703475
 20
4.146784343753231
 30
0.0
 10
0.0000014630703475
 20
4.030015120039421
 30
0.0
  0
SPLINE
  5
493
330
1F
100
AcDbEntity
  8
Livello 1
370
     0
100
AcDbSpline
210
0.0
220
0.0
230
1.0
 70
     9
 71
     3
 72
    17
 73
    13
 74
     0
 42
0.000000001
 43
0.0000000001
 40
0.0
 40
0.0
 40
0.0
 40
0.0
 40
1.0
 40
1.0
 40
1.0
 40
2.0
 40
2.0
 40
2.0
 40
3.0
 40
3.0
 40
3.0
 40
4.0
 40
4.0
 40
4.0
 40
4.0
 10
10.59719861160515
 20
15.33534323468965
 30
0.0
 10
10.40246458930136
 20
15.33534323468965
 30
0.0
 10
10.24442083391555
 20
15.17729813356339
 30
0.0
 10
10.24442083391555
 20
14.98256545700007
 30
0.0
 10
10.24442083391555
 20
14.78783143469633
 30
0.0
 10
10.40246458930136
 20
14.62978767931048
 30
0.0
 10
10.59719861160515
 20
14.62978767931048
 30
0.0
 10
10.79193128816844
 20
14.62978767931048
 30
0.0
 10
10.94997638929476
 20
14.78783143469633
 30
0.0
 10
10.94997638929476
 20
14.98256545700007
 30
0.0
 10
10.94997638929476
 20
15.17729813356339
 30
0.0
 10
10.79193128816844
 20
15.33534323468965
 30
0.0
 10
10.59719861160515
 20
15.33534323468965
 30
0.0
  0
SPLINE
  5
494
330
1F
100
AcDbEntity
  8
Livello 1
370
     0
100
AcDbSpline
210
0.0
220
0.0
230
1.0
 70
     9
 71
     3
 72
    17
 73
    13
 74
     0
 42
0.000000001
 43
0.0000000001
 40
0.0
 40
0.0
 40
0.0
 40
0.0
 40
1.0
 40
1.0
 40
1.0
 40
2.0
 40
2.0
 40
2.0
 40
3.0
 40
3.0
 40
3.0
 40
4.0
 40
4.0
 40
4.0
 40
4.0
 10
3.052763822350128
 20
15.33534323468965
 30
0.0
 10
2.858030472916638
 20
15.33534323468965
 30
0.0
 10
2.699986044660548
 20
15.17729813356339
 30
0.0
 10
2.699986044660548
 20
14.98256545700007
 30
0.0
 10
2.699986044660548
 20
14.78783143469633
 30
0.0
 10
2.858030472916638
 20
14.62978767931048
 30
0.0
 10
3.052763822350128
 20
14.62978767931048
 30
0.0
 10
3.247496498913433
 20
14.62978767931048
 30
0.0
 10
3.40554160003974
 20
14.78783143469633
 30
0.0
 10
3.40554160003974
 20
14.98256545700007
 30
0.0
 10
3.40554160003974
 20
15.17729813356339
 30
0.0
 10
3.247496498913433
 20
15.33534323468965
 30
0.0
 10
3.052763822350128
 20
15.33534323468965
 30
0.0
  0
SPLINE
  5
495
330
1F
100
AcDbEntity
  8
Livello 1
370
     9
100
AcDbSpline
210
0.0
220
0.0
230
1.0
 70
     8
 71
     3
 72
     8
 73
     4
 74
     0
 42
0.000000001
 43
0.0000000001
 40
0.0
 40
0.0
 40
0.0
 40
0.0
 40
1.0
 40
1.0
 40
1.0
 40
1.0
 10
5.977775081890704
 20
36.84893906202355
 30
0.0
 10
5.977775081890704
 20
36.9036191869285
 30
0.0
 10
6.022224888092964
 20
36.94806899313076
 30
0.0
 10
6.076905012997897
 20
36.94806899313076
 30
0.0
  0
SPLINE
  5
496
330
1F
100
AcDbEntity
  8
Livello 1
370
     9
100
AcDbSpline
210
0.0
220
0.0
230
1.0
 70
     8
 71
     3
 72
     8
 73
     4
 74
     0
 42
0.000000001
 43
0.0000000001
 40
0.0
 40
0.0
 40
0.0
 40
0.0
 40
1.0
 40
1.0
 40
1.0
 40
1.0
 10
7.416438209218269
 20
36.84893906202355
 30
0.0
 10
7.416438209218269
 20
36.9036191869285
 30
0.0
 10
7.371987730145774
 20
36.94806899313076
 30
0.0
 10
7.317307605240833
 20
36.94806899313076
 30
0.0
  0
SPLINE
  5
497
330
1F
100
AcDbEntity
  8
Livello 1
370
     9
100
AcDbSpline
210
0.0
220
0.0
230
1.0
 70
     8
 71
     3
 72
     8
 73
     4
 74
     0
 42
0.000000001
 43
0.0000000001
 40
0.0
 40
0.0
 40
0.0
 40
0.0
 40
1.0
 40
1.0
 40
1.0
 40
1.0
 10
23.34096885442232
 20
36.84893906202355
 30
0.0
 10
23.34096885442232
 20
36.9036191869285
 30
0.0
 10
23.38541866062458
 20
36.94806899313076
 30
0.0
 10
23.44009878552953
 20
36.94806899313076
 30
0.0
  0
SPLINE
  5
498
330
1F
100
AcDbEntity
  8
Livello 1
370
     9
100
AcDbSpline
210
0.0
220
0.0
230
1.0
 70
     8
 71
     3
 72
     8
 73
     4
 74
     0
 42
0.000000001
 43
0.0000000001
 40
0.0
 40
0.0
 40
0.0
 40
0.0
 40
1.0
 40
1.0
 40
1.0
 40
1.0
 10
24.77966764387114
 20
36.84893906202355
 30
0.0
 10
24.77966764387114
 20
36.9036191869285
 30
0.0
 10
24.73521514618801
 20
36.94806899313076
 30
0.0
 10
24.68053502128306
 20
36.94806899313076
 30
0.0
  0
LINE
  5
499
330
1F
100
AcDbEntity
  8
Livello 1
370
     9
100
AcDbLine
 10
16.77747786497335
 20
23.32240819825887
 30
0.0
 11
13.34459631981106
 21
23.32240819825887
 31
0.0
  0
LINE
  5
49A
330
1F
100
AcDbEntity
  8
Livello 1
370
     9
100
AcDbLine
 10
18.00084069196855
 20
31.64485993601931
 30
0.0
 11
18.00084069196855
 21
24.54555974400751
 31
0.0
  0
TEXT
  5
49B
330
1F
100
AcDbEntity
  8
Livello 1
100
AcDbText
 10
10.85663779423891
 20
20.25768396062915
 30
0.0
 40
2.123016666135912
  1
35 mm
  7
MtXpl_Source_Sans_Pr
100
AcDbText
  0
TEXT
  5
49C
330
1F
100
AcDbEntity
  8
Livello 1
100
AcDbText
 10
10.85663779423891
 20
20.25768396062915
 30
0.0
 40
2.123016666135912
  1
35 mm
  7
MtXpl_Source_Sans_Pr
100
AcDbText
  0
TEXT
  5
49D
330
1F
100
AcDbEntity
  8
Livello 1
100
AcDbText
 10
21.10108852875112
 20
23.84209774573206
 30
0.0
 40
2.123016666135912
  1
71 mm
 50
90.00000000000005
  7
MtXpl_Source_Sans_Pr
100
AcDbText
  0
TEXT
  5
49E
330
1F
100
AcDbEntity
  8
Livello 1
100
AcDbText
 10
21.10108852875112
 20
23.84209774573206
 30
0.0
 40
2.123016666135912
  1
71 mm
 50
90.00000000000005
  7
MtXpl_Source_Sans_Pr
100
AcDbText
  0
LINE
  5
49F
330
1F
100
AcDbEntity
  8
Livello 1
370
     9
100
AcDbLine
 10
29.88832299303995
 20
4.030015120039421
 30
0.0
 11
0.2115976128858534
 21
4.030015120039421
 31
0.0
  0
TEXT
  5
4A0
330
1F
100
AcDbEntity
  8
Livello 1
100
AcDbText
 10
10.06837331908267
 20
0.9651492432300512
 30
0.0
 40
2.123016666135912
  1
605 mm
  7
MtXpl_Source_Sans_Pr
100
AcDbText
  0
TEXT
  5
4A1
330
1F
100
AcDbEntity
  8
Livello 1
100
AcDbText
 10
10.06837331908267
 20
0.9651492432300512
 30
0.0
 40
2.123016666135912
  1
605 mm
  7
MtXpl_Source_Sans_Pr
100
AcDbText
  0
SPLINE
  5
4A2
330
1F
100
AcDbEntity
  8
Livello 1
370
     9
100
AcDbSpline
210
0.0
220
0.0
230
1.0
 70
     8
 71
     3
 72
     8
 73
     4
 74
     0
 42
0.000000001
 43
0.0000000001
 40
0.0
 40
0.0
 40
0.0
 40
0.0
 40
1.0
 40
1.0
 40
1.0
 40
1.0
 10
6.111946709192436
 20
37.76467103491932
 30
0.0
 10
6.111946709192436
 20
37.81935115982427
 30
0.0
 10
6.156396515394758
 20
37.86380096602653
 30
0.0
 10
6.21107664029975
 20
37.86380096602653
 30
0.0
  0
SPLINE
  5
4A3
330
1F
100
AcDbEntity
  8
Livello 1
370
     9
100
AcDbSpline
210
0.0
220
0.0
230
1.0
 70
     8
 71
     3
 72
     8
 73
     4
 74
     0
 42
0.000000001
 43
0.0000000001
 40
0.0
 40
0.0
 40
0.0
 40
0.0
 40
1.0
 40
1.0
 40
1.0
 40
1.0
 10
7.550609836520052
 20
37.76467103491932
 30
0.0
 10
7.550609836520052
 20
37.81935115982427
 30
0.0
 10
7.506159357447642
 20
37.86380096602653
 30
0.0
 10
7.451479232542637
 20
37.86380096602653
 30
0.0
  0
SPLINE
  5
4A4
330
1F
100
AcDbEntity
  8
Livello 1
370
     9
100
AcDbSpline
210
0.0
220
0.0
230
1.0
 70
     8
 71
     3
 72
     8
 73
     4
 74
     0
 42
0.000000001
 43
0.0000000001
 40
0.0
 40
0.0
 40
0.0
 40
0.0
 40
1.0
 40
1.0
 40
1.0
 40
1.0
 10
23.47514048172414
 20
37.76467103491932
 30
0.0
 10
23.47514048172414
 20
37.81935115982427
 30
0.0
 10
23.51959028792635
 20
37.86380096602653
 30
0.0
 10
23.57427041283135
 20
37.86380096602653
 30
0.0
  0
SPLINE
  5
4A5
330
1F
100
AcDbEntity
  8
Livello 1
370
     9
100
AcDbSpline
210
0.0
220
0.0
230
1.0
 70
     8
 71
     3
 72
     8
 73
     4
 74
     0
 42
0.000000001
 43
0.0000000001
 40
0.0
 40
0.0
 40
0.0
 40
0.0
 40
1.0
 40
1.0
 40
1.0
 40
1.0
 10
24.91383927117295
 20
37.76467103491932
 30
0.0
 10
24.91383927117295
 20
37.81935115982427
 30
0.0
 10
24.86938677348985
 20
37.86380096602653
 30
0.0
 10
24.81470664858484
 20
37.86380096602653
 30
0.0
  0
SPLINE
  5
4A6
330
1F
100
AcDbEntity
  8
Livello 1
370
     0
100
AcDbSpline
210
0.0
220
0.0
230
1.0
 70
     9
 71
     3
 72
    26
 73
    22
 74
     0
 42
0.000000001
 43
0.0000000001
 40
0.0
 40
0.0
 40
0.0
 40
0.0
 40
1.0
 40
1.0
 40
1.0
 40
2.0
 40
2.0
 40
2.0
 40
3.0
 40
3.0
 40
3.0
 40
4.0
 40
4.0
 40
4.0
 40
5.0
 40
5.0
 40
5.0
 40
6.0
 40
6.0
 40
6.0
 40
7.0
 40
7.0
 40
7.0
 40
7.0
 10
14.29399196556305
 20
10.69268209350108
 30
0.0
 10
14.27564683210414
 20
10.69268209350108
 30
0.0
 10
14.25941854833195
 20
10.70502926189059
 30
0.0
 10
14.25483361070763
 20
10.72337372247933
 30
0.0
 10
14.25483361070763
 20
10.72337372247933
 30
0.0
 10
14.19203867104644
 20
10.98301818839072
 30
0.0
 10
14.19203867104644
 20
10.98301818839072
 30
0.0
 10
14.18709980369064
 20
11.00488916176036
 30
0.0
 10
14.20015214006226
 20
11.02640889687936
 30
0.0
 10
14.22202445917234
 20
11.03170034822623
 30
0.0
 10
14.24319161030026
 20
11.03663921558204
 30
0.0
 10
14.26541651340144
 20
11.02358687921038
 30
0.0
 10
14.27070796474834
 20
11.00206781696159
 30
0.0
 10
14.27070796474834
 20
11.00206781696159
 30
0.0
 10
14.33314897467805
 20
10.74242335105022
 30
0.0
 10
14.33314897467805
 20
10.74242335105022
 30
0.0
 10
14.33844177176534
 20
10.72090428880144
 30
0.0
 10
14.32503550566216
 20
10.69903196969137
 30
0.0
 10
14.30351577054316
 20
10.69373984547427
 30
0.0
 10
14.30034116888315
 20
10.69303467749215
 30
0.0
 10
14.29716656722314
 20
10.69268209350108
 30
0.0
 10
14.29399196556305
 20
10.69268209350108
 30
0.0
  0
SPLINE
  5
4A7
330
1F
100
AcDbEntity
  8
Livello 1
370
     0
100
AcDbSpline
210
0.0
220
0.0
230
1.0
 70
     9
 71
     3
 72
    35
 73
    31
 74
     0
 42
0.000000001
 43
0.0000000001
 40
0.0
 40
0.0
 40
0.0
 40
0.0
 40
1.0
 40
1.0
 40
1.0
 40
2.0
 40
2.0
 40
2.0
 40
3.0
 40
3.0
 40
3.0
 40
4.0
 40
4.0
 40
4.0
 40
5.0
 40
5.0
 40
5.0
 40
6.0
 40
6.0
 40
6.0
 40
7.0
 40
7.0
 40
7.0
 40
8.0
 40
8.0
 40
8.0
 40
9.0
 40
9.0
 40
9.0
 40
10.0
 40
10.0
 40
10.0
 40
10.0
 10
14.24008833288275
 20
9.931352326252307
 30
0.0
 10
14.22950408444855
 20
9.931352326252307
 30
0.0
 10
14.21927376574584
 20
9.935585352755772
 30
0.0
 10
14.21116029673006
 20
9.943346237780538
 30
0.0
 10
14.19563718094005
 20
9.959574521552667
 30
0.0
 10
14.19599111067156
 20
9.984974026313835
 30
0.0
 10
14.21186546471213
 20
10.00049646923361
 30
0.0
 10
14.21186546471213
 20
10.00049646923361
 30
0.0
 10
14.38825435355693
 20
10.17265233157494
 30
0.0
 10
14.38825435355693
 20
10.17265233157494
 30
0.0
 10
14.38825435355693
 20
10.17265233157494
 30
0.0
 10
14.28665498877186
 20
10.58928280089895
 30
0.0
 10
14.28665498877186
 20
10.58928280089895
 30
0.0
 10
14.28171477567554
 20
10.61080186314774
 30
0.0
 10
14.29476845778764
 20
10.6326741822578
 30
0.0
 10
14.31664077689775
 20
10.63796563360468
 30
0.0
 10
14.33816051201675
 20
10.64290450096048
 30
0.0
 10
14.36003148538634
 20
10.62949890772755
 30
0.0
 10
14.36497035274213
 20
10.60797984547876
 30
0.0
 10
14.36497035274213
 20
10.60797984547876
 30
0.0
 10
14.47186251461454
 20
10.16982964103575
 30
0.0
 10
14.47186251461454
 20
10.16982964103575
 30
0.0
 10
14.47539104600614
 20
10.15571887982069
 30
0.0
 10
14.47115734663244
 20
10.14125486174434
 30
0.0
 10
14.46092702792975
 20
10.13102454304165
 30
0.0
 10
14.46092702792975
 20
10.13102454304165
 30
0.0
 10
14.26830985531283
 20
9.942993653789471
 30
0.0
 10
14.26830985531283
 20
9.942993653789471
 30
0.0
 10
14.26054897028804
 20
9.935232768764693
 30
0.0
 10
14.25031865158534
 20
9.931352326252307
 30
0.0
 10
14.24008833288275
 20
9.931352326252307
 30
0.0
  0
SPLINE
  5
4A8
330
1F
100
AcDbEntity
  8
Livello 1
370
     0
100
AcDbSpline
210
0.0
220
0.0
230
1.0
 70
     9
 71
     3
 72
    26
 73
    22
 74
     0
 42
0.000000001
 43
0.0000000001
 40
0.0
 40
0.0
 40
0.0
 40
0.0
 40
1.0
 40
1.0
 40
1.0
 40
2.0
 40
2.0
 40
2.0
 40
3.0
 40
3.0
 40
3.0
 40
4.0
 40
4.0
 40
4.0
 40
5.0
 40
5.0
 40
5.0
 40
6.0
 40
6.0
 40
6.0
 40
7.0
 40
7.0
 40
7.0
 40
7.0
 10
13.85065662326663
 20
9.541674346138675
 30
0.0
 10
13.84042495882354
 20
9.541674346138675
 30
0.0
 10
13.83019464012085
 20
9.545554788651068
 30
0.0
 10
13.82208117110505
 20
9.55331567367584
 30
0.0
 10
13.80655940105545
 20
9.569190700586688
 30
0.0
 10
13.80655940105545
 20
9.594590878218085
 30
0.0
 10
13.82208117110505
 20
9.610465905128926
 30
0.0
 10
13.82208117110505
 20
9.610465905128926
 30
0.0
 10
14.11806197420284
 20
9.906093451365428
 30
0.0
 10
14.11806197420284
 20
9.906093451365428
 30
0.0
 10
14.13358374425235
 20
9.921968478276266
 30
0.0
 10
14.15933717874506
 20
9.921968478276266
 30
0.0
 10
14.17485894879465
 20
9.906093451365428
 30
0.0
 10
14.19073330283525
 20
9.89021842445458
 30
0.0
 10
14.19073330283525
 20
9.864818246823213
 30
0.0
 10
14.17485894879465
 20
9.848943219912372
 30
0.0
 10
14.17485894879465
 20
9.848943219912372
 30
0.0
 10
13.87923072968783
 20
9.55331567367584
 30
0.0
 10
13.87923072968783
 20
9.55331567367584
 30
0.0
 10
13.87111726067205
 20
9.545554788651068
 30
0.0
 10
13.86088694196935
 20
9.541674346138675
 30
0.0
 10
13.85065662326663
 20
9.541674346138675
 30
0.0
  0
SPLINE
  5
4A9
330
1F
100
AcDbEntity
  8
Livello 1
370
     0
100
AcDbSpline
210
0.0
220
0.0
230
1.0
 70
     9
 71
     3
 72
    26
 73
    22
 74
     0
 42
0.000000001
 43
0.0000000001
 40
0.0
 40
0.0
 40
0.0
 40
0.0
 40
1.0
 40
1.0
 40
1.0
 40
2.0
 40
2.0
 40
2.0
 40
3.0
 40
3.0
 40
3.0
 40
4.0
 40
4.0
 40
4.0
 40
5.0
 40
5.0
 40
5.0
 40
6.0
 40
6.0
 40
6.0
 40
7.0
 40
7.0
 40
7.0
 40
7.0
 10
13.90928784205626
 20
9.277584899607083
 30
0.0
 10
13.89094270859735
 20
9.277584899607083
 30
0.0
 10
13.87436184083414
 20
9.290284651987654
 30
0.0
 10
13.87012948720084
 20
9.308981696567483
 30
0.0
 10
13.87012948720084
 20
9.308981696567483
 30
0.0
 10
13.81121431718185
 20
9.568626162478855
 30
0.0
 10
13.81121431718185
 20
9.568626162478855
 30
0.0
 10
13.80627544982603
 20
9.590145897597855
 30
0.0
 10
13.82003429992025
 20
9.611664959846619
 30
0.0
 10
13.84190661903034
 20
9.616603827202439
 30
0.0
 10
13.86342635414934
 20
9.621895951419533
 30
0.0
 10
13.88494608926825
 20
9.608137101325313
 30
0.0
 10
13.88988495662414
 20
9.586265455085467
 30
0.0
 10
13.88988495662414
 20
9.586265455085467
 30
0.0
 10
13.94844485117126
 20
9.326620989174074
 30
0.0
 10
13.94844485117126
 20
9.326620989174074
 30
0.0
 10
13.95338506426744
 20
9.305101254055079
 30
0.0
 10
13.93997879816434
 20
9.283581518936079
 30
0.0
 10
13.91810647905426
 20
9.278642651580275
 30
0.0
 10
13.91528446138524
 20
9.277937483598122
 30
0.0
 10
13.91210985972525
 20
9.277584899607083
 30
0.0
 10
13.90928784205626
 20
9.277584899607083
 30
0.0
  0
SPLINE
  5
4AA
330
1F
100
AcDbEntity
  8
Livello 1
370
     0
100
AcDbSpline
210
0.0
220
0.0
230
1.0
 70
     9
 71
     3
 72
    26
 73
    22
 74
     0
 42
0.000000001
 43
0.0000000001
 40
0.0
 40
0.0
 40
0.0
 40
0.0
 40
1.0
 40
1.0
 40
1.0
 40
2.0
 40
2.0
 40
2.0
 40
3.0
 40
3.0
 40
3.0
 40
4.0
 40
4.0
 40
4.0
 40
5.0
 40
5.0
 40
5.0
 40
6.0
 40
6.0
 40
6.0
 40
7.0
 40
7.0
 40
7.0
 40
7.0
 10
14.00270375932344
 20
8.887976897995477
 30
0.0
 10
13.98435862586454
 20
8.887976897995477
 30
0.0
 10
13.96813034209243
 20
8.900324066385008
 30
0.0
 10
13.96354540446805
 20
8.91902111096482
 30
0.0
 10
13.96354540446805
 20
8.91902111096482
 30
0.0
 10
13.90110304879795
 20
9.178312992885132
 30
0.0
 10
13.90110304879795
 20
9.178312992885132
 30
0.0
 10
13.89616418144214
 20
9.19983205513391
 30
0.0
 10
13.90921651781376
 20
9.221704374243966
 30
0.0
 10
13.93108883692385
 20
9.226995825590867
 30
0.0
 10
13.95260857204285
 20
9.231934692946651
 30
0.0
 10
13.97448089115293
 20
9.218882356574999
 30
0.0
 10
13.97941975850875
 20
9.197362621455999
 30
0.0
 10
13.97941975850875
 20
9.197362621455999
 30
0.0
 10
14.04186076843842
 20
8.937718155544629
 30
0.0
 10
14.04186076843842
 20
8.937718155544629
 30
0.0
 10
14.04715356552576
 20
8.91619909329583
 30
0.0
 10
14.03374729942264
 20
8.894326774185799
 30
0.0
 10
14.01222756430364
 20
8.889034649968685
 30
0.0
 10
14.00905296264354
 20
8.888329481986557
 30
0.0
 10
14.00587836098354
 20
8.887976897995477
 30
0.0
 10
14.00270375932344
 20
8.887976897995477
 30
0.0
  0
SPLINE
  5
4AB
330
1F
100
AcDbEntity
  8
Livello 1
370
     0
100
AcDbSpline
210
0.0
220
0.0
230
1.0
 70
     9
 71
     3
 72
    26
 73
    22
 74
     0
 42
0.000000001
 43
0.0000000001
 40
0.0
 40
0.0
 40
0.0
 40
0.0
 40
1.0
 40
1.0
 40
1.0
 40
2.0
 40
2.0
 40
2.0
 40
3.0
 40
3.0
 40
3.0
 40
4.0
 40
4.0
 40
4.0
 40
5.0
 40
5.0
 40
5.0
 40
6.0
 40
6.0
 40
6.0
 40
7.0
 40
7.0
 40
7.0
 40
7.0
 10
14.09724875280635
 20
8.493818275140403
 30
0.0
 10
14.07890361934743
 20
8.493818275140403
 30
0.0
 10
14.06267533557535
 20
8.506165443529937
 30
0.0
 10
14.05809039795093
 20
8.524509904118659
 30
0.0
 10
14.05809039795093
 20
8.524509904118659
 30
0.0
 10
13.99529545828974
 20
8.784506954021118
 30
0.0
 10
13.99529545828974
 20
8.784506954021118
 30
0.0
 10
13.99000400694294
 20
8.806026016269882
 30
0.0
 10
14.00305634331455
 20
8.827898335379972
 30
0.0
 10
14.02492866242464
 20
8.833190459597041
 30
0.0
 10
14.04644839754364
 20
8.838129326952874
 30
0.0
 10
14.06832071665364
 20
8.82507631771098
 30
0.0
 10
14.07361216800054
 20
8.803556582591987
 30
0.0
 10
14.07361216800054
 20
8.803556582591987
 30
0.0
 10
14.13640576192134
 20
8.543559532689542
 30
0.0
 10
14.13640576192134
 20
8.543559532689542
 30
0.0
 10
14.14169855900864
 20
8.522040470440757
 30
0.0
 10
14.12829229290555
 20
8.50016815133069
 30
0.0
 10
14.10677255778655
 20
8.494876027113605
 30
0.0
 10
14.10359795612643
 20
8.494170859131477
 30
0.0
 10
14.10042335446634
 20
8.493818275140403
 30
0.0
 10
14.09724875280635
 20
8.493818275140403
 30
0.0
  0
SPLINE
  5
4AC
330
1F
100
AcDbEntity
  8
Livello 1
370
     0
100
AcDbSpline
210
0.0
220
0.0
230
1.0
 70
     9
 71
     3
 72
    26
 73
    22
 74
     0
 42
0.000000001
 43
0.0000000001
 40
0.0
 40
0.0
 40
0.0
 40
0.0
 40
1.0
 40
1.0
 40
1.0
 40
2.0
 40
2.0
 40
2.0
 40
3.0
 40
3.0
 40
3.0
 40
4.0
 40
4.0
 40
4.0
 40
5.0
 40
5.0
 40
5.0
 40
6.0
 40
6.0
 40
6.0
 40
7.0
 40
7.0
 40
7.0
 40
7.0
 10
14.19126352456226
 20
8.104280924901082
 30
0.0
 10
14.17327097509435
 20
8.104280924901082
 30
0.0
 10
14.15669010733114
 20
8.116628093290598
 30
0.0
 10
14.15210516970684
 20
8.134972553879336
 30
0.0
 10
14.15210516970684
 20
8.134972553879336
 30
0.0
 10
14.08931023004564
 20
8.394617019790715
 30
0.0
 10
14.08931023004564
 20
8.394617019790715
 30
0.0
 10
14.08401877869875
 20
8.416136082039512
 30
0.0
 10
14.09707111507043
 20
8.438008401149559
 30
0.0
 10
14.11894343418045
 20
8.44329985249643
 30
0.0
 10
14.14011058530843
 20
8.447886135861182
 30
0.0
 10
14.16233548840955
 20
8.435186383480591
 30
0.0
 10
14.16762693975644
 20
8.413666648361612
 30
0.0
 10
14.16762693975644
 20
8.413666648361612
 30
0.0
 10
14.23042053367725
 20
8.154022182450226
 30
0.0
 10
14.23042053367725
 20
8.154022182450226
 30
0.0
 10
14.23571333076455
 20
8.132503120201441
 30
0.0
 10
14.22230706466132
 20
8.110630801091359
 30
0.0
 10
14.20078732954235
 20
8.105338676874282
 30
0.0
 10
14.19761272788234
 20
8.104633508892142
 30
0.0
 10
14.19443812622233
 20
8.104280924901082
 30
0.0
 10
14.19126352456226
 20
8.104280924901082
 30
0.0
  0
SPLINE
  5
4AD
330
1F
100
AcDbEntity
  8
Livello 1
370
     0
100
AcDbSpline
210
0.0
220
0.0
230
1.0
 70
     9
 71
     3
 72
    26
 73
    22
 74
     0
 42
0.000000001
 43
0.0000000001
 40
0.0
 40
0.0
 40
0.0
 40
0.0
 40
1.0
 40
1.0
 40
1.0
 40
2.0
 40
2.0
 40
2.0
 40
3.0
 40
3.0
 40
3.0
 40
4.0
 40
4.0
 40
4.0
 40
5.0
 40
5.0
 40
5.0
 40
6.0
 40
6.0
 40
6.0
 40
7.0
 40
7.0
 40
7.0
 40
7.0
 10
14.28524330706714
 20
7.710122302045987
 30
0.0
 10
14.26725075759925
 20
7.710122302045987
 30
0.0
 10
14.25066988983604
 20
7.722469470435513
 30
0.0
 10
14.24608495221176
 20
7.740813931024263
 30
0.0
 10
14.24608495221176
 20
7.740813931024263
 30
0.0
 10
14.18329001255054
 20
8.00045839693562
 30
0.0
 10
14.18329001255054
 20
8.00045839693562
 30
0.0
 10
14.17799856120365
 20
8.021977459184411
 30
0.0
 10
14.19105089757526
 20
8.043849778294486
 30
0.0
 10
14.21292321668535
 20
8.049141229641371
 30
0.0
 10
14.23444295180435
 20
8.054080096997161
 30
0.0
 10
14.25631527091444
 20
8.041027760625503
 30
0.0
 10
14.26160672226125
 20
8.019508025506508
 30
0.0
 10
14.26160672226125
 20
8.019508025506508
 30
0.0
 10
14.32440031618205
 20
7.759863559595133
 30
0.0
 10
14.32440031618205
 20
7.759863559595133
 30
0.0
 10
14.32969311326934
 20
7.738344497346338
 30
0.0
 10
14.31628684716625
 20
7.71647217823628
 30
0.0
 10
14.29476711204725
 20
7.711180054019195
 30
0.0
 10
14.29159251038714
 20
7.710474886037053
 30
0.0
 10
14.28841790872714
 20
7.710122302045987
 30
0.0
 10
14.28524330706714
 20
7.710122302045987
 30
0.0
  0
SPLINE
  5
4AE
330
1F
100
AcDbEntity
  8
Livello 1
370
     0
100
AcDbSpline
210
0.0
220
0.0
230
1.0
 70
     9
 71
     3
 72
    26
 73
    22
 74
     0
 42
0.000000001
 43
0.0000000001
 40
0.0
 40
0.0
 40
0.0
 40
0.0
 40
1.0
 40
1.0
 40
1.0
 40
2.0
 40
2.0
 40
2.0
 40
3.0
 40
3.0
 40
3.0
 40
4.0
 40
4.0
 40
4.0
 40
5.0
 40
5.0
 40
5.0
 40
6.0
 40
6.0
 40
6.0
 40
7.0
 40
7.0
 40
7.0
 40
7.0
 10
14.43284546250375
 20
7.100980973598552
 30
0.0
 10
14.41485291303584
 20
7.100980973598552
 30
0.0
 10
14.39827204527265
 20
7.113328141988077
 30
0.0
 10
14.39368710764834
 20
7.131672602576833
 30
0.0
 10
14.39368710764834
 20
7.131672602576833
 30
0.0
 10
14.27726979505534
 20
7.611097338691834
 30
0.0
 10
14.27726979505534
 20
7.611097338691834
 30
0.0
 10
14.27197834370844
 20
7.632969657801901
 30
0.0
 10
14.28538326407126
 20
7.654488720050692
 30
0.0
 10
14.30690299919026
 20
7.659780844267763
 30
0.0
 10
14.32842273430926
 20
7.665072295614643
 30
0.0
 10
14.35029505341924
 20
7.651314118390643
 30
0.0
 10
14.35558650476614
 20
7.629794383271651
 30
0.0
 10
14.35558650476614
 20
7.629794383271651
 30
0.0
 10
14.47200247161865
 20
7.151074815138769
 30
0.0
 10
14.47200247161865
 20
7.151074815138769
 30
0.0
 10
14.47729526870593
 20
7.129555752889983
 30
0.0
 10
14.46424158659394
 20
7.107683433779925
 30
0.0
 10
14.44272319721534
 20
7.102038725571767
 30
0.0
 10
14.43954724981485
 20
7.101333557589626
 30
0.0
 10
14.43602006416375
 20
7.100980973598552
 30
0.0
 10
14.43284546250375
 20
7.100980973598552
 30
0.0
  0
SPLINE
  5
4AF
330
1F
100
AcDbEntity
  8
Livello 1
370
     0
100
AcDbSpline
210
0.0
220
0.0
230
1.0
 70
     9
 71
     3
 72
    26
 73
    22
 74
     0
 42
0.000000001
 43
0.0000000001
 40
0.0
 40
0.0
 40
0.0
 40
0.0
 40
1.0
 40
1.0
 40
1.0
 40
2.0
 40
2.0
 40
2.0
 40
3.0
 40
3.0
 40
3.0
 40
4.0
 40
4.0
 40
4.0
 40
5.0
 40
5.0
 40
5.0
 40
6.0
 40
6.0
 40
6.0
 40
7.0
 40
7.0
 40
7.0
 40
7.0
 10
14.24008833288275
 20
6.908399463102873
 30
0.0
 10
14.22950408444855
 20
6.908399463102873
 30
0.0
 10
14.21927376574584
 20
6.91263248960633
 30
0.0
 10
14.21116029673006
 20
6.920393374631125
 30
0.0
 10
14.19563718094005
 20
6.936621658403232
 30
0.0
 10
14.19599111067156
 20
6.962021163164415
 30
0.0
 10
14.21186546471213
 20
6.977543606084182
 30
0.0
 10
14.21186546471213
 20
6.977543606084182
 30
0.0
 10
14.40483522132015
 20
7.165573822466142
 30
0.0
 10
14.40483522132015
 20
7.165573822466142
 30
0.0
 10
14.42070957536074
 20
7.181448849376983
 30
0.0
 10
14.44611042586234
 20
7.180743681394844
 30
0.0
 10
14.46163219591193
 20
7.165221238475062
 30
0.0
 10
14.47715396596143
 20
7.148993627573162
 30
0.0
 10
14.47680138197035
 20
7.123593449941792
 30
0.0
 10
14.46092702792975
 20
7.108071679892219
 30
0.0
 10
14.46092702792975
 20
7.108071679892219
 30
0.0
 10
14.26830985531283
 20
6.920040790640057
 30
0.0
 10
14.26830985531283
 20
6.920040790640057
 30
0.0
 10
14.26054897028804
 20
6.912279905615264
 30
0.0
 10
14.25031865158534
 20
6.908399463102873
 30
0.0
 10
14.24008833288275
 20
6.908399463102873
 30
0.0
  0
SPLINE
  5
4B0
330
1F
100
AcDbEntity
  8
Livello 1
370
     0
100
AcDbSpline
210
0.0
220
0.0
230
1.0
 70
     9
 71
     3
 72
    38
 73
    34
 74
     0
 42
0.000000001
 43
0.0000000001
 40
0.0
 40
0.0
 40
0.0
 40
0.0
 40
1.0
 40
1.0
 40
1.0
 40
2.0
 40
2.0
 40
2.0
 40
3.0
 40
3.0
 40
3.0
 40
4.0
 40
4.0
 40
4.0
 40
5.0
 40
5.0
 40
5.0
 40
6.0
 40
6.0
 40
6.0
 40
7.0
 40
7.0
 40
7.0
 40
8.0
 40
8.0
 40
8.0
 40
9.0
 40
9.0
 40
9.0
 40
10.0
 40
10.0
 40
10.0
 40
11.0
 40
11.0
 40
11.0
 40
11.0
 10
13.90928784205626
 20
6.254632036457642
 30
0.0
 10
13.89094270859735
 20
6.254632036457642
 30
0.0
 10
13.87436184083414
 20
6.267331788838241
 30
0.0
 10
13.87012948720084
 20
6.28602883341805
 30
0.0
 10
13.87012948720084
 20
6.28602883341805
 30
0.0
 10
13.81121431718185
 20
6.545673299329428
 30
0.0
 10
13.81121431718185
 20
6.545673299329428
 30
0.0
 10
13.80839229951284
 20
6.558726308571287
 30
0.0
 10
13.81227341489543
 20
6.572484485795293
 30
0.0
 10
13.82144598162495
 20
6.582362220506922
 30
0.0
 10
13.82144598162495
 20
6.582362220506922
 30
0.0
 10
13.92445702811476
 20
6.689959550361471
 30
0.0
 10
13.92445702811476
 20
6.689959550361471
 30
0.0
 10
13.92445702811476
 20
6.689959550361471
 30
0.0
 10
14.11777936871385
 20
6.883281890960518
 30
0.0
 10
14.11777936871385
 20
6.883281890960518
 30
0.0
 10
14.13365372275443
 20
6.898803661010069
 30
0.0
 10
14.15905322751564
 20
6.898803661010069
 30
0.0
 10
14.17492892729663
 20
6.883281890960518
 30
0.0
 10
14.19080328133725
 20
6.867406864049677
 30
0.0
 10
14.19080328133725
 20
6.842006686418272
 30
0.0
 10
14.17492892729663
 20
6.826131659507452
 30
0.0
 10
14.17492892729663
 20
6.826131659507452
 30
0.0
 10
13.89482382397995
 20
6.542145440808112
 30
0.0
 10
13.89482382397995
 20
6.542145440808112
 30
0.0
 10
13.89482382397995
 20
6.542145440808112
 30
0.0
 10
13.94844485117126
 20
6.303668126024652
 30
0.0
 10
13.94844485117126
 20
6.303668126024652
 30
0.0
 10
13.95338506426744
 20
6.282148390905652
 30
0.0
 10
13.93997879816434
 20
6.260628655786652
 30
0.0
 10
13.91810647905426
 20
6.255689788430856
 30
0.0
 10
13.91528446138524
 20
6.254984620448708
 30
0.0
 10
13.91210985972525
 20
6.254632036457642
 30
0.0
 10
13.90928784205626
 20
6.254632036457642
 30
0.0
  0
SPLINE
  5
4B1
330
1F
100
AcDbEntity
  8
Livello 1
370
     0
100
AcDbSpline
210
0.0
220
0.0
230
1.0
 70
     9
 71
     3
 72
    26
 73
    22
 74
     0
 42
0.000000001
 43
0.0000000001
 40
0.0
 40
0.0
 40
0.0
 40
0.0
 40
1.0
 40
1.0
 40
1.0
 40
2.0
 40
2.0
 40
2.0
 40
3.0
 40
3.0
 40
3.0
 40
4.0
 40
4.0
 40
4.0
 40
5.0
 40
5.0
 40
5.0
 40
6.0
 40
6.0
 40
6.0
 40
7.0
 40
7.0
 40
7.0
 40
7.0
 10
14.00270375932344
 20
5.864847742850542
 30
0.0
 10
13.98435862586454
 20
5.864847742850542
 30
0.0
 10
13.96813034209243
 20
5.877194911240039
 30
0.0
 10
13.96354540446805
 20
5.895891955819855
 30
0.0
 10
13.96354540446805
 20
5.895891955819855
 30
0.0
 10
13.90110304879795
 20
6.15553642173124
 30
0.0
 10
13.90110304879795
 20
6.15553642173124
 30
0.0
 10
13.89616418144214
 20
6.177055483980026
 30
0.0
 10
13.90921651781376
 20
6.198927803090086
 30
0.0
 10
13.93108883692385
 20
6.20421992730717
 30
0.0
 10
13.95260857204285
 20
6.2088055378017
 30
0.0
 10
13.97448089115293
 20
6.19610578542111
 30
0.0
 10
13.97941975850875
 20
6.17458605030211
 30
0.0
 10
13.97941975850875
 20
6.17458605030211
 30
0.0
 10
14.04186076843842
 20
5.914589000399672
 30
0.0
 10
14.04186076843842
 20
5.914589000399672
 30
0.0
 10
14.04715356552576
 20
5.89306993815088
 30
0.0
 10
14.03374729942264
 20
5.87119761904082
 30
0.0
 10
14.01222756430364
 20
5.865905494823721
 30
0.0
 10
14.00905296264354
 20
5.865200326841581
 30
0.0
 10
14.00587836098354
 20
5.864847742850542
 30
0.0
 10
14.00270375932344
 20
5.864847742850542
 30
0.0
  0
SPLINE
  5
4B2
330
1F
100
AcDbEntity
  8
Livello 1
370
     0
100
AcDbSpline
210
0.0
220
0.0
230
1.0
 70
     9
 71
     3
 72
    32
 73
    28
 74
     0
 42
0.000000001
 43
0.0000000001
 40
0.0
 40
0.0
 40
0.0
 40
0.0
 40
1.0
 40
1.0
 40
1.0
 40
2.0
 40
2.0
 40
2.0
 40
3.0
 40
3.0
 40
3.0
 40
4.0
 40
4.0
 40
4.0
 40
5.0
 40
5.0
 40
5.0
 40
6.0
 40
6.0
 40
6.0
 40
7.0
 40
7.0
 40
7.0
 40
8.0
 40
8.0
 40
8.0
 40
9.0
 40
9.0
 40
9.0
 40
9.0
 10
14.17852878293064
 20
5.167829228285646
 30
0.0
 10
14.16053623346275
 20
5.167829228285646
 30
0.0
 10
14.14466187942214
 20
5.179823476248976
 30
0.0
 10
14.13972301206634
 20
5.197815016411553
 30
0.0
 10
14.13972301206634
 20
5.197815016411553
 30
0.0
 10
14.05823035495504
 20
5.500851200116898
 30
0.0
 10
14.05823035495504
 20
5.500851200116898
 30
0.0
 10
14.05823035495504
 20
5.500851200116898
 30
0.0
 10
13.99508417704324
 20
5.761200834010394
 30
0.0
 10
13.99508417704324
 20
5.761200834010394
 30
0.0
 10
13.98979137995593
 20
5.783073153120476
 30
0.0
 10
14.00319764605905
 20
5.804945472230535
 30
0.0
 10
14.02471738117805
 20
5.810236923577427
 30
0.0
 10
14.04658970028814
 20
5.814823206942165
 30
0.0
 10
14.06810808966665
 20
5.802123454561552
 30
0.0
 10
14.07340088675406
 20
5.780603719442551
 30
0.0
 10
14.07340088675406
 20
5.780603719442551
 30
0.0
 10
14.13654706466585
 20
5.520606669540129
 30
0.0
 10
14.13654706466585
 20
5.520606669540129
 30
0.0
 10
14.13654706466585
 20
5.520606669540129
 30
0.0
 10
14.21733320805455
 20
5.218628910678211
 30
0.0
 10
14.21733320805455
 20
5.218628910678211
 30
0.0
 10
14.22333117312395
 20
5.197109511994312
 30
0.0
 10
14.21063142074344
 20
5.174884608893171
 30
0.0
 10
14.18911168562444
 20
5.169240237120127
 30
0.0
 10
14.18558315423284
 20
5.168181812276714
 30
0.0
 10
14.18205596858175
 20
5.167829228285646
 30
0.0
 10
14.17852878293064
 20
5.167829228285646
 30
0.0
  0
SPLINE
  5
4B3
330
1F
100
AcDbEntity
  8
Livello 1
370
     0
100
AcDbSpline
210
0.0
220
0.0
230
1.0
 70
     9
 71
     3
 72
    26
 73
    22
 74
     0
 42
0.000000001
 43
0.0000000001
 40
0.0
 40
0.0
 40
0.0
 40
0.0
 40
1.0
 40
1.0
 40
1.0
 40
2.0
 40
2.0
 40
2.0
 40
3.0
 40
3.0
 40
3.0
 40
4.0
 40
4.0
 40
4.0
 40
5.0
 40
5.0
 40
5.0
 40
6.0
 40
6.0
 40
6.0
 40
7.0
 40
7.0
 40
7.0
 40
7.0
 10
16.14385348099344
 20
10.69268209350108
 30
0.0
 10
16.12550834753456
 20
10.69268209350108
 30
0.0
 10
16.10928006376234
 20
10.70502926189059
 30
0.0
 10
16.10469512613805
 20
10.72337372247933
 30
0.0
 10
16.10469512613805
 20
10.72337372247933
 30
0.0
 10
16.04190018647684
 20
10.98301818839072
 30
0.0
 10
16.04190018647684
 20
10.98301818839072
 30
0.0
 10
16.03660873512994
 20
11.00453657776928
 30
0.0
 10
16.04966107150164
 20
11.02640889687936
 30
0.0
 10
16.07153339061176
 20
11.03170034822623
 30
0.0
 10
16.09305312573065
 20
11.03663921558204
 30
0.0
 10
16.11492544484075
 20
11.02358687921038
 30
0.0
 10
16.12021689618764
 20
11.00206781696159
 30
0.0
 10
16.12021689618764
 20
11.00206781696159
 30
0.0
 10
16.18301049010844
 20
10.74242335105022
 30
0.0
 10
16.18301049010844
 20
10.74242335105022
 30
0.0
 10
16.18830328719575
 20
10.72090428880144
 30
0.0
 10
16.17489702109255
 20
10.69903196969137
 30
0.0
 10
16.15337728597355
 20
10.69373984547427
 30
0.0
 10
16.15020268431354
 20
10.69303467749215
 30
0.0
 10
16.14702808265356
 20
10.69268209350108
 30
0.0
 10
16.14385348099344
 20
10.69268209350108
 30
0.0
  0
SPLINE
  5
4B4
330
1F
100
AcDbEntity
  8
Livello 1
370
     0
100
AcDbSpline
210
0.0
220
0.0
230
1.0
 70
     9
 71
     3
 72
    35
 73
    31
 74
     0
 42
0.000000001
 43
0.0000000001
 40
0.0
 40
0.0
 40
0.0
 40
0.0
 40
1.0
 40
1.0
 40
1.0
 40
2.0
 40
2.0
 40
2.0
 40
3.0
 40
3.0
 40
3.0
 40
4.0
 40
4.0
 40
4.0
 40
5.0
 40
5.0
 40
5.0
 40
6.0
 40
6.0
 40
6.0
 40
7.0
 40
7.0
 40
7.0
 40
8.0
 40
8.0
 40
8.0
 40
9.0
 40
9.0
 40
9.0
 40
10.0
 40
10.0
 40
10.0
 40
10.0
 10
16.09001982681514
 20
9.931352326252307
 30
0.0
 10
16.07943557838094
 20
9.931352326252307
 30
0.0
 10
16.06920525967834
 20
9.935585352755772
 30
0.0
 10
16.06109179066243
 20
9.943346237780538
 30
0.0
 10
16.04556867487243
 20
9.959574521552667
 30
0.0
 10
16.04592260460393
 20
9.984974026313835
 30
0.0
 10
16.06179695864456
 20
10.00049646923361
 30
0.0
 10
16.06179695864456
 20
10.00049646923361
 30
0.0
 10
16.23818584748935
 20
10.17265233157494
 30
0.0
 10
16.23818584748935
 20
10.17265233157494
 30
0.0
 10
16.23818584748935
 20
10.17265233157494
 30
0.0
 10
16.13587996898175
 20
10.58928280089895
 30
0.0
 10
16.13587996898175
 20
10.58928280089895
 30
0.0
 10
16.13058851763485
 20
10.61080186314774
 30
0.0
 10
16.14364085400643
 20
10.6326741822578
 30
0.0
 10
16.16551317311655
 20
10.63796563360468
 30
0.0
 10
16.18738549222664
 20
10.64255191696941
 30
0.0
 10
16.20890522734564
 20
10.62985216458882
 30
0.0
 10
16.21419667869243
 20
10.60797984547876
 30
0.0
 10
16.21419667869243
 20
10.60797984547876
 30
0.0
 10
16.32179400854706
 20
10.16982964103575
 30
0.0
 10
16.32179400854706
 20
10.16982964103575
 30
0.0
 10
16.32532253993853
 20
10.15571887982069
 30
0.0
 10
16.32108884056494
 20
10.14125486174434
 30
0.0
 10
16.31085852186226
 20
10.13102454304165
 30
0.0
 10
16.31085852186226
 20
10.13102454304165
 30
0.0
 10
16.11824134924535
 20
9.942993653789471
 30
0.0
 10
16.11824134924535
 20
9.942993653789471
 30
0.0
 10
16.11048046422055
 20
9.935232768764693
 30
0.0
 10
16.10025014551785
 20
9.931352326252307
 30
0.0
 10
16.09001982681514
 20
9.931352326252307
 30
0.0
  0
SPLINE
  5
4B5
330
1F
100
AcDbEntity
  8
Livello 1
370
     0
100
AcDbSpline
210
0.0
220
0.0
230
1.0
 70
     9
 71
     3
 72
    26
 73
    22
 74
     0
 42
0.000000001
 43
0.0000000001
 40
0.0
 40
0.0
 40
0.0
 40
0.0
 40
1.0
 40
1.0
 40
1.0
 40
2.0
 40
2.0
 40
2.0
 40
3.0
 40
3.0
 40
3.0
 40
4.0
 40
4.0
 40
4.0
 40
5.0
 40
5.0
 40
5.0
 40
6.0
 40
6.0
 40
6.0
 40
7.0
 40
7.0
 40
7.0
 40
7.0
 10
15.70020054395705
 20
9.541674346138675
 30
0.0
 10
15.68996887951394
 20
9.541674346138675
 30
0.0
 10
15.67973856081124
 20
9.545554788651068
 30
0.0
 10
15.67162509179535
 20
9.55331567367584
 30
0.0
 10
15.65610332174584
 20
9.569190700586688
 30
0.0
 10
15.65610332174584
 20
9.594943462209144
 30
0.0
 10
15.67162509179535
 20
9.610465905128926
 30
0.0
 10
15.67162509179535
 20
9.610465905128926
 30
0.0
 10
15.96760589489314
 20
9.906093451365428
 30
0.0
 10
15.96760589489314
 20
9.906093451365428
 30
0.0
 10
15.98312766494276
 20
9.921968478276266
 30
0.0
 10
16.00888109943544
 20
9.921968478276266
 30
0.0
 10
16.02440286948493
 20
9.906093451365428
 30
0.0
 10
16.04027722352563
 20
9.89021842445458
 30
0.0
 10
16.04027722352563
 20
9.864818246823213
 30
0.0
 10
16.02440286948493
 20
9.848943219912372
 30
0.0
 10
16.02440286948493
 20
9.848943219912372
 30
0.0
 10
15.72877465037824
 20
9.55331567367584
 30
0.0
 10
15.72877465037824
 20
9.55331567367584
 30
0.0
 10
15.72066118136234
 20
9.545554788651068
 30
0.0
 10
15.71043086265976
 20
9.541674346138675
 30
0.0
 10
15.70020054395705
 20
9.541674346138675
 30
0.0
  0
SPLINE
  5
4B6
330
1F
100
AcDbEntity
  8
Livello 1
370
     0
100
AcDbSpline
210
0.0
220
0.0
230
1.0
 70
     9
 71
     3
 72
    26
 73
    22
 74
     0
 42
0.000000001
 43
0.0000000001
 40
0.0
 40
0.0
 40
0.0
 40
0.0
 40
1.0
 40
1.0
 40
1.0
 40
2.0
 40
2.0
 40
2.0
 40
3.0
 40
3.0
 40
3.0
 40
4.0
 40
4.0
 40
4.0
 40
5.0
 40
5.0
 40
5.0
 40
6.0
 40
6.0
 40
6.0
 40
7.0
 40
7.0
 40
7.0
 40
7.0
 10
15.75830288676003
 20
9.277584899607083
 30
0.0
 10
15.73995775330104
 20
9.277584899607083
 30
0.0
 10
15.72302430154684
 20
9.290284651987654
 30
0.0
 10
15.71914453190463
 20
9.308981696567483
 30
0.0
 10
15.71914453190463
 20
9.308981696567483
 30
0.0
 10
15.66093587560813
 20
9.568626162478855
 30
0.0
 10
15.66093587560813
 20
9.568626162478855
 30
0.0
 10
15.65599700825235
 20
9.590498481588914
 30
0.0
 10
15.66975451260615
 20
9.612018216707916
 30
0.0
 10
15.69127424772515
 20
9.616957084063725
 30
0.0
 10
15.71349915082626
 20
9.621190110567177
 30
0.0
 10
15.73466630195415
 20
9.607784517334238
 30
0.0
 10
15.73960516931005
 20
9.586265455085467
 30
0.0
 10
15.73960516931005
 20
9.586265455085467
 30
0.0
 10
15.79745989587493
 20
9.326620989174074
 30
0.0
 10
15.79745989587493
 20
9.326620989174074
 30
0.0
 10
15.80240010897125
 20
9.305101254055079
 30
0.0
 10
15.78899384286805
 20
9.283228934945007
 30
0.0
 10
15.76712152375805
 20
9.278642651580275
 30
0.0
 10
15.76429950608906
 20
9.277937483598122
 30
0.0
 10
15.76112490442905
 20
9.277584899607083
 30
0.0
 10
15.75830288676003
 20
9.277584899607083
 30
0.0
  0
SPLINE
  5
4B7
330
1F
100
AcDbEntity
  8
Livello 1
370
     0
100
AcDbSpline
210
0.0
220
0.0
230
1.0
 70
     9
 71
     3
 72
    26
 73
    22
 74
     0
 42
0.000000001
 43
0.0000000001
 40
0.0
 40
0.0
 40
0.0
 40
0.0
 40
1.0
 40
1.0
 40
1.0
 40
2.0
 40
2.0
 40
2.0
 40
3.0
 40
3.0
 40
3.0
 40
4.0
 40
4.0
 40
4.0
 40
5.0
 40
5.0
 40
5.0
 40
6.0
 40
6.0
 40
6.0
 40
7.0
 40
7.0
 40
7.0
 40
7.0
 10
15.85231765851594
 20
8.887976897995477
 30
0.0
 10
15.83397252505693
 20
8.887976897995477
 30
0.0
 10
15.81774424128484
 20
8.900324066385008
 30
0.0
 10
15.81315930366054
 20
8.91902111096482
 30
0.0
 10
15.81315930366054
 20
8.91902111096482
 30
0.0
 10
15.75071694799034
 20
9.178312992885132
 30
0.0
 10
15.75071694799034
 20
9.178312992885132
 30
0.0
 10
15.74577808063455
 20
9.19983205513391
 30
0.0
 10
15.75883041700615
 20
9.221704374243966
 30
0.0
 10
15.78070273611625
 20
9.226995825590867
 30
0.0
 10
15.80222247123525
 20
9.231934692946651
 30
0.0
 10
15.82409479034534
 20
9.218882356574999
 30
0.0
 10
15.82903365770114
 20
9.197362621455999
 30
0.0
 10
15.82903365770114
 20
9.197362621455999
 30
0.0
 10
15.89147466763084
 20
8.937718155544629
 30
0.0
 10
15.89147466763084
 20
8.937718155544629
 30
0.0
 10
15.89676746471815
 20
8.91619909329583
 30
0.0
 10
15.88336119861505
 20
8.894326774185799
 30
0.0
 10
15.86184146349605
 20
8.889034649968685
 30
0.0
 10
15.85866686183593
 20
8.888329481986557
 30
0.0
 10
15.85549226017593
 20
8.887976897995477
 30
0.0
 10
15.85231765851594
 20
8.887976897995477
 30
0.0
  0
SPLINE
  5
4B8
330
1F
100
AcDbEntity
  8
Livello 1
370
     0
100
AcDbSpline
210
0.0
220
0.0
230
1.0
 70
     9
 71
     3
 72
    26
 73
    22
 74
     0
 42
0.000000001
 43
0.0000000001
 40
0.0
 40
0.0
 40
0.0
 40
0.0
 40
1.0
 40
1.0
 40
1.0
 40
2.0
 40
2.0
 40
2.0
 40
3.0
 40
3.0
 40
3.0
 40
4.0
 40
4.0
 40
4.0
 40
5.0
 40
5.0
 40
5.0
 40
6.0
 40
6.0
 40
6.0
 40
7.0
 40
7.0
 40
7.0
 40
7.0
 10
15.94689764124985
 20
8.493818275140403
 30
0.0
 10
15.92855250779085
 20
8.493818275140403
 30
0.0
 10
15.91232422401876
 20
8.506165443529937
 30
0.0
 10
15.90773928639444
 20
8.524509904118659
 30
0.0
 10
15.90773928639444
 20
8.524509904118659
 30
0.0
 10
15.84494434673326
 20
8.784506954021118
 30
0.0
 10
15.84494434673326
 20
8.784506954021118
 30
0.0
 10
15.83965289538635
 20
8.806026016269882
 30
0.0
 10
15.85270523175793
 20
8.827898335379972
 30
0.0
 10
15.87457755086805
 20
8.833190459597041
 30
0.0
 10
15.89609728598705
 20
8.838129326952874
 30
0.0
 10
15.91796960509714
 20
8.82507631771098
 30
0.0
 10
15.92326105644393
 20
8.803556582591987
 30
0.0
 10
15.92326105644393
 20
8.803556582591987
 30
0.0
 10
15.98605465036476
 20
8.543559532689542
 30
0.0
 10
15.98605465036476
 20
8.543559532689542
 30
0.0
 10
15.99134744745204
 20
8.522040470440757
 30
0.0
 10
15.97794118134885
 20
8.50016815133069
 30
0.0
 10
15.95642144622992
 20
8.494876027113605
 30
0.0
 10
15.95324684456995
 20
8.494170859131477
 30
0.0
 10
15.95007224290985
 20
8.493818275140403
 30
0.0
 10
15.94689764124985
 20
8.493818275140403
 30
0.0
  0
SPLINE
  5
4B9
330
1F
100
AcDbEntity
  8
Livello 1
370
     0
100
AcDbSpline
210
0.0
220
0.0
230
1.0
 70
     9
 71
     3
 72
    26
 73
    22
 74
     0
 42
0.000000001
 43
0.0000000001
 40
0.0
 40
0.0
 40
0.0
 40
0.0
 40
1.0
 40
1.0
 40
1.0
 40
2.0
 40
2.0
 40
2.0
 40
3.0
 40
3.0
 40
3.0
 40
4.0
 40
4.0
 40
4.0
 40
5.0
 40
5.0
 40
5.0
 40
6.0
 40
6.0
 40
6.0
 40
7.0
 40
7.0
 40
7.0
 40
7.0
 10
16.04031355851705
 20
8.104280924901082
 30
0.0
 10
16.02196842505806
 20
8.104280924901082
 30
0.0
 10
16.00574014128592
 20
8.116628093290598
 30
0.0
 10
16.00115520366165
 20
8.134972553879336
 30
0.0
 10
16.00115520366165
 20
8.134972553879336
 30
0.0
 10
15.93871284799155
 20
8.394617019790715
 30
0.0
 10
15.93871284799155
 20
8.394617019790715
 30
0.0
 10
15.93342139664464
 20
8.416136082039512
 30
0.0
 10
15.94682631700735
 20
8.438008401149559
 30
0.0
 10
15.96834605212635
 20
8.44329985249643
 30
0.0
 10
15.98986578724535
 20
8.448238719852263
 30
0.0
 10
16.01209069034644
 20
8.435186383480591
 30
0.0
 10
16.01702955770226
 20
8.413666648361612
 30
0.0
 10
16.01702955770226
 20
8.413666648361612
 30
0.0
 10
16.07947056763204
 20
8.154022182450226
 30
0.0
 10
16.07947056763204
 20
8.154022182450226
 30
0.0
 10
16.08476336471935
 20
8.132503120201441
 30
0.0
 10
16.07135709861613
 20
8.110630801091359
 30
0.0
 10
16.04983736349713
 20
8.105338676874282
 30
0.0
 10
16.04666276183714
 20
8.104633508892142
 30
0.0
 10
16.04348816017706
 20
8.104280924901082
 30
0.0
 10
16.04031355851705
 20
8.104280924901082
 30
0.0
  0
SPLINE
  5
4BA
330
1F
100
AcDbEntity
  8
Livello 1
370
     0
100
AcDbSpline
210
0.0
220
0.0
230
1.0
 70
     9
 71
     3
 72
    26
 73
    22
 74
     0
 42
0.000000001
 43
0.0000000001
 40
0.0
 40
0.0
 40
0.0
 40
0.0
 40
1.0
 40
1.0
 40
1.0
 40
2.0
 40
2.0
 40
2.0
 40
3.0
 40
3.0
 40
3.0
 40
4.0
 40
4.0
 40
4.0
 40
5.0
 40
5.0
 40
5.0
 40
6.0
 40
6.0
 40
6.0
 40
7.0
 40
7.0
 40
7.0
 40
7.0
 10
16.13485720625955
 20
7.710122302045987
 30
0.0
 10
16.11686465679165
 20
7.710122302045987
 30
0.0
 10
16.10028378902844
 20
7.722469470435513
 30
0.0
 10
16.09569885140415
 20
7.740813931024263
 30
0.0
 10
16.09569885140415
 20
7.740813931024263
 30
0.0
 10
16.03290391174293
 20
8.00045839693562
 30
0.0
 10
16.03290391174293
 20
8.00045839693562
 30
0.0
 10
16.02761246039605
 20
8.021977459184411
 30
0.0
 10
16.04066479676766
 20
8.043849778294486
 30
0.0
 10
16.06253711587776
 20
8.049141229641371
 30
0.0
 10
16.08405685099676
 20
8.054080096997161
 30
0.0
 10
16.10592917010684
 20
8.041027760625503
 30
0.0
 10
16.11122062145375
 20
8.019508025506508
 30
0.0
 10
16.11122062145375
 20
8.019508025506508
 30
0.0
 10
16.17401421537444
 20
7.759863559595133
 30
0.0
 10
16.17401421537444
 20
7.759863559595133
 30
0.0
 10
16.17930701246175
 20
7.738344497346338
 30
0.0
 10
16.16590074635864
 20
7.71647217823628
 30
0.0
 10
16.14438101123964
 20
7.711180054019195
 30
0.0
 10
16.14120640957963
 20
7.710474886037053
 30
0.0
 10
16.13803180791956
 20
7.710122302045987
 30
0.0
 10
16.13485720625955
 20
7.710122302045987
 30
0.0
  0
SPLINE
  5
4BB
330
1F
100
AcDbEntity
  8
Livello 1
370
     0
100
AcDbSpline
210
0.0
220
0.0
230
1.0
 70
     9
 71
     3
 72
    26
 73
    22
 74
     0
 42
0.000000001
 43
0.0000000001
 40
0.0
 40
0.0
 40
0.0
 40
0.0
 40
1.0
 40
1.0
 40
1.0
 40
2.0
 40
2.0
 40
2.0
 40
3.0
 40
3.0
 40
3.0
 40
4.0
 40
4.0
 40
4.0
 40
5.0
 40
5.0
 40
5.0
 40
6.0
 40
6.0
 40
6.0
 40
7.0
 40
7.0
 40
7.0
 40
7.0
 10
16.28277695643614
 20
7.100980973598552
 30
0.0
 10
16.26478440696824
 20
7.100980973598552
 30
0.0
 10
16.24820353920505
 20
7.113328141988077
 30
0.0
 10
16.24361860158075
 20
7.131319345715539
 30
0.0
 10
16.24361860158075
 20
7.131319345715539
 30
0.0
 10
16.12684870499676
 20
7.611097338691834
 30
0.0
 10
16.12684870499676
 20
7.611097338691834
 30
0.0
 10
16.12155725364984
 20
7.632969657801901
 30
0.0
 10
16.13496217401254
 20
7.654488720050692
 30
0.0
 10
16.15648190913154
 20
7.659780844267763
 30
0.0
 10
16.17800164425054
 20
7.665072295614643
 30
0.0
 10
16.19987396336064
 20
7.651314118390643
 30
0.0
 10
16.20516541470754
 20
7.629794383271651
 30
0.0
 10
16.20516541470754
 20
7.629794383271651
 30
0.0
 10
16.32193396555114
 20
7.151074815138769
 30
0.0
 10
16.32193396555114
 20
7.151074815138769
 30
0.0
 10
16.32722676263843
 20
7.129555752889983
 30
0.0
 10
16.31417308052634
 20
7.107683433779925
 30
0.0
 10
16.29265469114774
 20
7.102038725571767
 30
0.0
 10
16.28947874374734
 20
7.101333557589626
 30
0.0
 10
16.28595155809626
 20
7.100980973598552
 30
0.0
 10
16.28277695643614
 20
7.100980973598552
 30
0.0
  0
SPLINE
  5
4BC
330
1F
100
AcDbEntity
  8
Livello 1
370
     0
100
AcDbSpline
210
0.0
220
0.0
230
1.0
 70
     9
 71
     3
 72
    26
 73
    22
 74
     0
 42
0.000000001
 43
0.0000000001
 40
0.0
 40
0.0
 40
0.0
 40
0.0
 40
1.0
 40
1.0
 40
1.0
 40
2.0
 40
2.0
 40
2.0
 40
3.0
 40
3.0
 40
3.0
 40
4.0
 40
4.0
 40
4.0
 40
5.0
 40
5.0
 40
5.0
 40
6.0
 40
6.0
 40
6.0
 40
7.0
 40
7.0
 40
7.0
 40
7.0
 10
16.09001982681514
 20
6.908399463102873
 30
0.0
 10
16.07943557838094
 20
6.908399463102873
 30
0.0
 10
16.06920525967834
 20
6.91263248960633
 30
0.0
 10
16.06109179066243
 20
6.920393374631125
 30
0.0
 10
16.04556867487243
 20
6.936621658403232
 30
0.0
 10
16.04592260460393
 20
6.962021163164415
 30
0.0
 10
16.06179695864456
 20
6.977543606084182
 30
0.0
 10
16.06179695864456
 20
6.977543606084182
 30
0.0
 10
16.25476671525254
 20
7.165573822466142
 30
0.0
 10
16.25476671525254
 20
7.165573822466142
 30
0.0
 10
16.27064106929324
 20
7.181448849376983
 30
0.0
 10
16.29604191979484
 20
7.180743681394844
 30
0.0
 10
16.31156368984433
 20
7.165221238475062
 30
0.0
 10
16.32708545989395
 20
7.148993627573162
 30
0.0
 10
16.32673287590282
 20
7.123593449941792
 30
0.0
 10
16.31085852186226
 20
7.108071679892219
 30
0.0
 10
16.31085852186226
 20
7.108071679892219
 30
0.0
 10
16.11824134924535
 20
6.920040790640057
 30
0.0
 10
16.11824134924535
 20
6.920040790640057
 30
0.0
 10
16.11048046422055
 20
6.912279905615264
 30
0.0
 10
16.10025014551785
 20
6.908399463102873
 30
0.0
 10
16.09001982681514
 20
6.908399463102873
 30
0.0
  0
SPLINE
  5
4BD
330
1F
100
AcDbEntity
  8
Livello 1
370
     0
100
AcDbSpline
210
0.0
220
0.0
230
1.0
 70
     9
 71
     3
 72
    38
 73
    34
 74
     0
 42
0.000000001
 43
0.0000000001
 40
0.0
 40
0.0
 40
0.0
 40
0.0
 40
1.0
 40
1.0
 40
1.0
 40
2.0
 40
2.0
 40
2.0
 40
3.0
 40
3.0
 40
3.0
 40
4.0
 40
4.0
 40
4.0
 40
5.0
 40
5.0
 40
5.0
 40
6.0
 40
6.0
 40
6.0
 40
7.0
 40
7.0
 40
7.0
 40
8.0
 40
8.0
 40
8.0
 40
9.0
 40
9.0
 40
9.0
 40
10.0
 40
10.0
 40
10.0
 40
11.0
 40
11.0
 40
11.0
 40
11.0
 10
15.75830288676003
 20
6.254632036457642
 30
0.0
 10
15.73995775330104
 20
6.254632036457642
 30
0.0
 10
15.72302430154684
 20
6.267331788838241
 30
0.0
 10
15.71914453190463
 20
6.28602883341805
 30
0.0
 10
15.71914453190463
 20
6.28602883341805
 30
0.0
 10
15.66093587560813
 20
6.545673299329428
 30
0.0
 10
15.66093587560813
 20
6.545673299329428
 30
0.0
 10
15.65811385793914
 20
6.558726308571287
 30
0.0
 10
15.66164104359025
 20
6.572484485795293
 30
0.0
 10
15.67116619431085
 20
6.582362220506922
 30
0.0
 10
15.67116619431085
 20
6.582362220506922
 30
0.0
 10
15.77417724080064
 20
6.689959550361471
 30
0.0
 10
15.77417724080064
 20
6.689959550361471
 30
0.0
 10
15.77417724080064
 20
6.689959550361471
 30
0.0
 10
15.96749958139965
 20
6.883281890960518
 30
0.0
 10
15.96749958139965
 20
6.883281890960518
 30
0.0
 10
15.98337393544034
 20
6.898803661010069
 30
0.0
 10
16.00877478594194
 20
6.898803661010069
 30
0.0
 10
16.02464913998254
 20
6.883281890960518
 30
0.0
 10
16.04017225577254
 20
6.867406864049677
 30
0.0
 10
16.04017225577254
 20
6.842006686418272
 30
0.0
 10
16.02464913998254
 20
6.826131659507452
 30
0.0
 10
16.02464913998254
 20
6.826131659507452
 30
0.0
 10
15.74419145267474
 20
6.542145440808112
 30
0.0
 10
15.74419145267474
 20
6.542145440808112
 30
0.0
 10
15.74419145267474
 20
6.542145440808112
 30
0.0
 10
15.79745989587493
 20
6.303668126024652
 30
0.0
 10
15.79745989587493
 20
6.303668126024652
 30
0.0
 10
15.80240010897125
 20
6.282148390905652
 30
0.0
 10
15.78899384286805
 20
6.260276071795587
 30
0.0
 10
15.76712152375805
 20
6.255689788430856
 30
0.0
 10
15.76429950608906
 20
6.254984620448708
 30
0.0
 10
15.76112490442905
 20
6.254632036457642
 30
0.0
 10
15.75830288676003
 20
6.254632036457642
 30
0.0
  0
SPLINE
  5
4BE
330
1F
100
AcDbEntity
  8
Livello 1
370
     0
100
AcDbSpline
210
0.0
220
0.0
230
1.0
 70
     9
 71
     3
 72
    26
 73
    22
 74
     0
 42
0.000000001
 43
0.0000000001
 40
0.0
 40
0.0
 40
0.0
 40
0.0
 40
1.0
 40
1.0
 40
1.0
 40
2.0
 40
2.0
 40
2.0
 40
3.0
 40
3.0
 40
3.0
 40
4.0
 40
4.0
 40
4.0
 40
5.0
 40
5.0
 40
5.0
 40
6.0
 40
6.0
 40
6.0
 40
7.0
 40
7.0
 40
7.0
 40
7.0
 10
15.85231765851594
 20
5.864847742850542
 30
0.0
 10
15.83397252505693
 20
5.864847742850542
 30
0.0
 10
15.81774424128484
 20
5.877194911240039
 30
0.0
 10
15.81315930366054
 20
5.895891955819855
 30
0.0
 10
15.81315930366054
 20
5.895891955819855
 30
0.0
 10
15.75071694799034
 20
6.15553642173124
 30
0.0
 10
15.75071694799034
 20
6.15553642173124
 30
0.0
 10
15.74577808063455
 20
6.177055483980026
 30
0.0
 10
15.75883041700615
 20
6.198927803090086
 30
0.0
 10
15.78070273611625
 20
6.20421992730717
 30
0.0
 10
15.80222247123525
 20
6.2088055378017
 30
0.0
 10
15.82409479034534
 20
6.19610578542111
 30
0.0
 10
15.82903365770114
 20
6.17458605030211
 30
0.0
 10
15.82903365770114
 20
6.17458605030211
 30
0.0
 10
15.89147466763084
 20
5.914589000399672
 30
0.0
 10
15.89147466763084
 20
5.914589000399672
 30
0.0
 10
15.89676746471815
 20
5.89306993815088
 30
0.0
 10
15.88336119861505
 20
5.87119761904082
 30
0.0
 10
15.86184146349605
 20
5.865905494823721
 30
0.0
 10
15.85866686183593
 20
5.865200326841581
 30
0.0
 10
15.85549226017593
 20
5.864847742850542
 30
0.0
 10
15.85231765851594
 20
5.864847742850542
 30
0.0
  0
SPLINE
  5
4BF
330
1F
100
AcDbEntity
  8
Livello 1
370
     0
100
AcDbSpline
210
0.0
220
0.0
230
1.0
 70
     9
 71
     3
 72
    32
 73
    28
 74
     0
 42
0.000000001
 43
0.0000000001
 40
0.0
 40
0.0
 40
0.0
 40
0.0
 40
1.0
 40
1.0
 40
1.0
 40
2.0
 40
2.0
 40
2.0
 40
3.0
 40
3.0
 40
3.0
 40
4.0
 40
4.0
 40
4.0
 40
5.0
 40
5.0
 40
5.0
 40
6.0
 40
6.0
 40
6.0
 40
7.0
 40
7.0
 40
7.0
 40
8.0
 40
8.0
 40
8.0
 40
9.0
 40
9.0
 40
9.0
 40
9.0
 10
16.03664372438094
 20
5.167829228285646
 30
0.0
 10
16.01935634289525
 20
5.167829228285646
 30
0.0
 10
16.00312940486354
 20
5.179117971831728
 30
0.0
 10
15.99819053750775
 20
5.196756928003238
 30
0.0
 10
15.99819053750775
 20
5.196756928003238
 30
0.0
 10
15.90823182738954
 20
5.499792775273483
 30
0.0
 10
15.90823182738954
 20
5.499792775273483
 30
0.0
 10
15.90823182738954
 20
5.499792775273483
 30
0.0
 10
15.84473171974625
 20
5.761200834010394
 30
0.0
 10
15.84473171974625
 20
5.761200834010394
 30
0.0
 10
15.83944026839934
 20
5.783073153120476
 30
0.0
 10
15.85284518876204
 20
5.804945472230535
 30
0.0
 10
15.87436492388104
 20
5.810236923577427
 30
0.0
 10
15.89588465900004
 20
5.814823206942165
 30
0.0
 10
15.91775697811013
 20
5.802123454561552
 30
0.0
 10
15.92304842945705
 20
5.780603719442551
 30
0.0
 10
15.92304842945705
 20
5.780603719442551
 30
0.0
 10
15.98619595310933
 20
5.520606669540129
 30
0.0
 10
15.98619595310933
 20
5.520606669540129
 30
0.0
 10
15.98619595310933
 20
5.520606669540129
 30
0.0
 10
16.07509556551385
 20
5.219687335521618
 30
0.0
 10
16.07509556551385
 20
5.219687335521618
 30
0.0
 10
16.08144611457435
 20
5.198167936837727
 30
0.0
 10
16.06945153017585
 20
5.175943033736579
 30
0.0
 10
16.04793179505685
 20
5.169592821111186
 30
0.0
 10
16.04440460940574
 20
5.168534732702879
 30
0.0
 10
16.04052349402315
 20
5.167829228285646
 30
0.0
 10
16.03664372438094
 20
5.167829228285646
 30
0.0
  0
POLYLINE
  5
4C0
330
1F
100
AcDbEntity
  8
Livello 1
370
     0
100
AcDb2dPolyline
 66
     1
 10
0.0
 20
0.0
 30
0.0
  0
VERTEX
  5
4C1
330
4C0
100
AcDbEntity
  8
Livello 1
370
     0
100
AcDbVertex
100
AcDb2dVertex
 10
29.79102596039015
 20
5.20829295135224
 30
0.0
  0
VERTEX
  5
4C2
330
4C0
100
AcDbEntity
  8
Livello 1
370
     0
100
AcDbVertex
100
AcDb2dVertex
 10
29.71059374673294
 20
5.20829295135224
 30
0.0
  0
VERTEX
  5
4C3
330
4C0
100
AcDbEntity
  8
Livello 1
370
     0
100
AcDbVertex
100
AcDb2dVertex
 10
29.71059374673294
 20
10.99278960960884
 30
0.0
  0
VERTEX
  5
4C4
330
4C0
100
AcDbEntity
  8
Livello 1
370
     0
100
AcDbVertex
100
AcDb2dVertex
 10
29.79102596039015
 20
10.99278960960884
 30
0.0
  0
VERTEX
  5
4C5
330
4C0
100
AcDbEntity
  8
Livello 1
370
     0
100
AcDbVertex
100
AcDb2dVertex
 10
29.79102596039015
 20
5.20829295135224
 30
0.0
  0
SEQEND
  5
4C6
330
4C0
100
AcDbEntity
  8
Livello 1
370
     0
  0
POLYLINE
  5
4C8
330
1F
100
AcDbEntity
  8
Livello 1
370
     0
100
AcDb2dPolyline
 66
     1
 10
0.0
 20
0.0
 30
0.0
  0
VERTEX
  5
4C9
330
4C8
100
AcDbEntity
  8
Livello 1
370
     0
100
AcDbVertex
100
AcDb2dVertex
 10
0.4222763041673973
 20
5.20829295135224
 30
0.0
  0
VERTEX
  5
4CA
330
4C8
100
AcDbEntity
  8
Livello 1
370
     0
100
AcDbVertex
100
AcDb2dVertex
 10
0.3418430812049138
 20
5.20829295135224
 30
0.0
  0
VERTEX
  5
4CB
330
4C8
100
AcDbEntity
  8
Livello 1
370
     0
100
AcDbVertex
100
AcDb2dVertex
 10
0.3418430812049138
 20
10.99278960960884
 30
0.0
  0
VERTEX
  5
4CC
330
4C8
100
AcDbEntity
  8
Livello 1
370
     0
100
AcDbVertex
100
AcDb2dVertex
 10
0.4222763041673973
 20
10.99278960960884
 30
0.0
  0
VERTEX
  5
4CD
330
4C8
100
AcDbEntity
  8
Livello 1
370
     0
100
AcDbVertex
100
AcDb2dVertex
 10
0.4222763041673973
 20
5.20829295135224
 30
0.0
  0
SEQEND
  5
4CE
330
4C8
100
AcDbEntity
  8
Livello 1
370
     0
  0
POLYLINE
  5
4D0
330
1F
100
AcDbEntity
  8
Livello 1
370
     0
100
AcDb2dPolyline
 66
     1
 10
0.0
 20
0.0
 30
0.0
  0
VERTEX
  5
4D1
330
4D0
100
AcDbEntity
  8
Livello 1
370
     0
100
AcDbVertex
100
AcDb2dVertex
 10
29.75080985356155
 20
10.95222091878917
 30
0.0
  0
VERTEX
  5
4D2
330
4D0
100
AcDbEntity
  8
Livello 1
370
     0
100
AcDbVertex
100
AcDb2dVertex
 10
16.08102355208126
 20
10.95222091878917
 30
0.0
  0
VERTEX
  5
4D3
330
4D0
100
AcDbEntity
  8
Livello 1
370
     0
100
AcDbVertex
100
AcDb2dVertex
 10
16.08102355208126
 20
11.0326544781868
 30
0.0
  0
VERTEX
  5
4D4
330
4D0
100
AcDbEntity
  8
Livello 1
370
     0
100
AcDbVertex
100
AcDb2dVertex
 10
29.75080985356155
 20
11.0326544781868
 30
0.0
  0
VERTEX
  5
4D5
330
4D0
100
AcDbEntity
  8
Livello 1
370
     0
100
AcDbVertex
100
AcDb2dVertex
 10
29.75080985356155
 20
10.95222091878917
 30
0.0
  0
SEQEND
  5
4D6
330
4D0
100
AcDbEntity
  8
Livello 1
370
     0
  0
POLYLINE
  5
4D8
330
1F
100
AcDbEntity
  8
Livello 1
370
     0
100
AcDb2dPolyline
 66
     1
 10
0.0
 20
0.0
 30
0.0
  0
VERTEX
  5
4D9
330
4D8
100
AcDbEntity
  8
Livello 1
370
     0
100
AcDbVertex
100
AcDb2dVertex
 10
14.23140965288884
 20
10.95222091878917
 30
0.0
  0
VERTEX
  5
4DA
330
4D8
100
AcDbEntity
  8
Livello 1
370
     0
100
AcDbVertex
100
AcDb2dVertex
 10
0.3820598609036949
 20
10.95222091878917
 30
0.0
  0
VERTEX
  5
4DB
330
4D8
100
AcDbEntity
  8
Livello 1
370
     0
100
AcDbVertex
100
AcDb2dVertex
 10
0.3820598609036949
 20
11.0326544781868
 30
0.0
  0
VERTEX
  5
4DC
330
4D8
100
AcDbEntity
  8
Livello 1
370
     0
100
AcDbVertex
100
AcDb2dVertex
 10
14.23140965288884
 20
11.0326544781868
 30
0.0
  0
VERTEX
  5
4DD
330
4D8
100
AcDbEntity
  8
Livello 1
370
     0
100
AcDbVertex
100
AcDb2dVertex
 10
14.23140965288884
 20
10.95222091878917
 30
0.0
  0
SEQEND
  5
4DE
330
4D8
100
AcDbEntity
  8
Livello 1
370
     0
  0
POLYLINE
  5
4E0
330
1F
100
AcDbEntity
  8
Livello 1
370
     0
100
AcDb2dPolyline
 66
     1
 10
0.0
 20
0.0
 30
0.0
  0
VERTEX
  5
4E1
330
4E0
100
AcDbEntity
  8
Livello 1
370
     0
100
AcDbVertex
100
AcDb2dVertex
 10
29.75080985356155
 20
5.167723587662358
 30
0.0
  0
VERTEX
  5
4E2
330
4E0
100
AcDbEntity
  8
Livello 1
370
     0
100
AcDbVertex
100
AcDb2dVertex
 10
16.03692632987003
 20
5.167723587662358
 30
0.0
  0
VERTEX
  5
4E3
330
4E0
100
AcDbEntity
  8
Livello 1
370
     0
100
AcDbVertex
100
AcDb2dVertex
 10
16.03692632987003
 20
5.248156810624877
 30
0.0
  0
VERTEX
  5
4E4
330
4E0
100
AcDbEntity
  8
Livello 1
370
     0
100
AcDbVertex
100
AcDb2dVertex
 10
29.75080985356155
 20
5.248156810624877
 30
0.0
  0
VERTEX
  5
4E5
330
4E0
100
AcDbEntity
  8
Livello 1
370
     0
100
AcDbVertex
100
AcDb2dVertex
 10
29.75080985356155
 20
5.167723587662358
 30
0.0
  0
SEQEND
  5
4E6
330
4E0
100
AcDbEntity
  8
Livello 1
370
     0
  0
POLYLINE
  5
4E8
330
1F
100
AcDbEntity
  8
Livello 1
370
     0
100
AcDb2dPolyline
 66
     1
 10
0.0
 20
0.0
 30
0.0
  0
VERTEX
  5
4E9
330
4E8
100
AcDbEntity
  8
Livello 1
370
     0
100
AcDbVertex
100
AcDb2dVertex
 10
14.17849379367963
 20
5.167723587662358
 30
0.0
  0
VERTEX
  5
4EA
330
4E8
100
AcDbEntity
  8
Livello 1
370
     0
100
AcDbVertex
100
AcDb2dVertex
 10
0.3820598609036949
 20
5.167723587662358
 30
0.0
  0
VERTEX
  5
4EB
330
4E8
100
AcDbEntity
  8
Livello 1
370
     0
100
AcDbVertex
100
AcDb2dVertex
 10
0.3820598609036949
 20
5.248156810624877
 30
0.0
  0
VERTEX
  5
4EC
330
4E8
100
AcDbEntity
  8
Livello 1
370
     0
100
AcDbVertex
100
AcDb2dVertex
 10
14.17849379367963
 20
5.248156810624877
 30
0.0
  0
VERTEX
  5
4ED
330
4E8
100
AcDbEntity
  8
Livello 1
370
     0
100
AcDbVertex
100
AcDb2dVertex
 10
14.17849379367963
 20
5.167723587662358
 30
0.0
  0
SEQEND
  5
4EE
330
4E8
100
AcDbEntity
  8
Livello 1
370
     0
  0
POLYLINE
  5
4F0
330
1F
100
AcDbEntity
  8
Livello 1
370
     0
100
AcDb2dPolyline
 66
     1
 10
0.0
 20
0.0
 30
0.0
  0
VERTEX
  5
4F1
330
4F0
100
AcDbEntity
  8
Livello 1
370
     0
100
AcDbVertex
100
AcDb2dVertex
 10
29.98928851408535
 20
5.20829295135224
 30
0.0
  0
VERTEX
  5
4F2
330
4F0
100
AcDbEntity
  8
Livello 1
370
     0
100
AcDbVertex
100
AcDb2dVertex
 10
29.90885630042825
 20
5.20829295135224
 30
0.0
  0
VERTEX
  5
4F3
330
4F0
100
AcDbEntity
  8
Livello 1
370
     0
100
AcDbVertex
100
AcDb2dVertex
 10
29.90885630042825
 20
10.99278960960884
 30
0.0
  0
VERTEX
  5
4F4
330
4F0
100
AcDbEntity
  8
Livello 1
370
     0
100
AcDbVertex
100
AcDb2dVertex
 10
29.98928851408535
 20
10.99278960960884
 30
0.0
  0
VERTEX
  5
4F5
330
4F0
100
AcDbEntity
  8
Livello 1
370
     0
100
AcDbVertex
100
AcDb2dVertex
 10
29.98928851408535
 20
5.20829295135224
 30
0.0
  0
SEQEND
  5
4F6
330
4F0
100
AcDbEntity
  8
Livello 1
370
     0
  0
POLYLINE
  5
4F8
330
1F
100
AcDbEntity
  8
Livello 1
370
     0
100
AcDb2dPolyline
 66
     1
 10
0.0
 20
0.0
 30
0.0
  0
VERTEX
  5
4F9
330
4F8
100
AcDbEntity
  8
Livello 1
370
     0
100
AcDbVertex
100
AcDb2dVertex
 10
29.94906971577595
 20
5.167723587662358
 30
0.0
  0
VERTEX
  5
4FA
330
4F8
100
AcDbEntity
  8
Livello 1
370
     0
100
AcDbVertex
100
AcDb2dVertex
 10
29.75080985356155
 20
5.167723587662358
 30
0.0
  0
VERTEX
  5
4FB
330
4F8
100
AcDbEntity
  8
Livello 1
370
     0
100
AcDbVertex
100
AcDb2dVertex
 10
29.75080985356155
 20
5.248156810624877
 30
0.0
  0
VERTEX
  5
4FC
330
4F8
100
AcDbEntity
  8
Livello 1
370
     0
100
AcDbVertex
100
AcDb2dVertex
 10
29.94906971577595
 20
5.248156810624877
 30
0.0
  0
VERTEX
  5
4FD
330
4F8
100
AcDbEntity
  8
Livello 1
370
     0
100
AcDbVertex
100
AcDb2dVertex
 10
29.94906971577595
 20
5.167723587662358
 30
0.0
  0
SEQEND
  5
4FE
330
4F8
100
AcDbEntity
  8
Livello 1
370
     0
  0
POLYLINE
  5
500
330
1F
100
AcDbEntity
  8
Livello 1
370
     0
100
AcDb2dPolyline
 66
     1
 10
0.0
 20
0.0
 30
0.0
  0
VERTEX
  5
501
330
500
100
AcDbEntity
  8
Livello 1
370
     0
100
AcDbVertex
100
AcDb2dVertex
 10
29.94906971577595
 20
10.95222091878917
 30
0.0
  0
VERTEX
  5
502
330
500
100
AcDbEntity
  8
Livello 1
370
     0
100
AcDbVertex
100
AcDb2dVertex
 10
29.75080985356155
 20
10.95222091878917
 30
0.0
  0
VERTEX
  5
503
330
500
100
AcDbEntity
  8
Livello 1
370
     0
100
AcDbVertex
100
AcDb2dVertex
 10
29.75080985356155
 20
11.0326544781868
 30
0.0
  0
VERTEX
  5
504
330
500
100
AcDbEntity
  8
Livello 1
370
     0
100
AcDbVertex
100
AcDb2dVertex
 10
29.94906971577595
 20
11.0326544781868
 30
0.0
  0
VERTEX
  5
505
330
500
100
AcDbEntity
  8
Livello 1
370
     0
100
AcDbVertex
100
AcDb2dVertex
 10
29.94906971577595
 20
10.95222091878917
 30
0.0
  0
SEQEND
  5
506
330
500
100
AcDbEntity
  8
Livello 1
370
     0
  0
POLYLINE
  5
508
330
1F
100
AcDbEntity
  8
Livello 1
370
     0
100
AcDb2dPolyline
 66
     1
 10
0.0
 20
0.0
 30
0.0
  0
VERTEX
  5
509
330
508
100
AcDbEntity
  8
Livello 1
370
     0
100
AcDbVertex
100
AcDb2dVertex
 10
0.2240154326476613
 20
5.20829295135224
 30
0.0
  0
VERTEX
  5
50A
330
508
100
AcDbEntity
  8
Livello 1
370
     0
100
AcDbVertex
100
AcDb2dVertex
 10
0.1435822096851496
 20
5.20829295135224
 30
0.0
  0
VERTEX
  5
50B
330
508
100
AcDbEntity
  8
Livello 1
370
     0
100
AcDbVertex
100
AcDb2dVertex
 10
0.1435822096851496
 20
10.99278960960884
 30
0.0
  0
VERTEX
  5
50C
330
508
100
AcDbEntity
  8
Livello 1
370
     0
100
AcDbVertex
100
AcDb2dVertex
 10
0.2240154326476613
 20
10.99278960960884
 30
0.0
  0
VERTEX
  5
50D
330
508
100
AcDbEntity
  8
Livello 1
370
     0
100
AcDbVertex
100
AcDb2dVertex
 10
0.2240154326476613
 20
5.20829295135224
 30
0.0
  0
SEQEND
  5
50E
330
508
100
AcDbEntity
  8
Livello 1
370
     0
  0
POLYLINE
  5
510
330
1F
100
AcDbEntity
  8
Livello 1
370
     0
100
AcDb2dPolyline
 66
     1
 10
0.0
 20
0.0
 30
0.0
  0
VERTEX
  5
511
330
510
100
AcDbEntity
  8
Livello 1
370
     0
100
AcDbVertex
100
AcDb2dVertex
 10
0.3820598609036949
 20
5.167723587662358
 30
0.0
  0
VERTEX
  5
512
330
510
100
AcDbEntity
  8
Livello 1
370
     0
100
AcDbVertex
100
AcDb2dVertex
 10
0.1837986529488518
 20
5.167723587662358
 30
0.0
  0
VERTEX
  5
513
330
510
100
AcDbEntity
  8
Livello 1
370
     0
100
AcDbVertex
100
AcDb2dVertex
 10
0.1837986529488518
 20
5.248156810624877
 30
0.0
  0
VERTEX
  5
514
330
510
100
AcDbEntity
  8
Livello 1
370
     0
100
AcDbVertex
100
AcDb2dVertex
 10
0.3820598609036949
 20
5.248156810624877
 30
0.0
  0
VERTEX
  5
515
330
510
100
AcDbEntity
  8
Livello 1
370
     0
100
AcDbVertex
100
AcDb2dVertex
 10
0.3820598609036949
 20
5.167723587662358
 30
0.0
  0
SEQEND
  5
516
330
510
100
AcDbEntity
  8
Livello 1
370
     0
  0
POLYLINE
  5
518
330
1F
100
AcDbEntity
  8
Livello 1
370
     0
100
AcDb2dPolyline
 66
     1
 10
0.0
 20
0.0
 30
0.0
  0
VERTEX
  5
519
330
518
100
AcDbEntity
  8
Livello 1
370
     0
100
AcDbVertex
100
AcDb2dVertex
 10
0.3820598609036949
 20
10.95222091878917
 30
0.0
  0
VERTEX
  5
51A
330
518
100
AcDbEntity
  8
Livello 1
370
     0
100
AcDbVertex
100
AcDb2dVertex
 10
0.1837986529488518
 20
10.95222091878917
 30
0.0
  0
VERTEX
  5
51B
330
518
100
AcDbEntity
  8
Livello 1
370
     0
100
AcDbVertex
100
AcDb2dVertex
 10
0.1837986529488518
 20
11.0326544781868
 30
0.0
  0
VERTEX
  5
51C
330
518
100
AcDbEntity
  8
Livello 1
370
     0
100
AcDbVertex
100
AcDb2dVertex
 10
0.3820598609036949
 20
11.0326544781868
 30
0.0
  0
VERTEX
  5
51D
330
518
100
AcDbEntity
  8
Livello 1
370
     0
100
AcDbVertex
100
AcDb2dVertex
 10
0.3820598609036949
 20
10.95222091878917
 30
0.0
  0
SEQEND
  5
51E
330
518
100
AcDbEntity
  8
Livello 1
370
     0
  0
POLYLINE
  5
520
330
1F
100
AcDbEntity
  8
Livello 1
370
     0
100
AcDb2dPolyline
 66
     1
 10
0.0
 20
0.0
 30
0.0
  0
VERTEX
  5
521
330
520
100
AcDbEntity
  8
Livello 1
370
     0
100
AcDbVertex
100
AcDb2dVertex
 10
2.875175878787643
 20
10.99187316038015
 30
0.0
  0
VERTEX
  5
522
330
520
100
AcDbEntity
  8
Livello 1
370
     0
100
AcDbVertex
100
AcDb2dVertex
 10
2.794742319390038
 20
10.99328416921462
 30
0.0
  0
VERTEX
  5
523
330
520
100
AcDbEntity
  8
Livello 1
370
     0
100
AcDbVertex
100
AcDb2dVertex
 10
2.820495081012437
 20
12.47636211349345
 30
0.0
  0
VERTEX
  5
524
330
520
100
AcDbEntity
  8
Livello 1
370
     0
100
AcDbVertex
100
AcDb2dVertex
 10
2.900928640410056
 20
12.47495043178875
 30
0.0
  0
VERTEX
  5
525
330
520
100
AcDbEntity
  8
Livello 1
370
     0
100
AcDbVertex
100
AcDb2dVertex
 10
2.875175878787643
 20
10.99187316038015
 30
0.0
  0
SEQEND
  5
526
330
520
100
AcDbEntity
  8
Livello 1
370
     0
  0
POLYLINE
  5
528
330
1F
100
AcDbEntity
  8
Livello 1
370
     0
100
AcDb2dPolyline
 66
     1
 10
0.0
 20
0.0
 30
0.0
  0
VERTEX
  5
529
330
528
100
AcDbEntity
  8
Livello 1
370
     0
100
AcDbVertex
100
AcDb2dVertex
 10
2.900999291782341
 20
12.47498542103977
 30
0.0
  0
VERTEX
  5
52A
330
528
100
AcDbEntity
  8
Livello 1
370
     0
100
AcDbVertex
100
AcDb2dVertex
 10
2.82056573238475
 20
12.47674834099511
 30
0.0
  0
VERTEX
  5
52B
330
528
100
AcDbEntity
  8
Livello 1
370
     0
100
AcDbVertex
100
AcDb2dVertex
 10
2.822329325210247
 20
12.57587961784276
 30
0.0
  0
VERTEX
  5
52C
330
528
100
AcDbEntity
  8
Livello 1
370
     0
100
AcDbVertex
100
AcDb2dVertex
 10
2.902762884607837
 20
12.57411535214698
 30
0.0
  0
VERTEX
  5
52D
330
528
100
AcDbEntity
  8
Livello 1
370
     0
100
AcDbVertex
100
AcDb2dVertex
 10
2.900999291782341
 20
12.47498542103977
 30
0.0
  0
SEQEND
  5
52E
330
528
100
AcDbEntity
  8
Livello 1
370
     0
  0
POLYLINE
  5
530
330
1F
100
AcDbEntity
  8
Livello 1
370
     0
100
AcDb2dPolyline
 66
     1
 10
0.0
 20
0.0
 30
0.0
  0
VERTEX
  5
531
330
530
100
AcDbEntity
  8
Livello 1
370
     0
100
AcDbVertex
100
AcDb2dVertex
 10
10.78727502630164
 20
10.99187316038015
 30
0.0
  0
VERTEX
  5
532
330
530
100
AcDbEntity
  8
Livello 1
370
     0
100
AcDbVertex
100
AcDb2dVertex
 10
10.76152159180894
 20
12.47495043178875
 30
0.0
  0
VERTEX
  5
533
330
530
100
AcDbEntity
  8
Livello 1
370
     0
100
AcDbVertex
100
AcDb2dVertex
 10
10.84195515120665
 20
12.47636211349345
 30
0.0
  0
VERTEX
  5
534
330
530
100
AcDbEntity
  8
Livello 1
370
     0
100
AcDbVertex
100
AcDb2dVertex
 10
10.86770723995886
 20
10.99328416921462
 30
0.0
  0
VERTEX
  5
535
330
530
100
AcDbEntity
  8
Livello 1
370
     0
100
AcDbVertex
100
AcDb2dVertex
 10
10.78727502630164
 20
10.99187316038015
 30
0.0
  0
SEQEND
  5
536
330
530
100
AcDbEntity
  8
Livello 1
370
     0
  0
POLYLINE
  5
538
330
1F
100
AcDbEntity
  8
Livello 1
370
     0
100
AcDb2dPolyline
 66
     1
 10
0.0
 20
0.0
 30
0.0
  0
VERTEX
  5
539
330
538
100
AcDbEntity
  8
Livello 1
370
     0
100
AcDbVertex
100
AcDb2dVertex
 10
3.385257254629833
 20
12.63391198214371
 30
0.0
  0
VERTEX
  5
53A
330
538
100
AcDbEntity
  8
Livello 1
370
     0
100
AcDbVertex
100
AcDb2dVertex
 10
3.160184860209141
 20
12.63391198214371
 30
0.0
  0
VERTEX
  5
53B
330
538
100
AcDbEntity
  8
Livello 1
370
     0
100
AcDbVertex
100
AcDb2dVertex
 10
3.160184860209141
 20
12.71434554154133
 30
0.0
  0
VERTEX
  5
53C
330
538
100
AcDbEntity
  8
Livello 1
370
     0
100
AcDbVertex
100
AcDb2dVertex
 10
3.385257254629833
 20
12.71434554154133
 30
0.0
  0
VERTEX
  5
53D
330
538
100
AcDbEntity
  8
Livello 1
370
     0
100
AcDbVertex
100
AcDb2dVertex
 10
3.385257254629833
 20
12.63391198214371
 30
0.0
  0
SEQEND
  5
53E
330
538
100
AcDbEntity
  8
Livello 1
370
     0
  0
POLYLINE
  5
540
330
1F
100
AcDbEntity
  8
Livello 1
370
     0
100
AcDb2dPolyline
 66
     1
 10
0.0
 20
0.0
 30
0.0
  0
VERTEX
  5
541
330
540
100
AcDbEntity
  8
Livello 1
370
     0
100
AcDbVertex
100
AcDb2dVertex
 10
9.933518460997246
 20
12.63391198214371
 30
0.0
  0
VERTEX
  5
542
330
540
100
AcDbEntity
  8
Livello 1
370
     0
100
AcDbVertex
100
AcDb2dVertex
 10
3.728863138460254
 20
12.63391198214371
 30
0.0
  0
VERTEX
  5
543
330
540
100
AcDbEntity
  8
Livello 1
370
     0
100
AcDbVertex
100
AcDb2dVertex
 10
3.728863138460254
 20
12.71434554154133
 30
0.0
  0
VERTEX
  5
544
330
540
100
AcDbEntity
  8
Livello 1
370
     0
100
AcDbVertex
100
AcDb2dVertex
 10
9.933518460997246
 20
12.71434554154133
 30
0.0
  0
VERTEX
  5
545
330
540
100
AcDbEntity
  8
Livello 1
370
     0
100
AcDbVertex
100
AcDb2dVertex
 10
9.933518460997246
 20
12.63391198214371
 30
0.0
  0
SEQEND
  5
546
330
540
100
AcDbEntity
  8
Livello 1
370
     0
  0
POLYLINE
  5
548
330
1F
100
AcDbEntity
  8
Livello 1
370
     0
100
AcDb2dPolyline
 66
     1
 10
0.0
 20
0.0
 30
0.0
  0
VERTEX
  5
549
330
548
100
AcDbEntity
  8
Livello 1
370
     0
100
AcDbVertex
100
AcDb2dVertex
 10
10.50254865036915
 20
12.63391198214371
 30
0.0
  0
VERTEX
  5
54A
330
548
100
AcDbEntity
  8
Livello 1
370
     0
100
AcDbVertex
100
AcDb2dVertex
 10
10.27747625594844
 20
12.63391198214371
 30
0.0
  0
VERTEX
  5
54B
330
548
100
AcDbEntity
  8
Livello 1
370
     0
100
AcDbVertex
100
AcDb2dVertex
 10
10.27747625594844
 20
12.71434554154133
 30
0.0
  0
VERTEX
  5
54C
330
548
100
AcDbEntity
  8
Livello 1
370
     0
100
AcDbVertex
100
AcDb2dVertex
 10
10.50254865036915
 20
12.71434554154133
 30
0.0
  0
VERTEX
  5
54D
330
548
100
AcDbEntity
  8
Livello 1
370
     0
100
AcDbVertex
100
AcDb2dVertex
 10
10.50254865036915
 20
12.63391198214371
 30
0.0
  0
SEQEND
  5
54E
330
548
100
AcDbEntity
  8
Livello 1
370
     0
  0
POLYLINE
  5
550
330
1F
100
AcDbEntity
  8
Livello 1
370
     0
100
AcDb2dPolyline
 66
     1
 10
0.0
 20
0.0
 30
0.0
  0
VERTEX
  5
551
330
550
100
AcDbEntity
  8
Livello 1
370
     0
100
AcDbVertex
100
AcDb2dVertex
 10
2.875316508661937
 20
12.5367575979788
 30
0.0
  0
VERTEX
  5
552
330
550
100
AcDbEntity
  8
Livello 1
370
     0
100
AcDbVertex
100
AcDb2dVertex
 10
2.849916331030555
 20
12.61331004199383
 30
0.0
  0
VERTEX
  5
553
330
550
100
AcDbEntity
  8
Livello 1
370
     0
100
AcDbVertex
100
AcDb2dVertex
 10
3.147308142962856
 20
12.71243997310105
 30
0.0
  0
VERTEX
  5
554
330
550
100
AcDbEntity
  8
Livello 1
370
     0
100
AcDbVertex
100
AcDb2dVertex
 10
3.172707647724053
 20
12.63588752908603
 30
0.0
  0
VERTEX
  5
555
330
550
100
AcDbEntity
  8
Livello 1
370
     0
100
AcDbVertex
100
AcDb2dVertex
 10
2.875316508661937
 20
12.5367575979788
 30
0.0
  0
SEQEND
  5
556
330
550
100
AcDbEntity
  8
Livello 1
370
     0
  0
POLYLINE
  5
558
330
1F
100
AcDbEntity
  8
Livello 1
370
     0
100
AcDb2dPolyline
 66
     1
 10
0.0
 20
0.0
 30
0.0
  0
VERTEX
  5
559
330
558
100
AcDbEntity
  8
Livello 1
370
     0
100
AcDbVertex
100
AcDb2dVertex
 10
3.723923598234136
 20
12.63391198214371
 30
0.0
  0
VERTEX
  5
55A
330
558
100
AcDbEntity
  8
Livello 1
370
     0
100
AcDbVertex
100
AcDb2dVertex
 10
3.390548705976755
 20
12.63391198214371
 30
0.0
  0
VERTEX
  5
55B
330
558
100
AcDbEntity
  8
Livello 1
370
     0
100
AcDbVertex
100
AcDb2dVertex
 10
3.390548705976755
 20
12.71434554154133
 30
0.0
  0
VERTEX
  5
55C
330
558
100
AcDbEntity
  8
Livello 1
370
     0
100
AcDbVertex
100
AcDb2dVertex
 10
3.723923598234136
 20
12.71434554154133
 30
0.0
  0
VERTEX
  5
55D
330
558
100
AcDbEntity
  8
Livello 1
370
     0
100
AcDbVertex
100
AcDb2dVertex
 10
3.723923598234136
 20
12.63391198214371
 30
0.0
  0
SEQEND
  5
55E
330
558
100
AcDbEntity
  8
Livello 1
370
     0
  0
POLYLINE
  5
560
330
1F
100
AcDbEntity
  8
Livello 1
370
     0
100
AcDb2dPolyline
 66
     1
 10
0.0
 20
0.0
 30
0.0
  0
VERTEX
  5
561
330
560
100
AcDbEntity
  8
Livello 1
370
     0
100
AcDbVertex
100
AcDb2dVertex
 10
10.27712367195734
 20
12.63391198214371
 30
0.0
  0
VERTEX
  5
562
330
560
100
AcDbEntity
  8
Livello 1
370
     0
100
AcDbVertex
100
AcDb2dVertex
 10
9.933518460997246
 20
12.63391198214371
 30
0.0
  0
VERTEX
  5
563
330
560
100
AcDbEntity
  8
Livello 1
370
     0
100
AcDbVertex
100
AcDb2dVertex
 10
9.933518460997246
 20
12.71434554154133
 30
0.0
  0
VERTEX
  5
564
330
560
100
AcDbEntity
  8
Livello 1
370
     0
100
AcDbVertex
100
AcDb2dVertex
 10
10.27712367195734
 20
12.71434554154133
 30
0.0
  0
VERTEX
  5
565
330
560
100
AcDbEntity
  8
Livello 1
370
     0
100
AcDbVertex
100
AcDb2dVertex
 10
10.27712367195734
 20
12.63391198214371
 30
0.0
  0
SEQEND
  5
566
330
560
100
AcDbEntity
  8
Livello 1
370
     0
  0
POLYLINE
  5
568
330
1F
100
AcDbEntity
  8
Livello 1
370
     0
100
AcDb2dPolyline
 66
     1
 10
0.0
 20
0.0
 30
0.0
  0
VERTEX
  5
569
330
568
100
AcDbEntity
  8
Livello 1
370
     0
100
AcDbVertex
100
AcDb2dVertex
 10
10.78724003705065
 20
12.5367575979788
 30
0.0
  0
VERTEX
  5
56A
330
568
100
AcDbEntity
  8
Livello 1
370
     0
100
AcDbVertex
100
AcDb2dVertex
 10
10.48949496825705
 20
12.63588752908603
 30
0.0
  0
VERTEX
  5
56B
330
568
100
AcDbEntity
  8
Livello 1
370
     0
100
AcDbVertex
100
AcDb2dVertex
 10
10.51524705700934
 20
12.71243997310105
 30
0.0
  0
VERTEX
  5
56C
330
568
100
AcDbEntity
  8
Livello 1
370
     0
100
AcDbVertex
100
AcDb2dVertex
 10
10.81263954181185
 20
12.61331004199383
 30
0.0
  0
VERTEX
  5
56D
330
568
100
AcDbEntity
  8
Livello 1
370
     0
100
AcDbVertex
100
AcDb2dVertex
 10
10.78724003705065
 20
12.5367575979788
 30
0.0
  0
SEQEND
  5
56E
330
568
100
AcDbEntity
  8
Livello 1
370
     0
  0
POLYLINE
  5
570
330
1F
100
AcDbEntity
  8
Livello 1
370
     0
100
AcDb2dPolyline
 66
     1
 10
0.0
 20
0.0
 30
0.0
  0
VERTEX
  5
571
330
570
100
AcDbEntity
  8
Livello 1
370
     0
100
AcDbVertex
100
AcDb2dVertex
 10
10.76141662405594
 20
12.47505674528223
 30
0.0
  0
VERTEX
  5
572
330
570
100
AcDbEntity
  8
Livello 1
370
     0
100
AcDbVertex
100
AcDb2dVertex
 10
10.75965235836013
 20
12.57418667638947
 30
0.0
  0
VERTEX
  5
573
330
570
100
AcDbEntity
  8
Livello 1
370
     0
100
AcDbVertex
100
AcDb2dVertex
 10
10.84043850174885
 20
12.57559835809417
 30
0.0
  0
VERTEX
  5
574
330
570
100
AcDbEntity
  8
Livello 1
370
     0
100
AcDbVertex
100
AcDb2dVertex
 10
10.84184883771314
 20
12.47646708124652
 30
0.0
  0
VERTEX
  5
575
330
570
100
AcDbEntity
  8
Livello 1
370
     0
100
AcDbVertex
100
AcDb2dVertex
 10
10.76141662405594
 20
12.47505674528223
 30
0.0
  0
SEQEND
  5
576
330
570
100
AcDbEntity
  8
Livello 1
370
     0
  0
POLYLINE
  5
578
330
1F
100
AcDbEntity
  8
Livello 1
370
     0
100
AcDb2dPolyline
 66
     1
 10
0.0
 20
0.0
 30
0.0
  0
VERTEX
  5
579
330
578
100
AcDbEntity
  8
Livello 1
370
     0
100
AcDbVertex
100
AcDb2dVertex
 10
6.152092837519048
 20
12.75385648038779
 30
0.0
  0
VERTEX
  5
57A
330
578
100
AcDbEntity
  8
Livello 1
370
     0
100
AcDbVertex
100
AcDb2dVertex
 10
6.071659278121442
 20
12.75385648038779
 30
0.0
  0
VERTEX
  5
57B
330
578
100
AcDbEntity
  8
Livello 1
370
     0
100
AcDbVertex
100
AcDb2dVertex
 10
6.071659278121442
 20
12.90272901478457
 30
0.0
  0
VERTEX
  5
57C
330
578
100
AcDbEntity
  8
Livello 1
370
     0
100
AcDbVertex
100
AcDb2dVertex
 10
6.152092837519048
 20
12.90272901478457
 30
0.0
  0
VERTEX
  5
57D
330
578
100
AcDbEntity
  8
Livello 1
370
     0
100
AcDbVertex
100
AcDb2dVertex
 10
6.152092837519048
 20
12.75385648038779
 30
0.0
  0
SEQEND
  5
57E
330
578
100
AcDbEntity
  8
Livello 1
370
     0
  0
POLYLINE
  5
580
330
1F
100
AcDbEntity
  8
Livello 1
370
     0
100
AcDb2dPolyline
 66
     1
 10
0.0
 20
0.0
 30
0.0
  0
VERTEX
  5
581
330
580
100
AcDbEntity
  8
Livello 1
370
     0
100
AcDbVertex
100
AcDb2dVertex
 10
6.152092837519048
 20
12.90272901478457
 30
0.0
  0
VERTEX
  5
582
330
580
100
AcDbEntity
  8
Livello 1
370
     0
100
AcDbVertex
100
AcDb2dVertex
 10
6.071659278121442
 20
12.90272901478457
 30
0.0
  0
VERTEX
  5
583
330
580
100
AcDbEntity
  8
Livello 1
370
     0
100
AcDbVertex
100
AcDb2dVertex
 10
6.071659278121442
 20
13.2498627571362
 30
0.0
  0
VERTEX
  5
584
330
580
100
AcDbEntity
  8
Livello 1
370
     0
100
AcDbVertex
100
AcDb2dVertex
 10
6.152092837519048
 20
13.2498627571362
 30
0.0
  0
VERTEX
  5
585
330
580
100
AcDbEntity
  8
Livello 1
370
     0
100
AcDbVertex
100
AcDb2dVertex
 10
6.152092837519048
 20
12.90272901478457
 30
0.0
  0
SEQEND
  5
586
330
580
100
AcDbEntity
  8
Livello 1
370
     0
  0
SPLINE
  5
588
330
1F
100
AcDbEntity
  8
Livello 1
370
     0
100
AcDbSpline
210
0.0
220
0.0
230
1.0
 70
     9
 71
     3
 72
    17
 73
    13
 74
     0
 42
0.000000001
 43
0.0000000001
 40
0.0
 40
0.0
 40
0.0
 40
0.0
 40
1.0
 40
1.0
 40
1.0
 40
2.0
 40
2.0
 40
2.0
 40
3.0
 40
3.0
 40
3.0
 40
4.0
 40
4.0
 40
4.0
 40
4.0
 10
6.152234140263557
 20
13.2497214543917
 30
0.0
 10
6.152234140263557
 20
13.2497214543917
 30
0.0
 10
6.071800580865938
 20
13.2497214543917
 30
0.0
 10
6.071800580865938
 20
13.2497214543917
 30
0.0
 10
6.071800580865938
 20
13.32662648239777
 30
0.0
 10
6.134242263665839
 20
13.38906749232752
 30
0.0
 10
6.211147964542134
 20
13.38906749232752
 30
0.0
 10
6.211147964542134
 20
13.38906749232752
 30
0.0
 10
6.211147964542134
 20
13.30863527867031
 30
0.0
 10
6.211147964542134
 20
13.30863527867031
 30
0.0
 10
6.178692069868147
 20
13.30863527867031
 30
0.0
 10
6.152234140263557
 20
13.28217667619551
 30
0.0
 10
6.152234140263557
 20
13.2497214543917
 30
0.0
  0
POLYLINE
  5
589
330
1F
100
AcDbEntity
  8
Livello 1
370
     0
100
AcDb2dPolyline
 66
     1
 10
0.0
 20
0.0
 30
0.0
  0
VERTEX
  5
58A
330
589
100
AcDbEntity
  8
Livello 1
370
     0
100
AcDbVertex
100
AcDb2dVertex
 10
7.451373591919348
 20
13.30877658141482
 30
0.0
  0
VERTEX
  5
58B
330
589
100
AcDbEntity
  8
Livello 1
370
     0
100
AcDbVertex
100
AcDb2dVertex
 10
6.211006661797639
 20
13.30877658141482
 30
0.0
  0
VERTEX
  5
58C
330
589
100
AcDbEntity
  8
Livello 1
370
     0
100
AcDbVertex
100
AcDb2dVertex
 10
6.211006661797639
 20
13.38921014081244
 30
0.0
  0
VERTEX
  5
58D
330
589
100
AcDbEntity
  8
Livello 1
370
     0
100
AcDbVertex
100
AcDb2dVertex
 10
7.451373591919348
 20
13.38921014081244
 30
0.0
  0
VERTEX
  5
58E
330
589
100
AcDbEntity
  8
Livello 1
370
     0
100
AcDbVertex
100
AcDb2dVertex
 10
7.451373591919348
 20
13.30877658141482
 30
0.0
  0
SEQEND
  5
58F
330
589
100
AcDbEntity
  8
Livello 1
370
     0
  0
POLYLINE
  5
591
330
1F
100
AcDbEntity
  8
Livello 1
370
     0
100
AcDb2dPolyline
 66
     1
 10
0.0
 20
0.0
 30
0.0
  0
VERTEX
  5
592
330
591
100
AcDbEntity
  8
Livello 1
370
     0
100
AcDbVertex
100
AcDb2dVertex
 10
7.590720975595643
 20
12.90272901478457
 30
0.0
  0
VERTEX
  5
593
330
591
100
AcDbEntity
  8
Livello 1
370
     0
100
AcDbVertex
100
AcDb2dVertex
 10
7.51028741619794
 20
12.90272901478457
 30
0.0
  0
VERTEX
  5
594
330
591
100
AcDbEntity
  8
Livello 1
370
     0
100
AcDbVertex
100
AcDb2dVertex
 10
7.51028741619794
 20
13.2498627571362
 30
0.0
  0
VERTEX
  5
595
330
591
100
AcDbEntity
  8
Livello 1
370
     0
100
AcDbVertex
100
AcDb2dVertex
 10
7.590720975595643
 20
13.2498627571362
 30
0.0
  0
VERTEX
  5
596
330
591
100
AcDbEntity
  8
Livello 1
370
     0
100
AcDbVertex
100
AcDb2dVertex
 10
7.590720975595643
 20
12.90272901478457
 30
0.0
  0
SEQEND
  5
597
330
591
100
AcDbEntity
  8
Livello 1
370
     0
  0
SPLINE
  5
599
330
1F
100
AcDbEntity
  8
Livello 1
370
     0
100
AcDbSpline
210
0.0
220
0.0
230
1.0
 70
     9
 71
     3
 72
    17
 73
    13
 74
     0
 42
0.000000001
 43
0.0000000001
 40
0.0
 40
0.0
 40
0.0
 40
0.0
 40
1.0
 40
1.0
 40
1.0
 40
2.0
 40
2.0
 40
2.0
 40
3.0
 40
3.0
 40
3.0
 40
4.0
 40
4.0
 40
4.0
 40
4.0
 10
7.590897267591144
 20
13.2497214543917
 30
0.0
 10
7.590897267591144
 20
13.2497214543917
 30
0.0
 10
7.51046370819354
 20
13.2497214543917
 30
0.0
 10
7.51046370819354
 20
13.2497214543917
 30
0.0
 10
7.51046370819354
 20
13.28217667619551
 30
0.0
 10
7.484005105718736
 20
13.30863527867031
 30
0.0
 10
7.45154988391495
 20
13.30863527867031
 30
0.0
 10
7.45154988391495
 20
13.30863527867031
 30
0.0
 10
7.45154988391495
 20
13.38906749232752
 30
0.0
 10
7.45154988391495
 20
13.38906749232752
 30
0.0
 10
7.528102327929928
 20
13.38906749232752
 30
0.0
 10
7.590897267591144
 20
13.32662648239777
 30
0.0
 10
7.590897267591144
 20
13.2497214543917
 30
0.0
  0
POLYLINE
  5
59A
330
1F
100
AcDbEntity
  8
Livello 1
370
     0
100
AcDb2dPolyline
 66
     1
 10
0.0
 20
0.0
 30
0.0
  0
VERTEX
  5
59B
330
59A
100
AcDbEntity
  8
Livello 1
370
     0
100
AcDbVertex
100
AcDb2dVertex
 10
7.590720975595643
 20
12.75385648038779
 30
0.0
  0
VERTEX
  5
59C
330
59A
100
AcDbEntity
  8
Livello 1
370
     0
100
AcDbVertex
100
AcDb2dVertex
 10
7.51028741619794
 20
12.75385648038779
 30
0.0
  0
VERTEX
  5
59D
330
59A
100
AcDbEntity
  8
Livello 1
370
     0
100
AcDbVertex
100
AcDb2dVertex
 10
7.51028741619794
 20
12.90272901478457
 30
0.0
  0
VERTEX
  5
59E
330
59A
100
AcDbEntity
  8
Livello 1
370
     0
100
AcDbVertex
100
AcDb2dVertex
 10
7.590720975595643
 20
12.90272901478457
 30
0.0
  0
VERTEX
  5
59F
330
59A
100
AcDbEntity
  8
Livello 1
370
     0
100
AcDbVertex
100
AcDb2dVertex
 10
7.590720975595643
 20
12.75385648038779
 30
0.0
  0
SEQEND
  5
5A0
330
59A
100
AcDbEntity
  8
Livello 1
370
     0
  0
POLYLINE
  5
5A2
330
1F
100
AcDbEntity
  8
Livello 1
370
     0
100
AcDb2dPolyline
 66
     1
 10
0.0
 20
0.0
 30
0.0
  0
VERTEX
  5
5A3
330
5A2
100
AcDbEntity
  8
Livello 1
370
     0
100
AcDbVertex
100
AcDb2dVertex
 10
6.152092837519048
 20
12.67412943471273
 30
0.0
  0
VERTEX
  5
5A4
330
5A2
100
AcDbEntity
  8
Livello 1
370
     0
100
AcDbVertex
100
AcDb2dVertex
 10
6.071659278121442
 20
12.67412943471273
 30
0.0
  0
VERTEX
  5
5A5
330
5A2
100
AcDbEntity
  8
Livello 1
370
     0
100
AcDbVertex
100
AcDb2dVertex
 10
6.071659278121442
 20
12.75350389639671
 30
0.0
  0
VERTEX
  5
5A6
330
5A2
100
AcDbEntity
  8
Livello 1
370
     0
100
AcDbVertex
100
AcDb2dVertex
 10
6.152092837519048
 20
12.75350389639671
 30
0.0
  0
VERTEX
  5
5A7
330
5A2
100
AcDbEntity
  8
Livello 1
370
     0
100
AcDbVertex
100
AcDb2dVertex
 10
6.152092837519048
 20
12.67412943471273
 30
0.0
  0
SEQEND
  5
5A8
330
5A2
100
AcDbEntity
  8
Livello 1
370
     0
  0
POLYLINE
  5
5AA
330
1F
100
AcDbEntity
  8
Livello 1
370
     0
100
AcDb2dPolyline
 66
     1
 10
0.0
 20
0.0
 30
0.0
  0
VERTEX
  5
5AB
330
5AA
100
AcDbEntity
  8
Livello 1
370
     0
100
AcDbVertex
100
AcDb2dVertex
 10
7.590720975595643
 20
12.67412943471273
 30
0.0
  0
VERTEX
  5
5AC
330
5AA
100
AcDbEntity
  8
Livello 1
370
     0
100
AcDbVertex
100
AcDb2dVertex
 10
7.51028741619794
 20
12.67412943471273
 30
0.0
  0
VERTEX
  5
5AD
330
5AA
100
AcDbEntity
  8
Livello 1
370
     0
100
AcDbVertex
100
AcDb2dVertex
 10
7.51028741619794
 20
12.75350389639671
 30
0.0
  0
VERTEX
  5
5AE
330
5AA
100
AcDbEntity
  8
Livello 1
370
     0
100
AcDbVertex
100
AcDb2dVertex
 10
7.590720975595643
 20
12.75350389639671
 30
0.0
  0
VERTEX
  5
5AF
330
5AA
100
AcDbEntity
  8
Livello 1
370
     0
100
AcDbVertex
100
AcDb2dVertex
 10
7.590720975595643
 20
12.67412943471273
 30
0.0
  0
SEQEND
  5
5B0
330
5AA
100
AcDbEntity
  8
Livello 1
370
     0
  0
POLYLINE
  5
5B2
330
1F
100
AcDbEntity
  8
Livello 1
370
     0
100
AcDb2dPolyline
 66
     1
 10
0.0
 20
0.0
 30
0.0
  0
VERTEX
  5
5B3
330
5B2
100
AcDbEntity
  8
Livello 1
370
     0
100
AcDbVertex
100
AcDb2dVertex
 10
20.23840329482984
 20
10.99187316038015
 30
0.0
  0
VERTEX
  5
5B4
330
5B2
100
AcDbEntity
  8
Livello 1
370
     0
100
AcDbVertex
100
AcDb2dVertex
 10
20.15796838969185
 20
10.99328416921462
 30
0.0
  0
VERTEX
  5
5B5
330
5B2
100
AcDbEntity
  8
Livello 1
370
     0
100
AcDbVertex
100
AcDb2dVertex
 10
20.18372047844406
 20
12.47636211349345
 30
0.0
  0
VERTEX
  5
5B6
330
5B2
100
AcDbEntity
  8
Livello 1
370
     0
100
AcDbVertex
100
AcDb2dVertex
 10
20.26415538358205
 20
12.47495043178875
 30
0.0
  0
VERTEX
  5
5B7
330
5B2
100
AcDbEntity
  8
Livello 1
370
     0
100
AcDbVertex
100
AcDb2dVertex
 10
20.23840329482984
 20
10.99187316038015
 30
0.0
  0
SEQEND
  5
5B8
330
5B2
100
AcDbEntity
  8
Livello 1
370
     0
  0
POLYLINE
  5
5BA
330
1F
100
AcDbEntity
  8
Livello 1
370
     0
100
AcDb2dPolyline
 66
     1
 10
0.0
 20
0.0
 30
0.0
  0
VERTEX
  5
5BB
330
5BA
100
AcDbEntity
  8
Livello 1
370
     0
100
AcDbVertex
100
AcDb2dVertex
 10
20.26426304281604
 20
12.47505674528223
 30
0.0
  0
VERTEX
  5
5BC
330
5BA
100
AcDbEntity
  8
Livello 1
370
     0
100
AcDbVertex
100
AcDb2dVertex
 10
20.18382813767793
 20
12.47646708124652
 30
0.0
  0
VERTEX
  5
5BD
330
5BA
100
AcDbEntity
  8
Livello 1
370
     0
100
AcDbVertex
100
AcDb2dVertex
 10
20.18559105763335
 20
12.57559835809417
 30
0.0
  0
VERTEX
  5
5BE
330
5BA
100
AcDbEntity
  8
Livello 1
370
     0
100
AcDbVertex
100
AcDb2dVertex
 10
20.26602596277135
 20
12.57418667638947
 30
0.0
  0
VERTEX
  5
5BF
330
5BA
100
AcDbEntity
  8
Livello 1
370
     0
100
AcDbVertex
100
AcDb2dVertex
 10
20.26426304281604
 20
12.47505674528223
 30
0.0
  0
SEQEND
  5
5C0
330
5BA
100
AcDbEntity
  8
Livello 1
370
     0
  0
POLYLINE
  5
5C2
330
1F
100
AcDbEntity
  8
Livello 1
370
     0
100
AcDb2dPolyline
 66
     1
 10
0.0
 20
0.0
 30
0.0
  0
VERTEX
  5
5C3
330
5C2
100
AcDbEntity
  8
Livello 1
370
     0
100
AcDbVertex
100
AcDb2dVertex
 10
28.15050378808435
 20
10.99187316038015
 30
0.0
  0
VERTEX
  5
5C4
330
5C2
100
AcDbEntity
  8
Livello 1
370
     0
100
AcDbVertex
100
AcDb2dVertex
 10
28.12474900785124
 20
12.47495043178875
 30
0.0
  0
VERTEX
  5
5C5
330
5C2
100
AcDbEntity
  8
Livello 1
370
     0
100
AcDbVertex
100
AcDb2dVertex
 10
28.20518391298925
 20
12.47636211349345
 30
0.0
  0
VERTEX
  5
5C6
330
5C2
100
AcDbEntity
  8
Livello 1
370
     0
100
AcDbVertex
100
AcDb2dVertex
 10
28.23093600174156
 20
10.99328416921462
 30
0.0
  0
VERTEX
  5
5C7
330
5C2
100
AcDbEntity
  8
Livello 1
370
     0
100
AcDbVertex
100
AcDb2dVertex
 10
28.15050378808435
 20
10.99187316038015
 30
0.0
  0
SEQEND
  5
5C8
330
5C2
100
AcDbEntity
  8
Livello 1
370
     0
  0
POLYLINE
  5
5CA
330
1F
100
AcDbEntity
  8
Livello 1
370
     0
100
AcDb2dPolyline
 66
     1
 10
0.0
 20
0.0
 30
0.0
  0
VERTEX
  5
5CB
330
5CA
100
AcDbEntity
  8
Livello 1
370
     0
100
AcDbVertex
100
AcDb2dVertex
 10
20.74827473516593
 20
12.63391198214371
 30
0.0
  0
VERTEX
  5
5CC
330
5CA
100
AcDbEntity
  8
Livello 1
370
     0
100
AcDbVertex
100
AcDb2dVertex
 10
20.52320234074526
 20
12.63391198214371
 30
0.0
  0
VERTEX
  5
5CD
330
5CA
100
AcDbEntity
  8
Livello 1
370
     0
100
AcDbVertex
100
AcDb2dVertex
 10
20.52320234074526
 20
12.71434554154133
 30
0.0
  0
VERTEX
  5
5CE
330
5CA
100
AcDbEntity
  8
Livello 1
370
     0
100
AcDbVertex
100
AcDb2dVertex
 10
20.74827473516593
 20
12.71434554154133
 30
0.0
  0
VERTEX
  5
5CF
330
5CA
100
AcDbEntity
  8
Livello 1
370
     0
100
AcDbVertex
100
AcDb2dVertex
 10
20.74827473516593
 20
12.63391198214371
 30
0.0
  0
SEQEND
  5
5D0
330
5CA
100
AcDbEntity
  8
Livello 1
370
     0
  0
POLYLINE
  5
5D2
330
1F
100
AcDbEntity
  8
Livello 1
370
     0
100
AcDb2dPolyline
 66
     1
 10
0.0
 20
0.0
 30
0.0
  0
VERTEX
  5
5D3
330
5D2
100
AcDbEntity
  8
Livello 1
370
     0
100
AcDbVertex
100
AcDb2dVertex
 10
27.29688717978394
 20
12.63391198214371
 30
0.0
  0
VERTEX
  5
5D4
330
5D2
100
AcDbEntity
  8
Livello 1
370
     0
100
AcDbVertex
100
AcDb2dVertex
 10
21.09223253011714
 20
12.63391198214371
 30
0.0
  0
VERTEX
  5
5D5
330
5D2
100
AcDbEntity
  8
Livello 1
370
     0
100
AcDbVertex
100
AcDb2dVertex
 10
21.09223253011714
 20
12.71434554154133
 30
0.0
  0
VERTEX
  5
5D6
330
5D2
100
AcDbEntity
  8
Livello 1
370
     0
100
AcDbVertex
100
AcDb2dVertex
 10
27.29688717978394
 20
12.71434554154133
 30
0.0
  0
VERTEX
  5
5D7
330
5D2
100
AcDbEntity
  8
Livello 1
370
     0
100
AcDbVertex
100
AcDb2dVertex
 10
27.29688717978394
 20
12.63391198214371
 30
0.0
  0
SEQEND
  5
5D8
330
5D2
100
AcDbEntity
  8
Livello 1
370
     0
  0
POLYLINE
  5
5DA
330
1F
100
AcDbEntity
  8
Livello 1
370
     0
100
AcDb2dPolyline
 66
     1
 10
0.0
 20
0.0
 30
0.0
  0
VERTEX
  5
5DB
330
5DA
100
AcDbEntity
  8
Livello 1
370
     0
100
AcDbVertex
100
AcDb2dVertex
 10
27.86556478516486
 20
12.63391198214371
 30
0.0
  0
VERTEX
  5
5DC
330
5DA
100
AcDbEntity
  8
Livello 1
370
     0
100
AcDbVertex
100
AcDb2dVertex
 10
27.64049239074406
 20
12.63391198214371
 30
0.0
  0
VERTEX
  5
5DD
330
5DA
100
AcDbEntity
  8
Livello 1
370
     0
100
AcDbVertex
100
AcDb2dVertex
 10
27.64049239074406
 20
12.71434554154133
 30
0.0
  0
VERTEX
  5
5DE
330
5DA
100
AcDbEntity
  8
Livello 1
370
     0
100
AcDbVertex
100
AcDb2dVertex
 10
27.86556478516486
 20
12.71434554154133
 30
0.0
  0
VERTEX
  5
5DF
330
5DA
100
AcDbEntity
  8
Livello 1
370
     0
100
AcDbVertex
100
AcDb2dVertex
 10
27.86556478516486
 20
12.63391198214371
 30
0.0
  0
SEQEND
  5
5E0
330
5DA
100
AcDbEntity
  8
Livello 1
370
     0
  0
POLYLINE
  5
5E2
330
1F
100
AcDbEntity
  8
Livello 1
370
     0
100
AcDb2dPolyline
 66
     1
 10
0.0
 20
0.0
 30
0.0
  0
VERTEX
  5
5E3
330
5E2
100
AcDbEntity
  8
Livello 1
370
     0
100
AcDbVertex
100
AcDb2dVertex
 10
20.23851095406376
 20
12.5367575979788
 30
0.0
  0
VERTEX
  5
5E4
330
5E2
100
AcDbEntity
  8
Livello 1
370
     0
100
AcDbVertex
100
AcDb2dVertex
 10
20.21310875782174
 20
12.61331004199383
 30
0.0
  0
VERTEX
  5
5E5
330
5E2
100
AcDbEntity
  8
Livello 1
370
     0
100
AcDbVertex
100
AcDb2dVertex
 10
20.51050124262426
 20
12.71243997310105
 30
0.0
  0
VERTEX
  5
5E6
330
5E2
100
AcDbEntity
  8
Livello 1
370
     0
100
AcDbVertex
100
AcDb2dVertex
 10
20.53590074738544
 20
12.63588752908603
 30
0.0
  0
VERTEX
  5
5E7
330
5E2
100
AcDbEntity
  8
Livello 1
370
     0
100
AcDbVertex
100
AcDb2dVertex
 10
20.23851095406376
 20
12.5367575979788
 30
0.0
  0
SEQEND
  5
5E8
330
5E2
100
AcDbEntity
  8
Livello 1
370
     0
  0
POLYLINE
  5
5EA
330
1F
100
AcDbEntity
  8
Livello 1
370
     0
100
AcDb2dPolyline
 66
     1
 10
0.0
 20
0.0
 30
0.0
  0
VERTEX
  5
5EB
330
5EA
100
AcDbEntity
  8
Livello 1
370
     0
100
AcDbVertex
100
AcDb2dVertex
 10
21.08694107877025
 20
12.63391198214371
 30
0.0
  0
VERTEX
  5
5EC
330
5EA
100
AcDbEntity
  8
Livello 1
370
     0
100
AcDbVertex
100
AcDb2dVertex
 10
20.75321360252186
 20
12.63391198214371
 30
0.0
  0
VERTEX
  5
5ED
330
5EA
100
AcDbEntity
  8
Livello 1
370
     0
100
AcDbVertex
100
AcDb2dVertex
 10
20.75321360252186
 20
12.71434554154133
 30
0.0
  0
VERTEX
  5
5EE
330
5EA
100
AcDbEntity
  8
Livello 1
370
     0
100
AcDbVertex
100
AcDb2dVertex
 10
21.08694107877025
 20
12.71434554154133
 30
0.0
  0
VERTEX
  5
5EF
330
5EA
100
AcDbEntity
  8
Livello 1
370
     0
100
AcDbVertex
100
AcDb2dVertex
 10
21.08694107877025
 20
12.63391198214371
 30
0.0
  0
SEQEND
  5
5F0
330
5EA
100
AcDbEntity
  8
Livello 1
370
     0
  0
POLYLINE
  5
5F2
330
1F
100
AcDbEntity
  8
Livello 1
370
     0
100
AcDb2dPolyline
 66
     1
 10
0.0
 20
0.0
 30
0.0
  0
VERTEX
  5
5F3
330
5F2
100
AcDbEntity
  8
Livello 1
370
     0
100
AcDbVertex
100
AcDb2dVertex
 10
27.64049239074406
 20
12.63391198214371
 30
0.0
  0
VERTEX
  5
5F4
330
5F2
100
AcDbEntity
  8
Livello 1
370
     0
100
AcDbVertex
100
AcDb2dVertex
 10
27.29688717978394
 20
12.63391198214371
 30
0.0
  0
VERTEX
  5
5F5
330
5F2
100
AcDbEntity
  8
Livello 1
370
     0
100
AcDbVertex
100
AcDb2dVertex
 10
27.29688717978394
 20
12.71434554154133
 30
0.0
  0
VERTEX
  5
5F6
330
5F2
100
AcDbEntity
  8
Livello 1
370
     0
100
AcDbVertex
100
AcDb2dVertex
 10
27.64049239074406
 20
12.71434554154133
 30
0.0
  0
VERTEX
  5
5F7
330
5F2
100
AcDbEntity
  8
Livello 1
370
     0
100
AcDbVertex
100
AcDb2dVertex
 10
27.64049239074406
 20
12.63391198214371
 30
0.0
  0
SEQEND
  5
5F8
330
5F2
100
AcDbEntity
  8
Livello 1
370
     0
  0
POLYLINE
  5
5FA
330
1F
100
AcDbEntity
  8
Livello 1
370
     0
100
AcDb2dPolyline
 66
     1
 10
0.0
 20
0.0
 30
0.0
  0
VERTEX
  5
5FB
330
5FA
100
AcDbEntity
  8
Livello 1
370
     0
100
AcDbVertex
100
AcDb2dVertex
 10
28.15046879883326
 20
12.5367575979788
 30
0.0
  0
VERTEX
  5
5FC
330
5FA
100
AcDbEntity
  8
Livello 1
370
     0
100
AcDbVertex
100
AcDb2dVertex
 10
27.85272373003974
 20
12.63588752908603
 30
0.0
  0
VERTEX
  5
5FD
330
5FA
100
AcDbEntity
  8
Livello 1
370
     0
100
AcDbVertex
100
AcDb2dVertex
 10
27.87812323480086
 20
12.71243997310105
 30
0.0
  0
VERTEX
  5
5FE
330
5FA
100
AcDbEntity
  8
Livello 1
370
     0
100
AcDbVertex
100
AcDb2dVertex
 10
28.17586830359434
 20
12.61331004199383
 30
0.0
  0
VERTEX
  5
5FF
330
5FA
100
AcDbEntity
  8
Livello 1
370
     0
100
AcDbVertex
100
AcDb2dVertex
 10
28.15046879883326
 20
12.5367575979788
 30
0.0
  0
SEQEND
  5
600
330
5FA
100
AcDbEntity
  8
Livello 1
370
     0
  0
POLYLINE
  5
602
330
1F
100
AcDbEntity
  8
Livello 1
370
     0
100
AcDb2dPolyline
 66
     1
 10
0.0
 20
0.0
 30
0.0
  0
VERTEX
  5
603
330
602
100
AcDbEntity
  8
Livello 1
370
     0
100
AcDbVertex
100
AcDb2dVertex
 10
28.12464404009815
 20
12.47505674528223
 30
0.0
  0
VERTEX
  5
604
330
602
100
AcDbEntity
  8
Livello 1
370
     0
100
AcDbVertex
100
AcDb2dVertex
 10
28.12287842866194
 20
12.57418667638947
 30
0.0
  0
VERTEX
  5
605
330
602
100
AcDbEntity
  8
Livello 1
370
     0
100
AcDbVertex
100
AcDb2dVertex
 10
28.20366591779106
 20
12.57559835809417
 30
0.0
  0
VERTEX
  5
606
330
602
100
AcDbEntity
  8
Livello 1
370
     0
100
AcDbVertex
100
AcDb2dVertex
 10
28.20507625375534
 20
12.47646708124652
 30
0.0
  0
VERTEX
  5
607
330
602
100
AcDbEntity
  8
Livello 1
370
     0
100
AcDbVertex
100
AcDb2dVertex
 10
28.12464404009815
 20
12.47505674528223
 30
0.0
  0
SEQEND
  5
608
330
602
100
AcDbEntity
  8
Livello 1
370
     0
  0
POLYLINE
  5
60A
330
1F
100
AcDbEntity
  8
Livello 1
370
     0
100
AcDb2dPolyline
 66
     1
 10
0.0
 20
0.0
 30
0.0
  0
VERTEX
  5
60B
330
60A
100
AcDbEntity
  8
Livello 1
370
     0
100
AcDbVertex
100
AcDb2dVertex
 10
23.51546155630575
 20
12.75385648038779
 30
0.0
  0
VERTEX
  5
60C
330
60A
100
AcDbEntity
  8
Livello 1
370
     0
100
AcDbVertex
100
AcDb2dVertex
 10
23.43502934264855
 20
12.75385648038779
 30
0.0
  0
VERTEX
  5
60D
330
60A
100
AcDbEntity
  8
Livello 1
370
     0
100
AcDbVertex
100
AcDb2dVertex
 10
23.43502934264855
 20
12.90272901478457
 30
0.0
  0
VERTEX
  5
60E
330
60A
100
AcDbEntity
  8
Livello 1
370
     0
100
AcDbVertex
100
AcDb2dVertex
 10
23.51546155630575
 20
12.90272901478457
 30
0.0
  0
VERTEX
  5
60F
330
60A
100
AcDbEntity
  8
Livello 1
370
     0
100
AcDbVertex
100
AcDb2dVertex
 10
23.51546155630575
 20
12.75385648038779
 30
0.0
  0
SEQEND
  5
610
330
60A
100
AcDbEntity
  8
Livello 1
370
     0
  0
POLYLINE
  5
612
330
1F
100
AcDbEntity
  8
Livello 1
370
     0
100
AcDb2dPolyline
 66
     1
 10
0.0
 20
0.0
 30
0.0
  0
VERTEX
  5
613
330
612
100
AcDbEntity
  8
Livello 1
370
     0
100
AcDbVertex
100
AcDb2dVertex
 10
23.51546155630575
 20
12.90272901478457
 30
0.0
  0
VERTEX
  5
614
330
612
100
AcDbEntity
  8
Livello 1
370
     0
100
AcDbVertex
100
AcDb2dVertex
 10
23.43502934264855
 20
12.90272901478457
 30
0.0
  0
VERTEX
  5
615
330
612
100
AcDbEntity
  8
Livello 1
370
     0
100
AcDbVertex
100
AcDb2dVertex
 10
23.43502934264855
 20
13.2498627571362
 30
0.0
  0
VERTEX
  5
616
330
612
100
AcDbEntity
  8
Livello 1
370
     0
100
AcDbVertex
100
AcDb2dVertex
 10
23.51546155630575
 20
13.2498627571362
 30
0.0
  0
VERTEX
  5
617
330
612
100
AcDbEntity
  8
Livello 1
370
     0
100
AcDbVertex
100
AcDb2dVertex
 10
23.51546155630575
 20
12.90272901478457
 30
0.0
  0
SEQEND
  5
618
330
612
100
AcDbEntity
  8
Livello 1
370
     0
  0
SPLINE
  5
61A
330
1F
100
AcDbEntity
  8
Livello 1
370
     0
100
AcDbSpline
210
0.0
220
0.0
230
1.0
 70
     9
 71
     3
 72
    17
 73
    13
 74
     0
 42
0.000000001
 43
0.0000000001
 40
0.0
 40
0.0
 40
0.0
 40
0.0
 40
1.0
 40
1.0
 40
1.0
 40
2.0
 40
2.0
 40
2.0
 40
3.0
 40
3.0
 40
3.0
 40
4.0
 40
4.0
 40
4.0
 40
4.0
 10
23.51542656705475
 20
13.2497214543917
 30
0.0
 10
23.51542656705475
 20
13.2497214543917
 30
0.0
 10
23.43499166191675
 20
13.2497214543917
 30
0.0
 10
23.43499166191675
 20
13.2497214543917
 30
0.0
 10
23.43499166191675
 20
13.32662648239777
 30
0.0
 10
23.49743401758684
 20
13.38906749232752
 30
0.0
 10
23.57434039133335
 20
13.38906749232752
 30
0.0
 10
23.57434039133335
 20
13.38906749232752
 30
0.0
 10
23.57434039133335
 20
13.30863527867031
 30
0.0
 10
23.57434039133335
 20
13.30863527867031
 30
0.0
 10
23.54188382378914
 20
13.30863527867031
 30
0.0
 10
23.51542656705475
 20
13.28217667619551
 30
0.0
 10
23.51542656705475
 20
13.2497214543917
 30
0.0
  0
POLYLINE
  5
61B
330
1F
100
AcDbEntity
  8
Livello 1
370
     0
100
AcDb2dPolyline
 66
     1
 10
0.0
 20
0.0
 30
0.0
  0
VERTEX
  5
61C
330
61B
100
AcDbEntity
  8
Livello 1
370
     0
100
AcDbVertex
100
AcDb2dVertex
 10
24.81474432931675
 20
13.30877658141482
 30
0.0
  0
VERTEX
  5
61D
330
61B
100
AcDbEntity
  8
Livello 1
370
     0
100
AcDbVertex
100
AcDb2dVertex
 10
23.57437807206526
 20
13.30877658141482
 30
0.0
  0
VERTEX
  5
61E
330
61B
100
AcDbEntity
  8
Livello 1
370
     0
100
AcDbVertex
100
AcDb2dVertex
 10
23.57437807206526
 20
13.38921014081244
 30
0.0
  0
VERTEX
  5
61F
330
61B
100
AcDbEntity
  8
Livello 1
370
     0
100
AcDbVertex
100
AcDb2dVertex
 10
24.81474432931675
 20
13.38921014081244
 30
0.0
  0
VERTEX
  5
620
330
61B
100
AcDbEntity
  8
Livello 1
370
     0
100
AcDbVertex
100
AcDb2dVertex
 10
24.81474432931675
 20
13.30877658141482
 30
0.0
  0
SEQEND
  5
621
330
61B
100
AcDbEntity
  8
Livello 1
370
     0
  0
POLYLINE
  5
623
330
1F
100
AcDbEntity
  8
Livello 1
370
     0
100
AcDb2dPolyline
 66
     1
 10
0.0
 20
0.0
 30
0.0
  0
VERTEX
  5
624
330
623
100
AcDbEntity
  8
Livello 1
370
     0
100
AcDbVertex
100
AcDb2dVertex
 10
24.95409036725256
 20
12.90272901478457
 30
0.0
  0
VERTEX
  5
625
330
623
100
AcDbEntity
  8
Livello 1
370
     0
100
AcDbVertex
100
AcDb2dVertex
 10
24.87365815359535
 20
12.90272901478457
 30
0.0
  0
VERTEX
  5
626
330
623
100
AcDbEntity
  8
Livello 1
370
     0
100
AcDbVertex
100
AcDb2dVertex
 10
24.87365815359535
 20
13.2498627571362
 30
0.0
  0
VERTEX
  5
627
330
623
100
AcDbEntity
  8
Livello 1
370
     0
100
AcDbVertex
100
AcDb2dVertex
 10
24.95409036725256
 20
13.2498627571362
 30
0.0
  0
VERTEX
  5
628
330
623
100
AcDbEntity
  8
Livello 1
370
     0
100
AcDbVertex
100
AcDb2dVertex
 10
24.95409036725256
 20
12.90272901478457
 30
0.0
  0
SEQEND
  5
629
330
623
100
AcDbEntity
  8
Livello 1
370
     0
  0
SPLINE
  5
62B
330
1F
100
AcDbEntity
  8
Livello 1
370
     0
100
AcDbSpline
210
0.0
220
0.0
230
1.0
 70
     9
 71
     3
 72
    17
 73
    13
 74
     0
 42
0.000000001
 43
0.0000000001
 40
0.0
 40
0.0
 40
0.0
 40
0.0
 40
1.0
 40
1.0
 40
1.0
 40
2.0
 40
2.0
 40
2.0
 40
3.0
 40
3.0
 40
3.0
 40
4.0
 40
4.0
 40
4.0
 40
4.0
 10
24.95416034575455
 20
13.2497214543917
 30
0.0
 10
24.95416034575455
 20
13.2497214543917
 30
0.0
 10
24.87372544061655
 20
13.2497214543917
 30
0.0
 10
24.87372544061655
 20
13.2497214543917
 30
0.0
 10
24.87372544061655
 20
13.28217667619551
 30
0.0
 10
24.84726818388214
 20
13.30863527867031
 30
0.0
 10
24.81481161633795
 20
13.30863527867031
 30
0.0
 10
24.81481161633795
 20
13.30863527867031
 30
0.0
 10
24.81481161633795
 20
13.38906749232752
 30
0.0
 10
24.81481161633795
 20
13.38906749232752
 30
0.0
 10
24.89136540609334
 20
13.38906749232752
 30
0.0
 10
24.95416034575455
 20
13.32662648239777
 30
0.0
 10
24.95416034575455
 20
13.2497214543917
 30
0.0
  0
POLYLINE
  5
62C
330
1F
100
AcDbEntity
  8
Livello 1
370
     0
100
AcDb2dPolyline
 66
     1
 10
0.0
 20
0.0
 30
0.0
  0
VERTEX
  5
62D
330
62C
100
AcDbEntity
  8
Livello 1
370
     0
100
AcDbVertex
100
AcDb2dVertex
 10
24.95409036725256
 20
12.75385648038779
 30
0.0
  0
VERTEX
  5
62E
330
62C
100
AcDbEntity
  8
Livello 1
370
     0
100
AcDbVertex
100
AcDb2dVertex
 10
24.87365815359535
 20
12.75385648038779
 30
0.0
  0
VERTEX
  5
62F
330
62C
100
AcDbEntity
  8
Livello 1
370
     0
100
AcDbVertex
100
AcDb2dVertex
 10
24.87365815359535
 20
12.90272901478457
 30
0.0
  0
VERTEX
  5
630
330
62C
100
AcDbEntity
  8
Livello 1
370
     0
100
AcDbVertex
100
AcDb2dVertex
 10
24.95409036725256
 20
12.90272901478457
 30
0.0
  0
VERTEX
  5
631
330
62C
100
AcDbEntity
  8
Livello 1
370
     0
100
AcDbVertex
100
AcDb2dVertex
 10
24.95409036725256
 20
12.75385648038779
 30
0.0
  0
SEQEND
  5
632
330
62C
100
AcDbEntity
  8
Livello 1
370
     0
  0
POLYLINE
  5
634
330
1F
100
AcDbEntity
  8
Livello 1
370
     0
100
AcDb2dPolyline
 66
     1
 10
0.0
 20
0.0
 30
0.0
  0
VERTEX
  5
635
330
634
100
AcDbEntity
  8
Livello 1
370
     0
100
AcDbVertex
100
AcDb2dVertex
 10
23.51546155630575
 20
12.67412943471273
 30
0.0
  0
VERTEX
  5
636
330
634
100
AcDbEntity
  8
Livello 1
370
     0
100
AcDbVertex
100
AcDb2dVertex
 10
23.43502934264855
 20
12.67412943471273
 30
0.0
  0
VERTEX
  5
637
330
634
100
AcDbEntity
  8
Livello 1
370
     0
100
AcDbVertex
100
AcDb2dVertex
 10
23.43502934264855
 20
12.75350389639671
 30
0.0
  0
VERTEX
  5
638
330
634
100
AcDbEntity
  8
Livello 1
370
     0
100
AcDbVertex
100
AcDb2dVertex
 10
23.51546155630575
 20
12.75350389639671
 30
0.0
  0
VERTEX
  5
639
330
634
100
AcDbEntity
  8
Livello 1
370
     0
100
AcDbVertex
100
AcDb2dVertex
 10
23.51546155630575
 20
12.67412943471273
 30
0.0
  0
SEQEND
  5
63A
330
634
100
AcDbEntity
  8
Livello 1
370
     0
  0
POLYLINE
  5
63C
330
1F
100
AcDbEntity
  8
Livello 1
370
     0
100
AcDb2dPolyline
 66
     1
 10
0.0
 20
0.0
 30
0.0
  0
VERTEX
  5
63D
330
63C
100
AcDbEntity
  8
Livello 1
370
     0
100
AcDbVertex
100
AcDb2dVertex
 10
24.95409036725256
 20
12.67412943471273
 30
0.0
  0
VERTEX
  5
63E
330
63C
100
AcDbEntity
  8
Livello 1
370
     0
100
AcDbVertex
100
AcDb2dVertex
 10
24.87365815359535
 20
12.67412943471273
 30
0.0
  0
VERTEX
  5
63F
330
63C
100
AcDbEntity
  8
Livello 1
370
     0
100
AcDbVertex
100
AcDb2dVertex
 10
24.87365815359535
 20
12.75350389639671
 30
0.0
  0
VERTEX
  5
640
330
63C
100
AcDbEntity
  8
Livello 1
370
     0
100
AcDbVertex
100
AcDb2dVertex
 10
24.95409036725256
 20
12.75350389639671
 30
0.0
  0
VERTEX
  5
641
330
63C
100
AcDbEntity
  8
Livello 1
370
     0
100
AcDbVertex
100
AcDb2dVertex
 10
24.95409036725256
 20
12.67412943471273
 30
0.0
  0
SEQEND
  5
642
330
63C
100
AcDbEntity
  8
Livello 1
370
     0
  0
POLYLINE
  5
644
330
1F
100
AcDbEntity
  8
Livello 1
370
     0
100
AcDb2dPolyline
 66
     1
 10
0.0
 20
0.0
 30
0.0
  0
VERTEX
  5
645
330
644
100
AcDbEntity
  8
Livello 1
370
     0
100
AcDbVertex
100
AcDb2dVertex
 10
3.685117827369836
 20
12.63391198214371
 30
0.0
  0
VERTEX
  5
646
330
644
100
AcDbEntity
  8
Livello 1
370
     0
100
AcDbVertex
100
AcDb2dVertex
 10
3.293181694824838
 20
12.63391198214371
 30
0.0
  0
VERTEX
  5
647
330
644
100
AcDbEntity
  8
Livello 1
370
     0
100
AcDbVertex
100
AcDb2dVertex
 10
3.293181694824838
 20
13.82277271615028
 30
0.0
  0
VERTEX
  5
648
330
644
100
AcDbEntity
  8
Livello 1
370
     0
100
AcDbVertex
100
AcDb2dVertex
 10
3.685117827369836
 20
13.82277271615028
 30
0.0
  0
VERTEX
  5
649
330
644
100
AcDbEntity
  8
Livello 1
370
     0
100
AcDbVertex
100
AcDb2dVertex
 10
3.685117827369836
 20
12.63391198214371
 30
0.0
  0
SEQEND
  5
64A
330
644
100
AcDbEntity
  8
Livello 1
370
     0
  0
POLYLINE
  5
64B
330
1F
100
AcDbEntity
  8
Livello 1
370
     0
100
AcDb2dPolyline
 66
     1
 10
0.0
 20
0.0
 30
0.0
  0
VERTEX
  5
64C
330
64B
100
AcDbEntity
  8
Livello 1
370
     0
100
AcDbVertex
100
AcDb2dVertex
 10
3.373615254222542
 20
12.71469812553239
 30
0.0
  0
VERTEX
  5
64D
330
64B
100
AcDbEntity
  8
Livello 1
370
     0
100
AcDbVertex
100
AcDb2dVertex
 10
3.604331683981143
 20
12.71469812553239
 30
0.0
  0
VERTEX
  5
64E
330
64B
100
AcDbEntity
  8
Livello 1
370
     0
100
AcDbVertex
100
AcDb2dVertex
 10
3.604331683981143
 20
13.7423405024931
 30
0.0
  0
VERTEX
  5
64F
330
64B
100
AcDbEntity
  8
Livello 1
370
     0
100
AcDbVertex
100
AcDb2dVertex
 10
3.373615254222542
 20
13.7423405024931
 30
0.0
  0
VERTEX
  5
650
330
64B
100
AcDbEntity
  8
Livello 1
370
     0
100
AcDbVertex
100
AcDb2dVertex
 10
3.373615254222542
 20
12.71469812553239
 30
0.0
  0
SEQEND
  5
651
330
64B
100
AcDbEntity
  8
Livello 1
370
     0
  0
POLYLINE
  5
653
330
1F
100
AcDbEntity
  8
Livello 1
370
     0
100
AcDb2dPolyline
 66
     1
 10
0.0
 20
0.0
 30
0.0
  0
VERTEX
  5
654
330
653
100
AcDbEntity
  8
Livello 1
370
     0
100
AcDbVertex
100
AcDb2dVertex
 10
10.33251031058485
 20
12.63391198214371
 30
0.0
  0
VERTEX
  5
655
330
653
100
AcDbEntity
  8
Livello 1
370
     0
100
AcDbVertex
100
AcDb2dVertex
 10
9.940574178039851
 20
12.63391198214371
 30
0.0
  0
VERTEX
  5
656
330
653
100
AcDbEntity
  8
Livello 1
370
     0
100
AcDbVertex
100
AcDb2dVertex
 10
9.940574178039851
 20
13.82277271615028
 30
0.0
  0
VERTEX
  5
657
330
653
100
AcDbEntity
  8
Livello 1
370
     0
100
AcDbVertex
100
AcDb2dVertex
 10
10.33251031058485
 20
13.82277271615028
 30
0.0
  0
VERTEX
  5
658
330
653
100
AcDbEntity
  8
Livello 1
370
     0
100
AcDbVertex
100
AcDb2dVertex
 10
10.33251031058485
 20
12.63391198214371
 30
0.0
  0
SEQEND
  5
659
330
653
100
AcDbEntity
  8
Livello 1
370
     0
  0
POLYLINE
  5
65A
330
1F
100
AcDbEntity
  8
Livello 1
370
     0
100
AcDb2dPolyline
 66
     1
 10
0.0
 20
0.0
 30
0.0
  0
VERTEX
  5
65B
330
65A
100
AcDbEntity
  8
Livello 1
370
     0
100
AcDbVertex
100
AcDb2dVertex
 10
10.02136032142854
 20
12.71469812553239
 30
0.0
  0
VERTEX
  5
65C
330
65A
100
AcDbEntity
  8
Livello 1
370
     0
100
AcDbVertex
100
AcDb2dVertex
 10
10.25207675118724
 20
12.71469812553239
 30
0.0
  0
VERTEX
  5
65D
330
65A
100
AcDbEntity
  8
Livello 1
370
     0
100
AcDbVertex
100
AcDb2dVertex
 10
10.25207675118724
 20
13.7423405024931
 30
0.0
  0
VERTEX
  5
65E
330
65A
100
AcDbEntity
  8
Livello 1
370
     0
100
AcDbVertex
100
AcDb2dVertex
 10
10.02136032142854
 20
13.7423405024931
 30
0.0
  0
VERTEX
  5
65F
330
65A
100
AcDbEntity
  8
Livello 1
370
     0
100
AcDbVertex
100
AcDb2dVertex
 10
10.02136032142854
 20
12.71469812553239
 30
0.0
  0
SEQEND
  5
660
330
65A
100
AcDbEntity
  8
Livello 1
370
     0
  0
POLYLINE
  5
662
330
1F
100
AcDbEntity
  8
Livello 1
370
     0
100
AcDb2dPolyline
 66
     1
 10
0.0
 20
0.0
 30
0.0
  0
VERTEX
  5
663
330
662
100
AcDbEntity
  8
Livello 1
370
     0
100
AcDbVertex
100
AcDb2dVertex
 10
21.04989822786135
 20
12.63391198214371
 30
0.0
  0
VERTEX
  5
664
330
662
100
AcDbEntity
  8
Livello 1
370
     0
100
AcDbVertex
100
AcDb2dVertex
 10
20.65796209531635
 20
12.63391198214371
 30
0.0
  0
VERTEX
  5
665
330
662
100
AcDbEntity
  8
Livello 1
370
     0
100
AcDbVertex
100
AcDb2dVertex
 10
20.65796209531635
 20
13.82277271615028
 30
0.0
  0
VERTEX
  5
666
330
662
100
AcDbEntity
  8
Livello 1
370
     0
100
AcDbVertex
100
AcDb2dVertex
 10
21.04989822786135
 20
13.82277271615028
 30
0.0
  0
VERTEX
  5
667
330
662
100
AcDbEntity
  8
Livello 1
370
     0
100
AcDbVertex
100
AcDb2dVertex
 10
21.04989822786135
 20
12.63391198214371
 30
0.0
  0
SEQEND
  5
668
330
662
100
AcDbEntity
  8
Livello 1
370
     0
  0
POLYLINE
  5
669
330
1F
100
AcDbEntity
  8
Livello 1
370
     0
100
AcDb2dPolyline
 66
     1
 10
0.0
 20
0.0
 30
0.0
  0
VERTEX
  5
66A
330
669
100
AcDbEntity
  8
Livello 1
370
     0
100
AcDbVertex
100
AcDb2dVertex
 10
20.73874958444543
 20
12.71469812553239
 30
0.0
  0
VERTEX
  5
66B
330
669
100
AcDbEntity
  8
Livello 1
370
     0
100
AcDbVertex
100
AcDb2dVertex
 10
20.96946601420413
 20
12.71469812553239
 30
0.0
  0
VERTEX
  5
66C
330
669
100
AcDbEntity
  8
Livello 1
370
     0
100
AcDbVertex
100
AcDb2dVertex
 10
20.96946601420413
 20
13.7423405024931
 30
0.0
  0
VERTEX
  5
66D
330
669
100
AcDbEntity
  8
Livello 1
370
     0
100
AcDbVertex
100
AcDb2dVertex
 10
20.73874958444543
 20
13.7423405024931
 30
0.0
  0
VERTEX
  5
66E
330
669
100
AcDbEntity
  8
Livello 1
370
     0
100
AcDbVertex
100
AcDb2dVertex
 10
20.73874958444543
 20
12.71469812553239
 30
0.0
  0
SEQEND
  5
66F
330
669
100
AcDbEntity
  8
Livello 1
370
     0
  0
POLYLINE
  5
671
330
1F
100
AcDbEntity
  8
Livello 1
370
     0
100
AcDb2dPolyline
 66
     1
 10
0.0
 20
0.0
 30
0.0
  0
VERTEX
  5
672
330
671
100
AcDbEntity
  8
Livello 1
370
     0
100
AcDbVertex
100
AcDb2dVertex
 10
27.69764329506736
 20
12.63391198214371
 30
0.0
  0
VERTEX
  5
673
330
671
100
AcDbEntity
  8
Livello 1
370
     0
100
AcDbVertex
100
AcDb2dVertex
 10
27.30570716252235
 20
12.63391198214371
 30
0.0
  0
VERTEX
  5
674
330
671
100
AcDbEntity
  8
Livello 1
370
     0
100
AcDbVertex
100
AcDb2dVertex
 10
27.30570716252235
 20
13.82277271615028
 30
0.0
  0
VERTEX
  5
675
330
671
100
AcDbEntity
  8
Livello 1
370
     0
100
AcDbVertex
100
AcDb2dVertex
 10
27.69764329506736
 20
13.82277271615028
 30
0.0
  0
VERTEX
  5
676
330
671
100
AcDbEntity
  8
Livello 1
370
     0
100
AcDbVertex
100
AcDb2dVertex
 10
27.69764329506736
 20
12.63391198214371
 30
0.0
  0
SEQEND
  5
677
330
671
100
AcDbEntity
  8
Livello 1
370
     0
  0
POLYLINE
  5
678
330
1F
100
AcDbEntity
  8
Livello 1
370
     0
100
AcDb2dPolyline
 66
     1
 10
0.0
 20
0.0
 30
0.0
  0
VERTEX
  5
679
330
678
100
AcDbEntity
  8
Livello 1
370
     0
100
AcDbVertex
100
AcDb2dVertex
 10
27.38613937617956
 20
12.71469812553239
 30
0.0
  0
VERTEX
  5
67A
330
678
100
AcDbEntity
  8
Livello 1
370
     0
100
AcDbVertex
100
AcDb2dVertex
 10
27.61685580593826
 20
12.71469812553239
 30
0.0
  0
VERTEX
  5
67B
330
678
100
AcDbEntity
  8
Livello 1
370
     0
100
AcDbVertex
100
AcDb2dVertex
 10
27.61685580593826
 20
13.7423405024931
 30
0.0
  0
VERTEX
  5
67C
330
678
100
AcDbEntity
  8
Livello 1
370
     0
100
AcDbVertex
100
AcDb2dVertex
 10
27.38613937617956
 20
13.7423405024931
 30
0.0
  0
VERTEX
  5
67D
330
678
100
AcDbEntity
  8
Livello 1
370
     0
100
AcDbVertex
100
AcDb2dVertex
 10
27.38613937617956
 20
12.71469812553239
 30
0.0
  0
SEQEND
  5
67E
330
678
100
AcDbEntity
  8
Livello 1
370
     0
  0
TEXT
  5
680
330
1F
100
AcDbEntity
  8
Livello 1
100
AcDbText
 10
1.740117509177166
 20
16.00884769867053
 30
0.0
 40
2.123016666135912
  1
107 mm
  7
MtXpl_Source_Sans_Pr
100
AcDbText
  0
TEXT
  5
681
330
1F
100
AcDbEntity
  8
Livello 1
100
AcDbText
 10
1.740117509177166
 20
16.00884769867053
 30
0.0
 40
2.123016666135912
  1
107 mm
  7
MtXpl_Source_Sans_Pr
100
AcDbText
  0
LINE
  5
682
330
1F
100
AcDbEntity
  8
Livello 1
370
    18
100
AcDbLine
 10
10.59719861160515
 20
14.98256545700007
 30
0.0
 11
3.052693170977831
 21
14.98256545700007
 31
0.0
  0
POLYLINE
  5
827
330
1F
100
AcDbEntity
  8
Livello 1
370
     0
100
AcDb2dPolyline
 66
     1
 10
0.0
 20
0.0
 30
0.0
  0
VERTEX
  5
828
330
827
100
AcDbEntity
  8
Livello 1
370
     0
100
AcDbVertex
100
AcDb2dVertex
 10
13.30221260873956
 20
31.17451965813882
 30
0.0
  0
VERTEX
  5
829
330
827
100
AcDbEntity
  8
Livello 1
370
     0
100
AcDbVertex
100
AcDb2dVertex
 10
13.22178039508235
 20
31.17451965813882
 30
0.0
  0
VERTEX
  5
82A
330
827
100
AcDbEntity
  8
Livello 1
370
     0
100
AcDbVertex
100
AcDb2dVertex
 10
13.22178039508235
 20
31.21473576496742
 30
0.0
  0
VERTEX
  5
82B
330
827
100
AcDbEntity
  8
Livello 1
370
     0
100
AcDbVertex
100
AcDb2dVertex
 10
13.30221260873956
 20
31.21473576496742
 30
0.0
  0
VERTEX
  5
82C
330
827
100
AcDbEntity
  8
Livello 1
370
     0
100
AcDbVertex
100
AcDb2dVertex
 10
13.30221260873956
 20
31.17451965813882
 30
0.0
  0
SEQEND
  5
82D
330
827
100
AcDbEntity
  8
Livello 1
370
     0
  0
SPLINE
  5
82F
330
1F
100
AcDbEntity
  8
Livello 1
370
     0
100
AcDbSpline
210
0.0
220
0.0
230
1.0
 70
     9
 71
     3
 72
    14
 73
    10
 74
     0
 42
0.000000001
 43
0.0000000001
 40
0.0
 40
0.0
 40
0.0
 40
0.0
 40
1.0
 40
1.0
 40
1.0
 40
2.0
 40
2.0
 40
2.0
 40
3.0
 40
3.0
 40
3.0
 40
3.0
 10
13.30154243000847
 20
31.08431467752308
 30
0.0
 10
13.28037393314015
 20
31.08678411120099
 30
0.0
 10
13.26273665914415
 20
31.09525016420791
 30
0.0
 10
13.24792005707674
 20
31.11041935026639
 30
0.0
 10
13.24792005707674
 20
31.11041935026639
 30
0.0
 10
13.30542085391023
 20
31.16686374086711
 30
0.0
 10
13.30542085391023
 20
31.16686374086711
 30
0.0
 10
13.30542085391023
 20
31.16686374086711
 30
0.0
 10
13.30154243000847
 20
31.08431467752308
 30
0.0
 10
13.30154243000847
 20
31.08431467752308
 30
0.0
  0
SPLINE
  5
830
330
1F
100
AcDbEntity
  8
Livello 1
370
     0
100
AcDbSpline
210
0.0
220
0.0
230
1.0
 70
     9
 71
     3
 72
    14
 73
    10
 74
     0
 42
0.000000001
 43
0.0000000001
 40
0.0
 40
0.0
 40
0.0
 40
0.0
 40
1.0
 40
1.0
 40
1.0
 40
2.0
 40
2.0
 40
2.0
 40
3.0
 40
3.0
 40
3.0
 40
3.0
 10
13.24830763031885
 20
31.1101380905178
 30
0.0
 10
13.23313575277946
 20
31.12530727657628
 30
0.0
 10
13.22467104551289
 20
31.14224072833055
 30
0.0
 10
13.22220026609467
 20
31.16340653371806
 30
0.0
 10
13.22220026609467
 20
31.16340653371806
 30
0.0
 10
13.30228258724163
 20
31.17328426842965
 30
0.0
 10
13.30228258724163
 20
31.17328426842965
 30
0.0
 10
13.30228258724163
 20
31.17328426842965
 30
0.0
 10
13.24830763031885
 20
31.1101380905178
 30
0.0
 10
13.24830763031885
 20
31.1101380905178
 30
0.0
  0
POLYLINE
  5
831
330
1F
100
AcDbEntity
  8
Livello 1
370
     0
100
AcDb2dPolyline
 66
     1
 10
0.0
 20
0.0
 30
0.0
  0
VERTEX
  5
832
330
831
100
AcDbEntity
  8
Livello 1
370
     0
100
AcDbVertex
100
AcDb2dVertex
 10
16.99509120380433
 20
31.17451965813882
 30
0.0
  0
VERTEX
  5
833
330
831
100
AcDbEntity
  8
Livello 1
370
     0
100
AcDbVertex
100
AcDb2dVertex
 10
16.91465899014714
 20
31.17451965813882
 30
0.0
  0
VERTEX
  5
834
330
831
100
AcDbEntity
  8
Livello 1
370
     0
100
AcDbVertex
100
AcDb2dVertex
 10
16.91465899014714
 20
31.21473576496742
 30
0.0
  0
VERTEX
  5
835
330
831
100
AcDbEntity
  8
Livello 1
370
     0
100
AcDbVertex
100
AcDb2dVertex
 10
16.99509120380433
 20
31.21473576496742
 30
0.0
  0
VERTEX
  5
836
330
831
100
AcDbEntity
  8
Livello 1
370
     0
100
AcDbVertex
100
AcDb2dVertex
 10
16.99509120380433
 20
31.17451965813882
 30
0.0
  0
SEQEND
  5
837
330
831
100
AcDbEntity
  8
Livello 1
370
     0
  0
SPLINE
  5
839
330
1F
100
AcDbEntity
  8
Livello 1
370
     0
100
AcDbSpline
210
0.0
220
0.0
230
1.0
 70
     9
 71
     3
 72
    14
 73
    10
 74
     0
 42
0.000000001
 43
0.0000000001
 40
0.0
 40
0.0
 40
0.0
 40
0.0
 40
1.0
 40
1.0
 40
1.0
 40
2.0
 40
2.0
 40
2.0
 40
3.0
 40
3.0
 40
3.0
 40
3.0
 10
16.91504387190834
 20
31.08424335328062
 30
0.0
 10
16.91504387190834
 20
31.08424335328062
 30
0.0
 10
16.90587130517896
 20
31.16432298294673
 30
0.0
 10
16.90587130517896
 20
31.16432298294673
 30
0.0
 10
16.90587130517896
 20
31.16432298294673
 30
0.0
 10
16.96866355335926
 20
31.11034802602392
 30
0.0
 10
16.96866355335926
 20
31.11034802602392
 30
0.0
 10
16.95349436730073
 20
31.09517883996544
 30
0.0
 10
16.93620967729585
 20
31.08671278695851
 30
0.0
 10
16.91504387190834
 20
31.08424335328062
 30
0.0
  0
POLYLINE
  5
83A
330
1F
100
AcDbEntity
  8
Livello 1
370
     0
100
AcDb2dPolyline
 66
     1
 10
0.0
 20
0.0
 30
0.0
  0
VERTEX
  5
83B
330
83A
100
AcDbEntity
  8
Livello 1
370
     0
100
AcDbVertex
100
AcDb2dVertex
 10
15.95333739275834
 20
31.9340501704408
 30
0.0
  0
VERTEX
  5
83C
330
83A
100
AcDbEntity
  8
Livello 1
370
     0
100
AcDbVertex
100
AcDb2dVertex
 10
15.87290517910115
 20
31.9340501704408
 30
0.0
  0
VERTEX
  5
83D
330
83A
100
AcDbEntity
  8
Livello 1
370
     0
100
AcDbVertex
100
AcDb2dVertex
 10
15.87290517910115
 20
32.03459312899314
 30
0.0
  0
VERTEX
  5
83E
330
83A
100
AcDbEntity
  8
Livello 1
370
     0
100
AcDbVertex
100
AcDb2dVertex
 10
15.95333739275834
 20
32.03459312899314
 30
0.0
  0
VERTEX
  5
83F
330
83A
100
AcDbEntity
  8
Livello 1
370
     0
100
AcDbVertex
100
AcDb2dVertex
 10
15.95333739275834
 20
31.9340501704408
 30
0.0
  0
SEQEND
  5
840
330
83A
100
AcDbEntity
  8
Livello 1
370
     0
  0
POLYLINE
  5
842
330
1F
100
AcDbEntity
  8
Livello 1
370
     0
100
AcDb2dPolyline
 66
     1
 10
0.0
 20
0.0
 30
0.0
  0
VERTEX
  5
843
330
842
100
AcDbEntity
  8
Livello 1
370
     0
100
AcDbVertex
100
AcDb2dVertex
 10
16.35585642799704
 20
31.9340501704408
 30
0.0
  0
VERTEX
  5
844
330
842
100
AcDbEntity
  8
Livello 1
370
     0
100
AcDbVertex
100
AcDb2dVertex
 10
16.27542421433985
 20
31.9340501704408
 30
0.0
  0
VERTEX
  5
845
330
842
100
AcDbEntity
  8
Livello 1
370
     0
100
AcDbVertex
100
AcDb2dVertex
 10
16.27542421433985
 20
32.03459312899314
 30
0.0
  0
VERTEX
  5
846
330
842
100
AcDbEntity
  8
Livello 1
370
     0
100
AcDbVertex
100
AcDb2dVertex
 10
16.35585642799704
 20
32.03459312899314
 30
0.0
  0
VERTEX
  5
847
330
842
100
AcDbEntity
  8
Livello 1
370
     0
100
AcDbVertex
100
AcDb2dVertex
 10
16.35585642799704
 20
31.9340501704408
 30
0.0
  0
SEQEND
  5
848
330
842
100
AcDbEntity
  8
Livello 1
370
     0
  0
POLYLINE
  5
84A
330
1F
100
AcDbEntity
  8
Livello 1
370
     0
100
AcDb2dPolyline
 66
     1
 10
0.0
 20
0.0
 30
0.0
  0
VERTEX
  5
84B
330
84A
100
AcDbEntity
  8
Livello 1
370
     0
100
AcDbVertex
100
AcDb2dVertex
 10
13.94144469306606
 20
31.9340501704408
 30
0.0
  0
VERTEX
  5
84C
330
84A
100
AcDbEntity
  8
Livello 1
370
     0
100
AcDbVertex
100
AcDb2dVertex
 10
13.86101247940887
 20
31.9340501704408
 30
0.0
  0
VERTEX
  5
84D
330
84A
100
AcDbEntity
  8
Livello 1
370
     0
100
AcDbVertex
100
AcDb2dVertex
 10
13.86101247940887
 20
32.03459312899314
 30
0.0
  0
VERTEX
  5
84E
330
84A
100
AcDbEntity
  8
Livello 1
370
     0
100
AcDbVertex
100
AcDb2dVertex
 10
13.94144469306606
 20
32.03459312899314
 30
0.0
  0
VERTEX
  5
84F
330
84A
100
AcDbEntity
  8
Livello 1
370
     0
100
AcDbVertex
100
AcDb2dVertex
 10
13.94144469306606
 20
31.9340501704408
 30
0.0
  0
SEQEND
  5
850
330
84A
100
AcDbEntity
  8
Livello 1
370
     0
  0
POLYLINE
  5
852
330
1F
100
AcDbEntity
  8
Livello 1
370
     0
100
AcDb2dPolyline
 66
     1
 10
0.0
 20
0.0
 30
0.0
  0
VERTEX
  5
853
330
852
100
AcDbEntity
  8
Livello 1
370
     0
100
AcDbVertex
100
AcDb2dVertex
 10
14.34361114431364
 20
31.94428048914347
 30
0.0
  0
VERTEX
  5
854
330
852
100
AcDbEntity
  8
Livello 1
370
     0
100
AcDbVertex
100
AcDb2dVertex
 10
14.26317893065645
 20
31.94428048914347
 30
0.0
  0
VERTEX
  5
855
330
852
100
AcDbEntity
  8
Livello 1
370
     0
100
AcDbVertex
100
AcDb2dVertex
 10
14.26317893065645
 20
32.03494571298421
 30
0.0
  0
VERTEX
  5
856
330
852
100
AcDbEntity
  8
Livello 1
370
     0
100
AcDbVertex
100
AcDb2dVertex
 10
14.34361114431364
 20
32.03494571298421
 30
0.0
  0
VERTEX
  5
857
330
852
100
AcDbEntity
  8
Livello 1
370
     0
100
AcDbVertex
100
AcDb2dVertex
 10
14.34361114431364
 20
31.94428048914347
 30
0.0
  0
SEQEND
  5
858
330
852
100
AcDbEntity
  8
Livello 1
370
     0
  0
POLYLINE
  5
85A
330
1F
100
AcDbEntity
  8
Livello 1
370
     0
100
AcDb2dPolyline
 66
     1
 10
0.0
 20
0.0
 30
0.0
  0
VERTEX
  5
85B
330
85A
100
AcDbEntity
  8
Livello 1
370
     0
100
AcDbVertex
100
AcDb2dVertex
 10
13.38793627374365
 20
24.46398099701197
 30
0.0
  0
VERTEX
  5
85C
330
85A
100
AcDbEntity
  8
Livello 1
370
     0
100
AcDbVertex
100
AcDb2dVertex
 10
13.30750406008646
 20
24.46398099701197
 30
0.0
  0
VERTEX
  5
85D
330
85A
100
AcDbEntity
  8
Livello 1
370
     0
100
AcDbVertex
100
AcDb2dVertex
 10
13.30750406008646
 20
30.32926413509236
 30
0.0
  0
VERTEX
  5
85E
330
85A
100
AcDbEntity
  8
Livello 1
370
     0
100
AcDbVertex
100
AcDb2dVertex
 10
13.38793627374365
 20
30.32926413509236
 30
0.0
  0
VERTEX
  5
85F
330
85A
100
AcDbEntity
  8
Livello 1
370
     0
100
AcDbVertex
100
AcDb2dVertex
 10
13.38793627374365
 20
24.46398099701197
 30
0.0
  0
SEQEND
  5
860
330
85A
100
AcDbEntity
  8
Livello 1
370
     0
  0
POLYLINE
  5
862
330
1F
100
AcDbEntity
  8
Livello 1
370
     0
100
AcDb2dPolyline
 66
     1
 10
0.0
 20
0.0
 30
0.0
  0
VERTEX
  5
863
330
862
100
AcDbEntity
  8
Livello 1
370
     0
100
AcDbVertex
100
AcDb2dVertex
 10
16.86914874049084
 20
30.28904802826376
 30
0.0
  0
VERTEX
  5
864
330
862
100
AcDbEntity
  8
Livello 1
370
     0
100
AcDbVertex
100
AcDb2dVertex
 10
13.34807275090615
 20
30.28904802826376
 30
0.0
  0
VERTEX
  5
865
330
862
100
AcDbEntity
  8
Livello 1
370
     0
100
AcDbVertex
100
AcDb2dVertex
 10
13.34807275090615
 20
30.36948158766137
 30
0.0
  0
VERTEX
  5
866
330
862
100
AcDbEntity
  8
Livello 1
370
     0
100
AcDbVertex
100
AcDb2dVertex
 10
16.86914874049084
 20
30.36948158766137
 30
0.0
  0
VERTEX
  5
867
330
862
100
AcDbEntity
  8
Livello 1
370
     0
100
AcDbVertex
100
AcDb2dVertex
 10
16.86914874049084
 20
30.28904802826376
 30
0.0
  0
SEQEND
  5
868
330
862
100
AcDbEntity
  8
Livello 1
370
     0
  0
POLYLINE
  5
86A
330
1F
100
AcDbEntity
  8
Livello 1
370
     0
100
AcDb2dPolyline
 66
     1
 10
0.0
 20
0.0
 30
0.0
  0
VERTEX
  5
86B
330
86A
100
AcDbEntity
  8
Livello 1
370
     0
100
AcDbVertex
100
AcDb2dVertex
 10
16.90936484731934
 20
24.46398099701197
 30
0.0
  0
VERTEX
  5
86C
330
86A
100
AcDbEntity
  8
Livello 1
370
     0
100
AcDbVertex
100
AcDb2dVertex
 10
16.82893263366226
 20
24.46398099701197
 30
0.0
  0
VERTEX
  5
86D
330
86A
100
AcDbEntity
  8
Livello 1
370
     0
100
AcDbVertex
100
AcDb2dVertex
 10
16.82893263366226
 20
30.32926413509236
 30
0.0
  0
VERTEX
  5
86E
330
86A
100
AcDbEntity
  8
Livello 1
370
     0
100
AcDbVertex
100
AcDb2dVertex
 10
16.90936484731934
 20
30.32926413509236
 30
0.0
  0
VERTEX
  5
86F
330
86A
100
AcDbEntity
  8
Livello 1
370
     0
100
AcDbVertex
100
AcDb2dVertex
 10
16.90936484731934
 20
24.46398099701197
 30
0.0
  0
SEQEND
  5
870
330
86A
100
AcDbEntity
  8
Livello 1
370
     0
  0
POLYLINE
  5
872
330
1F
100
AcDbEntity
  8
Livello 1
370
     0
100
AcDb2dPolyline
 66
     1
 10
0.0
 20
0.0
 30
0.0
  0
VERTEX
  5
873
330
872
100
AcDbEntity
  8
Livello 1
370
     0
100
AcDbVertex
100
AcDb2dVertex
 10
14.15240565340143
 20
31.89383406361221
 30
0.0
  0
VERTEX
  5
874
330
872
100
AcDbEntity
  8
Livello 1
370
     0
100
AcDbVertex
100
AcDb2dVertex
 10
14.00141626931786
 20
31.89383406361221
 30
0.0
  0
VERTEX
  5
875
330
872
100
AcDbEntity
  8
Livello 1
370
     0
100
AcDbVertex
100
AcDb2dVertex
 10
14.00141626931786
 20
31.9742662772694
 30
0.0
  0
VERTEX
  5
876
330
872
100
AcDbEntity
  8
Livello 1
370
     0
100
AcDbVertex
100
AcDb2dVertex
 10
14.15240565340143
 20
31.9742662772694
 30
0.0
  0
VERTEX
  5
877
330
872
100
AcDbEntity
  8
Livello 1
370
     0
100
AcDbVertex
100
AcDb2dVertex
 10
14.15240565340143
 20
31.89383406361221
 30
0.0
  0
SEQEND
  5
878
330
872
100
AcDbEntity
  8
Livello 1
370
     0
  0
POLYLINE
  5
87A
330
1F
100
AcDbEntity
  8
Livello 1
370
     0
100
AcDb2dPolyline
 66
     1
 10
0.0
 20
0.0
 30
0.0
  0
VERTEX
  5
87B
330
87A
100
AcDbEntity
  8
Livello 1
370
     0
100
AcDbVertex
100
AcDb2dVertex
 10
14.00141896079866
 20
31.89383406361221
 30
0.0
  0
VERTEX
  5
87C
330
87A
100
AcDbEntity
  8
Livello 1
370
     0
100
AcDbVertex
100
AcDb2dVertex
 10
13.66451553714977
 20
31.89383406361221
 30
0.0
  0
VERTEX
  5
87D
330
87A
100
AcDbEntity
  8
Livello 1
370
     0
100
AcDbVertex
100
AcDb2dVertex
 10
13.66451553714977
 20
31.9742662772694
 30
0.0
  0
VERTEX
  5
87E
330
87A
100
AcDbEntity
  8
Livello 1
370
     0
100
AcDbVertex
100
AcDb2dVertex
 10
14.00141896079866
 20
31.9742662772694
 30
0.0
  0
VERTEX
  5
87F
330
87A
100
AcDbEntity
  8
Livello 1
370
     0
100
AcDbVertex
100
AcDb2dVertex
 10
14.00141896079866
 20
31.89383406361221
 30
0.0
  0
SEQEND
  5
880
330
87A
100
AcDbEntity
  8
Livello 1
370
     0
  0
POLYLINE
  5
882
330
1F
100
AcDbEntity
  8
Livello 1
370
     0
100
AcDb2dPolyline
 66
     1
 10
0.0
 20
0.0
 30
0.0
  0
VERTEX
  5
883
330
882
100
AcDbEntity
  8
Livello 1
370
     0
100
AcDbVertex
100
AcDb2dVertex
 10
13.59244306300594
 20
31.80496944045868
 30
0.0
  0
VERTEX
  5
884
330
882
100
AcDbEntity
  8
Livello 1
370
     0
100
AcDbVertex
100
AcDb2dVertex
 10
13.53529215868265
 20
31.86211765330112
 30
0.0
  0
VERTEX
  5
885
330
882
100
AcDbEntity
  8
Livello 1
370
     0
100
AcDbVertex
100
AcDb2dVertex
 10
13.63618500974526
 20
31.96266061185346
 30
0.0
  0
VERTEX
  5
886
330
882
100
AcDbEntity
  8
Livello 1
370
     0
100
AcDbVertex
100
AcDb2dVertex
 10
13.69298333007744
 20
31.90550970753019
 30
0.0
  0
VERTEX
  5
887
330
882
100
AcDbEntity
  8
Livello 1
370
     0
100
AcDbVertex
100
AcDb2dVertex
 10
13.59244306300594
 20
31.80496944045868
 30
0.0
  0
SEQEND
  5
888
330
882
100
AcDbEntity
  8
Livello 1
370
     0
  0
POLYLINE
  5
88A
330
1F
100
AcDbEntity
  8
Livello 1
370
     0
100
AcDb2dPolyline
 66
     1
 10
0.0
 20
0.0
 30
0.0
  0
VERTEX
  5
88B
330
88A
100
AcDbEntity
  8
Livello 1
370
     0
100
AcDbVertex
100
AcDb2dVertex
 10
13.60418868542594
 20
30.32926413509236
 30
0.0
  0
VERTEX
  5
88C
330
88A
100
AcDbEntity
  8
Livello 1
370
     0
100
AcDbVertex
100
AcDb2dVertex
 10
13.52375647176875
 20
30.32926413509236
 30
0.0
  0
VERTEX
  5
88D
330
88A
100
AcDbEntity
  8
Livello 1
370
     0
100
AcDbVertex
100
AcDb2dVertex
 10
13.52375647176875
 20
31.83350990336931
 30
0.0
  0
VERTEX
  5
88E
330
88A
100
AcDbEntity
  8
Livello 1
370
     0
100
AcDbVertex
100
AcDb2dVertex
 10
13.60418868542594
 20
31.83350990336931
 30
0.0
  0
VERTEX
  5
88F
330
88A
100
AcDbEntity
  8
Livello 1
370
     0
100
AcDbVertex
100
AcDb2dVertex
 10
13.60418868542594
 20
30.32926413509236
 30
0.0
  0
SEQEND
  5
890
330
88A
100
AcDbEntity
  8
Livello 1
370
     0
  0
POLYLINE
  5
892
330
1F
100
AcDbEntity
  8
Livello 1
370
     0
100
AcDb2dPolyline
 66
     1
 10
0.0
 20
0.0
 30
0.0
  0
VERTEX
  5
893
330
892
100
AcDbEntity
  8
Livello 1
370
     0
100
AcDbVertex
100
AcDb2dVertex
 10
16.06411067001333
 20
32.03459312899314
 30
0.0
  0
VERTEX
  5
894
330
892
100
AcDbEntity
  8
Livello 1
370
     0
100
AcDbVertex
100
AcDb2dVertex
 10
15.98367845635614
 20
32.03459312899314
 30
0.0
  0
VERTEX
  5
895
330
892
100
AcDbEntity
  8
Livello 1
370
     0
100
AcDbVertex
100
AcDb2dVertex
 10
15.98367845635614
 20
32.76907672052502
 30
0.0
  0
VERTEX
  5
896
330
892
100
AcDbEntity
  8
Livello 1
370
     0
100
AcDbVertex
100
AcDb2dVertex
 10
16.06411067001333
 20
32.76907672052502
 30
0.0
  0
VERTEX
  5
897
330
892
100
AcDbEntity
  8
Livello 1
370
     0
100
AcDbVertex
100
AcDb2dVertex
 10
16.06411067001333
 20
32.03459312899314
 30
0.0
  0
SEQEND
  5
898
330
892
100
AcDbEntity
  8
Livello 1
370
     0
  0
POLYLINE
  5
89A
330
1F
100
AcDbEntity
  8
Livello 1
370
     0
100
AcDb2dPolyline
 66
     1
 10
0.0
 20
0.0
 30
0.0
  0
VERTEX
  5
89B
330
89A
100
AcDbEntity
  8
Livello 1
370
     0
100
AcDbVertex
100
AcDb2dVertex
 10
16.24543842621394
 20
32.03459312899314
 30
0.0
  0
VERTEX
  5
89C
330
89A
100
AcDbEntity
  8
Livello 1
370
     0
100
AcDbVertex
100
AcDb2dVertex
 10
16.16500621255674
 20
32.03459312899314
 30
0.0
  0
VERTEX
  5
89D
330
89A
100
AcDbEntity
  8
Livello 1
370
     0
100
AcDbVertex
100
AcDb2dVertex
 10
16.16500621255674
 20
32.76907672052502
 30
0.0
  0
VERTEX
  5
89E
330
89A
100
AcDbEntity
  8
Livello 1
370
     0
100
AcDbVertex
100
AcDb2dVertex
 10
16.24543842621394
 20
32.76907672052502
 30
0.0
  0
VERTEX
  5
89F
330
89A
100
AcDbEntity
  8
Livello 1
370
     0
100
AcDbVertex
100
AcDb2dVertex
 10
16.24543842621394
 20
32.03459312899314
 30
0.0
  0
SEQEND
  5
8A0
330
89A
100
AcDbEntity
  8
Livello 1
370
     0
  0
POLYLINE
  5
8A2
330
1F
100
AcDbEntity
  8
Livello 1
370
     0
100
AcDb2dPolyline
 66
     1
 10
0.0
 20
0.0
 30
0.0
  0
VERTEX
  5
8A3
330
8A2
100
AcDbEntity
  8
Livello 1
370
     0
100
AcDbVertex
100
AcDb2dVertex
 10
16.06411067001333
 20
31.89383406361221
 30
0.0
  0
VERTEX
  5
8A4
330
8A2
100
AcDbEntity
  8
Livello 1
370
     0
100
AcDbVertex
100
AcDb2dVertex
 10
14.15240834488226
 20
31.89383406361221
 30
0.0
  0
VERTEX
  5
8A5
330
8A2
100
AcDbEntity
  8
Livello 1
370
     0
100
AcDbVertex
100
AcDb2dVertex
 10
14.15240834488226
 20
31.9742662772694
 30
0.0
  0
VERTEX
  5
8A6
330
8A2
100
AcDbEntity
  8
Livello 1
370
     0
100
AcDbVertex
100
AcDb2dVertex
 10
16.06411067001333
 20
31.9742662772694
 30
0.0
  0
VERTEX
  5
8A7
330
8A2
100
AcDbEntity
  8
Livello 1
370
     0
100
AcDbVertex
100
AcDb2dVertex
 10
16.06411067001333
 20
31.89383406361221
 30
0.0
  0
SEQEND
  5
8A8
330
8A2
100
AcDbEntity
  8
Livello 1
370
     0
  0
POLYLINE
  5
8AA
330
1F
100
AcDbEntity
  8
Livello 1
370
     0
100
AcDb2dPolyline
 66
     1
 10
0.0
 20
0.0
 30
0.0
  0
VERTEX
  5
8AB
330
8AA
100
AcDbEntity
  8
Livello 1
370
     0
100
AcDbVertex
100
AcDb2dVertex
 10
14.05186538632993
 20
32.03459312899314
 30
0.0
  0
VERTEX
  5
8AC
330
8AA
100
AcDbEntity
  8
Livello 1
370
     0
100
AcDbVertex
100
AcDb2dVertex
 10
13.97143317267274
 20
32.03459312899314
 30
0.0
  0
VERTEX
  5
8AD
330
8AA
100
AcDbEntity
  8
Livello 1
370
     0
100
AcDbVertex
100
AcDb2dVertex
 10
13.97143317267274
 20
32.76907672052502
 30
0.0
  0
VERTEX
  5
8AE
330
8AA
100
AcDbEntity
  8
Livello 1
370
     0
100
AcDbVertex
100
AcDb2dVertex
 10
14.05186538632993
 20
32.76907672052502
 30
0.0
  0
VERTEX
  5
8AF
330
8AA
100
AcDbEntity
  8
Livello 1
370
     0
100
AcDbVertex
100
AcDb2dVertex
 10
14.05186538632993
 20
32.03459312899314
 30
0.0
  0
SEQEND
  5
8B0
330
8AA
100
AcDbEntity
  8
Livello 1
370
     0
  0
POLYLINE
  5
8B2
330
1F
100
AcDbEntity
  8
Livello 1
370
     0
100
AcDb2dPolyline
 66
     1
 10
0.0
 20
0.0
 30
0.0
  0
VERTEX
  5
8B3
330
8B2
100
AcDbEntity
  8
Livello 1
370
     0
100
AcDbVertex
100
AcDb2dVertex
 10
14.23319314253054
 20
32.03459312899314
 30
0.0
  0
VERTEX
  5
8B4
330
8B2
100
AcDbEntity
  8
Livello 1
370
     0
100
AcDbVertex
100
AcDb2dVertex
 10
14.15276092887335
 20
32.03459312899314
 30
0.0
  0
VERTEX
  5
8B5
330
8B2
100
AcDbEntity
  8
Livello 1
370
     0
100
AcDbVertex
100
AcDb2dVertex
 10
14.15276092887335
 20
32.76907672052502
 30
0.0
  0
VERTEX
  5
8B6
330
8B2
100
AcDbEntity
  8
Livello 1
370
     0
100
AcDbVertex
100
AcDb2dVertex
 10
14.23319314253054
 20
32.76907672052502
 30
0.0
  0
VERTEX
  5
8B7
330
8B2
100
AcDbEntity
  8
Livello 1
370
     0
100
AcDbVertex
100
AcDb2dVertex
 10
14.23319314253054
 20
32.03459312899314
 30
0.0
  0
SEQEND
  5
8B8
330
8B2
100
AcDbEntity
  8
Livello 1
370
     0
  0
SPLINE
  5
8BA
330
1F
100
AcDbEntity
  8
Livello 1
370
     0
100
AcDbSpline
210
0.0
220
0.0
230
1.0
 70
     9
 71
     3
 72
    14
 73
    10
 74
     0
 42
0.000000001
 43
0.0000000001
 40
0.0
 40
0.0
 40
0.0
 40
0.0
 40
1.0
 40
1.0
 40
1.0
 40
2.0
 40
2.0
 40
2.0
 40
3.0
 40
3.0
 40
3.0
 40
3.0
 10
13.20675116602793
 20
31.21484207846091
 30
0.0
 10
13.20675116602793
 20
31.23706698156204
 30
0.0
 10
13.21380553733026
 20
31.25611593726271
 30
0.0
 10
13.22826955540655
 20
31.27340197300804
 30
0.0
 10
13.22826955540655
 20
31.27340197300804
 30
0.0
 10
13.28965146762267
 20
31.22119128178098
 30
0.0
 10
13.28965146762267
 20
31.22119128178098
 30
0.0
 10
13.28965146762267
 20
31.22119128178098
 30
0.0
 10
13.20675116602793
 20
31.21484207846091
 30
0.0
 10
13.20675116602793
 20
31.21484207846091
 30
0.0
  0
POLYLINE
  5
8BB
330
1F
100
AcDbEntity
  8
Livello 1
370
     0
100
AcDb2dPolyline
 66
     1
 10
0.0
 20
0.0
 30
0.0
  0
VERTEX
  5
8BC
330
8BB
100
AcDbEntity
  8
Livello 1
370
     0
100
AcDbVertex
100
AcDb2dVertex
 10
16.86914874049084
 20
24.42341096045188
 30
0.0
  0
VERTEX
  5
8BD
330
8BB
100
AcDbEntity
  8
Livello 1
370
     0
100
AcDbVertex
100
AcDb2dVertex
 10
13.34807275090615
 20
24.42341096045188
 30
0.0
  0
VERTEX
  5
8BE
330
8BB
100
AcDbEntity
  8
Livello 1
370
     0
100
AcDbVertex
100
AcDb2dVertex
 10
13.34807275090615
 20
24.50384451984948
 30
0.0
  0
VERTEX
  5
8BF
330
8BB
100
AcDbEntity
  8
Livello 1
370
     0
100
AcDbVertex
100
AcDb2dVertex
 10
16.86914874049084
 20
24.50384451984948
 30
0.0
  0
VERTEX
  5
8C0
330
8BB
100
AcDbEntity
  8
Livello 1
370
     0
100
AcDbVertex
100
AcDb2dVertex
 10
16.86914874049084
 20
24.42341096045188
 30
0.0
  0
SEQEND
  5
8C1
330
8BB
100
AcDbEntity
  8
Livello 1
370
     0
  0
POLYLINE
  5
8C3
330
1F
100
AcDbEntity
  8
Livello 1
370
     0
100
AcDb2dPolyline
 66
     1
 10
0.0
 20
0.0
 30
0.0
  0
VERTEX
  5
8C4
330
8C3
100
AcDbEntity
  8
Livello 1
370
     0
100
AcDbVertex
100
AcDb2dVertex
 10
16.21509736261613
 20
31.89383406361221
 30
0.0
  0
VERTEX
  5
8C5
330
8C3
100
AcDbEntity
  8
Livello 1
370
     0
100
AcDbVertex
100
AcDb2dVertex
 10
16.06410797853256
 20
31.89383406361221
 30
0.0
  0
VERTEX
  5
8C6
330
8C3
100
AcDbEntity
  8
Livello 1
370
     0
100
AcDbVertex
100
AcDb2dVertex
 10
16.06410797853256
 20
31.9742662772694
 30
0.0
  0
VERTEX
  5
8C7
330
8C3
100
AcDbEntity
  8
Livello 1
370
     0
100
AcDbVertex
100
AcDb2dVertex
 10
16.21509736261613
 20
31.9742662772694
 30
0.0
  0
VERTEX
  5
8C8
330
8C3
100
AcDbEntity
  8
Livello 1
370
     0
100
AcDbVertex
100
AcDb2dVertex
 10
16.21509736261613
 20
31.89383406361221
 30
0.0
  0
SEQEND
  5
8C9
330
8C3
100
AcDbEntity
  8
Livello 1
370
     0
  0
POLYLINE
  5
8CB
330
1F
100
AcDbEntity
  8
Livello 1
370
     0
100
AcDb2dPolyline
 66
     1
 10
0.0
 20
0.0
 30
0.0
  0
VERTEX
  5
8CC
330
8CB
100
AcDbEntity
  8
Livello 1
370
     0
100
AcDbVertex
100
AcDb2dVertex
 10
13.28972413760554
 20
31.22126260602346
 30
0.0
  0
VERTEX
  5
8CD
330
8CB
100
AcDbEntity
  8
Livello 1
370
     0
100
AcDbVertex
100
AcDb2dVertex
 10
13.22798694991756
 20
31.27312071325944
 30
0.0
  0
VERTEX
  5
8CE
330
8CB
100
AcDbEntity
  8
Livello 1
370
     0
100
AcDbVertex
100
AcDb2dVertex
 10
13.53313897400436
 20
31.63683263189341
 30
0.0
  0
VERTEX
  5
8CF
330
8CB
100
AcDbEntity
  8
Livello 1
370
     0
100
AcDbVertex
100
AcDb2dVertex
 10
13.59487616169234
 20
31.58497587039786
 30
0.0
  0
VERTEX
  5
8D0
330
8CB
100
AcDbEntity
  8
Livello 1
370
     0
100
AcDbVertex
100
AcDb2dVertex
 10
13.28972413760554
 20
31.22126260602346
 30
0.0
  0
SEQEND
  5
8D1
330
8CB
100
AcDbEntity
  8
Livello 1
370
     0
  0
POLYLINE
  5
8D3
330
1F
100
AcDbEntity
  8
Livello 1
370
     0
100
AcDb2dPolyline
 66
     1
 10
0.0
 20
0.0
 30
0.0
  0
VERTEX
  5
8D4
330
8D3
100
AcDbEntity
  8
Livello 1
370
     0
100
AcDbVertex
100
AcDb2dVertex
 10
16.69275985164604
 20
30.32926413509236
 30
0.0
  0
VERTEX
  5
8D5
330
8D3
100
AcDbEntity
  8
Livello 1
370
     0
100
AcDbVertex
100
AcDb2dVertex
 10
16.61232763798885
 20
30.32926413509236
 30
0.0
  0
VERTEX
  5
8D6
330
8D3
100
AcDbEntity
  8
Livello 1
370
     0
100
AcDbVertex
100
AcDb2dVertex
 10
16.61232763798885
 20
31.83350990336931
 30
0.0
  0
VERTEX
  5
8D7
330
8D3
100
AcDbEntity
  8
Livello 1
370
     0
100
AcDbVertex
100
AcDb2dVertex
 10
16.69275985164604
 20
31.83350990336931
 30
0.0
  0
VERTEX
  5
8D8
330
8D3
100
AcDbEntity
  8
Livello 1
370
     0
100
AcDbVertex
100
AcDb2dVertex
 10
16.69275985164604
 20
30.32926413509236
 30
0.0
  0
SEQEND
  5
8D9
330
8D3
100
AcDbEntity
  8
Livello 1
370
     0
  0
POLYLINE
  5
8DB
330
1F
100
AcDbEntity
  8
Livello 1
370
     0
100
AcDb2dPolyline
 66
     1
 10
0.0
 20
0.0
 30
0.0
  0
VERTEX
  5
8DC
330
8DB
100
AcDbEntity
  8
Livello 1
370
     0
100
AcDbVertex
100
AcDb2dVertex
 10
16.62414323891086
 20
31.80496944045868
 30
0.0
  0
VERTEX
  5
8DD
330
8DB
100
AcDbEntity
  8
Livello 1
370
     0
100
AcDbVertex
100
AcDb2dVertex
 10
16.52360028035856
 20
31.90550970753019
 30
0.0
  0
VERTEX
  5
8DE
330
8DB
100
AcDbEntity
  8
Livello 1
370
     0
100
AcDbVertex
100
AcDb2dVertex
 10
16.58075118468186
 20
31.96266061185346
 30
0.0
  0
VERTEX
  5
8DF
330
8DB
100
AcDbEntity
  8
Livello 1
370
     0
100
AcDbVertex
100
AcDb2dVertex
 10
16.68129145175335
 20
31.86211765330112
 30
0.0
  0
VERTEX
  5
8E0
330
8DB
100
AcDbEntity
  8
Livello 1
370
     0
100
AcDbVertex
100
AcDb2dVertex
 10
16.62414323891086
 20
31.80496944045868
 30
0.0
  0
SEQEND
  5
8E1
330
8DB
100
AcDbEntity
  8
Livello 1
370
     0
  0
POLYLINE
  5
8E3
330
1F
100
AcDbEntity
  8
Livello 1
370
     0
100
AcDb2dPolyline
 66
     1
 10
0.0
 20
0.0
 30
0.0
  0
VERTEX
  5
8E4
330
8E3
100
AcDbEntity
  8
Livello 1
370
     0
100
AcDbVertex
100
AcDb2dVertex
 10
13.56397257859736
 20
31.0690391779711
 30
0.0
  0
VERTEX
  5
8E5
330
8E3
100
AcDbEntity
  8
Livello 1
370
     0
100
AcDbVertex
100
AcDb2dVertex
 10
13.31244292744226
 20
31.0690391779711
 30
0.0
  0
VERTEX
  5
8E6
330
8E3
100
AcDbEntity
  8
Livello 1
370
     0
100
AcDbVertex
100
AcDb2dVertex
 10
13.31244292744226
 20
31.14947273736872
 30
0.0
  0
VERTEX
  5
8E7
330
8E3
100
AcDbEntity
  8
Livello 1
370
     0
100
AcDbVertex
100
AcDb2dVertex
 10
13.56397257859736
 20
31.14947273736872
 30
0.0
  0
VERTEX
  5
8E8
330
8E3
100
AcDbEntity
  8
Livello 1
370
     0
100
AcDbVertex
100
AcDb2dVertex
 10
13.56397257859736
 20
31.0690391779711
 30
0.0
  0
SEQEND
  5
8E9
330
8E3
100
AcDbEntity
  8
Livello 1
370
     0
  0
POLYLINE
  5
8EB
330
1F
100
AcDbEntity
  8
Livello 1
370
     0
100
AcDb2dPolyline
 66
     1
 10
0.0
 20
0.0
 30
0.0
  0
VERTEX
  5
8EC
330
8EB
100
AcDbEntity
  8
Livello 1
370
     0
100
AcDbVertex
100
AcDb2dVertex
 10
16.55200078626505
 20
31.89383406361221
 30
0.0
  0
VERTEX
  5
8ED
330
8EB
100
AcDbEntity
  8
Livello 1
370
     0
100
AcDbVertex
100
AcDb2dVertex
 10
16.21474477862505
 20
31.89383406361221
 30
0.0
  0
VERTEX
  5
8EE
330
8EB
100
AcDbEntity
  8
Livello 1
370
     0
100
AcDbVertex
100
AcDb2dVertex
 10
16.21474477862505
 20
31.9742662772694
 30
0.0
  0
VERTEX
  5
8EF
330
8EB
100
AcDbEntity
  8
Livello 1
370
     0
100
AcDbVertex
100
AcDb2dVertex
 10
16.55200078626505
 20
31.9742662772694
 30
0.0
  0
VERTEX
  5
8F0
330
8EB
100
AcDbEntity
  8
Livello 1
370
     0
100
AcDbVertex
100
AcDb2dVertex
 10
16.55200078626505
 20
31.89383406361221
 30
0.0
  0
SEQEND
  5
8F1
330
8EB
100
AcDbEntity
  8
Livello 1
370
     0
  0
SPLINE
  5
8F3
330
1F
100
AcDbEntity
  8
Livello 1
370
     0
100
AcDbSpline
210
0.0
220
0.0
230
1.0
 70
     9
 71
     3
 72
    14
 73
    10
 74
     0
 42
0.000000001
 43
0.0000000001
 40
0.0
 40
0.0
 40
0.0
 40
0.0
 40
1.0
 40
1.0
 40
1.0
 40
2.0
 40
2.0
 40
2.0
 40
3.0
 40
3.0
 40
3.0
 40
3.0
 10
17.00987012513987
 20
31.21484207846091
 30
0.0
 10
17.00987012513987
 20
31.21484207846091
 30
0.0
 10
16.92943522000185
 20
31.21484207846091
 30
0.0
 10
16.92943522000185
 20
31.21484207846091
 30
0.0
 10
16.92943522000185
 20
31.21484207846091
 30
0.0
 10
16.98870162827155
 20
31.27304938901697
 30
0.0
 10
16.98870162827155
 20
31.27304938901697
 30
0.0
 10
17.00281306235673
 20
31.25611593726271
 30
0.0
 10
17.00987012513987
 20
31.23706698156204
 30
0.0
 10
17.00987012513987
 20
31.21484207846091
 30
0.0
  0
POLYLINE
  5
8F4
330
1F
100
AcDbEntity
  8
Livello 1
370
     0
100
AcDb2dPolyline
 66
     1
 10
0.0
 20
0.0
 30
0.0
  0
VERTEX
  5
8F5
330
8F4
100
AcDbEntity
  8
Livello 1
370
     0
100
AcDbVertex
100
AcDb2dVertex
 10
16.92700481279625
 20
31.22126260602346
 30
0.0
  0
VERTEX
  5
8F6
330
8F4
100
AcDbEntity
  8
Livello 1
370
     0
100
AcDbVertex
100
AcDb2dVertex
 10
16.62185009722854
 20
31.58497587039786
 30
0.0
  0
VERTEX
  5
8F7
330
8F4
100
AcDbEntity
  8
Livello 1
370
     0
100
AcDbVertex
100
AcDb2dVertex
 10
16.68358728491655
 20
31.63683263189341
 30
0.0
  0
VERTEX
  5
8F8
330
8F4
100
AcDbEntity
  8
Livello 1
370
     0
100
AcDbVertex
100
AcDb2dVertex
 10
16.98873930900335
 20
31.27312071325944
 30
0.0
  0
VERTEX
  5
8F9
330
8F4
100
AcDbEntity
  8
Livello 1
370
     0
100
AcDbVertex
100
AcDb2dVertex
 10
16.92700481279625
 20
31.22126260602346
 30
0.0
  0
SEQEND
  5
8FA
330
8F4
100
AcDbEntity
  8
Livello 1
370
     0
  0
POLYLINE
  5
8FC
330
1F
100
AcDbEntity
  8
Livello 1
370
     0
100
AcDb2dPolyline
 66
     1
 10
0.0
 20
0.0
 30
0.0
  0
VERTEX
  5
8FD
330
8FC
100
AcDbEntity
  8
Livello 1
370
     0
100
AcDbVertex
100
AcDb2dVertex
 10
14.15240565340143
 20
31.9943743306837
 30
0.0
  0
VERTEX
  5
8FE
330
8FC
100
AcDbEntity
  8
Livello 1
370
     0
100
AcDbVertex
100
AcDb2dVertex
 10
14.00141626931786
 20
31.9943743306837
 30
0.0
  0
VERTEX
  5
8FF
330
8FC
100
AcDbEntity
  8
Livello 1
370
     0
100
AcDbVertex
100
AcDb2dVertex
 10
14.00141626931786
 20
32.07480654434089
 30
0.0
  0
VERTEX
  5
900
330
8FC
100
AcDbEntity
  8
Livello 1
370
     0
100
AcDbVertex
100
AcDb2dVertex
 10
14.15240565340143
 20
32.07480654434089
 30
0.0
  0
VERTEX
  5
901
330
8FC
100
AcDbEntity
  8
Livello 1
370
     0
100
AcDbVertex
100
AcDb2dVertex
 10
14.15240565340143
 20
31.9943743306837
 30
0.0
  0
SEQEND
  5
902
330
8FC
100
AcDbEntity
  8
Livello 1
370
     0
  0
POLYLINE
  5
904
330
1F
100
AcDbEntity
  8
Livello 1
370
     0
100
AcDb2dPolyline
 66
     1
 10
0.0
 20
0.0
 30
0.0
  0
VERTEX
  5
905
330
904
100
AcDbEntity
  8
Livello 1
370
     0
100
AcDbVertex
100
AcDb2dVertex
 10
14.29316471878236
 20
31.9943743306837
 30
0.0
  0
VERTEX
  5
906
330
904
100
AcDbEntity
  8
Livello 1
370
     0
100
AcDbVertex
100
AcDb2dVertex
 10
14.15240565340143
 20
31.9943743306837
 30
0.0
  0
VERTEX
  5
907
330
904
100
AcDbEntity
  8
Livello 1
370
     0
100
AcDbVertex
100
AcDb2dVertex
 10
14.15240565340143
 20
32.07480654434089
 30
0.0
  0
VERTEX
  5
908
330
904
100
AcDbEntity
  8
Livello 1
370
     0
100
AcDbVertex
100
AcDb2dVertex
 10
14.29316471878236
 20
32.07480654434089
 30
0.0
  0
VERTEX
  5
909
330
904
100
AcDbEntity
  8
Livello 1
370
     0
100
AcDbVertex
100
AcDb2dVertex
 10
14.29316471878236
 20
31.9943743306837
 30
0.0
  0
SEQEND
  5
90A
330
904
100
AcDbEntity
  8
Livello 1
370
     0
  0
POLYLINE
  5
90C
330
1F
100
AcDbEntity
  8
Livello 1
370
     0
100
AcDb2dPolyline
 66
     1
 10
0.0
 20
0.0
 30
0.0
  0
VERTEX
  5
90D
330
90C
100
AcDbEntity
  8
Livello 1
370
     0
100
AcDbVertex
100
AcDb2dVertex
 10
14.00141896079866
 20
31.9943743306837
 30
0.0
  0
VERTEX
  5
90E
330
90C
100
AcDbEntity
  8
Livello 1
370
     0
100
AcDbVertex
100
AcDb2dVertex
 10
13.90087600224636
 20
31.9943743306837
 30
0.0
  0
VERTEX
  5
90F
330
90C
100
AcDbEntity
  8
Livello 1
370
     0
100
AcDbVertex
100
AcDb2dVertex
 10
13.90087600224636
 20
32.07480654434089
 30
0.0
  0
VERTEX
  5
910
330
90C
100
AcDbEntity
  8
Livello 1
370
     0
100
AcDbVertex
100
AcDb2dVertex
 10
14.00141896079866
 20
32.07480654434089
 30
0.0
  0
VERTEX
  5
911
330
90C
100
AcDbEntity
  8
Livello 1
370
     0
100
AcDbVertex
100
AcDb2dVertex
 10
14.00141896079866
 20
31.9943743306837
 30
0.0
  0
SEQEND
  5
912
330
90C
100
AcDbEntity
  8
Livello 1
370
     0
  0
SPLINE
  5
914
330
1F
100
AcDbEntity
  8
Livello 1
370
     0
100
AcDbSpline
210
0.0
220
0.0
230
1.0
 70
     9
 71
     3
 72
    17
 73
    13
 74
     0
 42
0.000000001
 43
0.0000000001
 40
0.0
 40
0.0
 40
0.0
 40
0.0
 40
1.0
 40
1.0
 40
1.0
 40
2.0
 40
2.0
 40
2.0
 40
3.0
 40
3.0
 40
3.0
 40
4.0
 40
4.0
 40
4.0
 40
4.0
 10
16.97879159578976
 20
31.09976646907061
 30
0.0
 10
16.97879159578976
 20
31.09976646907061
 30
0.0
 10
16.92199327545758
 20
31.15691602765346
 30
0.0
 10
16.92199327545758
 20
31.15691602765346
 30
0.0
 10
16.92798989478656
 20
31.16291264698247
 30
0.0
 10
16.92940023075086
 20
31.16608859438293
 30
0.0
 10
16.92940023075086
 20
31.17455464738983
 30
0.0
 10
16.92940023075086
 20
31.17455464738983
 30
0.0
 10
17.00983513588876
 20
31.17455464738983
 30
0.0
 10
17.00983513588876
 20
31.17455464738983
 30
0.0
 10
17.00983513588876
 20
31.14456885926393
 30
0.0
 10
16.99995740117727
 20
31.1209322744581
 30
0.0
 10
16.97879159578976
 20
31.09976646907061
 30
0.0
  0
POLYLINE
  5
915
330
1F
100
AcDbEntity
  8
Livello 1
370
     0
100
AcDb2dPolyline
 66
     1
 10
0.0
 20
0.0
 30
0.0
  0
VERTEX
  5
916
330
915
100
AcDbEntity
  8
Livello 1
370
     0
100
AcDbVertex
100
AcDb2dVertex
 10
16.90407339597256
 20
31.0690391779711
 30
0.0
  0
VERTEX
  5
917
330
915
100
AcDbEntity
  8
Livello 1
370
     0
100
AcDbVertex
100
AcDb2dVertex
 10
16.65254374481743
 20
31.0690391779711
 30
0.0
  0
VERTEX
  5
918
330
915
100
AcDbEntity
  8
Livello 1
370
     0
100
AcDbVertex
100
AcDb2dVertex
 10
16.65254374481743
 20
31.14947273736872
 30
0.0
  0
VERTEX
  5
919
330
915
100
AcDbEntity
  8
Livello 1
370
     0
100
AcDbVertex
100
AcDb2dVertex
 10
16.90407339597256
 20
31.14947273736872
 30
0.0
  0
VERTEX
  5
91A
330
915
100
AcDbEntity
  8
Livello 1
370
     0
100
AcDbVertex
100
AcDb2dVertex
 10
16.90407339597256
 20
31.0690391779711
 30
0.0
  0
SEQEND
  5
91B
330
915
100
AcDbEntity
  8
Livello 1
370
     0
  0
POLYLINE
  5
91D
330
1F
100
AcDbEntity
  8
Livello 1
370
     0
100
AcDb2dPolyline
 66
     1
 10
0.0
 20
0.0
 30
0.0
  0
VERTEX
  5
91E
330
91D
100
AcDbEntity
  8
Livello 1
370
     0
100
AcDbVertex
100
AcDb2dVertex
 10
16.21509736261613
 20
31.9943743306837
 30
0.0
  0
VERTEX
  5
91F
330
91D
100
AcDbEntity
  8
Livello 1
370
     0
100
AcDbVertex
100
AcDb2dVertex
 10
16.06410797853256
 20
31.9943743306837
 30
0.0
  0
VERTEX
  5
920
330
91D
100
AcDbEntity
  8
Livello 1
370
     0
100
AcDbVertex
100
AcDb2dVertex
 10
16.06410797853256
 20
32.07480654434089
 30
0.0
  0
VERTEX
  5
921
330
91D
100
AcDbEntity
  8
Livello 1
370
     0
100
AcDbVertex
100
AcDb2dVertex
 10
16.21509736261613
 20
32.07480654434089
 30
0.0
  0
VERTEX
  5
922
330
91D
100
AcDbEntity
  8
Livello 1
370
     0
100
AcDbVertex
100
AcDb2dVertex
 10
16.21509736261613
 20
31.9943743306837
 30
0.0
  0
SEQEND
  5
923
330
91D
100
AcDbEntity
  8
Livello 1
370
     0
  0
POLYLINE
  5
925
330
1F
100
AcDbEntity
  8
Livello 1
370
     0
100
AcDb2dPolyline
 66
     1
 10
0.0
 20
0.0
 30
0.0
  0
VERTEX
  5
926
330
925
100
AcDbEntity
  8
Livello 1
370
     0
100
AcDbVertex
100
AcDb2dVertex
 10
16.06411067001333
 20
31.9943743306837
 30
0.0
  0
VERTEX
  5
927
330
925
100
AcDbEntity
  8
Livello 1
370
     0
100
AcDbVertex
100
AcDb2dVertex
 10
15.91135836597443
 20
31.9943743306837
 30
0.0
  0
VERTEX
  5
928
330
925
100
AcDbEntity
  8
Livello 1
370
     0
100
AcDbVertex
100
AcDb2dVertex
 10
15.91135836597443
 20
32.07480654434089
 30
0.0
  0
VERTEX
  5
929
330
925
100
AcDbEntity
  8
Livello 1
370
     0
100
AcDbVertex
100
AcDb2dVertex
 10
16.06411067001333
 20
32.07480654434089
 30
0.0
  0
VERTEX
  5
92A
330
925
100
AcDbEntity
  8
Livello 1
370
     0
100
AcDbVertex
100
AcDb2dVertex
 10
16.06411067001333
 20
31.9943743306837
 30
0.0
  0
SEQEND
  5
92B
330
925
100
AcDbEntity
  8
Livello 1
370
     0
  0
POLYLINE
  5
92D
330
1F
100
AcDbEntity
  8
Livello 1
370
     0
100
AcDb2dPolyline
 66
     1
 10
0.0
 20
0.0
 30
0.0
  0
VERTEX
  5
92E
330
92D
100
AcDbEntity
  8
Livello 1
370
     0
100
AcDbVertex
100
AcDb2dVertex
 10
16.31564032116846
 20
31.9943743306837
 30
0.0
  0
VERTEX
  5
92F
330
92D
100
AcDbEntity
  8
Livello 1
370
     0
100
AcDbVertex
100
AcDb2dVertex
 10
16.21509736261613
 20
31.9943743306837
 30
0.0
  0
VERTEX
  5
930
330
92D
100
AcDbEntity
  8
Livello 1
370
     0
100
AcDbVertex
100
AcDb2dVertex
 10
16.21509736261613
 20
32.07480654434089
 30
0.0
  0
VERTEX
  5
931
330
92D
100
AcDbEntity
  8
Livello 1
370
     0
100
AcDbVertex
100
AcDb2dVertex
 10
16.31564032116846
 20
32.07480654434089
 30
0.0
  0
VERTEX
  5
932
330
92D
100
AcDbEntity
  8
Livello 1
370
     0
100
AcDbVertex
100
AcDb2dVertex
 10
16.31564032116846
 20
31.9943743306837
 30
0.0
  0
SEQEND
  5
933
330
92D
100
AcDbEntity
  8
Livello 1
370
     0
  0
POLYLINE
  5
935
330
1F
100
AcDbEntity
  8
Livello 1
370
     0
100
AcDb2dPolyline
 66
     1
 10
0.0
 20
0.0
 30
0.0
  0
VERTEX
  5
936
330
935
100
AcDbEntity
  8
Livello 1
370
     0
100
AcDbVertex
100
AcDb2dVertex
 10
16.94428950280114
 20
31.10925528479969
 30
0.0
  0
VERTEX
  5
937
330
935
100
AcDbEntity
  8
Livello 1
370
     0
100
AcDbVertex
100
AcDb2dVertex
 10
16.86385728914392
 20
31.10925528479969
 30
0.0
  0
VERTEX
  5
938
330
935
100
AcDbEntity
  8
Livello 1
370
     0
100
AcDbVertex
100
AcDb2dVertex
 10
16.86385728914392
 20
31.1597030560714
 30
0.0
  0
VERTEX
  5
939
330
935
100
AcDbEntity
  8
Livello 1
370
     0
100
AcDbVertex
100
AcDb2dVertex
 10
16.94428950280114
 20
31.1597030560714
 30
0.0
  0
VERTEX
  5
93A
330
935
100
AcDbEntity
  8
Livello 1
370
     0
100
AcDbVertex
100
AcDb2dVertex
 10
16.94428950280114
 20
31.10925528479969
 30
0.0
  0
SEQEND
  5
93B
330
935
100
AcDbEntity
  8
Livello 1
370
     0
  0
POLYLINE
  5
93D
330
1F
100
AcDbEntity
  8
Livello 1
370
     0
100
AcDb2dPolyline
 66
     1
 10
0.0
 20
0.0
 30
0.0
  0
VERTEX
  5
93E
330
93D
100
AcDbEntity
  8
Livello 1
370
     0
100
AcDbVertex
100
AcDb2dVertex
 10
16.90407339597256
 20
31.1191330195113
 30
0.0
  0
VERTEX
  5
93F
330
93D
100
AcDbEntity
  8
Livello 1
370
     0
100
AcDbVertex
100
AcDb2dVertex
 10
16.65254374481743
 20
31.1191330195113
 30
0.0
  0
VERTEX
  5
940
330
93D
100
AcDbEntity
  8
Livello 1
370
     0
100
AcDbVertex
100
AcDb2dVertex
 10
16.65254374481743
 20
31.19956657890893
 30
0.0
  0
VERTEX
  5
941
330
93D
100
AcDbEntity
  8
Livello 1
370
     0
100
AcDbVertex
100
AcDb2dVertex
 10
16.90407339597256
 20
31.19956657890893
 30
0.0
  0
VERTEX
  5
942
330
93D
100
AcDbEntity
  8
Livello 1
370
     0
100
AcDbVertex
100
AcDb2dVertex
 10
16.90407339597256
 20
31.1191330195113
 30
0.0
  0
SEQEND
  5
943
330
93D
100
AcDbEntity
  8
Livello 1
370
     0
  0
POLYLINE
  5
945
330
1F
100
AcDbEntity
  8
Livello 1
370
     0
100
AcDb2dPolyline
 66
     1
 10
0.0
 20
0.0
 30
0.0
  0
VERTEX
  5
946
330
945
100
AcDbEntity
  8
Livello 1
370
     0
100
AcDbVertex
100
AcDb2dVertex
 10
16.96968900756234
 20
31.13430355131022
 30
0.0
  0
VERTEX
  5
947
330
945
100
AcDbEntity
  8
Livello 1
370
     0
100
AcDbVertex
100
AcDb2dVertex
 10
16.91924258203106
 20
31.13430355131022
 30
0.0
  0
VERTEX
  5
948
330
945
100
AcDbEntity
  8
Livello 1
370
     0
100
AcDbVertex
100
AcDb2dVertex
 10
16.91924258203106
 20
31.21473711070785
 30
0.0
  0
VERTEX
  5
949
330
945
100
AcDbEntity
  8
Livello 1
370
     0
100
AcDbVertex
100
AcDb2dVertex
 10
16.96968900756234
 20
31.21473711070785
 30
0.0
  0
VERTEX
  5
94A
330
945
100
AcDbEntity
  8
Livello 1
370
     0
100
AcDbVertex
100
AcDb2dVertex
 10
16.96968900756234
 20
31.13430355131022
 30
0.0
  0
SEQEND
  5
94B
330
945
100
AcDbEntity
  8
Livello 1
370
     0
  0
POLYLINE
  5
94D
330
1F
100
AcDbEntity
  8
Livello 1
370
     0
100
AcDb2dPolyline
 66
     1
 10
0.0
 20
0.0
 30
0.0
  0
VERTEX
  5
94E
330
94D
100
AcDbEntity
  8
Livello 1
370
     0
100
AcDbVertex
100
AcDb2dVertex
 10
16.95487240549484
 20
31.17451965813882
 30
0.0
  0
VERTEX
  5
94F
330
94D
100
AcDbEntity
  8
Livello 1
370
     0
100
AcDbVertex
100
AcDb2dVertex
 10
16.91924258203106
 20
31.17451965813882
 30
0.0
  0
VERTEX
  5
950
330
94D
100
AcDbEntity
  8
Livello 1
370
     0
100
AcDbVertex
100
AcDb2dVertex
 10
16.91924258203106
 20
31.25495321753644
 30
0.0
  0
VERTEX
  5
951
330
94D
100
AcDbEntity
  8
Livello 1
370
     0
100
AcDbVertex
100
AcDb2dVertex
 10
16.95487240549484
 20
31.25495321753644
 30
0.0
  0
VERTEX
  5
952
330
94D
100
AcDbEntity
  8
Livello 1
370
     0
100
AcDbVertex
100
AcDb2dVertex
 10
16.95487240549484
 20
31.17451965813882
 30
0.0
  0
SEQEND
  5
953
330
94D
100
AcDbEntity
  8
Livello 1
370
     0
  0
POLYLINE
  5
955
330
1F
100
AcDbEntity
  8
Livello 1
370
     0
100
AcDb2dPolyline
 66
     1
 10
0.0
 20
0.0
 30
0.0
  0
VERTEX
  5
956
330
955
100
AcDbEntity
  8
Livello 1
370
     0
100
AcDbVertex
100
AcDb2dVertex
 10
16.95945868885964
 20
31.17451965813882
 30
0.0
  0
VERTEX
  5
957
330
955
100
AcDbEntity
  8
Livello 1
370
     0
100
AcDbVertex
100
AcDb2dVertex
 10
16.87902647520234
 20
31.17451965813882
 30
0.0
  0
VERTEX
  5
958
330
955
100
AcDbEntity
  8
Livello 1
370
     0
100
AcDbVertex
100
AcDb2dVertex
 10
16.87902647520234
 20
31.21473576496742
 30
0.0
  0
VERTEX
  5
959
330
955
100
AcDbEntity
  8
Livello 1
370
     0
100
AcDbVertex
100
AcDb2dVertex
 10
16.95945868885964
 20
31.21473576496742
 30
0.0
  0
VERTEX
  5
95A
330
955
100
AcDbEntity
  8
Livello 1
370
     0
100
AcDbVertex
100
AcDb2dVertex
 10
16.95945868885964
 20
31.17451965813882
 30
0.0
  0
SEQEND
  5
95B
330
955
100
AcDbEntity
  8
Livello 1
370
     0
  0
SPLINE
  5
95D
330
1F
100
AcDbEntity
  8
Livello 1
370
     0
100
AcDbSpline
210
0.0
220
0.0
230
1.0
 70
     9
 71
     3
 72
    14
 73
    10
 74
     0
 42
0.000000001
 43
0.0000000001
 40
0.0
 40
0.0
 40
0.0
 40
0.0
 40
1.0
 40
1.0
 40
1.0
 40
2.0
 40
2.0
 40
2.0
 40
3.0
 40
3.0
 40
3.0
 40
3.0
 10
16.90417836372559
 20
31.11927432225582
 30
0.0
 10
16.90417836372559
 20
31.11927432225582
 30
0.0
 10
16.90417836372559
 20
31.17465961514291
 30
0.0
 10
16.90417836372559
 20
31.17465961514291
 30
0.0
 10
16.90417836372559
 20
31.17465961514291
 30
0.0
 10
16.95956365661267
 20
31.17465961514291
 30
0.0
 10
16.95956365661267
 20
31.17465961514291
 30
0.0
 10
16.95956365661267
 20
31.14149922535696
 30
0.0
 10
16.93733740777112
 20
31.11927432225582
 30
0.0
 10
16.90417836372559
 20
31.11927432225582
 30
0.0
  0
POLYLINE
  5
95E
330
1F
100
AcDbEntity
  8
Livello 1
370
     0
100
AcDb2dPolyline
 66
     1
 10
0.0
 20
0.0
 30
0.0
  0
VERTEX
  5
95F
330
95E
100
AcDbEntity
  8
Livello 1
370
     0
100
AcDbVertex
100
AcDb2dVertex
 10
16.88833899893593
 20
31.18894868696415
 30
0.0
  0
VERTEX
  5
960
330
95E
100
AcDbEntity
  8
Livello 1
370
     0
100
AcDbVertex
100
AcDb2dVertex
 10
16.62163747024156
 20
31.50679911769116
 30
0.0
  0
VERTEX
  5
961
330
95E
100
AcDbEntity
  8
Livello 1
370
     0
100
AcDbVertex
100
AcDb2dVertex
 10
16.68337465792955
 20
31.55865857066757
 30
0.0
  0
VERTEX
  5
962
330
95E
100
AcDbEntity
  8
Livello 1
370
     0
100
AcDbVertex
100
AcDb2dVertex
 10
16.95007349514314
 20
31.24080679420014
 30
0.0
  0
VERTEX
  5
963
330
95E
100
AcDbEntity
  8
Livello 1
370
     0
100
AcDbVertex
100
AcDb2dVertex
 10
16.88833899893593
 20
31.18894868696415
 30
0.0
  0
SEQEND
  5
964
330
95E
100
AcDbEntity
  8
Livello 1
370
     0
  0
POLYLINE
  5
966
330
1F
100
AcDbEntity
  8
Livello 1
370
     0
100
AcDb2dPolyline
 66
     1
 10
0.0
 20
0.0
 30
0.0
  0
VERTEX
  5
967
330
966
100
AcDbEntity
  8
Livello 1
370
     0
100
AcDbVertex
100
AcDb2dVertex
 10
16.94510233001715
 20
31.18390350611486
 30
0.0
  0
VERTEX
  5
968
330
966
100
AcDbEntity
  8
Livello 1
370
     0
100
AcDbVertex
100
AcDb2dVertex
 10
16.89324287704075
 20
31.24563934806245
 30
0.0
  0
VERTEX
  5
969
330
966
100
AcDbEntity
  8
Livello 1
370
     0
100
AcDbVertex
100
AcDb2dVertex
 10
16.93204864790506
 20
31.27809456986626
 30
0.0
  0
VERTEX
  5
96A
330
966
100
AcDbEntity
  8
Livello 1
370
     0
100
AcDbVertex
100
AcDb2dVertex
 10
16.98355282540954
 20
31.21635872791868
 30
0.0
  0
VERTEX
  5
96B
330
966
100
AcDbEntity
  8
Livello 1
370
     0
100
AcDbVertex
100
AcDb2dVertex
 10
16.94510233001715
 20
31.18390350611486
 30
0.0
  0
SEQEND
  5
96C
330
966
100
AcDbEntity
  8
Livello 1
370
     0
  0
POLYLINE
  5
96E
330
1F
100
AcDbEntity
  8
Livello 1
370
     0
100
AcDb2dPolyline
 66
     1
 10
0.0
 20
0.0
 30
0.0
  0
VERTEX
  5
96F
330
96E
100
AcDbEntity
  8
Livello 1
370
     0
100
AcDbVertex
100
AcDb2dVertex
 10
13.35265903427084
 20
31.10925528479969
 30
0.0
  0
VERTEX
  5
970
330
96E
100
AcDbEntity
  8
Livello 1
370
     0
100
AcDbVertex
100
AcDb2dVertex
 10
13.27222682061365
 20
31.10925528479969
 30
0.0
  0
VERTEX
  5
971
330
96E
100
AcDbEntity
  8
Livello 1
370
     0
100
AcDbVertex
100
AcDb2dVertex
 10
13.27222682061365
 20
31.1597030560714
 30
0.0
  0
VERTEX
  5
972
330
96E
100
AcDbEntity
  8
Livello 1
370
     0
100
AcDbVertex
100
AcDb2dVertex
 10
13.35265903427084
 20
31.1597030560714
 30
0.0
  0
VERTEX
  5
973
330
96E
100
AcDbEntity
  8
Livello 1
370
     0
100
AcDbVertex
100
AcDb2dVertex
 10
13.35265903427084
 20
31.10925528479969
 30
0.0
  0
SEQEND
  5
974
330
96E
100
AcDbEntity
  8
Livello 1
370
     0
  0
POLYLINE
  5
976
330
1F
100
AcDbEntity
  8
Livello 1
370
     0
100
AcDb2dPolyline
 66
     1
 10
0.0
 20
0.0
 30
0.0
  0
VERTEX
  5
977
330
976
100
AcDbEntity
  8
Livello 1
370
     0
100
AcDbVertex
100
AcDb2dVertex
 10
13.56397257859736
 20
31.1191330195113
 30
0.0
  0
VERTEX
  5
978
330
976
100
AcDbEntity
  8
Livello 1
370
     0
100
AcDbVertex
100
AcDb2dVertex
 10
13.31244292744226
 20
31.1191330195113
 30
0.0
  0
VERTEX
  5
979
330
976
100
AcDbEntity
  8
Livello 1
370
     0
100
AcDbVertex
100
AcDb2dVertex
 10
13.31244292744226
 20
31.19956657890893
 30
0.0
  0
VERTEX
  5
97A
330
976
100
AcDbEntity
  8
Livello 1
370
     0
100
AcDbVertex
100
AcDb2dVertex
 10
13.56397257859736
 20
31.19956657890893
 30
0.0
  0
VERTEX
  5
97B
330
976
100
AcDbEntity
  8
Livello 1
370
     0
100
AcDbVertex
100
AcDb2dVertex
 10
13.56397257859736
 20
31.1191330195113
 30
0.0
  0
SEQEND
  5
97C
330
976
100
AcDbEntity
  8
Livello 1
370
     0
  0
SPLINE
  5
97E
330
1F
100
AcDbEntity
  8
Livello 1
370
     0
100
AcDbSpline
210
0.0
220
0.0
230
1.0
 70
     9
 71
     3
 72
    14
 73
    10
 74
     0
 42
0.000000001
 43
0.0000000001
 40
0.0
 40
0.0
 40
0.0
 40
0.0
 40
1.0
 40
1.0
 40
1.0
 40
2.0
 40
2.0
 40
2.0
 40
3.0
 40
3.0
 40
3.0
 40
3.0
 10
13.31247791669325
 20
31.11927432225582
 30
0.0
 10
13.27931618116698
 20
31.11927432225582
 30
0.0
 10
13.25708993232537
 20
31.14149922535696
 30
0.0
 10
13.25708993232537
 20
31.17465961514291
 30
0.0
 10
13.25708993232537
 20
31.17465961514291
 30
0.0
 10
13.31247791669325
 20
31.17465961514291
 30
0.0
 10
13.31247791669325
 20
31.17465961514291
 30
0.0
 10
13.31247791669325
 20
31.17465961514291
 30
0.0
 10
13.31247791669325
 20
31.11927432225582
 30
0.0
 10
13.31247791669325
 20
31.11927432225582
 30
0.0
  0
POLYLINE
  5
97F
330
1F
100
AcDbEntity
  8
Livello 1
370
     0
100
AcDb2dPolyline
 66
     1
 10
0.0
 20
0.0
 30
0.0
  0
VERTEX
  5
980
330
97F
100
AcDbEntity
  8
Livello 1
370
     0
100
AcDbVertex
100
AcDb2dVertex
 10
13.29727374138376
 20
31.13430355131022
 30
0.0
  0
VERTEX
  5
981
330
97F
100
AcDbEntity
  8
Livello 1
370
     0
100
AcDbVertex
100
AcDb2dVertex
 10
13.24682731585243
 20
31.13430355131022
 30
0.0
  0
VERTEX
  5
982
330
97F
100
AcDbEntity
  8
Livello 1
370
     0
100
AcDbVertex
100
AcDb2dVertex
 10
13.24682731585243
 20
31.21473711070785
 30
0.0
  0
VERTEX
  5
983
330
97F
100
AcDbEntity
  8
Livello 1
370
     0
100
AcDbVertex
100
AcDb2dVertex
 10
13.29727374138376
 20
31.21473711070785
 30
0.0
  0
VERTEX
  5
984
330
97F
100
AcDbEntity
  8
Livello 1
370
     0
100
AcDbVertex
100
AcDb2dVertex
 10
13.29727374138376
 20
31.13430355131022
 30
0.0
  0
SEQEND
  5
985
330
97F
100
AcDbEntity
  8
Livello 1
370
     0
  0
POLYLINE
  5
987
330
1F
100
AcDbEntity
  8
Livello 1
370
     0
100
AcDb2dPolyline
 66
     1
 10
0.0
 20
0.0
 30
0.0
  0
VERTEX
  5
988
330
987
100
AcDbEntity
  8
Livello 1
370
     0
100
AcDbVertex
100
AcDb2dVertex
 10
13.33748984821234
 20
31.17451965813882
 30
0.0
  0
VERTEX
  5
989
330
987
100
AcDbEntity
  8
Livello 1
370
     0
100
AcDbVertex
100
AcDb2dVertex
 10
13.25705763455515
 20
31.17451965813882
 30
0.0
  0
VERTEX
  5
98A
330
987
100
AcDbEntity
  8
Livello 1
370
     0
100
AcDbVertex
100
AcDb2dVertex
 10
13.25705763455515
 20
31.21473576496742
 30
0.0
  0
VERTEX
  5
98B
330
987
100
AcDbEntity
  8
Livello 1
370
     0
100
AcDbVertex
100
AcDb2dVertex
 10
13.33748984821234
 20
31.21473576496742
 30
0.0
  0
VERTEX
  5
98C
330
987
100
AcDbEntity
  8
Livello 1
370
     0
100
AcDbVertex
100
AcDb2dVertex
 10
13.33748984821234
 20
31.17451965813882
 30
0.0
  0
SEQEND
  5
98D
330
987
100
AcDbEntity
  8
Livello 1
370
     0
  0
POLYLINE
  5
98F
330
1F
100
AcDbEntity
  8
Livello 1
370
     0
100
AcDb2dPolyline
 66
     1
 10
0.0
 20
0.0
 30
0.0
  0
VERTEX
  5
990
330
98F
100
AcDbEntity
  8
Livello 1
370
     0
100
AcDbVertex
100
AcDb2dVertex
 10
13.29727374138376
 20
31.17451965813882
 30
0.0
  0
VERTEX
  5
991
330
98F
100
AcDbEntity
  8
Livello 1
370
     0
100
AcDbVertex
100
AcDb2dVertex
 10
13.26164391791994
 20
31.17451965813882
 30
0.0
  0
VERTEX
  5
992
330
98F
100
AcDbEntity
  8
Livello 1
370
     0
100
AcDbVertex
100
AcDb2dVertex
 10
13.26164391791994
 20
31.25495321753644
 30
0.0
  0
VERTEX
  5
993
330
98F
100
AcDbEntity
  8
Livello 1
370
     0
100
AcDbVertex
100
AcDb2dVertex
 10
13.29727374138376
 20
31.25495321753644
 30
0.0
  0
VERTEX
  5
994
330
98F
100
AcDbEntity
  8
Livello 1
370
     0
100
AcDbVertex
100
AcDb2dVertex
 10
13.29727374138376
 20
31.17451965813882
 30
0.0
  0
SEQEND
  5
995
330
98F
100
AcDbEntity
  8
Livello 1
370
     0
  0
POLYLINE
  5
997
330
1F
100
AcDbEntity
  8
Livello 1
370
     0
100
AcDb2dPolyline
 66
     1
 10
0.0
 20
0.0
 30
0.0
  0
VERTEX
  5
998
330
997
100
AcDbEntity
  8
Livello 1
370
     0
100
AcDbVertex
100
AcDb2dVertex
 10
13.27144898264863
 20
31.18397483035732
 30
0.0
  0
VERTEX
  5
999
330
997
100
AcDbEntity
  8
Livello 1
370
     0
100
AcDbVertex
100
AcDb2dVertex
 10
13.23299579577535
 20
31.21643005216114
 30
0.0
  0
VERTEX
  5
99A
330
997
100
AcDbEntity
  8
Livello 1
370
     0
100
AcDbVertex
100
AcDb2dVertex
 10
13.28485255727092
 20
31.27816589410873
 30
0.0
  0
VERTEX
  5
99B
330
997
100
AcDbEntity
  8
Livello 1
370
     0
100
AcDbVertex
100
AcDb2dVertex
 10
13.32330574414426
 20
31.24571067230492
 30
0.0
  0
VERTEX
  5
99C
330
997
100
AcDbEntity
  8
Livello 1
370
     0
100
AcDbVertex
100
AcDb2dVertex
 10
13.27144898264863
 20
31.18397483035732
 30
0.0
  0
SEQEND
  5
99D
330
997
100
AcDbEntity
  8
Livello 1
370
     0
  0
POLYLINE
  5
99F
330
1F
100
AcDbEntity
  8
Livello 1
370
     0
100
AcDb2dPolyline
 66
     1
 10
0.0
 20
0.0
 30
0.0
  0
VERTEX
  5
9A0
330
99F
100
AcDbEntity
  8
Livello 1
370
     0
100
AcDbVertex
100
AcDb2dVertex
 10
14.19262445171084
 20
32.72885792221558
 30
0.0
  0
VERTEX
  5
9A1
330
99F
100
AcDbEntity
  8
Livello 1
370
     0
100
AcDbVertex
100
AcDb2dVertex
 10
14.01164927950135
 20
32.72885792221558
 30
0.0
  0
VERTEX
  5
9A2
330
99F
100
AcDbEntity
  8
Livello 1
370
     0
100
AcDbVertex
100
AcDb2dVertex
 10
14.01164927950135
 20
32.80929013587277
 30
0.0
  0
VERTEX
  5
9A3
330
99F
100
AcDbEntity
  8
Livello 1
370
     0
100
AcDbVertex
100
AcDb2dVertex
 10
14.19262445171084
 20
32.80929013587277
 30
0.0
  0
VERTEX
  5
9A4
330
99F
100
AcDbEntity
  8
Livello 1
370
     0
100
AcDbVertex
100
AcDb2dVertex
 10
14.19262445171084
 20
32.72885792221558
 30
0.0
  0
SEQEND
  5
9A5
330
99F
100
AcDbEntity
  8
Livello 1
370
     0
  0
POLYLINE
  5
9A7
330
1F
100
AcDbEntity
  8
Livello 1
370
     0
100
AcDb2dPolyline
 66
     1
 10
0.0
 20
0.0
 30
0.0
  0
VERTEX
  5
9A8
330
9A7
100
AcDbEntity
  8
Livello 1
370
     0
100
AcDbVertex
100
AcDb2dVertex
 10
16.20486704391344
 20
32.72885792221558
 30
0.0
  0
VERTEX
  5
9A9
330
9A7
100
AcDbEntity
  8
Livello 1
370
     0
100
AcDbVertex
100
AcDb2dVertex
 10
16.02389187170395
 20
32.72885792221558
 30
0.0
  0
VERTEX
  5
9AA
330
9A7
100
AcDbEntity
  8
Livello 1
370
     0
100
AcDbVertex
100
AcDb2dVertex
 10
16.02389187170395
 20
32.80929013587277
 30
0.0
  0
VERTEX
  5
9AB
330
9A7
100
AcDbEntity
  8
Livello 1
370
     0
100
AcDbVertex
100
AcDb2dVertex
 10
16.20486704391344
 20
32.80929013587277
 30
0.0
  0
VERTEX
  5
9AC
330
9A7
100
AcDbEntity
  8
Livello 1
370
     0
100
AcDbVertex
100
AcDb2dVertex
 10
16.20486704391344
 20
32.72885792221558
 30
0.0
  0
SEQEND
  5
9AD
330
9A7
100
AcDbEntity
  8
Livello 1
370
     0
  0
POLYLINE
  5
9AF
330
1F
100
AcDbEntity
  8
Livello 1
370
     0
100
AcDb2dPolyline
 66
     1
 10
0.0
 20
0.0
 30
0.0
  0
VERTEX
  5
9B0
330
9AF
100
AcDbEntity
  8
Livello 1
370
     0
100
AcDbVertex
100
AcDb2dVertex
 10
13.32821231372985
 20
31.18894868696415
 30
0.0
  0
VERTEX
  5
9B1
330
9AF
100
AcDbEntity
  8
Livello 1
370
     0
100
AcDbVertex
100
AcDb2dVertex
 10
13.26647512604184
 20
31.24080679420014
 30
0.0
  0
VERTEX
  5
9B2
330
9AF
100
AcDbEntity
  8
Livello 1
370
     0
100
AcDbVertex
100
AcDb2dVertex
 10
13.53317396325543
 20
31.55865857066757
 30
0.0
  0
VERTEX
  5
9B3
330
9AF
100
AcDbEntity
  8
Livello 1
370
     0
100
AcDbVertex
100
AcDb2dVertex
 10
13.59491115094344
 20
31.50679911769116
 30
0.0
  0
VERTEX
  5
9B4
330
9AF
100
AcDbEntity
  8
Livello 1
370
     0
100
AcDbVertex
100
AcDb2dVertex
 10
13.32821231372985
 20
31.18894868696415
 30
0.0
  0
SEQEND
  5
9B5
330
9AF
100
AcDbEntity
  8
Livello 1
370
     0
  0
POLYLINE
  5
9B7
330
1F
100
AcDbEntity
  8
Livello 1
370
     0
100
AcDb2dPolyline
 66
     1
 10
0.0
 20
0.0
 30
0.0
  0
VERTEX
  5
9B8
330
9B7
100
AcDbEntity
  8
Livello 1
370
     0
100
AcDbVertex
100
AcDb2dVertex
 10
15.30281454627514
 20
31.9040643823149
 30
0.0
  0
VERTEX
  5
9B9
330
9B7
100
AcDbEntity
  8
Livello 1
370
     0
100
AcDbVertex
100
AcDb2dVertex
 10
14.91052582973914
 20
31.9040643823149
 30
0.0
  0
VERTEX
  5
9BA
330
9B7
100
AcDbEntity
  8
Livello 1
370
     0
100
AcDbVertex
100
AcDb2dVertex
 10
14.91052582973914
 20
33.19734784451597
 30
0.0
  0
VERTEX
  5
9BB
330
9B7
100
AcDbEntity
  8
Livello 1
370
     0
100
AcDbVertex
100
AcDb2dVertex
 10
15.30281454627514
 20
33.19734784451597
 30
0.0
  0
VERTEX
  5
9BC
330
9B7
100
AcDbEntity
  8
Livello 1
370
     0
100
AcDbVertex
100
AcDb2dVertex
 10
15.30281454627514
 20
31.9040643823149
 30
0.0
  0
SEQEND
  5
9BD
330
9B7
100
AcDbEntity
  8
Livello 1
370
     0
  0
POLYLINE
  5
9BE
330
1F
100
AcDbEntity
  8
Livello 1
370
     0
100
AcDb2dPolyline
 66
     1
 10
0.0
 20
0.0
 30
0.0
  0
VERTEX
  5
9BF
330
9BE
100
AcDbEntity
  8
Livello 1
370
     0
100
AcDbVertex
100
AcDb2dVertex
 10
14.99131331886825
 20
31.98449659597209
 30
0.0
  0
VERTEX
  5
9C0
330
9BE
100
AcDbEntity
  8
Livello 1
370
     0
100
AcDbVertex
100
AcDb2dVertex
 10
15.22238233261795
 20
31.98449659597209
 30
0.0
  0
VERTEX
  5
9C1
330
9BE
100
AcDbEntity
  8
Livello 1
370
     0
100
AcDbVertex
100
AcDb2dVertex
 10
15.22238233261795
 20
33.11656035538688
 30
0.0
  0
VERTEX
  5
9C2
330
9BE
100
AcDbEntity
  8
Livello 1
370
     0
100
AcDbVertex
100
AcDb2dVertex
 10
14.99131331886825
 20
33.11656035538688
 30
0.0
  0
VERTEX
  5
9C3
330
9BE
100
AcDbEntity
  8
Livello 1
370
     0
100
AcDbVertex
100
AcDb2dVertex
 10
14.99131331886825
 20
31.98449659597209
 30
0.0
  0
SEQEND
  5
9C4
330
9BE
100
AcDbEntity
  8
Livello 1
370
     0
  0
ENDSEC
  0
SECTION
  2
OBJECTS
  0
DICTIONARY
  5
C
330
0
100
AcDbDictionary
281
     1
  3
ACAD_CIP_PREVIOUS_PRODUCT_INFO
350
216
  3
ACAD_COLOR
350
6B
  3
ACAD_DETAILVIEWSTYLE
350
21B
  3
ACAD_GROUP
350
D
  3
ACAD_LAYOUT
350
1A
  3
ACAD_MATERIAL
350
6A
  3
ACAD_MLEADERSTYLE
350
12D
  3
ACAD_MLINESTYLE
350
17
  3
ACAD_PLOTSETTINGS
350
19
  3
ACAD_PLOTSTYLENAME
350
E
  3
ACAD_SCALELIST
350
10C
  3
ACAD_SECTIONVIEWSTYLE
350
219
  3
ACAD_TABLESTYLE
350
7E
  3
ACAD_VISUALSTYLE
350
EF
  3
ACDB_RECOMPOSE_DATA
350
9E6
  3
AcDbVariableDictionary
350
5E
  3
AcDsDecomposeData
350
9EC
  0
DICTIONARY
  5
1FF
330
2
100
AcDbDictionary
280
     1
281
     1
  3
ACAD_LAYERSTATES
360
200
  0
DICTIONARY
  5
13C
330
10
100
AcDbDictionary
280
     1
281
     1
  0
DICTIONARY
  5
1CE
330
1F
100
AcDbDictionary
280
     1
281
     1
  0
XRECORD
  5
216
102
{ACAD_REACTORS
330
C
102
}
330
C
100
AcDbXrecord
280
     1
300
ACD
300
2020
300

  0
DICTIONARY
  5
6B
102
{ACAD_REACTORS
330
C
102
}
330
C
100
AcDbDictionary
281
     1
  0
DICTIONARY
  5
21B
102
{ACAD_REACTORS
330
C
102
}
330
C
100
AcDbDictionary
281
     1
  3
Imperial24
350
28F
  3
Metric50
350
21C
  0
DICTIONARY
  5
D
102
{ACAD_REACTORS
330
C
102
}
330
C
100
AcDbDictionary
281
     1
  0
DICTIONARY
  5
1A
102
{ACAD_REACTORS
330
C
102
}
330
C
100
AcDbDictionary
281
     1
  3
Layout1
350
D3
  3
Layout2
350
D7
  3
Model
350
22
  0
DICTIONARY
  5
6A
102
{ACAD_REACTORS
330
C
102
}
330
C
100
AcDbDictionary
281
     1
  3
ByBlock
350
ED
  3
ByLayer
350
EC
  3
Global
350
EE
  0
DICTIONARY
  5
12D
102
{ACAD_REACTORS
330
C
102
}
330
C
100
AcDbDictionary
281
     1
  3
Annotativa
350
13B
  3
Standard
350
12E
  0
DICTIONARY
  5
17
102
{ACAD_REACTORS
330
C
102
}
330
C
100
AcDbDictionary
281
     1
  3
Standard
350
18
  0
DICTIONARY
  5
19
102
{ACAD_REACTORS
330
C
102
}
330
C
100
AcDbDictionary
281
     1
  0
ACDBDICTIONARYWDFLT
  5
E
102
{ACAD_REACTORS
330
C
102
}
330
C
100
AcDbDictionary
281
     1
  3
Normal
350
F
100
AcDbDictionaryWithDefault
340
F
  0
DICTIONARY
  5
10C
102
{ACAD_REACTORS
330
C
102
}
330
C
100
AcDbDictionary
281
     1
  3
A0
350
10D
  3
A1
350
1BE
  3
A2
350
1BF
  3
A3
350
1C0
  3
A4
350
1C1
  3
A5
350
1C2
  3
A6
350
1C3
  3
A7
350
1C4
  3
A8
350
1C5
  3
A9
350
1C6
  3
B0
350
1C7
  3
B1
350
1C8
  3
B2
350
1C9
  3
B3
350
1CA
  3
B4
350
1CB
  3
B5
350
1CC
  3
B6
350
1CD
  0
DICTIONARY
  5
219
102
{ACAD_REACTORS
330
C
102
}
330
C
100
AcDbDictionary
281
     1
  3
Imperial24
350
28E
  3
Metric50
350
21A
  0
DICTIONARY
  5
7E
102
{ACAD_REACTORS
330
C
102
}
330
C
100
AcDbDictionary
281
     1
  3
Standard
350
7F
  0
DICTIONARY
  5
EF
102
{ACAD_REACTORS
330
C
102
}
330
C
100
AcDbDictionary
281
     1
  3
2dWireframe
350
F5
  3
Basic
350
F4
  3
Brighten
350
FB
  3
ColorChange
350
FF
  3
Conceptual
350
F8
  3
Dim
350
FA
  3
EdgeColorOff
350
1E6
  3
Facepattern
350
FE
  3
Flat
350
F0
  3
FlatWithEdges
350
F1
  3
Gouraud
350
F2
  3
GouraudWithEdges
350
F3
  3
Hidden
350
F7
  3
JitterOff
350
1E4
  3
Linepattern
350
FD
  3
OverhangOff
350
1E5
  3
Realistic
350
F9
  3
Shaded
350
1F3
  3
Shaded with edges
350
1F2
  3
Shades of Gray
350
1EF
  3
Sketchy
350
1F0
  3
Thicken
350
FC
  3
Wireframe
350
F6
  3
X-Ray
350
1F1
  0
XRECORD
  5
9E6
102
{ACAD_REACTORS
330
C
102
}
330
C
100
AcDbXrecord
280
     1
 90
        1
330
7F
  0
DICTIONARY
  5
5E
102
{ACAD_REACTORS
330
C
102
}
330
C
100
AcDbDictionary
281
     1
  3
CANNOSCALE
350
146
  3
CENTEREXE
350
259
  3
CENTERLTYPEFILE
350
25A
  3
CMLEADERSTYLE
350
145
  3
CTABLESTYLE
350
84
  3
CVIEWDETAILSTYLE
350
227
  3
CVIEWSECTIONSTYLE
350
228
  3
DIMASSOC
350
5F
  3
HIDETEXT
350
63
  3
LAYEREVAL
350
1AE
  3
LAYERNOTIFY
350
1AF
  0
DICTIONARY
  5
9EC
102
{ACAD_REACTORS
330
C
102
}
330
C
100
AcDbDictionary
281
     1
  3
AcDsRecords
350
9EE
  3
AcDsSchemas
350
9ED
1001
ACAD
1070
     2
  0
DICTIONARY
  5
200
102
{ACAD_REACTORS
330
1FF
102
}
330
1FF
100
AcDbDictionary
281
     1
  0
ACDBDETAILVIEWSTYLE
  5
28F
102
{ACAD_XDICTIONARY
360
9F5
102
}
102
{ACAD_REACTORS
330
21B
102
}
330
21B
100
AcDbModelDocViewStyle
 70
     0
  3
Imperial24
290
     0
100
AcDbDetailViewStyle
 70
     0
 71
     0
 90
        3
 71
     1
340
11
 62
   256
 40
0.24
340
0
 62
   256
 40
0.24
300

 40
0.36
280
     3
 71
     2
340
16
 90
       25
 62
   256
 71
     3
340
11
 62
   256
 40
0.24
 90
        1
 40
0.75
 90
        1
300
%<\AcVar ViewType \f "%tc1">% %<\AcVar ViewDetailId>%\PSCALA %<\AcVar ViewScale \f "%sn">%
 71
     4
340
16
 90
       25
 62
   256
340
16
 90
       25
 62
   256
280
     0
  0
ACDBDETAILVIEWSTYLE
  5
21C
102
{ACAD_XDICTIONARY
360
9F1
102
}
102
{ACAD_REACTORS
330
21B
102
}
330
21B
100
AcDbModelDocViewStyle
 70
     0
  3
Metric50
290
     0
100
AcDbDetailViewStyle
 70
     0
 71
     0
 90
        3
 71
     1
340
11
 62
   256
 40
5.0
340
0
 62
   256
 40
5.0
300

 40
0.0
280
     1
 71
     2
340
16
 90
       25
 62
   256
 71
     3
340
11
 62
   256
 40
5.0
 90
        0
 40
15.0
 90
        1
300
%<\AcVar ViewDetailId>% (%<\AcVar ViewScale \f "%sn">%)
 71
     4
340
16
 90
       25
 62
   256
340
16
 90
       25
 62
   256
280
     0
  0
LAYOUT
  5
D3
102
{ACAD_REACTORS
330
1A
102
}
330
1A
100
AcDbPlotSettings
  1

  2
C:\Documents and Settings\basas\Application Data\Autodesk\AutoCAD 2005\R16.1\enu\plotters\Default Windows System Printer.pc3
  4

  6

 40
0.0
 41
0.0
 42
0.0
 43
0.0
 44
0.0
 45
0.0
 46
0.0
 47
0.0
 48
0.0
 49
0.0
140
0.0
141
0.0
142
1.0
143
1.0
 70
   688
 72
     0
 73
     0
 74
     5
  7

 75
    16
147
1.0
 76
     0
 77
     2
 78
   300
148
0.0
149
0.0
100
AcDbLayout
  1
Layout1
 70
     1
 71
     1
 10
0.0
 20
0.0
 11
12.0
 21
9.0
 12
0.0
 22
0.0
 32
0.0
 14
0.0
 24
0.0
 34
0.0
 15
0.0
 25
0.0
 35
0.0
146
0.0
 13
0.0
 23
0.0
 33
0.0
 16
1.0
 26
0.0
 36
0.0
 17
0.0
 27
1.0
 37
0.0
 76
     0
330
D2
  0
LAYOUT
  5
D7
102
{ACAD_REACTORS
330
1A
102
}
330
1A
100
AcDbPlotSettings
  1

  2
C:\Documents and Settings\basas\Application Data\Autodesk\AutoCAD 2005\R16.1\enu\plotters\Default Windows System Printer.pc3
  4

  6

 40
0.0
 41
0.0
 42
0.0
 43
0.0
 44
0.0
 45
0.0
 46
0.0
 47
0.0
 48
0.0
 49
0.0
140
0.0
141
0.0
142
1.0
143
1.0
 70
   688
 72
     0
 73
     0
 74
     5
  7

 75
    16
147
1.0
 76
     0
 77
     2
 78
   300
148
0.0
149
0.0
100
AcDbLayout
  1
Layout2
 70
     1
 71
     2
 10
0.0
 20
0.0
 11
12.0
 21
9.0
 12
0.0
 22
0.0
 32
0.0
 14
0.0
 24
0.0
 34
0.0
 15
0.0
 25
0.0
 35
0.0
146
0.0
 13
0.0
 23
0.0
 33
0.0
 16
1.0
 26
0.0
 36
0.0
 17
0.0
 27
1.0
 37
0.0
 76
     0
330
D6
  0
LAYOUT
  5
22
102
{ACAD_XDICTIONARY
360
205
102
}
102
{ACAD_REACTORS
330
1A
102
}
330
1A
100
AcDbPlotSettings
  1

  2
none_device
  4
ISO_A4_(210.00_x_297.00_MM)
  6

 40
7.5
 41
20.0
 42
7.5
 43
20.0
 44
210.0
 45
297.0
 46
11.54999923706054
 47
-13.65000009536743
 48
0.0
 49
0.0
140
0.0
141
0.0
142
1.0
143
8.704084754739808
 70
 11952
 72
     1
 73
     0
 74
     0
  7

 75
     0
147
0.1148885871608098
 76
     0
 77
     2
 78
   300
148
0.0
149
0.0
100
AcDbLayout
  1
Model
 70
     1
 71
     0
 10
0.0
 20
0.0
 11
12.0
 21
9.0
 12
0.0
 22
0.0
 32
0.0
 14
0.0
 24
0.0
 34
0.0
 15
0.0
 25
0.0
 35
0.0
146
0.0
 13
0.0
 23
0.0
 33
0.0
 16
1.0
 26
0.0
 36
0.0
 17
0.0
 27
1.0
 37
0.0
 76
     0
330
1F
331
EA
1001
ACAD_PSEXT
1000
None
1000
None
1000
Not applicable
1000
The layout will not be plotted unless a new plotter configuration name is selected.
1070
     0
  0
MATERIAL
  5
ED
102
{ACAD_XDICTIONARY
360
1F9
102
}
102
{ACAD_REACTORS
330
6A
102
}
330
6A
100
AcDbMaterial
  1
ByBlock
 94
       63
  0
MATERIAL
  5
EC
102
{ACAD_XDICTIONARY
360
1F7
102
}
102
{ACAD_REACTORS
330
6A
102
}
330
6A
100
AcDbMaterial
  1
ByLayer
 94
       63
  0
MATERIAL
  5
EE
102
{ACAD_XDICTIONARY
360
173
102
}
102
{ACAD_REACTORS
330
6A
102
}
330
6A
100
AcDbMaterial
  1
Global
 43
0.0007999999797903
 43
0.0
 43
0.0
 43
0.0
 43
0.0
 43
0.0007999999797903
 43
0.0
 43
0.0
 43
0.0
 43
0.0
 43
1.0
 43
0.0
 43
0.0
 43
0.0
 43
0.0
 43
1.0
 49
0.0007999999797903
 49
0.0
 49
0.0
 49
0.0
 49
0.0
 49
0.0007999999797903
 49
0.0
 49
0.0
 49
0.0
 49
0.0
 49
1.0
 49
0.0
 49
0.0
 49
0.0
 49
0.0
 49
1.0
142
0.0007999999797903
142
0.0
142
0.0
142
0.0
142
0.0
142
0.0007999999797903
142
0.0
142
0.0
142
0.0
142
0.0
142
1.0
142
0.0
142
0.0
142
0.0
142
0.0
142
1.0
144
0.0007999999797903
144
0.0
144
0.0
144
0.0
144
0.0
144
0.0007999999797903
144
0.0
144
0.0
144
0.0
144
0.0
144
1.0
144
0.0
144
0.0
144
0.0
144
0.0
144
1.0
 94
       63
1001
ACAD
1070
    -1
1070
     3
1070
     0
1000

1071
        0
1070
     0
  0
MLEADERSTYLE
  5
13B
102
{ACAD_REACTORS
330
12D
102
}
330
12D
100
AcDbMLeaderStyle
179
     2
170
     2
171
     1
172
     0
 90
        2
 40
0.0
 41
0.0
173
     1
 91
-1056964608
340
14
 92
       -2
290
     1
 42
2.0
291
     1
 43
8.0
  3
Standard
 44
4.0
300

342
11
174
     1
178
     1
175
     1
176
     0
 93
-1056964608
 45
4.0
292
     0
297
     0
 46
4.0
 94
-1056964608
 47
1.0
 49
1.0
140
1.0
293
     1
141
0.0
294
     1
177
     0
142
1.0
295
     0
296
     1
143
3.75
271
     0
272
     9
273
     9
298
     0
  0
MLEADERSTYLE
  5
12E
102
{ACAD_REACTORS
330
12D
102
}
330
12D
100
AcDbMLeaderStyle
179
     2
170
     2
171
     1
172
     0
 90
        2
 40
0.0
 41
0.0
173
     1
 91
-1056964608
340
14
 92
       -2
290
     1
 42
2.0
291
     1
 43
8.0
  3
Standard
 44
4.0
300

342
11
174
     1
178
     1
175
     1
176
     0
 93
-1056964608
 45
4.0
292
     0
297
     0
 46
4.0
 94
-1056964608
 47
1.0
 49
1.0
140
1.0
293
     1
141
0.0
294
     1
177
     0
142
1.0
295
     0
296
     0
143
3.75
271
     0
272
     9
273
     9
298
     0
  0
MLINESTYLE
  5
18
102
{ACAD_REACTORS
330
17
102
}
330
17
100
AcDbMlineStyle
  2
STANDARD
 70
     0
  3

 62
   256
 51
90.0
 52
90.0
 71
     2
 49
0.5
 62
   256
  6
BYLAYER
 49
-0.5
 62
   256
  6
BYLAYER
  0
ACDBPLACEHOLDER
  5
F
102
{ACAD_REACTORS
330
E
102
}
330
E
  0
SCALE
  5
10D
102
{ACAD_REACTORS
330
10C
102
}
330
10C
100
AcDbScale
 70
     0
300
1:1
140
1.0
141
1.0
290
     1
  0
SCALE
  5
1BE
102
{ACAD_REACTORS
330
10C
102
}
330
10C
100
AcDbScale
 70
     0
300
1:2
140
1.0
141
2.0
290
     0
  0
SCALE
  5
1BF
102
{ACAD_REACTORS
330
10C
102
}
330
10C
100
AcDbScale
 70
     0
300
1:4
140
1.0
141
4.0
290
     0
  0
SCALE
  5
1C0
102
{ACAD_REACTORS
330
10C
102
}
330
10C
100
AcDbScale
 70
     0
300
1:5
140
1.0
141
5.0
290
     0
  0
SCALE
  5
1C1
102
{ACAD_REACTORS
330
10C
102
}
330
10C
100
AcDbScale
 70
     0
300
1:8
140
1.0
141
8.0
290
     0
  0
SCALE
  5
1C2
102
{ACAD_REACTORS
330
10C
102
}
330
10C
100
AcDbScale
 70
     0
300
1:10
140
1.0
141
10.0
290
     0
  0
SCALE
  5
1C3
102
{ACAD_REACTORS
330
10C
102
}
330
10C
100
AcDbScale
 70
     0
300
1:16
140
1.0
141
16.0
290
     0
  0
SCALE
  5
1C4
102
{ACAD_REACTORS
330
10C
102
}
330
10C
100
AcDbScale
 70
     0
300
1:20
140
1.0
141
20.0
290
     0
  0
SCALE
  5
1C5
102
{ACAD_REACTORS
330
10C
102
}
330
10C
100
AcDbScale
 70
     0
300
1:30
140
1.0
141
30.0
290
     0
  0
SCALE
  5
1C6
102
{ACAD_REACTORS
330
10C
102
}
330
10C
100
AcDbScale
 70
     0
300
1:40
140
1.0
141
40.0
290
     0
  0
SCALE
  5
1C7
102
{ACAD_REACTORS
330
10C
102
}
330
10C
100
AcDbScale
 70
     0
300
1:50
140
1.0
141
50.0
290
     0
  0
SCALE
  5
1C8
102
{ACAD_REACTORS
330
10C
102
}
330
10C
100
AcDbScale
 70
     0
300
1:100
140
1.0
141
100.0
290
     0
  0
SCALE
  5
1C9
102
{ACAD_REACTORS
330
10C
102
}
330
10C
100
AcDbScale
 70
     0
300
2:1
140
2.0
141
1.0
290
     0
  0
SCALE
  5
1CA
102
{ACAD_REACTORS
330
10C
102
}
330
10C
100
AcDbScale
 70
     0
300
4:1
140
4.0
141
1.0
290
     0
  0
SCALE
  5
1CB
102
{ACAD_REACTORS
330
10C
102
}
330
10C
100
AcDbScale
 70
     0
300
8:1
140
8.0
141
1.0
290
     0
  0
SCALE
  5
1CC
102
{ACAD_REACTORS
330
10C
102
}
330
10C
100
AcDbScale
 70
     0
300
10:1
140
10.0
141
1.0
290
     0
  0
SCALE
  5
1CD
102
{ACAD_REACTORS
330
10C
102
}
330
10C
100
AcDbScale
 70
     0
300
100:1
140
100.0
141
1.0
290
     0
  0
ACDBSECTIONVIEWSTYLE
  5
28E
102
{ACAD_XDICTIONARY
360
9F3
102
}
102
{ACAD_REACTORS
330
219
102
}
330
219
100
AcDbModelDocViewStyle
 70
     0
  3
Imperial24
290
     0
100
AcDbSectionViewStyle
 70
     0
 71
     0
 90
       78
 71
     1
340
11
 62
   256
 40
0.24
340
0
340
0
 62
   256
 40
0.24
300
I, O, Q, S, X, Z
 40
0.48
 90
        3
 40
0.18
 90
        1
 71
     2
340
16
 90
       25
 62
   256
340
16
 90
       50
 62
   256
 40
0.24
 40
0.0
 40
0.24
 71
     3
340
11
 62
   256
 40
0.24
 90
        1
 40
0.75
 90
        1
300
%<\AcVar ViewType \f "%tc1">% %<\AcVar ViewSectionStartId>%-%<\AcVar ViewSectionEndId>%\PSCALA %<\AcVar ViewScale \f "%sn">%
 71
     4
 62
   256
 62
   257
300
ANSI31
 40
1.0
 90
        0
290
     0
290
     0
 90
        6
 40
0.0
 40
1.570796326794896
 40
0.2617993877991494
 40
1.308996938995747
 40
-0.2617993877991494
 40
1.832595714594045
  0
ACDBSECTIONVIEWSTYLE
  5
21A
102
{ACAD_XDICTIONARY
360
9EF
102
}
102
{ACAD_REACTORS
330
219
102
}
330
219
100
AcDbModelDocViewStyle
 70
     0
  3
Metric50
290
     0
100
AcDbSectionViewStyle
 70
     0
 71
     0
 90
      102
 71
     1
340
11
 62
   256
 40
5.0
340
0
340
0
 62
   256
 40
5.0
300
I, O, Q, S, X, Z
 40
10.0
 90
        0
 40
2.5
 90
        0
 71
     2
340
16
 90
       25
 62
   256
340
16
 90
       50
 62
   256
 40
5.0
 40
2.5
 40
5.0
 71
     3
340
11
 62
   256
 40
5.0
 90
        0
 40
15.0
 90
        1
300
%<\AcVar ViewSectionStartId>%-%<\AcVar ViewSectionEndId>% (%<\AcVar ViewScale \f "%sn">%)
 71
     4
 62
   256
 62
   257
300
ANSI31
 40
1.0
 90
        0
290
     0
290
     0
 90
        6
 40
0.0
 40
1.570796326794896
 40
0.2617993877991494
 40
1.308996938995747
 40
-0.2617993877991494
 40
1.832595714594045
  0
TABLESTYLE
  5
7F
102
{ACAD_XDICTIONARY
360
162
102
}
102
{ACAD_REACTORS
330
7E
102
}
330
7E
100
AcDbTableStyle
280
     0
  3
Standard
 70
     0
 71
     0
 40
1.5
 41
1.5
280
     0
281
     0
  7
Standard
140
4.5
170
     2
 62
     0
 63
     7
283
     0
 90
      512
 91
        0
  1

274
    -2
284
     1
 64
     0
275
    -2
285
     1
 65
     0
276
    -2
286
     1
 66
     0
277
    -2
287
     1
 67
     0
278
    -2
288
     1
 68
     0
279
    -2
289
     1
 69
     0
  7
Standard
140
6.0
170
     5
 62
     0
 63
     7
283
     0
 90
      512
 91
        0
  1

274
    -2
284
     1
 64
     0
275
    -2
285
     1
 65
     0
276
    -2
286
     1
 66
     0
277
    -2
287
     1
 67
     0
278
    -2
288
     1
 68
     0
279
    -2
289
     1
 69
     0
  7
Standard
140
4.5
170
     5
 62
     0
 63
     7
283
     0
 90
      512
 91
        0
  1

274
    -2
284
     1
 64
     0
275
    -2
285
     1
 65
     0
276
    -2
286
     1
 66
     0
277
    -2
287
     1
 67
     0
278
    -2
288
     1
 68
     0
279
    -2
289
     1
 69
     0
  0
VISUALSTYLE
  5
F5
102
{ACAD_REACTORS
330
EF
102
}
330
EF
100
AcDbVisualStyle
  2
2dWireframe
 70
     4
177
     3
291
     0
 70
    58
 90
        0
176
     1
 90
        2
176
     1
 90
        1
176
     1
 90
        0
176
     1
 40
0.6
176
     1
 40
30.0
176
     1
 62
     7
420
 16777215
176
     1
 90
        1
176
     1
 90
        4
176
     1
 62
     7
176
     1
 62
   257
176
     1
 90
        1
176
     1
 90
        1
176
     1
 40
1.0
176
     1
 90
        0
176
     1
 62
   257
176
     1
 40
1.0
176
     1
 90
        1
176
     1
 90
        6
176
     1
 90
        2
176
     1
 62
     7
176
     1
 90
        5
176
     1
 90
        0
176
     1
 90
        0
176
     1
290
     0
176
     1
 90
        1
176
     1
 40
0.0
176
     1
 90
        0
176
     1
290
     1
176
     1
290
     1
176
     1
290
     0
176
     1
290
     0
176
     1
290
     0
176
     1
290
     0
176
     1
290
     0
176
     1
290
     0
176
     1
290
     0
176
     1
 90
       50
176
     1
 40
0.0
176
     1
 40
1.0
176
     1
 90
        0
176
     1
 62
    18
176
     1
 90
       50
176
     1
 90
        3
176
     1
 62
     5
420
      255
176
     1
290
     0
176
     1
 90
       50
176
     1
 90
       50
176
     1
 90
       50
176
     1
290
     0
176
     1
 90
       50
176
     1
 62
   256
176
     0
 40
1.0
176
     0
 90
        2
176
     1
  1
strokes_ogs.tif
176
     1
290
     0
176
     1
 40
1.0
176
     1
 40
1.0
176
     1
1001
ACAD
1000
AcDbSavedByObjectVersion
1070
     0
  0
VISUALSTYLE
  5
F4
102
{ACAD_REACTORS
330
EF
102
}
330
EF
100
AcDbVisualStyle
  2
Basic
 70
     7
177
     3
291
     1
 70
    58
 90
        1
176
     1
 90
        0
176
     1
 90
        1
176
     1
 90
        0
176
     1
 40
0.6
176
     1
 40
30.0
176
     1
 62
     7
420
 16777215
176
     1
 90
        0
176
     1
 90
        4
176
     1
 62
     7
176
     1
 62
   257
176
     1
 90
        1
176
     1
 90
        1
176
     1
 40
1.0
176
     1
 90
        8
176
     1
 62
     7
176
     1
 40
1.0
176
     1
 90
        1
176
     1
 90
        6
176
     1
 90
        2
176
     1
 62
     7
176
     1
 90
        5
176
     1
 90
        0
176
     1
 90
        0
176
     1
290
     0
176
     1
 90
        1
176
     1
 40
0.0
176
     1
 90
        0
176
     1
290
     0
176
     1
290
     1
176
     1
290
     1
176
     1
290
     0
176
     1
290
     0
176
     1
290
     0
176
     1
290
     0
176
     1
290
     0
176
     1
290
     0
176
     1
 90
       50
176
     1
 40
0.0
176
     1
 40
1.0
176
     1
 90
        0
176
     1
 62
    18
176
     1
 90
       50
176
     1
 90
        3
176
     1
 62
     5
420
      255
176
     1
290
     0
176
     1
 90
       50
176
     1
 90
       50
176
     1
 90
       50
176
     1
290
     0
176
     1
 90
       50
176
     1
 62
   256
176
     0
 40
1.0
176
     0
 90
        2
176
     1
  1
strokes_ogs.tif
176
     1
290
     0
176
     1
 40
1.0
176
     1
 40
1.0
176
     1
1001
ACAD
1000
AcDbSavedByObjectVersion
1070
     0
  0
VISUALSTYLE
  5
FB
102
{ACAD_REACTORS
330
EF
102
}
330
EF
100
AcDbVisualStyle
  2
Brighten
 70
    12
177
     3
291
     1
 70
    58
 90
        2
176
     1
 90
        2
176
     1
 90
        1
176
     1
 90
        0
176
     1
 40
0.6
176
     1
 40
30.0
176
     1
 62
     7
420
 16777215
176
     1
 90
        1
176
     1
 90
        4
176
     1
 62
     7
176
     1
 62
   257
176
     1
 90
        1
176
     1
 90
        1
176
     1
 40
1.0
176
     1
 90
        8
176
     1
 62
     7
176
     1
 40
1.0
176
     1
 90
        1
176
     1
 90
        6
176
     1
 90
        2
176
     1
 62
     7
176
     1
 90
        5
176
     1
 90
        0
176
     1
 90
        0
176
     1
290
     0
176
     1
 90
        1
176
     1
 40
50.0
176
     1
 90
        0
176
     1
290
     0
176
     1
290
     1
176
     1
290
     1
176
     1
290
     0
176
     1
290
     0
176
     1
290
     0
176
     1
290
     0
176
     1
290
     0
176
     1
290
     0
176
     1
 90
       50
176
     1
 40
0.0
176
     1
 40
1.0
176
     1
 90
        0
176
     1
 62
    18
176
     1
 90
       50
176
     1
 90
        3
176
     1
 62
     5
420
      255
176
     1
290
     0
176
     1
 90
       50
176
     1
 90
       50
176
     1
 90
       50
176
     1
290
     0
176
     1
 90
       50
176
     1
 62
   256
176
     0
 40
1.0
176
     0
 90
        2
176
     1
  1
strokes_ogs.tif
176
     1
290
     0
176
     1
 40
1.0
176
     1
 40
1.0
176
     1
1001
ACAD
1000
AcDbSavedByObjectVersion
1070
     0
  0
VISUALSTYLE
  5
FF
102
{ACAD_REACTORS
330
EF
102
}
330
EF
100
AcDbVisualStyle
  2
ColorChange
 70
    16
177
     3
291
     1
 70
    58
 90
        2
176
     1
 90
        2
176
     1
 90
        3
176
     1
 90
        0
176
     1
 40
0.6
176
     1
 40
30.0
176
     1
 62
     8
420
  8421504
176
     1
 90
        1
176
     1
 90
        4
176
     1
 62
     7
176
     1
 62
   257
176
     1
 90
        1
176
     1
 90
        1
176
     1
 40
1.0
176
     1
 90
        8
176
     1
 62
     8
420
  8421504
176
     1
 40
1.0
176
     1
 90
        1
176
     1
 90
        6
176
     1
 90
        2
176
     1
 62
     7
176
     1
 90
        5
176
     1
 90
        0
176
     1
 90
        0
176
     1
290
     0
176
     1
 90
        1
176
     1
 40
0.0
176
     1
 90
        0
176
     1
290
     0
176
     1
290
     1
176
     1
290
     1
176
     1
290
     0
176
     1
290
     0
176
     1
290
     0
176
     1
290
     0
176
     1
290
     0
176
     1
290
     0
176
     1
 90
       50
176
     1
 40
0.0
176
     1
 40
1.0
176
     1
 90
        0
176
     1
 62
    18
176
     1
 90
       50
176
     1
 90
        3
176
     1
 62
     5
420
      255
176
     1
290
     0
176
     1
 90
       50
176
     1
 90
       50
176
     1
 90
       50
176
     1
290
     0
176
     1
 90
       50
176
     1
 62
   256
176
     0
 40
1.0
176
     0
 90
        2
176
     1
  1
strokes_ogs.tif
176
     1
290
     0
176
     1
 40
1.0
176
     1
 40
1.0
176
     1
1001
ACAD
1000
AcDbSavedByObjectVersion
1070
     0
  0
VISUALSTYLE
  5
F8
102
{ACAD_REACTORS
330
EF
102
}
330
EF
100
AcDbVisualStyle
  2
Conceptual
 70
     9
177
     3
291
     0
 70
    58
 90
        3
176
     1
 90
        2
176
     1
 90
        1
176
     1
 90
        0
176
     1
 40
0.6
176
     1
 40
30.0
176
     1
 62
     7
420
 16777215
176
     1
 90
        2
176
     1
 90
        2
176
     1
 62
     7
176
     1
 62
   257
176
     1
 90
        1
176
     1
 90
        1
176
     1
 40
40.0
176
     1
 90
        8
176
     1
 62
     7
176
     1
 40
1.0
176
     1
 90
        1
176
     1
 90
        6
176
     1
 90
        2
176
     1
 62
     7
176
     1
 90
        3
176
     1
 90
        0
176
     1
 90
        0
176
     1
290
     0
176
     1
 90
        1
176
     1
 40
0.0
176
     1
 90
        0
176
     1
290
     0
176
     1
290
     1
176
     1
290
     1
176
     1
290
     0
176
     1
290
     0
176
     1
290
     0
176
     1
290
     0
176
     1
290
     0
176
     1
290
     0
176
     1
 90
       50
176
     1
 40
0.0
176
     1
 40
1.0
176
     1
 90
        0
176
     1
 62
    18
176
     1
 90
       50
176
     1
 90
        3
176
     1
 62
     5
420
      255
176
     1
290
     0
176
     1
 90
       50
176
     1
 90
       50
176
     1
 90
       50
176
     1
290
     0
176
     1
 90
       50
176
     1
 62
   256
176
     0
 40
1.0
176
     0
 90
        2
176
     1
  1
strokes_ogs.tif
176
     1
290
     0
176
     1
 40
1.0
176
     1
 40
1.0
176
     1
1001
ACAD
1000
AcDbSavedByObjectVersion
1070
     0
  0
VISUALSTYLE
  5
FA
102
{ACAD_REACTORS
330
EF
102
}
330
EF
100
AcDbVisualStyle
  2
Dim
 70
    11
177
     3
291
     1
 70
    58
 90
        2
176
     1
 90
        2
176
     1
 90
        1
176
     1
 90
        0
176
     1
 40
0.6
176
     1
 40
30.0
176
     1
 62
     7
420
 16777215
176
     1
 90
        1
176
     1
 90
        4
176
     1
 62
     7
176
     1
 62
   257
176
     1
 90
        1
176
     1
 90
        1
176
     1
 40
1.0
176
     1
 90
        8
176
     1
 62
     7
176
     1
 40
1.0
176
     1
 90
        1
176
     1
 90
        6
176
     1
 90
        2
176
     1
 62
     7
176
     1
 90
        5
176
     1
 90
        0
176
     1
 90
        0
176
     1
290
     0
176
     1
 90
        1
176
     1
 40
-50.0
176
     1
 90
        0
176
     1
290
     0
176
     1
290
     1
176
     1
290
     1
176
     1
290
     0
176
     1
290
     0
176
     1
290
     0
176
     1
290
     0
176
     1
290
     0
176
     1
290
     0
176
     1
 90
       50
176
     1
 40
0.0
176
     1
 40
1.0
176
     1
 90
        0
176
     1
 62
    18
176
     1
 90
       50
176
     1
 90
        3
176
     1
 62
     5
420
      255
176
     1
290
     0
176
     1
 90
       50
176
     1
 90
       50
176
     1
 90
       50
176
     1
290
     0
176
     1
 90
       50
176
     1
 62
   256
176
     0
 40
1.0
176
     0
 90
        2
176
     1
  1
strokes_ogs.tif
176
     1
290
     0
176
     1
 40
1.0
176
     1
 40
1.0
176
     1
1001
ACAD
1000
AcDbSavedByObjectVersion
1070
     0
  0
VISUALSTYLE
  5
1E6
102
{ACAD_REACTORS
330
EF
102
}
330
EF
100
AcDbVisualStyle
  2
EdgeColorOff
 70
    22
177
     3
291
     1
 70
    58
 90
        2
176
     0
 90
        2
176
     0
 90
        0
176
     0
 90
        0
176
     0
 40
0.6
176
     0
 40
30.0
176
     0
 62
     7
420
 16777215
176
     0
 90
        1
176
     0
 90
        4
176
     0
 62
     7
176
     0
 62
   257
176
     0
 90
        1
176
     0
 90
        1
176
     0
 40
1.0
176
     0
 90
        8
176
     2
 62
     7
176
     0
 40
1.0
176
     0
 90
        1
176
     0
 90
        6
176
     0
 90
        2
176
     0
 62
     7
176
     0
 90
        5
176
     0
 90
        0
176
     0
 90
        0
176
     0
290
     0
176
     0
 90
        1
176
     0
 40
0.0
176
     0
 90
        0
176
     0
290
     0
176
     1
290
     1
176
     1
290
     1
176
     1
290
     0
176
     1
290
     0
176
     1
290
     0
176
     1
290
     0
176
     1
290
     0
176
     1
290
     0
176
     1
 90
       50
176
     1
 40
0.0
176
     1
 40
1.0
176
     1
 90
        0
176
     1
 62
    18
176
     1
 90
       50
176
     1
 90
        3
176
     1
 62
     5
420
      255
176
     1
290
     0
176
     1
 90
       50
176
     1
 90
       50
176
     1
 90
       50
176
     1
290
     0
176
     1
 90
       50
176
     1
 62
   256
176
     0
 40
1.0
176
     0
 90
        2
176
     1
  1
strokes_ogs.tif
176
     1
290
     0
176
     1
 40
1.0
176
     1
 40
1.0
176
     1
1001
ACAD
1000
AcDbSavedByObjectVersion
1070
     0
  0
VISUALSTYLE
  5
FE
102
{ACAD_REACTORS
330
EF
102
}
330
EF
100
AcDbVisualStyle
  2
Facepattern
 70
    15
177
     3
291
     1
 70
    58
 90
        2
176
     1
 90
        2
176
     1
 90
        1
176
     1
 90
        0
176
     1
 40
0.6
176
     1
 40
30.0
176
     1
 62
     7
420
 16777215
176
     1
 90
        1
176
     1
 90
        4
176
     1
 62
     7
176
     1
 62
   257
176
     1
 90
        1
176
     1
 90
        1
176
     1
 40
1.0
176
     1
 90
        8
176
     1
 62
     7
176
     1
 40
1.0
176
     1
 90
        1
176
     1
 90
        6
176
     1
 90
        2
176
     1
 62
     7
176
     1
 90
        5
176
     1
 90
        0
176
     1
 90
        0
176
     1
290
     0
176
     1
 90
        1
176
     1
 40
0.0
176
     1
 90
        0
176
     1
290
     0
176
     1
290
     1
176
     1
290
     1
176
     1
290
     0
176
     1
290
     0
176
     1
290
     0
176
     1
290
     0
176
     1
290
     0
176
     1
290
     0
176
     1
 90
       50
176
     1
 40
0.0
176
     1
 40
1.0
176
     1
 90
        0
176
     1
 62
    18
176
     1
 90
       50
176
     1
 90
        3
176
     1
 62
     5
420
      255
176
     1
290
     0
176
     1
 90
       50
176
     1
 90
       50
176
     1
 90
       50
176
     1
290
     0
176
     1
 90
       50
176
     1
 62
   256
176
     0
 40
1.0
176
     0
 90
        2
176
     1
  1
strokes_ogs.tif
176
     1
290
     0
176
     1
 40
1.0
176
     1
 40
1.0
176
     1
1001
ACAD
1000
AcDbSavedByObjectVersion
1070
     0
  0
VISUALSTYLE
  5
F0
102
{ACAD_REACTORS
330
EF
102
}
330
EF
100
AcDbVisualStyle
  2
Flat
 70
     0
177
     3
291
     1
 70
    58
 90
        2
176
     1
 90
        1
176
     1
 90
        1
176
     1
 90
        2
176
     1
 40
0.6
176
     1
 40
30.0
176
     1
 62
     7
420
 16777215
176
     1
 90
        0
176
     1
 90
        0
176
     1
 62
     7
176
     1
 62
   257
176
     1
 90
        1
176
     1
 90
        1
176
     1
 40
1.0
176
     1
 90
        8
176
     1
 62
     7
176
     1
 40
1.0
176
     1
 90
        1
176
     1
 90
        6
176
     1
 90
        2
176
     1
 62
     7
176
     1
 90
        5
176
     1
 90
        0
176
     1
 90
        0
176
     1
290
     0
176
     1
 90
       13
176
     1
 40
0.0
176
     1
 90
        0
176
     1
290
     0
176
     1
290
     1
176
     1
290
     1
176
     1
290
     0
176
     1
290
     0
176
     1
290
     0
176
     1
290
     0
176
     1
290
     0
176
     1
290
     0
176
     1
 90
       50
176
     1
 40
0.0
176
     1
 40
1.0
176
     1
 90
        0
176
     1
 62
    18
176
     1
 90
       50
176
     1
 90
        3
176
     1
 62
     5
420
      255
176
     1
290
     0
176
     1
 90
       50
176
     1
 90
       50
176
     1
 90
       50
176
     1
290
     0
176
     1
 90
       50
176
     1
 62
   256
176
     0
 40
1.0
176
     0
 90
        2
176
     1
  1
strokes_ogs.tif
176
     1
290
     0
176
     1
 40
1.0
176
     1
 40
1.0
176
     1
1001
ACAD
1000
AcDbSavedByObjectVersion
1070
     0
  0
VISUALSTYLE
  5
F1
102
{ACAD_REACTORS
330
EF
102
}
330
EF
100
AcDbVisualStyle
  2
FlatWithEdges
 70
     1
177
     3
291
     1
 70
    58
 90
        2
176
     1
 90
        1
176
     1
 90
        1
176
     1
 90
        2
176
     1
 40
0.6
176
     1
 40
30.0
176
     1
 62
     7
420
 16777215
176
     1
 90
        1
176
     1
 90
        0
176
     1
 62
     7
176
     1
 62
   257
176
     1
 90
        1
176
     1
 90
        1
176
     1
 40
1.0
176
     1
 90
        0
176
     1
 62
   257
176
     1
 40
1.0
176
     1
 90
        1
176
     1
 90
        6
176
     1
 90
        2
176
     1
 62
     7
176
     1
 90
        5
176
     1
 90
        0
176
     1
 90
        0
176
     1
290
     0
176
     1
 90
       13
176
     1
 40
0.0
176
     1
 90
        0
176
     1
290
     0
176
     1
290
     1
176
     1
290
     1
176
     1
290
     0
176
     1
290
     0
176
     1
290
     0
176
     1
290
     0
176
     1
290
     0
176
     1
290
     0
176
     1
 90
       50
176
     1
 40
0.0
176
     1
 40
1.0
176
     1
 90
        0
176
     1
 62
    18
176
     1
 90
       50
176
     1
 90
        3
176
     1
 62
     5
420
      255
176
     1
290
     0
176
     1
 90
       50
176
     1
 90
       50
176
     1
 90
       50
176
     1
290
     0
176
     1
 90
       50
176
     1
 62
   256
176
     0
 40
1.0
176
     0
 90
        2
176
     1
  1
strokes_ogs.tif
176
     1
290
     0
176
     1
 40
1.0
176
     1
 40
1.0
176
     1
1001
ACAD
1000
AcDbSavedByObjectVersion
1070
     0
  0
VISUALSTYLE
  5
F2
102
{ACAD_REACTORS
330
EF
102
}
330
EF
100
AcDbVisualStyle
  2
Gouraud
 70
     2
177
     3
291
     1
 70
    58
 90
        2
176
     1
 90
        2
176
     1
 90
        1
176
     1
 90
        2
176
     1
 40
0.6
176
     1
 40
30.0
176
     1
 62
     7
420
 16777215
176
     1
 90
        0
176
     1
 90
        0
176
     1
 62
     7
176
     1
 62
   257
176
     1
 90
        1
176
     1
 90
        1
176
     1
 40
1.0
176
     1
 90
        0
176
     1
 62
     7
176
     1
 40
1.0
176
     1
 90
        1
176
     1
 90
        6
176
     1
 90
        2
176
     1
 62
     7
176
     1
 90
        5
176
     1
 90
        0
176
     1
 90
        0
176
     1
290
     0
176
     1
 90
       13
176
     1
 40
0.0
176
     1
 90
        0
176
     1
290
     0
176
     1
290
     1
176
     1
290
     1
176
     1
290
     0
176
     1
290
     0
176
     1
290
     0
176
     1
290
     0
176
     1
290
     0
176
     1
290
     0
176
     1
 90
       50
176
     1
 40
0.0
176
     1
 40
1.0
176
     1
 90
        0
176
     1
 62
    18
176
     1
 90
       50
176
     1
 90
        3
176
     1
 62
     5
420
      255
176
     1
290
     0
176
     1
 90
       50
176
     1
 90
       50
176
     1
 90
       50
176
     1
290
     0
176
     1
 90
       50
176
     1
 62
   256
176
     0
 40
1.0
176
     0
 90
        2
176
     1
  1
strokes_ogs.tif
176
     1
290
     0
176
     1
 40
1.0
176
     1
 40
1.0
176
     1
1001
ACAD
1000
AcDbSavedByObjectVersion
1070
     0
  0
VISUALSTYLE
  5
F3
102
{ACAD_REACTORS
330
EF
102
}
330
EF
100
AcDbVisualStyle
  2
GouraudWithEdges
 70
     3
177
     3
291
     1
 70
    58
 90
        2
176
     1
 90
        2
176
     1
 90
        1
176
     1
 90
        2
176
     1
 40
0.6
176
     1
 40
30.0
176
     1
 62
     7
420
 16777215
176
     1
 90
        1
176
     1
 90
        0
176
     1
 62
     7
176
     1
 62
   257
176
     1
 90
        1
176
     1
 90
        1
176
     1
 40
1.0
176
     1
 90
        0
176
     1
 62
   257
176
     1
 40
1.0
176
     1
 90
        1
176
     1
 90
        6
176
     1
 90
        2
176
     1
 62
     7
176
     1
 90
        5
176
     1
 90
        0
176
     1
 90
        0
176
     1
290
     0
176
     1
 90
       13
176
     1
 40
0.0
176
     1
 90
        0
176
     1
290
     0
176
     1
290
     1
176
     1
290
     1
176
     1
290
     0
176
     1
290
     0
176
     1
290
     0
176
     1
290
     0
176
     1
290
     0
176
     1
290
     0
176
     1
 90
       50
176
     1
 40
0.0
176
     1
 40
1.0
176
     1
 90
        0
176
     1
 62
    18
176
     1
 90
       50
176
     1
 90
        3
176
     1
 62
     5
420
      255
176
     1
290
     0
176
     1
 90
       50
176
     1
 90
       50
176
     1
 90
       50
176
     1
290
     0
176
     1
 90
       50
176
     1
 62
   256
176
     0
 40
1.0
176
     0
 90
        2
176
     1
  1
strokes_ogs.tif
176
     1
290
     0
176
     1
 40
1.0
176
     1
 40
1.0
176
     1
1001
ACAD
1000
AcDbSavedByObjectVersion
1070
     0
  0
VISUALSTYLE
  5
F7
102
{ACAD_REACTORS
330
EF
102
}
330
EF
100
AcDbVisualStyle
  2
Hidden
 70
     6
177
     3
291
     0
 70
    58
 90
        1
176
     1
 90
        2
176
     1
 90
        2
176
     1
 90
        0
176
     1
 40
0.6
176
     1
 40
30.0
176
     1
 62
     7
420
 16777215
176
     1
 90
        2
176
     1
 90
        2
176
     1
 62
     7
176
     1
 62
   257
176
     1
 90
        2
176
     1
 90
        1
176
     1
 40
40.0
176
     1
 90
        0
176
     1
 62
   257
176
     1
 40
1.0
176
     1
 90
        1
176
     1
 90
        6
176
     1
 90
        2
176
     1
 62
     7
176
     1
 90
        3
176
     1
 90
        0
176
     1
 90
        0
176
     1
290
     0
176
     1
 90
        1
176
     1
 40
0.0
176
     1
 90
        0
176
     1
290
     0
176
     1
290
     1
176
     1
290
     1
176
     1
290
     0
176
     1
290
     0
176
     1
290
     0
176
     1
290
     0
176
     1
290
     0
176
     1
290
     0
176
     1
 90
       50
176
     1
 40
0.0
176
     1
 40
1.0
176
     1
 90
        0
176
     1
 62
    18
176
     1
 90
       50
176
     1
 90
        3
176
     1
 62
     5
420
      255
176
     1
290
     0
176
     1
 90
       50
176
     1
 90
       50
176
     1
 90
       50
176
     1
290
     0
176
     1
 90
       50
176
     1
 62
   256
176
     0
 40
1.0
176
     0
 90
        2
176
     1
  1
strokes_ogs.tif
176
     1
290
     0
176
     1
 40
1.0
176
     1
 40
1.0
176
     1
1001
ACAD
1000
AcDbSavedByObjectVersion
1070
     0
  0
VISUALSTYLE
  5
1E4
102
{ACAD_REACTORS
330
EF
102
}
330
EF
100
AcDbVisualStyle
  2
JitterOff
 70
    20
177
     3
291
     1
 70
    58
 90
        2
176
     0
 90
        2
176
     0
 90
        0
176
     0
 90
        0
176
     0
 40
0.6
176
     0
 40
30.0
176
     0
 62
     7
420
 16777215
176
     0
 90
        1
176
     0
 90
        4
176
     0
 62
     7
176
     0
 62
   257
176
     0
 90
        1
176
     0
 90
        1
176
     0
 40
1.0
176
     0
 90
       10
176
     2
 62
     7
176
     0
 40
1.0
176
     0
 90
        1
176
     0
 90
        6
176
     0
 90
        2
176
     0
 62
     7
176
     0
 90
        5
176
     0
 90
        0
176
     0
 90
        0
176
     0
290
     0
176
     0
 90
        1
176
     0
 40
0.0
176
     0
 90
        0
176
     0
290
     0
176
     1
290
     1
176
     1
290
     1
176
     1
290
     0
176
     1
290
     0
176
     1
290
     0
176
     1
290
     0
176
     1
290
     0
176
     1
290
     0
176
     1
 90
       50
176
     1
 40
0.0
176
     1
 40
1.0
176
     1
 90
        0
176
     1
 62
    18
176
     1
 90
       50
176
     1
 90
        3
176
     1
 62
     5
420
      255
176
     1
290
     0
176
     1
 90
       50
176
     1
 90
       50
176
     1
 90
       50
176
     1
290
     0
176
     1
 90
       50
176
     1
 62
   256
176
     0
 40
1.0
176
     0
 90
        2
176
     1
  1
strokes_ogs.tif
176
     1
290
     0
176
     1
 40
1.0
176
     1
 40
1.0
176
     1
1001
ACAD
1000
AcDbSavedByObjectVersion
1070
     0
  0
VISUALSTYLE
  5
FD
102
{ACAD_REACTORS
330
EF
102
}
330
EF
100
AcDbVisualStyle
  2
Linepattern
 70
    14
177
     3
291
     1
 70
    58
 90
        2
176
     1
 90
        2
176
     1
 90
        1
176
     1
 90
        0
176
     1
 40
0.6
176
     1
 40
30.0
176
     1
 62
     7
420
 16777215
176
     1
 90
        1
176
     1
 90
        4
176
     1
 62
     7
176
     1
 62
   257
176
     1
 90
        7
176
     1
 90
        7
176
     1
 40
1.0
176
     1
 90
        8
176
     1
 62
     7
176
     1
 40
1.0
176
     1
 90
        1
176
     1
 90
        6
176
     1
 90
        2
176
     1
 62
     7
176
     1
 90
        5
176
     1
 90
        0
176
     1
 90
        0
176
     1
290
     0
176
     1
 90
        1
176
     1
 40
0.0
176
     1
 90
        0
176
     1
290
     0
176
     1
290
     1
176
     1
290
     1
176
     1
290
     0
176
     1
290
     0
176
     1
290
     0
176
     1
290
     0
176
     1
290
     0
176
     1
290
     0
176
     1
 90
       50
176
     1
 40
0.0
176
     1
 40
1.0
176
     1
 90
        0
176
     1
 62
    18
176
     1
 90
       50
176
     1
 90
        3
176
     1
 62
     5
420
      255
176
     1
290
     0
176
     1
 90
       50
176
     1
 90
       50
176
     1
 90
       50
176
     1
290
     0
176
     1
 90
       50
176
     1
 62
   256
176
     0
 40
1.0
176
     0
 90
        2
176
     1
  1
strokes_ogs.tif
176
     1
290
     0
176
     1
 40
1.0
176
     1
 40
1.0
176
     1
1001
ACAD
1000
AcDbSavedByObjectVersion
1070
     0
  0
VISUALSTYLE
  5
1E5
102
{ACAD_REACTORS
330
EF
102
}
330
EF
100
AcDbVisualStyle
  2
OverhangOff
 70
    21
177
     3
291
     1
 70
    58
 90
        2
176
     0
 90
        2
176
     0
 90
        0
176
     0
 90
        0
176
     0
 40
0.6
176
     0
 40
30.0
176
     0
 62
     7
420
 16777215
176
     0
 90
        1
176
     0
 90
        4
176
     0
 62
     7
176
     0
 62
   257
176
     0
 90
        1
176
     0
 90
        1
176
     0
 40
1.0
176
     0
 90
        9
176
     2
 62
     7
176
     0
 40
1.0
176
     0
 90
        1
176
     0
 90
        6
176
     0
 90
        2
176
     0
 62
     7
176
     0
 90
        5
176
     0
 90
        0
176
     0
 90
        0
176
     0
290
     0
176
     0
 90
        1
176
     0
 40
0.0
176
     0
 90
        0
176
     0
290
     0
176
     1
290
     1
176
     1
290
     1
176
     1
290
     0
176
     1
290
     0
176
     1
290
     0
176
     1
290
     0
176
     1
290
     0
176
     1
290
     0
176
     1
 90
       50
176
     1
 40
0.0
176
     1
 40
1.0
176
     1
 90
        0
176
     1
 62
    18
176
     1
 90
       50
176
     1
 90
        3
176
     1
 62
     5
420
      255
176
     1
290
     0
176
     1
 90
       50
176
     1
 90
       50
176
     1
 90
       50
176
     1
290
     0
176
     1
 90
       50
176
     1
 62
   256
176
     0
 40
1.0
176
     0
 90
        2
176
     1
  1
strokes_ogs.tif
176
     1
290
     0
176
     1
 40
1.0
176
     1
 40
1.0
176
     1
1001
ACAD
1000
AcDbSavedByObjectVersion
1070
     0
  0
VISUALSTYLE
  5
F9
102
{ACAD_REACTORS
330
EF
102
}
330
EF
100
AcDbVisualStyle
  2
Realistic
 70
     8
177
     3
291
     0
 70
    58
 90
        2
176
     1
 90
        3
176
     1
 90
        0
176
     1
 90
        2
176
     1
 40
0.6
176
     1
 40
30.0
176
     1
 62
     7
420
 16777215
176
     1
 90
        0
176
     1
 90
        0
176
     1
 62
     7
176
     1
 62
   257
176
     1
 90
        1
176
     1
 90
        1
176
     1
 40
1.0
176
     1
 90
        8
176
     1
 62
   257
176
     1
 40
1.0
176
     1
 90
        1
176
     1
 90
        6
176
     1
 90
        2
176
     1
 62
     7
176
     1
 90
        3
176
     1
 90
        0
176
     1
 90
        0
176
     1
290
     0
176
     1
 90
       13
176
     1
 40
0.0
176
     1
 90
        0
176
     1
290
     0
176
     1
290
     1
176
     1
290
     1
176
     1
290
     0
176
     1
290
     0
176
     1
290
     0
176
     1
290
     0
176
     1
290
     0
176
     1
290
     0
176
     1
 90
       50
176
     1
 40
0.0
176
     1
 40
1.0
176
     1
 90
        0
176
     1
 62
    18
176
     1
 90
       50
176
     1
 90
        3
176
     1
 62
     5
420
      255
176
     1
290
     0
176
     1
 90
       50
176
     1
 90
       50
176
     1
 90
       50
176
     1
290
     0
176
     1
 90
       50
176
     1
 62
   256
176
     0
 40
1.0
176
     0
 90
        2
176
     1
  1
strokes_ogs.tif
176
     1
290
     0
176
     1
 40
1.0
176
     1
 40
1.0
176
     1
1001
ACAD
1000
AcDbSavedByObjectVersion
1070
     0
  0
VISUALSTYLE
  5
1F3
102
{ACAD_REACTORS
330
EF
102
}
330
EF
100
AcDbVisualStyle
  2
Shaded
 70
    27
177
     3
291
     0
 70
    58
 90
        2
176
     1
 90
        2
176
     1
 90
        1
176
     1
 90
        2
176
     1
 40
0.6
176
     1
 40
30.0
176
     1
 62
     7
420
 16777215
176
     1
 90
        0
176
     1
 90
        4
176
     1
 62
     7
176
     1
 62
   257
176
     1
 90
        1
176
     1
 90
        1
176
     1
 40
1.0
176
     1
 90
        8
176
     1
 62
   257
176
     1
 40
1.0
176
     1
 90
        1
176
     1
 90
        6
176
     1
 90
        2
176
     1
 62
     8
420
  7895160
176
     1
 90
        3
176
     1
 90
        0
176
     1
 90
        0
176
     1
290
     0
176
     1
 90
        5
176
     1
 40
0.0
176
     1
 90
        0
176
     1
290
     0
176
     1
290
     1
176
     1
290
     1
176
     1
290
     0
176
     1
290
     0
176
     1
290
     0
176
     1
290
     0
176
     1
290
     0
176
     1
290
     0
176
     1
 90
       50
176
     1
 40
0.0
176
     1
 40
1.0
176
     1
 90
        0
176
     1
 62
    18
176
     1
 90
       50
176
     1
 90
        3
176
     1
 62
     5
420
      255
176
     1
290
     0
176
     1
 90
       50
176
     1
 90
       50
176
     1
 90
       50
176
     1
290
     0
176
     1
 90
       50
176
     1
 62
   256
176
     0
 40
1.0
176
     0
 90
        2
176
     1
  1
strokes_ogs.tif
176
     1
290
     0
176
     1
 40
1.0
176
     1
 40
1.0
176
     1
1001
ACAD
1000
AcDbSavedByObjectVersion
1070
     0
  0
VISUALSTYLE
  5
1F2
102
{ACAD_REACTORS
330
EF
102
}
330
EF
100
AcDbVisualStyle
  2
Shaded with edges
 70
    26
177
     3
291
     0
 70
    58
 90
        2
176
     1
 90
        2
176
     1
 90
        1
176
     1
 90
        2
176
     1
 40
0.6
176
     1
 40
30.0
176
     1
 62
     7
420
 16777215
176
     1
 90
        1
176
     1
 90
        2
176
     1
 62
     7
176
     1
 62
   257
176
     1
 90
        2
176
     1
 90
        1
176
     1
 40
1.0
176
     1
 90
        8
176
     1
 62
   257
176
     1
 40
1.0
176
     1
 90
        1
176
     1
 90
        6
176
     1
 90
        2
176
     1
 62
     7
176
     1
 90
        3
176
     1
 90
        0
176
     1
 90
        0
176
     1
290
     0
176
     1
 90
        5
176
     1
 40
0.0
176
     1
 90
        0
176
     1
290
     0
176
     1
290
     1
176
     1
290
     1
176
     1
290
     0
176
     1
290
     0
176
     1
290
     0
176
     1
290
     0
176
     1
290
     0
176
     1
290
     0
176
     1
 90
       50
176
     1
 40
0.0
176
     1
 40
1.0
176
     1
 90
        0
176
     1
 62
    18
176
     1
 90
       50
176
     1
 90
        3
176
     1
 62
     5
420
      255
176
     1
290
     0
176
     1
 90
       50
176
     1
 90
       50
176
     1
 90
       50
176
     1
290
     0
176
     1
 90
       50
176
     1
 62
   256
176
     0
 40
1.0
176
     0
 90
        2
176
     1
  1
strokes_ogs.tif
176
     1
290
     0
176
     1
 40
1.0
176
     1
 40
1.0
176
     1
1001
ACAD
1000
AcDbSavedByObjectVersion
1070
     0
  0
VISUALSTYLE
  5
1EF
102
{ACAD_REACTORS
330
EF
102
}
330
EF
100
AcDbVisualStyle
  2
Shades of Gray
 70
    23
177
     3
291
     0
 70
    58
 90
        2
176
     1
 90
        2
176
     1
 90
        3
176
     1
 90
        0
176
     1
 40
0.6
176
     1
 40
30.0
176
     1
 62
     7
420
 16777215
176
     1
 90
        2
176
     1
 90
        2
176
     1
 62
     7
176
     1
 62
     7
176
     1
 90
        1
176
     1
 90
        1
176
     1
 40
40.0
176
     1
 90
        8
176
     1
 62
     7
176
     1
 40
1.0
176
     1
 90
        1
176
     1
 90
        6
176
     1
 90
        2
176
     1
 62
     7
176
     1
 90
        3
176
     1
 90
        0
176
     1
 90
        0
176
     1
290
     0
176
     1
 90
        1
176
     1
 40
0.0
176
     1
 90
        0
176
     1
290
     0
176
     1
290
     1
176
     1
290
     1
176
     1
290
     0
176
     1
290
     0
176
     1
290
     0
176
     1
290
     0
176
     1
290
     0
176
     1
290
     0
176
     1
 90
       50
176
     1
 40
0.0
176
     1
 40
1.0
176
     1
 90
        0
176
     1
 62
    18
176
     1
 90
       50
176
     1
 90
        3
176
     1
 62
     5
420
      255
176
     1
290
     0
176
     1
 90
       50
176
     1
 90
       50
176
     1
 90
       50
176
     1
290
     0
176
     1
 90
       50
176
     1
 62
   256
176
     0
 40
1.0
176
     0
 90
        2
176
     1
  1
strokes_ogs.tif
176
     1
290
     0
176
     1
 40
1.0
176
     1
 40
1.0
176
     1
1001
ACAD
1000
AcDbSavedByObjectVersion
1070
     0
  0
VISUALSTYLE
  5
1F0
102
{ACAD_REACTORS
330
EF
102
}
330
EF
100
AcDbVisualStyle
  2
Sketchy
 70
    24
177
     3
291
     0
 70
    58
 90
        1
176
     1
 90
        2
176
     1
 90
        2
176
     1
 90
        0
176
     1
 40
0.6
176
     1
 40
30.0
176
     1
 62
     7
420
 16777215
176
     1
 90
        2
176
     1
 90
        2
176
     1
 62
     7
176
     1
 62
     7
176
     1
 90
        1
176
     1
 90
        1
176
     1
 40
40.0
176
     1
 90
       11
176
     1
 62
     7
176
     1
 40
1.0
176
     1
 90
        1
176
     1
 90
        6
176
     1
 90
        2
176
     1
 62
     7
176
     1
 90
        6
176
     1
 90
        0
176
     1
 90
        0
176
     1
290
     0
176
     1
 90
        1
176
     1
 40
0.0
176
     1
 90
        0
176
     1
290
     0
176
     1
290
     1
176
     1
290
     1
176
     1
290
     0
176
     1
290
     0
176
     1
290
     0
176
     1
290
     0
176
     1
290
     0
176
     1
290
     0
176
     1
 90
       50
176
     1
 40
0.0
176
     1
 40
1.0
176
     1
 90
        0
176
     1
 62
    18
176
     1
 90
       50
176
     1
 90
        3
176
     1
 62
     5
420
      255
176
     1
290
     0
176
     1
 90
       50
176
     1
 90
       50
176
     1
 90
       50
176
     1
290
     0
176
     1
 90
       50
176
     1
 62
   256
176
     0
 40
1.0
176
     0
 90
        2
176
     1
  1
strokes_ogs.tif
176
     1
290
     0
176
     1
 40
1.0
176
     1
 40
1.0
176
     1
1001
ACAD
1000
AcDbSavedByObjectVersion
1070
     0
  0
VISUALSTYLE
  5
FC
102
{ACAD_REACTORS
330
EF
102
}
330
EF
100
AcDbVisualStyle
  2
Thicken
 70
    13
177
     3
291
     1
 70
    58
 90
        2
176
     1
 90
        2
176
     1
 90
        1
176
     1
 90
        0
176
     1
 40
0.6
176
     1
 40
30.0
176
     1
 62
     7
420
 16777215
176
     1
 90
        1
176
     1
 90
        4
176
     1
 62
     7
176
     1
 62
   257
176
     1
 90
        1
176
     1
 90
        1
176
     1
 40
1.0
176
     1
 90
       12
176
     1
 62
     7
176
     1
 40
1.0
176
     1
 90
        1
176
     1
 90
        6
176
     1
 90
        2
176
     1
 62
     7
176
     1
 90
        5
176
     1
 90
        0
176
     1
 90
        0
176
     1
290
     0
176
     1
 90
        1
176
     1
 40
0.0
176
     1
 90
        0
176
     1
290
     0
176
     1
290
     1
176
     1
290
     1
176
     1
290
     0
176
     1
290
     0
176
     1
290
     0
176
     1
290
     0
176
     1
290
     0
176
     1
290
     0
176
     1
 90
       50
176
     1
 40
0.0
176
     1
 40
1.0
176
     1
 90
        0
176
     1
 62
    18
176
     1
 90
       50
176
     1
 90
        3
176
     1
 62
     5
420
      255
176
     1
290
     0
176
     1
 90
       50
176
     1
 90
       50
176
     1
 90
       50
176
     1
290
     0
176
     1
 90
       50
176
     1
 62
   256
176
     0
 40
1.0
176
     0
 90
        2
176
     1
  1
strokes_ogs.tif
176
     1
290
     0
176
     1
 40
1.0
176
     1
 40
1.0
176
     1
1001
ACAD
1000
AcDbSavedByObjectVersion
1070
     0
  0
VISUALSTYLE
  5
F6
102
{ACAD_REACTORS
330
EF
102
}
330
EF
100
AcDbVisualStyle
  2
Wireframe
 70
     5
177
     3
291
     0
 70
    58
 90
        0
176
     1
 90
        2
176
     1
 90
        0
176
     1
 90
        0
176
     1
 40
0.6
176
     1
 40
30.0
176
     1
 62
     7
420
 16777215
176
     1
 90
        1
176
     1
 90
        4
176
     1
 62
     7
176
     1
 62
   257
176
     1
 90
        1
176
     1
 90
        1
176
     1
 40
1.0
176
     1
 90
        0
176
     1
 62
   257
176
     1
 40
1.0
176
     1
 90
        1
176
     1
 90
        6
176
     1
 90
        2
176
     1
 62
     7
176
     1
 90
        3
176
     1
 90
        0
176
     1
 90
        0
176
     1
290
     0
176
     1
 90
        1
176
     1
 40
0.0
176
     1
 90
        0
176
     1
290
     0
176
     1
290
     1
176
     1
290
     1
176
     1
290
     0
176
     1
290
     0
176
     1
290
     0
176
     1
290
     0
176
     1
290
     0
176
     1
290
     0
176
     1
 90
       50
176
     1
 40
0.0
176
     1
 40
1.0
176
     1
 90
        0
176
     1
 62
    18
176
     1
 90
       50
176
     1
 90
        3
176
     1
 62
     5
420
      255
176
     1
290
     0
176
     1
 90
       50
176
     1
 90
       50
176
     1
 90
       50
176
     1
290
     0
176
     1
 90
       50
176
     1
 62
   256
176
     0
 40
1.0
176
     0
 90
        2
176
     1
  1
strokes_ogs.tif
176
     1
290
     0
176
     1
 40
1.0
176
     1
 40
1.0
176
     1
1001
ACAD
1000
AcDbSavedByObjectVersion
1070
     0
  0
VISUALSTYLE
  5
1F1
102
{ACAD_REACTORS
330
EF
102
}
330
EF
100
AcDbVisualStyle
  2
X-Ray
 70
    25
177
     3
291
     0
 70
    58
 90
        2
176
     1
 90
        2
176
     1
 90
        1
176
     1
 90
        1
176
     1
 40
0.5
176
     1
 40
30.0
176
     1
 62
     7
420
 16777215
176
     1
 90
        1
176
     1
 90
        0
176
     1
 62
     7
176
     1
 62
   257
176
     1
 90
        1
176
     1
 90
        1
176
     1
 40
1.0
176
     1
 90
        8
176
     1
 62
     7
176
     1
 40
1.0
176
     1
 90
        1
176
     1
 90
        6
176
     1
 90
        2
176
     1
 62
     7
176
     1
 90
        3
176
     1
 90
        0
176
     1
 90
        0
176
     1
290
     0
176
     1
 90
       13
176
     1
 40
0.0
176
     1
 90
        0
176
     1
290
     0
176
     1
290
     1
176
     1
290
     1
176
     1
290
     0
176
     1
290
     0
176
     1
290
     0
176
     1
290
     0
176
     1
290
     0
176
     1
290
     0
176
     1
 90
       50
176
     1
 40
0.0
176
     1
 40
1.0
176
     1
 90
        0
176
     1
 62
    18
176
     1
 90
       50
176
     1
 90
        3
176
     1
 62
     5
420
      255
176
     1
290
     0
176
     1
 90
       50
176
     1
 90
       50
176
     1
 90
       50
176
     1
290
     0
176
     1
 90
       50
176
     1
 62
   256
176
     0
 40
1.0
176
     0
 90
        2
176
     1
  1
strokes_ogs.tif
176
     1
290
     0
176
     1
 40
1.0
176
     1
 40
1.0
176
     1
1001
ACAD
1000
AcDbSavedByObjectVersion
1070
     0
  0
DICTIONARYVAR
  5
146
102
{ACAD_REACTORS
330
5E
102
}
330
5E
100
DictionaryVariables
280
     0
  1
1:1
  0
DICTIONARYVAR
  5
259
102
{ACAD_REACTORS
330
5E
102
}
330
5E
100
DictionaryVariables
280
     0
  1
3.500000
  0
DICTIONARYVAR
  5
25A
102
{ACAD_REACTORS
330
5E
102
}
330
5E
100
DictionaryVariables
280
     0
  1
acadiso.lin
  0
DICTIONARYVAR
  5
145
102
{ACAD_REACTORS
330
5E
102
}
330
5E
100
DictionaryVariables
280
     0
  1
STANDARD
  0
DICTIONARYVAR
  5
84
102
{ACAD_REACTORS
330
5E
102
}
330
5E
100
DictionaryVariables
280
     0
  1
STANDARD
  0
DICTIONARYVAR
  5
227
102
{ACAD_REACTORS
330
5E
102
}
330
5E
100
DictionaryVariables
280
     0
  1
Metric50
  0
DICTIONARYVAR
  5
228
102
{ACAD_REACTORS
330
5E
102
}
330
5E
100
DictionaryVariables
280
     0
  1
Metric50
  0
DICTIONARYVAR
  5
5F
102
{ACAD_REACTORS
330
5E
102
}
330
5E
100
DictionaryVariables
280
     0
  1
2
  0
DICTIONARYVAR
  5
63
102
{ACAD_REACTORS
330
5E
102
}
330
5E
100
DictionaryVariables
280
     0
  1
1
  0
DICTIONARYVAR
  5
1AE
102
{ACAD_REACTORS
330
5E
102
}
330
5E
100
DictionaryVariables
280
     0
  1
0
  0
DICTIONARYVAR
  5
1AF
102
{ACAD_REACTORS
330
5E
102
}
330
5E
100
DictionaryVariables
280
     0
  1
0
  0
DICTIONARY
  5
9EE
102
{ACAD_REACTORS
330
9EC
102
}
330
9EC
100
AcDbDictionary
281
     1
  0
DICTIONARY
  5
9ED
102
{ACAD_REACTORS
330
9EC
102
}
330
9EC
100
AcDbDictionary
281
     1
  3
2313785191664
350
9E7
  3
2313785191680
350
9E8
  3
2313785191696
350
9E9
  3
2313785191712
350
9EA
  3
2313785191728
350
9EB
  0
DICTIONARY
  5
9F5
330
28F
100
AcDbDictionary
280
     1
281
     1
  3
ACAD_XREC_ROUNDTRIP
360
9F6
  0
DICTIONARY
  5
9F1
330
21C
100
AcDbDictionary
280
     1
281
     1
  3
ACAD_XREC_ROUNDTRIP
360
9F2
  0
DICTIONARY
  5
205
330
22
100
AcDbDictionary
280
     1
281
     1
  0
DICTIONARY
  5
1F9
330
ED
100
AcDbDictionary
280
     1
281
     1
  3
FBXASSET
360
1FA
  0
DICTIONARY
  5
1F7
330
EC
100
AcDbDictionary
280
     1
281
     1
  3
FBXASSET
360
1F8
  0
DICTIONARY
  5
173
330
EE
100
AcDbDictionary
280
     1
281
     1
  3
BUMPTILE
360
175
  3
DIFFUSETILE
360
174
  3
FBXASSET
360
1FB
  3
OPACITYTILE
360
176
  3
REFLECTIONTILE
360
177
  0
DICTIONARY
  5
9F3
330
28E
100
AcDbDictionary
280
     1
281
     1
  3
ACAD_XREC_ROUNDTRIP
360
9F4
  0
DICTIONARY
  5
9EF
330
21A
100
AcDbDictionary
280
     1
281
     1
  3
ACAD_XREC_ROUNDTRIP
360
9F0
  0
DICTIONARY
  5
162
330
7F
100
AcDbDictionary
280
     1
281
     1
  3
ACAD_ROUNDTRIP_2008_TABLESTYLE_CELLSTYLEMAP
360
9E5
  0
XRECORD
  5
9E7
102
{ACAD_REACTORS
330
9ED
102
}
330
9ED
100
AcDbXrecord
280
     1
  1
AcDb_Thumbnail_Schema
102
{ATTRRECORD
341
9E8
  2
AcDbDs::TreatedAsObjectData
280
     1
291
     1
102
ATTRRECORD}
102
{ATTRRECORD
341
9E9
  2
AcDbDs::Legacy
280
     1
291
     1
102
ATTRRECORD}
  2
AcDbDs::ID
280
    10
 91
        8
102
{ATTRRECORD
341
9EA
  2
AcDs:Indexable
280
     1
291
     1
102
ATTRRECORD}
102
{ATTRRECORD
341
9EB
  2
AcDbDs::HandleAttribute
280
     7
282
     1
102
ATTRRECORD}
  2
Thumbnail_Data
280
    15
 91
        0
  0
XRECORD
  5
9E8
102
{ACAD_REACTORS
330
9ED
102
}
330
9ED
100
AcDbXrecord
280
     1
  1
AcDbDs::TreatedAsObjectDataSchema
  2
AcDbDs::TreatedAsObjectData
280
     1
 91
        0
  0
XRECORD
  5
9E9
102
{ACAD_REACTORS
330
9ED
102
}
330
9ED
100
AcDbXrecord
280
     1
  1
AcDbDs::LegacySchema
  2
AcDbDs::Legacy
280
     1
 91
        0
  0
XRECORD
  5
9EA
102
{ACAD_REACTORS
330
9ED
102
}
330
9ED
100
AcDbXrecord
280
     1
  1
AcDbDs::IndexedPropertySchema
  2
AcDs:Indexable
280
     1
 91
        0
  0
XRECORD
  5
9EB
102
{ACAD_REACTORS
330
9ED
102
}
330
9ED
100
AcDbXrecord
280
     1
  1
AcDbDs::HandleAttributeSchema
  2
AcDbDs::HandleAttribute
280
     7
 91
        1
284
     1
  0
XRECORD
  5
9F6
102
{ACAD_REACTORS
330
9F5
102
}
330
9F5
100
AcDbXrecord
280
     1
102
DISPLAYNAME
  1
Imperial24
102
FLAGS
 90
        0
  0
XRECORD
  5
9F2
102
{ACAD_REACTORS
330
9F1
102
}
330
9F1
100
AcDbXrecord
280
     1
102
DISPLAYNAME
  1
Metric50
102
FLAGS
 90
        0
  0
XRECORD
  5
1FA
102
{ACAD_REACTORS
330
1F9
102
}
330
1F9
100
AcDbXrecord
280
     1
 70
     1
 90
429727718
  1
D62C5603-E3A1-4AEA-B7FB-FE5D8D0755AF
310
504B03040A0000080000CC70623B3DEE336E79000000790000001B0000006175746F6465736B2D64657369676E2D7061636B6167652E786D6C3C3F786D6C2076657273696F6E3D22312E302220656E636F64696E673D227574662D3822203F3E3C666F726D6174733E3C666F726D61743E687474703A2F2F736368656D612E
310
6175746F6465736B2E636F6D2F64657369676E2D7061636B6167652F323030393C2F666F726D61743E3C2F666F726D6174733E504B0304140006080800CC70623BD486FD9CA0000000F4000000130000005B436F6E74656E745F54797065735D2E786D6C7D8EC10E82300C865F65E91D8A1E8C310C0EEA1BF002731658846E
310
D98AC1B77784ABF1D8FE5FBFBF75BBCE937A534CCEB38643598122B6FEE978D0B0485F9C41B54DDD7D022595594E1A469170414C76A4D9A4D207E29CF43ECE46F218070CC6BECC4078ACAA135ACF422C856C0E68EA1BF5669944DDD7BCDE7B1F8E415D77AECB980613C2E4AC91FC167A2B244592486606FC29C8FD7F045B9A
310
EF7053A7E60B504B0304140006080800CC70623B853B8169EB0000007C01000008000000636F72652E786D6C8D90416EC3201045AF62CDB6C206821CC7C244919D9CA01740401C94182C03558F5F9C3852BBEB6A467FFE9B197D7EFC9E1EC5975982F5AE035262288C535E5B377690E21535501C055FBC8FBF6C503839990E
310
5619041F179FE64D52DE45E362569DD7661365082642A11EB9E920A89B99642953CC8E702F67A9EE7234257977194EC9EAE275C4EABCCF5EAD5940D4AC6F0E35A568B8F43562CD7046CD199FD07E60174276A7BE677B5EADB0E0D14EEFFB6A31321A0D82627C4084204C3F096B71DD52F6819B16635EADF63F509AF53FA164
310
5DDCD1EDDD17164090FCC8732078B56691CB33A85CD7DCC40F504B0304140006080800CC70623B55019EA25F0000007C00000007000000636E782E786D6C4DCB3B0E80201045D1AD90E915ED2CF8AC45050C11660C8261F98AB1B07AC9C97D42D718D865D3E909258CFD00CCE24AC6E326A164D74DC0B4128928FF32603847
310
2BA13128B1252AC747C6BAB984FC68F0B87FE8960A5C09FE86CFB69FBA01504B0304140006080800CC70623BDBABAAF470010000D40300000C0000006662782F636F72652E786D6CC553D16E823014FD95A6AF4B694182CC941A83FA05FB810A9511A125A5257EFE2E82712ECEB8A7F100CD39F7F69E734AF9FADC366850B6
310
AF8DCE7018308C942E4C59EB2AC3DE1D498AD15A706B8CFB56869196ADCAF00863C12B6B7C374385D14E6907A836A59A41D9F7CA615434B0C8705F7CAA5606D23BA8E84F41278B93AC54100640439DE0BDB320004D43C63716C7C399D30917DCFBBA9CD9BA8469F5B156168B24CED3F7248AC8769F27244EB73B92EED8862C
310
B7F13E0C179B3C8F979C8ECD82BBBABDAA2BAC924E9558448CBD9330242CFA08E3154B5651FCC6D215639C8EE5774DBE2B5F6CF2B5768B68963BB5F5588420E442FC700B1139D4CB01F450C1E918227C2E09DF070D8140C84E1E9AAB8F1340832A9CB13130A5F1376A908D57309505ECF2A0DF179C4E9D30F5B239B87E3823
310
7A79C6F31DE1A8A5AEC08474B03C7837EAE4938639B44E5932B833D2C6B6B279CDC613877FA26EE21F4A2A4C63EC7F29A2F301D1F9F7A0E37D145F504B0304140006080800CC70623B9C113CC27E0000009D0000000B0000006662782F636E782E786D6C4DCCDF0A83201C86E15B91DFB94BFB330DD428C8FB886521330DA7
310
6397BF1A1DECE883878F57749FCDA1B7892F1BBC047A23808C7F84D9FA55424E0BE6803A256208E9EF06C84F9B91703228B1C690F78B66B34CD9A5439DF5CF0BFBF65E35BCA1B8D6A5C6F540381E886698B5741C695F9503EBA150A2F8958E3DC3EA0B504B0304140006080800CC70623B7DF2F77C2A010000120200003100
310
00006662782F41393633353835312D344632462D344230382D423046372D3739314545314133324237412F636F72652E786D6C8D51DB8EC22014FC15C2939B0D2DB4B45643319AE817EC0F6041255A68B86CFCFC856D4D76DF7CE190393373060EDB3DC707F856CE6B6B7A480A0C81328395DA5C7B18C3057510EC3873D686
310
3F34088C18550F330C39BB3A1BA7051AAC09CA84841A2BD5020AEF55806078A44B0FFD7053A328440C89E1EFC52486BBB8AA8214A99D789CF9E05200300FC927E4FB4D5B375D43103D5527440FB843077C5AA3F5861C8F645F5787F59E95B390B318B55CE45AA638FAA2957BD7248B390B7A7CC51F9C124149C82B8C378810
310
84AB2F42B7B8DD56F413775B8C5999E9FF4471926F8AA236A1AE96B8B3CC434E5839373893369E1FAF30EA395917409EB7F26AF8801C171837A4A6AC9C89E9F9C9B1A58BA30FD6A5EF5DDDCF894B9AD9B6A59C957943A9FCAE2FD5BC4DFE03504B0304140006080800CC70623BAD7543B64E01000033030000300000006662
310
782F41393633353835312D344632462D344230382D423046372D3739314545314133324237412F636E782E786D6CD593CD6EC32010845F0571AD6CE3D48AD20813A9873E410FBD12D82434182C7EAAE6EDBB2424CD25871E7B41D6EC30B3FA84F9E67BB2E40B4234DE8DB46F1925E094D7C6ED479AD3AE5951B2113C789FEE
310
6C943839C1488B4C05DF079FE72A69D8C96C13AAD6B8631503449F83828872B949AC57D26200B826A308D316B4064D6E46FCDA41C05550DC9E483A00797BFD207EFB092A45DE9514C1BBD22178396BD39D891265658C238DEA00936C654E5E433CB65A26D9F6EDB5EBC14EBF49A45CB856E66048291F6939A9A81BB5C89177
310
38143CA680F4AA299D66A042CEB3354A2684DC9D8D178FE0D9B8B41CAAD720F880EE7EF93C0C18769E099ECC04D5A102C8049A8A05632F4DDF376CF1DE0F6BB65C2F8627B65A33C6BB62177CEBBDAD973006829F89F22E814B54F4BC2BE347F8AA8F681390B50FA73F804400B5F542E796F19FF974E7F78DB802FE05E20750
310
4B0304140006080800CC70623BE75B7789680500003C100000340000006662782F41393633353835312D344632462D344230382D423046372D3739314545314133324237412F6F626A656374732E786D6CAD575B8F9B3818FD2B887D06C22499CB8AA1CA655245D5B455A356FB305264C061D8018C6C3393D95FBFC7600890
310
A4CD5EF210B0B1BFEBF98E3F7B1FF6596ABC522E1296DF9BAE3D320D9A872C4AF2F8DE2CE5CEBA358D0FBEC719939D65A691938CDE9B6ADAF4BD98B3B2D05311DD91329583D9D5FC0F438434A7A611A644887B5384CF34233629258BA878B12322891DEFF6B66BD70BFB62634E8AE781D082709A4B588AF91C528CDA28B73F
310
1C998EEF39EABBEFA97FBD6A7C7E9553F9D3D79FE442923C3C523610337627CB87ABE99D359D4CC6D6E4FACAB5E6ABF9D2726FC6A3C5F56271377BB88362213924694B38DD99FE47C48627A1E7D49F5A8BB5E1A74C0A599ED3B0F21F1E56366B89112D681E218F0915D0D6F17AD41FBA2A369DCF6335D62ABBD39779D5DDD1
310
11D4D8DE3CBB96B2E04FB8202E41051754A1AA8E8F76B4C6DFE810B580B1547F4B84911149794252234D024EF8BBE963A95AE27B3D310A9D5C215C7960FAEE415ED75694C6AFB17BCACA5D99A60A9AA65F217B0BFC53292ACB92BF283FAD0D3621576592CB5BED907C2FA8E9DF794E35E97BEA31BED21FEB401ABB94C44839
310
DCACBF0E1C5DA8DA5B2F4DFFD32AD86F543D9E565E7056502E157C00AD2671CD534549AB752FCA9CDA00677A313F04E51B22FF19E57B300579E3C97EB29F682D92935CEC18CF901B7B54FD8C51F362B56FC72FE0B3C1EAE335EDCCBF5AEC39ADB17DC238973F804BA5E6F6BFE7AF1FB32E523BE9F3BD571418E3631DCA4D48
310
5250CF639223210A9446CA30052EDF057BD35F8329C1ECD84552BF0DC8D18BE7BCE23BFE6BD960AB4A7DE79923A103BEBD80F911CBAA2C60DB19B01CF164A5583B772EE6D3FFA56666CBCDA74DC97724A48F9A58967497E489C4D979006FD7A05E227A1EBDD0F737C623387A9C844D3709995625106D157315F8B8392CD4E0
310
A0B9A720C4BE9829CEF37EA1E13111214D53925356365ADA634861B52519DD27A00AEB808EAF0628E6F435519D446F45CF2C9CF5214F0A15B2F6D06B79DA3EE3CBF7F56780D2F4E7EF73A0F5E5B02A38D07DC852C6B7C1FBB6664213E0C39E3EBA7FF4E1AD23EA2829407C85E586727488B751B2DB9502BC7B228A3FD68B6E
310
A65A22397E690AA8D158D7E404EC8CDA235CC3B7D1898680131CEC2CDF2638C65196279577750F15884AEE19F94199155B92B13297978469D4F8D358DF0AEF7631E28DC8F0D9F437D5D39A83B2231A1D52D543813A824EF8D44BCFF2FA6A31BD1E8DAD87F1CCB526B3879935BF59CDADD5C37479BB1CDD4CA7B3556B516589
310
EF352754B706114D9C885EC9131DE6EFEB43D99AFE2391C2F958179413D7CFEF6B1B6DB1E7600F00DE6E5C67454A339A4BA2E0FBA85ED26F045D454F463DBFCE484C2F90F2E5E3666003662ED8F755951A7D1BECD5B30B550B2785C8E7320B7292A4838DDA71BBC863ED7613CAF659337A3354231D4FF4A182A54904C2898C
310
98B28C4AD0CE056CCF332A80986E571EE9DBC305BB5FEB7E509220A58D25CF042D712A806AC0AD0C657FDEF80D2D9CEAA2EE4D1C76F60BFE74219A06527D6F82DF6412526107381E55E353090704D085B52408A8913C4ED159D79BDA71BB4BC506F4831350EB6F975CD22D69BF7AC49B91A2C0A9DDA3D5CA36AD20FC478E37
310
E61844E2352865EBCB61A275A65283CAAA9DD27703B4102F5AF51EF5F573B75CBB5AD38BC845F7A49F82A0966A49C2E3EA5EA0ECD326CD965F1DB402C6FA8B51A4658C5C5E2EC9E214602E55810345408596591009A82E7E7FFACA19EEA299B14A0081A705CB3296EBC14CDF658DCD336EA6D1136881AAEB87B81AB9EE53D5
310
F5EB8BC8362082DA24122F98680A4E7930C01A0079749CEA14382A0783E5EBA5A10F8C098456A03D6A4AEB6BB881E2513747552A5DB22C7EDAF83BD5528081A365F7FF06504B0304140006080000CC70623B000000000000000000000000350000006662782F41393633353835312D344632462D344230382D423046372D37
310
39314545314133324237412F76657274696365732E62696E504B0304140006080800CC70623BF270F1330600000004000000360000006662782F41393633353835312D344632462D344230382D423046372D3739314545314133324237412F747269616E676C65732E62696E636660600000504B0304140006080000CC7062
310
3B000000000000000000000000370000006662782F41393633353835312D344632462D344230382D423046372D3739314545314133324237412F617474726962757465732E62696E504B0304140006080800CC70623B08DA0BD19000000041010000360000006662782F41393633353835312D344632462D344230382D4230
310
46372D3739314545314133324237412F6469726563746F72792E786D6C858F410AC3201045AF22B36F53E9A60B35CBEEBAE80D244E44489C6234F4F835464A48035D0DF398FF9F8AF63D0E6CC63039F212F8F9020C7D47C6792B21C5FE7403D62A1188E2E60C98D7234A5830286103A55745067B9D86B8A3CF9C7F90C11DE6
310
07FB144396D7B6A82D282E9A152AD114D5EF2CB866EEE831B8EEA07A7BB5A8D7D61A2BAAEB7FD5F70921FF497D00504B0304140006080800CC70623BEDD1DC58FD000000A00100003B0000006662782F41393633353835312D344632462D344230382D423046372D3739314545314133324237412F7265736F75726365732F
310
636F72652E786D6C8D504B6E833010BD0A9A6D65B00922041947112427E8052C33A156828DFCA97AFC9A40A576D7CDCCE87D344F8F9FBFE667F689CE6B6B3A6039850C8DB2A336530731DC4903D95970676DF82583CCC8193B5861107C72362E3BA4AC096842428D1D7107A5F7182053CF7474E0D507CE32973124857FE48B
310
540F3961CEF244279DE03EB81420DB9EAC1384436FA353E879B1B182C7A8C75DA3C7F453DF353A1075D537A7BA6464B8F535A99AE14A9A2BBD90E350DD183B5CFABE3AF262350B1EF4FC9351399401471025A527C218A1E53BAB5A5AB765F5469B96525EACF23FA6B88CFF34456DC2A1DCE36E360F82A5202F42F062ED2BAD
310
579969AFDD8A6F504B010214000A0000080000CC70623B3DEE336E79000000790000001B00000000000000000000000000000000006175746F6465736B2D64657369676E2D7061636B6167652E786D6C504B01021400140006080800CC70623BD486FD9CA0000000F40000001300000000000000000000000000B20000005B
310
436F6E74656E745F54797065735D2E786D6C504B01021400140006080800CC70623B853B8169EB0000007C010000080000000000000000000000000083010000636F72652E786D6C504B01021400140006080800CC70623B55019EA25F0000007C000000070000000000000000000000000094020000636E782E786D6C504B
310
01021400140006080800CC70623BDBABAAF470010000D40300000C00000000000000000000000000180300006662782F636F72652E786D6C504B01021400140006080800CC70623B9C113CC27E0000009D0000000B00000000000000000000000000B20400006662782F636E782E786D6C504B01021400140006080800CC70
310
623B7DF2F77C2A010000120200003100000000000000000000000000590500006662782F41393633353835312D344632462D344230382D423046372D3739314545314133324237412F636F72652E786D6C504B01021400140006080800CC70623BAD7543B64E010000330300003000000000000000000000000000D2060000
310
6662782F41393633353835312D344632462D344230382D423046372D3739314545314133324237412F636E782E786D6C504B01021400140006080800CC70623BE75B7789680500003C10000034000000000000000000000000006E0800006662782F41393633353835312D344632462D344230382D423046372D3739314545
310
314133324237412F6F626A656374732E786D6C504B01021400140006080000CC70623B0000000000000000000000003500000000000000000000000000280E00006662782F41393633353835312D344632462D344230382D423046372D3739314545314133324237412F76657274696365732E62696E504B01021400140006
310
080800CC70623BF270F133060000000400000036000000000000000000000000007B0E00006662782F41393633353835312D344632462D344230382D423046372D3739314545314133324237412F747269616E676C65732E62696E504B01021400140006080000CC70623B0000000000000000000000003700000000000000
310
000000000000D50E00006662782F41393633353835312D344632462D344230382D423046372D3739314545314133324237412F617474726962757465732E62696E504B01021400140006080800CC70623B08DA0BD1900000004101000036000000000000000000000000002A0F00006662782F41393633353835312D344632
310
462D344230382D423046372D3739314545314133324237412F6469726563746F72792E786D6C504B01021400140006080800CC70623BEDD1DC58FD000000A00100003B000000000000000000000000000E1000006662782F41393633353835312D344632462D344230382D423046372D3739314545314133324237412F7265
310
736F75726365732F636F72652E786D6C504B0506000000000E000E0080040000641100000000
  0
XRECORD
  5
1F8
102
{ACAD_REACTORS
330
1F7
102
}
330
1F7
100
AcDbXrecord
280
     1
 70
     1
 90
429727718
  1
30362254-06B7-45E0-A893-8CFA70E3D6BC
310
504B03040A0000080000CC70623B3DEE336E79000000790000001B0000006175746F6465736B2D64657369676E2D7061636B6167652E786D6C3C3F786D6C2076657273696F6E3D22312E302220656E636F64696E673D227574662D3822203F3E3C666F726D6174733E3C666F726D61743E687474703A2F2F736368656D612E
310
6175746F6465736B2E636F6D2F64657369676E2D7061636B6167652F323030393C2F666F726D61743E3C2F666F726D6174733E504B0304140006080800CC70623BD486FD9CA0000000F4000000130000005B436F6E74656E745F54797065735D2E786D6C7D8EC10E82300C865F65E91D8A1E8C310C0EEA1BF002731658846E
310
D98AC1B77784ABF1D8FE5FBFBF75BBCE937A534CCEB38643598122B6FEE978D0B0485F9C41B54DDD7D022595594E1A469170414C76A4D9A4D207E29CF43ECE46F218070CC6BECC4078ACAA135ACF422C856C0E68EA1BF5669944DDD7BCDE7B1F8E415D77AECB980613C2E4AC91FC167A2B244592486606FC29C8FD7F045B9A
310
EF7053A7E60B504B0304140006080800CC70623B1EC5D7A3EB0000007C01000008000000636F72652E786D6C8D90416EC3201045AF82665B6103C6756C6122AB4D4ED00B204C5C94182C03558F5F9C3852BBEB6A467FFE9B197D71FC9E6FE8CBACC17AD7032D0820E3B41FAD9B7A48F1820F808E52ACDEC75F36404ECDA687
310
4D0629A6D5A76597B477D1B89855E747B38B2A041301E95B6E7A08FAD3CCAA50296647B8168BD2573599823EBB0CA76447F43862C7BCCF5EAC59410E4DDD9C7973C2755553CCCFA4C603E3040F1565ED3B1FDE4E432BCA0D9622DAF9795FAF464533826484B498524CD807E51D79ED187F21878E10516EF63F505AC67F42C9
310
BA58B1FDDD071640D2FCC87D2045B96591CB3DA85CB7DCE40F504B0304140006080800CC70623B55019EA25F0000007C00000007000000636E782E786D6C4DCB3B0E80201045D1AD90E915ED2CF8AC45050C11660C8261F98AB1B07AC9C97D42D718D865D3E909258CFD00CCE24AC6E326A164D74DC0B4128928FF32603847
310
2BA13128B1252AC747C6BAB984FC68F0B87FE8960A5C09FE86CFB69FBA01504B0304140006080800CC70623B8C9102E971010000D40300000C0000006662782F636F72652E786D6CC5535B6E833010BC8AE5DF0A6C08340F1947A84D4ED00B38C6A128602363A31CBFCB234A53A551FA553EC09AD9F5CE8C31DB9E9B1AF5CA
310
7695D1198E428A91D2D214952E33ECDD315861B4E5CC1AE3BE9561A445A3323CC098B3D21ADFCE9034DA29ED00D5A6503328BA4E398C640D8B0C77F253352214DE4145770A5B214FA2546114020D759C75CE8200340D19DE981F0F6746269C33EFAB6266AB02A655C74A59CCF365BADC27CB5D902ED22848F6340DF238A141
310
BE88E2F57B92BFEDF23523433367AE6A2EEAA455C2A902F398D2751045018D3FA264435F3771F242571B4A1919CA6F9A7C5B3CD9E42BED16F12C776AEB308F40C848FC700B1139D4891EF410CEC810227CC6846F8386402064270EF5C5C709A05E49676C024C61FC95EA45ED154CA5211D1FF4FB8291A913A68E9B83EBBB33
310
E2A7673CDE118E5AE8124C0807CB8377834E366998436B950D7A7746DAD846D4CFD978E0F04FD455FC5D49D2D4C6FE9722321F10997F0F32DC47FE05504B0304140006080800CC70623BFFEA85907E0000009D0000000B0000006662782F636E782E786D6C4DCCD10A83201886E15B91FFDC95D95A811AB6F23E625948A6C3
310
E9D8E5AF46073BFAE0E1E365ED67B3E8ADC3CB78C7815C7240DA3DFC64DCC221C519D7805AC182F7F1EF06C88D9BE6703008B6049F9E274D7A1E938DBB5AE3D6131B2589BA0D3D965551E0B2EA732C9B9A624AAEB41E3A557677029960D9AFB4EF11165F504B0304140006080800CC70623B4FEEA4082C0100001202000031
310
0000006662782F39464131463745442D413632322D343644302D413938332D3331353338454246344243312F636F72652E786D6C8D515B6EC32010BC0AE2AB55850DD871ED0813254D72825EC00192A2C460F1A872FC42ED48ED5F7E00CDCECCCEB26C731F6FE05B39AFADE921293004CA082BB5B9F43086336A21D870E6AC
310
0D7F68109861543DCC30E4ECE26C9C164858139409093556AA051CBC570102714B8F1E7AF1A5C6A11862480C7F2DA6415C878B2A4891CA89C7990F2E050073937C42DE1DB7E4F87ED8A36D4329AA9B3D46DBAEAD504556557BD81DEBDD0761E52CE42C462D17B996298E3E6BE59E35C962CE821E1FF18553435012728A7187
310
0841987E927A8D9B35ADDF70BBC6989599FE4F1427F9A4286A132ABAC49D651EF234CD5CE04CDA78BA3DC2A8FB645D00B9DF8B57E215725C60BCA2A463E54C4CE327C7A65E1C7DB02E7DEFCBF594B864C5CA6CDBD49C957943E9FA5D5FBAF336F90F504B0304140006080800CC70623BAD7543B64E01000033030000300000
310
006662782F39464131463745442D413632322D343644302D413938332D3331353338454246344243312F636E782E786D6CD593CD6EC32010845F0571AD6CE3D48AD20813A9873E410FBD12D82434182C7EAAE6EDBB2424CD25871E7B41D6EC30B3FA84F9E67BB2E40B4234DE8DB46F1925E094D7C6ED479AD3AE5951B2113C
310
789FEE6C943839C1488B4C05DF079FE72A69D8C96C13AAD6B8631503449F83828872B949AC57D26200B826A308D316B4064D6E46FCDA41C05550DC9E483A00797BFD207EFB092A45DE9514C1BBD22178396BD39D891265658C238DEA00936C654E5E433CB65A26D9F6EDB5EBC14EBF49A45CB856E66048291F6939A9A81BB5
310
C8917738143CA680F4AA299D66A042CEB3354A2684DC9D8D178FE0D9B8B41CAAD720F880EE7EF93C0C18769E099ECC04D5A102C8049A8A05632F4DDF376CF1DE0F6BB65C2F8627B65A33C6BB62177CEBBDAD973006829F89F22E814B54F4BC2BE347F8AA8F681390B50FA73F804400B5F542E796F19FF974E7F78DB802FE05
310
E207504B0304140006080800CC70623B16AB87BA640500003C100000340000006662782F39464131463745442D413632322D343644302D413938332D3331353338454246344243312F6F626A656374732E786D6CAD575B6FA33818FD2B887DE6924B3BED8A326A92B68A663B534DD4D13E548A0C38942D60649B369D5FBFC7
310
600890A493BDE42160637FD7F31D7FF63E6FB3D478A55C242CBF3247B66B1A340F5994E4F19559CA8D75611A9F7D8F33263BCB4C232719BD32D5B4E97B316765A1A722BA21652A07B3B7B33F0D11D29C9A46981221AE4C113ED38CD8A4942CA2E2C58E882476BCD9DA23BB5ED8171B73523C0F841684D35CC252CCE79062D4
310
468DFA43D7747CCF51DF7D4FFDEB5593E3AB9CCA9FBEFE241792E4E19EB28198C968BAB8199F5D5A67D3E9C49A9E8F47D6EC76B6B0469F26EEFC7C3EBFBCBEB98462213924694B38DD98FE1D62C393D073EA4FADC5DAF04326852CCF6958F90F0F2B9BB5C48816348F90C7840A68EB78EDF68723159BCEE7891A6B95DDE9D3
310
BCEAEEE8086A6C6F9E5D4B59F0175C10A7A0820BAA5055C7473B5AE3CFDD452D602CD5DF12616444529E90D448938013FE6EFA58AA96F85E4F8C42275708571E98FE6827AF6B2B4AE3D7D83D64E5A64C53054DD3AF90BD06FEA9149565C94FCA0F6B834DC85599E4F2423B24DF0B6AFA979E534DFA9E7A4CC6FA631D486393
310
921829879BF5D781A373557BCB85E97FB90DB62B558F8795179C15944B051F40AB495CF35451D26A4727654E6D8033BD98EF82F21D91FF8AF2DD9982BCF1643BDD4EB516C9492E368C67C88DED563FC36D5EACF66DFF057C3658BDBFA69DF9578B3DA735B64F18C7F20770A9D45CFCF7FCF563D6456A277DBEF78A02637CA2
310
43B90A490AEAB94F72244481D24819A6C0E59B606BFA4B3025981DBB48EAB701D97BF19C577CC77F2D1B6C55A9EF3C732474C0B727303F625995056C3B02963D9EAC146BE78EC5FCEC7FA999EBC5EACBAAE41B12D27B4D2C0BBA49F244E2ECDC81B76B502F113D8F5EE8FB1BE3111CDD4FC2AA9B844CAB1288B68AB90A7CDC
310
1C166AB0D3DC5310625FCC14E779BFD0709F8890A629C9292B1B2DED31A4B0DA928CEE135085754027E3018A397D4D5427D15BD1330B677DC8934285AC3DF45A9EB68FF8F2B8FC0A509AFEECFD0FF2DE25CC6047F7214B195F07EFEB9A094D800F7BFAE8FED187B78EA8A3A400F115961BCAD1215E47C966530AF0EE8128FE
310
58CEBB996A8964FFA529A046635D9353B0336A8F700DDF46271A024E70B0B37C9DE01847591E54DED53D54202AB947E4076556AC49C6CA5C9E1226B7F1A7B1BE15DEED62C41B91E1B3E9AFAAA735036547343A925075041DF0A9979E893B391F8FCFA6967B3EFB644DCF6E5CEBFAE272625DCC6FAF3FB93793C5F90CE1EF57
310
407342756B10D1C489E8953CD1617E5CEECAD6F4EF8914CE5D5D504E5C3F1F9736DA62CFC11E00BCDDB8CC8A9466349744C1F75EBDA4DF09BA8A9E8C7A7E9991989E20E5DBDD6A6003664ED8F7A04A8DBE0DF6EAD9B9AA858342E47399053949D2C146EDB85DE4B176BB0965FBAC19BD19AA918E27FA50C1D22402E144464C
310
59462568E704B6E71915404CB72B8FF4EDE184DDAF753F284990D2C6926782963815403548A70C657FDEF80D2D9CEAA2AE4C1C76F60BFE74219A06527D6582DF6412526107381E55E353090704D085B52408D0933C4ED159D79BDA71BB4BC506F4831350EB6F979CD22D69BF7AC49B91A2C0A9DDA3D5CA36AD20FC478E37E6
310
1844E2352865EBCB6EA275A652E3836BE04EFB400BF1A2556F515F1FBB35B2AB35BD889C744FFA1004B5544B121E57F70215746DD2F5E2C1412B602CBF19455AC6C8E5E9922C4E01E65215385004546899059180EAFCF7A707CE7017CD8CDB0410789AB32C63B91E5CEBBBACB17AC6CD347A022D5075FD106377347AAABA7E
310
7D11590744509B44E205134DC1290F06580320F78E537D3D73540E06CB970B431F185308AD40BBD794D6D77003C5A36E8EAA54BA64597CD8F83BD552A080A365F7FF06504B0304140006080000CC70623B000000000000000000000000350000006662782F39464131463745442D413632322D343644302D413938332D3331
310
353338454246344243312F76657274696365732E62696E504B0304140006080800CC70623BF270F1330600000004000000360000006662782F39464131463745442D413632322D343644302D413938332D3331353338454246344243312F747269616E676C65732E62696E636660600000504B0304140006080000CC70623B
310
000000000000000000000000370000006662782F39464131463745442D413632322D343644302D413938332D3331353338454246344243312F617474726962757465732E62696E504B0304140006080800CC70623B08DA0BD19000000041010000360000006662782F39464131463745442D413632322D343644302D413938
310
332D3331353338454246344243312F6469726563746F72792E786D6C858F410AC3201045AF22B36F53E9A60B35CBEEBAE80D244E44489C6234F4F835464A48035D0DF398FF9F8AF63D0E6CC63039F212F8F9020C7D47C6792B21C5FE7403D62A1188E2E60C98D7234A5830286103A55745067B9D86B8A3CF9C7F90C11DE607
310
FB144396D7B6A82D282E9A152AD114D5EF2CB866EEE831B8EEA07A7BB5A8D7D61A2BAAEB7FD5F70921FF497D00504B0304140006080800CC70623B0D6EF93BFE000000A00100003B0000006662782F39464131463745442D413632322D343644302D413938332D3331353338454246344243312F7265736F75726365732F63
310
6F72652E786D6C8D50596E833010BD0A9ADFCA60B334011947A8694ED00B586642AC041B79A97AFC9A40A5F6AF3F33A3B7689E1E3F7DCD8FEC139DD7D6F4C0720A191A65476DA61E62B892236427C19DB5E1970C322367EC618541F0C9D9B8EC90B226A009093576C41D94DE63804C3DD2D18357379C652E63480A7FCF17A9
310
EE72C29CE5894E3AC17D702940B63D59270887DE46A7D0F36263058F518FBB468FE9A7BE6A7420864373B8D4873369AA8691FA421B3294352543C5CAF65C0F6FEF43CB8BD52C78D0F34F46E550061C419494B6843142CB0F5677F4B52BEB177AEC28E5C52AFF638ACBF84F53D42654E51E77B379102C05791282176B5F693D
310
CB4C7BED567C03504B010214000A0000080000CC70623B3DEE336E79000000790000001B00000000000000000000000000000000006175746F6465736B2D64657369676E2D7061636B6167652E786D6C504B01021400140006080800CC70623BD486FD9CA0000000F40000001300000000000000000000000000B20000005B
310
436F6E74656E745F54797065735D2E786D6C504B01021400140006080800CC70623B1EC5D7A3EB0000007C010000080000000000000000000000000083010000636F72652E786D6C504B01021400140006080800CC70623B55019EA25F0000007C000000070000000000000000000000000094020000636E782E786D6C504B
310
01021400140006080800CC70623B8C9102E971010000D40300000C00000000000000000000000000180300006662782F636F72652E786D6C504B01021400140006080800CC70623BFFEA85907E0000009D0000000B00000000000000000000000000B30400006662782F636E782E786D6C504B01021400140006080800CC70
310
623B4FEEA4082C0100001202000031000000000000000000000000005A0500006662782F39464131463745442D413632322D343644302D413938332D3331353338454246344243312F636F72652E786D6C504B01021400140006080800CC70623BAD7543B64E010000330300003000000000000000000000000000D5060000
310
6662782F39464131463745442D413632322D343644302D413938332D3331353338454246344243312F636E782E786D6C504B01021400140006080800CC70623B16AB87BA640500003C1000003400000000000000000000000000710800006662782F39464131463745442D413632322D343644302D413938332D3331353338
310
454246344243312F6F626A656374732E786D6C504B01021400140006080000CC70623B0000000000000000000000003500000000000000000000000000270E00006662782F39464131463745442D413632322D343644302D413938332D3331353338454246344243312F76657274696365732E62696E504B01021400140006
310
080800CC70623BF270F133060000000400000036000000000000000000000000007A0E00006662782F39464131463745442D413632322D343644302D413938332D3331353338454246344243312F747269616E676C65732E62696E504B01021400140006080000CC70623B0000000000000000000000003700000000000000
310
000000000000D40E00006662782F39464131463745442D413632322D343644302D413938332D3331353338454246344243312F617474726962757465732E62696E504B01021400140006080800CC70623B08DA0BD190000000410100003600000000000000000000000000290F00006662782F39464131463745442D413632
310
322D343644302D413938332D3331353338454246344243312F6469726563746F72792E786D6C504B01021400140006080800CC70623B0D6EF93BFE000000A00100003B000000000000000000000000000D1000006662782F39464131463745442D413632322D343644302D413938332D3331353338454246344243312F7265
310
736F75726365732F636F72652E786D6C504B0506000000000E000E0080040000641100000000
  0
XRECORD
  5
175
102
{ACAD_REACTORS
330
173
102
}
330
173
100
AcDbXrecord
280
     1
270
     1
271
     1
  0
XRECORD
  5
174
102
{ACAD_REACTORS
330
173
102
}
330
173
100
AcDbXrecord
280
     1
270
     1
271
     1
  0
XRECORD
  5
1FB
102
{ACAD_REACTORS
330
173
102
}
330
173
100
AcDbXrecord
280
     1
 70
     0
 90
1673772943
  1
ECE7A1D2-D628-4531-984C-D00F80459256
310
504B03040A0000080000CC70623B3DEE336E79000000790000001B0000006175746F6465736B2D64657369676E2D7061636B6167652E786D6C3C3F786D6C2076657273696F6E3D22312E302220656E636F64696E673D227574662D3822203F3E3C666F726D6174733E3C666F726D61743E687474703A2F2F736368656D612E
310
6175746F6465736B2E636F6D2F64657369676E2D7061636B6167652F323030393C2F666F726D61743E3C2F666F726D6174733E504B0304140006080800CC70623BD486FD9CA0000000F4000000130000005B436F6E74656E745F54797065735D2E786D6C7D8EC10E82300C865F65E91D8A1E8C310C0EEA1BF002731658846E
310
D98AC1B77784ABF1D8FE5FBFBF75BBCE937A534CCEB38643598122B6FEE978D0B0485F9C41B54DDD7D022595594E1A469170414C76A4D9A4D207E29CF43ECE46F218070CC6BECC4078ACAA135ACF422C856C0E68EA1BF5669944DDD7BCDE7B1F8E415D77AECB980613C2E4AC91FC167A2B244592486606FC29C8FD7F045B9A
310
EF7053A7E60B504B0304140006080800CC70623BD9DDAED0EC0000007C01000008000000636F72652E786D6C8D90416EC3201045AF82665B61836D9CD8C2444DD39CA01740405C94182C03558F5F9C3852BBEB6A467FFE9B197D7EF89E6EE8CB2CC17A37002D0820E394D7D68D03A478C17B4007C117EFE32F1B20272733C0
310
2A83E0E3E2D3BC49CABB685CCCAAF3DA6CA20CC14440EA969B0182FA34932C648AD911AEC52CD5558EA6A0CF2EC329598D1E47ACCEFBECC59A050463A7EA5833865FEBDD0E37353BE3EE8DBDE3F6786A48D375FBF6CC78B9C282473B3DEFABC5C86834888A900E538A49F5419B9EB47DD5BC907D4F082F57FB1F28CDFA9F50
310
B22ED6D5F6EE030B20687EE43E10BC5CB3C8E51E54AE6B6EE207504B0304140006080800CC70623B55019EA25F0000007C00000007000000636E782E786D6C4DCB3B0E80201045D1AD90E915ED2CF8AC45050C11660C8261F98AB1B07AC9C97D42D718D865D3E909258CFD00CCE24AC6E326A164D74DC0B4128928FF326038
310
472BA13128B1252AC747C6BAB984FC68F0B87FE8960A5C09FE86CFB69FBA01504B0304140006080800CC70623BA24EB22D72010000D40300000C0000006662782F636F72652E786D6CC5535B6E833010BC8AE5DF0A6C5E49888CA3A6694ED00B38E05014B091B1518EDFE511A5A9D228FD2A1F60CDEC7A67C6986DCE4D8D7A
310
69BA4AAB0C073EC548AA5C17952A33ECECD15B61B4E1CC686DBF9561A44423333CC098B3D268D7CE50AE9595CA02AA74216750749DB418E5352C32DCE59FB211BE70162ABA93DF8AFC244AE9073ED050C759670D0840D390E18DF9F1706664C23973AE2A66B62A605A75ACA4C13C4976E1364A12EF355A2EBD384AF65EFA96
310
BC7B8BED2EA6719AAE16FB8491A199335B351775B991C2CA02F390D2D40B028F861F41BCA68B7518BFD0D59A524686F29B26D7164F36B94AD9289CE54E6D1DE6010819891F6E21228B3AD1831EC219194284CF98F06DD01008846CC5A1BEF83801D4CBDC6A1303536877A57A513B0953A94FC707FDBE6064EA84A9E3E6E0FA
310
EE8CF0E9198F7784A316AA0413C2C2F2E0ECA0934D1AE6D05A69BCDE9E91D2A611F573361E38FC1375157F5752AE6B6DFE4B11990F88CCBF0719EE23FF02504B0304140006080800CC70623B408A7D3B7C0000009D0000000B0000006662782F636E782E786D6C4DCCD10A83201886E15B91FFDC552A92A0064DBC8F581632
310
D3703A76F9ABD1C18E3E78F878E5F0D9027ABBFCF2292AE86E2D20171F69F6715550CB827B40839639A5F2770314A7CD293819B45C73AAFB45B35BA61ACAA1C1C7E7855C58C15BC331339661262CC762340413D68D77DA5B42298546CBE6573AF60CEB2F504B0304140006080800CC70623B449FB9BD290100001202000031
310
0000006662782F36394639363044362D344446342D343946362D394244322D3234314243333846323333332F636F72652E786D6C8D515B6EC32010BC0AE22B55850D98B871848994463E412FE002495162B07854397EA176A4F62F3F2C9A9D991D587EB84F37F0AD7D30CEF6905418026DA553C65E7A98E219ED203808EE9D
310
8B7F6810D871D23D2C3014FCE25D9A57483A1BB58D19B54EE9151C43D0110279CB971E06F9A5A7B11A53CC8C70ADE6515EC78BAE4895DB992778883E0700CB907242D17643D7E2538BD869608875438BBAE38922CAC8F1BDD90DB4691A5E2F42C153326A951B95E398B3D1FE599322163C9AE9115F7A3D46ADA0A018778810
310
84E907617BDCEE297BC5BB3DC6BC2EF47FA234AB2745C9D8D8D035EE220B50105E2F0DC1954B9FB747187D9F9D8FA0CCDB042D5FA0C015C65B42DF78BD10F3F3B363CB56C7109DCFDFBBB97E662ED92EB62D13BC2E1BCAE5777DB9966D8A1F504B0304140006080800CC70623BAD7543B64E01000033030000300000006662
310
782F36394639363044362D344446342D343946362D394244322D3234314243333846323333332F636E782E786D6CD593CD6EC32010845F0571AD6CE3D48AD20813A9873E410FBD12D82434182C7EAAE6EDBB2424CD25871E7B41D6EC30B3FA84F9E67BB2E40B4234DE8DB46F1925E094D7C6ED479AD3AE5951B2113C789FEE
310
6C943839C1488B4C05DF079FE72A69D8C96C13AAD6B8631503449F83828872B949AC57D26200B826A308D316B4064D6E46FCDA41C05550DC9E483A00797BFD207EFB092A45DE9514C1BBD22178396BD39D891265658C238DEA00936C654E5E433CB65A26D9F6EDB5EBC14EBF49A45CB856E66048291F6939A9A81BB5C89177
310
38143CA680F4AA299D66A042CEB3354A2684DC9D8D178FE0D9B8B41CAAD720F880EE7EF93C0C18769E099ECC04D5A102C8049A8A05632F4DDF376CF1DE0F6BB65C2F8627B65A33C6BB62177CEBBDAD973006829F89F22E814B54F4BC2BE347F8AA8F681390B50FA73F804400B5F542E796F19FF974E7F78DB802FE05E20750
310
4B0304140006080800CC70623B8D05915C650500003B100000340000006662782F36394639363044362D344446342D343946362D394244322D3234314243333846323333332F6F626A656374732E786D6CAD575B6FA33814FE2B887D06429276DA1565D4266D158D3A339A6846FB502932E050B66023DB74D2FDF5FB190C01
310
9276B2973C046C8ECFF53B17071F77456EBD502133CEAE6CDF9DD81665314F32965ED995DA3A17B6F5310C04E7AA47665B8C14F4CAD6DB7618A48257A5D94AE89654B91AEDDEDDFC61C998326A5B714EA4BCB265FC440BE2924AF184CA6737218AB8E976E7FA6E4338649B0A523E8D98964450A6A029F619B8588D52FE7039
310
B1BD30F0F4F730D0FF866AF6369557DB33949F31A9088B0F848DD8CCFCF9F2767A76E99CCDE733677E3EF59D9BBB9BA5E37F984D16E78BC5E5F5ED25044B25C0C96822E8D60EEFE11B91C581D77CEA34368A1F5329E68CD1B8B61F16D63A1B8E092D294B10C78C4A48EB593D192E7DED9BDEE7995E1B91FDEDD3ACEA9FE831
310
6A756F9F7D4D79F4274C90A7A04248AA51D5F8C718DAE06FB2F75AC4796EBE65D22A88A22223B995679120E2D50E41AA49C260C046A35368846B0BECD0DFF3EBEB8AD4F835768F69B9ADF25C43D30E6B646F807FAA64AD59F61715C7A54127C4AACA98BA3006A9D792DAE165E0D59B61A01FB3A9F9D838D2DAE62445C86166
310
F37564E842E7DE6A69879FEEA2DD5AE7E371E1A5E025154AC307D06A03D73EB5978C58FFA4C8E9033066E0F3BD53BEC1F39F91BE7B55103791EDE6BBB991A2046172CB4581D8B893FA674DDA17A77B3B7C413D1B511FD2743BFF8A38F03A658705E3ADF8015C3A3417FF3D7E439FF591DA0B5F18BC20C1B8981957AE6392A3
310
F43C640C01D1A0B4728E2DD4F26DB4B3C3152A252A3B4E913CEC1C72F012782FF88EFF8637AA552DBEF76408E8A8DE9E50F9E1CB3A2DA0DB1B6039A893B56063DC5B3E3FFB5F72E67AB9FEB4AEC496C4F4C1149625DD662C53E89D7BF0F6151A046260D1337DFDC94502430F83B0EE07A130A224BCAD7DAE1D9FB6CD422FF6
310
920702629C4BB9AE79C12F243C6432A6794E18E5552BA56B431AAB5D91317302B2B071E86C3A42B1A02F999E24061403B5D0EB639195DA655DD3EBEAB4FB862DDF579F014AD0E73C22F99E28DA57FB98E75C6CA2D74D53086D600F4786E0FE3144B771A8A7B900F03594DB8A633CBC49B2EDB69228BB479CF863B5E807AAAB
310
23872F6DFEB4129B949CA33823F58830E86D65621E10047D9DB34D862E8EAC3C2ABC2F7B2C40D67CDFE01F5545B92105AF983AC54D93D69E56FB8E797F88913F898A9FEC705D3F9D1B54EC8426FB500D40A03BD0119B06E1B95DDC7EB8F6975367793EBD70E66733DFB9BC982F9CE564727731999F5D4ECFCE3B8D6A4DC2A0
310
6D50FD148437D110834A64C6CDDF57FBACB5C307A2A477DFE4939736CFEF2B175371E0E10CF0DD1D5C15654E0BCA14D1E87DD02FF93782A162C0A3D95F1524A52770F972BF1EE9809D13CE7DD599467F8ECE9ADD85CE85A34CD45355448C64F9E8A031DC2D596ACC6E5DD93D9B82DE2EF5CAF81363A8E47996A0DE24564A79
310
4115AACE09C55E14540231FDA13C319787134EBF34E3A022514E5B4D9E0826E25C02D5805B15ABE1BEF51B26383D445DD9E875EE33FE4C22DA16427D65A3BCA92CA6D28DD01DF5DC53330704308475351050232CCD31583787BA75774AFB06E5070DD0C8EF484E19968C5D83BA5B90B244D31E54D55A372320FE4786B7EA58
310
44E135AA5467CB7EA333A61683CC6A8C3257034C10CF46F40EF9F5BE59BE5BD30C3C72D235E95D10345C1D45445A5F0BB47E46A5EBE5570F9380B5FA629579952296A773720405982B9DE04011506178964401AA8BDF1FBF0A8EAB6861DD6580C0E38217056766716DAEB2D6FA0917D3E4116581EADB879C4E7CFFB11EFACD
310
3D641311495D92C8676CB409A72D18610D803CE8A626049E8EC1887CB5B44CC39883690DDA8399B4B9855B481E7D71D4A9D22F96E5BB73BF5793020C02137BF837504B0304140006080000CC70623B000000000000000000000000350000006662782F36394639363044362D344446342D343946362D394244322D32343142
310
43333846323333332F76657274696365732E62696E504B0304140006080800CC70623BF270F1330600000004000000360000006662782F36394639363044362D344446342D343946362D394244322D3234314243333846323333332F747269616E676C65732E62696E636660600000504B0304140006080000CC70623B0000
310
00000000000000000000370000006662782F36394639363044362D344446342D343946362D394244322D3234314243333846323333332F617474726962757465732E62696E504B0304140006080800CC70623B08DA0BD19000000041010000360000006662782F36394639363044362D344446342D343946362D394244322D
310
3234314243333846323333332F6469726563746F72792E786D6C858F410AC3201045AF22B36F53E9A60B35CBEEBAE80D244E44489C6234F4F835464A48035D0DF398FF9F8AF63D0E6CC63039F212F8F9020C7D47C6792B21C5FE7403D62A1188E2E60C98D7234A5830286103A55745067B9D86B8A3CF9C7F90C11DE607FB14
310
4396D7B6A82D282E9A152AD114D5EF2CB866EEE831B8EEA07A7BB5A8D7D61A2BAAEB7FD5F70921FF497D00504B0304140006080800CC70623BCA768048FE000000A00100003B0000006662782F36394639363044362D344446342D343946362D394244322D3234314243333846323333332F7265736F75726365732F636F72
310
652E786D6C8D50596E833010BD0A9ADFCA60D600328E9AA639412F609909B1126CE4A5EAF16B0295DABFFECC8CDEA2797AECF8353F924FB44E193D409E5248504B332A3D0D10FC95B4901C39B3C6F85F3248B49871801506CE266BC2B243D2688FDA47549B11775038871E12F988C7004EDE7016A9083E2ADC3D5D84BC8B09
310
D33C8D74D471E6BC8D0192EDC93A815B742658898E651BCB59086ADC356A8C3FD555A1055ED7E7E254D615792D0F075295F585746FF53B694EE78A565DD736979A65AB9933AFE69F8CD2A2F038022F28ED489E135A7CE4554F9BBEA85E68DB53CAB255FEC71496F19FA6A0B42F8B3DEE6673C0F318E4497096AD7DC5F52C33
310
EEB55BFE0D504B010214000A0000080000CC70623B3DEE336E79000000790000001B00000000000000000000000000000000006175746F6465736B2D64657369676E2D7061636B6167652E786D6C504B01021400140006080800CC70623BD486FD9CA0000000F40000001300000000000000000000000000B20000005B436F
310
6E74656E745F54797065735D2E786D6C504B01021400140006080800CC70623BD9DDAED0EC0000007C010000080000000000000000000000000083010000636F72652E786D6C504B01021400140006080800CC70623B55019EA25F0000007C000000070000000000000000000000000095020000636E782E786D6C504B0102
310
1400140006080800CC70623BA24EB22D72010000D40300000C00000000000000000000000000190300006662782F636F72652E786D6C504B01021400140006080800CC70623B408A7D3B7C0000009D0000000B00000000000000000000000000B50400006662782F636E782E786D6C504B01021400140006080800CC70623B
310
449FB9BD290100001202000031000000000000000000000000005A0500006662782F36394639363044362D344446342D343946362D394244322D3234314243333846323333332F636F72652E786D6C504B01021400140006080800CC70623BAD7543B64E010000330300003000000000000000000000000000D20600006662
310
782F36394639363044362D344446342D343946362D394244322D3234314243333846323333332F636E782E786D6C504B01021400140006080800CC70623B8D05915C650500003B10000034000000000000000000000000006E0800006662782F36394639363044362D344446342D343946362D394244322D32343142433338
310
46323333332F6F626A656374732E786D6C504B01021400140006080000CC70623B0000000000000000000000003500000000000000000000000000250E00006662782F36394639363044362D344446342D343946362D394244322D3234314243333846323333332F76657274696365732E62696E504B010214001400060808
310
00CC70623BF270F13306000000040000003600000000000000000000000000780E00006662782F36394639363044362D344446342D343946362D394244322D3234314243333846323333332F747269616E676C65732E62696E504B01021400140006080000CC70623B00000000000000000000000037000000000000000000
310
00000000D20E00006662782F36394639363044362D344446342D343946362D394244322D3234314243333846323333332F617474726962757465732E62696E504B01021400140006080800CC70623B08DA0BD190000000410100003600000000000000000000000000270F00006662782F36394639363044362D344446342D
310
343946362D394244322D3234314243333846323333332F6469726563746F72792E786D6C504B01021400140006080800CC70623BCA768048FE000000A00100003B000000000000000000000000000B1000006662782F36394639363044362D344446342D343946362D394244322D3234314243333846323333332F7265736F
310
75726365732F636F72652E786D6C504B0506000000000E000E0080040000621100000000
  0
XRECORD
  5
176
102
{ACAD_REACTORS
330
173
102
}
330
173
100
AcDbXrecord
280
     1
270
     1
271
     1
  0
XRECORD
  5
177
102
{ACAD_REACTORS
330
173
102
}
330
173
100
AcDbXrecord
280
     1
270
     1
271
     1
  0
XRECORD
  5
9F4
102
{ACAD_REACTORS
330
9F3
102
}
330
9F3
100
AcDbXrecord
280
     1
102
DISPLAYNAME
  1
Imperial24
102
FLAGS
 90
        0
  0
XRECORD
  5
9F0
102
{ACAD_REACTORS
330
9EF
102
}
330
9EF
100
AcDbXrecord
280
     1
102
DISPLAYNAME
  1
Metric50
102
FLAGS
 90
        0
  0
CELLSTYLEMAP
  5
9E5
102
{ACAD_REACTORS
330
162
102
}
330
162
100
AcDbCellStyleMap
 90
        3
300
CELLSTYLE
  1
TABLEFORMAT_BEGIN
 90
        5
170
     1
 91
        0
 92
    32768
 62
   257
 93
        1
300
CONTENTFORMAT
  1
CONTENTFORMAT_BEGIN
 90
        0
 91
        0
 92
      512
 93
        0
300

 40
0.0
140
1.0
 94
        5
 62
     0
340
11
144
6.0
309
CONTENTFORMAT_END
171
     1
301
MARGIN
  1
CELLMARGIN_BEGIN
 40
1.5
 40
1.5
 40
1.5
 40
1.5
 40
0.18
 40
0.18
309
CELLMARGIN_END
 94
        6
 95
        1
302
GRIDFORMAT
  1
GRIDFORMAT_BEGIN
 90
        0
 91
        1
 62
     0
 92
       -2
340
14
 93
        0
 40
1.125
309
GRIDFORMAT_END
 95
        2
302
GRIDFORMAT
  1
GRIDFORMAT_BEGIN
 90
        0
 91
        1
 62
     0
 92
       -2
340
14
 93
        0
 40
1.125
309
GRIDFORMAT_END
 95
        4
302
GRIDFORMAT
  1
GRIDFORMAT_BEGIN
 90
        0
 91
        1
 62
     0
 92
       -2
340
14
 93
        0
 40
1.125
309
GRIDFORMAT_END
 95
        8
302
GRIDFORMAT
  1
GRIDFORMAT_BEGIN
 90
        0
 91
        1
 62
     0
 92
       -2
340
14
 93
        0
 40
1.125
309
GRIDFORMAT_END
 95
       16
302
GRIDFORMAT
  1
GRIDFORMAT_BEGIN
 90
        0
 91
        1
 62
     0
 92
       -2
340
14
 93
        0
 40
1.125
309
GRIDFORMAT_END
 95
       32
302
GRIDFORMAT
  1
GRIDFORMAT_BEGIN
 90
        0
 91
        1
 62
     0
 92
       -2
340
14
 93
        0
 40
1.125
309
GRIDFORMAT_END
309
TABLEFORMAT_END
  1
CELLSTYLE_BEGIN
 90
        1
 91
        1
300
_TITLE
309
CELLSTYLE_END
300
CELLSTYLE
  1
TABLEFORMAT_BEGIN
 90
        5
170
     1
 91
        0
 92
        0
 62
   257
 93
        1
300
CONTENTFORMAT
  1
CONTENTFORMAT_BEGIN
 90
        0
 91
        0
 92
      512
 93
        0
300

 40
0.0
140
1.0
 94
        5
 62
     0
340
11
144
4.5
309
CONTENTFORMAT_END
171
     1
301
MARGIN
  1
CELLMARGIN_BEGIN
 40
1.5
 40
1.5
 40
1.5
 40
1.5
 40
0.18
 40
0.18
309
CELLMARGIN_END
 94
        6
 95
        1
302
GRIDFORMAT
  1
GRIDFORMAT_BEGIN
 90
        0
 91
        1
 62
     0
 92
       -2
340
14
 93
        0
 40
1.125
309
GRIDFORMAT_END
 95
        2
302
GRIDFORMAT
  1
GRIDFORMAT_BEGIN
 90
        0
 91
        1
 62
     0
 92
       -2
340
14
 93
        0
 40
1.125
309
GRIDFORMAT_END
 95
        4
302
GRIDFORMAT
  1
GRIDFORMAT_BEGIN
 90
        0
 91
        1
 62
     0
 92
       -2
340
14
 93
        0
 40
1.125
309
GRIDFORMAT_END
 95
        8
302
GRIDFORMAT
  1
GRIDFORMAT_BEGIN
 90
        0
 91
        1
 62
     0
 92
       -2
340
14
 93
        0
 40
1.125
309
GRIDFORMAT_END
 95
       16
302
GRIDFORMAT
  1
GRIDFORMAT_BEGIN
 90
        0
 91
        1
 62
     0
 92
       -2
340
14
 93
        0
 40
1.125
309
GRIDFORMAT_END
 95
       32
302
GRIDFORMAT
  1
GRIDFORMAT_BEGIN
 90
        0
 91
        1
 62
     0
 92
       -2
340
14
 93
        0
 40
1.125
309
GRIDFORMAT_END
309
TABLEFORMAT_END
  1
CELLSTYLE_BEGIN
 90
        2
 91
        1
300
_HEADER
309
CELLSTYLE_END
300
CELLSTYLE
  1
TABLEFORMAT_BEGIN
 90
        5
170
     1
 91
        0
 92
        0
 62
   257
 93
        1
300
CONTENTFORMAT
  1
CONTENTFORMAT_BEGIN
 90
        0
 91
        0
 92
      512
 93
        0
300

 40
0.0
140
1.0
 94
        2
 62
     0
340
11
144
4.5
309
CONTENTFORMAT_END
171
     1
301
MARGIN
  1
CELLMARGIN_BEGIN
 40
1.5
 40
1.5
 40
1.5
 40
1.5
 40
0.18
 40
0.18
309
CELLMARGIN_END
 94
        6
 95
        1
302
GRIDFORMAT
  1
GRIDFORMAT_BEGIN
 90
        0
 91
        1
 62
     0
 92
       -2
340
14
 93
        0
 40
1.125
309
GRIDFORMAT_END
 95
        2
302
GRIDFORMAT
  1
GRIDFORMAT_BEGIN
 90
        0
 91
        1
 62
     0
 92
       -2
340
14
 93
        0
 40
1.125
309
GRIDFORMAT_END
 95
        4
302
GRIDFORMAT
  1
GRIDFORMAT_BEGIN
 90
        0
 91
        1
 62
     0
 92
       -2
340
14
 93
        0
 40
1.125
309
GRIDFORMAT_END
 95
        8
302
GRIDFORMAT
  1
GRIDFORMAT_BEGIN
 90
        0
 91
        1
 62
     0
 92
       -2
340
14
 93
        0
 40
1.125
309
GRIDFORMAT_END
 95
       16
302
GRIDFORMAT
  1
GRIDFORMAT_BEGIN
 90
        0
 91
        1
 62
     0
 92
       -2
340
14
 93
        0
 40
1.125
309
GRIDFORMAT_END
 95
       32
302
GRIDFORMAT
  1
GRIDFORMAT_BEGIN
 90
        0
 91
        1
 62
     0
 92
       -2
340
14
 93
        0
 40
1.125
309
GRIDFORMAT_END
309
TABLEFORMAT_END
  1
CELLSTYLE_BEGIN
 90
        3
 91
        2
300
_DATA
309
CELLSTYLE_END
  0
ENDSEC
  0
SECTION
  2
ACDSDATA
 70
     2
 71
     8
  0
ACDSSCHEMA
 90
        0
  1
AcDb_Thumbnail_Schema
  2
AcDbDs::ID
280
    10
 91
        8
  2
Thumbnail_Data
280
    15
 91
        0
101
ACDSRECORD
 95
        0
 90
        1
  2
AcDbDs::TreatedAsObjectData
280
     1
291
     1
101
ACDSRECORD
 95
        0
 90
        2
  2
AcDbDs::Legacy
280
     1
291
     1
101
ACDSRECORD
  1
AcDbDs::ID
 90
        3
  2
AcDs:Indexable
280
     1
291
     1
101
ACDSRECORD
  1
AcDbDs::ID
 90
        4
  2
AcDbDs::HandleAttribute
280
     7
282
     1
  0
ACDSSCHEMA
 90
        1
  1
AcDbDs::TreatedAsObjectDataSchema
  2
AcDbDs::TreatedAsObjectData
280
     1
 91
        0
  0
ACDSSCHEMA
 90
        2
  1
AcDbDs::LegacySchema
  2
AcDbDs::Legacy
280
     1
 91
        0
  0
ACDSSCHEMA
 90
        3
  1
AcDbDs::IndexedPropertySchema
  2
AcDs:Indexable
280
     1
 91
        0
  0
ACDSSCHEMA
 90
        4
  1
AcDbDs::HandleAttributeSchema
  2
AcDbDs::HandleAttribute
280
     7
 91
        1
284
     1
  0
ACDSRECORD
 90
        0
  2
AcDbDs::ID
280
    10
320
22
  2
Thumbnail_Data
280
    15
 94
     1102
310
89504E470D0A1A0A0000000D4948445200000100000000680803000000297CDED700000300504C5445212830FFFFFF2128300000000000000000000000000000000000000000000000000000330000660000990000CC0000FF0033000033330033660033990033CC0033FF0066000066330066660066990066CC0066FF0099
310
000099330099660099990099CC0099FF00CC0000CC3300CC6600CC9900CCCC00CCFF00FF0000FF3300FF6600FF9900FFCC00FFFF3300003300333300663300993300CC3300FF3333003333333333663333993333CC3333FF3366003366333366663366993366CC3366FF3399003399333399663399993399CC3399FF33CC00
310
33CC3333CC6633CC9933CCCC33CCFF33FF0033FF3333FF6633FF9933FFCC33FFFF6600006600336600666600996600CC6600FF6633006633336633666633996633CC6633FF6666006666336666666666996666CC6666FF6699006699336699666699996699CC6699FF66CC0066CC3366CC6666CC9966CCCC66CCFF66FF0066
310
FF3366FF6666FF9966FFCC66FFFF9900009900339900669900999900CC9900FF9933009933339933669933999933CC9933FF9966009966339966669966999966CC9966FF9999009999339999669999999999CC9999FF99CC0099CC3399CC6699CC9999CCCC99CCFF99FF0099FF3399FF6699FF9999FFCC99FFFFCC0000CC00
310
33CC0066CC0099CC00CCCC00FFCC3300CC3333CC3366CC3399CC33CCCC33FFCC6600CC6633CC6666CC6699CC66CCCC66FFCC9900CC9933CC9966CC9999CC99CCCC99FFCCCC00CCCC33CCCC66CCCC99CCCCCCCCCCFFCCFF00CCFF33CCFF66CCFF99CCFFCCCCFFFFFF0000FF0033FF0066FF0099FF00CCFF00FFFF3300FF3333
310
FF3366FF3399FF33CCFF33FFFF6600FF6633FF6666FF6699FF66CCFF66FFFF9900FF9933FF9966FF9999FF99CCFF99FFFFCC00FFCC33FFCC66FFCC99FFCCCCFFCCFFFFFF00FFFF33FFFF66FFFF99FFFFCCFFFFFF0000000D0D0D1A1A1A2828283535354343435050505D5D5D6B6B6B787878868686939393A1A1A1AEAEAEBB
310
BBBBC9C9C9D6D6D6E4E4E4F1F1F1FFFFFF0000000000000000000000000000000000000000000000000000000000002E4550F1000001094944415478DAEDDA410E82301005D0DEFFBEB337524041C1B820C6FEF7620CA661E177DA0E606B000000C0756A7A1D0E564000D504901C0000EBAA7F2780F400A6CD3F3387FEADEB
310
BC3D1EBF00922BE0D1FF0A203E80A60204101D404B9F022DBC02CA1408EF042B7B1B8CAD82A50220730148BF19D433A8F92DB402963DD0420804F4BDD96D5FBFED536B031C17452D57FDF341602D3CFFE899ADCF46EEF5FFFEF0A524C60DA7DABA13BC0FA00F0E1BC0E91448981F75F8E1D3A00006ABFE4DAD1F8F8CDA02EC
310
DBC3AF4E182C80AA939188005A7A00E91510BF0658042D8216C198007482179FF0AF1550955101F0665244FF4160DE01921F93CC1590FB98040000000000007EE006C20ECA7B4EF4B0C80000000049454E44AE426082
  0
ENDSEC
  0
EOF
