  0
SECTION
  2
HEADER
  9
$ACADVER
  1
AC1027
  9
$ACADMAINTVER
 70
   125
  9
$DWGCODEPAGE
  3
ANSI_1252
  9
$LASTSAVEDBY
  1
andrea.ragusa
  9
$REQUIREDVERSIONS
160
                 0
  9
$INSBASE
 10
0.0
 20
0.0
 30
0.0
  9
$EXTMIN
 10
-0.0128164049386896
 20
0.0815741779300652
 30
-0.0015258207003583
  9
$EXTMAX
 10
20.71929982947108
 20
10.93537938680424
 30
0.0000000349246037
  9
$LIMMIN
 10
0.0
 20
0.0
  9
$LIMMAX
 10
420.0
 20
297.0
  9
$ORTHOMODE
 70
     0
  9
$REGENMODE
 70
     1
  9
$FILLMODE
 70
     1
  9
$QTEXTMODE
 70
     0
  9
$MIRRTEXT
 70
     0
  9
$LTSCALE
 40
1.0
  9
$ATTMODE
 70
     1
  9
$TEXTSIZE
 40
2.5
  9
$TRACEWID
 40
1.0
  9
$TEXTSTYLE
  7
Standard
  9
$CLAYER
  8
0
  9
$CELTYPE
  6
ByLayer
  9
$CECOLOR
 62
   256
  9
$CELTSCALE
 40
1.0
  9
$DISPSILH
 70
     0
  9
$DIMSCALE
 40
1.0
  9
$DIMASZ
 40
2.5
  9
$DIMEXO
 40
0.625
  9
$DIMDLI
 40
3.75
  9
$DIMRND
 40
0.0
  9
$DIMDLE
 40
0.0
  9
$DIMEXE
 40
1.25
  9
$DIMTP
 40
0.0
  9
$DIMTM
 40
0.0
  9
$DIMTXT
 40
2.5
  9
$DIMCEN
 40
2.5
  9
$DIMTSZ
 40
0.0
  9
$DIMTOL
 70
     0
  9
$DIMLIM
 70
     0
  9
$DIMTIH
 70
     0
  9
$DIMTOH
 70
     0
  9
$DIMSE1
 70
     0
  9
$DIMSE2
 70
     0
  9
$DIMTAD
 70
     1
  9
$DIMZIN
 70
     8
  9
$DIMBLK
  1

  9
$DIMASO
 70
     1
  9
$DIMSHO
 70
     1
  9
$DIMPOST
  1

  9
$DIMAPOST
  1

  9
$DIMALT
 70
     0
  9
$DIMALTD
 70
     3
  9
$DIMALTF
 40
0.03937007874016
  9
$DIMLFAC
 40
1.0
  9
$DIMTOFL
 70
     1
  9
$DIMTVP
 40
0.0
  9
$DIMTIX
 70
     0
  9
$DIMSOXD
 70
     0
  9
$DIMSAH
 70
     0
  9
$DIMBLK1
  1

  9
$DIMBLK2
  1

  9
$DIMSTYLE
  2
ISO-25
  9
$DIMCLRD
 70
     0
  9
$DIMCLRE
 70
     0
  9
$DIMCLRT
 70
     0
  9
$DIMTFAC
 40
1.0
  9
$DIMGAP
 40
0.625
  9
$DIMJUST
 70
     0
  9
$DIMSD1
 70
     0
  9
$DIMSD2
 70
     0
  9
$DIMTOLJ
 70
     0
  9
$DIMTZIN
 70
     8
  9
$DIMALTZ
 70
     0
  9
$DIMALTTZ
 70
     0
  9
$DIMUPT
 70
     0
  9
$DIMDEC
 70
     2
  9
$DIMTDEC
 70
     2
  9
$DIMALTU
 70
     2
  9
$DIMALTTD
 70
     3
  9
$DIMTXSTY
  7
Standard
  9
$DIMAUNIT
 70
     0
  9
$DIMADEC
 70
     0
  9
$DIMALTRND
 40
0.0
  9
$DIMAZIN
 70
     0
  9
$DIMDSEP
 70
    44
  9
$DIMATFIT
 70
     3
  9
$DIMFRAC
 70
     0
  9
$DIMLDRBLK
  1

  9
$DIMLUNIT
 70
     2
  9
$DIMLWD
 70
    -2
  9
$DIMLWE
 70
    -2
  9
$DIMTMOVE
 70
     0
  9
$DIMFXL
 40
1.0
  9
$DIMFXLON
 70
     0
  9
$DIMJOGANG
 40
0.7853981633974483
  9
$DIMTFILL
 70
     0
  9
$DIMTFILLCLR
 70
     0
  9
$DIMARCSYM
 70
     0
  9
$DIMLTYPE
  6

  9
$DIMLTEX1
  6

  9
$DIMLTEX2
  6

  9
$DIMTXTDIRECTION
 70
     0
  9
$LUNITS
 70
     2
  9
$LUPREC
 70
     4
  9
$SKETCHINC
 40
1.0
  9
$FILLETRAD
 40
0.0
  9
$AUNITS
 70
     0
  9
$AUPREC
 70
     0
  9
$MENU
  1
.
  9
$ELEVATION
 40
0.0
  9
$PELEVATION
 40
0.0
  9
$THICKNESS
 40
0.0
  9
$LIMCHECK
 70
     0
  9
$CHAMFERA
 40
0.0
  9
$CHAMFERB
 40
0.0
  9
$CHAMFERC
 40
0.0
  9
$CHAMFERD
 40
0.0
  9
$SKPOLY
 70
     0
  9
$TDCREATE
 40
2459060.505277778
  9
$TDUCREATE
 40
2459060.421944445
  9
$TDUPDATE
 40
2459060.505462963
  9
$TDUUPDATE
 40
2459060.422129630
  9
$TDINDWG
 40
0.0001851852
  9
$TDUSRTIMER
 40
0.0001851852
  9
$USRTIMER
 70
     1
  9
$ANGBASE
 50
0.0
  9
$ANGDIR
 70
     0
  9
$PDMODE
 70
     0
  9
$PDSIZE
 40
0.0
  9
$PLINEWID
 40
0.0
  9
$SPLFRAME
 70
     0
  9
$SPLINETYPE
 70
     6
  9
$SPLINESEGS
 70
     8
  9
$HANDSEED
  5
B6C
  9
$SURFTAB1
 70
     6
  9
$SURFTAB2
 70
     6
  9
$SURFTYPE
 70
     6
  9
$SURFU
 70
     6
  9
$SURFV
 70
     6
  9
$UCSBASE
  2

  9
$UCSNAME
  2

  9
$UCSORG
 10
0.0
 20
0.0
 30
0.0
  9
$UCSXDIR
 10
1.0
 20
0.0
 30
0.0
  9
$UCSYDIR
 10
0.0
 20
1.0
 30
0.0
  9
$UCSORTHOREF
  2

  9
$UCSORTHOVIEW
 70
     0
  9
$UCSORGTOP
 10
0.0
 20
0.0
 30
0.0
  9
$UCSORGBOTTOM
 10
0.0
 20
0.0
 30
0.0
  9
$UCSORGLEFT
 10
0.0
 20
0.0
 30
0.0
  9
$UCSORGRIGHT
 10
0.0
 20
0.0
 30
0.0
  9
$UCSORGFRONT
 10
0.0
 20
0.0
 30
0.0
  9
$UCSORGBACK
 10
0.0
 20
0.0
 30
0.0
  9
$PUCSBASE
  2

  9
$PUCSNAME
  2

  9
$PUCSORG
 10
0.0
 20
0.0
 30
0.0
  9
$PUCSXDIR
 10
1.0
 20
0.0
 30
0.0
  9
$PUCSYDIR
 10
0.0
 20
1.0
 30
0.0
  9
$PUCSORTHOREF
  2

  9
$PUCSORTHOVIEW
 70
     0
  9
$PUCSORGTOP
 10
0.0
 20
0.0
 30
0.0
  9
$PUCSORGBOTTOM
 10
0.0
 20
0.0
 30
0.0
  9
$PUCSORGLEFT
 10
0.0
 20
0.0
 30
0.0
  9
$PUCSORGRIGHT
 10
0.0
 20
0.0
 30
0.0
  9
$PUCSORGFRONT
 10
0.0
 20
0.0
 30
0.0
  9
$PUCSORGBACK
 10
0.0
 20
0.0
 30
0.0
  9
$USERI1
 70
     0
  9
$USERI2
 70
     0
  9
$USERI3
 70
     0
  9
$USERI4
 70
     0
  9
$USERI5
 70
     0
  9
$USERR1
 40
0.0
  9
$USERR2
 40
0.0
  9
$USERR3
 40
0.0
  9
$USERR4
 40
0.0
  9
$USERR5
 40
0.0
  9
$WORLDVIEW
 70
     1
  9
$SHADEDGE
 70
     3
  9
$SHADEDIF
 70
    70
  9
$TILEMODE
 70
     1
  9
$MAXACTVP
 70
    64
  9
$PINSBASE
 10
0.0
 20
0.0
 30
0.0
  9
$PLIMCHECK
 70
     0
  9
$PEXTMIN
 10
0.0
 20
0.0
 30
0.0
  9
$PEXTMAX
 10
0.0
 20
0.0
 30
0.0
  9
$PLIMMIN
 10
0.0
 20
0.0
  9
$PLIMMAX
 10
12.0
 20
9.0
  9
$UNITMODE
 70
     0
  9
$VISRETAIN
 70
     1
  9
$PLINEGEN
 70
     0
  9
$PSLTSCALE
 70
     1
  9
$TREEDEPTH
 70
  3020
  9
$CMLSTYLE
  2
Standard
  9
$CMLJUST
 70
     0
  9
$CMLSCALE
 40
20.0
  9
$PROXYGRAPHICS
 70
     1
  9
$MEASUREMENT
 70
     1
  9
$CELWEIGHT
370
    -1
  9
$ENDCAPS
280
     0
  9
$JOINSTYLE
280
     0
  9
$LWDISPLAY
290
     0
  9
$INSUNITS
 70
     4
  9
$HYPERLINKBASE
  1

  9
$STYLESHEET
  1

  9
$XEDIT
290
     1
  9
$CEPSNTYPE
380
     0
  9
$PSTYLEMODE
290
     1
  9
$FINGERPRINTGUID
  2
{09DE975B-5A4A-6F4A-ACE9-9A5228F50A02}
  9
$VERSIONGUID
  2
{560465EE-5DF5-A14E-8C0A-FBE72CC9F10E}
  9
$EXTNAMES
290
     1
  9
$PSVPSCALE
 40
0.0
  9
$OLESTARTUP
290
     0
  9
$SORTENTS
280
   127
  9
$INDEXCTL
280
     0
  9
$HIDETEXT
280
     1
  9
$XCLIPFRAME
280
     2
  9
$HALOGAP
280
     0
  9
$OBSCOLOR
 70
   257
  9
$OBSLTYPE
280
     0
  9
$INTERSECTIONDISPLAY
280
     0
  9
$INTERSECTIONCOLOR
 70
   257
  9
$DIMASSOC
280
     2
  9
$PROJECTNAME
  1

  9
$CAMERADISPLAY
290
     0
  9
$LENSLENGTH
 40
50.0
  9
$CAMERAHEIGHT
 40
0.0
  9
$STEPSPERSEC
 40
2.0
  9
$STEPSIZE
 40
6.0
  9
$3DDWFPREC
 40
2.0
  9
$PSOLWIDTH
 40
5.0
  9
$PSOLHEIGHT
 40
80.0
  9
$LOFTANG1
 40
1.570796326794896
  9
$LOFTANG2
 40
1.570796326794896
  9
$LOFTMAG1
 40
0.0
  9
$LOFTMAG2
 40
0.0
  9
$LOFTPARAM
 70
     7
  9
$LOFTNORMALS
280
     1
  9
$LATITUDE
 40
37.795
  9
$LONGITUDE
 40
-122.394
  9
$NORTHDIRECTION
 40
0.0
  9
$TIMEZONE
 70
 -8000
  9
$LIGHTGLYPHDISPLAY
280
     1
  9
$TILEMODELIGHTSYNCH
280
     1
  9
$CMATERIAL
347
EC
  9
$SOLIDHIST
280
     0
  9
$SHOWHIST
280
     1
  9
$DWFFRAME
280
     2
  9
$DGNFRAME
280
     0
  9
$REALWORLDSCALE
290
     1
  9
$INTERFERECOLOR
 62
     1
  9
$INTERFEREOBJVS
345
F9
  9
$INTERFEREVPVS
346
F6
  9
$CSHADOW
280
     0
  9
$SHADOWPLANELOCATION
 40
0.0
  0
ENDSEC
  0
SECTION
  2
CLASSES
  0
CLASS
  1
ACDBDICTIONARYWDFLT
  2
AcDbDictionaryWithDefault
  3
ObjectDBX Classes
 90
        0
 91
        1
280
     0
281
     0
  0
CLASS
  1
DICTIONARYVAR
  2
AcDbDictionaryVar
  3
ObjectDBX Classes
 90
        0
 91
       11
280
     0
281
     0
  0
CLASS
  1
TABLESTYLE
  2
AcDbTableStyle
  3
ObjectDBX Classes
 90
     4095
 91
        1
280
     0
281
     0
  0
CLASS
  1
MATERIAL
  2
AcDbMaterial
  3
ObjectDBX Classes
 90
     1153
 91
        3
280
     0
281
     0
  0
CLASS
  1
VISUALSTYLE
  2
AcDbVisualStyle
  3
ObjectDBX Classes
 90
     4095
 91
       24
280
     0
281
     0
  0
CLASS
  1
SCALE
  2
AcDbScale
  3
ObjectDBX Classes
 90
     1153
 91
       17
280
     0
281
     0
  0
CLASS
  1
MLEADERSTYLE
  2
AcDbMLeaderStyle
  3
ACDB_MLEADERSTYLE_CLASS
 90
     4095
 91
        2
280
     0
281
     0
  0
CLASS
  1
CELLSTYLEMAP
  2
AcDbCellStyleMap
  3
ObjectDBX Classes
 90
     1152
 91
        1
280
     0
281
     0
  0
CLASS
  1
EXACXREFPANELOBJECT
  2
ExAcXREFPanelObject
  3
EXAC_ESW
 90
     1025
 91
        0
280
     0
281
     0
  0
CLASS
  1
NPOCOLLECTION
  2
AcDbImpNonPersistentObjectsCollection
  3
ObjectDBX Classes
 90
     1153
 91
        0
280
     0
281
     0
  0
CLASS
  1
LAYER_INDEX
  2
AcDbLayerIndex
  3
ObjectDBX Classes
 90
        0
 91
        0
280
     0
281
     0
  0
CLASS
  1
SPATIAL_INDEX
  2
AcDbSpatialIndex
  3
ObjectDBX Classes
 90
        0
 91
        0
280
     0
281
     0
  0
CLASS
  1
IDBUFFER
  2
AcDbIdBuffer
  3
ObjectDBX Classes
 90
        0
 91
        0
280
     0
281
     0
  0
CLASS
  1
ACDBSECTIONVIEWSTYLE
  2
AcDbSectionViewStyle
  3
ObjectDBX Classes
 90
     1025
 91
        2
280
     0
281
     0
  0
CLASS
  1
ACDBDETAILVIEWSTYLE
  2
AcDbDetailViewStyle
  3
ObjectDBX Classes
 90
     1025
 91
        2
280
     0
281
     0
  0
CLASS
  1
SORTENTSTABLE
  2
AcDbSortentsTable
  3
ObjectDBX Classes
 90
        0
 91
        1
280
     0
281
     0
  0
ENDSEC
  0
SECTION
  2
TABLES
  0
TABLE
  2
VPORT
  5
8
330
0
100
AcDbSymbolTable
 70
     1
1001
ACAD
1000
DbSaveVer
1071
      208
  0
VPORT
  5
EA
330
8
100
AcDbSymbolTableRecord
100
AcDbViewportTableRecord
  2
*Active
 70
     0
 10
0.0
 20
0.0
 11
1.0
 21
1.0
 12
10.35324171226619
 22
5.508476782367154
 13
0.0
 23
0.0
 14
10.0
 24
10.0
 15
10.0
 25
10.0
 16
0.0
 26
0.0
 36
1.0
 17
0.0
 27
0.0
 37
0.0
 40
10.93151741800693
 41
2.283154121863799
 42
50.0
 43
0.0
 44
0.0
 50
0.0
 51
0.0
 71
     0
 72
  1000
 73
     1
 74
     3
 75
     0
 76
     1
 77
     0
 78
     0
281
     0
 65
     1
110
0.0
120
0.0
130
0.0
111
1.0
121
0.0
131
0.0
112
0.0
122
1.0
132
0.0
 79
     0
146
0.0
348
F5
 60
     3
 61
     5
292
     1
282
     1
141
0.0
142
0.0
 63
   250
421
  3355443
1001
ACAD_NAV_VCDISPLAY
1070
     3
  0
ENDTAB
  0
TABLE
  2
LTYPE
  5
5
330
0
100
AcDbSymbolTable
 70
     1
  0
LTYPE
  5
14
330
5
100
AcDbSymbolTableRecord
100
AcDbLinetypeTableRecord
  2
ByBlock
 70
     0
  3

 72
    65
 73
     0
 40
0.0
  0
LTYPE
  5
15
330
5
100
AcDbSymbolTableRecord
100
AcDbLinetypeTableRecord
  2
ByLayer
 70
     0
  3

 72
    65
 73
     0
 40
0.0
  0
LTYPE
  5
16
330
5
100
AcDbSymbolTableRecord
100
AcDbLinetypeTableRecord
  2
Continuous
 70
     0
  3
Solid line
 72
    65
 73
     0
 40
0.0
  0
ENDTAB
  0
TABLE
  2
LAYER
  5
2
102
{ACAD_XDICTIONARY
360
1FF
102
}
330
0
100
AcDbSymbolTable
 70
     2
  0
LAYER
  5
10
102
{ACAD_XDICTIONARY
360
13C
102
}
330
2
100
AcDbSymbolTableRecord
100
AcDbLayerTableRecord
  2
0
 70
     0
 62
     7
  6
Continuous
370
    -3
390
F
347
EE
348
0
  0
LAYER
  5
28D
330
2
100
AcDbSymbolTableRecord
100
AcDbLayerTableRecord
  2
Livello 1
 70
     0
 62
     7
  6
Continuous
370
    -3
390
F
347
EE
348
0
  0
ENDTAB
  0
TABLE
  2
STYLE
  5
3
330
0
100
AcDbSymbolTable
 70
     2
  0
STYLE
  5
11
330
3
100
AcDbSymbolTableRecord
100
AcDbTextStyleTableRecord
  2
Standard
 70
     0
 40
0.0
 41
1.0
 50
0.0
 71
     0
 42
2.5
  3
arial.ttf
  4

1001
ACAD
1000
Arial
1071
       34
  0
STYLE
  5
132
330
3
100
AcDbSymbolTableRecord
100
AcDbTextStyleTableRecord
  2
Annotativa
 70
     0
 40
0.0
 41
1.0
 50
0.0
 71
     0
 42
2.5
  3
arial.ttf
  4

1001
AcadAnnotative
1000
AnnotativeData
1002
{
1070
     1
1070
     1
1002
}
1001
ACAD
1000
Arial
1071
       34
  0
ENDTAB
  0
TABLE
  2
VIEW
  5
6
330
0
100
AcDbSymbolTable
 70
     0
  0
ENDTAB
  0
TABLE
  2
UCS
  5
7
330
0
100
AcDbSymbolTable
 70
     0
  0
ENDTAB
  0
TABLE
  2
APPID
  5
9
330
0
100
AcDbSymbolTable
 70
     8
  0
APPID
  5
12
330
9
100
AcDbSymbolTableRecord
100
AcDbRegAppTableRecord
  2
ACAD
 70
     0
  0
APPID
  5
9E
330
9
100
AcDbSymbolTableRecord
100
AcDbRegAppTableRecord
  2
ACAD_PSEXT
 70
     0
  0
APPID
  5
133
330
9
100
AcDbSymbolTableRecord
100
AcDbRegAppTableRecord
  2
AcadAnnoPO
 70
     0
  0
APPID
  5
134
330
9
100
AcDbSymbolTableRecord
100
AcDbRegAppTableRecord
  2
AcadAnnotative
 70
     0
  0
APPID
  5
135
330
9
100
AcDbSymbolTableRecord
100
AcDbRegAppTableRecord
  2
ACAD_DSTYLE_DIMJAG
 70
     0
  0
APPID
  5
136
330
9
100
AcDbSymbolTableRecord
100
AcDbRegAppTableRecord
  2
ACAD_DSTYLE_DIMTALN
 70
     0
  0
APPID
  5
165
330
9
100
AcDbSymbolTableRecord
100
AcDbRegAppTableRecord
  2
ACAD_MLEADERVER
 70
     0
  0
APPID
  5
217
330
9
100
AcDbSymbolTableRecord
100
AcDbRegAppTableRecord
  2
ACAD_NAV_VCDISPLAY
 70
     0
  0
ENDTAB
  0
TABLE
  2
DIMSTYLE
  5
A
330
0
100
AcDbSymbolTable
 70
     3
100
AcDbDimStyleTable
 71
     2
340
27
340
137
  0
DIMSTYLE
105
1B0
330
A
100
AcDbSymbolTableRecord
100
AcDbDimStyleTableRecord
  2
Standard
 70
     0
340
11
  0
DIMSTYLE
105
137
330
A
100
AcDbSymbolTableRecord
100
AcDbDimStyleTableRecord
  2
Annotativa
 70
     0
 40
0.0
 41
2.5
 42
0.625
 43
3.75
 44
1.25
 73
     0
 74
     0
 77
     1
 78
     8
140
2.5
141
2.5
143
0.03937007874016
147
0.625
171
     3
172
     1
271
     2
272
     2
274
     3
278
    44
283
     0
284
     8
340
11
1001
AcadAnnotative
1000
AnnotativeData
1002
{
1070
     1
1070
     1
1002
}
1001
ACAD_DSTYLE_DIMJAG
1070
   388
1040
1.5
1001
ACAD_DSTYLE_DIMTALN
1070
   392
1070
     0
  0
DIMSTYLE
105
27
330
A
100
AcDbSymbolTableRecord
100
AcDbDimStyleTableRecord
  2
ISO-25
 70
     0
 41
2.5
 42
0.625
 43
3.75
 44
1.25
 73
     0
 74
     0
 77
     1
 78
     8
140
2.5
141
2.5
143
0.03937007874016
147
0.625
171
     3
172
     1
271
     2
272
     2
274
     3
278
    44
283
     0
284
     8
340
11
  0
ENDTAB
  0
TABLE
  2
BLOCK_RECORD
  5
1
330
0
100
AcDbSymbolTable
 70
     2
  0
BLOCK_RECORD
  5
1F
102
{ACAD_XDICTIONARY
360
1CE
102
}
330
1
100
AcDbSymbolTableRecord
100
AcDbBlockTableRecord
  2
*Model_Space
340
22
 70
     0
280
     1
281
     0
  0
BLOCK_RECORD
  5
D2
330
1
100
AcDbSymbolTableRecord
100
AcDbBlockTableRecord
  2
*Paper_Space
340
D3
 70
     0
280
     1
281
     0
  0
BLOCK_RECORD
  5
D6
330
1
100
AcDbSymbolTableRecord
100
AcDbBlockTableRecord
  2
*Paper_Space0
340
D7
 70
     0
280
     1
281
     0
  0
ENDTAB
  0
ENDSEC
  0
SECTION
  2
BLOCKS
  0
BLOCK
  5
20
330
1F
100
AcDbEntity
  8
0
100
AcDbBlockBegin
  2
*Model_Space
 70
     0
 10
0.0
 20
0.0
 30
0.0
  3
*Model_Space
  1

  0
ENDBLK
  5
21
330
1F
100
AcDbEntity
  8
0
100
AcDbBlockEnd
  0
BLOCK
  5
D4
330
D2
100
AcDbEntity
 67
     1
  8
0
100
AcDbBlockBegin
  2
*Paper_Space
 70
     0
 10
0.0
 20
0.0
 30
0.0
  3
*Paper_Space
  1

  0
ENDBLK
  5
D5
330
D2
100
AcDbEntity
 67
     1
  8
0
100
AcDbBlockEnd
  0
BLOCK
  5
D8
330
D6
100
AcDbEntity
 67
     1
  8
0
100
AcDbBlockBegin
  2
*Paper_Space0
 70
     0
 10
0.0
 20
0.0
 30
0.0
  3
*Paper_Space0
  1

  0
ENDBLK
  5
D9
330
D6
100
AcDbEntity
 67
     1
  8
0
100
AcDbBlockEnd
  0
ENDSEC
  0
SECTION
  2
ENTITIES
  0
POLYLINE
  5
6F9
330
1F
100
AcDbEntity
  8
Livello 1
100
AcDb2dPolyline
 66
     1
 10
0.0
 20
0.0
 30
0.0
  0
VERTEX
  5
6FA
330
6F9
100
AcDbEntity
  8
Livello 1
100
AcDbVertex
100
AcDb2dVertex
 10
15.71413530850246
 20
3.852255500791322
 30
0.0
  0
VERTEX
  5
6FB
330
6F9
100
AcDbEntity
  8
Livello 1
100
AcDbVertex
100
AcDb2dVertex
 10
0.132646681891103
 20
3.852255500791322
 30
0.0
  0
SEQEND
  5
6FC
330
6F9
100
AcDbEntity
  8
Livello 1
  0
POLYLINE
  5
6FD
330
1F
100
AcDbEntity
  8
Livello 1
100
AcDb2dPolyline
 66
     1
 10
0.0
 20
0.0
 30
0.0
  0
VERTEX
  5
6FE
330
6FD
100
AcDbEntity
  8
Livello 1
100
AcDbVertex
100
AcDb2dVertex
 10
16.95559699845897
 20
8.068125159585051
 30
0.0
  0
VERTEX
  5
6FF
330
6FD
100
AcDbEntity
  8
Livello 1
100
AcDbVertex
100
AcDb2dVertex
 10
16.95559699845897
 20
5.061399234467309
 30
0.0
  0
SEQEND
  5
700
330
6FD
100
AcDbEntity
  8
Livello 1
  0
MTEXT
  5
701
330
1F
100
AcDbEntity
  8
Livello 1
100
AcDbMText
 10
3.321663913352949
 20
0.8809842991209819
 30
0.0
 40
1.998133332833799
 41
0.0
 46
0.0
 71
     7
 72
     1
  1
\fSource Sans Pro Light|b0|i0|c0|p34;\W1;107 mm
 73
     1
 44
1.0
  0
MTEXT
  5
702
330
1F
100
AcDbEntity
  8
Livello 1
100
AcDbMText
 10
19.92660966420658
 20
2.605556035343816
 30
0.0
 40
1.998133332833799
 41
0.0
 46
0.0
 71
     7
 72
     1
  1
\fSource Sans Pro Light|b0|i0|c0|p34;\W1;28 mm
 11
-0.0000000000000002
 21
1.0
 31
0.0
 73
     1
 44
1.0
  0
POLYLINE
  5
703
330
1F
100
AcDbEntity
  8
Livello 1
100
AcDb2dPolyline
 66
     1
 10
0.0
 20
0.0
 30
0.0
  0
VERTEX
  5
704
330
703
100
AcDbEntity
  8
Livello 1
100
AcDbVertex
100
AcDb2dVertex
 10
11.39821657789198
 20
8.055002844711346
 30
0.0
  0
VERTEX
  5
705
330
703
100
AcDbEntity
  8
Livello 1
100
AcDbVertex
100
AcDb2dVertex
 10
8.777074890518278
 20
8.055002844711346
 30
0.0
  0
SEQEND
  5
706
330
703
100
AcDbEntity
  8
Livello 1
  0
POLYLINE
  5
707
330
1F
100
AcDbEntity
  8
Livello 1
100
AcDb2dPolyline
 66
     1
 10
0.0
 20
0.0
 30
0.0
  0
VERTEX
  5
708
330
707
100
AcDbEntity
  8
Livello 1
100
AcDbVertex
100
AcDb2dVertex
 10
4.475200306971899
 20
5.123842935877888
 30
0.0
  0
VERTEX
  5
709
330
707
100
AcDbEntity
  8
Livello 1
100
AcDbVertex
100
AcDb2dVertex
 10
7.096336611383875
 20
5.123842935877888
 30
0.0
  0
SEQEND
  5
70A
330
707
100
AcDbEntity
  8
Livello 1
  0
POLYLINE
  5
70B
330
1F
100
AcDbEntity
  8
Livello 1
100
AcDb2dPolyline
 66
     1
 10
0.0
 20
0.0
 30
0.0
  0
VERTEX
  5
70C
330
70B
100
AcDbEntity
  8
Livello 1
100
AcDbVertex
100
AcDb2dVertex
 10
7.096406589885972
 20
8.055002844711346
 30
0.0
  0
VERTEX
  5
70D
330
70B
100
AcDbEntity
  8
Livello 1
100
AcDbVertex
100
AcDb2dVertex
 10
4.47526490251225
 20
8.055002844711346
 30
0.0
  0
SEQEND
  5
70E
330
70B
100
AcDbEntity
  8
Livello 1
  0
POLYLINE
  5
70F
330
1F
100
AcDbEntity
  8
Livello 1
100
AcDb2dPolyline
 66
     1
 10
0.0
 20
0.0
 30
0.0
  0
VERTEX
  5
710
330
70F
100
AcDbEntity
  8
Livello 1
100
AcDbVertex
100
AcDb2dVertex
 10
8.77700491201628
 20
5.123842935877888
 30
0.0
  0
VERTEX
  5
711
330
70F
100
AcDbEntity
  8
Livello 1
100
AcDbVertex
100
AcDb2dVertex
 10
11.39814121642818
 20
5.123842935877888
 30
0.0
  0
SEQEND
  5
712
330
70F
100
AcDbEntity
  8
Livello 1
  0
POLYLINE
  5
713
330
1F
100
AcDbEntity
  8
Livello 1
100
AcDb2dPolyline
 66
     1
 10
0.0
 20
0.0
 30
0.0
  0
VERTEX
  5
714
330
713
100
AcDbEntity
  8
Livello 1
100
AcDbVertex
100
AcDb2dVertex
 10
11.59245536771966
 20
5.307181228271829
 30
0.0
  0
VERTEX
  5
715
330
713
100
AcDbEntity
  8
Livello 1
100
AcDbVertex
100
AcDb2dVertex
 10
11.59245536771966
 20
7.542028126957639
 30
0.0
  0
SEQEND
  5
716
330
713
100
AcDbEntity
  8
Livello 1
  0
SPLINE
  5
717
330
1F
100
AcDbEntity
  8
Livello 1
100
AcDbSpline
210
0.0
220
0.0
230
1.0
 70
    11
 71
     3
 72
    29
 73
    25
 74
     0
 42
0.000000001
 43
0.0000000001
 40
0.0
 40
0.0
 40
0.0
 40
0.0
 40
1.0
 40
1.0
 40
1.0
 40
2.0
 40
2.0
 40
2.0
 40
3.0
 40
3.0
 40
3.0
 40
4.0
 40
4.0
 40
4.0
 40
5.0
 40
5.0
 40
5.0
 40
6.0
 40
6.0
 40
6.0
 40
7.0
 40
7.0
 40
7.0
 40
8.0
 40
8.0
 40
8.0
 40
8.0
 10
12.05734408864566
 20
7.60323509291863
 30
0.0
 10
12.05734408864566
 20
7.60323509291863
 30
0.0
 10
12.00054307683267
 20
7.599001393544966
 30
0.0
 10
12.00054307683267
 20
7.599001393544966
 30
0.0
 10
12.00054307683267
 20
7.599001393544966
 30
0.0
 10
11.94586295192768
 20
7.588064561119722
 30
0.0
 10
11.94586295192768
 20
7.588064561119722
 30
0.0
 10
11.52288058780279
 20
7.461418275564497
 30
0.0
 10
11.54158099673358
 20
6.871573519055736
 30
0.0
 10
11.97444109557018
 20
6.773853923912795
 30
0.0
 10
11.97444109557018
 20
6.773853923912795
 30
0.0
 10
12.02912122047517
 20
6.767150790861229
 30
0.0
 10
12.02912122047517
 20
6.767150790861229
 30
0.0
 10
12.02912122047517
 20
6.767150790861229
 30
0.0
 10
12.08556157385457
 20
6.767150790861229
 30
0.0
 10
12.08556157385457
 20
6.767150790861229
 30
0.0
 10
12.55616700010138
 20
6.810895429081348
 30
0.0
 10
12.61931452375369
 20
7.454715142512924
 30
0.0
 10
12.16634906298368
 20
7.588064561119722
 30
0.0
 10
12.16634906298368
 20
7.588064561119722
 30
0.0
 10
12.11202421355068
 20
7.599001393544966
 30
0.0
 10
12.11202421355068
 20
7.599001393544966
 30
0.0
 10
12.11202421355068
 20
7.599001393544966
 30
0.0
 10
12.05734408864566
 20
7.60323509291863
 30
0.0
 10
12.05734408864566
 20
7.60323509291863
 30
0.0
  0
POLYLINE
  5
718
330
1F
100
AcDbEntity
  8
Livello 1
100
AcDb2dPolyline
 66
     1
 10
0.0
 20
0.0
 30
0.0
  0
VERTEX
  5
719
330
718
100
AcDbEntity
  8
Livello 1
100
AcDbVertex
100
AcDb2dVertex
 10
4.276585169285525
 20
7.404621300972713
 30
0.0
  0
VERTEX
  5
71A
330
718
100
AcDbEntity
  8
Livello 1
100
AcDbVertex
100
AcDb2dVertex
 10
4.278700673231966
 20
7.404621300972713
 30
0.0
  0
SEQEND
  5
71B
330
718
100
AcDbEntity
  8
Livello 1
  0
POLYLINE
  5
71C
330
1F
100
AcDbEntity
  8
Livello 1
100
AcDb2dPolyline
 66
     1
 10
0.0
 20
0.0
 30
0.0
  0
VERTEX
  5
71D
330
71C
100
AcDbEntity
  8
Livello 1
100
AcDbVertex
100
AcDb2dVertex
 10
11.59683171557829
 20
7.404621300972713
 30
0.0
  0
VERTEX
  5
71E
330
71C
100
AcDbEntity
  8
Livello 1
100
AcDbVertex
100
AcDb2dVertex
 10
11.59894721952479
 20
7.404621300972713
 30
0.0
  0
SEQEND
  5
71F
330
71C
100
AcDbEntity
  8
Livello 1
  0
POLYLINE
  5
720
330
1F
100
AcDbEntity
  8
Livello 1
100
AcDb2dPolyline
 66
     1
 10
0.0
 20
0.0
 30
0.0
  0
VERTEX
  5
721
330
720
100
AcDbEntity
  8
Livello 1
100
AcDbVertex
100
AcDb2dVertex
 10
11.59249304845157
 20
7.435172300076672
 30
0.0
  0
VERTEX
  5
722
330
720
100
AcDbEntity
  8
Livello 1
100
AcDbVertex
100
AcDb2dVertex
 10
11.59672405634437
 20
7.41118313127977
 30
0.0
  0
SEQEND
  5
723
330
720
100
AcDbEntity
  8
Livello 1
  0
POLYLINE
  5
724
330
1F
100
AcDbEntity
  8
Livello 1
100
AcDb2dPolyline
 66
     1
 10
0.0
 20
0.0
 30
0.0
  0
VERTEX
  5
725
330
724
100
AcDbEntity
  8
Livello 1
100
AcDbVertex
100
AcDb2dVertex
 10
11.59683171557829
 20
5.438132537443202
 30
0.0
  0
VERTEX
  5
726
330
724
100
AcDbEntity
  8
Livello 1
100
AcDbVertex
100
AcDb2dVertex
 10
11.59259532472377
 20
5.416260218333135
 30
0.0
  0
SEQEND
  5
727
330
724
100
AcDbEntity
  8
Livello 1
  0
POLYLINE
  5
728
330
1F
100
AcDbEntity
  8
Livello 1
100
AcDb2dPolyline
 66
     1
 10
0.0
 20
0.0
 30
0.0
  0
VERTEX
  5
729
330
728
100
AcDbEntity
  8
Livello 1
100
AcDbVertex
100
AcDb2dVertex
 10
9.534349941869791
 20
8.057189672900221
 30
0.0
  0
VERTEX
  5
72A
330
728
100
AcDbEntity
  8
Livello 1
100
AcDbVertex
100
AcDb2dVertex
 10
9.534349941869791
 20
8.111869797805169
 30
0.0
  0
SEQEND
  5
72B
330
728
100
AcDbEntity
  8
Livello 1
  0
POLYLINE
  5
72C
330
1F
100
AcDbEntity
  8
Livello 1
100
AcDb2dPolyline
 66
     1
 10
0.0
 20
0.0
 30
0.0
  0
VERTEX
  5
72D
330
72C
100
AcDbEntity
  8
Livello 1
100
AcDbVertex
100
AcDb2dVertex
 10
9.647838923300284
 20
8.225252465742194
 30
0.0
  0
VERTEX
  5
72E
330
72C
100
AcDbEntity
  8
Livello 1
100
AcDbVertex
100
AcDb2dVertex
 10
9.623847063022481
 20
8.223135616055351
 30
0.0
  0
VERTEX
  5
72F
330
72C
100
AcDbEntity
  8
Livello 1
100
AcDbVertex
100
AcDb2dVertex
 10
9.59986058570648
 20
8.216432483003771
 30
0.0
  0
VERTEX
  5
730
330
72C
100
AcDbEntity
  8
Livello 1
100
AcDbVertex
100
AcDb2dVertex
 10
9.567051434171176
 20
8.192443314206883
 30
0.0
  0
VERTEX
  5
731
330
72C
100
AcDbEntity
  8
Livello 1
100
AcDbVertex
100
AcDb2dVertex
 10
9.543059573893373
 20
8.159635508411994
 30
0.0
  0
VERTEX
  5
732
330
72C
100
AcDbEntity
  8
Livello 1
100
AcDbVertex
100
AcDb2dVertex
 10
9.536357786582286
 20
8.135646339615092
 30
0.0
  0
VERTEX
  5
733
330
72C
100
AcDbEntity
  8
Livello 1
100
AcDbVertex
100
AcDb2dVertex
 10
9.534242282635887
 20
8.111657170818197
 30
0.0
  0
SEQEND
  5
734
330
72C
100
AcDbEntity
  8
Livello 1
  0
POLYLINE
  5
735
330
1F
100
AcDbEntity
  8
Livello 1
100
AcDb2dPolyline
 66
     1
 10
0.0
 20
0.0
 30
0.0
  0
VERTEX
  5
736
330
735
100
AcDbEntity
  8
Livello 1
100
AcDbVertex
100
AcDb2dVertex
 10
10.12581900707018
 20
8.225252465742194
 30
0.0
  0
VERTEX
  5
737
330
735
100
AcDbEntity
  8
Livello 1
100
AcDbVertex
100
AcDb2dVertex
 10
10.24787766352028
 20
8.216432483003771
 30
0.0
  0
VERTEX
  5
738
330
735
100
AcDbEntity
  8
Livello 1
100
AcDbVertex
100
AcDb2dVertex
 10
10.36817609149588
 20
8.183624677208896
 30
0.0
  0
VERTEX
  5
739
330
735
100
AcDbEntity
  8
Livello 1
100
AcDbVertex
100
AcDb2dVertex
 10
10.45742559641058
 20
8.144466322353508
 30
0.0
  0
VERTEX
  5
73A
330
735
100
AcDbEntity
  8
Livello 1
100
AcDbVertex
100
AcDb2dVertex
 10
10.54491487285088
 20
8.094371135072869
 30
0.0
  0
VERTEX
  5
73B
330
735
100
AcDbEntity
  8
Livello 1
100
AcDbVertex
100
AcDb2dVertex
 10
10.59289321044468
 20
8.057329629904316
 30
0.0
  0
SEQEND
  5
73C
330
735
100
AcDbEntity
  8
Livello 1
  0
POLYLINE
  5
73D
330
1F
100
AcDbEntity
  8
Livello 1
100
AcDb2dPolyline
 66
     1
 10
0.0
 20
0.0
 30
0.0
  0
VERTEX
  5
73E
330
73D
100
AcDbEntity
  8
Livello 1
100
AcDbVertex
100
AcDb2dVertex
 10
9.647838923300284
 20
8.225252465742194
 30
0.0
  0
VERTEX
  5
73F
330
73D
100
AcDbEntity
  8
Livello 1
100
AcDbVertex
100
AcDb2dVertex
 10
10.12585130484038
 20
8.225252465742194
 30
0.0
  0
SEQEND
  5
740
330
73D
100
AcDbEntity
  8
Livello 1
  0
POLYLINE
  5
741
330
1F
100
AcDbEntity
  8
Livello 1
100
AcDb2dPolyline
 66
     1
 10
0.0
 20
0.0
 30
0.0
  0
VERTEX
  5
742
330
741
100
AcDbEntity
  8
Livello 1
100
AcDbVertex
100
AcDb2dVertex
 10
5.280555972189389
 20
8.057189672900221
 30
0.0
  0
VERTEX
  5
743
330
741
100
AcDbEntity
  8
Livello 1
100
AcDbVertex
100
AcDb2dVertex
 10
5.326413422875106
 20
8.094231178068788
 30
0.0
  0
VERTEX
  5
744
330
741
100
AcDbEntity
  8
Livello 1
100
AcDbVertex
100
AcDb2dVertex
 10
5.413552806805157
 20
8.144325019608992
 30
0.0
  0
VERTEX
  5
745
330
741
100
AcDbEntity
  8
Livello 1
100
AcDbVertex
100
AcDb2dVertex
 10
5.505273091138235
 20
8.183835958455453
 30
0.0
  0
VERTEX
  5
746
330
741
100
AcDbEntity
  8
Livello 1
100
AcDbVertex
100
AcDb2dVertex
 10
5.62557151911379
 20
8.216645109990764
 30
0.0
  0
VERTEX
  5
747
330
741
100
AcDbEntity
  8
Livello 1
100
AcDbVertex
100
AcDb2dVertex
 10
5.745514671617371
 20
8.22511116299767
 30
0.0
  0
SEQEND
  5
748
330
741
100
AcDbEntity
  8
Livello 1
  0
POLYLINE
  5
749
330
1F
100
AcDbEntity
  8
Livello 1
100
AcDb2dPolyline
 66
     1
 10
0.0
 20
0.0
 30
0.0
  0
VERTEX
  5
74A
330
749
100
AcDbEntity
  8
Livello 1
100
AcDbVertex
100
AcDb2dVertex
 10
6.225610259333777
 20
8.225252465742194
 30
0.0
  0
VERTEX
  5
74B
330
749
100
AcDbEntity
  8
Livello 1
100
AcDbVertex
100
AcDb2dVertex
 10
5.745476990885578
 20
8.225252465742194
 30
0.0
  0
SEQEND
  5
74C
330
749
100
AcDbEntity
  8
Livello 1
  0
POLYLINE
  5
74D
330
1F
100
AcDbEntity
  8
Livello 1
100
AcDb2dPolyline
 66
     1
 10
0.0
 20
0.0
 30
0.0
  0
VERTEX
  5
74E
330
74D
100
AcDbEntity
  8
Livello 1
100
AcDbVertex
100
AcDb2dVertex
 10
6.225610259333777
 20
8.225252465742194
 30
0.0
  0
VERTEX
  5
74F
330
74D
100
AcDbEntity
  8
Livello 1
100
AcDbVertex
100
AcDb2dVertex
 10
6.26723670212668
 20
8.218549332690614
 30
0.0
  0
VERTEX
  5
750
330
74D
100
AcDbEntity
  8
Livello 1
100
AcDbVertex
100
AcDb2dVertex
 10
6.288752400024378
 20
8.207965084256443
 30
0.0
  0
VERTEX
  5
751
330
74D
100
AcDbEntity
  8
Livello 1
100
AcDbVertex
100
AcDb2dVertex
 10
6.306392365501181
 20
8.192443314206883
 30
0.0
  0
VERTEX
  5
752
330
74D
100
AcDbEntity
  8
Livello 1
100
AcDbVertex
100
AcDb2dVertex
 10
6.328263338870797
 20
8.162104942089897
 30
0.0
  0
VERTEX
  5
753
330
74D
100
AcDbEntity
  8
Livello 1
100
AcDbVertex
100
AcDb2dVertex
 10
6.337086013090072
 20
8.140232622979837
 30
0.0
  0
VERTEX
  5
754
330
74D
100
AcDbEntity
  8
Livello 1
100
AcDbVertex
100
AcDb2dVertex
 10
6.339201517036471
 20
8.111657170818197
 30
0.0
  0
SEQEND
  5
755
330
74D
100
AcDbEntity
  8
Livello 1
  0
POLYLINE
  5
756
330
1F
100
AcDbEntity
  8
Livello 1
100
AcDb2dPolyline
 66
     1
 10
0.0
 20
0.0
 30
0.0
  0
VERTEX
  5
757
330
756
100
AcDbEntity
  8
Livello 1
100
AcDbVertex
100
AcDb2dVertex
 10
6.33906694299408
 20
8.057189672900221
 30
0.0
  0
VERTEX
  5
758
330
756
100
AcDbEntity
  8
Livello 1
100
AcDbVertex
100
AcDb2dVertex
 10
6.33906694299408
 20
8.111869797805169
 30
0.0
  0
SEQEND
  5
759
330
756
100
AcDbEntity
  8
Livello 1
  0
POLYLINE
  5
75A
330
1F
100
AcDbEntity
  8
Livello 1
100
AcDb2dPolyline
 66
     1
 10
0.0
 20
0.0
 30
0.0
  0
VERTEX
  5
75B
330
75A
100
AcDbEntity
  8
Livello 1
100
AcDbVertex
100
AcDb2dVertex
 10
8.772633947119388
 20
8.057189672900221
 30
0.0
  0
VERTEX
  5
75C
330
75A
100
AcDbEntity
  8
Livello 1
100
AcDbVertex
100
AcDb2dVertex
 10
8.776864955012172
 20
8.052955973526557
 30
0.0
  0
SEQEND
  5
75D
330
75A
100
AcDbEntity
  8
Livello 1
  0
SPLINE
  5
75E
330
1F
100
AcDbEntity
  8
Livello 1
100
AcDbSpline
210
0.0
220
0.0
230
1.0
 70
     8
 71
     3
 72
    38
 73
    34
 74
     0
 42
0.000000001
 43
0.0000000001
 40
0.0
 40
0.0
 40
0.0
 40
0.0
 40
1.0
 40
1.0
 40
1.0
 40
2.0
 40
2.0
 40
2.0
 40
3.0
 40
3.0
 40
3.0
 40
4.0
 40
4.0
 40
4.0
 40
5.0
 40
5.0
 40
5.0
 40
6.0
 40
6.0
 40
6.0
 40
7.0
 40
7.0
 40
7.0
 40
8.0
 40
8.0
 40
8.0
 40
9.0
 40
9.0
 40
9.0
 40
10.0
 40
10.0
 40
10.0
 40
11.0
 40
11.0
 40
11.0
 40
11.0
 10
7.096406589885972
 20
8.052814670782048
 30
0.0
 10
7.096406589885972
 20
8.052814670782048
 30
0.0
 10
7.096406589885972
 20
8.054930174728454
 30
0.0
 10
7.096406589885972
 20
8.054930174728454
 30
0.0
 10
7.096406589885972
 20
8.054930174728454
 30
0.0
 10
7.094285702977785
 20
8.052814670782048
 30
0.0
 10
7.094285702977785
 20
8.052814670782048
 30
0.0
 10
7.094285702977785
 20
8.052814670782048
 30
0.0
 10
7.094285702977785
 20
7.996016350449835
 30
0.0
 10
7.094285702977785
 20
7.996016350449835
 30
0.0
 10
7.094285702977785
 20
7.996016350449835
 30
0.0
 10
7.094285702977785
 20
7.98296401407817
 30
0.0
 10
7.094285702977785
 20
7.98296401407817
 30
0.0
 10
7.094285702977785
 20
7.98296401407817
 30
0.0
 10
7.094285702977785
 20
7.831974629994562
 30
0.0
 10
7.094285702977785
 20
7.831974629994562
 30
0.0
 10
7.094285702977785
 20
7.831974629994562
 30
0.0
 10
8.771390482967589
 20
7.831974629994562
 30
0.0
 10
8.771390482967589
 20
7.831974629994562
 30
0.0
 10
8.771390482967589
 20
7.831974629994562
 30
0.0
 10
8.77915271373277
 20
7.98296401407817
 30
0.0
 10
8.77915271373277
 20
7.98296401407817
 30
0.0
 10
8.77915271373277
 20
7.98296401407817
 30
0.0
 10
8.77915271373277
 20
7.996016350449835
 30
0.0
 10
8.77915271373277
 20
7.996016350449835
 30
0.0
 10
8.77844754575068
 20
8.017536085568835
 30
0.0
 10
8.775626873822176
 20
8.029530669967272
 30
0.0
 10
8.777037209786371
 20
8.052814670782048
 30
0.0
 10
8.777037209786371
 20
8.052814670782048
 30
0.0
 10
8.777037209786371
 20
8.054930174728454
 30
0.0
 10
8.777037209786371
 20
8.054930174728454
 30
0.0
 10
8.777037209786371
 20
8.054930174728454
 30
0.0
 10
8.777037209786371
 20
8.052814670782048
 30
0.0
 10
8.777037209786371
 20
8.052814670782048
 30
0.0
  0
POLYLINE
  5
75F
330
1F
100
AcDbEntity
  8
Livello 1
100
AcDb2dPolyline
 66
     1
 10
0.0
 20
0.0
 30
0.0
  0
VERTEX
  5
760
330
75F
100
AcDbEntity
  8
Livello 1
100
AcDbVertex
100
AcDb2dVertex
 10
4.422813323749309
 20
8.052814670782048
 30
0.0
  0
VERTEX
  5
761
330
75F
100
AcDbEntity
  8
Livello 1
100
AcDbVertex
100
AcDb2dVertex
 10
4.440098013754209
 20
8.052814670782048
 30
0.0
  0
SEQEND
  5
762
330
75F
100
AcDbEntity
  8
Livello 1
  0
SPLINE
  5
763
330
1F
100
AcDbEntity
  8
Livello 1
100
AcDbSpline
210
0.0
220
0.0
230
1.0
 70
     8
 71
     3
 72
    14
 73
    10
 74
     0
 42
0.000000001
 43
0.0000000001
 40
0.0
 40
0.0
 40
0.0
 40
0.0
 40
1.0
 40
1.0
 40
1.0
 40
2.0
 40
2.0
 40
2.0
 40
3.0
 40
3.0
 40
3.0
 40
3.0
 10
4.422813323749309
 20
8.052814670782048
 30
0.0
 10
4.422813323749309
 20
8.052814670782048
 30
0.0
 10
4.396705959525164
 20
8.050697821095212
 30
0.0
 10
4.396705959525164
 20
8.050697821095212
 30
0.0
 10
4.334618879326939
 20
8.038350652705695
 30
0.0
 10
4.291931993080012
 20
7.99213658080766
 30
0.0
 10
4.280993814914339
 20
7.930753322851138
 30
0.0
 10
4.280993814914339
 20
7.930753322851138
 30
0.0
 10
4.280993814914339
 20
7.90641157006317
 30
0.0
 10
4.280993814914339
 20
7.90641157006317
 30
0.0
  0
POLYLINE
  5
764
330
1F
100
AcDbEntity
  8
Livello 1
100
AcDb2dPolyline
 66
     1
 10
0.0
 20
0.0
 30
0.0
  0
VERTEX
  5
765
330
764
100
AcDbEntity
  8
Livello 1
100
AcDbVertex
100
AcDb2dVertex
 10
11.45060356111457
 20
8.052814670782048
 30
0.0
  0
VERTEX
  5
766
330
764
100
AcDbEntity
  8
Livello 1
100
AcDbVertex
100
AcDb2dVertex
 10
11.43331348814796
 20
8.052814670782048
 30
0.0
  0
SEQEND
  5
767
330
764
100
AcDbEntity
  8
Livello 1
  0
SPLINE
  5
768
330
1F
100
AcDbEntity
  8
Livello 1
100
AcDbSpline
210
0.0
220
0.0
230
1.0
 70
     8
 71
     3
 72
    14
 73
    10
 74
     0
 42
0.000000001
 43
0.0000000001
 40
0.0
 40
0.0
 40
0.0
 40
0.0
 40
1.0
 40
1.0
 40
1.0
 40
2.0
 40
2.0
 40
2.0
 40
3.0
 40
3.0
 40
3.0
 40
3.0
 10
11.59249304845157
 20
7.906589207799122
 30
0.0
 10
11.59249304845157
 20
7.906589207799122
 30
0.0
 10
11.59037216154347
 20
7.930577030855602
 30
0.0
 10
11.59037216154347
 20
7.930577030855602
 30
0.0
 10
11.58578587817878
 20
7.99054995284785
 30
0.0
 10
11.53357653269209
 20
8.042055476092762
 30
0.0
 10
11.47466001693267
 20
8.050521529099668
 30
0.0
 10
11.47466001693267
 20
8.050521529099668
 30
0.0
 10
11.45067353961659
 20
8.052990962777585
 30
0.0
 10
11.45067353961659
 20
8.052990962777585
 30
0.0
  0
POLYLINE
  5
769
330
1F
100
AcDbEntity
  8
Livello 1
100
AcDb2dPolyline
 66
     1
 10
0.0
 20
0.0
 30
0.0
  0
VERTEX
  5
76A
330
769
100
AcDbEntity
  8
Livello 1
100
AcDbVertex
100
AcDb2dVertex
 10
7.096406589885972
 20
8.052814670782048
 30
0.0
  0
VERTEX
  5
76B
330
769
100
AcDbEntity
  8
Livello 1
100
AcDbVertex
100
AcDb2dVertex
 10
7.098522093832386
 20
8.057047024415275
 30
0.0
  0
SEQEND
  5
76C
330
769
100
AcDbEntity
  8
Livello 1
  0
SPLINE
  5
76D
330
1F
100
AcDbEntity
  8
Livello 1
100
AcDbSpline
210
0.0
220
0.0
230
1.0
 70
     8
 71
     3
 72
    20
 73
    16
 74
     0
 42
0.000000001
 43
0.0000000001
 40
0.0
 40
0.0
 40
0.0
 40
0.0
 40
1.0
 40
1.0
 40
1.0
 40
2.0
 40
2.0
 40
2.0
 40
3.0
 40
3.0
 40
3.0
 40
4.0
 40
4.0
 40
4.0
 40
5.0
 40
5.0
 40
5.0
 40
5.0
 10
8.77700491201628
 20
5.123842935877888
 30
0.0
 10
8.77700491201628
 20
5.123842935877888
 30
0.0
 10
8.77700491201628
 20
5.125958439824309
 30
0.0
 10
8.77700491201628
 20
5.125958439824309
 30
0.0
 10
8.775944468562187
 20
5.147830758934368
 30
0.0
 10
8.778059972508586
 20
5.160177927323879
 30
0.0
 10
8.77912041596268
 20
5.180639910469672
 30
0.0
 10
8.77912041596268
 20
5.180639910469672
 30
0.0
 10
8.77912041596268
 20
5.193692246841337
 30
0.0
 10
8.77912041596268
 20
5.193692246841337
 30
0.0
 10
8.77912041596268
 20
5.193692246841337
 30
0.0
 10
8.772768521161665
 20
5.3616150826792
 30
0.0
 10
8.772768521161665
 20
5.3616150826792
 30
0.0
 10
8.772768521161665
 20
5.3616150826792
 30
0.0
 10
8.460562125772668
 20
5.3616150826792
 30
0.0
 10
8.460562125772668
 20
5.3616150826792
 30
0.0
  0
POLYLINE
  5
76E
330
1F
100
AcDbEntity
  8
Livello 1
100
AcDb2dPolyline
 66
     1
 10
0.0
 20
0.0
 30
0.0
  0
VERTEX
  5
76F
330
76E
100
AcDbEntity
  8
Livello 1
100
AcDbVertex
100
AcDb2dVertex
 10
8.772633947119388
 20
5.121689751199603
 30
0.0
  0
VERTEX
  5
770
330
76E
100
AcDbEntity
  8
Livello 1
100
AcDbVertex
100
AcDb2dVertex
 10
8.776864955012172
 20
5.123805255146024
 30
0.0
  0
SEQEND
  5
771
330
76E
100
AcDbEntity
  8
Livello 1
  0
POLYLINE
  5
772
330
1F
100
AcDbEntity
  8
Livello 1
100
AcDb2dPolyline
 66
     1
 10
0.0
 20
0.0
 30
0.0
  0
VERTEX
  5
773
330
772
100
AcDbEntity
  8
Livello 1
100
AcDbVertex
100
AcDb2dVertex
 10
11.43317891410558
 20
5.123842935877888
 30
0.0
  0
VERTEX
  5
774
330
772
100
AcDbEntity
  8
Livello 1
100
AcDbVertex
100
AcDb2dVertex
 10
11.45046360411047
 20
5.123842935877888
 30
0.0
  0
SEQEND
  5
775
330
772
100
AcDbEntity
  8
Livello 1
  0
POLYLINE
  5
776
330
1F
100
AcDbEntity
  8
Livello 1
100
AcDb2dPolyline
 66
     1
 10
0.0
 20
0.0
 30
0.0
  0
VERTEX
  5
777
330
776
100
AcDbEntity
  8
Livello 1
100
AcDbVertex
100
AcDb2dVertex
 10
11.45497990897318
 20
8.057189672900221
 30
0.0
  0
VERTEX
  5
778
330
776
100
AcDbEntity
  8
Livello 1
100
AcDbVertex
100
AcDb2dVertex
 10
8.772456309383372
 20
8.057189672900221
 30
0.0
  0
SEQEND
  5
779
330
776
100
AcDbEntity
  8
Livello 1
  0
POLYLINE
  5
77A
330
1F
100
AcDbEntity
  8
Livello 1
100
AcDb2dPolyline
 66
     1
 10
0.0
 20
0.0
 30
0.0
  0
VERTEX
  5
77B
330
77A
100
AcDbEntity
  8
Livello 1
100
AcDbVertex
100
AcDb2dVertex
 10
11.45497990897318
 20
8.057189672900221
 30
0.0
  0
VERTEX
  5
77C
330
77A
100
AcDbEntity
  8
Livello 1
100
AcDbVertex
100
AcDb2dVertex
 10
11.45074351811867
 20
8.052955973526557
 30
0.0
  0
SEQEND
  5
77D
330
77A
100
AcDbEntity
  8
Livello 1
  0
POLYLINE
  5
77E
330
1F
100
AcDbEntity
  8
Livello 1
100
AcDb2dPolyline
 66
     1
 10
0.0
 20
0.0
 30
0.0
  0
VERTEX
  5
77F
330
77E
100
AcDbEntity
  8
Livello 1
100
AcDbVertex
100
AcDb2dVertex
 10
4.418436975890699
 20
8.057189672900221
 30
0.0
  0
VERTEX
  5
780
330
77E
100
AcDbEntity
  8
Livello 1
100
AcDbVertex
100
AcDb2dVertex
 10
7.098489796062182
 20
8.057189672900221
 30
0.0
  0
SEQEND
  5
781
330
77E
100
AcDbEntity
  8
Livello 1
  0
POLYLINE
  5
782
330
1F
100
AcDbEntity
  8
Livello 1
100
AcDb2dPolyline
 66
     1
 10
0.0
 20
0.0
 30
0.0
  0
VERTEX
  5
783
330
782
100
AcDbEntity
  8
Livello 1
100
AcDbVertex
100
AcDb2dVertex
 10
4.422813323749309
 20
8.052814670782048
 30
0.0
  0
VERTEX
  5
784
330
782
100
AcDbEntity
  8
Livello 1
100
AcDbVertex
100
AcDb2dVertex
 10
4.418576932894822
 20
8.057047024415275
 30
0.0
  0
SEQEND
  5
785
330
782
100
AcDbEntity
  8
Livello 1
  0
POLYLINE
  5
786
330
1F
100
AcDbEntity
  8
Livello 1
100
AcDb2dPolyline
 66
     1
 10
0.0
 20
0.0
 30
0.0
  0
VERTEX
  5
787
330
786
100
AcDbEntity
  8
Livello 1
100
AcDbVertex
100
AcDb2dVertex
 10
11.45060356111457
 20
5.123842935877888
 30
0.0
  0
VERTEX
  5
788
330
786
100
AcDbEntity
  8
Livello 1
100
AcDbVertex
100
AcDb2dVertex
 10
11.45483456900737
 20
5.12172608619106
 30
0.0
  0
VERTEX
  5
789
330
786
100
AcDbEntity
  8
Livello 1
100
AcDbVertex
100
AcDb2dVertex
 10
8.772666244889464
 20
5.12172608619106
 30
0.0
  0
SEQEND
  5
78A
330
786
100
AcDbEntity
  8
Livello 1
  0
POLYLINE
  5
78B
330
1F
100
AcDbEntity
  8
Livello 1
100
AcDb2dPolyline
 66
     1
 10
0.0
 20
0.0
 30
0.0
  0
VERTEX
  5
78C
330
78B
100
AcDbEntity
  8
Livello 1
100
AcDbVertex
100
AcDb2dVertex
 10
11.49209004690328
 20
8.052814670782048
 30
0.0
  0
VERTEX
  5
78D
330
78B
100
AcDbEntity
  8
Livello 1
100
AcDbVertex
100
AcDb2dVertex
 10
11.45504450451348
 20
8.057047024415275
 30
0.0
  0
SEQEND
  5
78E
330
78B
100
AcDbEntity
  8
Livello 1
  0
POLYLINE
  5
78F
330
1F
100
AcDbEntity
  8
Livello 1
100
AcDb2dPolyline
 66
     1
 10
0.0
 20
0.0
 30
0.0
  0
VERTEX
  5
790
330
78F
100
AcDbEntity
  8
Livello 1
100
AcDbVertex
100
AcDb2dVertex
 10
11.59245536771966
 20
7.943665702218709
 30
0.0
  0
VERTEX
  5
791
330
78F
100
AcDbEntity
  8
Livello 1
100
AcDbVertex
100
AcDb2dVertex
 10
11.57940168560767
 20
7.980707207387261
 30
0.0
  0
VERTEX
  5
792
330
78F
100
AcDbEntity
  8
Livello 1
100
AcDbVertex
100
AcDb2dVertex
 10
11.57728079869959
 20
7.987408994698405
 30
0.0
  0
VERTEX
  5
793
330
78F
100
AcDbEntity
  8
Livello 1
100
AcDbVertex
100
AcDb2dVertex
 10
11.5575253292763
 20
8.011398163495307
 30
0.0
  0
VERTEX
  5
794
330
78F
100
AcDbEntity
  8
Livello 1
100
AcDbVertex
100
AcDb2dVertex
 10
11.52683706464908
 20
8.037504181979052
 30
0.0
  0
VERTEX
  5
795
330
78F
100
AcDbEntity
  8
Livello 1
100
AcDbVertex
100
AcDb2dVertex
 10
11.49191240916738
 20
8.052673368037531
 30
0.0
  0
SEQEND
  5
796
330
78F
100
AcDbEntity
  8
Livello 1
  0
POLYLINE
  5
797
330
1F
100
AcDbEntity
  8
Livello 1
100
AcDb2dPolyline
 66
     1
 10
0.0
 20
0.0
 30
0.0
  0
VERTEX
  5
798
330
797
100
AcDbEntity
  8
Livello 1
100
AcDbVertex
100
AcDb2dVertex
 10
11.59467853090008
 20
7.932765204784892
 30
0.0
  0
VERTEX
  5
799
330
797
100
AcDbEntity
  8
Livello 1
100
AcDbVertex
100
AcDb2dVertex
 10
11.59255764399196
 20
7.943700691469729
 30
0.0
  0
SEQEND
  5
79A
330
797
100
AcDbEntity
  8
Livello 1
  0
POLYLINE
  5
79B
330
1F
100
AcDbEntity
  8
Livello 1
100
AcDb2dPolyline
 66
     1
 10
0.0
 20
0.0
 30
0.0
  0
VERTEX
  5
79C
330
79B
100
AcDbEntity
  8
Livello 1
100
AcDbVertex
100
AcDb2dVertex
 10
11.59683171557829
 20
7.915337866295068
 30
0.0
  0
VERTEX
  5
79D
330
79B
100
AcDbEntity
  8
Livello 1
100
AcDbVertex
100
AcDb2dVertex
 10
11.59471082867017
 20
7.932623902040383
 30
0.0
  0
SEQEND
  5
79E
330
79B
100
AcDbEntity
  8
Livello 1
  0
POLYLINE
  5
79F
330
1F
100
AcDbEntity
  8
Livello 1
100
AcDb2dPolyline
 66
     1
 10
0.0
 20
0.0
 30
0.0
  0
VERTEX
  5
7A0
330
79F
100
AcDbEntity
  8
Livello 1
100
AcDbVertex
100
AcDb2dVertex
 10
11.59245536771966
 20
7.913114703114743
 30
0.0
  0
VERTEX
  5
7A1
330
79F
100
AcDbEntity
  8
Livello 1
100
AcDbVertex
100
AcDb2dVertex
 10
11.59668637561257
 20
7.915230207061142
 30
0.0
  0
SEQEND
  5
7A2
330
79F
100
AcDbEntity
  8
Livello 1
  0
POLYLINE
  5
7A3
330
1F
100
AcDbEntity
  8
Livello 1
100
AcDb2dPolyline
 66
     1
 10
0.0
 20
0.0
 30
0.0
  0
VERTEX
  5
7A4
330
7A3
100
AcDbEntity
  8
Livello 1
100
AcDbVertex
100
AcDb2dVertex
 10
11.59245536771966
 20
7.906589207799122
 30
0.0
  0
VERTEX
  5
7A5
330
7A3
100
AcDbEntity
  8
Livello 1
100
AcDbVertex
100
AcDb2dVertex
 10
11.59245536771966
 20
7.91329099511028
 30
0.0
  0
SEQEND
  5
7A6
330
7A3
100
AcDbEntity
  8
Livello 1
  0
POLYLINE
  5
7A7
330
1F
100
AcDbEntity
  8
Livello 1
100
AcDb2dPolyline
 66
     1
 10
0.0
 20
0.0
 30
0.0
  0
VERTEX
  5
7A8
330
7A7
100
AcDbEntity
  8
Livello 1
100
AcDbVertex
100
AcDb2dVertex
 10
11.59245536771966
 20
7.906589207799122
 30
0.0
  0
VERTEX
  5
7A9
330
7A7
100
AcDbEntity
  8
Livello 1
100
AcDbVertex
100
AcDb2dVertex
 10
11.59457087166609
 20
7.906589207799122
 30
0.0
  0
SEQEND
  5
7AA
330
7A7
100
AcDbEntity
  8
Livello 1
  0
POLYLINE
  5
7AB
330
1F
100
AcDbEntity
  8
Livello 1
100
AcDb2dPolyline
 66
     1
 10
0.0
 20
0.0
 30
0.0
  0
VERTEX
  5
7AC
330
7AB
100
AcDbEntity
  8
Livello 1
100
AcDbVertex
100
AcDb2dVertex
 10
11.59245536771966
 20
5.265729731734083
 30
0.0
  0
VERTEX
  5
7AD
330
7AB
100
AcDbEntity
  8
Livello 1
100
AcDbVertex
100
AcDb2dVertex
 10
11.59245536771966
 20
5.269962085367332
 30
0.0
  0
SEQEND
  5
7AE
330
7AB
100
AcDbEntity
  8
Livello 1
  0
POLYLINE
  5
7AF
330
1F
100
AcDbEntity
  8
Livello 1
100
AcDb2dPolyline
 66
     1
 10
0.0
 20
0.0
 30
0.0
  0
VERTEX
  5
7B0
330
7AF
100
AcDbEntity
  8
Livello 1
100
AcDbVertex
100
AcDb2dVertex
 10
11.59683171557829
 20
5.263506568553758
 30
0.0
  0
VERTEX
  5
7B1
330
7AF
100
AcDbEntity
  8
Livello 1
100
AcDbVertex
100
AcDb2dVertex
 10
11.59259532472377
 20
5.265622072500164
 30
0.0
  0
SEQEND
  5
7B2
330
7AF
100
AcDbEntity
  8
Livello 1
  0
POLYLINE
  5
7B3
330
1F
100
AcDbEntity
  8
Livello 1
100
AcDb2dPolyline
 66
     1
 10
0.0
 20
0.0
 30
0.0
  0
VERTEX
  5
7B4
330
7B3
100
AcDbEntity
  8
Livello 1
100
AcDbVertex
100
AcDb2dVertex
 10
11.59467853090008
 20
5.246079230063919
 30
0.0
  0
VERTEX
  5
7B5
330
7B3
100
AcDbEntity
  8
Livello 1
100
AcDbVertex
100
AcDb2dVertex
 10
11.59679403484648
 20
5.263365265809248
 30
0.0
  0
SEQEND
  5
7B6
330
7B3
100
AcDbEntity
  8
Livello 1
  0
POLYLINE
  5
7B7
330
1F
100
AcDbEntity
  8
Livello 1
100
AcDb2dPolyline
 66
     1
 10
0.0
 20
0.0
 30
0.0
  0
VERTEX
  5
7B8
330
7B7
100
AcDbEntity
  8
Livello 1
100
AcDbVertex
100
AcDb2dVertex
 10
11.59245536771966
 20
5.232956915190214
 30
0.0
  0
VERTEX
  5
7B9
330
7B7
100
AcDbEntity
  8
Livello 1
100
AcDbVertex
100
AcDb2dVertex
 10
11.59457087166609
 20
5.246009251561872
 30
0.0
  0
SEQEND
  5
7BA
330
7B7
100
AcDbEntity
  8
Livello 1
  0
SPLINE
  5
7BB
330
1F
100
AcDbEntity
  8
Livello 1
100
AcDbSpline
210
0.0
220
0.0
230
1.0
 70
     8
 71
     3
 72
    14
 73
    10
 74
     0
 42
0.000000001
 43
0.0000000001
 40
0.0
 40
0.0
 40
0.0
 40
0.0
 40
1.0
 40
1.0
 40
1.0
 40
2.0
 40
2.0
 40
2.0
 40
3.0
 40
3.0
 40
3.0
 40
3.0
 10
11.49209004690328
 20
5.125994774815758
 30
0.0
 10
11.49209004690328
 20
5.125994774815758
 30
0.0
 10
11.50937473690828
 20
5.132696562126909
 30
0.0
 10
11.50937473690828
 20
5.132696562126909
 30
0.0
 10
11.54570972835417
 20
5.146807996212189
 30
0.0
 10
11.57534293248909
 20
5.178910634024937
 30
0.0
 10
11.58804133912927
 20
5.215599555202423
 30
0.0
 10
11.58804133912927
 20
5.215599555202423
 30
0.0
 10
11.59262762249398
 20
5.232885590947745
 30
0.0
 10
11.59262762249398
 20
5.232885590947745
 30
0.0
  0
POLYLINE
  5
7BC
330
1F
100
AcDbEntity
  8
Livello 1
100
AcDb2dPolyline
 66
     1
 10
0.0
 20
0.0
 30
0.0
  0
VERTEX
  5
7BD
330
7BC
100
AcDbEntity
  8
Livello 1
100
AcDbVertex
100
AcDb2dVertex
 10
11.45497990897318
 20
5.121689751199603
 30
0.0
  0
VERTEX
  5
7BE
330
7BC
100
AcDbEntity
  8
Livello 1
100
AcDbVertex
100
AcDb2dVertex
 10
11.49202006840127
 20
5.125922104832852
 30
0.0
  0
SEQEND
  5
7BF
330
7BC
100
AcDbEntity
  8
Livello 1
  0
POLYLINE
  5
7C0
330
1F
100
AcDbEntity
  8
Livello 1
100
AcDb2dPolyline
 66
     1
 10
0.0
 20
0.0
 30
0.0
  0
VERTEX
  5
7C1
330
7C0
100
AcDbEntity
  8
Livello 1
100
AcDbVertex
100
AcDb2dVertex
 10
11.59245536771966
 20
5.270068398860814
 30
0.0
  0
VERTEX
  5
7C2
330
7C0
100
AcDbEntity
  8
Livello 1
100
AcDbVertex
100
AcDb2dVertex
 10
11.59245536771966
 20
5.272183902807228
 30
0.0
  0
SEQEND
  5
7C3
330
7C0
100
AcDbEntity
  8
Livello 1
  0
POLYLINE
  5
7C4
330
1F
100
AcDbEntity
  8
Livello 1
100
AcDb2dPolyline
 66
     1
 10
0.0
 20
0.0
 30
0.0
  0
VERTEX
  5
7C5
330
7C4
100
AcDbEntity
  8
Livello 1
100
AcDbVertex
100
AcDb2dVertex
 10
4.278738353963817
 20
7.913114703114743
 30
0.0
  0
VERTEX
  5
7C6
330
7C4
100
AcDbEntity
  8
Livello 1
100
AcDbVertex
100
AcDb2dVertex
 10
4.278738353963817
 20
7.90641157006317
 30
0.0
  0
SEQEND
  5
7C7
330
7C4
100
AcDbEntity
  8
Livello 1
  0
SPLINE
  5
7C8
330
1F
100
AcDbEntity
  8
Livello 1
100
AcDbSpline
210
0.0
220
0.0
230
1.0
 70
     8
 71
     3
 72
    26
 73
    22
 74
     0
 42
0.000000001
 43
0.0000000001
 40
0.0
 40
0.0
 40
0.0
 40
0.0
 40
1.0
 40
1.0
 40
1.0
 40
2.0
 40
2.0
 40
2.0
 40
3.0
 40
3.0
 40
3.0
 40
4.0
 40
4.0
 40
4.0
 40
5.0
 40
5.0
 40
5.0
 40
6.0
 40
6.0
 40
6.0
 40
7.0
 40
7.0
 40
7.0
 40
7.0
 10
4.278738353963817
 20
7.913114703114743
 30
0.0
 10
4.278738353963817
 20
7.913114703114743
 30
0.0
 10
4.276617467055743
 20
7.915230207061142
 30
0.0
 10
4.276617467055743
 20
7.915230207061142
 30
0.0
 10
4.276617467055743
 20
7.915230207061142
 30
0.0
 10
4.278738353963817
 20
7.93287017253796
 30
0.0
 10
4.278738353963817
 20
7.93287017253796
 30
0.0
 10
4.278738353963817
 20
7.93287017253796
 30
0.0
 10
4.28085385791023
 20
7.943805659222782
 30
0.0
 10
4.28085385791023
 20
7.943805659222782
 30
0.0
 10
4.28085385791023
 20
7.943805659222782
 30
0.0
 10
4.28544014127496
 20
7.963208544654953
 30
0.0
 10
4.28544014127496
 20
7.963208544654953
 30
0.0
 10
4.299904159351328
 20
7.999544881841366
 30
0.0
 10
4.328476920032144
 20
8.030588421940485
 30
0.0
 10
4.363756850985794
 20
8.04611153773046
 30
0.0
 10
4.363756850985794
 20
8.04611153773046
 30
0.0
 10
4.38139143350088
 20
8.052814670782048
 30
0.0
 10
4.38139143350088
 20
8.052814670782048
 30
0.0
 10
4.38139143350088
 20
8.052814670782048
 30
0.0
 10
4.418436975890699
 20
8.057047024415275
 30
0.0
 10
4.418436975890699
 20
8.057047024415275
 30
0.0
  0
POLYLINE
  5
7C9
330
1F
100
AcDbEntity
  8
Livello 1
100
AcDb2dPolyline
 66
     1
 10
0.0
 20
0.0
 30
0.0
  0
VERTEX
  5
7CA
330
7C9
100
AcDbEntity
  8
Livello 1
100
AcDbVertex
100
AcDb2dVertex
 10
4.278738353963817
 20
7.906589207799122
 30
0.0
  0
VERTEX
  5
7CB
330
7C9
100
AcDbEntity
  8
Livello 1
100
AcDbVertex
100
AcDb2dVertex
 10
4.28085385791023
 20
7.906589207799122
 30
0.0
  0
SEQEND
  5
7CC
330
7C9
100
AcDbEntity
  8
Livello 1
  0
POLYLINE
  5
7CD
330
1F
100
AcDbEntity
  8
Livello 1
100
AcDb2dPolyline
 66
     1
 10
0.0
 20
0.0
 30
0.0
  0
VERTEX
  5
7CE
330
7CD
100
AcDbEntity
  8
Livello 1
100
AcDbVertex
100
AcDb2dVertex
 10
4.381359135730718
 20
5.125994774815758
 30
0.0
  0
VERTEX
  5
7CF
330
7CD
100
AcDbEntity
  8
Livello 1
100
AcDbVertex
100
AcDb2dVertex
 10
4.418399295158863
 20
5.12176107544208
 30
0.0
  0
SEQEND
  5
7D0
330
7CD
100
AcDbEntity
  8
Livello 1
  0
POLYLINE
  5
7D1
330
1F
100
AcDbEntity
  8
Livello 1
100
AcDb2dPolyline
 66
     1
 10
0.0
 20
0.0
 30
0.0
  0
VERTEX
  5
7D2
330
7D1
100
AcDbEntity
  8
Livello 1
100
AcDbVertex
100
AcDb2dVertex
 10
4.280961517144163
 20
5.232956915190214
 30
0.0
  0
VERTEX
  5
7D3
330
7D1
100
AcDbEntity
  8
Livello 1
100
AcDbVertex
100
AcDb2dVertex
 10
4.294009816294533
 20
5.198030913968061
 30
0.0
  0
VERTEX
  5
7D4
330
7D1
100
AcDbEntity
  8
Livello 1
100
AcDbVertex
100
AcDb2dVertex
 10
4.296130703202663
 20
5.191329126656917
 30
0.0
  0
VERTEX
  5
7D5
330
7D1
100
AcDbEntity
  8
Livello 1
100
AcDbVertex
100
AcDb2dVertex
 10
4.31588617262588
 20
5.165223108173186
 30
0.0
  0
VERTEX
  5
7D6
330
7D1
100
AcDbEntity
  8
Livello 1
100
AcDbVertex
100
AcDb2dVertex
 10
4.346574437253082
 20
5.141233939376284
 30
0.0
  0
VERTEX
  5
7D7
330
7D1
100
AcDbEntity
  8
Livello 1
100
AcDbVertex
100
AcDb2dVertex
 10
4.381499092734799
 20
5.126064753317798
 30
0.0
  0
SEQEND
  5
7D8
330
7D1
100
AcDbEntity
  8
Livello 1
  0
POLYLINE
  5
7D9
330
1F
100
AcDbEntity
  8
Livello 1
100
AcDb2dPolyline
 66
     1
 10
0.0
 20
0.0
 30
0.0
  0
VERTEX
  5
7DA
330
7D9
100
AcDbEntity
  8
Livello 1
100
AcDbVertex
100
AcDb2dVertex
 10
4.278738353963817
 20
5.246079230063919
 30
0.0
  0
VERTEX
  5
7DB
330
7D9
100
AcDbEntity
  8
Livello 1
100
AcDbVertex
100
AcDb2dVertex
 10
4.28085385791023
 20
5.233025547951839
 30
0.0
  0
SEQEND
  5
7DC
330
7D9
100
AcDbEntity
  8
Livello 1
  0
POLYLINE
  5
7DD
330
1F
100
AcDbEntity
  8
Livello 1
100
AcDb2dPolyline
 66
     1
 10
0.0
 20
0.0
 30
0.0
  0
VERTEX
  5
7DE
330
7DD
100
AcDbEntity
  8
Livello 1
100
AcDbVertex
100
AcDb2dVertex
 10
4.276585169285525
 20
5.263506568553758
 30
0.0
  0
VERTEX
  5
7DF
330
7DD
100
AcDbEntity
  8
Livello 1
100
AcDbVertex
100
AcDb2dVertex
 10
4.278700673231966
 20
5.246219187067993
 30
0.0
  0
SEQEND
  5
7E0
330
7DD
100
AcDbEntity
  8
Livello 1
  0
POLYLINE
  5
7E1
330
1F
100
AcDbEntity
  8
Livello 1
100
AcDb2dPolyline
 66
     1
 10
0.0
 20
0.0
 30
0.0
  0
VERTEX
  5
7E2
330
7E1
100
AcDbEntity
  8
Livello 1
100
AcDbVertex
100
AcDb2dVertex
 10
4.276585169285525
 20
5.263506568553758
 30
0.0
  0
VERTEX
  5
7E3
330
7E1
100
AcDbEntity
  8
Livello 1
100
AcDbVertex
100
AcDb2dVertex
 10
4.278700673231966
 20
5.265622072500164
 30
0.0
  0
SEQEND
  5
7E4
330
7E1
100
AcDbEntity
  8
Livello 1
  0
POLYLINE
  5
7E5
330
1F
100
AcDbEntity
  8
Livello 1
100
AcDb2dPolyline
 66
     1
 10
0.0
 20
0.0
 30
0.0
  0
VERTEX
  5
7E6
330
7E5
100
AcDbEntity
  8
Livello 1
100
AcDbVertex
100
AcDb2dVertex
 10
4.278738353963817
 20
5.270068398860814
 30
0.0
  0
VERTEX
  5
7E7
330
7E5
100
AcDbEntity
  8
Livello 1
100
AcDbVertex
100
AcDb2dVertex
 10
4.278738353963817
 20
5.265834699487136
 30
0.0
  0
SEQEND
  5
7E8
330
7E5
100
AcDbEntity
  8
Livello 1
  0
POLYLINE
  5
7E9
330
1F
100
AcDbEntity
  8
Livello 1
100
AcDb2dPolyline
 66
     1
 10
0.0
 20
0.0
 30
0.0
  0
VERTEX
  5
7EA
330
7E9
100
AcDbEntity
  8
Livello 1
100
AcDbVertex
100
AcDb2dVertex
 10
4.280961517144163
 20
5.272256572790119
 30
0.0
  0
VERTEX
  5
7EB
330
7E9
100
AcDbEntity
  8
Livello 1
100
AcDbVertex
100
AcDb2dVertex
 10
4.278840630236075
 20
5.270139723103277
 30
0.0
  0
SEQEND
  5
7EC
330
7E9
100
AcDbEntity
  8
Livello 1
  0
POLYLINE
  5
7ED
330
1F
100
AcDbEntity
  8
Livello 1
100
AcDb2dPolyline
 66
     1
 10
0.0
 20
0.0
 30
0.0
  0
VERTEX
  5
7EE
330
7ED
100
AcDbEntity
  8
Livello 1
100
AcDbVertex
100
AcDb2dVertex
 10
11.59245536771966
 20
7.542098105459693
 30
0.0
  0
VERTEX
  5
7EF
330
7ED
100
AcDbEntity
  8
Livello 1
100
AcDbVertex
100
AcDb2dVertex
 10
11.59245536771966
 20
7.544213609406092
 30
0.0
  0
SEQEND
  5
7F0
330
7ED
100
AcDbEntity
  8
Livello 1
  0
POLYLINE
  5
7F1
330
1F
100
AcDbEntity
  8
Livello 1
100
AcDb2dPolyline
 66
     1
 10
0.0
 20
0.0
 30
0.0
  0
VERTEX
  5
7F2
330
7F1
100
AcDbEntity
  8
Livello 1
100
AcDbVertex
100
AcDb2dVertex
 10
11.59245536771966
 20
7.544286279388998
 30
0.0
  0
VERTEX
  5
7F3
330
7F1
100
AcDbEntity
  8
Livello 1
100
AcDbVertex
100
AcDb2dVertex
 10
11.59245536771966
 20
7.91329099511028
 30
0.0
  0
SEQEND
  5
7F4
330
7F1
100
AcDbEntity
  8
Livello 1
  0
POLYLINE
  5
7F5
330
1F
100
AcDbEntity
  8
Livello 1
100
AcDb2dPolyline
 66
     1
 10
0.0
 20
0.0
 30
0.0
  0
VERTEX
  5
7F6
330
7F5
100
AcDbEntity
  8
Livello 1
100
AcDbVertex
100
AcDb2dVertex
 10
4.278738353963817
 20
5.265729731734083
 30
0.0
  0
VERTEX
  5
7F7
330
7F5
100
AcDbEntity
  8
Livello 1
100
AcDbVertex
100
AcDb2dVertex
 10
4.278738353963817
 20
7.416968469362238
 30
0.0
  0
SEQEND
  5
7F8
330
7F5
100
AcDbEntity
  8
Livello 1
  0
POLYLINE
  5
7F9
330
1F
100
AcDbEntity
  8
Livello 1
100
AcDb2dPolyline
 66
     1
 10
0.0
 20
0.0
 30
0.0
  0
VERTEX
  5
7FA
330
7F9
100
AcDbEntity
  8
Livello 1
100
AcDbVertex
100
AcDb2dVertex
 10
4.276585169285525
 20
5.263506568553758
 30
0.0
  0
VERTEX
  5
7FB
330
7F9
100
AcDbEntity
  8
Livello 1
100
AcDbVertex
100
AcDb2dVertex
 10
4.278700673231966
 20
5.263506568553758
 30
0.0
  0
SEQEND
  5
7FC
330
7F9
100
AcDbEntity
  8
Livello 1
  0
POLYLINE
  5
7FD
330
1F
100
AcDbEntity
  8
Livello 1
100
AcDb2dPolyline
 66
     1
 10
0.0
 20
0.0
 30
0.0
  0
VERTEX
  5
7FE
330
7FD
100
AcDbEntity
  8
Livello 1
100
AcDbVertex
100
AcDb2dVertex
 10
4.276585169285525
 20
7.553034937884937
 30
0.0
  0
VERTEX
  5
7FF
330
7FD
100
AcDbEntity
  8
Livello 1
100
AcDbVertex
100
AcDb2dVertex
 10
4.276585169285525
 20
7.411218120530797
 30
0.0
  0
SEQEND
  5
800
330
7FD
100
AcDbEntity
  8
Livello 1
  0
POLYLINE
  5
801
330
1F
100
AcDbEntity
  8
Livello 1
100
AcDb2dPolyline
 66
     1
 10
0.0
 20
0.0
 30
0.0
  0
VERTEX
  5
802
330
801
100
AcDbEntity
  8
Livello 1
100
AcDbVertex
100
AcDb2dVertex
 10
4.276585169285525
 20
7.915337866295068
 30
0.0
  0
VERTEX
  5
803
330
801
100
AcDbEntity
  8
Livello 1
100
AcDbVertex
100
AcDb2dVertex
 10
4.276585169285525
 20
7.553034937884937
 30
0.0
  0
SEQEND
  5
804
330
801
100
AcDbEntity
  8
Livello 1
  0
POLYLINE
  5
805
330
1F
100
AcDbEntity
  8
Livello 1
100
AcDb2dPolyline
 66
     1
 10
0.0
 20
0.0
 30
0.0
  0
VERTEX
  5
806
330
805
100
AcDbEntity
  8
Livello 1
100
AcDbVertex
100
AcDb2dVertex
 10
4.278738353963817
 20
7.544286279388998
 30
0.0
  0
VERTEX
  5
807
330
805
100
AcDbEntity
  8
Livello 1
100
AcDbVertex
100
AcDb2dVertex
 10
4.278738353963817
 20
7.91329099511028
 30
0.0
  0
SEQEND
  5
808
330
805
100
AcDbEntity
  8
Livello 1
  0
POLYLINE
  5
809
330
1F
100
AcDbEntity
  8
Livello 1
100
AcDb2dPolyline
 66
     1
 10
0.0
 20
0.0
 30
0.0
  0
VERTEX
  5
80A
330
809
100
AcDbEntity
  8
Livello 1
100
AcDbVertex
100
AcDb2dVertex
 10
4.272208821426943
 20
7.408996303090894
 30
0.0
  0
VERTEX
  5
80B
330
809
100
AcDbEntity
  8
Livello 1
100
AcDbVertex
100
AcDb2dVertex
 10
4.276439829319784
 20
7.40476260371723
 30
0.0
  0
SEQEND
  5
80C
330
809
100
AcDbEntity
  8
Livello 1
  0
POLYLINE
  5
80D
330
1F
100
AcDbEntity
  8
Livello 1
100
AcDb2dPolyline
 66
     1
 10
0.0
 20
0.0
 30
0.0
  0
VERTEX
  5
80E
330
80D
100
AcDbEntity
  8
Livello 1
100
AcDbVertex
100
AcDb2dVertex
 10
11.59683171557829
 20
7.404621300972713
 30
0.0
  0
VERTEX
  5
80F
330
80D
100
AcDbEntity
  8
Livello 1
100
AcDbVertex
100
AcDb2dVertex
 10
11.60106272347118
 20
7.408853654605955
 30
0.0
  0
SEQEND
  5
810
330
80D
100
AcDbEntity
  8
Livello 1
  0
POLYLINE
  5
811
330
1F
100
AcDbEntity
  8
Livello 1
100
AcDb2dPolyline
 66
     1
 10
0.0
 20
0.0
 30
0.0
  0
VERTEX
  5
812
330
811
100
AcDbEntity
  8
Livello 1
100
AcDbVertex
100
AcDb2dVertex
 10
12.75792578741807
 20
7.550811774704627
 30
0.0
  0
VERTEX
  5
813
330
811
100
AcDbEntity
  8
Livello 1
100
AcDbVertex
100
AcDb2dVertex
 10
12.75792578741807
 20
7.552927278651011
 30
0.0
  0
SEQEND
  5
814
330
811
100
AcDbEntity
  8
Livello 1
  0
POLYLINE
  5
815
330
1F
100
AcDbEntity
  8
Livello 1
100
AcDb2dPolyline
 66
     1
 10
0.0
 20
0.0
 30
0.0
  0
VERTEX
  5
816
330
815
100
AcDbEntity
  8
Livello 1
100
AcDbVertex
100
AcDb2dVertex
 10
3.113265242784649
 20
7.553034937884937
 30
0.0
  0
VERTEX
  5
817
330
815
100
AcDbEntity
  8
Livello 1
100
AcDbVertex
100
AcDb2dVertex
 10
3.115380746731091
 20
7.550918088198102
 30
0.0
  0
SEQEND
  5
818
330
815
100
AcDbEntity
  8
Livello 1
  0
POLYLINE
  5
819
330
1F
100
AcDbEntity
  8
Livello 1
100
AcDb2dPolyline
 66
     1
 10
0.0
 20
0.0
 30
0.0
  0
VERTEX
  5
81A
330
819
100
AcDbEntity
  8
Livello 1
100
AcDbVertex
100
AcDb2dVertex
 10
3.115488405964967
 20
6.845856419554515
 30
0.0
  0
VERTEX
  5
81B
330
819
100
AcDbEntity
  8
Livello 1
100
AcDbVertex
100
AcDb2dVertex
 10
3.115488405964967
 20
5.514472354471237
 30
0.0
  0
SEQEND
  5
81C
330
819
100
AcDbEntity
  8
Livello 1
  0
POLYLINE
  5
81D
330
1F
100
AcDbEntity
  8
Livello 1
100
AcDb2dPolyline
 66
     1
 10
0.0
 20
0.0
 30
0.0
  0
VERTEX
  5
81E
330
81D
100
AcDbEntity
  8
Livello 1
100
AcDbVertex
100
AcDb2dVertex
 10
12.75792578741807
 20
6.206376718990092
 30
0.0
  0
VERTEX
  5
81F
330
81D
100
AcDbEntity
  8
Livello 1
100
AcDbVertex
100
AcDb2dVertex
 10
12.75792578741807
 20
6.845962733048004
 30
0.0
  0
VERTEX
  5
820
330
81D
100
AcDbEntity
  8
Livello 1
100
AcDbVertex
100
AcDb2dVertex
 10
12.76004129136447
 20
6.845962733048004
 30
0.0
  0
SEQEND
  5
821
330
81D
100
AcDbEntity
  8
Livello 1
  0
POLYLINE
  5
822
330
1F
100
AcDbEntity
  8
Livello 1
100
AcDb2dPolyline
 66
     1
 10
0.0
 20
0.0
 30
0.0
  0
VERTEX
  5
823
330
822
100
AcDbEntity
  8
Livello 1
100
AcDbVertex
100
AcDb2dVertex
 10
3.115488405964967
 20
6.845856419554515
 30
0.0
  0
VERTEX
  5
824
330
822
100
AcDbEntity
  8
Livello 1
100
AcDbVertex
100
AcDb2dVertex
 10
3.113370210537723
 20
6.845856419554515
 30
0.0
  0
SEQEND
  5
825
330
822
100
AcDbEntity
  8
Livello 1
  0
POLYLINE
  5
826
330
1F
100
AcDbEntity
  8
Livello 1
100
AcDb2dPolyline
 66
     1
 10
0.0
 20
0.0
 30
0.0
  0
VERTEX
  5
827
330
826
100
AcDbEntity
  8
Livello 1
100
AcDbVertex
100
AcDb2dVertex
 10
12.75792578741807
 20
7.428610469769608
 30
0.0
  0
VERTEX
  5
828
330
826
100
AcDbEntity
  8
Livello 1
100
AcDbVertex
100
AcDb2dVertex
 10
12.75792578741807
 20
7.550670471960089
 30
0.0
  0
SEQEND
  5
829
330
826
100
AcDbEntity
  8
Livello 1
  0
POLYLINE
  5
82A
330
1F
100
AcDbEntity
  8
Livello 1
100
AcDb2dPolyline
 66
     1
 10
0.0
 20
0.0
 30
0.0
  0
VERTEX
  5
82B
330
82A
100
AcDbEntity
  8
Livello 1
100
AcDbVertex
100
AcDb2dVertex
 10
3.115488405964967
 20
7.550811774704627
 30
0.0
  0
VERTEX
  5
82C
330
82A
100
AcDbEntity
  8
Livello 1
100
AcDbVertex
100
AcDb2dVertex
 10
3.115488405964967
 20
7.428750426773703
 30
0.0
  0
SEQEND
  5
82D
330
82A
100
AcDbEntity
  8
Livello 1
  0
POLYLINE
  5
82E
330
1F
100
AcDbEntity
  8
Livello 1
100
AcDb2dPolyline
 66
     1
 10
0.0
 20
0.0
 30
0.0
  0
VERTEX
  5
82F
330
82E
100
AcDbEntity
  8
Livello 1
100
AcDbVertex
100
AcDb2dVertex
 10
12.75792578741807
 20
7.553034937884937
 30
0.0
  0
VERTEX
  5
830
330
82E
100
AcDbEntity
  8
Livello 1
100
AcDbVertex
100
AcDb2dVertex
 10
12.75792578741807
 20
7.428504156276119
 30
0.0
  0
VERTEX
  5
831
330
82E
100
AcDbEntity
  8
Livello 1
100
AcDbVertex
100
AcDb2dVertex
 10
12.76004129136447
 20
7.428504156276119
 30
0.0
  0
SEQEND
  5
832
330
82E
100
AcDbEntity
  8
Livello 1
  0
POLYLINE
  5
833
330
1F
100
AcDbEntity
  8
Livello 1
100
AcDb2dPolyline
 66
     1
 10
0.0
 20
0.0
 30
0.0
  0
VERTEX
  5
834
330
833
100
AcDbEntity
  8
Livello 1
100
AcDbVertex
100
AcDb2dVertex
 10
3.113265242784649
 20
7.428610469769608
 30
0.0
  0
VERTEX
  5
835
330
833
100
AcDbEntity
  8
Livello 1
100
AcDbVertex
100
AcDb2dVertex
 10
3.115380746731091
 20
7.428610469769608
 30
0.0
  0
SEQEND
  5
836
330
833
100
AcDbEntity
  8
Livello 1
  0
POLYLINE
  5
837
330
1F
100
AcDbEntity
  8
Livello 1
100
AcDb2dPolyline
 66
     1
 10
0.0
 20
0.0
 30
0.0
  0
VERTEX
  5
838
330
837
100
AcDbEntity
  8
Livello 1
100
AcDbVertex
100
AcDb2dVertex
 10
3.113265242784649
 20
7.553034937884937
 30
0.0
  0
VERTEX
  5
839
330
837
100
AcDbEntity
  8
Livello 1
100
AcDbVertex
100
AcDb2dVertex
 10
3.113265242784649
 20
7.428504156276119
 30
0.0
  0
SEQEND
  5
83A
330
837
100
AcDbEntity
  8
Livello 1
  0
POLYLINE
  5
83B
330
1F
100
AcDbEntity
  8
Livello 1
100
AcDb2dPolyline
 66
     1
 10
0.0
 20
0.0
 30
0.0
  0
VERTEX
  5
83C
330
83B
100
AcDbEntity
  8
Livello 1
100
AcDbVertex
100
AcDb2dVertex
 10
12.75792578741807
 20
7.553034937884937
 30
0.0
  0
VERTEX
  5
83D
330
83B
100
AcDbEntity
  8
Livello 1
100
AcDbVertex
100
AcDb2dVertex
 10
12.75792578741807
 20
7.672978090388589
 30
0.0
  0
SEQEND
  5
83E
330
83B
100
AcDbEntity
  8
Livello 1
  0
POLYLINE
  5
83F
330
1F
100
AcDbEntity
  8
Livello 1
100
AcDb2dPolyline
 66
     1
 10
0.0
 20
0.0
 30
0.0
  0
VERTEX
  5
840
330
83F
100
AcDbEntity
  8
Livello 1
100
AcDbVertex
100
AcDb2dVertex
 10
12.75792578741807
 20
5.503571857037435
 30
0.0
  0
VERTEX
  5
841
330
83F
100
AcDbEntity
  8
Livello 1
100
AcDbVertex
100
AcDb2dVertex
 10
12.75792578741807
 20
6.206304049007201
 30
0.0
  0
SEQEND
  5
842
330
83F
100
AcDbEntity
  8
Livello 1
  0
POLYLINE
  5
843
330
1F
100
AcDbEntity
  8
Livello 1
100
AcDb2dPolyline
 66
     1
 10
0.0
 20
0.0
 30
0.0
  0
VERTEX
  5
844
330
843
100
AcDbEntity
  8
Livello 1
100
AcDbVertex
100
AcDb2dVertex
 10
3.113265242784649
 20
7.673049414631059
 30
0.0
  0
VERTEX
  5
845
330
843
100
AcDbEntity
  8
Livello 1
100
AcDbVertex
100
AcDb2dVertex
 10
3.124200729469478
 20
7.727729539536014
 30
0.0
  0
VERTEX
  5
846
330
843
100
AcDbEntity
  8
Livello 1
100
AcDbVertex
100
AcDb2dVertex
 10
3.154891685577524
 20
7.773591027442968
 30
0.0
  0
VERTEX
  5
847
330
843
100
AcDbEntity
  8
Livello 1
100
AcDbVertex
100
AcDb2dVertex
 10
3.200399243753011
 20
7.803929399559947
 30
0.0
  0
VERTEX
  5
848
330
843
100
AcDbEntity
  8
Livello 1
100
AcDbVertex
100
AcDb2dVertex
 10
3.255079368657945
 20
7.81486488624477
 30
0.0
  0
SEQEND
  5
849
330
843
100
AcDbEntity
  8
Livello 1
  0
POLYLINE
  5
84A
330
1F
100
AcDbEntity
  8
Livello 1
100
AcDb2dPolyline
 66
     1
 10
0.0
 20
0.0
 30
0.0
  0
VERTEX
  5
84B
330
84A
100
AcDbEntity
  8
Livello 1
100
AcDbVertex
100
AcDb2dVertex
 10
3.255152038640829
 20
7.814901221236212
 30
0.0
  0
VERTEX
  5
84C
330
84A
100
AcDbEntity
  8
Livello 1
100
AcDbVertex
100
AcDb2dVertex
 10
4.276439829319784
 20
7.814901221236212
 30
0.0
  0
SEQEND
  5
84D
330
84A
100
AcDbEntity
  8
Livello 1
  0
POLYLINE
  5
84E
330
1F
100
AcDbEntity
  8
Livello 1
100
AcDb2dPolyline
 66
     1
 10
0.0
 20
0.0
 30
0.0
  0
VERTEX
  5
84F
330
84E
100
AcDbEntity
  8
Livello 1
100
AcDbVertex
100
AcDb2dVertex
 10
3.113265242784649
 20
7.673049414631059
 30
0.0
  0
VERTEX
  5
850
330
84E
100
AcDbEntity
  8
Livello 1
100
AcDbVertex
100
AcDb2dVertex
 10
3.113265242784649
 20
7.553104916386978
 30
0.0
  0
SEQEND
  5
851
330
84E
100
AcDbEntity
  8
Livello 1
  0
POLYLINE
  5
852
330
1F
100
AcDbEntity
  8
Livello 1
100
AcDb2dPolyline
 66
     1
 10
0.0
 20
0.0
 30
0.0
  0
VERTEX
  5
853
330
852
100
AcDbEntity
  8
Livello 1
100
AcDbVertex
100
AcDb2dVertex
 10
3.255152038640829
 20
5.361755039683302
 30
0.0
  0
VERTEX
  5
854
330
852
100
AcDbEntity
  8
Livello 1
100
AcDbVertex
100
AcDb2dVertex
 10
3.200469222255065
 20
5.372690526368117
 30
0.0
  0
VERTEX
  5
855
330
852
100
AcDbEntity
  8
Livello 1
100
AcDbVertex
100
AcDb2dVertex
 10
3.154609080088505
 20
5.403381482476163
 30
0.0
  0
VERTEX
  5
856
330
852
100
AcDbEntity
  8
Livello 1
100
AcDbVertex
100
AcDb2dVertex
 10
3.124270707971518
 20
5.448890386392065
 30
0.0
  0
VERTEX
  5
857
330
852
100
AcDbEntity
  8
Livello 1
100
AcDbVertex
100
AcDb2dVertex
 10
3.113335221286703
 20
5.50357051129702
 30
0.0
  0
SEQEND
  5
858
330
852
100
AcDbEntity
  8
Livello 1
  0
POLYLINE
  5
859
330
1F
100
AcDbEntity
  8
Livello 1
100
AcDb2dPolyline
 66
     1
 10
0.0
 20
0.0
 30
0.0
  0
VERTEX
  5
85A
330
859
100
AcDbEntity
  8
Livello 1
100
AcDbVertex
100
AcDb2dVertex
 10
3.255152038640829
 20
5.361755039683302
 30
0.0
  0
VERTEX
  5
85B
330
859
100
AcDbEntity
  8
Livello 1
100
AcDbVertex
100
AcDb2dVertex
 10
4.276439829319784
 20
5.361755039683302
 30
0.0
  0
SEQEND
  5
85C
330
859
100
AcDbEntity
  8
Livello 1
  0
POLYLINE
  5
85D
330
1F
100
AcDbEntity
  8
Livello 1
100
AcDb2dPolyline
 66
     1
 10
0.0
 20
0.0
 30
0.0
  0
VERTEX
  5
85E
330
85D
100
AcDbEntity
  8
Livello 1
100
AcDbVertex
100
AcDb2dVertex
 10
7.188062278678685
 20
5.361755039683302
 30
0.0
  0
VERTEX
  5
85F
330
85D
100
AcDbEntity
  8
Livello 1
100
AcDbVertex
100
AcDb2dVertex
 10
7.098452115330275
 20
5.361755039683302
 30
0.0
  0
VERTEX
  5
860
330
85D
100
AcDbEntity
  8
Livello 1
100
AcDbVertex
100
AcDb2dVertex
 10
7.098452115330275
 20
5.198771071201221
 30
0.0
  0
VERTEX
  5
861
330
85D
100
AcDbEntity
  8
Livello 1
100
AcDbVertex
100
AcDb2dVertex
 10
7.098452115330275
 20
5.121512113463651
 30
0.0
  0
VERTEX
  5
862
330
85D
100
AcDbEntity
  8
Livello 1
100
AcDbVertex
100
AcDb2dVertex
 10
4.418399295158863
 20
5.121512113463651
 30
0.0
  0
VERTEX
  5
863
330
85D
100
AcDbEntity
  8
Livello 1
100
AcDbVertex
100
AcDb2dVertex
 10
4.42263568601335
 20
5.123981547141568
 30
0.0
  0
SEQEND
  5
864
330
85D
100
AcDbEntity
  8
Livello 1
  0
POLYLINE
  5
865
330
1F
100
AcDbEntity
  8
Livello 1
100
AcDb2dPolyline
 66
     1
 10
0.0
 20
0.0
 30
0.0
  0
VERTEX
  5
866
330
865
100
AcDbEntity
  8
Livello 1
100
AcDbVertex
100
AcDb2dVertex
 10
12.61826484622297
 20
7.814901221236212
 30
0.0
  0
VERTEX
  5
867
330
865
100
AcDbEntity
  8
Livello 1
100
AcDbVertex
100
AcDb2dVertex
 10
12.67047419170967
 20
7.803964388810975
 30
0.0
  0
VERTEX
  5
868
330
865
100
AcDbEntity
  8
Livello 1
100
AcDbVertex
100
AcDb2dVertex
 10
12.71633702535708
 20
7.773273432702929
 30
0.0
  0
VERTEX
  5
869
330
865
100
AcDbEntity
  8
Livello 1
100
AcDbVertex
100
AcDb2dVertex
 10
12.74914079393068
 20
7.727764528787027
 30
0.0
  0
VERTEX
  5
86A
330
865
100
AcDbEntity
  8
Livello 1
100
AcDbVertex
100
AcDb2dVertex
 10
12.75796346814987
 20
7.673084403882079
 30
0.0
  0
SEQEND
  5
86B
330
865
100
AcDbEntity
  8
Livello 1
  0
POLYLINE
  5
86C
330
1F
100
AcDbEntity
  8
Livello 1
100
AcDb2dPolyline
 66
     1
 10
0.0
 20
0.0
 30
0.0
  0
VERTEX
  5
86D
330
86C
100
AcDbEntity
  8
Livello 1
100
AcDbVertex
100
AcDb2dVertex
 10
12.75792578741807
 20
5.503571857037435
 30
0.0
  0
VERTEX
  5
86E
330
86C
100
AcDbEntity
  8
Livello 1
100
AcDbVertex
100
AcDb2dVertex
 10
12.74910311319877
 20
5.448890386392065
 30
0.0
  0
VERTEX
  5
86F
330
86C
100
AcDbEntity
  8
Livello 1
100
AcDbVertex
100
AcDb2dVertex
 10
12.71629396166348
 20
5.403028898485096
 30
0.0
  0
VERTEX
  5
870
330
86C
100
AcDbEntity
  8
Livello 1
100
AcDbVertex
100
AcDb2dVertex
 10
12.67078640348797
 20
5.372690526368117
 30
0.0
  0
VERTEX
  5
871
330
86C
100
AcDbEntity
  8
Livello 1
100
AcDbVertex
100
AcDb2dVertex
 10
12.61822178252947
 20
5.361755039683302
 30
0.0
  0
SEQEND
  5
872
330
86C
100
AcDbEntity
  8
Livello 1
  0
POLYLINE
  5
873
330
1F
100
AcDbEntity
  8
Livello 1
100
AcDb2dPolyline
 66
     1
 10
0.0
 20
0.0
 30
0.0
  0
VERTEX
  5
874
330
873
100
AcDbEntity
  8
Livello 1
100
AcDbVertex
100
AcDb2dVertex
 10
12.61826484622297
 20
5.36390822436158
 30
0.0
  0
VERTEX
  5
875
330
873
100
AcDbEntity
  8
Livello 1
100
AcDbVertex
100
AcDb2dVertex
 10
12.61826484622297
 20
5.361791374674744
 30
0.0
  0
VERTEX
  5
876
330
873
100
AcDbEntity
  8
Livello 1
100
AcDbVertex
100
AcDb2dVertex
 10
11.59697167258238
 20
5.361791374674744
 30
0.0
  0
SEQEND
  5
877
330
873
100
AcDbEntity
  8
Livello 1
  0
POLYLINE
  5
878
330
1F
100
AcDbEntity
  8
Livello 1
100
AcDb2dPolyline
 66
     1
 10
0.0
 20
0.0
 30
0.0
  0
VERTEX
  5
879
330
878
100
AcDbEntity
  8
Livello 1
100
AcDbVertex
100
AcDb2dVertex
 10
12.61826484622297
 20
7.814901221236212
 30
0.0
  0
VERTEX
  5
87A
330
878
100
AcDbEntity
  8
Livello 1
100
AcDbVertex
100
AcDb2dVertex
 10
11.59697167258238
 20
7.814901221236212
 30
0.0
  0
SEQEND
  5
87B
330
878
100
AcDbEntity
  8
Livello 1
  0
POLYLINE
  5
87C
330
1F
100
AcDbEntity
  8
Livello 1
100
AcDb2dPolyline
 66
     1
 10
0.0
 20
0.0
 30
0.0
  0
VERTEX
  5
87D
330
87C
100
AcDbEntity
  8
Livello 1
100
AcDbVertex
100
AcDb2dVertex
 10
8.460529828002478
 20
5.36390822436158
 30
0.0
  0
VERTEX
  5
87E
330
87C
100
AcDbEntity
  8
Livello 1
100
AcDbVertex
100
AcDb2dVertex
 10
7.188056895716968
 20
5.36390822436158
 30
0.0
  0
SEQEND
  5
87F
330
87C
100
AcDbEntity
  8
Livello 1
  0
POLYLINE
  5
880
330
1F
100
AcDbEntity
  8
Livello 1
100
AcDb2dPolyline
 66
     1
 10
0.0
 20
0.0
 30
0.0
  0
VERTEX
  5
881
330
880
100
AcDbEntity
  8
Livello 1
100
AcDbVertex
100
AcDb2dVertex
 10
3.115453416713961
 20
6.845856419554515
 30
0.0
  0
VERTEX
  5
882
330
880
100
AcDbEntity
  8
Livello 1
100
AcDbVertex
100
AcDb2dVertex
 10
3.115453416713961
 20
7.428644113280206
 30
0.0
  0
SEQEND
  5
883
330
880
100
AcDbEntity
  8
Livello 1
  0
POLYLINE
  5
884
330
1F
100
AcDbEntity
  8
Livello 1
100
AcDb2dPolyline
 66
     1
 10
0.0
 20
0.0
 30
0.0
  0
VERTEX
  5
885
330
884
100
AcDbEntity
  8
Livello 1
100
AcDbVertex
100
AcDb2dVertex
 10
12.75792578741807
 20
6.845856419554515
 30
0.0
  0
VERTEX
  5
886
330
884
100
AcDbEntity
  8
Livello 1
100
AcDbVertex
100
AcDb2dVertex
 10
12.75792578741807
 20
7.164414709744512
 30
0.0
  0
SEQEND
  5
887
330
884
100
AcDbEntity
  8
Livello 1
  0
POLYLINE
  5
888
330
1F
100
AcDbEntity
  8
Livello 1
100
AcDb2dPolyline
 66
     1
 10
0.0
 20
0.0
 30
0.0
  0
VERTEX
  5
889
330
888
100
AcDbEntity
  8
Livello 1
100
AcDbVertex
100
AcDb2dVertex
 10
12.75792578741807
 20
7.167413019409011
 30
0.0
  0
VERTEX
  5
88A
330
888
100
AcDbEntity
  8
Livello 1
100
AcDbVertex
100
AcDb2dVertex
 10
12.75792578741807
 20
7.428467821284669
 30
0.0
  0
SEQEND
  5
88B
330
888
100
AcDbEntity
  8
Livello 1
  0
SPLINE
  5
88C
330
1F
100
AcDbEntity
  8
Livello 1
100
AcDbSpline
210
0.0
220
0.0
230
1.0
 70
    11
 71
     3
 72
    23
 73
    19
 74
     0
 42
0.000000001
 43
0.0000000001
 40
0.0
 40
0.0
 40
0.0
 40
0.0
 40
1.0
 40
1.0
 40
1.0
 40
2.0
 40
2.0
 40
2.0
 40
3.0
 40
3.0
 40
3.0
 40
4.0
 40
4.0
 40
4.0
 40
5.0
 40
5.0
 40
5.0
 40
6.0
 40
6.0
 40
6.0
 40
6.0
 10
3.405718860231317
 20
7.184170179167743
 30
0.0
 10
3.405718860231317
 20
7.184170179167743
 30
0.0
 10
3.407834364177759
 20
7.236380870394775
 30
0.0
 10
3.407834364177759
 20
7.236380870394775
 30
0.0
 10
3.479449286577377
 20
7.698872827625763
 30
0.0
 10
4.120441599378295
 20
7.721097730726896
 30
0.0
 10
4.219929497438272
 20
7.260722623182758
 30
0.0
 10
4.219929497438272
 20
7.260722623182758
 30
0.0
 10
4.226276009277498
 20
7.184170179167743
 30
0.0
 10
4.226276009277498
 20
7.184170179167743
 30
0.0
 10
4.226276009277498
 20
7.184170179167743
 30
0.0
 10
4.224160505331099
 20
7.131958142200275
 30
0.0
 10
4.224160505331099
 20
7.131958142200275
 30
0.0
 10
4.151490522439118
 20
6.670525282682916
 30
0.0
 10
3.511550578649732
 20
6.649005547563923
 30
0.0
 10
3.412420647542489
 20
7.107616389412299
 30
0.0
 10
3.412420647542489
 20
7.107616389412299
 30
0.0
 10
3.405718860231317
 20
7.184170179167743
 30
0.0
 10
3.405718860231317
 20
7.184170179167743
 30
0.0
  0
POLYLINE
  5
88D
330
1F
100
AcDbEntity
  8
Livello 1
100
AcDb2dPolyline
 66
     1
 10
0.0
 20
0.0
 30
0.0
  0
VERTEX
  5
88E
330
88D
100
AcDbEntity
  8
Livello 1
100
AcDbVertex
100
AcDb2dVertex
 10
6.33906694299408
 20
5.121689751199603
 30
0.0
  0
VERTEX
  5
88F
330
88D
100
AcDbEntity
  8
Livello 1
100
AcDbVertex
100
AcDb2dVertex
 10
6.33906694299408
 20
5.064891430867412
 30
0.0
  0
SEQEND
  5
890
330
88D
100
AcDbEntity
  8
Livello 1
  0
POLYLINE
  5
891
330
1F
100
AcDbEntity
  8
Livello 1
100
AcDb2dPolyline
 66
     1
 10
0.0
 20
0.0
 30
0.0
  0
VERTEX
  5
892
330
891
100
AcDbEntity
  8
Livello 1
100
AcDbVertex
100
AcDb2dVertex
 10
6.225577961563587
 20
4.951405140917742
 30
0.0
  0
VERTEX
  5
893
330
891
100
AcDbEntity
  8
Livello 1
100
AcDbVertex
100
AcDb2dVertex
 10
6.249564438879687
 20
4.953520644864163
 30
0.0
  0
VERTEX
  5
894
330
891
100
AcDbEntity
  8
Livello 1
100
AcDbVertex
100
AcDb2dVertex
 10
6.271435412249275
 20
4.962340627602578
 30
0.0
  0
VERTEX
  5
895
330
891
100
AcDbEntity
  8
Livello 1
100
AcDbVertex
100
AcDb2dVertex
 10
6.306360067730977
 20
4.984212946712631
 30
0.0
  0
VERTEX
  5
896
330
891
100
AcDbEntity
  8
Livello 1
100
AcDbVertex
100
AcDb2dVertex
 10
6.328231041100679
 20
5.019137602194355
 30
0.0
  0
VERTEX
  5
897
330
891
100
AcDbEntity
  8
Livello 1
100
AcDbVertex
100
AcDb2dVertex
 10
6.337053715319882
 20
5.041009921304421
 30
0.0
  0
VERTEX
  5
898
330
891
100
AcDbEntity
  8
Livello 1
100
AcDbVertex
100
AcDb2dVertex
 10
6.339169219266281
 20
5.064999090101316
 30
0.0
  0
SEQEND
  5
899
330
891
100
AcDbEntity
  8
Livello 1
  0
POLYLINE
  5
89A
330
1F
100
AcDbEntity
  8
Livello 1
100
AcDb2dPolyline
 66
     1
 10
0.0
 20
0.0
 30
0.0
  0
VERTEX
  5
89B
330
89A
100
AcDbEntity
  8
Livello 1
100
AcDbVertex
100
AcDb2dVertex
 10
6.225577961563587
 20
4.951405140917742
 30
0.0
  0
VERTEX
  5
89C
330
89A
100
AcDbEntity
  8
Livello 1
100
AcDbVertex
100
AcDb2dVertex
 10
5.745444693115373
 20
4.951405140917742
 30
0.0
  0
VERTEX
  5
89D
330
89A
100
AcDbEntity
  8
Livello 1
100
AcDbVertex
100
AcDb2dVertex
 10
5.62550154061175
 20
4.962340627602578
 30
0.0
  0
VERTEX
  5
89E
330
89A
100
AcDbEntity
  8
Livello 1
100
AcDbVertex
100
AcDb2dVertex
 10
5.505203112636181
 20
4.993031583710617
 30
0.0
  0
VERTEX
  5
89F
330
89A
100
AcDbEntity
  8
Livello 1
100
AcDbVertex
100
AcDb2dVertex
 10
5.413832720813289
 20
5.032189938566013
 30
0.0
  0
VERTEX
  5
8A0
330
89A
100
AcDbEntity
  8
Livello 1
100
AcDbVertex
100
AcDb2dVertex
 10
5.32634344437308
 20
5.084401975533488
 30
0.0
  0
VERTEX
  5
8A1
330
89A
100
AcDbEntity
  8
Livello 1
100
AcDbVertex
100
AcDb2dVertex
 10
5.280485993687321
 20
5.121796064693093
 30
0.0
  0
SEQEND
  5
8A2
330
89A
100
AcDbEntity
  8
Livello 1
  0
POLYLINE
  5
8A3
330
1F
100
AcDbEntity
  8
Livello 1
100
AcDb2dPolyline
 66
     1
 10
0.0
 20
0.0
 30
0.0
  0
VERTEX
  5
8A4
330
8A3
100
AcDbEntity
  8
Livello 1
100
AcDbVertex
100
AcDb2dVertex
 10
10.59286091267447
 20
5.121689751199603
 30
0.0
  0
VERTEX
  5
8A5
330
8A3
100
AcDbEntity
  8
Livello 1
100
AcDbVertex
100
AcDb2dVertex
 10
10.54488257508068
 20
5.084646900290636
 30
0.0
  0
VERTEX
  5
8A6
330
8A3
100
AcDbEntity
  8
Livello 1
100
AcDbVertex
100
AcDb2dVertex
 10
10.45739329864038
 20
5.032083625072516
 30
0.0
  0
VERTEX
  5
8A7
330
8A3
100
AcDbEntity
  8
Livello 1
100
AcDbVertex
100
AcDb2dVertex
 10
10.36813841076397
 20
4.992925270217128
 30
0.0
  0
VERTEX
  5
8A8
330
8A3
100
AcDbEntity
  8
Livello 1
100
AcDbVertex
100
AcDb2dVertex
 10
10.24783998278838
 20
4.96223296836866
 30
0.0
  0
VERTEX
  5
8A9
330
8A3
100
AcDbEntity
  8
Livello 1
100
AcDbVertex
100
AcDb2dVertex
 10
10.12578132633838
 20
4.951297481683837
 30
0.0
  0
SEQEND
  5
8AA
330
8A3
100
AcDbEntity
  8
Livello 1
  0
POLYLINE
  5
8AB
330
1F
100
AcDbEntity
  8
Livello 1
100
AcDb2dPolyline
 66
     1
 10
0.0
 20
0.0
 30
0.0
  0
VERTEX
  5
8AC
330
8AB
100
AcDbEntity
  8
Livello 1
100
AcDbVertex
100
AcDb2dVertex
 10
9.647801242568377
 20
4.951405140917742
 30
0.0
  0
VERTEX
  5
8AD
330
8AB
100
AcDbEntity
  8
Livello 1
100
AcDbVertex
100
AcDb2dVertex
 10
10.12581362410847
 20
4.951405140917742
 30
0.0
  0
SEQEND
  5
8AE
330
8AB
100
AcDbEntity
  8
Livello 1
  0
POLYLINE
  5
8AF
330
1F
100
AcDbEntity
  8
Livello 1
100
AcDb2dPolyline
 66
     1
 10
0.0
 20
0.0
 30
0.0
  0
VERTEX
  5
8B0
330
8AF
100
AcDbEntity
  8
Livello 1
100
AcDbVertex
100
AcDb2dVertex
 10
9.647801242568377
 20
4.951405140917742
 30
0.0
  0
VERTEX
  5
8B1
330
8AF
100
AcDbEntity
  8
Livello 1
100
AcDbVertex
100
AcDb2dVertex
 10
9.604053912867371
 20
4.960223777915743
 30
0.0
  0
VERTEX
  5
8B2
330
8AF
100
AcDbEntity
  8
Livello 1
100
AcDbVertex
100
AcDb2dVertex
 10
9.584653718916086
 20
4.968691176663078
 30
0.0
  0
VERTEX
  5
8B3
330
8AF
100
AcDbEntity
  8
Livello 1
100
AcDbVertex
100
AcDb2dVertex
 10
9.567013753439297
 20
4.984212946712631
 30
0.0
  0
VERTEX
  5
8B4
330
8AF
100
AcDbEntity
  8
Livello 1
100
AcDbVertex
100
AcDb2dVertex
 10
9.545142780069681
 20
5.014551318829617
 30
0.0
  0
VERTEX
  5
8B5
330
8AF
100
AcDbEntity
  8
Livello 1
100
AcDbVertex
100
AcDb2dVertex
 10
9.536320105850379
 20
5.036423637939677
 30
0.0
  0
VERTEX
  5
8B6
330
8AF
100
AcDbEntity
  8
Livello 1
100
AcDbVertex
100
AcDb2dVertex
 10
9.534204601903979
 20
5.064999090101316
 30
0.0
  0
SEQEND
  5
8B7
330
8AF
100
AcDbEntity
  8
Livello 1
  0
POLYLINE
  5
8B8
330
1F
100
AcDbEntity
  8
Livello 1
100
AcDb2dPolyline
 66
     1
 10
0.0
 20
0.0
 30
0.0
  0
VERTEX
  5
8B9
330
8B8
100
AcDbEntity
  8
Livello 1
100
AcDbVertex
100
AcDb2dVertex
 10
9.534312261137884
 20
5.121689751199603
 30
0.0
  0
VERTEX
  5
8BA
330
8B8
100
AcDbEntity
  8
Livello 1
100
AcDbVertex
100
AcDb2dVertex
 10
9.534312261137884
 20
5.064891430867412
 30
0.0
  0
SEQEND
  5
8BB
330
8B8
100
AcDbEntity
  8
Livello 1
  0
SPLINE
  5
8BC
330
1F
100
AcDbEntity
  8
Livello 1
100
AcDbSpline
210
0.0
220
0.0
230
1.0
 70
    11
 71
     3
 72
    29
 73
    25
 74
     0
 42
0.000000001
 43
0.0000000001
 40
0.0
 40
0.0
 40
0.0
 40
0.0
 40
1.0
 40
1.0
 40
1.0
 40
2.0
 40
2.0
 40
2.0
 40
3.0
 40
3.0
 40
3.0
 40
4.0
 40
4.0
 40
4.0
 40
5.0
 40
5.0
 40
5.0
 40
6.0
 40
6.0
 40
6.0
 40
7.0
 40
7.0
 40
7.0
 40
8.0
 40
8.0
 40
8.0
 40
8.0
 10
0.6008513072216175
 20
7.431996352676208
 30
0.0
 10
0.6008513072216175
 20
7.431996352676208
 30
0.0
 10
0.6625858034287973
 20
7.428115237293603
 30
0.0
 10
0.6625858034287973
 20
7.428115237293603
 30
0.0
 10
0.6625858034287973
 20
7.428115237293603
 30
0.0
 10
0.7200892917431503
 20
7.41259346724405
 30
0.0
 10
0.7200892917431503
 20
7.41259346724405
 30
0.0
 10
1.065104838667522
 20
7.286651003930536
 30
0.0
 10
1.050993404582229
 20
6.797701789965188
 30
0.0
 10
0.6893983356350902
 20
6.704214548455482
 30
0.0
 10
0.6893983356350902
 20
6.704214548455482
 30
0.0
 10
0.6315422633296777
 20
6.692573893788527
 30
0.0
 10
0.6315422633296777
 20
6.692573893788527
 30
0.0
 10
0.6315422633296777
 20
6.692573893788527
 30
0.0
 10
0.5740387750153389
 20
6.692573893788527
 30
0.0
 10
0.5740387750153389
 20
6.692573893788527
 30
0.0
 10
0.1658757044386618
 20
6.743372903310877
 30
0.0
 10
0.1069618801600285
 20
7.271834401863124
 30
0.0
 10
0.4851391626108211
 20
7.41259346724405
 30
0.0
 10
0.4851391626108211
 20
7.41259346724405
 30
0.0
 10
0.5429952349162335
 20
7.428115237293603
 30
0.0
 10
0.5429952349162335
 20
7.428115237293603
 30
0.0
 10
0.5429952349162335
 20
7.428115237293603
 30
0.0
 10
0.6008513072216175
 20
7.431996352676208
 30
0.0
 10
0.6008513072216175
 20
7.431996352676208
 30
0.0
  0
POLYLINE
  5
8BD
330
1F
100
AcDbEntity
  8
Livello 1
100
AcDb2dPolyline
 66
     1
 10
0.0
 20
0.0
 30
0.0
  0
VERTEX
  5
8BE
330
8BD
100
AcDbEntity
  8
Livello 1
100
AcDbVertex
100
AcDb2dVertex
 10
0.0000024312664237
 20
6.361210883464863
 30
0.0
  0
VERTEX
  5
8BF
330
8BD
100
AcDbEntity
  8
Livello 1
100
AcDbVertex
100
AcDb2dVertex
 10
0.0038808551681768
 20
6.696348695677635
 30
0.0
  0
SEQEND
  5
8C0
330
8BD
100
AcDbEntity
  8
Livello 1
  0
POLYLINE
  5
8C1
330
1F
100
AcDbEntity
  8
Livello 1
100
AcDb2dPolyline
 66
     1
 10
0.0
 20
0.0
 30
0.0
  0
VERTEX
  5
8C2
330
8C1
100
AcDbEntity
  8
Livello 1
100
AcDbVertex
100
AcDb2dVertex
 10
0.0038808551681768
 20
7.474365644183087
 30
0.0
  0
VERTEX
  5
8C3
330
8C1
100
AcDbEntity
  8
Livello 1
100
AcDbVertex
100
AcDb2dVertex
 10
0.0038808551681768
 20
7.435912457309832
 30
0.0
  0
VERTEX
  5
8C4
330
8C1
100
AcDbEntity
  8
Livello 1
100
AcDbVertex
100
AcDb2dVertex
 10
0.0038808551681768
 20
7.381937500387017
 30
0.0
  0
SEQEND
  5
8C5
330
8C1
100
AcDbEntity
  8
Livello 1
  0
POLYLINE
  5
8C6
330
1F
100
AcDbEntity
  8
Livello 1
100
AcDb2dPolyline
 66
     1
 10
0.0
 20
0.0
 30
0.0
  0
VERTEX
  5
8C7
330
8C6
100
AcDbEntity
  8
Livello 1
100
AcDbVertex
100
AcDb2dVertex
 10
0.0038808551681768
 20
6.696278717175594
 30
0.0
  0
VERTEX
  5
8C8
330
8C6
100
AcDbEntity
  8
Livello 1
100
AcDbVertex
100
AcDb2dVertex
 10
0.0038808551681768
 20
6.761894328765372
 30
0.0
  0
SEQEND
  5
8C9
330
8C6
100
AcDbEntity
  8
Livello 1
  0
POLYLINE
  5
8CA
330
1F
100
AcDbEntity
  8
Livello 1
100
AcDb2dPolyline
 66
     1
 10
0.0
 20
0.0
 30
0.0
  0
VERTEX
  5
8CB
330
8CA
100
AcDbEntity
  8
Livello 1
100
AcDbVertex
100
AcDb2dVertex
 10
0.0000024312664237
 20
6.761789361012304
 30
0.0
  0
VERTEX
  5
8CC
330
8CA
100
AcDbEntity
  8
Livello 1
100
AcDbVertex
100
AcDb2dVertex
 10
0.0000024312664237
 20
6.677122102241014
 30
0.0
  0
VERTEX
  5
8CD
330
8CA
100
AcDbEntity
  8
Livello 1
100
AcDbVertex
100
AcDb2dVertex
 10
0.0038808551681768
 20
6.677122102241014
 30
0.0
  0
SEQEND
  5
8CE
330
8CA
100
AcDbEntity
  8
Livello 1
  0
POLYLINE
  5
8CF
330
1F
100
AcDbEntity
  8
Livello 1
100
AcDb2dPolyline
 66
     1
 10
0.0
 20
0.0
 30
0.0
  0
VERTEX
  5
8D0
330
8CF
100
AcDbEntity
  8
Livello 1
100
AcDbVertex
100
AcDb2dVertex
 10
0.0000024312664237
 20
6.67705212373896
 30
0.0
  0
VERTEX
  5
8D1
330
8CF
100
AcDbEntity
  8
Livello 1
100
AcDbVertex
100
AcDb2dVertex
 10
0.0000024312664237
 20
6.407528577375558
 30
0.0
  0
VERTEX
  5
8D2
330
8CF
100
AcDbEntity
  8
Livello 1
100
AcDbVertex
100
AcDb2dVertex
 10
0.0000024312664237
 20
6.291817778505141
 30
0.0
  0
VERTEX
  5
8D3
330
8CF
100
AcDbEntity
  8
Livello 1
100
AcDbVertex
100
AcDb2dVertex
 10
0.0000024312664237
 20
6.361315851217945
 30
0.0
  0
SEQEND
  5
8D4
330
8CF
100
AcDbEntity
  8
Livello 1
  0
POLYLINE
  5
8D5
330
1F
100
AcDbEntity
  8
Livello 1
100
AcDb2dPolyline
 66
     1
 10
0.0
 20
0.0
 30
0.0
  0
VERTEX
  5
8D6
330
8D5
100
AcDbEntity
  8
Livello 1
100
AcDbVertex
100
AcDb2dVertex
 10
0.0038808551681768
 20
6.761789361012304
 30
0.0
  0
VERTEX
  5
8D7
330
8D5
100
AcDbEntity
  8
Livello 1
100
AcDbVertex
100
AcDb2dVertex
 10
-0.0000002602144207
 20
6.761789361012304
 30
0.0
  0
SEQEND
  5
8D8
330
8D5
100
AcDbEntity
  8
Livello 1
  0
POLYLINE
  5
8D9
330
1F
100
AcDbEntity
  8
Livello 1
100
AcDb2dPolyline
 66
     1
 10
0.0
 20
0.0
 30
0.0
  0
VERTEX
  5
8DA
330
8D9
100
AcDbEntity
  8
Livello 1
100
AcDbVertex
100
AcDb2dVertex
 10
0.3775095349860749
 20
6.29188910274761
 30
0.0
  0
VERTEX
  5
8DB
330
8D9
100
AcDbEntity
  8
Livello 1
100
AcDbVertex
100
AcDb2dVertex
 10
0.2543877436011002
 20
6.29188910274761
 30
0.0
  0
SEQEND
  5
8DC
330
8D9
100
AcDbEntity
  8
Livello 1
  0
POLYLINE
  5
8DD
330
1F
100
AcDbEntity
  8
Livello 1
100
AcDb2dPolyline
 66
     1
 10
0.0
 20
0.0
 30
0.0
  0
VERTEX
  5
8DE
330
8DD
100
AcDbEntity
  8
Livello 1
100
AcDbVertex
100
AcDb2dVertex
 10
0.3775095349860749
 20
5.89131062520019
 30
0.0
  0
VERTEX
  5
8DF
330
8DD
100
AcDbEntity
  8
Livello 1
100
AcDbVertex
100
AcDb2dVertex
 10
0.3775095349860749
 20
6.29171281075208
 30
0.0
  0
SEQEND
  5
8E0
330
8DD
100
AcDbEntity
  8
Livello 1
  0
POLYLINE
  5
8E1
330
1F
100
AcDbEntity
  8
Livello 1
100
AcDb2dPolyline
 66
     1
 10
0.0
 20
0.0
 30
0.0
  0
VERTEX
  5
8E2
330
8E1
100
AcDbEntity
  8
Livello 1
100
AcDbVertex
100
AcDb2dVertex
 10
0.2542827758480257
 20
5.89131062520019
 30
0.0
  0
VERTEX
  5
8E3
330
8E1
100
AcDbEntity
  8
Livello 1
100
AcDbVertex
100
AcDb2dVertex
 10
0.3774018757521702
 20
5.89131062520019
 30
0.0
  0
SEQEND
  5
8E4
330
8E1
100
AcDbEntity
  8
Livello 1
  0
POLYLINE
  5
8E5
330
1F
100
AcDbEntity
  8
Livello 1
100
AcDb2dPolyline
 66
     1
 10
0.0
 20
0.0
 30
0.0
  0
VERTEX
  5
8E6
330
8E5
100
AcDbEntity
  8
Livello 1
100
AcDbVertex
100
AcDb2dVertex
 10
0.1464405212363289
 20
5.471469219224687
 30
0.0
  0
VERTEX
  5
8E7
330
8E5
100
AcDbEntity
  8
Livello 1
100
AcDbVertex
100
AcDb2dVertex
 10
0.1464405212363289
 20
5.475348988866869
 30
0.0
  0
SEQEND
  5
8E8
330
8E5
100
AcDbEntity
  8
Livello 1
  0
POLYLINE
  5
8E9
330
1F
100
AcDbEntity
  8
Livello 1
100
AcDb2dPolyline
 66
     1
 10
0.0
 20
0.0
 30
0.0
  0
VERTEX
  5
8EA
330
8E9
100
AcDbEntity
  8
Livello 1
100
AcDbVertex
100
AcDb2dVertex
 10
0.1464405212363289
 20
5.475315345356278
 30
0.0
  0
VERTEX
  5
8EB
330
8E9
100
AcDbEntity
  8
Livello 1
100
AcDbVertex
100
AcDb2dVertex
 10
0.084703333548319
 20
5.51376718648909
 30
0.0
  0
VERTEX
  5
8EC
330
8E9
100
AcDbEntity
  8
Livello 1
100
AcDbVertex
100
AcDb2dVertex
 10
0.0423690312924521
 20
5.567742143411919
 30
0.0
  0
VERTEX
  5
8ED
330
8E9
100
AcDbEntity
  8
Livello 1
100
AcDbVertex
100
AcDb2dVertex
 10
0.0116780751844203
 20
5.629477985359514
 30
0.0
  0
VERTEX
  5
8EE
330
8E9
100
AcDbEntity
  8
Livello 1
100
AcDbVertex
100
AcDb2dVertex
 10
0.0039158444191969
 20
5.698623474081223
 30
0.0
  0
SEQEND
  5
8EF
330
8E9
100
AcDbEntity
  8
Livello 1
  0
POLYLINE
  5
8F0
330
1F
100
AcDbEntity
  8
Livello 1
100
AcDb2dPolyline
 66
     1
 10
0.0
 20
0.0
 30
0.0
  0
VERTEX
  5
8F1
330
8F0
100
AcDbEntity
  8
Livello 1
100
AcDbVertex
100
AcDb2dVertex
 10
0.0000024312664237
 20
5.89131062520019
 30
0.0
  0
VERTEX
  5
8F2
330
8F0
100
AcDbEntity
  8
Livello 1
100
AcDbVertex
100
AcDb2dVertex
 10
0.2543527543500943
 20
5.89131062520019
 30
0.0
  0
SEQEND
  5
8F3
330
8F0
100
AcDbEntity
  8
Livello 1
  0
POLYLINE
  5
8F4
330
1F
100
AcDbEntity
  8
Livello 1
100
AcDb2dPolyline
 66
     1
 10
0.0
 20
0.0
 30
0.0
  0
VERTEX
  5
8F5
330
8F4
100
AcDbEntity
  8
Livello 1
100
AcDbVertex
100
AcDb2dVertex
 10
0.0000024312664237
 20
5.698728441834305
 30
0.0
  0
VERTEX
  5
8F6
330
8F4
100
AcDbEntity
  8
Livello 1
100
AcDbVertex
100
AcDb2dVertex
 10
0.0000024312664237
 20
5.891344268710781
 30
0.0
  0
SEQEND
  5
8F7
330
8F4
100
AcDbEntity
  8
Livello 1
  0
POLYLINE
  5
8F8
330
1F
100
AcDbEntity
  8
Livello 1
100
AcDb2dPolyline
 66
     1
 10
0.0
 20
0.0
 30
0.0
  0
VERTEX
  5
8F9
330
8F8
100
AcDbEntity
  8
Livello 1
100
AcDbVertex
100
AcDb2dVertex
 10
0.0038808551681768
 20
5.698728441834305
 30
0.0
  0
VERTEX
  5
8FA
330
8F8
100
AcDbEntity
  8
Livello 1
100
AcDbVertex
100
AcDb2dVertex
 10
-0.0000002602144207
 20
5.698728441834305
 30
0.0
  0
SEQEND
  5
8FB
330
8F8
100
AcDbEntity
  8
Livello 1
  0
POLYLINE
  5
8FC
330
1F
100
AcDbEntity
  8
Livello 1
100
AcDb2dPolyline
 66
     1
 10
0.0
 20
0.0
 30
0.0
  0
VERTEX
  5
8FD
330
8FC
100
AcDbEntity
  8
Livello 1
100
AcDbVertex
100
AcDb2dVertex
 10
0.0000024312664237
 20
6.29188910274761
 30
0.0
  0
VERTEX
  5
8FE
330
8FC
100
AcDbEntity
  8
Livello 1
100
AcDbVertex
100
AcDb2dVertex
 10
0.2543527543500943
 20
6.29188910274761
 30
0.0
  0
SEQEND
  5
8FF
330
8FC
100
AcDbEntity
  8
Livello 1
  0
POLYLINE
  5
900
330
1F
100
AcDbEntity
  8
Livello 1
100
AcDb2dPolyline
 66
     1
 10
0.0
 20
0.0
 30
0.0
  0
VERTEX
  5
901
330
900
100
AcDbEntity
  8
Livello 1
100
AcDbVertex
100
AcDb2dVertex
 10
0.0038808551681768
 20
7.474365644183087
 30
0.0
  0
VERTEX
  5
902
330
900
100
AcDbEntity
  8
Livello 1
100
AcDbVertex
100
AcDb2dVertex
 10
0.0194026252177508
 20
7.536101486130668
 30
0.0
  0
VERTEX
  5
903
330
900
100
AcDbEntity
  8
Livello 1
100
AcDbVertex
100
AcDb2dVertex
 10
0.0500935813257968
 20
7.593603628704592
 30
0.0
  0
VERTEX
  5
904
330
900
100
AcDbEntity
  8
Livello 1
100
AcDbVertex
100
AcDb2dVertex
 10
0.0924278835816637
 20
7.639817700602634
 30
0.0
  0
VERTEX
  5
905
330
900
100
AcDbEntity
  8
Livello 1
100
AcDbVertex
100
AcDb2dVertex
 10
0.1464028405044502
 20
7.674742356084351
 30
0.0
  0
SEQEND
  5
906
330
900
100
AcDbEntity
  8
Livello 1
  0
POLYLINE
  5
907
330
1F
100
AcDbEntity
  8
Livello 1
100
AcDb2dPolyline
 66
     1
 10
0.0
 20
0.0
 30
0.0
  0
VERTEX
  5
908
330
907
100
AcDbEntity
  8
Livello 1
100
AcDbVertex
100
AcDb2dVertex
 10
0.0000024312664237
 20
7.339569554620567
 30
0.0
  0
VERTEX
  5
909
330
907
100
AcDbEntity
  8
Livello 1
100
AcDbVertex
100
AcDb2dVertex
 10
0.0000024312664237
 20
7.378021395753386
 30
0.0
  0
SEQEND
  5
90A
330
907
100
AcDbEntity
  8
Livello 1
  0
POLYLINE
  5
90B
330
1F
100
AcDbEntity
  8
Livello 1
100
AcDb2dPolyline
 66
     1
 10
0.0
 20
0.0
 30
0.0
  0
VERTEX
  5
90C
330
90B
100
AcDbEntity
  8
Livello 1
100
AcDbVertex
100
AcDb2dVertex
 10
0.0000024312664237
 20
7.4474131549727
 30
0.0
  0
VERTEX
  5
90D
330
90B
100
AcDbEntity
  8
Livello 1
100
AcDbVertex
100
AcDb2dVertex
 10
0.0038808551681768
 20
7.4474131549727
 30
0.0
  0
SEQEND
  5
90E
330
90B
100
AcDbEntity
  8
Livello 1
  0
POLYLINE
  5
90F
330
1F
100
AcDbEntity
  8
Livello 1
100
AcDb2dPolyline
 66
     1
 10
0.0
 20
0.0
 30
0.0
  0
VERTEX
  5
910
330
90F
100
AcDbEntity
  8
Livello 1
100
AcDbVertex
100
AcDb2dVertex
 10
0.0000024312664237
 20
7.339569554620567
 30
0.0
  0
VERTEX
  5
911
330
90F
100
AcDbEntity
  8
Livello 1
100
AcDbVertex
100
AcDb2dVertex
 10
0.0038808551681768
 20
7.339569554620567
 30
0.0
  0
SEQEND
  5
912
330
90F
100
AcDbEntity
  8
Livello 1
  0
POLYLINE
  5
913
330
1F
100
AcDbEntity
  8
Livello 1
100
AcDb2dPolyline
 66
     1
 10
0.0
 20
0.0
 30
0.0
  0
VERTEX
  5
914
330
913
100
AcDbEntity
  8
Livello 1
100
AcDbVertex
100
AcDb2dVertex
 10
0.0000024312664237
 20
6.761789361012304
 30
0.0
  0
VERTEX
  5
915
330
913
100
AcDbEntity
  8
Livello 1
100
AcDbVertex
100
AcDb2dVertex
 10
0.0000024312664237
 20
7.339638187382185
 30
0.0
  0
SEQEND
  5
916
330
913
100
AcDbEntity
  8
Livello 1
  0
POLYLINE
  5
917
330
1F
100
AcDbEntity
  8
Livello 1
100
AcDb2dPolyline
 66
     1
 10
0.0
 20
0.0
 30
0.0
  0
VERTEX
  5
918
330
917
100
AcDbEntity
  8
Livello 1
100
AcDbVertex
100
AcDb2dVertex
 10
0.0000024312664237
 20
5.89131062520019
 30
0.0
  0
VERTEX
  5
919
330
917
100
AcDbEntity
  8
Livello 1
100
AcDbVertex
100
AcDb2dVertex
 10
0.0000024312664237
 20
5.69869345258327
 30
0.0
  0
VERTEX
  5
91A
330
917
100
AcDbEntity
  8
Livello 1
100
AcDbVertex
100
AcDb2dVertex
 10
0.0038808551681768
 20
5.69869345258327
 30
0.0
  0
SEQEND
  5
91B
330
917
100
AcDbEntity
  8
Livello 1
  0
POLYLINE
  5
91C
330
1F
100
AcDbEntity
  8
Livello 1
100
AcDb2dPolyline
 66
     1
 10
0.0
 20
0.0
 30
0.0
  0
VERTEX
  5
91D
330
91C
100
AcDbEntity
  8
Livello 1
100
AcDbVertex
100
AcDb2dVertex
 10
0.0000024312664237
 20
5.89131062520019
 30
0.0
  0
VERTEX
  5
91E
330
91C
100
AcDbEntity
  8
Livello 1
100
AcDbVertex
100
AcDb2dVertex
 10
0.0038808551681768
 20
5.89131062520019
 30
0.0
  0
SEQEND
  5
91F
330
91C
100
AcDbEntity
  8
Livello 1
  0
POLYLINE
  5
920
330
1F
100
AcDbEntity
  8
Livello 1
100
AcDb2dPolyline
 66
     1
 10
0.0
 20
0.0
 30
0.0
  0
VERTEX
  5
921
330
920
100
AcDbEntity
  8
Livello 1
100
AcDbVertex
100
AcDb2dVertex
 10
0.1771664665953807
 20
5.459898543059772
 30
0.0
  0
VERTEX
  5
922
330
920
100
AcDbEntity
  8
Livello 1
100
AcDbVertex
100
AcDb2dVertex
 10
0.1464728190065045
 20
5.471539197726734
 30
0.0
  0
SEQEND
  5
923
330
920
100
AcDbEntity
  8
Livello 1
  0
POLYLINE
  5
924
330
1F
100
AcDbEntity
  8
Livello 1
100
AcDb2dPolyline
 66
     1
 10
0.0
 20
0.0
 30
0.0
  0
VERTEX
  5
925
330
924
100
AcDbEntity
  8
Livello 1
100
AcDbVertex
100
AcDb2dVertex
 10
0.1771664665953807
 20
7.686173075245179
 30
0.0
  0
VERTEX
  5
926
330
924
100
AcDbEntity
  8
Livello 1
100
AcDbVertex
100
AcDb2dVertex
 10
0.1464728190065045
 20
7.674531074837794
 30
0.0
  0
SEQEND
  5
927
330
924
100
AcDbEntity
  8
Livello 1
  0
POLYLINE
  5
928
330
1F
100
AcDbEntity
  8
Livello 1
100
AcDb2dPolyline
 66
     1
 10
0.0
 20
0.0
 30
0.0
  0
VERTEX
  5
929
330
928
100
AcDbEntity
  8
Livello 1
100
AcDbVertex
100
AcDb2dVertex
 10
0.2118784950901471
 20
5.452207636537032
 30
0.0
  0
VERTEX
  5
92A
330
928
100
AcDbEntity
  8
Livello 1
100
AcDbVertex
100
AcDb2dVertex
 10
0.3349975949942632
 20
5.432804751104882
 30
0.0
  0
VERTEX
  5
92B
330
928
100
AcDbEntity
  8
Livello 1
100
AcDbVertex
100
AcDb2dVertex
 10
0.4351852780746839
 20
5.413754449663798
 30
0.0
  0
VERTEX
  5
92C
330
928
100
AcDbEntity
  8
Livello 1
100
AcDbVertex
100
AcDb2dVertex
 10
0.4739910489389985
 20
5.405993564639018
 30
0.0
  0
VERTEX
  5
92D
330
928
100
AcDbEntity
  8
Livello 1
100
AcDbVertex
100
AcDb2dVertex
 10
0.5046820050470302
 20
5.402112449256406
 30
0.0
  0
VERTEX
  5
92E
330
928
100
AcDbEntity
  8
Livello 1
100
AcDbVertex
100
AcDb2dVertex
 10
0.5124442358122679
 20
5.402112449256406
 30
0.0
  0
VERTEX
  5
92F
330
928
100
AcDbEntity
  8
Livello 1
100
AcDbVertex
100
AcDb2dVertex
 10
0.5198511911055448
 20
5.398231333873802
 30
0.0
  0
VERTEX
  5
930
330
928
100
AcDbEntity
  8
Livello 1
100
AcDbVertex
100
AcDb2dVertex
 10
0.5237323064881565
 20
5.398231333873802
 30
0.0
  0
VERTEX
  5
931
330
928
100
AcDbEntity
  8
Livello 1
100
AcDbVertex
100
AcDb2dVertex
 10
1.047607521675644
 20
5.398231333873802
 30
0.0
  0
VERTEX
  5
932
330
928
100
AcDbEntity
  8
Livello 1
100
AcDbVertex
100
AcDb2dVertex
 10
1.393683512054082
 20
5.398231333873802
 30
0.0
  0
SEQEND
  5
933
330
928
100
AcDbEntity
  8
Livello 1
  0
POLYLINE
  5
934
330
1F
100
AcDbEntity
  8
Livello 1
100
AcDb2dPolyline
 66
     1
 10
0.0
 20
0.0
 30
0.0
  0
VERTEX
  5
935
330
934
100
AcDbEntity
  8
Livello 1
100
AcDbVertex
100
AcDb2dVertex
 10
0.1771664665953807
 20
5.459898543059772
 30
0.0
  0
VERTEX
  5
936
330
934
100
AcDbEntity
  8
Livello 1
100
AcDbVertex
100
AcDb2dVertex
 10
0.2117385380860668
 20
5.452136312294562
 30
0.0
  0
SEQEND
  5
937
330
934
100
AcDbEntity
  8
Livello 1
  0
POLYLINE
  5
938
330
1F
100
AcDbEntity
  8
Livello 1
100
AcDb2dPolyline
 66
     1
 10
0.0
 20
0.0
 30
0.0
  0
VERTEX
  5
939
330
938
100
AcDbEntity
  8
Livello 1
100
AcDbVertex
100
AcDb2dVertex
 10
0.5238399657220612
 20
7.751683719081881
 30
0.0
  0
VERTEX
  5
93A
330
938
100
AcDbEntity
  8
Livello 1
100
AcDbVertex
100
AcDb2dVertex
 10
1.04771248942869
 20
7.751683719081881
 30
0.0
  0
VERTEX
  5
93B
330
938
100
AcDbEntity
  8
Livello 1
100
AcDbVertex
100
AcDb2dVertex
 10
1.322881416870501
 20
7.751683719081881
 30
0.0
  0
SEQEND
  5
93C
330
938
100
AcDbEntity
  8
Livello 1
  0
SPLINE
  5
93D
330
1F
100
AcDbEntity
  8
Livello 1
100
AcDbSpline
210
0.0
220
0.0
230
1.0
 70
     8
 71
     3
 72
    14
 73
    10
 74
     0
 42
0.000000001
 43
0.0000000001
 40
0.0
 40
0.0
 40
0.0
 40
0.0
 40
1.0
 40
1.0
 40
1.0
 40
2.0
 40
2.0
 40
2.0
 40
3.0
 40
3.0
 40
3.0
 40
3.0
 10
0.2118784950901471
 20
7.693898971018938
 30
0.0
 10
0.2118784950901471
 20
7.693898971018938
 30
0.0
 10
0.2813752220625076
 20
7.709420741068491
 30
0.0
 10
0.2813752220625076
 20
7.709420741068491
 30
0.0
 10
0.3611022677375644
 20
7.720356227753313
 30
0.0
 10
0.4401241454305023
 20
7.739759113185478
 30
0.0
 10
0.5198511911055448
 20
7.747873927941746
 30
0.0
 10
0.5198511911055448
 20
7.747873927941746
 30
0.0
 10
0.5237323064881565
 20
7.751753697583922
 30
0.0
 10
0.5237323064881565
 20
7.751753697583922
 30
0.0
  0
POLYLINE
  5
93E
330
1F
100
AcDbEntity
  8
Livello 1
100
AcDb2dPolyline
 66
     1
 10
0.0
 20
0.0
 30
0.0
  0
VERTEX
  5
93F
330
93E
100
AcDbEntity
  8
Livello 1
100
AcDbVertex
100
AcDb2dVertex
 10
0.2118784950901471
 20
7.693898971018938
 30
0.0
  0
VERTEX
  5
940
330
93E
100
AcDbEntity
  8
Livello 1
100
AcDbVertex
100
AcDb2dVertex
 10
0.177303732118645
 20
7.686136740253729
 30
0.0
  0
SEQEND
  5
941
330
93E
100
AcDbEntity
  8
Livello 1
  0
POLYLINE
  5
942
330
1F
100
AcDbEntity
  8
Livello 1
100
AcDb2dPolyline
 66
     1
 10
0.0
 20
0.0
 30
0.0
  0
VERTEX
  5
943
330
942
100
AcDbEntity
  8
Livello 1
100
AcDbVertex
100
AcDb2dVertex
 10
3.113300232035669
 20
5.715556925835493
 30
0.0
  0
VERTEX
  5
944
330
942
100
AcDbEntity
  8
Livello 1
100
AcDbVertex
100
AcDb2dVertex
 10
1.21076778215324
 20
5.715556925835493
 30
0.0
  0
SEQEND
  5
945
330
942
100
AcDbEntity
  8
Livello 1
  0
POLYLINE
  5
946
330
1F
100
AcDbEntity
  8
Livello 1
100
AcDb2dPolyline
 66
     1
 10
0.0
 20
0.0
 30
0.0
  0
VERTEX
  5
947
330
946
100
AcDbEntity
  8
Livello 1
100
AcDbVertex
100
AcDb2dVertex
 10
1.027924722235297
 20
5.89850764498734
 30
0.0
  0
VERTEX
  5
948
330
946
100
AcDbEntity
  8
Livello 1
100
AcDbVertex
100
AcDb2dVertex
 10
1.027924722235297
 20
5.891097998213197
 30
0.0
  0
VERTEX
  5
949
330
946
100
AcDbEntity
  8
Livello 1
100
AcDbVertex
100
AcDb2dVertex
 10
1.027924722235297
 20
5.868520511121012
 30
0.0
  0
VERTEX
  5
94A
330
946
100
AcDbEntity
  8
Livello 1
100
AcDbVertex
100
AcDb2dVertex
 10
1.027924722235297
 20
5.864993325469889
 30
0.0
  0
VERTEX
  5
94B
330
946
100
AcDbEntity
  8
Livello 1
100
AcDbVertex
100
AcDb2dVertex
 10
1.031803146137065
 20
5.861112210087291
 30
0.0
  0
VERTEX
  5
94C
330
946
100
AcDbEntity
  8
Livello 1
100
AcDbVertex
100
AcDb2dVertex
 10
1.031803146137065
 20
5.84982413941141
 30
0.0
  0
VERTEX
  5
94D
330
946
100
AcDbEntity
  8
Livello 1
100
AcDbVertex
100
AcDb2dVertex
 10
1.035331677528589
 20
5.846295608019872
 30
0.0
  0
VERTEX
  5
94E
330
946
100
AcDbEntity
  8
Livello 1
100
AcDbVertex
100
AcDb2dVertex
 10
1.035331677528589
 20
5.838887306986158
 30
0.0
  0
VERTEX
  5
94F
330
946
100
AcDbEntity
  8
Livello 1
100
AcDbVertex
100
AcDb2dVertex
 10
1.039212792911172
 20
5.835007537343983
 30
0.0
  0
VERTEX
  5
950
330
946
100
AcDbEntity
  8
Livello 1
100
AcDbVertex
100
AcDb2dVertex
 10
1.039212792911172
 20
5.82759923631027
 30
0.0
  0
VERTEX
  5
951
330
946
100
AcDbEntity
  8
Livello 1
100
AcDbVertex
100
AcDb2dVertex
 10
1.042741324302724
 20
5.82759923631027
 30
0.0
  0
VERTEX
  5
952
330
946
100
AcDbEntity
  8
Livello 1
100
AcDbVertex
100
AcDb2dVertex
 10
1.042741324302724
 20
5.820190935276563
 30
0.0
  0
VERTEX
  5
953
330
946
100
AcDbEntity
  8
Livello 1
100
AcDbVertex
100
AcDb2dVertex
 10
1.046619748204477
 20
5.816309819893959
 30
0.0
  0
VERTEX
  5
954
330
946
100
AcDbEntity
  8
Livello 1
100
AcDbVertex
100
AcDb2dVertex
 10
1.046619748204477
 20
5.812782634242843
 30
0.0
  0
VERTEX
  5
955
330
946
100
AcDbEntity
  8
Livello 1
100
AcDbVertex
100
AcDb2dVertex
 10
1.050500863587075
 20
5.812782634242843
 30
0.0
  0
VERTEX
  5
956
330
946
100
AcDbEntity
  8
Livello 1
100
AcDbVertex
100
AcDb2dVertex
 10
1.050500863587075
 20
5.805020403477648
 30
0.0
  0
VERTEX
  5
957
330
946
100
AcDbEntity
  8
Livello 1
100
AcDbVertex
100
AcDb2dVertex
 10
1.054029394978613
 20
5.805020403477648
 30
0.0
  0
VERTEX
  5
958
330
946
100
AcDbEntity
  8
Livello 1
100
AcDbVertex
100
AcDb2dVertex
 10
1.054029394978613
 20
5.801493217826532
 30
0.0
  0
VERTEX
  5
959
330
946
100
AcDbEntity
  8
Livello 1
100
AcDbVertex
100
AcDb2dVertex
 10
1.057910510361239
 20
5.797612102443935
 30
0.0
  0
VERTEX
  5
95A
330
946
100
AcDbEntity
  8
Livello 1
100
AcDbVertex
100
AcDb2dVertex
 10
1.057910510361239
 20
5.794084916792826
 30
0.0
  0
VERTEX
  5
95B
330
946
100
AcDbEntity
  8
Livello 1
100
AcDbVertex
100
AcDb2dVertex
 10
1.06143635027189
 20
5.794084916792826
 30
0.0
  0
VERTEX
  5
95C
330
946
100
AcDbEntity
  8
Livello 1
100
AcDbVertex
100
AcDb2dVertex
 10
1.06143635027189
 20
5.790203801410228
 30
0.0
  0
VERTEX
  5
95D
330
946
100
AcDbEntity
  8
Livello 1
100
AcDbVertex
100
AcDb2dVertex
 10
1.065317465654501
 20
5.790203801410228
 30
0.0
  0
VERTEX
  5
95E
330
946
100
AcDbEntity
  8
Livello 1
100
AcDbVertex
100
AcDb2dVertex
 10
1.065317465654501
 20
5.786324031768053
 30
0.0
  0
VERTEX
  5
95F
330
946
100
AcDbEntity
  8
Livello 1
100
AcDbVertex
100
AcDb2dVertex
 10
1.068845997046025
 20
5.782795500376515
 30
0.0
  0
VERTEX
  5
960
330
946
100
AcDbEntity
  8
Livello 1
100
AcDbVertex
100
AcDb2dVertex
 10
1.068845997046025
 20
5.778915730734333
 30
0.0
  0
VERTEX
  5
961
330
946
100
AcDbEntity
  8
Livello 1
100
AcDbVertex
100
AcDb2dVertex
 10
1.072727112428651
 20
5.778915730734333
 30
0.0
  0
VERTEX
  5
962
330
946
100
AcDbEntity
  8
Livello 1
100
AcDbVertex
100
AcDb2dVertex
 10
1.076605536330376
 20
5.775387199342809
 30
0.0
  0
VERTEX
  5
963
330
946
100
AcDbEntity
  8
Livello 1
100
AcDbVertex
100
AcDb2dVertex
 10
1.076605536330376
 20
5.771507429700626
 30
0.0
  0
VERTEX
  5
964
330
946
100
AcDbEntity
  8
Livello 1
100
AcDbVertex
100
AcDb2dVertex
 10
1.080134067721942
 20
5.771507429700626
 30
0.0
  0
VERTEX
  5
965
330
946
100
AcDbEntity
  8
Livello 1
100
AcDbVertex
100
AcDb2dVertex
 10
1.080134067721942
 20
5.767978898309081
 30
0.0
  0
VERTEX
  5
966
330
946
100
AcDbEntity
  8
Livello 1
100
AcDbVertex
100
AcDb2dVertex
 10
1.08401518310454
 20
5.767978898309081
 30
0.0
  0
VERTEX
  5
967
330
946
100
AcDbEntity
  8
Livello 1
100
AcDbVertex
100
AcDb2dVertex
 10
1.087543714496064
 20
5.764099128666913
 30
0.0
  0
VERTEX
  5
968
330
946
100
AcDbEntity
  8
Livello 1
100
AcDbVertex
100
AcDb2dVertex
 10
1.087543714496064
 20
5.760218013284308
 30
0.0
  0
VERTEX
  5
969
330
946
100
AcDbEntity
  8
Livello 1
100
AcDbVertex
100
AcDb2dVertex
 10
1.091422138397803
 20
5.760218013284308
 30
0.0
  0
VERTEX
  5
96A
330
946
100
AcDbEntity
  8
Livello 1
100
AcDbVertex
100
AcDb2dVertex
 10
1.095303253780429
 20
5.756690827633192
 30
0.0
  0
VERTEX
  5
96B
330
946
100
AcDbEntity
  8
Livello 1
100
AcDbVertex
100
AcDb2dVertex
 10
1.098831785171952
 20
5.756690827633192
 30
0.0
  0
VERTEX
  5
96C
330
946
100
AcDbEntity
  8
Livello 1
100
AcDbVertex
100
AcDb2dVertex
 10
1.098831785171952
 20
5.752809712250602
 30
0.0
  0
VERTEX
  5
96D
330
946
100
AcDbEntity
  8
Livello 1
100
AcDbVertex
100
AcDb2dVertex
 10
1.10271290055455
 20
5.752809712250602
 30
0.0
  0
VERTEX
  5
96E
330
946
100
AcDbEntity
  8
Livello 1
100
AcDbVertex
100
AcDb2dVertex
 10
1.10271290055455
 20
5.7492825265995
 30
0.0
  0
VERTEX
  5
96F
330
946
100
AcDbEntity
  8
Livello 1
100
AcDbVertex
100
AcDb2dVertex
 10
1.106238740465244
 20
5.7492825265995
 30
0.0
  0
VERTEX
  5
970
330
946
100
AcDbEntity
  8
Livello 1
100
AcDbVertex
100
AcDb2dVertex
 10
1.110119855847841
 20
5.745401411216882
 30
0.0
  0
VERTEX
  5
971
330
946
100
AcDbEntity
  8
Livello 1
100
AcDbVertex
100
AcDb2dVertex
 10
1.113648387239379
 20
5.745401411216882
 30
0.0
  0
VERTEX
  5
972
330
946
100
AcDbEntity
  8
Livello 1
100
AcDbVertex
100
AcDb2dVertex
 10
1.113648387239379
 20
5.741520295834277
 30
0.0
  0
VERTEX
  5
973
330
946
100
AcDbEntity
  8
Livello 1
100
AcDbVertex
100
AcDb2dVertex
 10
1.121410618004588
 20
5.741520295834277
 30
0.0
  0
VERTEX
  5
974
330
946
100
AcDbEntity
  8
Livello 1
100
AcDbVertex
100
AcDb2dVertex
 10
1.121410618004588
 20
5.737993110183175
 30
0.0
  0
VERTEX
  5
975
330
946
100
AcDbEntity
  8
Livello 1
100
AcDbVertex
100
AcDb2dVertex
 10
1.124936457915254
 20
5.737993110183175
 30
0.0
  0
VERTEX
  5
976
330
946
100
AcDbEntity
  8
Livello 1
100
AcDbVertex
100
AcDb2dVertex
 10
1.128817573297865
 20
5.734111994800585
 30
0.0
  0
VERTEX
  5
977
330
946
100
AcDbEntity
  8
Livello 1
100
AcDbVertex
100
AcDb2dVertex
 10
1.136227220072001
 20
5.734111994800585
 30
0.0
  0
VERTEX
  5
978
330
946
100
AcDbEntity
  8
Livello 1
100
AcDbVertex
100
AcDb2dVertex
 10
1.136227220072001
 20
5.730584809149462
 30
0.0
  0
VERTEX
  5
979
330
946
100
AcDbEntity
  8
Livello 1
100
AcDbVertex
100
AcDb2dVertex
 10
1.143634175365278
 20
5.730584809149462
 30
0.0
  0
VERTEX
  5
97A
330
946
100
AcDbEntity
  8
Livello 1
100
AcDbVertex
100
AcDb2dVertex
 10
1.14751529074789
 20
5.726703693766864
 30
0.0
  0
VERTEX
  5
97B
330
946
100
AcDbEntity
  8
Livello 1
100
AcDbVertex
100
AcDb2dVertex
 10
1.154922246041181
 20
5.726703693766864
 30
0.0
  0
VERTEX
  5
97C
330
946
100
AcDbEntity
  8
Livello 1
100
AcDbVertex
100
AcDb2dVertex
 10
1.15845077743269
 20
5.723176508115763
 30
0.0
  0
VERTEX
  5
97D
330
946
100
AcDbEntity
  8
Livello 1
100
AcDbVertex
100
AcDb2dVertex
 10
1.169738848108579
 20
5.723176508115763
 30
0.0
  0
VERTEX
  5
97E
330
946
100
AcDbEntity
  8
Livello 1
100
AcDbVertex
100
AcDb2dVertex
 10
1.173619963491177
 20
5.719295392733158
 30
0.0
  0
VERTEX
  5
97F
330
946
100
AcDbEntity
  8
Livello 1
100
AcDbVertex
100
AcDb2dVertex
 10
1.177148494882743
 20
5.719295392733158
 30
0.0
  0
VERTEX
  5
980
330
946
100
AcDbEntity
  8
Livello 1
100
AcDbVertex
100
AcDb2dVertex
 10
1.203605751617104
 20
5.719295392733158
 30
0.0
  0
VERTEX
  5
981
330
946
100
AcDbEntity
  8
Livello 1
100
AcDbVertex
100
AcDb2dVertex
 10
1.211015398391253
 20
5.719295392733158
 30
0.0
  0
SEQEND
  5
982
330
946
100
AcDbEntity
  8
Livello 1
  0
POLYLINE
  5
983
330
1F
100
AcDbEntity
  8
Livello 1
100
AcDb2dPolyline
 66
     1
 10
0.0
 20
0.0
 30
0.0
  0
VERTEX
  5
984
330
983
100
AcDbEntity
  8
Livello 1
100
AcDbVertex
100
AcDb2dVertex
 10
1.027924722235297
 20
5.89850764498734
 30
0.0
  0
VERTEX
  5
985
330
983
100
AcDbEntity
  8
Livello 1
100
AcDbVertex
100
AcDb2dVertex
 10
1.027924722235297
 20
7.295154737669328
 30
0.0
  0
SEQEND
  5
986
330
983
100
AcDbEntity
  8
Livello 1
  0
POLYLINE
  5
987
330
1F
100
AcDbEntity
  8
Livello 1
100
AcDb2dPolyline
 66
     1
 10
0.0
 20
0.0
 30
0.0
  0
VERTEX
  5
988
330
987
100
AcDbEntity
  8
Livello 1
100
AcDbVertex
100
AcDb2dVertex
 10
1.210910430638179
 20
7.477999143327686
 30
0.0
  0
VERTEX
  5
989
330
987
100
AcDbEntity
  8
Livello 1
100
AcDbVertex
100
AcDb2dVertex
 10
1.203500783864043
 20
7.477999143327686
 30
0.0
  0
VERTEX
  5
98A
330
987
100
AcDbEntity
  8
Livello 1
100
AcDbVertex
100
AcDb2dVertex
 10
1.177396111120742
 20
7.477999143327686
 30
0.0
  0
VERTEX
  5
98B
330
987
100
AcDbEntity
  8
Livello 1
100
AcDbVertex
100
AcDb2dVertex
 10
1.173514995738145
 20
7.477999143327686
 30
0.0
  0
VERTEX
  5
98C
330
987
100
AcDbEntity
  8
Livello 1
100
AcDbVertex
100
AcDb2dVertex
 10
1.169986464346578
 20
7.474118027945081
 30
0.0
  0
VERTEX
  5
98D
330
987
100
AcDbEntity
  8
Livello 1
100
AcDbVertex
100
AcDb2dVertex
 10
1.15869839367069
 20
7.474118027945081
 30
0.0
  0
VERTEX
  5
98E
330
987
100
AcDbEntity
  8
Livello 1
100
AcDbVertex
100
AcDb2dVertex
 10
1.154817278288092
 20
7.47058949655355
 30
0.0
  0
VERTEX
  5
98F
330
987
100
AcDbEntity
  8
Livello 1
100
AcDbVertex
100
AcDb2dVertex
 10
1.147410322994829
 20
7.47058949655355
 30
0.0
  0
VERTEX
  5
990
330
987
100
AcDbEntity
  8
Livello 1
100
AcDbVertex
100
AcDb2dVertex
 10
1.143529207612232
 20
7.466709726911375
 30
0.0
  0
VERTEX
  5
991
330
987
100
AcDbEntity
  8
Livello 1
100
AcDbVertex
100
AcDb2dVertex
 10
1.136119560838096
 20
7.466709726911375
 30
0.0
  0
VERTEX
  5
992
330
987
100
AcDbEntity
  8
Livello 1
100
AcDbVertex
100
AcDb2dVertex
 10
1.136119560838096
 20
7.463181195519837
 30
0.0
  0
VERTEX
  5
993
330
987
100
AcDbEntity
  8
Livello 1
100
AcDbVertex
100
AcDb2dVertex
 10
1.128712605544777
 20
7.463181195519837
 30
0.0
  0
VERTEX
  5
994
330
987
100
AcDbEntity
  8
Livello 1
100
AcDbVertex
100
AcDb2dVertex
 10
1.125184074153253
 20
7.459301425877661
 30
0.0
  0
VERTEX
  5
995
330
987
100
AcDbEntity
  8
Livello 1
100
AcDbVertex
100
AcDb2dVertex
 10
1.121302958770655
 20
7.459301425877661
 30
0.0
  0
VERTEX
  5
996
330
987
100
AcDbEntity
  8
Livello 1
100
AcDbVertex
100
AcDb2dVertex
 10
1.121302958770655
 20
7.455420310495057
 30
0.0
  0
VERTEX
  5
997
330
987
100
AcDbEntity
  8
Livello 1
100
AcDbVertex
100
AcDb2dVertex
 10
1.113896003477378
 20
7.455420310495057
 30
0.0
  0
VERTEX
  5
998
330
987
100
AcDbEntity
  8
Livello 1
100
AcDbVertex
100
AcDb2dVertex
 10
1.113896003477378
 20
7.451893124843948
 30
0.0
  0
VERTEX
  5
999
330
987
100
AcDbEntity
  8
Livello 1
100
AcDbVertex
100
AcDb2dVertex
 10
1.110014888094781
 20
7.451893124843948
 30
0.0
  0
VERTEX
  5
99A
330
987
100
AcDbEntity
  8
Livello 1
100
AcDbVertex
100
AcDb2dVertex
 10
1.106486356703243
 20
7.448012009461351
 30
0.0
  0
VERTEX
  5
99B
330
987
100
AcDbEntity
  8
Livello 1
100
AcDbVertex
100
AcDb2dVertex
 10
1.102605241320617
 20
7.448012009461351
 30
0.0
  0
VERTEX
  5
99C
330
987
100
AcDbEntity
  8
Livello 1
100
AcDbVertex
100
AcDb2dVertex
 10
1.102605241320617
 20
7.444484823810242
 30
0.0
  0
VERTEX
  5
99D
330
987
100
AcDbEntity
  8
Livello 1
100
AcDbVertex
100
AcDb2dVertex
 10
1.098726817418878
 20
7.444484823810242
 30
0.0
  0
VERTEX
  5
99E
330
987
100
AcDbEntity
  8
Livello 1
100
AcDbVertex
100
AcDb2dVertex
 10
1.098726817418878
 20
7.440603708427637
 30
0.0
  0
VERTEX
  5
99F
330
987
100
AcDbEntity
  8
Livello 1
100
AcDbVertex
100
AcDb2dVertex
 10
1.09519828602734
 20
7.440603708427637
 30
0.0
  0
VERTEX
  5
9A0
330
987
100
AcDbEntity
  8
Livello 1
100
AcDbVertex
100
AcDb2dVertex
 10
1.091317170644742
 20
7.437076522776521
 30
0.0
  0
VERTEX
  5
9A1
330
987
100
AcDbEntity
  8
Livello 1
100
AcDbVertex
100
AcDb2dVertex
 10
1.087788639253219
 20
7.437076522776521
 30
0.0
  0
VERTEX
  5
9A2
330
987
100
AcDbEntity
  8
Livello 1
100
AcDbVertex
100
AcDb2dVertex
 10
1.087788639253219
 20
7.433195407393931
 30
0.0
  0
VERTEX
  5
9A3
330
987
100
AcDbEntity
  8
Livello 1
100
AcDbVertex
100
AcDb2dVertex
 10
1.083910215351465
 20
7.429315637751749
 30
0.0
  0
VERTEX
  5
9A4
330
987
100
AcDbEntity
  8
Livello 1
100
AcDbVertex
100
AcDb2dVertex
 10
1.080381683959942
 20
7.429315637751749
 30
0.0
  0
VERTEX
  5
9A5
330
987
100
AcDbEntity
  8
Livello 1
100
AcDbVertex
100
AcDb2dVertex
 10
1.080381683959942
 20
7.42578710636021
 30
0.0
  0
VERTEX
  5
9A6
330
987
100
AcDbEntity
  8
Livello 1
100
AcDbVertex
100
AcDb2dVertex
 10
1.07650056857733
 20
7.42578710636021
 30
0.0
  0
VERTEX
  5
9A7
330
987
100
AcDbEntity
  8
Livello 1
100
AcDbVertex
100
AcDb2dVertex
 10
1.07650056857733
 20
7.421907336718028
 30
0.0
  0
VERTEX
  5
9A8
330
987
100
AcDbEntity
  8
Livello 1
100
AcDbVertex
100
AcDb2dVertex
 10
1.072619453194732
 20
7.418378805326504
 30
0.0
  0
VERTEX
  5
9A9
330
987
100
AcDbEntity
  8
Livello 1
100
AcDbVertex
100
AcDb2dVertex
 10
1.069093613284039
 20
7.418378805326504
 30
0.0
  0
VERTEX
  5
9AA
330
987
100
AcDbEntity
  8
Livello 1
100
AcDbVertex
100
AcDb2dVertex
 10
1.069093613284039
 20
7.414499035684336
 30
0.0
  0
VERTEX
  5
9AB
330
987
100
AcDbEntity
  8
Livello 1
100
AcDbVertex
100
AcDb2dVertex
 10
1.065212497901441
 20
7.410617920301731
 30
0.0
  0
VERTEX
  5
9AC
330
987
100
AcDbEntity
  8
Livello 1
100
AcDbVertex
100
AcDb2dVertex
 10
1.065212497901441
 20
7.407090734650616
 30
0.0
  0
VERTEX
  5
9AD
330
987
100
AcDbEntity
  8
Livello 1
100
AcDbVertex
100
AcDb2dVertex
 10
1.061683966509889
 20
7.407090734650616
 30
0.0
  0
VERTEX
  5
9AE
330
987
100
AcDbEntity
  8
Livello 1
100
AcDbVertex
100
AcDb2dVertex
 10
1.061683966509889
 20
7.403209619268018
 30
0.0
  0
VERTEX
  5
9AF
330
987
100
AcDbEntity
  8
Livello 1
100
AcDbVertex
100
AcDb2dVertex
 10
1.057802851127306
 20
7.403209619268018
 30
0.0
  0
VERTEX
  5
9B0
330
987
100
AcDbEntity
  8
Livello 1
100
AcDbVertex
100
AcDb2dVertex
 10
1.057802851127306
 20
7.399682433616909
 30
0.0
  0
VERTEX
  5
9B1
330
987
100
AcDbEntity
  8
Livello 1
100
AcDbVertex
100
AcDb2dVertex
 10
1.05392173574468
 20
7.395801318234305
 30
0.0
  0
VERTEX
  5
9B2
330
987
100
AcDbEntity
  8
Livello 1
100
AcDbVertex
100
AcDb2dVertex
 10
1.05392173574468
 20
7.392274132583196
 30
0.0
  0
VERTEX
  5
9B3
330
987
100
AcDbEntity
  8
Livello 1
100
AcDbVertex
100
AcDb2dVertex
 10
1.050395895834029
 20
7.392274132583196
 30
0.0
  0
VERTEX
  5
9B4
330
987
100
AcDbEntity
  8
Livello 1
100
AcDbVertex
100
AcDb2dVertex
 10
1.050395895834029
 20
7.384511901817987
 30
0.0
  0
VERTEX
  5
9B5
330
987
100
AcDbEntity
  8
Livello 1
100
AcDbVertex
100
AcDb2dVertex
 10
1.046514780451431
 20
7.384511901817987
 30
0.0
  0
VERTEX
  5
9B6
330
987
100
AcDbEntity
  8
Livello 1
100
AcDbVertex
100
AcDb2dVertex
 10
1.046514780451431
 20
7.380984716166871
 30
0.0
  0
VERTEX
  5
9B7
330
987
100
AcDbEntity
  8
Livello 1
100
AcDbVertex
100
AcDb2dVertex
 10
1.042986249059893
 20
7.37710360078428
 30
0.0
  0
VERTEX
  5
9B8
330
987
100
AcDbEntity
  8
Livello 1
100
AcDbVertex
100
AcDb2dVertex
 10
1.042986249059893
 20
7.36969529975056
 30
0.0
  0
VERTEX
  5
9B9
330
987
100
AcDbEntity
  8
Livello 1
100
AcDbVertex
100
AcDb2dVertex
 10
1.039105133677296
 20
7.36969529975056
 30
0.0
  0
VERTEX
  5
9BA
330
987
100
AcDbEntity
  8
Livello 1
100
AcDbVertex
100
AcDb2dVertex
 10
1.039105133677296
 20
7.362286998716854
 30
0.0
  0
VERTEX
  5
9BB
330
987
100
AcDbEntity
  8
Livello 1
100
AcDbVertex
100
AcDb2dVertex
 10
1.035226709775542
 20
7.358407229074671
 30
0.0
  0
VERTEX
  5
9BC
330
987
100
AcDbEntity
  8
Livello 1
100
AcDbVertex
100
AcDb2dVertex
 10
1.035226709775542
 20
7.350998928040958
 30
0.0
  0
VERTEX
  5
9BD
330
987
100
AcDbEntity
  8
Livello 1
100
AcDbVertex
100
AcDb2dVertex
 10
1.031698178383976
 20
7.347470396649441
 30
0.0
  0
VERTEX
  5
9BE
330
987
100
AcDbEntity
  8
Livello 1
100
AcDbVertex
100
AcDb2dVertex
 10
1.031698178383976
 20
7.336182325973545
 30
0.0
  0
VERTEX
  5
9BF
330
987
100
AcDbEntity
  8
Livello 1
100
AcDbVertex
100
AcDb2dVertex
 10
1.027817063001378
 20
7.332301210590948
 30
0.0
  0
VERTEX
  5
9C0
330
987
100
AcDbEntity
  8
Livello 1
100
AcDbVertex
100
AcDb2dVertex
 10
1.027817063001378
 20
7.328774024939839
 30
0.0
  0
VERTEX
  5
9C1
330
987
100
AcDbEntity
  8
Livello 1
100
AcDbVertex
100
AcDb2dVertex
 10
1.027817063001378
 20
7.302668006456102
 30
0.0
  0
VERTEX
  5
9C2
330
987
100
AcDbEntity
  8
Livello 1
100
AcDbVertex
100
AcDb2dVertex
 10
1.027817063001378
 20
7.294907121431329
 30
0.0
  0
SEQEND
  5
9C3
330
987
100
AcDbEntity
  8
Livello 1
  0
POLYLINE
  5
9C4
330
1F
100
AcDbEntity
  8
Livello 1
100
AcDb2dPolyline
 66
     1
 10
0.0
 20
0.0
 30
0.0
  0
VERTEX
  5
9C5
330
9C4
100
AcDbEntity
  8
Livello 1
100
AcDbVertex
100
AcDb2dVertex
 10
1.210910430638179
 20
7.477999143327686
 30
0.0
  0
VERTEX
  5
9C6
330
9C4
100
AcDbEntity
  8
Livello 1
100
AcDbVertex
100
AcDb2dVertex
 10
3.113440189039778
 20
7.477999143327686
 30
0.0
  0
SEQEND
  5
9C7
330
9C4
100
AcDbEntity
  8
Livello 1
  0
SPLINE
  5
9C8
330
1F
100
AcDbEntity
  8
Livello 1
100
AcDbSpline
210
0.0
220
0.0
230
1.0
 70
     8
 71
     3
 72
   176
 73
   172
 74
     0
 42
0.000000001
 43
0.0000000001
 40
0.0
 40
0.0
 40
0.0
 40
0.0
 40
1.0
 40
1.0
 40
1.0
 40
2.0
 40
2.0
 40
2.0
 40
3.0
 40
3.0
 40
3.0
 40
4.0
 40
4.0
 40
4.0
 40
5.0
 40
5.0
 40
5.0
 40
6.0
 40
6.0
 40
6.0
 40
7.0
 40
7.0
 40
7.0
 40
8.0
 40
8.0
 40
8.0
 40
9.0
 40
9.0
 40
9.0
 40
10.0
 40
10.0
 40
10.0
 40
11.0
 40
11.0
 40
11.0
 40
12.0
 40
12.0
 40
12.0
 40
13.0
 40
13.0
 40
13.0
 40
14.0
 40
14.0
 40
14.0
 40
15.0
 40
15.0
 40
15.0
 40
16.0
 40
16.0
 40
16.0
 40
17.0
 40
17.0
 40
17.0
 40
18.0
 40
18.0
 40
18.0
 40
19.0
 40
19.0
 40
19.0
 40
20.0
 40
20.0
 40
20.0
 40
21.0
 40
21.0
 40
21.0
 40
22.0
 40
22.0
 40
22.0
 40
23.0
 40
23.0
 40
23.0
 40
24.0
 40
24.0
 40
24.0
 40
25.0
 40
25.0
 40
25.0
 40
26.0
 40
26.0
 40
26.0
 40
27.0
 40
27.0
 40
27.0
 40
28.0
 40
28.0
 40
28.0
 40
29.0
 40
29.0
 40
29.0
 40
30.0
 40
30.0
 40
30.0
 40
31.0
 40
31.0
 40
31.0
 40
32.0
 40
32.0
 40
32.0
 40
33.0
 40
33.0
 40
33.0
 40
34.0
 40
34.0
 40
34.0
 40
35.0
 40
35.0
 40
35.0
 40
36.0
 40
36.0
 40
36.0
 40
37.0
 40
37.0
 40
37.0
 40
38.0
 40
38.0
 40
38.0
 40
39.0
 40
39.0
 40
39.0
 40
40.0
 40
40.0
 40
40.0
 40
41.0
 40
41.0
 40
41.0
 40
42.0
 40
42.0
 40
42.0
 40
43.0
 40
43.0
 40
43.0
 40
44.0
 40
44.0
 40
44.0
 40
45.0
 40
45.0
 40
45.0
 40
46.0
 40
46.0
 40
46.0
 40
47.0
 40
47.0
 40
47.0
 40
48.0
 40
48.0
 40
48.0
 40
49.0
 40
49.0
 40
49.0
 40
50.0
 40
50.0
 40
50.0
 40
51.0
 40
51.0
 40
51.0
 40
52.0
 40
52.0
 40
52.0
 40
53.0
 40
53.0
 40
53.0
 40
54.0
 40
54.0
 40
54.0
 40
55.0
 40
55.0
 40
55.0
 40
56.0
 40
56.0
 40
56.0
 40
57.0
 40
57.0
 40
57.0
 40
57.0
 10
2.181719498015652
 20
8.082906772401443
 30
0.0
 10
2.181719498015652
 20
8.082906772401443
 30
0.0
 10
1.879388145857333
 20
8.082906772401443
 30
0.0
 10
1.879388145857333
 20
8.082906772401443
 30
0.0
 10
1.879388145857333
 20
8.082906772401443
 30
0.0
 10
1.812006922831386
 20
8.082906772401443
 30
0.0
 10
1.812006922831386
 20
8.082906772401443
 30
0.0
 10
1.812006922831386
 20
8.082906772401443
 30
0.0
 10
1.804599967538095
 20
8.079025657018846
 30
0.0
 10
1.804599967538095
 20
8.079025657018846
 30
0.0
 10
1.804599967538095
 20
8.079025657018846
 30
0.0
 10
1.789783365470654
 20
8.079025657018846
 30
0.0
 10
1.789783365470654
 20
8.079025657018846
 30
0.0
 10
1.789783365470654
 20
8.079025657018846
 30
0.0
 10
1.782373718696533
 20
8.075497125627315
 30
0.0
 10
1.782373718696533
 20
8.075497125627315
 30
0.0
 10
1.782373718696533
 20
8.075497125627315
 30
0.0
 10
1.767204532638075
 20
8.075497125627315
 30
0.0
 10
1.767204532638075
 20
8.075497125627315
 30
0.0
 10
1.767204532638075
 20
8.075497125627315
 30
0.0
 10
1.759794885863897
 20
8.071617355985132
 30
0.0
 10
1.759794885863897
 20
8.071617355985132
 30
0.0
 10
1.759794885863897
 20
8.071617355985132
 30
0.0
 10
1.744978283796498
 20
8.071617355985132
 30
0.0
 10
1.744978283796498
 20
8.071617355985132
 30
0.0
 10
1.744978283796498
 20
8.071617355985132
 30
0.0
 10
1.737218744512134
 20
8.068088824593608
 30
0.0
 10
1.737218744512134
 20
8.068088824593608
 30
0.0
 10
1.737218744512134
 20
8.068088824593608
 30
0.0
 10
1.729809097737998
 20
8.068088824593608
 30
0.0
 10
1.729809097737998
 20
8.068088824593608
 30
0.0
 10
1.729809097737998
 20
8.068088824593608
 30
0.0
 10
1.722402142444693
 20
8.064209054951426
 30
0.0
 10
1.722402142444693
 20
8.064209054951426
 30
0.0
 10
1.722402142444693
 20
8.064209054951426
 30
0.0
 10
1.714992495670585
 20
8.064209054951426
 30
0.0
 10
1.714992495670585
 20
8.064209054951426
 30
0.0
 10
1.714992495670585
 20
8.064209054951426
 30
0.0
 10
1.707585540377294
 20
8.060327939568828
 30
0.0
 10
1.707585540377294
 20
8.060327939568828
 30
0.0
 10
1.707585540377294
 20
8.060327939568828
 30
0.0
 10
1.700175893603159
 20
8.060327939568828
 30
0.0
 10
1.700175893603159
 20
8.060327939568828
 30
0.0
 10
1.700175893603159
 20
8.060327939568828
 30
0.0
 10
1.696294778220561
 20
8.056800753917706
 30
0.0
 10
1.696294778220561
 20
8.056800753917706
 30
0.0
 10
1.696294778220561
 20
8.056800753917706
 30
0.0
 10
1.688887822927242
 20
8.052919638535101
 30
0.0
 10
1.688887822927242
 20
8.052919638535101
 30
0.0
 10
1.688887822927242
 20
8.052919638535101
 30
0.0
 10
1.681478176153149
 20
8.052919638535101
 30
0.0
 10
1.681478176153149
 20
8.052919638535101
 30
0.0
 10
1.681478176153149
 20
8.052919638535101
 30
0.0
 10
1.674071220859829
 20
8.049392452883992
 30
0.0
 10
1.674071220859829
 20
8.049392452883992
 30
0.0
 10
1.674071220859829
 20
8.049392452883992
 30
0.0
 10
1.666308990094663
 20
8.045511337501409
 30
0.0
 10
1.666308990094663
 20
8.045511337501409
 30
0.0
 10
1.666308990094663
 20
8.045511337501409
 30
0.0
 10
1.658902034801371
 20
8.045511337501409
 30
0.0
 10
1.658902034801371
 20
8.045511337501409
 30
0.0
 10
1.658902034801371
 20
8.045511337501409
 30
0.0
 10
1.651492388027236
 20
8.041984151850293
 30
0.0
 10
1.651492388027236
 20
8.041984151850293
 30
0.0
 10
1.651492388027236
 20
8.041984151850293
 30
0.0
 10
1.64761127264461
 20
8.038103036467688
 30
0.0
 10
1.64761127264461
 20
8.038103036467688
 30
0.0
 10
1.64761127264461
 20
8.038103036467688
 30
0.0
 10
1.640204317351347
 20
8.03422326682552
 30
0.0
 10
1.640204317351347
 20
8.03422326682552
 30
0.0
 10
1.640204317351347
 20
8.03422326682552
 30
0.0
 10
1.632794670577183
 20
8.03422326682552
 30
0.0
 10
1.632794670577183
 20
8.03422326682552
 30
0.0
 10
1.605632245860675
 20
8.020817000722352
 30
0.0
 10
1.580232741099507
 20
8.004942646681733
 30
0.0
 10
1.554477960866435
 20
7.989419530891758
 30
0.0
 10
1.554477960866435
 20
7.989419530891758
 30
0.0
 10
1.539308774807935
 20
7.982011229858031
 30
0.0
 10
1.539308774807935
 20
7.982011229858031
 30
0.0
 10
1.539308774807935
 20
7.982011229858031
 30
0.0
 10
1.535782934897227
 20
7.978484044206922
 30
0.0
 10
1.535782934897227
 20
7.978484044206922
 30
0.0
 10
1.535782934897227
 20
7.978484044206922
 30
0.0
 10
1.528373288123091
 20
7.974602928824332
 30
0.0
 10
1.528373288123091
 20
7.974602928824332
 30
0.0
 10
1.528373288123091
 20
7.974602928824332
 30
0.0
 10
1.524492172740494
 20
7.970723159182142
 30
0.0
 10
1.524492172740494
 20
7.970723159182142
 30
0.0
 10
1.524492172740494
 20
7.970723159182142
 30
0.0
 10
1.517085217447231
 20
7.967194627790618
 30
0.0
 10
1.517085217447231
 20
7.967194627790618
 30
0.0
 10
1.517085217447231
 20
7.967194627790618
 30
0.0
 10
1.505797146771342
 20
7.95590655711473
 30
0.0
 10
1.505797146771342
 20
7.95590655711473
 30
0.0
 10
1.505797146771342
 20
7.95590655711473
 30
0.0
 10
1.498387499997178
 20
7.952378025723191
 30
0.0
 10
1.498387499997178
 20
7.952378025723191
 30
0.0
 10
1.482865729947604
 20
7.93509198997787
 30
0.0
 10
1.485686401876179
 20
7.940736025315814
 30
0.0
 10
1.472282827253877
 20
7.929800538630999
 30
0.0
 10
1.472282827253877
 20
7.929800538630999
 30
0.0
 10
1.43876850773644
 20
7.896286219113548
 30
0.0
 10
1.43876850773644
 20
7.896286219113548
 30
0.0
 10
1.386203886777892
 20
7.84231126219074
 30
0.0
 10
1.358688878070296
 20
7.789747986972621
 30
0.0
 10
1.323056363125587
 20
7.724483613633495
 30
0.0
 10
1.323056363125587
 20
7.724483613633495
 30
0.0
 10
1.323056363125587
 20
7.717075312599781
 30
0.0
 10
1.323056363125587
 20
7.717075312599781
 30
0.0
 10
1.323056363125587
 20
7.717075312599781
 30
0.0
 10
1.31917524774299
 20
7.709667011566082
 30
0.0
 10
1.31917524774299
 20
7.709667011566082
 30
0.0
 10
1.31917524774299
 20
7.709667011566082
 30
0.0
 10
1.315296823841251
 20
7.705787241923893
 30
0.0
 10
1.315296823841251
 20
7.705787241923893
 30
0.0
 10
1.315296823841251
 20
7.705787241923893
 30
0.0
 10
1.311768292449684
 20
7.698378940890194
 30
0.0
 10
1.311768292449684
 20
7.698378940890194
 30
0.0
 10
1.311768292449684
 20
7.698378940890194
 30
0.0
 10
1.311768292449684
 20
7.690970639856473
 30
0.0
 10
1.311768292449684
 20
7.690970639856473
 30
0.0
 10
1.311768292449684
 20
7.690970639856473
 30
0.0
 10
1.304358645675577
 20
7.675800108057551
 30
0.0
 10
1.304358645675577
 20
7.675800108057551
 30
0.0
 10
1.304358645675577
 20
7.675800108057551
 30
0.0
 10
1.304358645675577
 20
7.668391807023851
 30
0.0
 10
1.304358645675577
 20
7.668391807023851
 30
0.0
 10
1.304358645675577
 20
7.668391807023851
 30
0.0
 10
1.30048022177381
 20
7.660983505990138
 30
0.0
 10
1.30048022177381
 20
7.660983505990138
 30
0.0
 10
1.30048022177381
 20
7.660983505990138
 30
0.0
 10
1.296599106391226
 20
7.657103736347956
 30
0.0
 10
1.296599106391226
 20
7.657103736347956
 30
0.0
 10
1.296599106391226
 20
7.657103736347956
 30
0.0
 10
1.296599106391226
 20
7.649695435314242
 30
0.0
 10
1.296599106391226
 20
7.649695435314242
 30
0.0
 10
1.296599106391226
 20
7.649695435314242
 30
0.0
 10
1.293070574999688
 20
7.642287134280536
 30
0.0
 10
1.293070574999688
 20
7.642287134280536
 30
0.0
 10
1.293070574999688
 20
7.642287134280536
 30
0.0
 10
1.293070574999688
 20
7.63487883324683
 30
0.0
 10
1.293070574999688
 20
7.63487883324683
 30
0.0
 10
1.293070574999688
 20
7.63487883324683
 30
0.0
 10
1.289189459617105
 20
7.627470532213123
 30
0.0
 10
1.289189459617105
 20
7.627470532213123
 30
0.0
 10
1.289189459617105
 20
7.627470532213123
 30
0.0
 10
1.289189459617105
 20
7.619708301447914
 30
0.0
 10
1.289189459617105
 20
7.619708301447914
 30
0.0
 10
1.289189459617105
 20
7.619708301447914
 30
0.0
 10
1.285663619706426
 20
7.612300000414208
 30
0.0
 10
1.285663619706426
 20
7.612300000414208
 30
0.0
 10
1.285663619706426
 20
7.612300000414208
 30
0.0
 10
1.285663619706426
 20
7.597483398346781
 30
0.0
 10
1.285663619706426
 20
7.597483398346781
 30
0.0
 10
1.285663619706426
 20
7.597483398346781
 30
0.0
 10
1.281782504323814
 20
7.590075097313068
 30
0.0
 10
1.281782504323814
 20
7.590075097313068
 30
0.0
 10
1.281782504323814
 20
7.590075097313068
 30
0.0
 10
1.281782504323814
 20
7.575258495245641
 30
0.0
 10
1.281782504323814
 20
7.575258495245641
 30
0.0
 10
1.281782504323814
 20
7.575258495245641
 30
0.0
 10
1.278253972932276
 20
7.567497610220868
 30
0.0
 10
1.278253972932276
 20
7.567497610220868
 30
0.0
 10
1.278253972932276
 20
7.567497610220868
 30
0.0
 10
1.278253972932276
 20
7.552681008153442
 30
0.0
 10
1.278253972932276
 20
7.552681008153442
 30
0.0
 10
1.278253972932276
 20
7.552681008153442
 30
0.0
 10
1.274372857549664
 20
7.545272707119735
 30
0.0
 10
1.274372857549664
 20
7.545272707119735
 30
0.0
 10
1.274372857549664
 20
7.545272707119735
 30
0.0
 10
1.274372857549664
 20
7.477892829834196
 30
0.0
 10
1.274372857549664
 20
7.477892829834196
 30
0.0
  0
POLYLINE
  5
9C9
330
1F
100
AcDbEntity
  8
Livello 1
100
AcDb2dPolyline
 66
     1
 10
0.0
 20
0.0
 30
0.0
  0
VERTEX
  5
9CA
330
9C9
100
AcDbEntity
  8
Livello 1
100
AcDbVertex
100
AcDb2dVertex
 10
2.241481138761329
 20
8.023146477396188
 30
0.0
  0
VERTEX
  5
9CB
330
9C9
100
AcDbEntity
  8
Livello 1
100
AcDbVertex
100
AcDb2dVertex
 10
2.237600023378732
 20
8.027026247038349
 30
0.0
  0
VERTEX
  5
9CC
330
9C9
100
AcDbEntity
  8
Livello 1
100
AcDbVertex
100
AcDb2dVertex
 10
2.237600023378732
 20
8.045723964488388
 30
0.0
  0
VERTEX
  5
9CD
330
9C9
100
AcDbEntity
  8
Livello 1
100
AcDbVertex
100
AcDb2dVertex
 10
2.234071491987222
 20
8.045723964488388
 30
0.0
  0
VERTEX
  5
9CE
330
9C9
100
AcDbEntity
  8
Livello 1
100
AcDbVertex
100
AcDb2dVertex
 10
2.234071491987222
 20
8.053132265522094
 30
0.0
  0
VERTEX
  5
9CF
330
9C9
100
AcDbEntity
  8
Livello 1
100
AcDbVertex
100
AcDb2dVertex
 10
2.23019037660461
 20
8.053132265522094
 30
0.0
  0
VERTEX
  5
9D0
330
9C9
100
AcDbEntity
  8
Livello 1
100
AcDbVertex
100
AcDb2dVertex
 10
2.23019037660461
 20
8.0605405665558
 30
0.0
  0
VERTEX
  5
9D1
330
9C9
100
AcDbEntity
  8
Livello 1
100
AcDbVertex
100
AcDb2dVertex
 10
2.226661845213072
 20
8.0605405665558
 30
0.0
  0
VERTEX
  5
9D2
330
9C9
100
AcDbEntity
  8
Livello 1
100
AcDbVertex
100
AcDb2dVertex
 10
2.226661845213072
 20
8.064067752206909
 30
0.0
  0
VERTEX
  5
9D3
330
9C9
100
AcDbEntity
  8
Livello 1
100
AcDbVertex
100
AcDb2dVertex
 10
2.222783421311319
 20
8.064067752206909
 30
0.0
  0
VERTEX
  5
9D4
330
9C9
100
AcDbEntity
  8
Livello 1
100
AcDbVertex
100
AcDb2dVertex
 10
2.222783421311319
 20
8.067948867589514
 30
0.0
  0
VERTEX
  5
9D5
330
9C9
100
AcDbEntity
  8
Livello 1
100
AcDbVertex
100
AcDb2dVertex
 10
2.218902305928722
 20
8.067948867589514
 30
0.0
  0
VERTEX
  5
9D6
330
9C9
100
AcDbEntity
  8
Livello 1
100
AcDbVertex
100
AcDb2dVertex
 10
2.218902305928722
 20
8.071828637231689
 30
0.0
  0
VERTEX
  5
9D7
330
9C9
100
AcDbEntity
  8
Livello 1
100
AcDbVertex
100
AcDb2dVertex
 10
2.215373774537184
 20
8.071828637231689
 30
0.0
  0
VERTEX
  5
9D8
330
9C9
100
AcDbEntity
  8
Livello 1
100
AcDbVertex
100
AcDb2dVertex
 10
2.215373774537184
 20
8.07535716862322
 30
0.0
  0
VERTEX
  5
9D9
330
9C9
100
AcDbEntity
  8
Livello 1
100
AcDbVertex
100
AcDb2dVertex
 10
2.207966819243893
 20
8.07535716862322
 30
0.0
  0
VERTEX
  5
9DA
330
9C9
100
AcDbEntity
  8
Livello 1
100
AcDbVertex
100
AcDb2dVertex
 10
2.207966819243893
 20
8.079236938265403
 30
0.0
  0
VERTEX
  5
9DB
330
9C9
100
AcDbEntity
  8
Livello 1
100
AcDbVertex
100
AcDb2dVertex
 10
2.200557172469743
 20
8.079236938265403
 30
0.0
  0
VERTEX
  5
9DC
330
9C9
100
AcDbEntity
  8
Livello 1
100
AcDbVertex
100
AcDb2dVertex
 10
2.200557172469743
 20
8.082765469656941
 30
0.0
  0
VERTEX
  5
9DD
330
9C9
100
AcDbEntity
  8
Livello 1
100
AcDbVertex
100
AcDb2dVertex
 10
2.181859455019747
 20
8.082765469656941
 30
0.0
  0
SEQEND
  5
9DE
330
9C9
100
AcDbEntity
  8
Livello 1
  0
POLYLINE
  5
9DF
330
1F
100
AcDbEntity
  8
Livello 1
100
AcDb2dPolyline
 66
     1
 10
0.0
 20
0.0
 30
0.0
  0
VERTEX
  5
9E0
330
9DF
100
AcDbEntity
  8
Livello 1
100
AcDbVertex
100
AcDb2dVertex
 10
2.241481138761329
 20
7.477999143327686
 30
0.0
  0
VERTEX
  5
9E1
330
9DF
100
AcDbEntity
  8
Livello 1
100
AcDbVertex
100
AcDb2dVertex
 10
2.241481138761329
 20
8.023040163902685
 30
0.0
  0
SEQEND
  5
9E2
330
9DF
100
AcDbEntity
  8
Livello 1
  0
POLYLINE
  5
9E3
330
1F
100
AcDbEntity
  8
Livello 1
100
AcDb2dPolyline
 66
     1
 10
0.0
 20
0.0
 30
0.0
  0
VERTEX
  5
9E4
330
9E3
100
AcDbEntity
  8
Livello 1
100
AcDbVertex
100
AcDb2dVertex
 10
2.181719498015652
 20
5.151746863567993
 30
0.0
  0
VERTEX
  5
9E5
330
9E3
100
AcDbEntity
  8
Livello 1
100
AcDbVertex
100
AcDb2dVertex
 10
2.181719498015652
 20
5.155626633210175
 30
0.0
  0
VERTEX
  5
9E6
330
9E3
100
AcDbEntity
  8
Livello 1
100
AcDbVertex
100
AcDb2dVertex
 10
2.200414523984818
 20
5.155626633210175
 30
0.0
  0
VERTEX
  5
9E7
330
9E3
100
AcDbEntity
  8
Livello 1
100
AcDbVertex
100
AcDb2dVertex
 10
2.200414523984818
 20
5.159155164601699
 30
0.0
  0
VERTEX
  5
9E8
330
9E3
100
AcDbEntity
  8
Livello 1
100
AcDbVertex
100
AcDb2dVertex
 10
2.207824170758939
 20
5.159155164601699
 30
0.0
  0
VERTEX
  5
9E9
330
9E3
100
AcDbEntity
  8
Livello 1
100
AcDbVertex
100
AcDb2dVertex
 10
2.21170528614158
 20
5.163034934243881
 30
0.0
  0
VERTEX
  5
9EA
330
9E3
100
AcDbEntity
  8
Livello 1
100
AcDbVertex
100
AcDb2dVertex
 10
2.215231126052245
 20
5.163034934243881
 30
0.0
  0
VERTEX
  5
9EB
330
9E3
100
AcDbEntity
  8
Livello 1
100
AcDbVertex
100
AcDb2dVertex
 10
2.215231126052245
 20
5.16656346563542
 30
0.0
  0
VERTEX
  5
9EC
330
9E3
100
AcDbEntity
  8
Livello 1
100
AcDbVertex
100
AcDb2dVertex
 10
2.219112241434842
 20
5.16656346563542
 30
0.0
  0
VERTEX
  5
9ED
330
9E3
100
AcDbEntity
  8
Livello 1
100
AcDbVertex
100
AcDb2dVertex
 10
2.22264077282638
 20
5.170443235277588
 30
0.0
  0
VERTEX
  5
9EE
330
9E3
100
AcDbEntity
  8
Livello 1
100
AcDbVertex
100
AcDb2dVertex
 10
2.226521888208978
 20
5.170443235277588
 30
0.0
  0
VERTEX
  5
9EF
330
9E3
100
AcDbEntity
  8
Livello 1
100
AcDbVertex
100
AcDb2dVertex
 10
2.226521888208978
 20
5.174324350660192
 30
0.0
  0
VERTEX
  5
9F0
330
9E3
100
AcDbEntity
  8
Livello 1
100
AcDbVertex
100
AcDb2dVertex
 10
2.230400312110745
 20
5.177851536311308
 30
0.0
  0
VERTEX
  5
9F1
330
9E3
100
AcDbEntity
  8
Livello 1
100
AcDbVertex
100
AcDb2dVertex
 10
2.230400312110745
 20
5.181732651693913
 30
0.0
  0
VERTEX
  5
9F2
330
9E3
100
AcDbEntity
  8
Livello 1
100
AcDbVertex
100
AcDb2dVertex
 10
2.233928843502255
 20
5.181732651693913
 30
0.0
  0
VERTEX
  5
9F3
330
9E3
100
AcDbEntity
  8
Livello 1
100
AcDbVertex
100
AcDb2dVertex
 10
2.233928843502255
 20
5.185259837345014
 30
0.0
  0
VERTEX
  5
9F4
330
9E3
100
AcDbEntity
  8
Livello 1
100
AcDbVertex
100
AcDb2dVertex
 10
2.237809958884867
 20
5.189140952727619
 30
0.0
  0
VERTEX
  5
9F5
330
9E3
100
AcDbEntity
  8
Livello 1
100
AcDbVertex
100
AcDb2dVertex
 10
2.237809958884867
 20
5.196549253761325
 30
0.0
  0
VERTEX
  5
9F6
330
9E3
100
AcDbEntity
  8
Livello 1
100
AcDbVertex
100
AcDb2dVertex
 10
2.24133849027639
 20
5.196549253761325
 30
0.0
  0
VERTEX
  5
9F7
330
9E3
100
AcDbEntity
  8
Livello 1
100
AcDbVertex
100
AcDb2dVertex
 10
2.24133849027639
 20
5.21524562547092
 30
0.0
  0
VERTEX
  5
9F8
330
9E3
100
AcDbEntity
  8
Livello 1
100
AcDbVertex
100
AcDb2dVertex
 10
2.245216914178158
 20
5.21524562547092
 30
0.0
  0
SEQEND
  5
9F9
330
9E3
100
AcDbEntity
  8
Livello 1
  0
POLYLINE
  5
9FA
330
1F
100
AcDbEntity
  8
Livello 1
100
AcDb2dPolyline
 66
     1
 10
0.0
 20
0.0
 30
0.0
  0
VERTEX
  5
9FB
330
9FA
100
AcDbEntity
  8
Livello 1
100
AcDbVertex
100
AcDb2dVertex
 10
1.879283178104287
 20
5.151746863567993
 30
0.0
  0
VERTEX
  5
9FC
330
9FA
100
AcDbEntity
  8
Livello 1
100
AcDbVertex
100
AcDb2dVertex
 10
2.181611838781734
 20
5.151746863567993
 30
0.0
  0
SEQEND
  5
9FD
330
9FA
100
AcDbEntity
  8
Livello 1
  0
SPLINE
  5
9FE
330
1F
100
AcDbEntity
  8
Livello 1
100
AcDbSpline
210
0.0
220
0.0
230
1.0
 70
     8
 71
     3
 72
   227
 73
   223
 74
     0
 42
0.000000001
 43
0.0000000001
 40
0.0
 40
0.0
 40
0.0
 40
0.0
 40
1.0
 40
1.0
 40
1.0
 40
2.0
 40
2.0
 40
2.0
 40
3.0
 40
3.0
 40
3.0
 40
4.0
 40
4.0
 40
4.0
 40
5.0
 40
5.0
 40
5.0
 40
6.0
 40
6.0
 40
6.0
 40
7.0
 40
7.0
 40
7.0
 40
8.0
 40
8.0
 40
8.0
 40
9.0
 40
9.0
 40
9.0
 40
10.0
 40
10.0
 40
10.0
 40
11.0
 40
11.0
 40
11.0
 40
12.0
 40
12.0
 40
12.0
 40
13.0
 40
13.0
 40
13.0
 40
14.0
 40
14.0
 40
14.0
 40
15.0
 40
15.0
 40
15.0
 40
16.0
 40
16.0
 40
16.0
 40
17.0
 40
17.0
 40
17.0
 40
18.0
 40
18.0
 40
18.0
 40
19.0
 40
19.0
 40
19.0
 40
20.0
 40
20.0
 40
20.0
 40
21.0
 40
21.0
 40
21.0
 40
22.0
 40
22.0
 40
22.0
 40
23.0
 40
23.0
 40
23.0
 40
24.0
 40
24.0
 40
24.0
 40
25.0
 40
25.0
 40
25.0
 40
26.0
 40
26.0
 40
26.0
 40
27.0
 40
27.0
 40
27.0
 40
28.0
 40
28.0
 40
28.0
 40
29.0
 40
29.0
 40
29.0
 40
30.0
 40
30.0
 40
30.0
 40
31.0
 40
31.0
 40
31.0
 40
32.0
 40
32.0
 40
32.0
 40
33.0
 40
33.0
 40
33.0
 40
34.0
 40
34.0
 40
34.0
 40
35.0
 40
35.0
 40
35.0
 40
36.0
 40
36.0
 40
36.0
 40
37.0
 40
37.0
 40
37.0
 40
38.0
 40
38.0
 40
38.0
 40
39.0
 40
39.0
 40
39.0
 40
40.0
 40
40.0
 40
40.0
 40
41.0
 40
41.0
 40
41.0
 40
42.0
 40
42.0
 40
42.0
 40
43.0
 40
43.0
 40
43.0
 40
44.0
 40
44.0
 40
44.0
 40
45.0
 40
45.0
 40
45.0
 40
46.0
 40
46.0
 40
46.0
 40
47.0
 40
47.0
 40
47.0
 40
48.0
 40
48.0
 40
48.0
 40
49.0
 40
49.0
 40
49.0
 40
50.0
 40
50.0
 40
50.0
 40
51.0
 40
51.0
 40
51.0
 40
52.0
 40
52.0
 40
52.0
 40
53.0
 40
53.0
 40
53.0
 40
54.0
 40
54.0
 40
54.0
 40
55.0
 40
55.0
 40
55.0
 40
56.0
 40
56.0
 40
56.0
 40
57.0
 40
57.0
 40
57.0
 40
58.0
 40
58.0
 40
58.0
 40
59.0
 40
59.0
 40
59.0
 40
60.0
 40
60.0
 40
60.0
 40
61.0
 40
61.0
 40
61.0
 40
62.0
 40
62.0
 40
62.0
 40
63.0
 40
63.0
 40
63.0
 40
64.0
 40
64.0
 40
64.0
 40
65.0
 40
65.0
 40
65.0
 40
66.0
 40
66.0
 40
66.0
 40
67.0
 40
67.0
 40
67.0
 40
68.0
 40
68.0
 40
68.0
 40
69.0
 40
69.0
 40
69.0
 40
70.0
 40
70.0
 40
70.0
 40
71.0
 40
71.0
 40
71.0
 40
72.0
 40
72.0
 40
72.0
 40
73.0
 40
73.0
 40
73.0
 40
74.0
 40
74.0
 40
74.0
 40
74.0
 10
1.274340559779517
 20
5.715556925835493
 30
0.0
 10
1.274340559779517
 20
5.715556925835493
 30
0.0
 10
1.274340559779517
 20
5.689450907351755
 30
0.0
 10
1.274340559779517
 20
5.689450907351755
 30
0.0
 10
1.274340559779517
 20
5.689450907351755
 30
0.0
 10
1.278218983681242
 20
5.682042606318049
 30
0.0
 10
1.278218983681242
 20
5.682042606318049
 30
0.0
 10
1.278218983681242
 20
5.682042606318049
 30
0.0
 10
1.278218983681242
 20
5.659465119225842
 30
0.0
 10
1.278218983681242
 20
5.659465119225842
 30
0.0
 10
1.278218983681242
 20
5.659465119225842
 30
0.0
 10
1.28174751507278
 20
5.652056818192122
 30
0.0
 10
1.28174751507278
 20
5.652056818192122
 30
0.0
 10
1.28174751507278
 20
5.652056818192122
 30
0.0
 10
1.28174751507278
 20
5.644648517158415
 30
0.0
 10
1.28174751507278
 20
5.644648517158415
 30
0.0
 10
1.28174751507278
 20
5.644648517158415
 30
0.0
 10
1.285628630455377
 20
5.637240216124702
 30
0.0
 10
1.285628630455377
 20
5.637240216124702
 30
0.0
 10
1.285628630455377
 20
5.637240216124702
 30
0.0
 10
1.285628630455377
 20
5.622069684325794
 30
0.0
 10
1.285628630455377
 20
5.622069684325794
 30
0.0
 10
1.285628630455377
 20
5.622069684325794
 30
0.0
 10
1.289157161846929
 20
5.61466138329208
 30
0.0
 10
1.289157161846929
 20
5.61466138329208
 30
0.0
 10
1.289157161846929
 20
5.61466138329208
 30
0.0
 10
1.289157161846929
 20
5.607253082258374
 30
0.0
 10
1.289157161846929
 20
5.607253082258374
 30
0.0
 10
1.289157161846929
 20
5.607253082258374
 30
0.0
 10
1.293035585748654
 20
5.599844781224653
 30
0.0
 10
1.293035585748654
 20
5.599844781224653
 30
0.0
 10
1.293035585748654
 20
5.599844781224653
 30
0.0
 10
1.293035585748654
 20
5.592436480190947
 30
0.0
 10
1.293035585748654
 20
5.592436480190947
 30
0.0
 10
1.293035585748654
 20
5.592436480190947
 30
0.0
 10
1.30044523252279
 20
5.577267294132468
 30
0.0
 10
1.30044523252279
 20
5.577267294132468
 30
0.0
 10
1.30044523252279
 20
5.577267294132468
 30
0.0
 10
1.30044523252279
 20
5.56985899309874
 30
0.0
 10
1.30044523252279
 20
5.56985899309874
 30
0.0
 10
1.30044523252279
 20
5.56985899309874
 30
0.0
 10
1.304326347905387
 20
5.566331807447639
 30
0.0
 10
1.304326347905387
 20
5.566331807447639
 30
0.0
 10
1.304326347905387
 20
5.566331807447639
 30
0.0
 10
1.307852187816109
 20
5.558569576682437
 30
0.0
 10
1.307852187816109
 20
5.558569576682437
 30
0.0
 10
1.307852187816109
 20
5.558569576682437
 30
0.0
 10
1.307852187816109
 20
5.55116127564873
 30
0.0
 10
1.307852187816109
 20
5.55116127564873
 30
0.0
 10
1.307852187816109
 20
5.55116127564873
 30
0.0
 10
1.315261834590231
 20
5.536344673581311
 30
0.0
 10
1.315261834590231
 20
5.536344673581311
 30
0.0
 10
1.315261834590231
 20
5.536344673581311
 30
0.0
 10
1.315261834590231
 20
5.528936372547583
 30
0.0
 10
1.315261834590231
 20
5.528936372547583
 30
0.0
 10
1.315261834590231
 20
5.528936372547583
 30
0.0
 10
1.319142949972814
 20
5.521528071513877
 30
0.0
 10
1.319142949972814
 20
5.521528071513877
 30
0.0
 10
1.319142949972814
 20
5.521528071513877
 30
0.0
 10
1.323021373874581
 20
5.517648301871702
 30
0.0
 10
1.323021373874581
 20
5.517648301871702
 30
0.0
 10
1.323021373874581
 20
5.517648301871702
 30
0.0
 10
1.333959552040255
 20
5.495423398770569
 30
0.0
 10
1.333959552040255
 20
5.495423398770569
 30
0.0
 10
1.333959552040255
 20
5.495423398770569
 30
0.0
 10
1.333959552040255
 20
5.487661168005367
 30
0.0
 10
1.333959552040255
 20
5.487661168005367
 30
0.0
 10
1.333959552040255
 20
5.487661168005367
 30
0.0
 10
1.337837975942022
 20
5.484133982354258
 30
0.0
 10
1.337837975942022
 20
5.484133982354258
 30
0.0
 10
1.337837975942022
 20
5.484133982354258
 30
0.0
 10
1.349128738098741
 20
5.461556495262058
 30
0.0
 10
1.349128738098741
 20
5.461556495262058
 30
0.0
 10
1.349128738098741
 20
5.461556495262058
 30
0.0
 10
1.352654578009435
 20
5.45802796387052
 30
0.0
 10
1.352654578009435
 20
5.45802796387052
 30
0.0
 10
1.352654578009435
 20
5.45802796387052
 30
0.0
 10
1.36006422478357
 20
5.442858777812027
 30
0.0
 10
1.36006422478357
 20
5.442858777812027
 30
0.0
 10
1.36006422478357
 20
5.442858777812027
 30
0.0
 10
1.363945340166168
 20
5.439331592160918
 30
0.0
 10
1.363945340166168
 20
5.439331592160918
 30
0.0
 10
1.363945340166168
 20
5.439331592160918
 30
0.0
 10
1.371352295459445
 20
5.424162406102439
 30
0.0
 10
1.371352295459445
 20
5.424162406102439
 30
0.0
 10
1.371352295459445
 20
5.424162406102439
 30
0.0
 10
1.37876194223358
 20
5.420633874710887
 30
0.0
 10
1.37876194223358
 20
5.420633874710887
 30
0.0
 10
1.37876194223358
 20
5.420633874710887
 30
0.0
 10
1.386521481517945
 20
5.405464688652408
 30
0.0
 10
1.386521481517945
 20
5.405464688652408
 30
0.0
 10
1.386521481517945
 20
5.405464688652408
 30
0.0
 10
1.390050012909455
 20
5.40193615726087
 30
0.0
 10
1.390050012909455
 20
5.40193615726087
 30
0.0
 10
1.390050012909455
 20
5.40193615726087
 30
0.0
 10
1.393931128292081
 20
5.394527856227163
 30
0.0
 10
1.393931128292081
 20
5.394527856227163
 30
0.0
 10
1.393931128292081
 20
5.394527856227163
 30
0.0
 10
1.404866614976896
 20
5.383239785551275
 30
0.0
 10
1.404866614976896
 20
5.383239785551275
 30
0.0
 10
1.404866614976896
 20
5.383239785551275
 30
0.0
 10
1.408747730359493
 20
5.375831484517561
 30
0.0
 10
1.408747730359493
 20
5.375831484517561
 30
0.0
 10
1.408747730359493
 20
5.375831484517561
 30
0.0
 10
1.423564332426934
 20
5.360662298459068
 30
0.0
 10
1.423564332426934
 20
5.360662298459068
 30
0.0
 10
1.423564332426934
 20
5.360662298459068
 30
0.0
 10
1.427445447809532
 20
5.353253997425369
 30
0.0
 10
1.427445447809532
 20
5.353253997425369
 30
0.0
 10
1.427445447809532
 20
5.353253997425369
 30
0.0
 10
1.434852403102823
 20
5.349725466033824
 30
0.0
 10
1.434852403102823
 20
5.349725466033824
 30
0.0
 10
1.434852403102823
 20
5.349725466033824
 30
0.0
 10
1.438733518485435
 20
5.342317165000117
 30
0.0
 10
1.438733518485435
 20
5.342317165000117
 30
0.0
 10
1.438733518485435
 20
5.342317165000117
 30
0.0
 10
1.442262049876944
 20
5.338437395357935
 30
0.0
 10
1.442262049876944
 20
5.338437395357935
 30
0.0
 10
1.442262049876944
 20
5.338437395357935
 30
0.0
 10
1.450021589161295
 20
5.33455627997533
 30
0.0
 10
1.450021589161295
 20
5.33455627997533
 30
0.0
 10
1.450021589161295
 20
5.33455627997533
 30
0.0
 10
1.453550120552833
 20
5.327147978941624
 30
0.0
 10
1.453550120552833
 20
5.327147978941624
 30
0.0
 10
1.453550120552833
 20
5.327147978941624
 30
0.0
 10
1.460959767326968
 20
5.323620793290515
 30
0.0
 10
1.460959767326968
 20
5.323620793290515
 30
0.0
 10
1.460959767326968
 20
5.323620793290515
 30
0.0
 10
1.464838191228707
 20
5.316212492256809
 30
0.0
 10
1.464838191228707
 20
5.316212492256809
 30
0.0
 10
1.464838191228707
 20
5.316212492256809
 30
0.0
 10
1.46836672262026
 20
5.312331376874205
 30
0.0
 10
1.46836672262026
 20
5.312331376874205
 30
0.0
 10
1.46836672262026
 20
5.312331376874205
 30
0.0
 10
1.476128953385455
 20
5.3084502614916
 30
0.0
 10
1.476128953385455
 20
5.3084502614916
 30
0.0
 10
1.476128953385455
 20
5.3084502614916
 30
0.0
 10
1.479654793296148
 20
5.30104196045788
 30
0.0
 10
1.479654793296148
 20
5.30104196045788
 30
0.0
 10
1.479654793296148
 20
5.30104196045788
 30
0.0
 10
1.487064440070284
 20
5.297514774806771
 30
0.0
 10
1.487064440070284
 20
5.297514774806771
 30
0.0
 10
1.487064440070284
 20
5.297514774806771
 30
0.0
 10
1.490945555452881
 20
5.293633659424173
 30
0.0
 10
1.490945555452881
 20
5.293633659424173
 30
0.0
 10
1.490945555452881
 20
5.293633659424173
 30
0.0
 10
1.498352510746173
 20
5.289753889781998
 30
0.0
 10
1.498352510746173
 20
5.289753889781998
 30
0.0
 10
1.498352510746173
 20
5.289753889781998
 30
0.0
 10
1.509643272902891
 20
5.278817057356761
 30
0.0
 10
1.509643272902891
 20
5.278817057356761
 30
0.0
 10
1.509643272902891
 20
5.278817057356761
 30
0.0
 10
1.517050228196197
 20
5.274937287714578
 30
0.0
 10
1.517050228196197
 20
5.274937287714578
 30
0.0
 10
1.517050228196197
 20
5.274937287714578
 30
0.0
 10
1.52093134357878
 20
5.271056172331974
 30
0.0
 10
1.52093134357878
 20
5.271056172331974
 30
0.0
 10
1.52093134357878
 20
5.271056172331974
 30
0.0
 10
1.528338298872085
 20
5.267528986680865
 30
0.0
 10
1.528338298872085
 20
5.267528986680865
 30
0.0
 10
1.528338298872085
 20
5.267528986680865
 30
0.0
 10
1.535747945646235
 20
5.263647871298267
 30
0.0
 10
1.535747945646235
 20
5.263647871298267
 30
0.0
 10
1.535747945646235
 20
5.263647871298267
 30
0.0
 10
1.539629061028819
 20
5.256239570264554
 30
0.0
 10
1.539629061028819
 20
5.256239570264554
 30
0.0
 10
1.539629061028819
 20
5.256239570264554
 30
0.0
 10
1.547036016322095
 20
5.252358454881949
 30
0.0
 10
1.547036016322095
 20
5.252358454881949
 30
0.0
 10
1.547036016322095
 20
5.252358454881949
 30
0.0
 10
1.554445663096259
 20
5.248831269230848
 30
0.0
 10
1.554445663096259
 20
5.248831269230848
 30
0.0
 10
1.554445663096259
 20
5.248831269230848
 30
0.0
 10
1.557971503006939
 20
5.244950153848243
 30
0.0
 10
1.557971503006939
 20
5.244950153848243
 30
0.0
 10
1.557971503006939
 20
5.244950153848243
 30
0.0
 10
1.573140689065425
 20
5.23754185281453
 30
0.0
 10
1.573140689065425
 20
5.23754185281453
 30
0.0
 10
1.573140689065425
 20
5.23754185281453
 30
0.0
 10
1.576669220456949
 20
5.234014667163421
 30
0.0
 10
1.576669220456949
 20
5.234014667163421
 30
0.0
 10
1.576669220456949
 20
5.234014667163421
 30
0.0
 10
1.606655008582862
 20
5.218845481104921
 30
0.0
 10
1.606655008582862
 20
5.218845481104921
 30
0.0
 10
1.606655008582862
 20
5.218845481104921
 30
0.0
 10
1.610536123965459
 20
5.21531694971339
 30
0.0
 10
1.610536123965459
 20
5.21531694971339
 30
0.0
 10
1.610536123965459
 20
5.21531694971339
 30
0.0
 10
1.617945770739595
 20
5.21531694971339
 30
0.0
 10
1.617945770739595
 20
5.21531694971339
 30
0.0
 10
1.617945770739595
 20
5.21531694971339
 30
0.0
 10
1.625352726032886
 20
5.211437180071222
 30
0.0
 10
1.625352726032886
 20
5.211437180071222
 30
0.0
 10
1.625352726032886
 20
5.211437180071222
 30
0.0
 10
1.632762372807022
 20
5.207908648679691
 30
0.0
 10
1.632762372807022
 20
5.207908648679691
 30
0.0
 10
1.632762372807022
 20
5.207908648679691
 30
0.0
 10
1.640169328100299
 20
5.204028879037508
 30
0.0
 10
1.640169328100299
 20
5.204028879037508
 30
0.0
 10
1.640169328100299
 20
5.204028879037508
 30
0.0
 10
1.644050443482896
 20
5.200147763654904
 30
0.0
 10
1.644050443482896
 20
5.200147763654904
 30
0.0
 10
1.644050443482896
 20
5.200147763654904
 30
0.0
 10
1.651457398776187
 20
5.200147763654904
 30
0.0
 10
1.651457398776187
 20
5.200147763654904
 30
0.0
 10
1.651457398776187
 20
5.200147763654904
 30
0.0
 10
1.666274000843614
 20
5.192739462621197
 30
0.0
 10
1.666274000843614
 20
5.192739462621197
 30
0.0
 10
1.688500249685176
 20
5.188859692979015
 30
0.0
 10
1.716723117855735
 20
5.172278825215833
 30
0.0
 10
1.744945986026323
 20
5.170514559520071
 30
0.0
 10
1.744945986026323
 20
5.170514559520071
 30
0.0
 10
1.7523529413196
 20
5.170514559520071
 30
0.0
 10
1.7523529413196
 20
5.170514559520071
 30
0.0
 10
1.7523529413196
 20
5.170514559520071
 30
0.0
 10
1.759762588093735
 20
5.166633444137453
 30
0.0
 10
1.759762588093735
 20
5.166633444137453
 30
0.0
 10
1.787982764783464
 20
5.162401090504211
 30
0.0
 10
1.820791916318782
 20
5.158167391130547
 30
0.0
 10
1.849367368480429
 20
5.155345373461578
 30
0.0
 10
1.849367368480429
 20
5.155345373461578
 30
0.0
 10
1.879353156606327
 20
5.155345373461578
 30
0.0
 10
1.879353156606327
 20
5.155345373461578
 30
0.0
  0
POLYLINE
  5
9FF
330
1F
100
AcDbEntity
  8
Livello 1
100
AcDb2dPolyline
 66
     1
 10
0.0
 20
0.0
 30
0.0
  0
VERTEX
  5
A00
330
9FF
100
AcDbEntity
  8
Livello 1
100
AcDbVertex
100
AcDb2dVertex
 10
2.241446149510323
 20
5.215211981960329
 30
0.0
  0
VERTEX
  5
A01
330
9FF
100
AcDbEntity
  8
Livello 1
100
AcDbVertex
100
AcDb2dVertex
 10
2.241446149510323
 20
5.715450612341989
 30
0.0
  0
SEQEND
  5
A02
330
9FF
100
AcDbEntity
  8
Livello 1
  0
POLYLINE
  5
A03
330
1F
100
AcDbEntity
  8
Livello 1
100
AcDb2dPolyline
 66
     1
 10
0.0
 20
0.0
 30
0.0
  0
VERTEX
  5
A04
330
A03
100
AcDbEntity
  8
Livello 1
100
AcDbVertex
100
AcDb2dVertex
 10
2.241481138761329
 20
5.398304003856694
 30
0.0
  0
VERTEX
  5
A05
330
A03
100
AcDbEntity
  8
Livello 1
100
AcDbVertex
100
AcDb2dVertex
 10
3.113192572801764
 20
5.398304003856694
 30
0.0
  0
SEQEND
  5
A06
330
A03
100
AcDbEntity
  8
Livello 1
  0
POLYLINE
  5
A07
330
1F
100
AcDbEntity
  8
Livello 1
100
AcDb2dPolyline
 66
     1
 10
0.0
 20
0.0
 30
0.0
  0
VERTEX
  5
A08
330
A07
100
AcDbEntity
  8
Livello 1
100
AcDbVertex
100
AcDb2dVertex
 10
2.241481138761329
 20
7.749743161390583
 30
0.0
  0
VERTEX
  5
A09
330
A07
100
AcDbEntity
  8
Livello 1
100
AcDbVertex
100
AcDb2dVertex
 10
3.113192572801764
 20
7.749743161390583
 30
0.0
  0
SEQEND
  5
A0A
330
A07
100
AcDbEntity
  8
Livello 1
  0
SPLINE
  5
A0B
330
1F
100
AcDbEntity
  8
Livello 1
100
AcDbSpline
210
0.0
220
0.0
230
1.0
 70
    11
 71
     3
 72
    29
 73
    25
 74
     0
 42
0.000000001
 43
0.0000000001
 40
0.0
 40
0.0
 40
0.0
 40
0.0
 40
1.0
 40
1.0
 40
1.0
 40
2.0
 40
2.0
 40
2.0
 40
3.0
 40
3.0
 40
3.0
 40
4.0
 40
4.0
 40
4.0
 40
5.0
 40
5.0
 40
5.0
 40
6.0
 40
6.0
 40
6.0
 40
7.0
 40
7.0
 40
7.0
 40
8.0
 40
8.0
 40
8.0
 40
8.0
 10
15.27044469073418
 20
7.431996352676208
 30
0.0
 10
15.27044469073418
 20
7.431996352676208
 30
0.0
 10
15.20870750304607
 20
7.428115237293603
 30
0.0
 10
15.20870750304607
 20
7.428115237293603
 30
0.0
 10
15.20870750304607
 20
7.428115237293603
 30
0.0
 10
15.15120132325099
 20
7.41259346724405
 30
0.0
 10
15.15120132325099
 20
7.41259346724405
 30
0.0
 10
14.80618577632658
 20
7.286651003930536
 30
0.0
 10
14.82029990189268
 20
6.797701789965188
 30
0.0
 10
15.18189497083979
 20
6.704214548455482
 30
0.0
 10
15.18189497083979
 20
6.704214548455482
 30
0.0
 10
15.23939576767328
 20
6.692573893788527
 30
0.0
 10
15.23939576767328
 20
6.692573893788527
 30
0.0
 10
15.23939576767328
 20
6.692573893788527
 30
0.0
 10
15.29725183997878
 20
6.692573893788527
 30
0.0
 10
15.29725183997878
 20
6.692573893788527
 30
0.0
 10
15.70506501804517
 20
6.743372903310877
 30
0.0
 10
15.76433142631488
 20
7.271834401863124
 30
0.0
 10
15.38615145238329
 20
7.41259346724405
 30
0.0
 10
15.38615145238329
 20
7.41259346724405
 30
0.0
 10
15.32829538007787
 20
7.428115237293603
 30
0.0
 10
15.32829538007787
 20
7.428115237293603
 30
0.0
 10
15.32829538007787
 20
7.428115237293603
 30
0.0
 10
15.27044469073418
 20
7.431996352676208
 30
0.0
 10
15.27044469073418
 20
7.431996352676208
 30
0.0
  0
POLYLINE
  5
A0C
330
1F
100
AcDbEntity
  8
Livello 1
100
AcDb2dPolyline
 66
     1
 10
0.0
 20
0.0
 30
0.0
  0
VERTEX
  5
A0D
330
A0C
100
AcDbEntity
  8
Livello 1
100
AcDbVertex
100
AcDb2dVertex
 10
15.87122627966818
 20
6.361210883464863
 30
0.0
  0
VERTEX
  5
A0E
330
A0C
100
AcDbEntity
  8
Livello 1
100
AcDbVertex
100
AcDb2dVertex
 10
15.86734516428558
 20
6.696348695677635
 30
0.0
  0
SEQEND
  5
A0F
330
A0C
100
AcDbEntity
  8
Livello 1
  0
POLYLINE
  5
A10
330
1F
100
AcDbEntity
  8
Livello 1
100
AcDb2dPolyline
 66
     1
 10
0.0
 20
0.0
 30
0.0
  0
VERTEX
  5
A11
330
A10
100
AcDbEntity
  8
Livello 1
100
AcDbVertex
100
AcDb2dVertex
 10
15.86738284501737
 20
7.474365644183087
 30
0.0
  0
VERTEX
  5
A12
330
A10
100
AcDbEntity
  8
Livello 1
100
AcDbVertex
100
AcDb2dVertex
 10
15.86738284501737
 20
7.435912457309832
 30
0.0
  0
VERTEX
  5
A13
330
A10
100
AcDbEntity
  8
Livello 1
100
AcDbVertex
100
AcDb2dVertex
 10
15.86738284501737
 20
7.381937500387017
 30
0.0
  0
SEQEND
  5
A14
330
A10
100
AcDbEntity
  8
Livello 1
  0
POLYLINE
  5
A15
330
1F
100
AcDbEntity
  8
Livello 1
100
AcDb2dPolyline
 66
     1
 10
0.0
 20
0.0
 30
0.0
  0
VERTEX
  5
A16
330
A15
100
AcDbEntity
  8
Livello 1
100
AcDbVertex
100
AcDb2dVertex
 10
15.86738284501737
 20
6.696278717175594
 30
0.0
  0
VERTEX
  5
A17
330
A15
100
AcDbEntity
  8
Livello 1
100
AcDbVertex
100
AcDb2dVertex
 10
15.86738284501737
 20
6.761894328765372
 30
0.0
  0
SEQEND
  5
A18
330
A15
100
AcDbEntity
  8
Livello 1
  0
POLYLINE
  5
A19
330
1F
100
AcDbEntity
  8
Livello 1
100
AcDb2dPolyline
 66
     1
 10
0.0
 20
0.0
 30
0.0
  0
VERTEX
  5
A1A
330
A19
100
AcDbEntity
  8
Livello 1
100
AcDbVertex
100
AcDb2dVertex
 10
15.87122627966818
 20
6.761789361012304
 30
0.0
  0
VERTEX
  5
A1B
330
A19
100
AcDbEntity
  8
Livello 1
100
AcDbVertex
100
AcDb2dVertex
 10
15.87122627966818
 20
6.677122102241014
 30
0.0
  0
VERTEX
  5
A1C
330
A19
100
AcDbEntity
  8
Livello 1
100
AcDbVertex
100
AcDb2dVertex
 10
15.86734516428558
 20
6.677122102241014
 30
0.0
  0
SEQEND
  5
A1D
330
A19
100
AcDbEntity
  8
Livello 1
  0
POLYLINE
  5
A1E
330
1F
100
AcDbEntity
  8
Livello 1
100
AcDb2dPolyline
 66
     1
 10
0.0
 20
0.0
 30
0.0
  0
VERTEX
  5
A1F
330
A1E
100
AcDbEntity
  8
Livello 1
100
AcDbVertex
100
AcDb2dVertex
 10
15.87122627966818
 20
6.67705212373896
 30
0.0
  0
VERTEX
  5
A20
330
A1E
100
AcDbEntity
  8
Livello 1
100
AcDbVertex
100
AcDb2dVertex
 10
15.87122627966818
 20
6.407528577375558
 30
0.0
  0
VERTEX
  5
A21
330
A1E
100
AcDbEntity
  8
Livello 1
100
AcDbVertex
100
AcDb2dVertex
 10
15.87122627966818
 20
6.291817778505141
 30
0.0
  0
VERTEX
  5
A22
330
A1E
100
AcDbEntity
  8
Livello 1
100
AcDbVertex
100
AcDb2dVertex
 10
15.87122627966818
 20
6.361315851217945
 30
0.0
  0
SEQEND
  5
A23
330
A1E
100
AcDbEntity
  8
Livello 1
  0
POLYLINE
  5
A24
330
1F
100
AcDbEntity
  8
Livello 1
100
AcDb2dPolyline
 66
     1
 10
0.0
 20
0.0
 30
0.0
  0
VERTEX
  5
A25
330
A24
100
AcDbEntity
  8
Livello 1
100
AcDbVertex
100
AcDb2dVertex
 10
15.86738284501737
 20
6.761789361012304
 30
0.0
  0
VERTEX
  5
A26
330
A24
100
AcDbEntity
  8
Livello 1
100
AcDbVertex
100
AcDb2dVertex
 10
15.87125857743828
 20
6.761789361012304
 30
0.0
  0
SEQEND
  5
A27
330
A24
100
AcDbEntity
  8
Livello 1
  0
POLYLINE
  5
A28
330
1F
100
AcDbEntity
  8
Livello 1
100
AcDb2dPolyline
 66
     1
 10
0.0
 20
0.0
 30
0.0
  0
VERTEX
  5
A29
330
A28
100
AcDbEntity
  8
Livello 1
100
AcDbVertex
100
AcDb2dVertex
 10
15.49371917594847
 20
6.29188910274761
 30
0.0
  0
VERTEX
  5
A2A
330
A28
100
AcDbEntity
  8
Livello 1
100
AcDbVertex
100
AcDb2dVertex
 10
15.61683827585258
 20
6.29188910274761
 30
0.0
  0
SEQEND
  5
A2B
330
A28
100
AcDbEntity
  8
Livello 1
  0
POLYLINE
  5
A2C
330
1F
100
AcDbEntity
  8
Livello 1
100
AcDb2dPolyline
 66
     1
 10
0.0
 20
0.0
 30
0.0
  0
VERTEX
  5
A2D
330
A2C
100
AcDbEntity
  8
Livello 1
100
AcDbVertex
100
AcDb2dVertex
 10
15.49371917594847
 20
5.89131062520019
 30
0.0
  0
VERTEX
  5
A2E
330
A2C
100
AcDbEntity
  8
Livello 1
100
AcDbVertex
100
AcDb2dVertex
 10
15.49371917594847
 20
6.29171281075208
 30
0.0
  0
SEQEND
  5
A2F
330
A2C
100
AcDbEntity
  8
Livello 1
  0
POLYLINE
  5
A30
330
1F
100
AcDbEntity
  8
Livello 1
100
AcDb2dPolyline
 66
     1
 10
0.0
 20
0.0
 30
0.0
  0
VERTEX
  5
A31
330
A30
100
AcDbEntity
  8
Livello 1
100
AcDbVertex
100
AcDb2dVertex
 10
15.61697823285668
 20
5.89131062520019
 30
0.0
  0
VERTEX
  5
A32
330
A30
100
AcDbEntity
  8
Livello 1
100
AcDbVertex
100
AcDb2dVertex
 10
15.49385374999089
 20
5.89131062520019
 30
0.0
  0
SEQEND
  5
A33
330
A30
100
AcDbEntity
  8
Livello 1
  0
POLYLINE
  5
A34
330
1F
100
AcDbEntity
  8
Livello 1
100
AcDb2dPolyline
 66
     1
 10
0.0
 20
0.0
 30
0.0
  0
VERTEX
  5
A35
330
A34
100
AcDbEntity
  8
Livello 1
100
AcDbVertex
100
AcDb2dVertex
 10
15.72482587043009
 20
5.471469219224687
 30
0.0
  0
VERTEX
  5
A36
330
A34
100
AcDbEntity
  8
Livello 1
100
AcDbVertex
100
AcDb2dVertex
 10
15.72482587043009
 20
5.475348988866869
 30
0.0
  0
SEQEND
  5
A37
330
A34
100
AcDbEntity
  8
Livello 1
  0
POLYLINE
  5
A38
330
1F
100
AcDbEntity
  8
Livello 1
100
AcDb2dPolyline
 66
     1
 10
0.0
 20
0.0
 30
0.0
  0
VERTEX
  5
A39
330
A38
100
AcDbEntity
  8
Livello 1
100
AcDbVertex
100
AcDb2dVertex
 10
15.72482587043009
 20
5.475315345356278
 30
0.0
  0
VERTEX
  5
A3A
330
A38
100
AcDbEntity
  8
Livello 1
100
AcDbVertex
100
AcDb2dVertex
 10
15.78655767515647
 20
5.51376718648909
 30
0.0
  0
VERTEX
  5
A3B
330
A38
100
AcDbEntity
  8
Livello 1
100
AcDbVertex
100
AcDb2dVertex
 10
15.82889466889318
 20
5.567742143411919
 30
0.0
  0
VERTEX
  5
A3C
330
A38
100
AcDbEntity
  8
Livello 1
100
AcDbVertex
100
AcDb2dVertex
 10
15.85958293352037
 20
5.629477985359514
 30
0.0
  0
VERTEX
  5
A3D
330
A38
100
AcDbEntity
  8
Livello 1
100
AcDbVertex
100
AcDb2dVertex
 10
15.86734516428558
 20
5.698623474081223
 30
0.0
  0
SEQEND
  5
A3E
330
A38
100
AcDbEntity
  8
Livello 1
  0
POLYLINE
  5
A3F
330
1F
100
AcDbEntity
  8
Livello 1
100
AcDb2dPolyline
 66
     1
 10
0.0
 20
0.0
 30
0.0
  0
VERTEX
  5
A40
330
A3F
100
AcDbEntity
  8
Livello 1
100
AcDbVertex
100
AcDb2dVertex
 10
15.87122627966818
 20
5.89131062520019
 30
0.0
  0
VERTEX
  5
A41
330
A3F
100
AcDbEntity
  8
Livello 1
100
AcDbVertex
100
AcDb2dVertex
 10
15.61687057362277
 20
5.89131062520019
 30
0.0
  0
SEQEND
  5
A42
330
A3F
100
AcDbEntity
  8
Livello 1
  0
POLYLINE
  5
A43
330
1F
100
AcDbEntity
  8
Livello 1
100
AcDb2dPolyline
 66
     1
 10
0.0
 20
0.0
 30
0.0
  0
VERTEX
  5
A44
330
A43
100
AcDbEntity
  8
Livello 1
100
AcDbVertex
100
AcDb2dVertex
 10
15.87122627966818
 20
5.698728441834305
 30
0.0
  0
VERTEX
  5
A45
330
A43
100
AcDbEntity
  8
Livello 1
100
AcDbVertex
100
AcDb2dVertex
 10
15.87122627966818
 20
5.891344268710781
 30
0.0
  0
SEQEND
  5
A46
330
A43
100
AcDbEntity
  8
Livello 1
  0
POLYLINE
  5
A47
330
1F
100
AcDbEntity
  8
Livello 1
100
AcDb2dPolyline
 66
     1
 10
0.0
 20
0.0
 30
0.0
  0
VERTEX
  5
A48
330
A47
100
AcDbEntity
  8
Livello 1
100
AcDbVertex
100
AcDb2dVertex
 10
15.86738284501737
 20
5.698728441834305
 30
0.0
  0
VERTEX
  5
A49
330
A47
100
AcDbEntity
  8
Livello 1
100
AcDbVertex
100
AcDb2dVertex
 10
15.87125857743828
 20
5.698728441834305
 30
0.0
  0
SEQEND
  5
A4A
330
A47
100
AcDbEntity
  8
Livello 1
  0
POLYLINE
  5
A4B
330
1F
100
AcDbEntity
  8
Livello 1
100
AcDb2dPolyline
 66
     1
 10
0.0
 20
0.0
 30
0.0
  0
VERTEX
  5
A4C
330
A4B
100
AcDbEntity
  8
Livello 1
100
AcDbVertex
100
AcDb2dVertex
 10
15.87122627966818
 20
6.29188910274761
 30
0.0
  0
VERTEX
  5
A4D
330
A4B
100
AcDbEntity
  8
Livello 1
100
AcDbVertex
100
AcDb2dVertex
 10
15.61687057362277
 20
6.29188910274761
 30
0.0
  0
SEQEND
  5
A4E
330
A4B
100
AcDbEntity
  8
Livello 1
  0
POLYLINE
  5
A4F
330
1F
100
AcDbEntity
  8
Livello 1
100
AcDb2dPolyline
 66
     1
 10
0.0
 20
0.0
 30
0.0
  0
VERTEX
  5
A50
330
A4F
100
AcDbEntity
  8
Livello 1
100
AcDbVertex
100
AcDb2dVertex
 10
15.86738284501737
 20
7.474365644183087
 30
0.0
  0
VERTEX
  5
A51
330
A4F
100
AcDbEntity
  8
Livello 1
100
AcDbVertex
100
AcDb2dVertex
 10
15.85185838348698
 20
7.536101486130668
 30
0.0
  0
VERTEX
  5
A52
330
A4F
100
AcDbEntity
  8
Livello 1
100
AcDbVertex
100
AcDb2dVertex
 10
15.82116473589808
 20
7.593603628704592
 30
0.0
  0
VERTEX
  5
A53
330
A4F
100
AcDbEntity
  8
Livello 1
100
AcDbVertex
100
AcDb2dVertex
 10
15.77883312512308
 20
7.639817700602634
 30
0.0
  0
VERTEX
  5
A54
330
A4F
100
AcDbEntity
  8
Livello 1
100
AcDbVertex
100
AcDb2dVertex
 10
15.72485816820028
 20
7.674742356084351
 30
0.0
  0
SEQEND
  5
A55
330
A4F
100
AcDbEntity
  8
Livello 1
  0
POLYLINE
  5
A56
330
1F
100
AcDbEntity
  8
Livello 1
100
AcDb2dPolyline
 66
     1
 10
0.0
 20
0.0
 30
0.0
  0
VERTEX
  5
A57
330
A56
100
AcDbEntity
  8
Livello 1
100
AcDbVertex
100
AcDb2dVertex
 10
15.87122627966818
 20
7.339569554620567
 30
0.0
  0
VERTEX
  5
A58
330
A56
100
AcDbEntity
  8
Livello 1
100
AcDbVertex
100
AcDb2dVertex
 10
15.87122627966818
 20
7.378021395753386
 30
0.0
  0
SEQEND
  5
A59
330
A56
100
AcDbEntity
  8
Livello 1
  0
POLYLINE
  5
A5A
330
1F
100
AcDbEntity
  8
Livello 1
100
AcDb2dPolyline
 66
     1
 10
0.0
 20
0.0
 30
0.0
  0
VERTEX
  5
A5B
330
A5A
100
AcDbEntity
  8
Livello 1
100
AcDbVertex
100
AcDb2dVertex
 10
15.87122627966818
 20
7.4474131549727
 30
0.0
  0
VERTEX
  5
A5C
330
A5A
100
AcDbEntity
  8
Livello 1
100
AcDbVertex
100
AcDb2dVertex
 10
15.86734516428558
 20
7.4474131549727
 30
0.0
  0
SEQEND
  5
A5D
330
A5A
100
AcDbEntity
  8
Livello 1
  0
POLYLINE
  5
A5E
330
1F
100
AcDbEntity
  8
Livello 1
100
AcDb2dPolyline
 66
     1
 10
0.0
 20
0.0
 30
0.0
  0
VERTEX
  5
A5F
330
A5E
100
AcDbEntity
  8
Livello 1
100
AcDbVertex
100
AcDb2dVertex
 10
15.87122627966818
 20
7.339569554620567
 30
0.0
  0
VERTEX
  5
A60
330
A5E
100
AcDbEntity
  8
Livello 1
100
AcDbVertex
100
AcDb2dVertex
 10
15.86734516428558
 20
7.339569554620567
 30
0.0
  0
SEQEND
  5
A61
330
A5E
100
AcDbEntity
  8
Livello 1
  0
POLYLINE
  5
A62
330
1F
100
AcDbEntity
  8
Livello 1
100
AcDb2dPolyline
 66
     1
 10
0.0
 20
0.0
 30
0.0
  0
VERTEX
  5
A63
330
A62
100
AcDbEntity
  8
Livello 1
100
AcDbVertex
100
AcDb2dVertex
 10
15.87122627966818
 20
6.761789361012304
 30
0.0
  0
VERTEX
  5
A64
330
A62
100
AcDbEntity
  8
Livello 1
100
AcDbVertex
100
AcDb2dVertex
 10
15.87122627966818
 20
7.339638187382185
 30
0.0
  0
SEQEND
  5
A65
330
A62
100
AcDbEntity
  8
Livello 1
  0
POLYLINE
  5
A66
330
1F
100
AcDbEntity
  8
Livello 1
100
AcDb2dPolyline
 66
     1
 10
0.0
 20
0.0
 30
0.0
  0
VERTEX
  5
A67
330
A66
100
AcDbEntity
  8
Livello 1
100
AcDbVertex
100
AcDb2dVertex
 10
15.87122627966818
 20
5.89131062520019
 30
0.0
  0
VERTEX
  5
A68
330
A66
100
AcDbEntity
  8
Livello 1
100
AcDbVertex
100
AcDb2dVertex
 10
15.87122627966818
 20
5.69869345258327
 30
0.0
  0
VERTEX
  5
A69
330
A66
100
AcDbEntity
  8
Livello 1
100
AcDbVertex
100
AcDb2dVertex
 10
15.86734516428558
 20
5.69869345258327
 30
0.0
  0
SEQEND
  5
A6A
330
A66
100
AcDbEntity
  8
Livello 1
  0
POLYLINE
  5
A6B
330
1F
100
AcDbEntity
  8
Livello 1
100
AcDb2dPolyline
 66
     1
 10
0.0
 20
0.0
 30
0.0
  0
VERTEX
  5
A6C
330
A6B
100
AcDbEntity
  8
Livello 1
100
AcDbVertex
100
AcDb2dVertex
 10
15.87122627966818
 20
5.89131062520019
 30
0.0
  0
VERTEX
  5
A6D
330
A6B
100
AcDbEntity
  8
Livello 1
100
AcDbVertex
100
AcDb2dVertex
 10
15.86734516428558
 20
5.89131062520019
 30
0.0
  0
SEQEND
  5
A6E
330
A6B
100
AcDbEntity
  8
Livello 1
  0
POLYLINE
  5
A6F
330
1F
100
AcDbEntity
  8
Livello 1
100
AcDb2dPolyline
 66
     1
 10
0.0
 20
0.0
 30
0.0
  0
VERTEX
  5
A70
330
A6F
100
AcDbEntity
  8
Livello 1
100
AcDbVertex
100
AcDb2dVertex
 10
15.69406224433918
 20
5.459898543059772
 30
0.0
  0
VERTEX
  5
A71
330
A6F
100
AcDbEntity
  8
Livello 1
100
AcDbVertex
100
AcDb2dVertex
 10
15.72475050896639
 20
5.471539197726734
 30
0.0
  0
SEQEND
  5
A72
330
A6F
100
AcDbEntity
  8
Livello 1
  0
POLYLINE
  5
A73
330
1F
100
AcDbEntity
  8
Livello 1
100
AcDb2dPolyline
 66
     1
 10
0.0
 20
0.0
 30
0.0
  0
VERTEX
  5
A74
330
A73
100
AcDbEntity
  8
Livello 1
100
AcDbVertex
100
AcDb2dVertex
 10
15.69406224433918
 20
7.686173075245179
 30
0.0
  0
VERTEX
  5
A75
330
A73
100
AcDbEntity
  8
Livello 1
100
AcDbVertex
100
AcDb2dVertex
 10
15.72475050896639
 20
7.674531074837794
 30
0.0
  0
SEQEND
  5
A76
330
A73
100
AcDbEntity
  8
Livello 1
  0
POLYLINE
  5
A77
330
1F
100
AcDbEntity
  8
Livello 1
100
AcDb2dPolyline
 66
     1
 10
0.0
 20
0.0
 30
0.0
  0
VERTEX
  5
A78
330
A77
100
AcDbEntity
  8
Livello 1
100
AcDbVertex
100
AcDb2dVertex
 10
15.65934752436358
 20
5.452207636537032
 30
0.0
  0
VERTEX
  5
A79
330
A77
100
AcDbEntity
  8
Livello 1
100
AcDbVertex
100
AcDb2dVertex
 10
15.53622304149779
 20
5.432804751104882
 30
0.0
  0
VERTEX
  5
A7A
330
A77
100
AcDbEntity
  8
Livello 1
100
AcDbVertex
100
AcDb2dVertex
 10
15.43603535841738
 20
5.413754449663798
 30
0.0
  0
VERTEX
  5
A7B
330
A77
100
AcDbEntity
  8
Livello 1
100
AcDbVertex
100
AcDb2dVertex
 10
15.39758486302497
 20
5.405993564639018
 30
0.0
  0
VERTEX
  5
A7C
330
A77
100
AcDbEntity
  8
Livello 1
100
AcDbVertex
100
AcDb2dVertex
 10
15.36654132292578
 20
5.402112449256406
 30
0.0
  0
VERTEX
  5
A7D
330
A77
100
AcDbEntity
  8
Livello 1
100
AcDbVertex
100
AcDb2dVertex
 10
15.35877909216059
 20
5.402112449256406
 30
0.0
  0
VERTEX
  5
A7E
330
A77
100
AcDbEntity
  8
Livello 1
100
AcDbVertex
100
AcDb2dVertex
 10
15.35137213686737
 20
5.398231333873802
 30
0.0
  0
VERTEX
  5
A7F
330
A77
100
AcDbEntity
  8
Livello 1
100
AcDbVertex
100
AcDb2dVertex
 10
15.34749102148468
 20
5.398231333873802
 30
0.0
  0
VERTEX
  5
A80
330
A77
100
AcDbEntity
  8
Livello 1
100
AcDbVertex
100
AcDb2dVertex
 10
14.82361580629717
 20
5.398231333873802
 30
0.0
  0
VERTEX
  5
A81
330
A77
100
AcDbEntity
  8
Livello 1
100
AcDbVertex
100
AcDb2dVertex
 10
14.47753981591879
 20
5.398231333873802
 30
0.0
  0
SEQEND
  5
A82
330
A77
100
AcDbEntity
  8
Livello 1
  0
POLYLINE
  5
A83
330
1F
100
AcDbEntity
  8
Livello 1
100
AcDb2dPolyline
 66
     1
 10
0.0
 20
0.0
 30
0.0
  0
VERTEX
  5
A84
330
A83
100
AcDbEntity
  8
Livello 1
100
AcDbVertex
100
AcDb2dVertex
 10
15.69406224433918
 20
5.459898543059772
 30
0.0
  0
VERTEX
  5
A85
330
A83
100
AcDbEntity
  8
Livello 1
100
AcDbVertex
100
AcDb2dVertex
 10
15.65948748136769
 20
5.452136312294562
 30
0.0
  0
SEQEND
  5
A86
330
A83
100
AcDbEntity
  8
Livello 1
  0
POLYLINE
  5
A87
330
1F
100
AcDbEntity
  8
Livello 1
100
AcDb2dPolyline
 66
     1
 10
0.0
 20
0.0
 30
0.0
  0
VERTEX
  5
A88
330
A87
100
AcDbEntity
  8
Livello 1
100
AcDbVertex
100
AcDb2dVertex
 10
15.34742104298267
 20
7.751683719081881
 30
0.0
  0
VERTEX
  5
A89
330
A87
100
AcDbEntity
  8
Livello 1
100
AcDbVertex
100
AcDb2dVertex
 10
14.82354582779518
 20
7.751683719081881
 30
0.0
  0
VERTEX
  5
A8A
330
A87
100
AcDbEntity
  8
Livello 1
100
AcDbVertex
100
AcDb2dVertex
 10
14.54837420887258
 20
7.751683719081881
 30
0.0
  0
SEQEND
  5
A8B
330
A87
100
AcDbEntity
  8
Livello 1
  0
SPLINE
  5
A8C
330
1F
100
AcDbEntity
  8
Livello 1
100
AcDbSpline
210
0.0
220
0.0
230
1.0
 70
     8
 71
     3
 72
    14
 73
    10
 74
     0
 42
0.000000001
 43
0.0000000001
 40
0.0
 40
0.0
 40
0.0
 40
0.0
 40
1.0
 40
1.0
 40
1.0
 40
2.0
 40
2.0
 40
2.0
 40
3.0
 40
3.0
 40
3.0
 40
3.0
 10
15.65934752436358
 20
7.693898971018938
 30
0.0
 10
15.65934752436358
 20
7.693898971018938
 30
0.0
 10
15.58984810591037
 20
7.709420741068491
 30
0.0
 10
15.58984810591037
 20
7.709420741068491
 30
0.0
 10
15.51012106023529
 20
7.720356227753313
 30
0.0
 10
15.43109918254238
 20
7.739759113185478
 30
0.0
 10
15.35137213686737
 20
7.747873927941746
 30
0.0
 10
15.35137213686737
 20
7.747873927941746
 30
0.0
 10
15.34749102148468
 20
7.751753697583922
 30
0.0
 10
15.34749102148468
 20
7.751753697583922
 30
0.0
  0
POLYLINE
  5
A8D
330
1F
100
AcDbEntity
  8
Livello 1
100
AcDb2dPolyline
 66
     1
 10
0.0
 20
0.0
 30
0.0
  0
VERTEX
  5
A8E
330
A8D
100
AcDbEntity
  8
Livello 1
100
AcDbVertex
100
AcDb2dVertex
 10
15.65934752436358
 20
7.693898971018938
 30
0.0
  0
VERTEX
  5
A8F
330
A8D
100
AcDbEntity
  8
Livello 1
100
AcDbVertex
100
AcDb2dVertex
 10
15.69391690437338
 20
7.686136740253729
 30
0.0
  0
SEQEND
  5
A90
330
A8D
100
AcDbEntity
  8
Livello 1
  0
POLYLINE
  5
A91
330
1F
100
AcDbEntity
  8
Livello 1
100
AcDb2dPolyline
 66
     1
 10
0.0
 20
0.0
 30
0.0
  0
VERTEX
  5
A92
330
A91
100
AcDbEntity
  8
Livello 1
100
AcDbVertex
100
AcDb2dVertex
 10
12.75792578741807
 20
5.715556925835493
 30
0.0
  0
VERTEX
  5
A93
330
A91
100
AcDbEntity
  8
Livello 1
100
AcDbVertex
100
AcDb2dVertex
 10
14.66045285433878
 20
5.715556925835493
 30
0.0
  0
SEQEND
  5
A94
330
A91
100
AcDbEntity
  8
Livello 1
  0
POLYLINE
  5
A95
330
1F
100
AcDbEntity
  8
Livello 1
100
AcDb2dPolyline
 66
     1
 10
0.0
 20
0.0
 30
0.0
  0
VERTEX
  5
A96
330
A95
100
AcDbEntity
  8
Livello 1
100
AcDbVertex
100
AcDb2dVertex
 10
14.84333897795028
 20
5.89850764498734
 30
0.0
  0
VERTEX
  5
A97
330
A95
100
AcDbEntity
  8
Livello 1
100
AcDbVertex
100
AcDb2dVertex
 10
14.84333897795028
 20
5.891097998213197
 30
0.0
  0
VERTEX
  5
A98
330
A95
100
AcDbEntity
  8
Livello 1
100
AcDbVertex
100
AcDb2dVertex
 10
14.84333897795028
 20
5.868520511121012
 30
0.0
  0
VERTEX
  5
A99
330
A95
100
AcDbEntity
  8
Livello 1
100
AcDbVertex
100
AcDb2dVertex
 10
14.84333897795028
 20
5.864993325469889
 30
0.0
  0
VERTEX
  5
A9A
330
A95
100
AcDbEntity
  8
Livello 1
100
AcDbVertex
100
AcDb2dVertex
 10
14.83945786256767
 20
5.861112210087291
 30
0.0
  0
VERTEX
  5
A9B
330
A95
100
AcDbEntity
  8
Livello 1
100
AcDbVertex
100
AcDb2dVertex
 10
14.83945786256767
 20
5.84982413941141
 30
0.0
  0
VERTEX
  5
A9C
330
A95
100
AcDbEntity
  8
Livello 1
100
AcDbVertex
100
AcDb2dVertex
 10
14.83592663969529
 20
5.846295608019872
 30
0.0
  0
VERTEX
  5
A9D
330
A95
100
AcDbEntity
  8
Livello 1
100
AcDbVertex
100
AcDb2dVertex
 10
14.83592663969529
 20
5.838887306986158
 30
0.0
  0
VERTEX
  5
A9E
330
A95
100
AcDbEntity
  8
Livello 1
100
AcDbVertex
100
AcDb2dVertex
 10
14.83204552431266
 20
5.835007537343983
 30
0.0
  0
VERTEX
  5
A9F
330
A95
100
AcDbEntity
  8
Livello 1
100
AcDbVertex
100
AcDb2dVertex
 10
14.83204552431266
 20
5.82759923631027
 30
0.0
  0
VERTEX
  5
AA0
330
A95
100
AcDbEntity
  8
Livello 1
100
AcDbVertex
100
AcDb2dVertex
 10
14.82851968440197
 20
5.82759923631027
 30
0.0
  0
VERTEX
  5
AA1
330
A95
100
AcDbEntity
  8
Livello 1
100
AcDbVertex
100
AcDb2dVertex
 10
14.82851968440197
 20
5.820190935276563
 30
0.0
  0
VERTEX
  5
AA2
330
A95
100
AcDbEntity
  8
Livello 1
100
AcDbVertex
100
AcDb2dVertex
 10
14.82463856901937
 20
5.816309819893959
 30
0.0
  0
VERTEX
  5
AA3
330
A95
100
AcDbEntity
  8
Livello 1
100
AcDbVertex
100
AcDb2dVertex
 10
14.82463856901937
 20
5.812782634242843
 30
0.0
  0
VERTEX
  5
AA4
330
A95
100
AcDbEntity
  8
Livello 1
100
AcDbVertex
100
AcDb2dVertex
 10
14.82075745363679
 20
5.812782634242843
 30
0.0
  0
VERTEX
  5
AA5
330
A95
100
AcDbEntity
  8
Livello 1
100
AcDbVertex
100
AcDb2dVertex
 10
14.82075745363679
 20
5.805020403477648
 30
0.0
  0
VERTEX
  5
AA6
330
A95
100
AcDbEntity
  8
Livello 1
100
AcDbVertex
100
AcDb2dVertex
 10
14.81723161372618
 20
5.805020403477648
 30
0.0
  0
VERTEX
  5
AA7
330
A95
100
AcDbEntity
  8
Livello 1
100
AcDbVertex
100
AcDb2dVertex
 10
14.81723161372618
 20
5.801493217826532
 30
0.0
  0
VERTEX
  5
AA8
330
A95
100
AcDbEntity
  8
Livello 1
100
AcDbVertex
100
AcDb2dVertex
 10
14.81335049834347
 20
5.797612102443935
 30
0.0
  0
VERTEX
  5
AA9
330
A95
100
AcDbEntity
  8
Livello 1
100
AcDbVertex
100
AcDb2dVertex
 10
14.81335049834347
 20
5.794084916792826
 30
0.0
  0
VERTEX
  5
AAA
330
A95
100
AcDbEntity
  8
Livello 1
100
AcDbVertex
100
AcDb2dVertex
 10
14.80982465843289
 20
5.794084916792826
 30
0.0
  0
VERTEX
  5
AAB
330
A95
100
AcDbEntity
  8
Livello 1
100
AcDbVertex
100
AcDb2dVertex
 10
14.80982465843289
 20
5.790203801410228
 30
0.0
  0
VERTEX
  5
AAC
330
A95
100
AcDbEntity
  8
Livello 1
100
AcDbVertex
100
AcDb2dVertex
 10
14.80594354305029
 20
5.790203801410228
 30
0.0
  0
VERTEX
  5
AAD
330
A95
100
AcDbEntity
  8
Livello 1
100
AcDbVertex
100
AcDb2dVertex
 10
14.80594354305029
 20
5.786324031768053
 30
0.0
  0
VERTEX
  5
AAE
330
A95
100
AcDbEntity
  8
Livello 1
100
AcDbVertex
100
AcDb2dVertex
 10
14.80241232017788
 20
5.782795500376515
 30
0.0
  0
VERTEX
  5
AAF
330
A95
100
AcDbEntity
  8
Livello 1
100
AcDbVertex
100
AcDb2dVertex
 10
14.80241232017788
 20
5.778915730734333
 30
0.0
  0
VERTEX
  5
AB0
330
A95
100
AcDbEntity
  8
Livello 1
100
AcDbVertex
100
AcDb2dVertex
 10
14.79853120479528
 20
5.778915730734333
 30
0.0
  0
VERTEX
  5
AB1
330
A95
100
AcDbEntity
  8
Livello 1
100
AcDbVertex
100
AcDb2dVertex
 10
14.79465547237438
 20
5.775387199342809
 30
0.0
  0
VERTEX
  5
AB2
330
A95
100
AcDbEntity
  8
Livello 1
100
AcDbVertex
100
AcDb2dVertex
 10
14.79465547237438
 20
5.771507429700626
 30
0.0
  0
VERTEX
  5
AB3
330
A95
100
AcDbEntity
  8
Livello 1
100
AcDbVertex
100
AcDb2dVertex
 10
14.79112424950197
 20
5.771507429700626
 30
0.0
  0
VERTEX
  5
AB4
330
A95
100
AcDbEntity
  8
Livello 1
100
AcDbVertex
100
AcDb2dVertex
 10
14.79112424950197
 20
5.767978898309081
 30
0.0
  0
VERTEX
  5
AB5
330
A95
100
AcDbEntity
  8
Livello 1
100
AcDbVertex
100
AcDb2dVertex
 10
14.78724313411938
 20
5.767978898309081
 30
0.0
  0
VERTEX
  5
AB6
330
A95
100
AcDbEntity
  8
Livello 1
100
AcDbVertex
100
AcDb2dVertex
 10
14.78371729420868
 20
5.764099128666913
 30
0.0
  0
VERTEX
  5
AB7
330
A95
100
AcDbEntity
  8
Livello 1
100
AcDbVertex
100
AcDb2dVertex
 10
14.78371729420868
 20
5.760218013284308
 30
0.0
  0
VERTEX
  5
AB8
330
A95
100
AcDbEntity
  8
Livello 1
100
AcDbVertex
100
AcDb2dVertex
 10
14.77983617882609
 20
5.760218013284308
 30
0.0
  0
VERTEX
  5
AB9
330
A95
100
AcDbEntity
  8
Livello 1
100
AcDbVertex
100
AcDb2dVertex
 10
14.77595506344347
 20
5.756690827633192
 30
0.0
  0
VERTEX
  5
ABA
330
A95
100
AcDbEntity
  8
Livello 1
100
AcDbVertex
100
AcDb2dVertex
 10
14.77242922353279
 20
5.756690827633192
 30
0.0
  0
VERTEX
  5
ABB
330
A95
100
AcDbEntity
  8
Livello 1
100
AcDbVertex
100
AcDb2dVertex
 10
14.77242922353279
 20
5.752809712250602
 30
0.0
  0
VERTEX
  5
ABC
330
A95
100
AcDbEntity
  8
Livello 1
100
AcDbVertex
100
AcDb2dVertex
 10
14.76854810815018
 20
5.752809712250602
 30
0.0
  0
VERTEX
  5
ABD
330
A95
100
AcDbEntity
  8
Livello 1
100
AcDbVertex
100
AcDb2dVertex
 10
14.76854810815018
 20
5.7492825265995
 30
0.0
  0
VERTEX
  5
ABE
330
A95
100
AcDbEntity
  8
Livello 1
100
AcDbVertex
100
AcDb2dVertex
 10
14.76502226823948
 20
5.7492825265995
 30
0.0
  0
VERTEX
  5
ABF
330
A95
100
AcDbEntity
  8
Livello 1
100
AcDbVertex
100
AcDb2dVertex
 10
14.76114115285688
 20
5.745401411216882
 30
0.0
  0
VERTEX
  5
AC0
330
A95
100
AcDbEntity
  8
Livello 1
100
AcDbVertex
100
AcDb2dVertex
 10
14.75760992998447
 20
5.745401411216882
 30
0.0
  0
VERTEX
  5
AC1
330
A95
100
AcDbEntity
  8
Livello 1
100
AcDbVertex
100
AcDb2dVertex
 10
14.75760992998447
 20
5.741520295834277
 30
0.0
  0
VERTEX
  5
AC2
330
A95
100
AcDbEntity
  8
Livello 1
100
AcDbVertex
100
AcDb2dVertex
 10
14.74984769921929
 20
5.741520295834277
 30
0.0
  0
VERTEX
  5
AC3
330
A95
100
AcDbEntity
  8
Livello 1
100
AcDbVertex
100
AcDb2dVertex
 10
14.74984769921929
 20
5.737993110183175
 30
0.0
  0
VERTEX
  5
AC4
330
A95
100
AcDbEntity
  8
Livello 1
100
AcDbVertex
100
AcDb2dVertex
 10
14.74632185930868
 20
5.737993110183175
 30
0.0
  0
VERTEX
  5
AC5
330
A95
100
AcDbEntity
  8
Livello 1
100
AcDbVertex
100
AcDb2dVertex
 10
14.74244074392608
 20
5.734111994800585
 30
0.0
  0
VERTEX
  5
AC6
330
A95
100
AcDbEntity
  8
Livello 1
100
AcDbVertex
100
AcDb2dVertex
 10
14.73503378863279
 20
5.734111994800585
 30
0.0
  0
VERTEX
  5
AC7
330
A95
100
AcDbEntity
  8
Livello 1
100
AcDbVertex
100
AcDb2dVertex
 10
14.73503378863279
 20
5.730584809149462
 30
0.0
  0
VERTEX
  5
AC8
330
A95
100
AcDbEntity
  8
Livello 1
100
AcDbVertex
100
AcDb2dVertex
 10
14.72762683333948
 20
5.730584809149462
 30
0.0
  0
VERTEX
  5
AC9
330
A95
100
AcDbEntity
  8
Livello 1
100
AcDbVertex
100
AcDb2dVertex
 10
14.72374571795689
 20
5.726703693766864
 30
0.0
  0
VERTEX
  5
ACA
330
A95
100
AcDbEntity
  8
Livello 1
100
AcDbVertex
100
AcDb2dVertex
 10
14.71633876266357
 20
5.726703693766864
 30
0.0
  0
VERTEX
  5
ACB
330
A95
100
AcDbEntity
  8
Livello 1
100
AcDbVertex
100
AcDb2dVertex
 10
14.71280753979118
 20
5.723176508115763
 30
0.0
  0
VERTEX
  5
ACC
330
A95
100
AcDbEntity
  8
Livello 1
100
AcDbVertex
100
AcDb2dVertex
 10
14.70151946911528
 20
5.723176508115763
 30
0.0
  0
VERTEX
  5
ACD
330
A95
100
AcDbEntity
  8
Livello 1
100
AcDbVertex
100
AcDb2dVertex
 10
14.69763835373268
 20
5.719295392733158
 30
0.0
  0
VERTEX
  5
ACE
330
A95
100
AcDbEntity
  8
Livello 1
100
AcDbVertex
100
AcDb2dVertex
 10
14.69411251382196
 20
5.719295392733158
 30
0.0
  0
VERTEX
  5
ACF
330
A95
100
AcDbEntity
  8
Livello 1
100
AcDbVertex
100
AcDb2dVertex
 10
14.66765525708767
 20
5.719295392733158
 30
0.0
  0
VERTEX
  5
AD0
330
A95
100
AcDbEntity
  8
Livello 1
100
AcDbVertex
100
AcDb2dVertex
 10
14.66024291883268
 20
5.719295392733158
 30
0.0
  0
SEQEND
  5
AD1
330
A95
100
AcDbEntity
  8
Livello 1
  0
POLYLINE
  5
AD2
330
1F
100
AcDbEntity
  8
Livello 1
100
AcDb2dPolyline
 66
     1
 10
0.0
 20
0.0
 30
0.0
  0
VERTEX
  5
AD3
330
AD2
100
AcDbEntity
  8
Livello 1
100
AcDbVertex
100
AcDb2dVertex
 10
14.84333897795028
 20
5.89850764498734
 30
0.0
  0
VERTEX
  5
AD4
330
AD2
100
AcDbEntity
  8
Livello 1
100
AcDbVertex
100
AcDb2dVertex
 10
14.84333897795028
 20
7.295154737669328
 30
0.0
  0
SEQEND
  5
AD5
330
AD2
100
AcDbEntity
  8
Livello 1
  0
POLYLINE
  5
AD6
330
1F
100
AcDbEntity
  8
Livello 1
100
AcDb2dPolyline
 66
     1
 10
0.0
 20
0.0
 30
0.0
  0
VERTEX
  5
AD7
330
AD6
100
AcDbEntity
  8
Livello 1
100
AcDbVertex
100
AcDb2dVertex
 10
14.66035057806658
 20
7.477999143327686
 30
0.0
  0
VERTEX
  5
AD8
330
AD6
100
AcDbEntity
  8
Livello 1
100
AcDbVertex
100
AcDb2dVertex
 10
14.66775753335987
 20
7.477999143327686
 30
0.0
  0
VERTEX
  5
AD9
330
AD6
100
AcDbEntity
  8
Livello 1
100
AcDbVertex
100
AcDb2dVertex
 10
14.69385951462229
 20
7.477999143327686
 30
0.0
  0
VERTEX
  5
ADA
330
AD6
100
AcDbEntity
  8
Livello 1
100
AcDbVertex
100
AcDb2dVertex
 10
14.69774063000488
 20
7.477999143327686
 30
0.0
  0
VERTEX
  5
ADB
330
AD6
100
AcDbEntity
  8
Livello 1
100
AcDbVertex
100
AcDb2dVertex
 10
14.70127185287729
 20
7.474118027945081
 30
0.0
  0
VERTEX
  5
ADC
330
AD6
100
AcDbEntity
  8
Livello 1
100
AcDbVertex
100
AcDb2dVertex
 10
14.71255992355319
 20
7.474118027945081
 30
0.0
  0
VERTEX
  5
ADD
330
AD6
100
AcDbEntity
  8
Livello 1
100
AcDbVertex
100
AcDb2dVertex
 10
14.7164410389358
 20
7.47058949655355
 30
0.0
  0
VERTEX
  5
ADE
330
AD6
100
AcDbEntity
  8
Livello 1
100
AcDbVertex
100
AcDb2dVertex
 10
14.72384799422909
 20
7.47058949655355
 30
0.0
  0
VERTEX
  5
ADF
330
AD6
100
AcDbEntity
  8
Livello 1
100
AcDbVertex
100
AcDb2dVertex
 10
14.72772910961168
 20
7.466709726911375
 30
0.0
  0
VERTEX
  5
AE0
330
AD6
100
AcDbEntity
  8
Livello 1
100
AcDbVertex
100
AcDb2dVertex
 10
14.73513606490498
 20
7.466709726911375
 30
0.0
  0
VERTEX
  5
AE1
330
AD6
100
AcDbEntity
  8
Livello 1
100
AcDbVertex
100
AcDb2dVertex
 10
14.73513606490498
 20
7.463181195519837
 30
0.0
  0
VERTEX
  5
AE2
330
AD6
100
AcDbEntity
  8
Livello 1
100
AcDbVertex
100
AcDb2dVertex
 10
14.74254302019828
 20
7.463181195519837
 30
0.0
  0
VERTEX
  5
AE3
330
AD6
100
AcDbEntity
  8
Livello 1
100
AcDbVertex
100
AcDb2dVertex
 10
14.74607424307068
 20
7.459301425877661
 30
0.0
  0
VERTEX
  5
AE4
330
AD6
100
AcDbEntity
  8
Livello 1
100
AcDbVertex
100
AcDb2dVertex
 10
14.74995535845329
 20
7.459301425877661
 30
0.0
  0
VERTEX
  5
AE5
330
AD6
100
AcDbEntity
  8
Livello 1
100
AcDbVertex
100
AcDb2dVertex
 10
14.74995535845329
 20
7.455420310495057
 30
0.0
  0
VERTEX
  5
AE6
330
AD6
100
AcDbEntity
  8
Livello 1
100
AcDbVertex
100
AcDb2dVertex
 10
14.75736231374647
 20
7.455420310495057
 30
0.0
  0
VERTEX
  5
AE7
330
AD6
100
AcDbEntity
  8
Livello 1
100
AcDbVertex
100
AcDb2dVertex
 10
14.75736231374647
 20
7.451893124843948
 30
0.0
  0
VERTEX
  5
AE8
330
AD6
100
AcDbEntity
  8
Livello 1
100
AcDbVertex
100
AcDb2dVertex
 10
14.76124342912908
 20
7.451893124843948
 30
0.0
  0
VERTEX
  5
AE9
330
AD6
100
AcDbEntity
  8
Livello 1
100
AcDbVertex
100
AcDb2dVertex
 10
14.76476926903979
 20
7.448012009461351
 30
0.0
  0
VERTEX
  5
AEA
330
AD6
100
AcDbEntity
  8
Livello 1
100
AcDbVertex
100
AcDb2dVertex
 10
14.76865038442238
 20
7.448012009461351
 30
0.0
  0
VERTEX
  5
AEB
330
AD6
100
AcDbEntity
  8
Livello 1
100
AcDbVertex
100
AcDb2dVertex
 10
14.76865038442238
 20
7.444484823810242
 30
0.0
  0
VERTEX
  5
AEC
330
AD6
100
AcDbEntity
  8
Livello 1
100
AcDbVertex
100
AcDb2dVertex
 10
14.77217622433308
 20
7.444484823810242
 30
0.0
  0
VERTEX
  5
AED
330
AD6
100
AcDbEntity
  8
Livello 1
100
AcDbVertex
100
AcDb2dVertex
 10
14.77217622433308
 20
7.440603708427637
 30
0.0
  0
VERTEX
  5
AEE
330
AD6
100
AcDbEntity
  8
Livello 1
100
AcDbVertex
100
AcDb2dVertex
 10
14.77605733971568
 20
7.440603708427637
 30
0.0
  0
VERTEX
  5
AEF
330
AD6
100
AcDbEntity
  8
Livello 1
100
AcDbVertex
100
AcDb2dVertex
 10
14.77993845509829
 20
7.437076522776521
 30
0.0
  0
VERTEX
  5
AF0
330
AD6
100
AcDbEntity
  8
Livello 1
100
AcDbVertex
100
AcDb2dVertex
 10
14.78346967797067
 20
7.437076522776521
 30
0.0
  0
VERTEX
  5
AF1
330
AD6
100
AcDbEntity
  8
Livello 1
100
AcDbVertex
100
AcDb2dVertex
 10
14.78346967797067
 20
7.433195407393931
 30
0.0
  0
VERTEX
  5
AF2
330
AD6
100
AcDbEntity
  8
Livello 1
100
AcDbVertex
100
AcDb2dVertex
 10
14.78734541039158
 20
7.429315637751749
 30
0.0
  0
VERTEX
  5
AF3
330
AD6
100
AcDbEntity
  8
Livello 1
100
AcDbVertex
100
AcDb2dVertex
 10
14.79087663326398
 20
7.429315637751749
 30
0.0
  0
VERTEX
  5
AF4
330
AD6
100
AcDbEntity
  8
Livello 1
100
AcDbVertex
100
AcDb2dVertex
 10
14.79087663326398
 20
7.42578710636021
 30
0.0
  0
VERTEX
  5
AF5
330
AD6
100
AcDbEntity
  8
Livello 1
100
AcDbVertex
100
AcDb2dVertex
 10
14.79475774864659
 20
7.42578710636021
 30
0.0
  0
VERTEX
  5
AF6
330
AD6
100
AcDbEntity
  8
Livello 1
100
AcDbVertex
100
AcDb2dVertex
 10
14.79475774864659
 20
7.421907336718028
 30
0.0
  0
VERTEX
  5
AF7
330
AD6
100
AcDbEntity
  8
Livello 1
100
AcDbVertex
100
AcDb2dVertex
 10
14.79863886402918
 20
7.418378805326504
 30
0.0
  0
VERTEX
  5
AF8
330
AD6
100
AcDbEntity
  8
Livello 1
100
AcDbVertex
100
AcDb2dVertex
 10
14.80216470393988
 20
7.418378805326504
 30
0.0
  0
VERTEX
  5
AF9
330
AD6
100
AcDbEntity
  8
Livello 1
100
AcDbVertex
100
AcDb2dVertex
 10
14.80216470393988
 20
7.414499035684336
 30
0.0
  0
VERTEX
  5
AFA
330
AD6
100
AcDbEntity
  8
Livello 1
100
AcDbVertex
100
AcDb2dVertex
 10
14.80604581932247
 20
7.410617920301731
 30
0.0
  0
VERTEX
  5
AFB
330
AD6
100
AcDbEntity
  8
Livello 1
100
AcDbVertex
100
AcDb2dVertex
 10
14.80604581932247
 20
7.407090734650616
 30
0.0
  0
VERTEX
  5
AFC
330
AD6
100
AcDbEntity
  8
Livello 1
100
AcDbVertex
100
AcDb2dVertex
 10
14.80957165923317
 20
7.407090734650616
 30
0.0
  0
VERTEX
  5
AFD
330
AD6
100
AcDbEntity
  8
Livello 1
100
AcDbVertex
100
AcDb2dVertex
 10
14.80957165923317
 20
7.403209619268018
 30
0.0
  0
VERTEX
  5
AFE
330
AD6
100
AcDbEntity
  8
Livello 1
100
AcDbVertex
100
AcDb2dVertex
 10
14.81345277461578
 20
7.403209619268018
 30
0.0
  0
VERTEX
  5
AFF
330
AD6
100
AcDbEntity
  8
Livello 1
100
AcDbVertex
100
AcDb2dVertex
 10
14.81345277461578
 20
7.399682433616909
 30
0.0
  0
VERTEX
  5
B00
330
AD6
100
AcDbEntity
  8
Livello 1
100
AcDbVertex
100
AcDb2dVertex
 10
14.81733388999838
 20
7.395801318234305
 30
0.0
  0
VERTEX
  5
B01
330
AD6
100
AcDbEntity
  8
Livello 1
100
AcDbVertex
100
AcDb2dVertex
 10
14.81733388999838
 20
7.392274132583196
 30
0.0
  0
VERTEX
  5
B02
330
AD6
100
AcDbEntity
  8
Livello 1
100
AcDbVertex
100
AcDb2dVertex
 10
14.82085972990907
 20
7.392274132583196
 30
0.0
  0
VERTEX
  5
B03
330
AD6
100
AcDbEntity
  8
Livello 1
100
AcDbVertex
100
AcDb2dVertex
 10
14.82085972990907
 20
7.384511901817987
 30
0.0
  0
VERTEX
  5
B04
330
AD6
100
AcDbEntity
  8
Livello 1
100
AcDbVertex
100
AcDb2dVertex
 10
14.82474084529157
 20
7.384511901817987
 30
0.0
  0
VERTEX
  5
B05
330
AD6
100
AcDbEntity
  8
Livello 1
100
AcDbVertex
100
AcDb2dVertex
 10
14.82474084529157
 20
7.380984716166871
 30
0.0
  0
VERTEX
  5
B06
330
AD6
100
AcDbEntity
  8
Livello 1
100
AcDbVertex
100
AcDb2dVertex
 10
14.82827206816397
 20
7.37710360078428
 30
0.0
  0
VERTEX
  5
B07
330
AD6
100
AcDbEntity
  8
Livello 1
100
AcDbVertex
100
AcDb2dVertex
 10
14.82827206816397
 20
7.36969529975056
 30
0.0
  0
VERTEX
  5
B08
330
AD6
100
AcDbEntity
  8
Livello 1
100
AcDbVertex
100
AcDb2dVertex
 10
14.83215318354658
 20
7.36969529975056
 30
0.0
  0
VERTEX
  5
B09
330
AD6
100
AcDbEntity
  8
Livello 1
100
AcDbVertex
100
AcDb2dVertex
 10
14.83215318354658
 20
7.362286998716854
 30
0.0
  0
VERTEX
  5
B0A
330
AD6
100
AcDbEntity
  8
Livello 1
100
AcDbVertex
100
AcDb2dVertex
 10
14.83567902345727
 20
7.358407229074671
 30
0.0
  0
VERTEX
  5
B0B
330
AD6
100
AcDbEntity
  8
Livello 1
100
AcDbVertex
100
AcDb2dVertex
 10
14.83567902345727
 20
7.350998928040958
 30
0.0
  0
VERTEX
  5
B0C
330
AD6
100
AcDbEntity
  8
Livello 1
100
AcDbVertex
100
AcDb2dVertex
 10
14.83956013883987
 20
7.347470396649441
 30
0.0
  0
VERTEX
  5
B0D
330
AD6
100
AcDbEntity
  8
Livello 1
100
AcDbVertex
100
AcDb2dVertex
 10
14.83956013883987
 20
7.336182325973545
 30
0.0
  0
VERTEX
  5
B0E
330
AD6
100
AcDbEntity
  8
Livello 1
100
AcDbVertex
100
AcDb2dVertex
 10
14.84344125422247
 20
7.332301210590948
 30
0.0
  0
VERTEX
  5
B0F
330
AD6
100
AcDbEntity
  8
Livello 1
100
AcDbVertex
100
AcDb2dVertex
 10
14.84344125422247
 20
7.328774024939839
 30
0.0
  0
VERTEX
  5
B10
330
AD6
100
AcDbEntity
  8
Livello 1
100
AcDbVertex
100
AcDb2dVertex
 10
14.84344125422247
 20
7.302668006456102
 30
0.0
  0
VERTEX
  5
B11
330
AD6
100
AcDbEntity
  8
Livello 1
100
AcDbVertex
100
AcDb2dVertex
 10
14.84344125422247
 20
7.294907121431329
 30
0.0
  0
SEQEND
  5
B12
330
AD6
100
AcDbEntity
  8
Livello 1
  0
POLYLINE
  5
B13
330
1F
100
AcDbEntity
  8
Livello 1
100
AcDb2dPolyline
 66
     1
 10
0.0
 20
0.0
 30
0.0
  0
VERTEX
  5
B14
330
B13
100
AcDbEntity
  8
Livello 1
100
AcDbVertex
100
AcDb2dVertex
 10
14.66035057806658
 20
7.477999143327686
 30
0.0
  0
VERTEX
  5
B15
330
B13
100
AcDbEntity
  8
Livello 1
100
AcDbVertex
100
AcDb2dVertex
 10
12.75781812818408
 20
7.477999143327686
 30
0.0
  0
SEQEND
  5
B16
330
B13
100
AcDbEntity
  8
Livello 1
  0
SPLINE
  5
B17
330
1F
100
AcDbEntity
  8
Livello 1
100
AcDbSpline
210
0.0
220
0.0
230
1.0
 70
     8
 71
     3
 72
   176
 73
   172
 74
     0
 42
0.000000001
 43
0.0000000001
 40
0.0
 40
0.0
 40
0.0
 40
0.0
 40
1.0
 40
1.0
 40
1.0
 40
2.0
 40
2.0
 40
2.0
 40
3.0
 40
3.0
 40
3.0
 40
4.0
 40
4.0
 40
4.0
 40
5.0
 40
5.0
 40
5.0
 40
6.0
 40
6.0
 40
6.0
 40
7.0
 40
7.0
 40
7.0
 40
8.0
 40
8.0
 40
8.0
 40
9.0
 40
9.0
 40
9.0
 40
10.0
 40
10.0
 40
10.0
 40
11.0
 40
11.0
 40
11.0
 40
12.0
 40
12.0
 40
12.0
 40
13.0
 40
13.0
 40
13.0
 40
14.0
 40
14.0
 40
14.0
 40
15.0
 40
15.0
 40
15.0
 40
16.0
 40
16.0
 40
16.0
 40
17.0
 40
17.0
 40
17.0
 40
18.0
 40
18.0
 40
18.0
 40
19.0
 40
19.0
 40
19.0
 40
20.0
 40
20.0
 40
20.0
 40
21.0
 40
21.0
 40
21.0
 40
22.0
 40
22.0
 40
22.0
 40
23.0
 40
23.0
 40
23.0
 40
24.0
 40
24.0
 40
24.0
 40
25.0
 40
25.0
 40
25.0
 40
26.0
 40
26.0
 40
26.0
 40
27.0
 40
27.0
 40
27.0
 40
28.0
 40
28.0
 40
28.0
 40
29.0
 40
29.0
 40
29.0
 40
30.0
 40
30.0
 40
30.0
 40
31.0
 40
31.0
 40
31.0
 40
32.0
 40
32.0
 40
32.0
 40
33.0
 40
33.0
 40
33.0
 40
34.0
 40
34.0
 40
34.0
 40
35.0
 40
35.0
 40
35.0
 40
36.0
 40
36.0
 40
36.0
 40
37.0
 40
37.0
 40
37.0
 40
38.0
 40
38.0
 40
38.0
 40
39.0
 40
39.0
 40
39.0
 40
40.0
 40
40.0
 40
40.0
 40
41.0
 40
41.0
 40
41.0
 40
42.0
 40
42.0
 40
42.0
 40
43.0
 40
43.0
 40
43.0
 40
44.0
 40
44.0
 40
44.0
 40
45.0
 40
45.0
 40
45.0
 40
46.0
 40
46.0
 40
46.0
 40
47.0
 40
47.0
 40
47.0
 40
48.0
 40
48.0
 40
48.0
 40
49.0
 40
49.0
 40
49.0
 40
50.0
 40
50.0
 40
50.0
 40
51.0
 40
51.0
 40
51.0
 40
52.0
 40
52.0
 40
52.0
 40
53.0
 40
53.0
 40
53.0
 40
54.0
 40
54.0
 40
54.0
 40
55.0
 40
55.0
 40
55.0
 40
56.0
 40
56.0
 40
56.0
 40
57.0
 40
57.0
 40
57.0
 40
57.0
 10
13.68954420216997
 20
8.082906772401443
 30
0.0
 10
13.68954420216997
 20
8.082906772401443
 30
0.0
 10
13.99187286284738
 20
8.082906772401443
 30
0.0
 10
13.99187286284738
 20
8.082906772401443
 30
0.0
 10
13.99187286284738
 20
8.082906772401443
 30
0.0
 10
14.05925139439247
 20
8.082906772401443
 30
0.0
 10
14.05925139439247
 20
8.082906772401443
 30
0.0
 10
14.05925139439247
 20
8.082906772401443
 30
0.0
 10
14.06665834968578
 20
8.079025657018846
 30
0.0
 10
14.06665834968578
 20
8.079025657018846
 30
0.0
 10
14.06665834968578
 20
8.079025657018846
 30
0.0
 10
14.08147764323408
 20
8.079025657018846
 30
0.0
 10
14.08147764323408
 20
8.079025657018846
 30
0.0
 10
14.08147764323408
 20
8.079025657018846
 30
0.0
 10
14.08888459852737
 20
8.075497125627315
 30
0.0
 10
14.08888459852737
 20
8.075497125627315
 30
0.0
 10
14.08888459852737
 20
8.075497125627315
 30
0.0
 10
14.10405378458587
 20
8.075497125627315
 30
0.0
 10
14.10405378458587
 20
8.075497125627315
 30
0.0
 10
14.10405378458587
 20
8.075497125627315
 30
0.0
 10
14.11146612284078
 20
8.071617355985132
 30
0.0
 10
14.11146612284078
 20
8.071617355985132
 30
0.0
 10
14.11146612284078
 20
8.071617355985132
 30
0.0
 10
14.12628003342738
 20
8.071617355985132
 30
0.0
 10
14.12628003342738
 20
8.071617355985132
 30
0.0
 10
14.12628003342738
 20
8.071617355985132
 30
0.0
 10
14.13404226419259
 20
8.068088824593608
 30
0.0
 10
14.13404226419259
 20
8.068088824593608
 30
0.0
 10
14.13404226419259
 20
8.068088824593608
 30
0.0
 10
14.14144921948588
 20
8.068088824593608
 30
0.0
 10
14.14144921948588
 20
8.068088824593608
 30
0.0
 10
14.14144921948588
 20
8.068088824593608
 30
0.0
 10
14.14885617477917
 20
8.064209054951426
 30
0.0
 10
14.14885617477917
 20
8.064209054951426
 30
0.0
 10
14.14885617477917
 20
8.064209054951426
 30
0.0
 10
14.15626851303418
 20
8.064209054951426
 30
0.0
 10
14.15626851303418
 20
8.064209054951426
 30
0.0
 10
14.15626851303418
 20
8.064209054951426
 30
0.0
 10
14.16367546832747
 20
8.060327939568828
 30
0.0
 10
14.16367546832747
 20
8.060327939568828
 30
0.0
 10
14.16367546832747
 20
8.060327939568828
 30
0.0
 10
14.17108242362077
 20
8.060327939568828
 30
0.0
 10
14.17108242362077
 20
8.060327939568828
 30
0.0
 10
14.17108242362077
 20
8.060327939568828
 30
0.0
 10
14.17496353900337
 20
8.056800753917706
 30
0.0
 10
14.17496353900337
 20
8.056800753917706
 30
0.0
 10
14.17496353900337
 20
8.056800753917706
 30
0.0
 10
14.18237049429669
 20
8.052919638535101
 30
0.0
 10
14.18237049429669
 20
8.052919638535101
 30
0.0
 10
14.18237049429669
 20
8.052919638535101
 30
0.0
 10
14.18978283255157
 20
8.052919638535101
 30
0.0
 10
14.18978283255157
 20
8.052919638535101
 30
0.0
 10
14.18978283255157
 20
8.052919638535101
 30
0.0
 10
14.19718978784489
 20
8.049392452883992
 30
0.0
 10
14.19718978784489
 20
8.049392452883992
 30
0.0
 10
14.19718978784489
 20
8.049392452883992
 30
0.0
 10
14.20495201861007
 20
8.045511337501409
 30
0.0
 10
14.20495201861007
 20
8.045511337501409
 30
0.0
 10
14.20495201861007
 20
8.045511337501409
 30
0.0
 10
14.21235897390339
 20
8.045511337501409
 30
0.0
 10
14.21235897390339
 20
8.045511337501409
 30
0.0
 10
14.21235897390339
 20
8.045511337501409
 30
0.0
 10
14.21976592919668
 20
8.041984151850293
 30
0.0
 10
14.21976592919668
 20
8.041984151850293
 30
0.0
 10
14.21976592919668
 20
8.041984151850293
 30
0.0
 10
14.22364704457928
 20
8.038103036467688
 30
0.0
 10
14.22364704457928
 20
8.038103036467688
 30
0.0
 10
14.22364704457928
 20
8.038103036467688
 30
0.0
 10
14.23105399987258
 20
8.03422326682552
 30
0.0
 10
14.23105399987258
 20
8.03422326682552
 30
0.0
 10
14.23105399987258
 20
8.03422326682552
 30
0.0
 10
14.23846633812758
 20
8.03422326682552
 30
0.0
 10
14.23846633812758
 20
8.03422326682552
 30
0.0
 10
14.26562876284409
 20
8.020817000722352
 30
0.0
 10
14.29102557612438
 20
8.004942646681733
 30
0.0
 10
14.31678304783828
 20
7.989419530891758
 30
0.0
 10
14.31678304783828
 20
7.989419530891758
 30
0.0
 10
14.33159695842487
 20
7.982011229858031
 30
0.0
 10
14.33159695842487
 20
7.982011229858031
 30
0.0
 10
14.33159695842487
 20
7.982011229858031
 30
0.0
 10
14.33547807380746
 20
7.978484044206922
 30
0.0
 10
14.33547807380746
 20
7.978484044206922
 30
0.0
 10
14.33547807380746
 20
7.978484044206922
 30
0.0
 10
14.34288502910078
 20
7.974602928824332
 30
0.0
 10
14.34288502910078
 20
7.974602928824332
 30
0.0
 10
14.34288502910078
 20
7.974602928824332
 30
0.0
 10
14.34676614448338
 20
7.970723159182142
 30
0.0
 10
14.34676614448338
 20
7.970723159182142
 30
0.0
 10
14.34676614448338
 20
7.970723159182142
 30
0.0
 10
14.35417309977667
 20
7.967194627790618
 30
0.0
 10
14.35417309977667
 20
7.967194627790618
 30
0.0
 10
14.35417309977667
 20
7.967194627790618
 30
0.0
 10
14.36546117045257
 20
7.95590655711473
 30
0.0
 10
14.36546117045257
 20
7.95590655711473
 30
0.0
 10
14.36546117045257
 20
7.95590655711473
 30
0.0
 10
14.37287350870758
 20
7.952378025723191
 30
0.0
 10
14.37287350870758
 20
7.952378025723191
 30
0.0
 10
14.38839258727628
 20
7.93509198997787
 30
0.0
 10
14.38557191534767
 20
7.940736025315814
 30
0.0
 10
14.39897548996998
 20
7.929800538630999
 30
0.0
 10
14.39897548996998
 20
7.929800538630999
 30
0.0
 10
14.43248980948748
 20
7.896286219113548
 30
0.0
 10
14.43248980948748
 20
7.896286219113548
 30
0.0
 10
14.48505443044597
 20
7.84231126219074
 30
0.0
 10
14.51257213063448
 20
7.789747986972621
 30
0.0
 10
14.54820195409829
 20
7.724483613633495
 30
0.0
 10
14.54820195409829
 20
7.724483613633495
 30
0.0
 10
14.54820195409829
 20
7.717075312599781
 30
0.0
 10
14.54820195409829
 20
7.717075312599781
 30
0.0
 10
14.54820195409829
 20
7.717075312599781
 30
0.0
 10
14.55208306948087
 20
7.709667011566082
 30
0.0
 10
14.55208306948087
 20
7.709667011566082
 30
0.0
 10
14.55208306948087
 20
7.709667011566082
 30
0.0
 10
14.55596418486347
 20
7.705787241923893
 30
0.0
 10
14.55596418486347
 20
7.705787241923893
 30
0.0
 10
14.55596418486347
 20
7.705787241923893
 30
0.0
 10
14.55949002477417
 20
7.698378940890194
 30
0.0
 10
14.55949002477417
 20
7.698378940890194
 30
0.0
 10
14.55949002477417
 20
7.698378940890194
 30
0.0
 10
14.55949002477417
 20
7.690970639856473
 30
0.0
 10
14.55949002477417
 20
7.690970639856473
 30
0.0
 10
14.55949002477417
 20
7.690970639856473
 30
0.0
 10
14.56690236302917
 20
7.675800108057551
 30
0.0
 10
14.56690236302917
 20
7.675800108057551
 30
0.0
 10
14.56690236302917
 20
7.675800108057551
 30
0.0
 10
14.56690236302917
 20
7.668391807023851
 30
0.0
 10
14.56690236302917
 20
7.668391807023851
 30
0.0
 10
14.56690236302917
 20
7.668391807023851
 30
0.0
 10
14.57077809545008
 20
7.660983505990138
 30
0.0
 10
14.57077809545008
 20
7.660983505990138
 30
0.0
 10
14.57077809545008
 20
7.660983505990138
 30
0.0
 10
14.57430931832246
 20
7.657103736347956
 30
0.0
 10
14.57430931832246
 20
7.657103736347956
 30
0.0
 10
14.57430931832246
 20
7.657103736347956
 30
0.0
 10
14.57430931832246
 20
7.649695435314242
 30
0.0
 10
14.57430931832246
 20
7.649695435314242
 30
0.0
 10
14.57430931832246
 20
7.649695435314242
 30
0.0
 10
14.57819043370509
 20
7.642287134280536
 30
0.0
 10
14.57819043370509
 20
7.642287134280536
 30
0.0
 10
14.57819043370509
 20
7.642287134280536
 30
0.0
 10
14.57819043370509
 20
7.63487883324683
 30
0.0
 10
14.57819043370509
 20
7.63487883324683
 30
0.0
 10
14.57819043370509
 20
7.63487883324683
 30
0.0
 10
14.58207154908767
 20
7.627470532213123
 30
0.0
 10
14.58207154908767
 20
7.627470532213123
 30
0.0
 10
14.58207154908767
 20
7.627470532213123
 30
0.0
 10
14.58207154908767
 20
7.619708301447914
 30
0.0
 10
14.58207154908767
 20
7.619708301447914
 30
0.0
 10
14.58207154908767
 20
7.619708301447914
 30
0.0
 10
14.58559738899838
 20
7.612300000414208
 30
0.0
 10
14.58559738899838
 20
7.612300000414208
 30
0.0
 10
14.58559738899838
 20
7.612300000414208
 30
0.0
 10
14.58559738899838
 20
7.597483398346781
 30
0.0
 10
14.58559738899838
 20
7.597483398346781
 30
0.0
 10
14.58559738899838
 20
7.597483398346781
 30
0.0
 10
14.58947850438098
 20
7.590075097313068
 30
0.0
 10
14.58947850438098
 20
7.590075097313068
 30
0.0
 10
14.58947850438098
 20
7.590075097313068
 30
0.0
 10
14.58947850438098
 20
7.575258495245641
 30
0.0
 10
14.58947850438098
 20
7.575258495245641
 30
0.0
 10
14.58947850438098
 20
7.575258495245641
 30
0.0
 10
14.59300434429158
 20
7.567497610220868
 30
0.0
 10
14.59300434429158
 20
7.567497610220868
 30
0.0
 10
14.59300434429158
 20
7.567497610220868
 30
0.0
 10
14.59300434429158
 20
7.552681008153442
 30
0.0
 10
14.59300434429158
 20
7.552681008153442
 30
0.0
 10
14.59300434429158
 20
7.552681008153442
 30
0.0
 10
14.59688545967417
 20
7.545272707119735
 30
0.0
 10
14.59688545967417
 20
7.545272707119735
 30
0.0
 10
14.59688545967417
 20
7.545272707119735
 30
0.0
 10
14.59688545967417
 20
7.477892829834196
 30
0.0
 10
14.59688545967417
 20
7.477892829834196
 30
0.0
  0
POLYLINE
  5
B18
330
1F
100
AcDbEntity
  8
Livello 1
100
AcDb2dPolyline
 66
     1
 10
0.0
 20
0.0
 30
0.0
  0
VERTEX
  5
B19
330
B18
100
AcDbEntity
  8
Livello 1
100
AcDbVertex
100
AcDb2dVertex
 10
13.62978256142429
 20
8.023146477396188
 30
0.0
  0
VERTEX
  5
B1A
330
B18
100
AcDbEntity
  8
Livello 1
100
AcDbVertex
100
AcDb2dVertex
 10
13.63365829384517
 20
8.027026247038349
 30
0.0
  0
VERTEX
  5
B1B
330
B18
100
AcDbEntity
  8
Livello 1
100
AcDbVertex
100
AcDb2dVertex
 10
13.63365829384517
 20
8.045723964488388
 30
0.0
  0
VERTEX
  5
B1C
330
B18
100
AcDbEntity
  8
Livello 1
100
AcDbVertex
100
AcDb2dVertex
 10
13.63718951671758
 20
8.045723964488388
 30
0.0
  0
VERTEX
  5
B1D
330
B18
100
AcDbEntity
  8
Livello 1
100
AcDbVertex
100
AcDb2dVertex
 10
13.63718951671758
 20
8.053132265522094
 30
0.0
  0
VERTEX
  5
B1E
330
B18
100
AcDbEntity
  8
Livello 1
100
AcDbVertex
100
AcDb2dVertex
 10
13.64107063210018
 20
8.053132265522094
 30
0.0
  0
VERTEX
  5
B1F
330
B18
100
AcDbEntity
  8
Livello 1
100
AcDbVertex
100
AcDb2dVertex
 10
13.64107063210018
 20
8.0605405665558
 30
0.0
  0
VERTEX
  5
B20
330
B18
100
AcDbEntity
  8
Livello 1
100
AcDbVertex
100
AcDb2dVertex
 10
13.64459647201079
 20
8.0605405665558
 30
0.0
  0
VERTEX
  5
B21
330
B18
100
AcDbEntity
  8
Livello 1
100
AcDbVertex
100
AcDb2dVertex
 10
13.64459647201079
 20
8.064067752206909
 30
0.0
  0
VERTEX
  5
B22
330
B18
100
AcDbEntity
  8
Livello 1
100
AcDbVertex
100
AcDb2dVertex
 10
13.64847758739339
 20
8.064067752206909
 30
0.0
  0
VERTEX
  5
B23
330
B18
100
AcDbEntity
  8
Livello 1
100
AcDbVertex
100
AcDb2dVertex
 10
13.64847758739339
 20
8.067948867589514
 30
0.0
  0
VERTEX
  5
B24
330
B18
100
AcDbEntity
  8
Livello 1
100
AcDbVertex
100
AcDb2dVertex
 10
13.65235870277597
 20
8.067948867589514
 30
0.0
  0
VERTEX
  5
B25
330
B18
100
AcDbEntity
  8
Livello 1
100
AcDbVertex
100
AcDb2dVertex
 10
13.65235870277597
 20
8.071828637231689
 30
0.0
  0
VERTEX
  5
B26
330
B18
100
AcDbEntity
  8
Livello 1
100
AcDbVertex
100
AcDb2dVertex
 10
13.65588454268668
 20
8.071828637231689
 30
0.0
  0
VERTEX
  5
B27
330
B18
100
AcDbEntity
  8
Livello 1
100
AcDbVertex
100
AcDb2dVertex
 10
13.65588454268668
 20
8.07535716862322
 30
0.0
  0
VERTEX
  5
B28
330
B18
100
AcDbEntity
  8
Livello 1
100
AcDbVertex
100
AcDb2dVertex
 10
13.66329149797997
 20
8.07535716862322
 30
0.0
  0
VERTEX
  5
B29
330
B18
100
AcDbEntity
  8
Livello 1
100
AcDbVertex
100
AcDb2dVertex
 10
13.66329149797997
 20
8.079236938265403
 30
0.0
  0
VERTEX
  5
B2A
330
B18
100
AcDbEntity
  8
Livello 1
100
AcDbVertex
100
AcDb2dVertex
 10
13.67070383623498
 20
8.079236938265403
 30
0.0
  0
VERTEX
  5
B2B
330
B18
100
AcDbEntity
  8
Livello 1
100
AcDbVertex
100
AcDb2dVertex
 10
13.67070383623498
 20
8.082765469656941
 30
0.0
  0
VERTEX
  5
B2C
330
B18
100
AcDbEntity
  8
Livello 1
100
AcDbVertex
100
AcDb2dVertex
 10
13.68939886220417
 20
8.082765469656941
 30
0.0
  0
SEQEND
  5
B2D
330
B18
100
AcDbEntity
  8
Livello 1
  0
POLYLINE
  5
B2E
330
1F
100
AcDbEntity
  8
Livello 1
100
AcDb2dPolyline
 66
     1
 10
0.0
 20
0.0
 30
0.0
  0
VERTEX
  5
B2F
330
B2E
100
AcDbEntity
  8
Livello 1
100
AcDbVertex
100
AcDb2dVertex
 10
13.62978256142429
 20
7.477999143327686
 30
0.0
  0
VERTEX
  5
B30
330
B2E
100
AcDbEntity
  8
Livello 1
100
AcDbVertex
100
AcDb2dVertex
 10
13.62978256142429
 20
8.023040163902685
 30
0.0
  0
SEQEND
  5
B31
330
B2E
100
AcDbEntity
  8
Livello 1
  0
POLYLINE
  5
B32
330
1F
100
AcDbEntity
  8
Livello 1
100
AcDb2dPolyline
 66
     1
 10
0.0
 20
0.0
 30
0.0
  0
VERTEX
  5
B33
330
B32
100
AcDbEntity
  8
Livello 1
100
AcDbVertex
100
AcDb2dVertex
 10
13.68954420216997
 20
5.151746863567993
 30
0.0
  0
VERTEX
  5
B34
330
B32
100
AcDbEntity
  8
Livello 1
100
AcDbVertex
100
AcDb2dVertex
 10
13.68954420216997
 20
5.155626633210175
 30
0.0
  0
VERTEX
  5
B35
330
B32
100
AcDbEntity
  8
Livello 1
100
AcDbVertex
100
AcDb2dVertex
 10
13.67084379323907
 20
5.155626633210175
 30
0.0
  0
VERTEX
  5
B36
330
B32
100
AcDbEntity
  8
Livello 1
100
AcDbVertex
100
AcDb2dVertex
 10
13.67084379323907
 20
5.159155164601699
 30
0.0
  0
VERTEX
  5
B37
330
B32
100
AcDbEntity
  8
Livello 1
100
AcDbVertex
100
AcDb2dVertex
 10
13.66343683794578
 20
5.159155164601699
 30
0.0
  0
VERTEX
  5
B38
330
B32
100
AcDbEntity
  8
Livello 1
100
AcDbVertex
100
AcDb2dVertex
 10
13.65955572256317
 20
5.163034934243881
 30
0.0
  0
VERTEX
  5
B39
330
B32
100
AcDbEntity
  8
Livello 1
100
AcDbVertex
100
AcDb2dVertex
 10
13.65602988265247
 20
5.163034934243881
 30
0.0
  0
VERTEX
  5
B3A
330
B32
100
AcDbEntity
  8
Livello 1
100
AcDbVertex
100
AcDb2dVertex
 10
13.65602988265247
 20
5.16656346563542
 30
0.0
  0
VERTEX
  5
B3B
330
B32
100
AcDbEntity
  8
Livello 1
100
AcDbVertex
100
AcDb2dVertex
 10
13.65214876726988
 20
5.16656346563542
 30
0.0
  0
VERTEX
  5
B3C
330
B32
100
AcDbEntity
  8
Livello 1
100
AcDbVertex
100
AcDb2dVertex
 10
13.64826765188728
 20
5.170443235277588
 30
0.0
  0
VERTEX
  5
B3D
330
B32
100
AcDbEntity
  8
Livello 1
100
AcDbVertex
100
AcDb2dVertex
 10
13.64473642901487
 20
5.170443235277588
 30
0.0
  0
VERTEX
  5
B3E
330
B32
100
AcDbEntity
  8
Livello 1
100
AcDbVertex
100
AcDb2dVertex
 10
13.64473642901487
 20
5.174324350660192
 30
0.0
  0
VERTEX
  5
B3F
330
B32
100
AcDbEntity
  8
Livello 1
100
AcDbVertex
100
AcDb2dVertex
 10
13.64086069659397
 20
5.177851536311308
 30
0.0
  0
VERTEX
  5
B40
330
B32
100
AcDbEntity
  8
Livello 1
100
AcDbVertex
100
AcDb2dVertex
 10
13.64086069659397
 20
5.181732651693913
 30
0.0
  0
VERTEX
  5
B41
330
B32
100
AcDbEntity
  8
Livello 1
100
AcDbVertex
100
AcDb2dVertex
 10
13.63732947372158
 20
5.181732651693913
 30
0.0
  0
VERTEX
  5
B42
330
B32
100
AcDbEntity
  8
Livello 1
100
AcDbVertex
100
AcDb2dVertex
 10
13.63732947372158
 20
5.185259837345014
 30
0.0
  0
VERTEX
  5
B43
330
B32
100
AcDbEntity
  8
Livello 1
100
AcDbVertex
100
AcDb2dVertex
 10
13.63344835833897
 20
5.189140952727619
 30
0.0
  0
VERTEX
  5
B44
330
B32
100
AcDbEntity
  8
Livello 1
100
AcDbVertex
100
AcDb2dVertex
 10
13.63344835833897
 20
5.196549253761325
 30
0.0
  0
VERTEX
  5
B45
330
B32
100
AcDbEntity
  8
Livello 1
100
AcDbVertex
100
AcDb2dVertex
 10
13.62992251842839
 20
5.196549253761325
 30
0.0
  0
VERTEX
  5
B46
330
B32
100
AcDbEntity
  8
Livello 1
100
AcDbVertex
100
AcDb2dVertex
 10
13.62992251842839
 20
5.21524562547092
 30
0.0
  0
VERTEX
  5
B47
330
B32
100
AcDbEntity
  8
Livello 1
100
AcDbVertex
100
AcDb2dVertex
 10
13.62604140304579
 20
5.21524562547092
 30
0.0
  0
SEQEND
  5
B48
330
B32
100
AcDbEntity
  8
Livello 1
  0
POLYLINE
  5
B49
330
1F
100
AcDbEntity
  8
Livello 1
100
AcDb2dPolyline
 66
     1
 10
0.0
 20
0.0
 30
0.0
  0
VERTEX
  5
B4A
330
B49
100
AcDbEntity
  8
Livello 1
100
AcDbVertex
100
AcDb2dVertex
 10
13.99198052208127
 20
5.151746863567993
 30
0.0
  0
VERTEX
  5
B4B
330
B49
100
AcDbEntity
  8
Livello 1
100
AcDbVertex
100
AcDb2dVertex
 10
13.68964647844217
 20
5.151746863567993
 30
0.0
  0
SEQEND
  5
B4C
330
B49
100
AcDbEntity
  8
Livello 1
  0
SPLINE
  5
B4D
330
1F
100
AcDbEntity
  8
Livello 1
100
AcDbSpline
210
0.0
220
0.0
230
1.0
 70
     8
 71
     3
 72
   227
 73
   223
 74
     0
 42
0.000000001
 43
0.0000000001
 40
0.0
 40
0.0
 40
0.0
 40
0.0
 40
1.0
 40
1.0
 40
1.0
 40
2.0
 40
2.0
 40
2.0
 40
3.0
 40
3.0
 40
3.0
 40
4.0
 40
4.0
 40
4.0
 40
5.0
 40
5.0
 40
5.0
 40
6.0
 40
6.0
 40
6.0
 40
7.0
 40
7.0
 40
7.0
 40
8.0
 40
8.0
 40
8.0
 40
9.0
 40
9.0
 40
9.0
 40
10.0
 40
10.0
 40
10.0
 40
11.0
 40
11.0
 40
11.0
 40
12.0
 40
12.0
 40
12.0
 40
13.0
 40
13.0
 40
13.0
 40
14.0
 40
14.0
 40
14.0
 40
15.0
 40
15.0
 40
15.0
 40
16.0
 40
16.0
 40
16.0
 40
17.0
 40
17.0
 40
17.0
 40
18.0
 40
18.0
 40
18.0
 40
19.0
 40
19.0
 40
19.0
 40
20.0
 40
20.0
 40
20.0
 40
21.0
 40
21.0
 40
21.0
 40
22.0
 40
22.0
 40
22.0
 40
23.0
 40
23.0
 40
23.0
 40
24.0
 40
24.0
 40
24.0
 40
25.0
 40
25.0
 40
25.0
 40
26.0
 40
26.0
 40
26.0
 40
27.0
 40
27.0
 40
27.0
 40
28.0
 40
28.0
 40
28.0
 40
29.0
 40
29.0
 40
29.0
 40
30.0
 40
30.0
 40
30.0
 40
31.0
 40
31.0
 40
31.0
 40
32.0
 40
32.0
 40
32.0
 40
33.0
 40
33.0
 40
33.0
 40
34.0
 40
34.0
 40
34.0
 40
35.0
 40
35.0
 40
35.0
 40
36.0
 40
36.0
 40
36.0
 40
37.0
 40
37.0
 40
37.0
 40
38.0
 40
38.0
 40
38.0
 40
39.0
 40
39.0
 40
39.0
 40
40.0
 40
40.0
 40
40.0
 40
41.0
 40
41.0
 40
41.0
 40
42.0
 40
42.0
 40
42.0
 40
43.0
 40
43.0
 40
43.0
 40
44.0
 40
44.0
 40
44.0
 40
45.0
 40
45.0
 40
45.0
 40
46.0
 40
46.0
 40
46.0
 40
47.0
 40
47.0
 40
47.0
 40
48.0
 40
48.0
 40
48.0
 40
49.0
 40
49.0
 40
49.0
 40
50.0
 40
50.0
 40
50.0
 40
51.0
 40
51.0
 40
51.0
 40
52.0
 40
52.0
 40
52.0
 40
53.0
 40
53.0
 40
53.0
 40
54.0
 40
54.0
 40
54.0
 40
55.0
 40
55.0
 40
55.0
 40
56.0
 40
56.0
 40
56.0
 40
57.0
 40
57.0
 40
57.0
 40
58.0
 40
58.0
 40
58.0
 40
59.0
 40
59.0
 40
59.0
 40
60.0
 40
60.0
 40
60.0
 40
61.0
 40
61.0
 40
61.0
 40
62.0
 40
62.0
 40
62.0
 40
63.0
 40
63.0
 40
63.0
 40
64.0
 40
64.0
 40
64.0
 40
65.0
 40
65.0
 40
65.0
 40
66.0
 40
66.0
 40
66.0
 40
67.0
 40
67.0
 40
67.0
 40
68.0
 40
68.0
 40
68.0
 40
69.0
 40
69.0
 40
69.0
 40
70.0
 40
70.0
 40
70.0
 40
71.0
 40
71.0
 40
71.0
 40
72.0
 40
72.0
 40
72.0
 40
73.0
 40
73.0
 40
73.0
 40
74.0
 40
74.0
 40
74.0
 40
74.0
 10
14.59688545967417
 20
5.715556925835493
 30
0.0
 10
14.59688545967417
 20
5.715556925835493
 30
0.0
 10
14.59688545967417
 20
5.689450907351755
 30
0.0
 10
14.59688545967417
 20
5.689450907351755
 30
0.0
 10
14.59688545967417
 20
5.689450907351755
 30
0.0
 10
14.59300434429158
 20
5.682042606318049
 30
0.0
 10
14.59300434429158
 20
5.682042606318049
 30
0.0
 10
14.59300434429158
 20
5.682042606318049
 30
0.0
 10
14.59300434429158
 20
5.659465119225842
 30
0.0
 10
14.59300434429158
 20
5.659465119225842
 30
0.0
 10
14.59300434429158
 20
5.659465119225842
 30
0.0
 10
14.58947312141927
 20
5.652056818192122
 30
0.0
 10
14.58947312141927
 20
5.652056818192122
 30
0.0
 10
14.58947312141927
 20
5.652056818192122
 30
0.0
 10
14.58947312141927
 20
5.644648517158415
 30
0.0
 10
14.58947312141927
 20
5.644648517158415
 30
0.0
 10
14.58947312141927
 20
5.644648517158415
 30
0.0
 10
14.58559200603668
 20
5.637240216124702
 30
0.0
 10
14.58559200603668
 20
5.637240216124702
 30
0.0
 10
14.58559200603668
 20
5.637240216124702
 30
0.0
 10
14.58559200603668
 20
5.622069684325794
 30
0.0
 10
14.58559200603668
 20
5.622069684325794
 30
0.0
 10
14.58559200603668
 20
5.622069684325794
 30
0.0
 10
14.58206616612597
 20
5.61466138329208
 30
0.0
 10
14.58206616612597
 20
5.61466138329208
 30
0.0
 10
14.58206616612597
 20
5.61466138329208
 30
0.0
 10
14.58206616612597
 20
5.607253082258374
 30
0.0
 10
14.58206616612597
 20
5.607253082258374
 30
0.0
 10
14.58206616612597
 20
5.607253082258374
 30
0.0
 10
14.57818505074337
 20
5.599844781224653
 30
0.0
 10
14.57818505074337
 20
5.599844781224653
 30
0.0
 10
14.57818505074337
 20
5.599844781224653
 30
0.0
 10
14.57818505074337
 20
5.592436480190947
 30
0.0
 10
14.57818505074337
 20
5.592436480190947
 30
0.0
 10
14.57818505074337
 20
5.592436480190947
 30
0.0
 10
14.57077809545008
 20
5.577267294132468
 30
0.0
 10
14.57077809545008
 20
5.577267294132468
 30
0.0
 10
14.57077809545008
 20
5.577267294132468
 30
0.0
 10
14.57077809545008
 20
5.56985899309874
 30
0.0
 10
14.57077809545008
 20
5.56985899309874
 30
0.0
 10
14.57077809545008
 20
5.56985899309874
 30
0.0
 10
14.56689698006748
 20
5.566331807447639
 30
0.0
 10
14.56689698006748
 20
5.566331807447639
 30
0.0
 10
14.56689698006748
 20
5.566331807447639
 30
0.0
 10
14.56337114015679
 20
5.558569576682437
 30
0.0
 10
14.56337114015679
 20
5.558569576682437
 30
0.0
 10
14.56337114015679
 20
5.558569576682437
 30
0.0
 10
14.56337114015679
 20
5.55116127564873
 30
0.0
 10
14.56337114015679
 20
5.55116127564873
 30
0.0
 10
14.56337114015679
 20
5.55116127564873
 30
0.0
 10
14.55595880190178
 20
5.536344673581311
 30
0.0
 10
14.55595880190178
 20
5.536344673581311
 30
0.0
 10
14.55595880190178
 20
5.536344673581311
 30
0.0
 10
14.55595880190178
 20
5.528936372547583
 30
0.0
 10
14.55595880190178
 20
5.528936372547583
 30
0.0
 10
14.55595880190178
 20
5.528936372547583
 30
0.0
 10
14.55207768651918
 20
5.521528071513877
 30
0.0
 10
14.55207768651918
 20
5.521528071513877
 30
0.0
 10
14.55207768651918
 20
5.521528071513877
 30
0.0
 10
14.54820195409829
 20
5.517648301871702
 30
0.0
 10
14.54820195409829
 20
5.517648301871702
 30
0.0
 10
14.54820195409829
 20
5.517648301871702
 30
0.0
 10
14.53726377593258
 20
5.495423398770569
 30
0.0
 10
14.53726377593258
 20
5.495423398770569
 30
0.0
 10
14.53726377593258
 20
5.495423398770569
 30
0.0
 10
14.53726377593258
 20
5.487661168005367
 30
0.0
 10
14.53726377593258
 20
5.487661168005367
 30
0.0
 10
14.53726377593258
 20
5.487661168005367
 30
0.0
 10
14.53338266054996
 20
5.484133982354258
 30
0.0
 10
14.53338266054996
 20
5.484133982354258
 30
0.0
 10
14.53338266054996
 20
5.484133982354258
 30
0.0
 10
14.52209458987407
 20
5.461556495262058
 30
0.0
 10
14.52209458987407
 20
5.461556495262058
 30
0.0
 10
14.52209458987407
 20
5.461556495262058
 30
0.0
 10
14.51856874996348
 20
5.45802796387052
 30
0.0
 10
14.51856874996348
 20
5.45802796387052
 30
0.0
 10
14.51856874996348
 20
5.45802796387052
 30
0.0
 10
14.51115641170847
 20
5.442858777812027
 30
0.0
 10
14.51115641170847
 20
5.442858777812027
 30
0.0
 10
14.51115641170847
 20
5.442858777812027
 30
0.0
 10
14.50727529632587
 20
5.439331592160918
 30
0.0
 10
14.50727529632587
 20
5.439331592160918
 30
0.0
 10
14.50727529632587
 20
5.439331592160918
 30
0.0
 10
14.49986834103258
 20
5.424162406102439
 30
0.0
 10
14.49986834103258
 20
5.424162406102439
 30
0.0
 10
14.49986834103258
 20
5.424162406102439
 30
0.0
 10
14.49246138573929
 20
5.420633874710887
 30
0.0
 10
14.49246138573929
 20
5.420633874710887
 30
0.0
 10
14.49246138573929
 20
5.420633874710887
 30
0.0
 10
14.48505443044597
 20
5.405464688652408
 30
0.0
 10
14.48505443044597
 20
5.405464688652408
 30
0.0
 10
14.48505443044597
 20
5.405464688652408
 30
0.0
 10
14.48117331506338
 20
5.40193615726087
 30
0.0
 10
14.48117331506338
 20
5.40193615726087
 30
0.0
 10
14.48117331506338
 20
5.40193615726087
 30
0.0
 10
14.47729219968079
 20
5.394527856227163
 30
0.0
 10
14.47729219968079
 20
5.394527856227163
 30
0.0
 10
14.47729219968079
 20
5.394527856227163
 30
0.0
 10
14.46635402151509
 20
5.383239785551275
 30
0.0
 10
14.46635402151509
 20
5.383239785551275
 30
0.0
 10
14.46635402151509
 20
5.383239785551275
 30
0.0
 10
14.46247290613259
 20
5.375831484517561
 30
0.0
 10
14.46247290613259
 20
5.375831484517561
 30
0.0
 10
14.46247290613259
 20
5.375831484517561
 30
0.0
 10
14.44765899554598
 20
5.360662298459068
 30
0.0
 10
14.44765899554598
 20
5.360662298459068
 30
0.0
 10
14.44765899554598
 20
5.360662298459068
 30
0.0
 10
14.44377788016338
 20
5.353253997425369
 30
0.0
 10
14.44377788016338
 20
5.353253997425369
 30
0.0
 10
14.44377788016338
 20
5.353253997425369
 30
0.0
 10
14.43637092487009
 20
5.349725466033824
 30
0.0
 10
14.43637092487009
 20
5.349725466033824
 30
0.0
 10
14.43637092487009
 20
5.349725466033824
 30
0.0
 10
14.43248980948748
 20
5.342317165000117
 30
0.0
 10
14.43248980948748
 20
5.342317165000117
 30
0.0
 10
14.43248980948748
 20
5.342317165000117
 30
0.0
 10
14.42895858661508
 20
5.338437395357935
 30
0.0
 10
14.42895858661508
 20
5.338437395357935
 30
0.0
 10
14.42895858661508
 20
5.338437395357935
 30
0.0
 10
14.42155163132179
 20
5.33455627997533
 30
0.0
 10
14.42155163132179
 20
5.33455627997533
 30
0.0
 10
14.42155163132179
 20
5.33455627997533
 30
0.0
 10
14.41767051593918
 20
5.327147978941624
 30
0.0
 10
14.41767051593918
 20
5.327147978941624
 30
0.0
 10
14.41767051593918
 20
5.327147978941624
 30
0.0
 10
14.41026356064589
 20
5.323620793290515
 30
0.0
 10
14.41026356064589
 20
5.323620793290515
 30
0.0
 10
14.41026356064589
 20
5.323620793290515
 30
0.0
 10
14.40638244526329
 20
5.316212492256809
 30
0.0
 10
14.40638244526329
 20
5.316212492256809
 30
0.0
 10
14.40638244526329
 20
5.316212492256809
 30
0.0
 10
14.40285660535257
 20
5.312331376874205
 30
0.0
 10
14.40285660535257
 20
5.312331376874205
 30
0.0
 10
14.40285660535257
 20
5.312331376874205
 30
0.0
 10
14.39509437458738
 20
5.3084502614916
 30
0.0
 10
14.39509437458738
 20
5.3084502614916
 30
0.0
 10
14.39509437458738
 20
5.3084502614916
 30
0.0
 10
14.39156853467668
 20
5.30104196045788
 30
0.0
 10
14.39156853467668
 20
5.30104196045788
 30
0.0
 10
14.39156853467668
 20
5.30104196045788
 30
0.0
 10
14.3841561964218
 20
5.297514774806771
 30
0.0
 10
14.3841561964218
 20
5.297514774806771
 30
0.0
 10
14.3841561964218
 20
5.297514774806771
 30
0.0
 10
14.38027508103919
 20
5.293633659424173
 30
0.0
 10
14.38027508103919
 20
5.293633659424173
 30
0.0
 10
14.38027508103919
 20
5.293633659424173
 30
0.0
 10
14.37286812574588
 20
5.289753889781998
 30
0.0
 10
14.37286812574588
 20
5.289753889781998
 30
0.0
 10
14.37286812574588
 20
5.289753889781998
 30
0.0
 10
14.36158005506998
 20
5.278817057356761
 30
0.0
 10
14.36158005506998
 20
5.278817057356761
 30
0.0
 10
14.36158005506998
 20
5.278817057356761
 30
0.0
 10
14.35417309977667
 20
5.274937287714578
 30
0.0
 10
14.35417309977667
 20
5.274937287714578
 30
0.0
 10
14.35417309977667
 20
5.274937287714578
 30
0.0
 10
14.35029198439407
 20
5.271056172331974
 30
0.0
 10
14.35029198439407
 20
5.271056172331974
 30
0.0
 10
14.35029198439407
 20
5.271056172331974
 30
0.0
 10
14.34288502910078
 20
5.267528986680865
 30
0.0
 10
14.34288502910078
 20
5.267528986680865
 30
0.0
 10
14.34288502910078
 20
5.267528986680865
 30
0.0
 10
14.33547269084579
 20
5.263647871298267
 30
0.0
 10
14.33547269084579
 20
5.263647871298267
 30
0.0
 10
14.33547269084579
 20
5.263647871298267
 30
0.0
 10
14.33194685093508
 20
5.256239570264554
 30
0.0
 10
14.33194685093508
 20
5.256239570264554
 30
0.0
 10
14.33194685093508
 20
5.256239570264554
 30
0.0
 10
14.32418462016989
 20
5.252358454881949
 30
0.0
 10
14.32418462016989
 20
5.252358454881949
 30
0.0
 10
14.32418462016989
 20
5.252358454881949
 30
0.0
 10
14.31677766487666
 20
5.248831269230848
 30
0.0
 10
14.31677766487666
 20
5.248831269230848
 30
0.0
 10
14.31677766487666
 20
5.248831269230848
 30
0.0
 10
14.31325182496597
 20
5.244950153848243
 30
0.0
 10
14.31325182496597
 20
5.244950153848243
 30
0.0
 10
14.31325182496597
 20
5.244950153848243
 30
0.0
 10
14.29808263890747
 20
5.23754185281453
 30
0.0
 10
14.29808263890747
 20
5.23754185281453
 30
0.0
 10
14.29808263890747
 20
5.23754185281453
 30
0.0
 10
14.29455141603507
 20
5.234014667163421
 30
0.0
 10
14.29455141603507
 20
5.234014667163421
 30
0.0
 10
14.29455141603507
 20
5.234014667163421
 30
0.0
 10
14.26456831938998
 20
5.218845481104921
 30
0.0
 10
14.26456831938998
 20
5.218845481104921
 30
0.0
 10
14.26456831938998
 20
5.218845481104921
 30
0.0
 10
14.26068720400738
 20
5.21531694971339
 30
0.0
 10
14.26068720400738
 20
5.21531694971339
 30
0.0
 10
14.26068720400738
 20
5.21531694971339
 30
0.0
 10
14.25327486575247
 20
5.21531694971339
 30
0.0
 10
14.25327486575247
 20
5.21531694971339
 30
0.0
 10
14.25327486575247
 20
5.21531694971339
 30
0.0
 10
14.24586791045918
 20
5.211437180071222
 30
0.0
 10
14.24586791045918
 20
5.211437180071222
 30
0.0
 10
14.24586791045918
 20
5.211437180071222
 30
0.0
 10
14.23846095516587
 20
5.207908648679691
 30
0.0
 10
14.23846095516587
 20
5.207908648679691
 30
0.0
 10
14.23846095516587
 20
5.207908648679691
 30
0.0
 10
14.23105399987258
 20
5.204028879037508
 30
0.0
 10
14.23105399987258
 20
5.204028879037508
 30
0.0
 10
14.23105399987258
 20
5.204028879037508
 30
0.0
 10
14.22717288448997
 20
5.200147763654904
 30
0.0
 10
14.22717288448997
 20
5.200147763654904
 30
0.0
 10
14.22717288448997
 20
5.200147763654904
 30
0.0
 10
14.21976592919668
 20
5.200147763654904
 30
0.0
 10
14.21976592919668
 20
5.200147763654904
 30
0.0
 10
14.21976592919668
 20
5.200147763654904
 30
0.0
 10
14.20494663564838
 20
5.192739462621197
 30
0.0
 10
14.20494663564838
 20
5.192739462621197
 30
0.0
 10
14.18272038680689
 20
5.188859692979015
 30
0.0
 10
14.15449751863629
 20
5.172278825215833
 30
0.0
 10
14.12627465046567
 20
5.170514559520071
 30
0.0
 10
14.12627465046567
 20
5.170514559520071
 30
0.0
 10
14.11886769517238
 20
5.170514559520071
 30
0.0
 10
14.11886769517238
 20
5.170514559520071
 30
0.0
 10
14.11886769517238
 20
5.170514559520071
 30
0.0
 10
14.11146073987916
 20
5.166633444137453
 30
0.0
 10
14.11146073987916
 20
5.166633444137453
 30
0.0
 10
14.08323787170859
 20
5.162401090504211
 30
0.0
 10
14.05042872017328
 20
5.158167391130547
 30
0.0
 10
14.02185595949247
 20
5.155345373461578
 30
0.0
 10
14.02185595949247
 20
5.155345373461578
 30
0.0
 10
13.99186747988567
 20
5.155345373461578
 30
0.0
 10
13.99186747988567
 20
5.155345373461578
 30
0.0
  0
POLYLINE
  5
B4E
330
1F
100
AcDbEntity
  8
Livello 1
100
AcDb2dPolyline
 66
     1
 10
0.0
 20
0.0
 30
0.0
  0
VERTEX
  5
B4F
330
B4E
100
AcDbEntity
  8
Livello 1
100
AcDbVertex
100
AcDb2dVertex
 10
13.62978256142429
 20
5.215211981960329
 30
0.0
  0
VERTEX
  5
B50
330
B4E
100
AcDbEntity
  8
Livello 1
100
AcDbVertex
100
AcDb2dVertex
 10
13.62978256142429
 20
5.715450612341989
 30
0.0
  0
SEQEND
  5
B51
330
B4E
100
AcDbEntity
  8
Livello 1
  0
POLYLINE
  5
B52
330
1F
100
AcDbEntity
  8
Livello 1
100
AcDb2dPolyline
 66
     1
 10
0.0
 20
0.0
 30
0.0
  0
VERTEX
  5
B53
330
B52
100
AcDbEntity
  8
Livello 1
100
AcDbVertex
100
AcDb2dVertex
 10
13.62978256142429
 20
5.398304003856694
 30
0.0
  0
VERTEX
  5
B54
330
B52
100
AcDbEntity
  8
Livello 1
100
AcDbVertex
100
AcDb2dVertex
 10
12.75806574442207
 20
5.398304003856694
 30
0.0
  0
SEQEND
  5
B55
330
B52
100
AcDbEntity
  8
Livello 1
  0
POLYLINE
  5
B56
330
1F
100
AcDbEntity
  8
Livello 1
100
AcDb2dPolyline
 66
     1
 10
0.0
 20
0.0
 30
0.0
  0
VERTEX
  5
B57
330
B56
100
AcDbEntity
  8
Livello 1
100
AcDbVertex
100
AcDb2dVertex
 10
13.62978256142429
 20
7.749743161390583
 30
0.0
  0
VERTEX
  5
B58
330
B56
100
AcDbEntity
  8
Livello 1
100
AcDbVertex
100
AcDb2dVertex
 10
12.75806574442207
 20
7.749743161390583
 30
0.0
  0
SEQEND
  5
B59
330
B56
100
AcDbEntity
  8
Livello 1
  0
ENDSEC
  0
SECTION
  2
OBJECTS
  0
DICTIONARY
  5
C
330
0
100
AcDbDictionary
281
     1
  3
ACAD_CIP_PREVIOUS_PRODUCT_INFO
350
216
  3
ACAD_COLOR
350
6B
  3
ACAD_DETAILVIEWSTYLE
350
21B
  3
ACAD_GROUP
350
D
  3
ACAD_LAYOUT
350
1A
  3
ACAD_MATERIAL
350
6A
  3
ACAD_MLEADERSTYLE
350
12D
  3
ACAD_MLINESTYLE
350
17
  3
ACAD_PLOTSETTINGS
350
19
  3
ACAD_PLOTSTYLENAME
350
E
  3
ACAD_SCALELIST
350
10C
  3
ACAD_SECTIONVIEWSTYLE
350
219
  3
ACAD_TABLESTYLE
350
7E
  3
ACAD_VISUALSTYLE
350
EF
  3
ACDB_RECOMPOSE_DATA
350
B5B
  3
AcDbVariableDictionary
350
5E
  3
AcDsDecomposeData
350
B61
  0
DICTIONARY
  5
1FF
330
2
100
AcDbDictionary
280
     1
281
     1
  3
ACAD_LAYERSTATES
360
200
  0
DICTIONARY
  5
13C
330
10
100
AcDbDictionary
280
     1
281
     1
  0
DICTIONARY
  5
1CE
330
1F
100
AcDbDictionary
280
     1
281
     1
  0
XRECORD
  5
216
102
{ACAD_REACTORS
330
C
102
}
330
C
100
AcDbXrecord
280
     1
300
ACD
300
2020
300

  0
DICTIONARY
  5
6B
102
{ACAD_REACTORS
330
C
102
}
330
C
100
AcDbDictionary
281
     1
  0
DICTIONARY
  5
21B
102
{ACAD_REACTORS
330
C
102
}
330
C
100
AcDbDictionary
281
     1
  3
Imperial24
350
28F
  3
Metric50
350
21C
  0
DICTIONARY
  5
D
102
{ACAD_REACTORS
330
C
102
}
330
C
100
AcDbDictionary
281
     1
  0
DICTIONARY
  5
1A
102
{ACAD_REACTORS
330
C
102
}
330
C
100
AcDbDictionary
281
     1
  3
Layout1
350
D3
  3
Layout2
350
D7
  3
Model
350
22
  0
DICTIONARY
  5
6A
102
{ACAD_REACTORS
330
C
102
}
330
C
100
AcDbDictionary
281
     1
  3
ByBlock
350
ED
  3
ByLayer
350
EC
  3
Global
350
EE
  0
DICTIONARY
  5
12D
102
{ACAD_REACTORS
330
C
102
}
330
C
100
AcDbDictionary
281
     1
  3
Annotativa
350
13B
  3
Standard
350
12E
  0
DICTIONARY
  5
17
102
{ACAD_REACTORS
330
C
102
}
330
C
100
AcDbDictionary
281
     1
  3
Standard
350
18
  0
DICTIONARY
  5
19
102
{ACAD_REACTORS
330
C
102
}
330
C
100
AcDbDictionary
281
     1
  0
ACDBDICTIONARYWDFLT
  5
E
102
{ACAD_REACTORS
330
C
102
}
330
C
100
AcDbDictionary
281
     1
  3
Normal
350
F
100
AcDbDictionaryWithDefault
340
F
  0
DICTIONARY
  5
10C
102
{ACAD_REACTORS
330
C
102
}
330
C
100
AcDbDictionary
281
     1
  3
A0
350
10D
  3
A1
350
1BE
  3
A2
350
1BF
  3
A3
350
1C0
  3
A4
350
1C1
  3
A5
350
1C2
  3
A6
350
1C3
  3
A7
350
1C4
  3
A8
350
1C5
  3
A9
350
1C6
  3
B0
350
1C7
  3
B1
350
1C8
  3
B2
350
1C9
  3
B3
350
1CA
  3
B4
350
1CB
  3
B5
350
1CC
  3
B6
350
1CD
  0
DICTIONARY
  5
219
102
{ACAD_REACTORS
330
C
102
}
330
C
100
AcDbDictionary
281
     1
  3
Imperial24
350
28E
  3
Metric50
350
21A
  0
DICTIONARY
  5
7E
102
{ACAD_REACTORS
330
C
102
}
330
C
100
AcDbDictionary
281
     1
  3
Standard
350
7F
  0
DICTIONARY
  5
EF
102
{ACAD_REACTORS
330
C
102
}
330
C
100
AcDbDictionary
281
     1
  3
2dWireframe
350
F5
  3
Basic
350
F4
  3
Brighten
350
FB
  3
ColorChange
350
FF
  3
Conceptual
350
F8
  3
Dim
350
FA
  3
EdgeColorOff
350
1E6
  3
Facepattern
350
FE
  3
Flat
350
F0
  3
FlatWithEdges
350
F1
  3
Gouraud
350
F2
  3
GouraudWithEdges
350
F3
  3
Hidden
350
F7
  3
JitterOff
350
1E4
  3
Linepattern
350
FD
  3
OverhangOff
350
1E5
  3
Realistic
350
F9
  3
Shaded
350
1F3
  3
Shaded with edges
350
1F2
  3
Shades of Gray
350
1EF
  3
Sketchy
350
1F0
  3
Thicken
350
FC
  3
Wireframe
350
F6
  3
X-Ray
350
1F1
  0
XRECORD
  5
B5B
102
{ACAD_REACTORS
330
C
102
}
330
C
100
AcDbXrecord
280
     1
 90
        1
330
7F
  0
DICTIONARY
  5
5E
102
{ACAD_REACTORS
330
C
102
}
330
C
100
AcDbDictionary
281
     1
  3
CANNOSCALE
350
146
  3
CENTEREXE
350
259
  3
CENTERLTYPEFILE
350
25A
  3
CMLEADERSTYLE
350
145
  3
CTABLESTYLE
350
84
  3
CVIEWDETAILSTYLE
350
227
  3
CVIEWSECTIONSTYLE
350
228
  3
DIMASSOC
350
5F
  3
HIDETEXT
350
63
  3
LAYEREVAL
350
1AE
  3
LAYERNOTIFY
350
1AF
  0
DICTIONARY
  5
B61
102
{ACAD_REACTORS
330
C
102
}
330
C
100
AcDbDictionary
281
     1
  3
AcDsRecords
350
B63
  3
AcDsSchemas
350
B62
1001
ACAD
1070
     2
  0
DICTIONARY
  5
200
102
{ACAD_REACTORS
330
1FF
102
}
330
1FF
100
AcDbDictionary
281
     1
  0
ACDBDETAILVIEWSTYLE
  5
28F
102
{ACAD_XDICTIONARY
360
B6A
102
}
102
{ACAD_REACTORS
330
21B
102
}
330
21B
100
AcDbModelDocViewStyle
 70
     0
  3
Imperial24
290
     0
100
AcDbDetailViewStyle
 70
     0
 71
     0
 90
        3
 71
     1
340
11
 62
   256
 40
0.24
340
0
 62
   256
 40
0.24
300

 40
0.36
280
     3
 71
     2
340
16
 90
       25
 62
   256
 71
     3
340
11
 62
   256
 40
0.24
 90
        1
 40
0.75
 90
        1
300
%<\AcVar ViewType \f "%tc1">% %<\AcVar ViewDetailId>%\PSCALA %<\AcVar ViewScale \f "%sn">%
 71
     4
340
16
 90
       25
 62
   256
340
16
 90
       25
 62
   256
280
     0
  0
ACDBDETAILVIEWSTYLE
  5
21C
102
{ACAD_XDICTIONARY
360
B66
102
}
102
{ACAD_REACTORS
330
21B
102
}
330
21B
100
AcDbModelDocViewStyle
 70
     0
  3
Metric50
290
     0
100
AcDbDetailViewStyle
 70
     0
 71
     0
 90
        3
 71
     1
340
11
 62
   256
 40
5.0
340
0
 62
   256
 40
5.0
300

 40
0.0
280
     1
 71
     2
340
16
 90
       25
 62
   256
 71
     3
340
11
 62
   256
 40
5.0
 90
        0
 40
15.0
 90
        1
300
%<\AcVar ViewDetailId>% (%<\AcVar ViewScale \f "%sn">%)
 71
     4
340
16
 90
       25
 62
   256
340
16
 90
       25
 62
   256
280
     0
  0
LAYOUT
  5
D3
102
{ACAD_REACTORS
330
1A
102
}
330
1A
100
AcDbPlotSettings
  1

  2
C:\Documents and Settings\basas\Application Data\Autodesk\AutoCAD 2005\R16.1\enu\plotters\Default Windows System Printer.pc3
  4

  6

 40
0.0
 41
0.0
 42
0.0
 43
0.0
 44
0.0
 45
0.0
 46
0.0
 47
0.0
 48
0.0
 49
0.0
140
0.0
141
0.0
142
1.0
143
1.0
 70
   688
 72
     0
 73
     0
 74
     5
  7

 75
    16
147
1.0
 76
     0
 77
     2
 78
   300
148
0.0
149
0.0
100
AcDbLayout
  1
Layout1
 70
     1
 71
     1
 10
0.0
 20
0.0
 11
12.0
 21
9.0
 12
0.0
 22
0.0
 32
0.0
 14
0.0
 24
0.0
 34
0.0
 15
0.0
 25
0.0
 35
0.0
146
0.0
 13
0.0
 23
0.0
 33
0.0
 16
1.0
 26
0.0
 36
0.0
 17
0.0
 27
1.0
 37
0.0
 76
     0
330
D2
  0
LAYOUT
  5
D7
102
{ACAD_REACTORS
330
1A
102
}
330
1A
100
AcDbPlotSettings
  1

  2
C:\Documents and Settings\basas\Application Data\Autodesk\AutoCAD 2005\R16.1\enu\plotters\Default Windows System Printer.pc3
  4

  6

 40
0.0
 41
0.0
 42
0.0
 43
0.0
 44
0.0
 45
0.0
 46
0.0
 47
0.0
 48
0.0
 49
0.0
140
0.0
141
0.0
142
1.0
143
1.0
 70
   688
 72
     0
 73
     0
 74
     5
  7

 75
    16
147
1.0
 76
     0
 77
     2
 78
   300
148
0.0
149
0.0
100
AcDbLayout
  1
Layout2
 70
     1
 71
     2
 10
0.0
 20
0.0
 11
12.0
 21
9.0
 12
0.0
 22
0.0
 32
0.0
 14
0.0
 24
0.0
 34
0.0
 15
0.0
 25
0.0
 35
0.0
146
0.0
 13
0.0
 23
0.0
 33
0.0
 16
1.0
 26
0.0
 36
0.0
 17
0.0
 27
1.0
 37
0.0
 76
     0
330
D6
  0
LAYOUT
  5
22
102
{ACAD_XDICTIONARY
360
205
102
}
102
{ACAD_REACTORS
330
1A
102
}
330
1A
100
AcDbPlotSettings
  1

  2
none_device
  4
ISO_A4_(210.00_x_297.00_MM)
  6

 40
7.5
 41
20.0
 42
7.5
 43
20.0
 44
210.0
 45
297.0
 46
11.54999923706054
 47
-13.65000009536743
 48
0.0
 49
0.0
140
0.0
141
0.0
142
1.0
143
8.704084754739808
 70
 11952
 72
     1
 73
     0
 74
     0
  7

 75
     0
147
0.1148885871608098
 76
     0
 77
     2
 78
   300
148
0.0
149
0.0
100
AcDbLayout
  1
Model
 70
     1
 71
     0
 10
0.0
 20
0.0
 11
12.0
 21
9.0
 12
0.0
 22
0.0
 32
0.0
 14
0.0
 24
0.0
 34
0.0
 15
0.0
 25
0.0
 35
0.0
146
0.0
 13
0.0
 23
0.0
 33
0.0
 16
1.0
 26
0.0
 36
0.0
 17
0.0
 27
1.0
 37
0.0
 76
     0
330
1F
331
EA
1001
ACAD_PSEXT
1000
None
1000
None
1000
Not applicable
1000
The layout will not be plotted unless a new plotter configuration name is selected.
1070
     0
  0
MATERIAL
  5
ED
102
{ACAD_XDICTIONARY
360
1F9
102
}
102
{ACAD_REACTORS
330
6A
102
}
330
6A
100
AcDbMaterial
  1
ByBlock
 94
       63
  0
MATERIAL
  5
EC
102
{ACAD_XDICTIONARY
360
1F7
102
}
102
{ACAD_REACTORS
330
6A
102
}
330
6A
100
AcDbMaterial
  1
ByLayer
 94
       63
  0
MATERIAL
  5
EE
102
{ACAD_XDICTIONARY
360
173
102
}
102
{ACAD_REACTORS
330
6A
102
}
330
6A
100
AcDbMaterial
  1
Global
 43
0.0007999999797903
 43
0.0
 43
0.0
 43
0.0
 43
0.0
 43
0.0007999999797903
 43
0.0
 43
0.0
 43
0.0
 43
0.0
 43
1.0
 43
0.0
 43
0.0
 43
0.0
 43
0.0
 43
1.0
 49
0.0007999999797903
 49
0.0
 49
0.0
 49
0.0
 49
0.0
 49
0.0007999999797903
 49
0.0
 49
0.0
 49
0.0
 49
0.0
 49
1.0
 49
0.0
 49
0.0
 49
0.0
 49
0.0
 49
1.0
142
0.0007999999797903
142
0.0
142
0.0
142
0.0
142
0.0
142
0.0007999999797903
142
0.0
142
0.0
142
0.0
142
0.0
142
1.0
142
0.0
142
0.0
142
0.0
142
0.0
142
1.0
144
0.0007999999797903
144
0.0
144
0.0
144
0.0
144
0.0
144
0.0007999999797903
144
0.0
144
0.0
144
0.0
144
0.0
144
1.0
144
0.0
144
0.0
144
0.0
144
0.0
144
1.0
 94
       63
1001
ACAD
1070
    -1
1070
     3
1070
     0
1000

1071
        0
1070
     0
  0
MLEADERSTYLE
  5
13B
102
{ACAD_REACTORS
330
12D
102
}
330
12D
100
AcDbMLeaderStyle
179
     2
170
     2
171
     1
172
     0
 90
        2
 40
0.0
 41
0.0
173
     1
 91
-1056964608
340
14
 92
       -2
290
     1
 42
2.0
291
     1
 43
8.0
  3
Standard
 44
4.0
300

342
11
174
     1
178
     1
175
     1
176
     0
 93
-1056964608
 45
4.0
292
     0
297
     0
 46
4.0
 94
-1056964608
 47
1.0
 49
1.0
140
1.0
293
     1
141
0.0
294
     1
177
     0
142
1.0
295
     0
296
     1
143
3.75
271
     0
272
     9
273
     9
298
     0
  0
MLEADERSTYLE
  5
12E
102
{ACAD_REACTORS
330
12D
102
}
330
12D
100
AcDbMLeaderStyle
179
     2
170
     2
171
     1
172
     0
 90
        2
 40
0.0
 41
0.0
173
     1
 91
-1056964608
340
14
 92
       -2
290
     1
 42
2.0
291
     1
 43
8.0
  3
Standard
 44
4.0
300

342
11
174
     1
178
     1
175
     1
176
     0
 93
-1056964608
 45
4.0
292
     0
297
     0
 46
4.0
 94
-1056964608
 47
1.0
 49
1.0
140
1.0
293
     1
141
0.0
294
     1
177
     0
142
1.0
295
     0
296
     0
143
3.75
271
     0
272
     9
273
     9
298
     0
  0
MLINESTYLE
  5
18
102
{ACAD_REACTORS
330
17
102
}
330
17
100
AcDbMlineStyle
  2
STANDARD
 70
     0
  3

 62
   256
 51
90.0
 52
90.0
 71
     2
 49
0.5
 62
   256
  6
BYLAYER
 49
-0.5
 62
   256
  6
BYLAYER
  0
ACDBPLACEHOLDER
  5
F
102
{ACAD_REACTORS
330
E
102
}
330
E
  0
SCALE
  5
10D
102
{ACAD_REACTORS
330
10C
102
}
330
10C
100
AcDbScale
 70
     0
300
1:1
140
1.0
141
1.0
290
     1
  0
SCALE
  5
1BE
102
{ACAD_REACTORS
330
10C
102
}
330
10C
100
AcDbScale
 70
     0
300
1:2
140
1.0
141
2.0
290
     0
  0
SCALE
  5
1BF
102
{ACAD_REACTORS
330
10C
102
}
330
10C
100
AcDbScale
 70
     0
300
1:4
140
1.0
141
4.0
290
     0
  0
SCALE
  5
1C0
102
{ACAD_REACTORS
330
10C
102
}
330
10C
100
AcDbScale
 70
     0
300
1:5
140
1.0
141
5.0
290
     0
  0
SCALE
  5
1C1
102
{ACAD_REACTORS
330
10C
102
}
330
10C
100
AcDbScale
 70
     0
300
1:8
140
1.0
141
8.0
290
     0
  0
SCALE
  5
1C2
102
{ACAD_REACTORS
330
10C
102
}
330
10C
100
AcDbScale
 70
     0
300
1:10
140
1.0
141
10.0
290
     0
  0
SCALE
  5
1C3
102
{ACAD_REACTORS
330
10C
102
}
330
10C
100
AcDbScale
 70
     0
300
1:16
140
1.0
141
16.0
290
     0
  0
SCALE
  5
1C4
102
{ACAD_REACTORS
330
10C
102
}
330
10C
100
AcDbScale
 70
     0
300
1:20
140
1.0
141
20.0
290
     0
  0
SCALE
  5
1C5
102
{ACAD_REACTORS
330
10C
102
}
330
10C
100
AcDbScale
 70
     0
300
1:30
140
1.0
141
30.0
290
     0
  0
SCALE
  5
1C6
102
{ACAD_REACTORS
330
10C
102
}
330
10C
100
AcDbScale
 70
     0
300
1:40
140
1.0
141
40.0
290
     0
  0
SCALE
  5
1C7
102
{ACAD_REACTORS
330
10C
102
}
330
10C
100
AcDbScale
 70
     0
300
1:50
140
1.0
141
50.0
290
     0
  0
SCALE
  5
1C8
102
{ACAD_REACTORS
330
10C
102
}
330
10C
100
AcDbScale
 70
     0
300
1:100
140
1.0
141
100.0
290
     0
  0
SCALE
  5
1C9
102
{ACAD_REACTORS
330
10C
102
}
330
10C
100
AcDbScale
 70
     0
300
2:1
140
2.0
141
1.0
290
     0
  0
SCALE
  5
1CA
102
{ACAD_REACTORS
330
10C
102
}
330
10C
100
AcDbScale
 70
     0
300
4:1
140
4.0
141
1.0
290
     0
  0
SCALE
  5
1CB
102
{ACAD_REACTORS
330
10C
102
}
330
10C
100
AcDbScale
 70
     0
300
8:1
140
8.0
141
1.0
290
     0
  0
SCALE
  5
1CC
102
{ACAD_REACTORS
330
10C
102
}
330
10C
100
AcDbScale
 70
     0
300
10:1
140
10.0
141
1.0
290
     0
  0
SCALE
  5
1CD
102
{ACAD_REACTORS
330
10C
102
}
330
10C
100
AcDbScale
 70
     0
300
100:1
140
100.0
141
1.0
290
     0
  0
ACDBSECTIONVIEWSTYLE
  5
28E
102
{ACAD_XDICTIONARY
360
B68
102
}
102
{ACAD_REACTORS
330
219
102
}
330
219
100
AcDbModelDocViewStyle
 70
     0
  3
Imperial24
290
     0
100
AcDbSectionViewStyle
 70
     0
 71
     0
 90
       78
 71
     1
340
11
 62
   256
 40
0.24
340
0
340
0
 62
   256
 40
0.24
300
I, O, Q, S, X, Z
 40
0.48
 90
        3
 40
0.18
 90
        1
 71
     2
340
16
 90
       25
 62
   256
340
16
 90
       50
 62
   256
 40
0.24
 40
0.0
 40
0.24
 71
     3
340
11
 62
   256
 40
0.24
 90
        1
 40
0.75
 90
        1
300
%<\AcVar ViewType \f "%tc1">% %<\AcVar ViewSectionStartId>%-%<\AcVar ViewSectionEndId>%\PSCALA %<\AcVar ViewScale \f "%sn">%
 71
     4
 62
   256
 62
   257
300
ANSI31
 40
1.0
 90
        0
290
     0
290
     0
 90
        6
 40
0.0
 40
1.570796326794896
 40
0.2617993877991494
 40
1.308996938995747
 40
-0.2617993877991494
 40
1.832595714594046
  0
ACDBSECTIONVIEWSTYLE
  5
21A
102
{ACAD_XDICTIONARY
360
B64
102
}
102
{ACAD_REACTORS
330
219
102
}
330
219
100
AcDbModelDocViewStyle
 70
     0
  3
Metric50
290
     0
100
AcDbSectionViewStyle
 70
     0
 71
     0
 90
      102
 71
     1
340
11
 62
   256
 40
5.0
340
0
340
0
 62
   256
 40
5.0
300
I, O, Q, S, X, Z
 40
10.0
 90
        0
 40
2.5
 90
        0
 71
     2
340
16
 90
       25
 62
   256
340
16
 90
       50
 62
   256
 40
5.0
 40
2.5
 40
5.0
 71
     3
340
11
 62
   256
 40
5.0
 90
        0
 40
15.0
 90
        1
300
%<\AcVar ViewSectionStartId>%-%<\AcVar ViewSectionEndId>% (%<\AcVar ViewScale \f "%sn">%)
 71
     4
 62
   256
 62
   257
300
ANSI31
 40
1.0
 90
        0
290
     0
290
     0
 90
        6
 40
0.0
 40
1.570796326794896
 40
0.2617993877991494
 40
1.308996938995747
 40
-0.2617993877991494
 40
1.832595714594046
  0
TABLESTYLE
  5
7F
102
{ACAD_XDICTIONARY
360
162
102
}
102
{ACAD_REACTORS
330
7E
102
}
330
7E
100
AcDbTableStyle
280
     0
  3
Standard
 70
     0
 71
     0
 40
1.5
 41
1.5
280
     0
281
     0
  7
Standard
140
4.5
170
     2
 62
     0
 63
     7
283
     0
 90
      512
 91
        0
  1

274
    -2
284
     1
 64
     0
275
    -2
285
     1
 65
     0
276
    -2
286
     1
 66
     0
277
    -2
287
     1
 67
     0
278
    -2
288
     1
 68
     0
279
    -2
289
     1
 69
     0
  7
Standard
140
6.0
170
     5
 62
     0
 63
     7
283
     0
 90
      512
 91
        0
  1

274
    -2
284
     1
 64
     0
275
    -2
285
     1
 65
     0
276
    -2
286
     1
 66
     0
277
    -2
287
     1
 67
     0
278
    -2
288
     1
 68
     0
279
    -2
289
     1
 69
     0
  7
Standard
140
4.5
170
     5
 62
     0
 63
     7
283
     0
 90
      512
 91
        0
  1

274
    -2
284
     1
 64
     0
275
    -2
285
     1
 65
     0
276
    -2
286
     1
 66
     0
277
    -2
287
     1
 67
     0
278
    -2
288
     1
 68
     0
279
    -2
289
     1
 69
     0
  0
VISUALSTYLE
  5
F5
102
{ACAD_REACTORS
330
EF
102
}
330
EF
100
AcDbVisualStyle
  2
2dWireframe
 70
     4
177
     3
291
     0
 70
    58
 90
        0
176
     1
 90
        2
176
     1
 90
        1
176
     1
 90
        0
176
     1
 40
0.6
176
     1
 40
30.0
176
     1
 62
     7
420
 16777215
176
     1
 90
        1
176
     1
 90
        4
176
     1
 62
     7
176
     1
 62
   257
176
     1
 90
        1
176
     1
 90
        1
176
     1
 40
1.0
176
     1
 90
        0
176
     1
 62
   257
176
     1
 40
1.0
176
     1
 90
        1
176
     1
 90
        6
176
     1
 90
        2
176
     1
 62
     7
176
     1
 90
        5
176
     1
 90
        0
176
     1
 90
        0
176
     1
290
     0
176
     1
 90
        1
176
     1
 40
0.0
176
     1
 90
        0
176
     1
290
     1
176
     1
290
     1
176
     1
290
     0
176
     1
290
     0
176
     1
290
     0
176
     1
290
     0
176
     1
290
     0
176
     1
290
     0
176
     1
290
     0
176
     1
 90
       50
176
     1
 40
0.0
176
     1
 40
1.0
176
     1
 90
        0
176
     1
 62
    18
420
        0
176
     1
 90
       50
176
     1
 90
        3
176
     1
 62
     5
420
      255
176
     1
290
     0
176
     1
 90
       50
176
     1
 90
       50
176
     1
 90
       50
176
     1
290
     0
176
     1
 90
       50
176
     1
 62
   256
176
     0
 40
1.0
176
     0
 90
        2
176
     1
  1
strokes_ogs.tif
176
     1
290
     0
176
     1
 40
1.0
176
     1
 40
1.0
176
     1
1001
ACAD
1000
AcDbSavedByObjectVersion
1070
     0
  0
VISUALSTYLE
  5
F4
102
{ACAD_REACTORS
330
EF
102
}
330
EF
100
AcDbVisualStyle
  2
Basic
 70
     7
177
     3
291
     1
 70
    58
 90
        1
176
     1
 90
        0
176
     1
 90
        1
176
     1
 90
        0
176
     1
 40
0.6
176
     1
 40
30.0
176
     1
 62
     7
420
 16777215
176
     1
 90
        0
176
     1
 90
        4
176
     1
 62
     7
176
     1
 62
   257
176
     1
 90
        1
176
     1
 90
        1
176
     1
 40
1.0
176
     1
 90
        8
176
     1
 62
     7
176
     1
 40
1.0
176
     1
 90
        1
176
     1
 90
        6
176
     1
 90
        2
176
     1
 62
     7
176
     1
 90
        5
176
     1
 90
        0
176
     1
 90
        0
176
     1
290
     0
176
     1
 90
        1
176
     1
 40
0.0
176
     1
 90
        0
176
     1
290
     0
176
     1
290
     1
176
     1
290
     1
176
     1
290
     0
176
     1
290
     0
176
     1
290
     0
176
     1
290
     0
176
     1
290
     0
176
     1
290
     0
176
     1
 90
       50
176
     1
 40
0.0
176
     1
 40
1.0
176
     1
 90
        0
176
     1
 62
    18
420
        0
176
     1
 90
       50
176
     1
 90
        3
176
     1
 62
     5
420
      255
176
     1
290
     0
176
     1
 90
       50
176
     1
 90
       50
176
     1
 90
       50
176
     1
290
     0
176
     1
 90
       50
176
     1
 62
   256
176
     0
 40
1.0
176
     0
 90
        2
176
     1
  1
strokes_ogs.tif
176
     1
290
     0
176
     1
 40
1.0
176
     1
 40
1.0
176
     1
1001
ACAD
1000
AcDbSavedByObjectVersion
1070
     0
  0
VISUALSTYLE
  5
FB
102
{ACAD_REACTORS
330
EF
102
}
330
EF
100
AcDbVisualStyle
  2
Brighten
 70
    12
177
     3
291
     1
 70
    58
 90
        2
176
     1
 90
        2
176
     1
 90
        1
176
     1
 90
        0
176
     1
 40
0.6
176
     1
 40
30.0
176
     1
 62
     7
420
 16777215
176
     1
 90
        1
176
     1
 90
        4
176
     1
 62
     7
176
     1
 62
   257
176
     1
 90
        1
176
     1
 90
        1
176
     1
 40
1.0
176
     1
 90
        8
176
     1
 62
     7
176
     1
 40
1.0
176
     1
 90
        1
176
     1
 90
        6
176
     1
 90
        2
176
     1
 62
     7
176
     1
 90
        5
176
     1
 90
        0
176
     1
 90
        0
176
     1
290
     0
176
     1
 90
        1
176
     1
 40
50.0
176
     1
 90
        0
176
     1
290
     0
176
     1
290
     1
176
     1
290
     1
176
     1
290
     0
176
     1
290
     0
176
     1
290
     0
176
     1
290
     0
176
     1
290
     0
176
     1
290
     0
176
     1
 90
       50
176
     1
 40
0.0
176
     1
 40
1.0
176
     1
 90
        0
176
     1
 62
    18
420
        0
176
     1
 90
       50
176
     1
 90
        3
176
     1
 62
     5
420
      255
176
     1
290
     0
176
     1
 90
       50
176
     1
 90
       50
176
     1
 90
       50
176
     1
290
     0
176
     1
 90
       50
176
     1
 62
   256
176
     0
 40
1.0
176
     0
 90
        2
176
     1
  1
strokes_ogs.tif
176
     1
290
     0
176
     1
 40
1.0
176
     1
 40
1.0
176
     1
1001
ACAD
1000
AcDbSavedByObjectVersion
1070
     0
  0
VISUALSTYLE
  5
FF
102
{ACAD_REACTORS
330
EF
102
}
330
EF
100
AcDbVisualStyle
  2
ColorChange
 70
    16
177
     3
291
     1
 70
    58
 90
        2
176
     1
 90
        2
176
     1
 90
        3
176
     1
 90
        0
176
     1
 40
0.6
176
     1
 40
30.0
176
     1
 62
     8
420
  8421504
176
     1
 90
        1
176
     1
 90
        4
176
     1
 62
     7
176
     1
 62
   257
176
     1
 90
        1
176
     1
 90
        1
176
     1
 40
1.0
176
     1
 90
        8
176
     1
 62
     8
420
  8421504
176
     1
 40
1.0
176
     1
 90
        1
176
     1
 90
        6
176
     1
 90
        2
176
     1
 62
     7
176
     1
 90
        5
176
     1
 90
        0
176
     1
 90
        0
176
     1
290
     0
176
     1
 90
        1
176
     1
 40
0.0
176
     1
 90
        0
176
     1
290
     0
176
     1
290
     1
176
     1
290
     1
176
     1
290
     0
176
     1
290
     0
176
     1
290
     0
176
     1
290
     0
176
     1
290
     0
176
     1
290
     0
176
     1
 90
       50
176
     1
 40
0.0
176
     1
 40
1.0
176
     1
 90
        0
176
     1
 62
    18
420
        0
176
     1
 90
       50
176
     1
 90
        3
176
     1
 62
     5
420
      255
176
     1
290
     0
176
     1
 90
       50
176
     1
 90
       50
176
     1
 90
       50
176
     1
290
     0
176
     1
 90
       50
176
     1
 62
   256
176
     0
 40
1.0
176
     0
 90
        2
176
     1
  1
strokes_ogs.tif
176
     1
290
     0
176
     1
 40
1.0
176
     1
 40
1.0
176
     1
1001
ACAD
1000
AcDbSavedByObjectVersion
1070
     0
  0
VISUALSTYLE
  5
F8
102
{ACAD_REACTORS
330
EF
102
}
330
EF
100
AcDbVisualStyle
  2
Conceptual
 70
     9
177
     3
291
     0
 70
    58
 90
        3
176
     1
 90
        2
176
     1
 90
        1
176
     1
 90
        0
176
     1
 40
0.6
176
     1
 40
30.0
176
     1
 62
     7
420
 16777215
176
     1
 90
        2
176
     1
 90
        2
176
     1
 62
     7
176
     1
 62
   257
176
     1
 90
        1
176
     1
 90
        1
176
     1
 40
40.0
176
     1
 90
        8
176
     1
 62
     7
176
     1
 40
1.0
176
     1
 90
        1
176
     1
 90
        6
176
     1
 90
        2
176
     1
 62
     7
176
     1
 90
        3
176
     1
 90
        0
176
     1
 90
        0
176
     1
290
     0
176
     1
 90
        1
176
     1
 40
0.0
176
     1
 90
        0
176
     1
290
     0
176
     1
290
     1
176
     1
290
     1
176
     1
290
     0
176
     1
290
     0
176
     1
290
     0
176
     1
290
     0
176
     1
290
     0
176
     1
290
     0
176
     1
 90
       50
176
     1
 40
0.0
176
     1
 40
1.0
176
     1
 90
        0
176
     1
 62
    18
420
        0
176
     1
 90
       50
176
     1
 90
        3
176
     1
 62
     5
420
      255
176
     1
290
     0
176
     1
 90
       50
176
     1
 90
       50
176
     1
 90
       50
176
     1
290
     0
176
     1
 90
       50
176
     1
 62
   256
176
     0
 40
1.0
176
     0
 90
        2
176
     1
  1
strokes_ogs.tif
176
     1
290
     0
176
     1
 40
1.0
176
     1
 40
1.0
176
     1
1001
ACAD
1000
AcDbSavedByObjectVersion
1070
     0
  0
VISUALSTYLE
  5
FA
102
{ACAD_REACTORS
330
EF
102
}
330
EF
100
AcDbVisualStyle
  2
Dim
 70
    11
177
     3
291
     1
 70
    58
 90
        2
176
     1
 90
        2
176
     1
 90
        1
176
     1
 90
        0
176
     1
 40
0.6
176
     1
 40
30.0
176
     1
 62
     7
420
 16777215
176
     1
 90
        1
176
     1
 90
        4
176
     1
 62
     7
176
     1
 62
   257
176
     1
 90
        1
176
     1
 90
        1
176
     1
 40
1.0
176
     1
 90
        8
176
     1
 62
     7
176
     1
 40
1.0
176
     1
 90
        1
176
     1
 90
        6
176
     1
 90
        2
176
     1
 62
     7
176
     1
 90
        5
176
     1
 90
        0
176
     1
 90
        0
176
     1
290
     0
176
     1
 90
        1
176
     1
 40
-50.0
176
     1
 90
        0
176
     1
290
     0
176
     1
290
     1
176
     1
290
     1
176
     1
290
     0
176
     1
290
     0
176
     1
290
     0
176
     1
290
     0
176
     1
290
     0
176
     1
290
     0
176
     1
 90
       50
176
     1
 40
0.0
176
     1
 40
1.0
176
     1
 90
        0
176
     1
 62
    18
420
        0
176
     1
 90
       50
176
     1
 90
        3
176
     1
 62
     5
420
      255
176
     1
290
     0
176
     1
 90
       50
176
     1
 90
       50
176
     1
 90
       50
176
     1
290
     0
176
     1
 90
       50
176
     1
 62
   256
176
     0
 40
1.0
176
     0
 90
        2
176
     1
  1
strokes_ogs.tif
176
     1
290
     0
176
     1
 40
1.0
176
     1
 40
1.0
176
     1
1001
ACAD
1000
AcDbSavedByObjectVersion
1070
     0
  0
VISUALSTYLE
  5
1E6
102
{ACAD_REACTORS
330
EF
102
}
330
EF
100
AcDbVisualStyle
  2
EdgeColorOff
 70
    22
177
     3
291
     1
 70
    58
 90
        2
176
     0
 90
        2
176
     0
 90
        0
176
     0
 90
        0
176
     0
 40
0.6
176
     0
 40
30.0
176
     0
 62
     7
420
 16777215
176
     0
 90
        1
176
     0
 90
        4
176
     0
 62
     7
176
     0
 62
   257
176
     0
 90
        1
176
     0
 90
        1
176
     0
 40
1.0
176
     0
 90
        8
176
     2
 62
     7
176
     0
 40
1.0
176
     0
 90
        1
176
     0
 90
        6
176
     0
 90
        2
176
     0
 62
     7
176
     0
 90
        5
176
     0
 90
        0
176
     0
 90
        0
176
     0
290
     0
176
     0
 90
        1
176
     0
 40
0.0
176
     0
 90
        0
176
     0
290
     0
176
     1
290
     1
176
     1
290
     1
176
     1
290
     0
176
     1
290
     0
176
     1
290
     0
176
     1
290
     0
176
     1
290
     0
176
     1
290
     0
176
     1
 90
       50
176
     1
 40
0.0
176
     1
 40
1.0
176
     1
 90
        0
176
     1
 62
    18
420
        0
176
     1
 90
       50
176
     1
 90
        3
176
     1
 62
     5
420
      255
176
     1
290
     0
176
     1
 90
       50
176
     1
 90
       50
176
     1
 90
       50
176
     1
290
     0
176
     1
 90
       50
176
     1
 62
   256
176
     0
 40
1.0
176
     0
 90
        2
176
     1
  1
strokes_ogs.tif
176
     1
290
     0
176
     1
 40
1.0
176
     1
 40
1.0
176
     1
1001
ACAD
1000
AcDbSavedByObjectVersion
1070
     0
  0
VISUALSTYLE
  5
FE
102
{ACAD_REACTORS
330
EF
102
}
330
EF
100
AcDbVisualStyle
  2
Facepattern
 70
    15
177
     3
291
     1
 70
    58
 90
        2
176
     1
 90
        2
176
     1
 90
        1
176
     1
 90
        0
176
     1
 40
0.6
176
     1
 40
30.0
176
     1
 62
     7
420
 16777215
176
     1
 90
        1
176
     1
 90
        4
176
     1
 62
     7
176
     1
 62
   257
176
     1
 90
        1
176
     1
 90
        1
176
     1
 40
1.0
176
     1
 90
        8
176
     1
 62
     7
176
     1
 40
1.0
176
     1
 90
        1
176
     1
 90
        6
176
     1
 90
        2
176
     1
 62
     7
176
     1
 90
        5
176
     1
 90
        0
176
     1
 90
        0
176
     1
290
     0
176
     1
 90
        1
176
     1
 40
0.0
176
     1
 90
        0
176
     1
290
     0
176
     1
290
     1
176
     1
290
     1
176
     1
290
     0
176
     1
290
     0
176
     1
290
     0
176
     1
290
     0
176
     1
290
     0
176
     1
290
     0
176
     1
 90
       50
176
     1
 40
0.0
176
     1
 40
1.0
176
     1
 90
        0
176
     1
 62
    18
420
        0
176
     1
 90
       50
176
     1
 90
        3
176
     1
 62
     5
420
      255
176
     1
290
     0
176
     1
 90
       50
176
     1
 90
       50
176
     1
 90
       50
176
     1
290
     0
176
     1
 90
       50
176
     1
 62
   256
176
     0
 40
1.0
176
     0
 90
        2
176
     1
  1
strokes_ogs.tif
176
     1
290
     0
176
     1
 40
1.0
176
     1
 40
1.0
176
     1
1001
ACAD
1000
AcDbSavedByObjectVersion
1070
     0
  0
VISUALSTYLE
  5
F0
102
{ACAD_REACTORS
330
EF
102
}
330
EF
100
AcDbVisualStyle
  2
Flat
 70
     0
177
     3
291
     1
 70
    58
 90
        2
176
     1
 90
        1
176
     1
 90
        1
176
     1
 90
        2
176
     1
 40
0.6
176
     1
 40
30.0
176
     1
 62
     7
420
 16777215
176
     1
 90
        0
176
     1
 90
        0
176
     1
 62
     7
176
     1
 62
   257
176
     1
 90
        1
176
     1
 90
        1
176
     1
 40
1.0
176
     1
 90
        8
176
     1
 62
     7
176
     1
 40
1.0
176
     1
 90
        1
176
     1
 90
        6
176
     1
 90
        2
176
     1
 62
     7
176
     1
 90
        5
176
     1
 90
        0
176
     1
 90
        0
176
     1
290
     0
176
     1
 90
       13
176
     1
 40
0.0
176
     1
 90
        0
176
     1
290
     0
176
     1
290
     1
176
     1
290
     1
176
     1
290
     0
176
     1
290
     0
176
     1
290
     0
176
     1
290
     0
176
     1
290
     0
176
     1
290
     0
176
     1
 90
       50
176
     1
 40
0.0
176
     1
 40
1.0
176
     1
 90
        0
176
     1
 62
    18
420
        0
176
     1
 90
       50
176
     1
 90
        3
176
     1
 62
     5
420
      255
176
     1
290
     0
176
     1
 90
       50
176
     1
 90
       50
176
     1
 90
       50
176
     1
290
     0
176
     1
 90
       50
176
     1
 62
   256
176
     0
 40
1.0
176
     0
 90
        2
176
     1
  1
strokes_ogs.tif
176
     1
290
     0
176
     1
 40
1.0
176
     1
 40
1.0
176
     1
1001
ACAD
1000
AcDbSavedByObjectVersion
1070
     0
  0
VISUALSTYLE
  5
F1
102
{ACAD_REACTORS
330
EF
102
}
330
EF
100
AcDbVisualStyle
  2
FlatWithEdges
 70
     1
177
     3
291
     1
 70
    58
 90
        2
176
     1
 90
        1
176
     1
 90
        1
176
     1
 90
        2
176
     1
 40
0.6
176
     1
 40
30.0
176
     1
 62
     7
420
 16777215
176
     1
 90
        1
176
     1
 90
        0
176
     1
 62
     7
176
     1
 62
   257
176
     1
 90
        1
176
     1
 90
        1
176
     1
 40
1.0
176
     1
 90
        0
176
     1
 62
   257
176
     1
 40
1.0
176
     1
 90
        1
176
     1
 90
        6
176
     1
 90
        2
176
     1
 62
     7
176
     1
 90
        5
176
     1
 90
        0
176
     1
 90
        0
176
     1
290
     0
176
     1
 90
       13
176
     1
 40
0.0
176
     1
 90
        0
176
     1
290
     0
176
     1
290
     1
176
     1
290
     1
176
     1
290
     0
176
     1
290
     0
176
     1
290
     0
176
     1
290
     0
176
     1
290
     0
176
     1
290
     0
176
     1
 90
       50
176
     1
 40
0.0
176
     1
 40
1.0
176
     1
 90
        0
176
     1
 62
    18
420
        0
176
     1
 90
       50
176
     1
 90
        3
176
     1
 62
     5
420
      255
176
     1
290
     0
176
     1
 90
       50
176
     1
 90
       50
176
     1
 90
       50
176
     1
290
     0
176
     1
 90
       50
176
     1
 62
   256
176
     0
 40
1.0
176
     0
 90
        2
176
     1
  1
strokes_ogs.tif
176
     1
290
     0
176
     1
 40
1.0
176
     1
 40
1.0
176
     1
1001
ACAD
1000
AcDbSavedByObjectVersion
1070
     0
  0
VISUALSTYLE
  5
F2
102
{ACAD_REACTORS
330
EF
102
}
330
EF
100
AcDbVisualStyle
  2
Gouraud
 70
     2
177
     3
291
     1
 70
    58
 90
        2
176
     1
 90
        2
176
     1
 90
        1
176
     1
 90
        2
176
     1
 40
0.6
176
     1
 40
30.0
176
     1
 62
     7
420
 16777215
176
     1
 90
        0
176
     1
 90
        0
176
     1
 62
     7
176
     1
 62
   257
176
     1
 90
        1
176
     1
 90
        1
176
     1
 40
1.0
176
     1
 90
        0
176
     1
 62
     7
176
     1
 40
1.0
176
     1
 90
        1
176
     1
 90
        6
176
     1
 90
        2
176
     1
 62
     7
176
     1
 90
        5
176
     1
 90
        0
176
     1
 90
        0
176
     1
290
     0
176
     1
 90
       13
176
     1
 40
0.0
176
     1
 90
        0
176
     1
290
     0
176
     1
290
     1
176
     1
290
     1
176
     1
290
     0
176
     1
290
     0
176
     1
290
     0
176
     1
290
     0
176
     1
290
     0
176
     1
290
     0
176
     1
 90
       50
176
     1
 40
0.0
176
     1
 40
1.0
176
     1
 90
        0
176
     1
 62
    18
420
        0
176
     1
 90
       50
176
     1
 90
        3
176
     1
 62
     5
420
      255
176
     1
290
     0
176
     1
 90
       50
176
     1
 90
       50
176
     1
 90
       50
176
     1
290
     0
176
     1
 90
       50
176
     1
 62
   256
176
     0
 40
1.0
176
     0
 90
        2
176
     1
  1
strokes_ogs.tif
176
     1
290
     0
176
     1
 40
1.0
176
     1
 40
1.0
176
     1
1001
ACAD
1000
AcDbSavedByObjectVersion
1070
     0
  0
VISUALSTYLE
  5
F3
102
{ACAD_REACTORS
330
EF
102
}
330
EF
100
AcDbVisualStyle
  2
GouraudWithEdges
 70
     3
177
     3
291
     1
 70
    58
 90
        2
176
     1
 90
        2
176
     1
 90
        1
176
     1
 90
        2
176
     1
 40
0.6
176
     1
 40
30.0
176
     1
 62
     7
420
 16777215
176
     1
 90
        1
176
     1
 90
        0
176
     1
 62
     7
176
     1
 62
   257
176
     1
 90
        1
176
     1
 90
        1
176
     1
 40
1.0
176
     1
 90
        0
176
     1
 62
   257
176
     1
 40
1.0
176
     1
 90
        1
176
     1
 90
        6
176
     1
 90
        2
176
     1
 62
     7
176
     1
 90
        5
176
     1
 90
        0
176
     1
 90
        0
176
     1
290
     0
176
     1
 90
       13
176
     1
 40
0.0
176
     1
 90
        0
176
     1
290
     0
176
     1
290
     1
176
     1
290
     1
176
     1
290
     0
176
     1
290
     0
176
     1
290
     0
176
     1
290
     0
176
     1
290
     0
176
     1
290
     0
176
     1
 90
       50
176
     1
 40
0.0
176
     1
 40
1.0
176
     1
 90
        0
176
     1
 62
    18
420
        0
176
     1
 90
       50
176
     1
 90
        3
176
     1
 62
     5
420
      255
176
     1
290
     0
176
     1
 90
       50
176
     1
 90
       50
176
     1
 90
       50
176
     1
290
     0
176
     1
 90
       50
176
     1
 62
   256
176
     0
 40
1.0
176
     0
 90
        2
176
     1
  1
strokes_ogs.tif
176
     1
290
     0
176
     1
 40
1.0
176
     1
 40
1.0
176
     1
1001
ACAD
1000
AcDbSavedByObjectVersion
1070
     0
  0
VISUALSTYLE
  5
F7
102
{ACAD_REACTORS
330
EF
102
}
330
EF
100
AcDbVisualStyle
  2
Hidden
 70
     6
177
     3
291
     0
 70
    58
 90
        1
176
     1
 90
        2
176
     1
 90
        2
176
     1
 90
        0
176
     1
 40
0.6
176
     1
 40
30.0
176
     1
 62
     7
420
 16777215
176
     1
 90
        2
176
     1
 90
        2
176
     1
 62
     7
176
     1
 62
   257
176
     1
 90
        2
176
     1
 90
        1
176
     1
 40
40.0
176
     1
 90
        0
176
     1
 62
   257
176
     1
 40
1.0
176
     1
 90
        1
176
     1
 90
        6
176
     1
 90
        2
176
     1
 62
     7
176
     1
 90
        3
176
     1
 90
        0
176
     1
 90
        0
176
     1
290
     0
176
     1
 90
        1
176
     1
 40
0.0
176
     1
 90
        0
176
     1
290
     0
176
     1
290
     1
176
     1
290
     1
176
     1
290
     0
176
     1
290
     0
176
     1
290
     0
176
     1
290
     0
176
     1
290
     0
176
     1
290
     0
176
     1
 90
       50
176
     1
 40
0.0
176
     1
 40
1.0
176
     1
 90
        0
176
     1
 62
    18
420
        0
176
     1
 90
       50
176
     1
 90
        3
176
     1
 62
     5
420
      255
176
     1
290
     0
176
     1
 90
       50
176
     1
 90
       50
176
     1
 90
       50
176
     1
290
     0
176
     1
 90
       50
176
     1
 62
   256
176
     0
 40
1.0
176
     0
 90
        2
176
     1
  1
strokes_ogs.tif
176
     1
290
     0
176
     1
 40
1.0
176
     1
 40
1.0
176
     1
1001
ACAD
1000
AcDbSavedByObjectVersion
1070
     0
  0
VISUALSTYLE
  5
1E4
102
{ACAD_REACTORS
330
EF
102
}
330
EF
100
AcDbVisualStyle
  2
JitterOff
 70
    20
177
     3
291
     1
 70
    58
 90
        2
176
     0
 90
        2
176
     0
 90
        0
176
     0
 90
        0
176
     0
 40
0.6
176
     0
 40
30.0
176
     0
 62
     7
420
 16777215
176
     0
 90
        1
176
     0
 90
        4
176
     0
 62
     7
176
     0
 62
   257
176
     0
 90
        1
176
     0
 90
        1
176
     0
 40
1.0
176
     0
 90
       10
176
     2
 62
     7
176
     0
 40
1.0
176
     0
 90
        1
176
     0
 90
        6
176
     0
 90
        2
176
     0
 62
     7
176
     0
 90
        5
176
     0
 90
        0
176
     0
 90
        0
176
     0
290
     0
176
     0
 90
        1
176
     0
 40
0.0
176
     0
 90
        0
176
     0
290
     0
176
     1
290
     1
176
     1
290
     1
176
     1
290
     0
176
     1
290
     0
176
     1
290
     0
176
     1
290
     0
176
     1
290
     0
176
     1
290
     0
176
     1
 90
       50
176
     1
 40
0.0
176
     1
 40
1.0
176
     1
 90
        0
176
     1
 62
    18
420
        0
176
     1
 90
       50
176
     1
 90
        3
176
     1
 62
     5
420
      255
176
     1
290
     0
176
     1
 90
       50
176
     1
 90
       50
176
     1
 90
       50
176
     1
290
     0
176
     1
 90
       50
176
     1
 62
   256
176
     0
 40
1.0
176
     0
 90
        2
176
     1
  1
strokes_ogs.tif
176
     1
290
     0
176
     1
 40
1.0
176
     1
 40
1.0
176
     1
1001
ACAD
1000
AcDbSavedByObjectVersion
1070
     0
  0
VISUALSTYLE
  5
FD
102
{ACAD_REACTORS
330
EF
102
}
330
EF
100
AcDbVisualStyle
  2
Linepattern
 70
    14
177
     3
291
     1
 70
    58
 90
        2
176
     1
 90
        2
176
     1
 90
        1
176
     1
 90
        0
176
     1
 40
0.6
176
     1
 40
30.0
176
     1
 62
     7
420
 16777215
176
     1
 90
        1
176
     1
 90
        4
176
     1
 62
     7
176
     1
 62
   257
176
     1
 90
        7
176
     1
 90
        7
176
     1
 40
1.0
176
     1
 90
        8
176
     1
 62
     7
176
     1
 40
1.0
176
     1
 90
        1
176
     1
 90
        6
176
     1
 90
        2
176
     1
 62
     7
176
     1
 90
        5
176
     1
 90
        0
176
     1
 90
        0
176
     1
290
     0
176
     1
 90
        1
176
     1
 40
0.0
176
     1
 90
        0
176
     1
290
     0
176
     1
290
     1
176
     1
290
     1
176
     1
290
     0
176
     1
290
     0
176
     1
290
     0
176
     1
290
     0
176
     1
290
     0
176
     1
290
     0
176
     1
 90
       50
176
     1
 40
0.0
176
     1
 40
1.0
176
     1
 90
        0
176
     1
 62
    18
420
        0
176
     1
 90
       50
176
     1
 90
        3
176
     1
 62
     5
420
      255
176
     1
290
     0
176
     1
 90
       50
176
     1
 90
       50
176
     1
 90
       50
176
     1
290
     0
176
     1
 90
       50
176
     1
 62
   256
176
     0
 40
1.0
176
     0
 90
        2
176
     1
  1
strokes_ogs.tif
176
     1
290
     0
176
     1
 40
1.0
176
     1
 40
1.0
176
     1
1001
ACAD
1000
AcDbSavedByObjectVersion
1070
     0
  0
VISUALSTYLE
  5
1E5
102
{ACAD_REACTORS
330
EF
102
}
330
EF
100
AcDbVisualStyle
  2
OverhangOff
 70
    21
177
     3
291
     1
 70
    58
 90
        2
176
     0
 90
        2
176
     0
 90
        0
176
     0
 90
        0
176
     0
 40
0.6
176
     0
 40
30.0
176
     0
 62
     7
420
 16777215
176
     0
 90
        1
176
     0
 90
        4
176
     0
 62
     7
176
     0
 62
   257
176
     0
 90
        1
176
     0
 90
        1
176
     0
 40
1.0
176
     0
 90
        9
176
     2
 62
     7
176
     0
 40
1.0
176
     0
 90
        1
176
     0
 90
        6
176
     0
 90
        2
176
     0
 62
     7
176
     0
 90
        5
176
     0
 90
        0
176
     0
 90
        0
176
     0
290
     0
176
     0
 90
        1
176
     0
 40
0.0
176
     0
 90
        0
176
     0
290
     0
176
     1
290
     1
176
     1
290
     1
176
     1
290
     0
176
     1
290
     0
176
     1
290
     0
176
     1
290
     0
176
     1
290
     0
176
     1
290
     0
176
     1
 90
       50
176
     1
 40
0.0
176
     1
 40
1.0
176
     1
 90
        0
176
     1
 62
    18
420
        0
176
     1
 90
       50
176
     1
 90
        3
176
     1
 62
     5
420
      255
176
     1
290
     0
176
     1
 90
       50
176
     1
 90
       50
176
     1
 90
       50
176
     1
290
     0
176
     1
 90
       50
176
     1
 62
   256
176
     0
 40
1.0
176
     0
 90
        2
176
     1
  1
strokes_ogs.tif
176
     1
290
     0
176
     1
 40
1.0
176
     1
 40
1.0
176
     1
1001
ACAD
1000
AcDbSavedByObjectVersion
1070
     0
  0
VISUALSTYLE
  5
F9
102
{ACAD_REACTORS
330
EF
102
}
330
EF
100
AcDbVisualStyle
  2
Realistic
 70
     8
177
     3
291
     0
 70
    58
 90
        2
176
     1
 90
        3
176
     1
 90
        0
176
     1
 90
        2
176
     1
 40
0.6
176
     1
 40
30.0
176
     1
 62
     7
420
 16777215
176
     1
 90
        0
176
     1
 90
        0
176
     1
 62
     7
176
     1
 62
   257
176
     1
 90
        1
176
     1
 90
        1
176
     1
 40
1.0
176
     1
 90
        8
176
     1
 62
   257
176
     1
 40
1.0
176
     1
 90
        1
176
     1
 90
        6
176
     1
 90
        2
176
     1
 62
     7
176
     1
 90
        3
176
     1
 90
        0
176
     1
 90
        0
176
     1
290
     0
176
     1
 90
       13
176
     1
 40
0.0
176
     1
 90
        0
176
     1
290
     0
176
     1
290
     1
176
     1
290
     1
176
     1
290
     0
176
     1
290
     0
176
     1
290
     0
176
     1
290
     0
176
     1
290
     0
176
     1
290
     0
176
     1
 90
       50
176
     1
 40
0.0
176
     1
 40
1.0
176
     1
 90
        0
176
     1
 62
    18
420
        0
176
     1
 90
       50
176
     1
 90
        3
176
     1
 62
     5
420
      255
176
     1
290
     0
176
     1
 90
       50
176
     1
 90
       50
176
     1
 90
       50
176
     1
290
     0
176
     1
 90
       50
176
     1
 62
   256
176
     0
 40
1.0
176
     0
 90
        2
176
     1
  1
strokes_ogs.tif
176
     1
290
     0
176
     1
 40
1.0
176
     1
 40
1.0
176
     1
1001
ACAD
1000
AcDbSavedByObjectVersion
1070
     0
  0
VISUALSTYLE
  5
1F3
102
{ACAD_REACTORS
330
EF
102
}
330
EF
100
AcDbVisualStyle
  2
Shaded
 70
    27
177
     3
291
     0
 70
    58
 90
        2
176
     1
 90
        2
176
     1
 90
        1
176
     1
 90
        2
176
     1
 40
0.6
176
     1
 40
30.0
176
     1
 62
     7
420
 16777215
176
     1
 90
        0
176
     1
 90
        4
176
     1
 62
     7
176
     1
 62
   257
176
     1
 90
        1
176
     1
 90
        1
176
     1
 40
1.0
176
     1
 90
        8
176
     1
 62
   257
176
     1
 40
1.0
176
     1
 90
        1
176
     1
 90
        6
176
     1
 90
        2
176
     1
 62
     8
420
  7895160
176
     1
 90
        3
176
     1
 90
        0
176
     1
 90
        0
176
     1
290
     0
176
     1
 90
        5
176
     1
 40
0.0
176
     1
 90
        0
176
     1
290
     0
176
     1
290
     1
176
     1
290
     1
176
     1
290
     0
176
     1
290
     0
176
     1
290
     0
176
     1
290
     0
176
     1
290
     0
176
     1
290
     0
176
     1
 90
       50
176
     1
 40
0.0
176
     1
 40
1.0
176
     1
 90
        0
176
     1
 62
    18
420
        0
176
     1
 90
       50
176
     1
 90
        3
176
     1
 62
     5
420
      255
176
     1
290
     0
176
     1
 90
       50
176
     1
 90
       50
176
     1
 90
       50
176
     1
290
     0
176
     1
 90
       50
176
     1
 62
   256
176
     0
 40
1.0
176
     0
 90
        2
176
     1
  1
strokes_ogs.tif
176
     1
290
     0
176
     1
 40
1.0
176
     1
 40
1.0
176
     1
1001
ACAD
1000
AcDbSavedByObjectVersion
1070
     0
  0
VISUALSTYLE
  5
1F2
102
{ACAD_REACTORS
330
EF
102
}
330
EF
100
AcDbVisualStyle
  2
Shaded with edges
 70
    26
177
     3
291
     0
 70
    58
 90
        2
176
     1
 90
        2
176
     1
 90
        1
176
     1
 90
        2
176
     1
 40
0.6
176
     1
 40
30.0
176
     1
 62
     7
420
 16777215
176
     1
 90
        1
176
     1
 90
        2
176
     1
 62
     7
176
     1
 62
   257
176
     1
 90
        2
176
     1
 90
        1
176
     1
 40
1.0
176
     1
 90
        8
176
     1
 62
   257
176
     1
 40
1.0
176
     1
 90
        1
176
     1
 90
        6
176
     1
 90
        2
176
     1
 62
     7
176
     1
 90
        3
176
     1
 90
        0
176
     1
 90
        0
176
     1
290
     0
176
     1
 90
        5
176
     1
 40
0.0
176
     1
 90
        0
176
     1
290
     0
176
     1
290
     1
176
     1
290
     1
176
     1
290
     0
176
     1
290
     0
176
     1
290
     0
176
     1
290
     0
176
     1
290
     0
176
     1
290
     0
176
     1
 90
       50
176
     1
 40
0.0
176
     1
 40
1.0
176
     1
 90
        0
176
     1
 62
    18
420
        0
176
     1
 90
       50
176
     1
 90
        3
176
     1
 62
     5
420
      255
176
     1
290
     0
176
     1
 90
       50
176
     1
 90
       50
176
     1
 90
       50
176
     1
290
     0
176
     1
 90
       50
176
     1
 62
   256
176
     0
 40
1.0
176
     0
 90
        2
176
     1
  1
strokes_ogs.tif
176
     1
290
     0
176
     1
 40
1.0
176
     1
 40
1.0
176
     1
1001
ACAD
1000
AcDbSavedByObjectVersion
1070
     0
  0
VISUALSTYLE
  5
1EF
102
{ACAD_REACTORS
330
EF
102
}
330
EF
100
AcDbVisualStyle
  2
Shades of Gray
 70
    23
177
     3
291
     0
 70
    58
 90
        2
176
     1
 90
        2
176
     1
 90
        3
176
     1
 90
        0
176
     1
 40
0.6
176
     1
 40
30.0
176
     1
 62
     7
420
 16777215
176
     1
 90
        2
176
     1
 90
        2
176
     1
 62
     7
176
     1
 62
     7
176
     1
 90
        1
176
     1
 90
        1
176
     1
 40
40.0
176
     1
 90
        8
176
     1
 62
     7
176
     1
 40
1.0
176
     1
 90
        1
176
     1
 90
        6
176
     1
 90
        2
176
     1
 62
     7
176
     1
 90
        3
176
     1
 90
        0
176
     1
 90
        0
176
     1
290
     0
176
     1
 90
        1
176
     1
 40
0.0
176
     1
 90
        0
176
     1
290
     0
176
     1
290
     1
176
     1
290
     1
176
     1
290
     0
176
     1
290
     0
176
     1
290
     0
176
     1
290
     0
176
     1
290
     0
176
     1
290
     0
176
     1
 90
       50
176
     1
 40
0.0
176
     1
 40
1.0
176
     1
 90
        0
176
     1
 62
    18
420
        0
176
     1
 90
       50
176
     1
 90
        3
176
     1
 62
     5
420
      255
176
     1
290
     0
176
     1
 90
       50
176
     1
 90
       50
176
     1
 90
       50
176
     1
290
     0
176
     1
 90
       50
176
     1
 62
   256
176
     0
 40
1.0
176
     0
 90
        2
176
     1
  1
strokes_ogs.tif
176
     1
290
     0
176
     1
 40
1.0
176
     1
 40
1.0
176
     1
1001
ACAD
1000
AcDbSavedByObjectVersion
1070
     0
  0
VISUALSTYLE
  5
1F0
102
{ACAD_REACTORS
330
EF
102
}
330
EF
100
AcDbVisualStyle
  2
Sketchy
 70
    24
177
     3
291
     0
 70
    58
 90
        1
176
     1
 90
        2
176
     1
 90
        2
176
     1
 90
        0
176
     1
 40
0.6
176
     1
 40
30.0
176
     1
 62
     7
420
 16777215
176
     1
 90
        2
176
     1
 90
        2
176
     1
 62
     7
176
     1
 62
     7
176
     1
 90
        1
176
     1
 90
        1
176
     1
 40
40.0
176
     1
 90
       11
176
     1
 62
     7
176
     1
 40
1.0
176
     1
 90
        1
176
     1
 90
        6
176
     1
 90
        2
176
     1
 62
     7
176
     1
 90
        6
176
     1
 90
        0
176
     1
 90
        0
176
     1
290
     0
176
     1
 90
        1
176
     1
 40
0.0
176
     1
 90
        0
176
     1
290
     0
176
     1
290
     1
176
     1
290
     1
176
     1
290
     0
176
     1
290
     0
176
     1
290
     0
176
     1
290
     0
176
     1
290
     0
176
     1
290
     0
176
     1
 90
       50
176
     1
 40
0.0
176
     1
 40
1.0
176
     1
 90
        0
176
     1
 62
    18
420
        0
176
     1
 90
       50
176
     1
 90
        3
176
     1
 62
     5
420
      255
176
     1
290
     0
176
     1
 90
       50
176
     1
 90
       50
176
     1
 90
       50
176
     1
290
     0
176
     1
 90
       50
176
     1
 62
   256
176
     0
 40
1.0
176
     0
 90
        2
176
     1
  1
strokes_ogs.tif
176
     1
290
     0
176
     1
 40
1.0
176
     1
 40
1.0
176
     1
1001
ACAD
1000
AcDbSavedByObjectVersion
1070
     0
  0
VISUALSTYLE
  5
FC
102
{ACAD_REACTORS
330
EF
102
}
330
EF
100
AcDbVisualStyle
  2
Thicken
 70
    13
177
     3
291
     1
 70
    58
 90
        2
176
     1
 90
        2
176
     1
 90
        1
176
     1
 90
        0
176
     1
 40
0.6
176
     1
 40
30.0
176
     1
 62
     7
420
 16777215
176
     1
 90
        1
176
     1
 90
        4
176
     1
 62
     7
176
     1
 62
   257
176
     1
 90
        1
176
     1
 90
        1
176
     1
 40
1.0
176
     1
 90
       12
176
     1
 62
     7
176
     1
 40
1.0
176
     1
 90
        1
176
     1
 90
        6
176
     1
 90
        2
176
     1
 62
     7
176
     1
 90
        5
176
     1
 90
        0
176
     1
 90
        0
176
     1
290
     0
176
     1
 90
        1
176
     1
 40
0.0
176
     1
 90
        0
176
     1
290
     0
176
     1
290
     1
176
     1
290
     1
176
     1
290
     0
176
     1
290
     0
176
     1
290
     0
176
     1
290
     0
176
     1
290
     0
176
     1
290
     0
176
     1
 90
       50
176
     1
 40
0.0
176
     1
 40
1.0
176
     1
 90
        0
176
     1
 62
    18
420
        0
176
     1
 90
       50
176
     1
 90
        3
176
     1
 62
     5
420
      255
176
     1
290
     0
176
     1
 90
       50
176
     1
 90
       50
176
     1
 90
       50
176
     1
290
     0
176
     1
 90
       50
176
     1
 62
   256
176
     0
 40
1.0
176
     0
 90
        2
176
     1
  1
strokes_ogs.tif
176
     1
290
     0
176
     1
 40
1.0
176
     1
 40
1.0
176
     1
1001
ACAD
1000
AcDbSavedByObjectVersion
1070
     0
  0
VISUALSTYLE
  5
F6
102
{ACAD_REACTORS
330
EF
102
}
330
EF
100
AcDbVisualStyle
  2
Wireframe
 70
     5
177
     3
291
     0
 70
    58
 90
        0
176
     1
 90
        2
176
     1
 90
        0
176
     1
 90
        0
176
     1
 40
0.6
176
     1
 40
30.0
176
     1
 62
     7
420
 16777215
176
     1
 90
        1
176
     1
 90
        4
176
     1
 62
     7
176
     1
 62
   257
176
     1
 90
        1
176
     1
 90
        1
176
     1
 40
1.0
176
     1
 90
        0
176
     1
 62
   257
176
     1
 40
1.0
176
     1
 90
        1
176
     1
 90
        6
176
     1
 90
        2
176
     1
 62
     7
176
     1
 90
        3
176
     1
 90
        0
176
     1
 90
        0
176
     1
290
     0
176
     1
 90
        1
176
     1
 40
0.0
176
     1
 90
        0
176
     1
290
     0
176
     1
290
     1
176
     1
290
     1
176
     1
290
     0
176
     1
290
     0
176
     1
290
     0
176
     1
290
     0
176
     1
290
     0
176
     1
290
     0
176
     1
 90
       50
176
     1
 40
0.0
176
     1
 40
1.0
176
     1
 90
        0
176
     1
 62
    18
420
        0
176
     1
 90
       50
176
     1
 90
        3
176
     1
 62
     5
420
      255
176
     1
290
     0
176
     1
 90
       50
176
     1
 90
       50
176
     1
 90
       50
176
     1
290
     0
176
     1
 90
       50
176
     1
 62
   256
176
     0
 40
1.0
176
     0
 90
        2
176
     1
  1
strokes_ogs.tif
176
     1
290
     0
176
     1
 40
1.0
176
     1
 40
1.0
176
     1
1001
ACAD
1000
AcDbSavedByObjectVersion
1070
     0
  0
VISUALSTYLE
  5
1F1
102
{ACAD_REACTORS
330
EF
102
}
330
EF
100
AcDbVisualStyle
  2
X-Ray
 70
    25
177
     3
291
     0
 70
    58
 90
        2
176
     1
 90
        2
176
     1
 90
        1
176
     1
 90
        1
176
     1
 40
0.5
176
     1
 40
30.0
176
     1
 62
     7
420
 16777215
176
     1
 90
        1
176
     1
 90
        0
176
     1
 62
     7
176
     1
 62
   257
176
     1
 90
        1
176
     1
 90
        1
176
     1
 40
1.0
176
     1
 90
        8
176
     1
 62
     7
176
     1
 40
1.0
176
     1
 90
        1
176
     1
 90
        6
176
     1
 90
        2
176
     1
 62
     7
176
     1
 90
        3
176
     1
 90
        0
176
     1
 90
        0
176
     1
290
     0
176
     1
 90
       13
176
     1
 40
0.0
176
     1
 90
        0
176
     1
290
     0
176
     1
290
     1
176
     1
290
     1
176
     1
290
     0
176
     1
290
     0
176
     1
290
     0
176
     1
290
     0
176
     1
290
     0
176
     1
290
     0
176
     1
 90
       50
176
     1
 40
0.0
176
     1
 40
1.0
176
     1
 90
        0
176
     1
 62
    18
420
        0
176
     1
 90
       50
176
     1
 90
        3
176
     1
 62
     5
420
      255
176
     1
290
     0
176
     1
 90
       50
176
     1
 90
       50
176
     1
 90
       50
176
     1
290
     0
176
     1
 90
       50
176
     1
 62
   256
176
     0
 40
1.0
176
     0
 90
        2
176
     1
  1
strokes_ogs.tif
176
     1
290
     0
176
     1
 40
1.0
176
     1
 40
1.0
176
     1
1001
ACAD
1000
AcDbSavedByObjectVersion
1070
     0
  0
DICTIONARYVAR
  5
146
102
{ACAD_REACTORS
330
5E
102
}
330
5E
100
DictionaryVariables
280
     0
  1
1:1
  0
DICTIONARYVAR
  5
259
102
{ACAD_REACTORS
330
5E
102
}
330
5E
100
DictionaryVariables
280
     0
  1
3.500000
  0
DICTIONARYVAR
  5
25A
102
{ACAD_REACTORS
330
5E
102
}
330
5E
100
DictionaryVariables
280
     0
  1
acadiso.lin
  0
DICTIONARYVAR
  5
145
102
{ACAD_REACTORS
330
5E
102
}
330
5E
100
DictionaryVariables
280
     0
  1
STANDARD
  0
DICTIONARYVAR
  5
84
102
{ACAD_REACTORS
330
5E
102
}
330
5E
100
DictionaryVariables
280
     0
  1
STANDARD
  0
DICTIONARYVAR
  5
227
102
{ACAD_REACTORS
330
5E
102
}
330
5E
100
DictionaryVariables
280
     0
  1
Metric50
  0
DICTIONARYVAR
  5
228
102
{ACAD_REACTORS
330
5E
102
}
330
5E
100
DictionaryVariables
280
     0
  1
Metric50
  0
DICTIONARYVAR
  5
5F
102
{ACAD_REACTORS
330
5E
102
}
330
5E
100
DictionaryVariables
280
     0
  1
2
  0
DICTIONARYVAR
  5
63
102
{ACAD_REACTORS
330
5E
102
}
330
5E
100
DictionaryVariables
280
     0
  1
1
  0
DICTIONARYVAR
  5
1AE
102
{ACAD_REACTORS
330
5E
102
}
330
5E
100
DictionaryVariables
280
     0
  1
0
  0
DICTIONARYVAR
  5
1AF
102
{ACAD_REACTORS
330
5E
102
}
330
5E
100
DictionaryVariables
280
     0
  1
0
  0
DICTIONARY
  5
B63
102
{ACAD_REACTORS
330
B61
102
}
330
B61
100
AcDbDictionary
281
     1
  0
DICTIONARY
  5
B62
102
{ACAD_REACTORS
330
B61
102
}
330
B61
100
AcDbDictionary
281
     1
  3
1670825315008
350
B5C
  3
1670825315024
350
B5D
  3
1670825315040
350
B5E
  3
1670825315056
350
B5F
  3
1670825315072
350
B60
  0
DICTIONARY
  5
B6A
330
28F
100
AcDbDictionary
280
     1
281
     1
  3
ACAD_XREC_ROUNDTRIP
360
B6B
  0
DICTIONARY
  5
B66
330
21C
100
AcDbDictionary
280
     1
281
     1
  3
ACAD_XREC_ROUNDTRIP
360
B67
  0
DICTIONARY
  5
205
330
22
100
AcDbDictionary
280
     1
281
     1
  0
DICTIONARY
  5
1F9
330
ED
100
AcDbDictionary
280
     1
281
     1
  3
FBXASSET
360
1FA
  0
DICTIONARY
  5
1F7
330
EC
100
AcDbDictionary
280
     1
281
     1
  3
FBXASSET
360
1F8
  0
DICTIONARY
  5
173
330
EE
100
AcDbDictionary
280
     1
281
     1
  3
BUMPTILE
360
175
  3
DIFFUSETILE
360
174
  3
FBXASSET
360
1FB
  3
OPACITYTILE
360
176
  3
REFLECTIONTILE
360
177
  0
DICTIONARY
  5
B68
330
28E
100
AcDbDictionary
280
     1
281
     1
  3
ACAD_XREC_ROUNDTRIP
360
B69
  0
DICTIONARY
  5
B64
330
21A
100
AcDbDictionary
280
     1
281
     1
  3
ACAD_XREC_ROUNDTRIP
360
B65
  0
DICTIONARY
  5
162
330
7F
100
AcDbDictionary
280
     1
281
     1
  3
ACAD_ROUNDTRIP_2008_TABLESTYLE_CELLSTYLEMAP
360
B5A
  0
XRECORD
  5
B5C
102
{ACAD_REACTORS
330
B62
102
}
330
B62
100
AcDbXrecord
280
     1
  1
AcDb_Thumbnail_Schema
102
{ATTRRECORD
341
B5D
  2
AcDbDs::TreatedAsObjectData
280
     1
291
     1
102
ATTRRECORD}
102
{ATTRRECORD
341
B5E
  2
AcDbDs::Legacy
280
     1
291
     1
102
ATTRRECORD}
  2
AcDbDs::ID
280
    10
 91
        8
102
{ATTRRECORD
341
B5F
  2
AcDs:Indexable
280
     1
291
     1
102
ATTRRECORD}
102
{ATTRRECORD
341
B60
  2
AcDbDs::HandleAttribute
280
     7
282
     1
102
ATTRRECORD}
  2
Thumbnail_Data
280
    15
 91
        0
  0
XRECORD
  5
B5D
102
{ACAD_REACTORS
330
B62
102
}
330
B62
100
AcDbXrecord
280
     1
  1
AcDbDs::TreatedAsObjectDataSchema
  2
AcDbDs::TreatedAsObjectData
280
     1
 91
        0
  0
XRECORD
  5
B5E
102
{ACAD_REACTORS
330
B62
102
}
330
B62
100
AcDbXrecord
280
     1
  1
AcDbDs::LegacySchema
  2
AcDbDs::Legacy
280
     1
 91
        0
  0
XRECORD
  5
B5F
102
{ACAD_REACTORS
330
B62
102
}
330
B62
100
AcDbXrecord
280
     1
  1
AcDbDs::IndexedPropertySchema
  2
AcDs:Indexable
280
     1
 91
        0
  0
XRECORD
  5
B60
102
{ACAD_REACTORS
330
B62
102
}
330
B62
100
AcDbXrecord
280
     1
  1
AcDbDs::HandleAttributeSchema
  2
AcDbDs::HandleAttribute
280
     7
 91
        1
284
     1
  0
XRECORD
  5
B6B
102
{ACAD_REACTORS
330
B6A
102
}
330
B6A
100
AcDbXrecord
280
     1
102
DISPLAYNAME
  1
Imperial24
102
FLAGS
 90
        0
  0
XRECORD
  5
B67
102
{ACAD_REACTORS
330
B66
102
}
330
B66
100
AcDbXrecord
280
     1
102
DISPLAYNAME
  1
Metric50
102
FLAGS
 90
        0
  0
XRECORD
  5
1FA
102
{ACAD_REACTORS
330
1F9
102
}
330
1F9
100
AcDbXrecord
280
     1
 70
     1
 90
429727718
  1
D62C5603-E3A1-4AEA-B7FB-FE5D8D0755AF
310
504B03040A0000080000CC70623B3DEE336E79000000790000001B0000006175746F6465736B2D64657369676E2D7061636B6167652E786D6C3C3F786D6C2076657273696F6E3D22312E302220656E636F64696E673D227574662D3822203F3E3C666F726D6174733E3C666F726D61743E687474703A2F2F736368656D612E
310
6175746F6465736B2E636F6D2F64657369676E2D7061636B6167652F323030393C2F666F726D61743E3C2F666F726D6174733E504B0304140006080800CC70623BD486FD9CA0000000F4000000130000005B436F6E74656E745F54797065735D2E786D6C7D8EC10E82300C865F65E91D8A1E8C310C0EEA1BF002731658846E
310
D98AC1B77784ABF1D8FE5FBFBF75BBCE937A534CCEB38643598122B6FEE978D0B0485F9C41B54DDD7D022595594E1A469170414C76A4D9A4D207E29CF43ECE46F218070CC6BECC4078ACAA135ACF422C856C0E68EA1BF5669944DDD7BCDE7B1F8E415D77AECB980613C2E4AC91FC167A2B244592486606FC29C8FD7F045B9A
310
EF7053A7E60B504B0304140006080800CC70623B853B8169EB0000007C01000008000000636F72652E786D6C8D90416EC3201045AF62CDB6C206821CC7C244919D9CA01740401C94182C03558F5F9C3852BBEB6A467FFE9B197D7EFC9E1EC5975982F5AE035262288C535E5B377690E21535501C055FBC8FBF6C503839990E
310
5619041F179FE64D52DE45E362569DD7661365082642A11EB9E920A89B99642953CC8E702F67A9EE7234257977194EC9EAE275C4EABCCF5EAD5940D4AC6F0E35A568B8F43562CD7046CD199FD07E60174276A7BE677B5EADB0E0D14EEFFB6A31321A0D82627C4084204C3F096B71DD52F6819B16635EADF63F509AF53FA164
310
5DDCD1EDDD17164090FCC8732078B56691CB33A85CD7DCC40F504B0304140006080800CC70623B55019EA25F0000007C00000007000000636E782E786D6C4DCB3B0E80201045D1AD90E915ED2CF8AC45050C11660C8261F98AB1B07AC9C97D42D718D865D3E909258CFD00CCE24AC6E326A164D74DC0B4128928FF32603847
310
2BA13128B1252AC747C6BAB984FC68F0B87FE8960A5C09FE86CFB69FBA01504B0304140006080800CC70623BDBABAAF470010000D40300000C0000006662782F636F72652E786D6CC553D16E823014FD95A6AF4B694182CC941A83FA05FB810A9511A125A5257EFE2E82712ECEB8A7F100CD39F7F69E734AF9FADC366850B6
310
AF8DCE7018308C942E4C59EB2AC3DE1D498AD15A706B8CFB56869196ADCAF00863C12B6B7C374385D14E6907A836A59A41D9F7CA615434B0C8705F7CAA5606D23BA8E84F41278B93AC54100640439DE0BDB320004D43C63716C7C399D30917DCFBBA9CD9BA8469F5B156168B24CED3F7248AC8769F27244EB73B92EED8862C
310
B7F13E0C179B3C8F979C8ECD82BBBABDAA2BAC924E9558448CBD9330242CFA08E3154B5651FCC6D215639C8EE5774DBE2B5F6CF2B5768B68963BB5F5588420E442FC700B1139D4CB01F450C1E918227C2E09DF070D8140C84E1E9AAB8F1340832A9CB13130A5F1376A908D57309505ECF2A0DF179C4E9D30F5B239B87E3823
310
7A79C6F31DE1A8A5AEC08474B03C7837EAE4938639B44E5932B833D2C6B6B279CDC613877FA26EE21F4A2A4C63EC7F29A2F301D1F9F7A0E37D145F504B0304140006080800CC70623B9C113CC27E0000009D0000000B0000006662782F636E782E786D6C4DCCDF0A83201C86E15B91DFB94BFB330DD428C8FB886521330DA7
310
6397BF1A1DECE883878F57749FCDA1B7892F1BBC047A23808C7F84D9FA55424E0BE6803A256208E9EF06C84F9B91703228B1C690F78B66B34CD9A5439DF5CF0BFBF65E35BCA1B8D6A5C6F540381E886698B5741C695F9503EBA150A2F8958E3DC3EA0B504B0304140006080800CC70623B7DF2F77C2A010000120200003100
310
00006662782F41393633353835312D344632462D344230382D423046372D3739314545314133324237412F636F72652E786D6C8D51DB8EC22014FC15C2939B0D2DB4B45643319AE817EC0F6041255A68B86CFCFC856D4D76DF7CE190393373060EDB3DC707F856CE6B6B7A480A0C81328395DA5C7B18C3057510EC3873D686
310
3F34088C18550F330C39BB3A1BA7051AAC09CA84841A2BD5020AEF55806078A44B0FFD7053A328440C89E1EFC52486BBB8AA8214A99D789CF9E05200300FC927E4FB4D5B375D43103D5527440FB843077C5AA3F5861C8F645F5787F59E95B390B318B55CE45AA638FAA2957BD7248B390B7A7CC51F9C124149C82B8C378810
310
84AB2F42B7B8DD56F413775B8C5999E9FF4471926F8AA236A1AE96B8B3CC434E5839373893369E1FAF30EA395917409EB7F26AF8801C171837A4A6AC9C89E9F9C9B1A58BA30FD6A5EF5DDDCF894B9AD9B6A59C957943A9FCAE2FD5BC4DFE03504B0304140006080800CC70623BAD7543B64E01000033030000300000006662
310
782F41393633353835312D344632462D344230382D423046372D3739314545314133324237412F636E782E786D6CD593CD6EC32010845F0571AD6CE3D48AD20813A9873E410FBD12D82434182C7EAAE6EDBB2424CD25871E7B41D6EC30B3FA84F9E67BB2E40B4234DE8DB46F1925E094D7C6ED479AD3AE5951B2113C789FEE
310
6C943839C1488B4C05DF079FE72A69D8C96C13AAD6B8631503449F83828872B949AC57D26200B826A308D316B4064D6E46FCDA41C05550DC9E483A00797BFD207EFB092A45DE9514C1BBD22178396BD39D891265658C238DEA00936C654E5E433CB65A26D9F6EDB5EBC14EBF49A45CB856E66048291F6939A9A81BB5C89177
310
38143CA680F4AA299D66A042CEB3354A2684DC9D8D178FE0D9B8B41CAAD720F880EE7EF93C0C18769E099ECC04D5A102C8049A8A05632F4DDF376CF1DE0F6BB65C2F8627B65A33C6BB62177CEBBDAD973006829F89F22E814B54F4BC2BE347F8AA8F681390B50FA73F804400B5F542E796F19FF974E7F78DB802FE05E20750
310
4B0304140006080800CC70623BE75B7789680500003C100000340000006662782F41393633353835312D344632462D344230382D423046372D3739314545314133324237412F6F626A656374732E786D6CAD575B8F9B3818FD2B887D06C22499CB8AA1CA655245D5B455A356FB305264C061D8018C6C3393D95FBFC7600890
310
A4CD5EF210B0B1BFEBF98E3F7B1FF6596ABC522E1296DF9BAE3D320D9A872C4AF2F8DE2CE5CEBA358D0FBEC719939D65A691938CDE9B6ADAF4BD98B3B2D05311DD91329583D9D5FC0F438434A7A611A644887B5384CF34233629258BA878B12322891DEFF6B66BD70BFB62634E8AE781D082709A4B588AF91C528CDA28B73F
310
1C998EEF39EABBEFA97FBD6A7C7E9553F9D3D79FE442923C3C523610337627CB87ABE99D359D4CC6D6E4FACAB5E6ABF9D2726FC6A3C5F56271377BB88362213924694B38DD99FE47C48627A1E7D49F5A8BB5E1A74C0A599ED3B0F21F1E56366B89112D681E218F0915D0D6F17AD41FBA2A369DCF6335D62ABBD39779D5DDD1
310
11D4D8DE3CBB96B2E04FB8202E41051754A1AA8E8F76B4C6DFE810B580B1547F4B84911149794252234D024EF8BBE963A95AE27B3D310A9D5C215C7960FAEE415ED75694C6AFB17BCACA5D99A60A9AA65F217B0BFC53292ACB92BF283FAD0D3621576592CB5BED907C2FA8E9DF794E35E97BEA31BED21FEB401ABB94C44839
310
DCACBF0E1C5DA8DA5B2F4DFFD32AD86F543D9E565E7056502E157C00AD2671CD534549AB752FCA9CDA00677A313F04E51B22FF19E57B300579E3C97EB29F682D92935CEC18CF901B7B54FD8C51F362B56FC72FE0B3C1EAE335EDCCBF5AEC39ADB17DC238973F804BA5E6F6BFE7AF1FB32E523BE9F3BD571418E3631DCA4D48
310
5250CF639223210A9446CA30052EDF057BD35F8329C1ECD84552BF0DC8D18BE7BCE23BFE6BD960AB4A7DE79923A103BEBD80F911CBAA2C60DB19B01CF164A5583B772EE6D3FFA56666CBCDA74DC97724A48F9A58967497E489C4D979006FD7A05E227A1EBDD0F737C623387A9C844D3709995625106D157315F8B8392CD4E0
310
A0B9A720C4BE9829CEF37EA1E13111214D53925356365ADA634861B52519DD27A00AEB808EAF0628E6F435519D446F45CF2C9CF5214F0A15B2F6D06B79DA3EE3CBF7F56780D2F4E7EF73A0F5E5B02A38D07DC852C6B7C1FBB6664213E0C39E3EBA7FF4E1AD23EA2829407C85E586727488B751B2DB9502BC7B228A3FD68B6E
310
A65A22397E690AA8D158D7E404EC8CDA235CC3B7D1898680131CEC2CDF2638C65196279577750F15884AEE19F94199155B92B13297978469D4F8D358DF0AEF7631E28DC8F0D9F437D5D39A83B2231A1D52D543813A824EF8D44BCFF2FA6A31BD1E8DAD87F1CCB526B3879935BF59CDADD5C37479BB1CDD4CA7B3556B516589
310
EF352754B706114D9C885EC9131DE6EFEB43D99AFE2391C2F958179413D7CFEF6B1B6DB1E7600F00DE6E5C67454A339A4BA2E0FBA85ED26F045D454F463DBFCE484C2F90F2E5E3666003662ED8F755951A7D1BECD5B30B550B2785C8E7320B7292A4838DDA71BBC863ED7613CAF659337A3354231D4FF4A182A54904C2898C
310
98B28C4AD0CE056CCF332A80986E571EE9DBC305BB5FEB7E509220A58D25CF042D712A806AC0AD0C657FDEF80D2D9CEAA2EE4D1C76F60BFE74219A06527D6F82DF6412526107381E55E353090704D085B52408A8913C4ED159D79BDA71BB4BC506F4831350EB6F975CD22D69BF7AC49B91A2C0A9DDA3D5CA36AD20FC478E37
310
E61844E2352865EBCB61A275A65283CAAA9DD27703B4102F5AF51EF5F573B75CBB5AD38BC845F7A49F82A0966A49C2E3EA5EA0ECD326CD965F1DB402C6FA8B51A4658C5C5E2EC9E214602E55810345408596591009A82E7E7FFACA19EEA299B14A0081A705CB3296EBC14CDF658DCD336EA6D1136881AAEB87B81AB9EE53D5
310
F5EB8BC8362082DA24122F98680A4E7930C01A0079749CEA14382A0783E5EBA5A10F8C098456A03D6A4AEB6BB881E2513747552A5DB22C7EDAF83BD5528081A365F7FF06504B0304140006080000CC70623B000000000000000000000000350000006662782F41393633353835312D344632462D344230382D423046372D37
310
39314545314133324237412F76657274696365732E62696E504B0304140006080800CC70623BF270F1330600000004000000360000006662782F41393633353835312D344632462D344230382D423046372D3739314545314133324237412F747269616E676C65732E62696E636660600000504B0304140006080000CC7062
310
3B000000000000000000000000370000006662782F41393633353835312D344632462D344230382D423046372D3739314545314133324237412F617474726962757465732E62696E504B0304140006080800CC70623B08DA0BD19000000041010000360000006662782F41393633353835312D344632462D344230382D4230
310
46372D3739314545314133324237412F6469726563746F72792E786D6C858F410AC3201045AF22B36F53E9A60B35CBEEBAE80D244E44489C6234F4F835464A48035D0DF398FF9F8AF63D0E6CC63039F212F8F9020C7D47C6792B21C5FE7403D62A1188E2E60C98D7234A5830286103A55745067B9D86B8A3CF9C7F90C11DE6
310
07FB144396D7B6A82D282E9A152AD114D5EF2CB866EEE831B8EEA07A7BB5A8D7D61A2BAAEB7FD5F70921FF497D00504B0304140006080800CC70623BEDD1DC58FD000000A00100003B0000006662782F41393633353835312D344632462D344230382D423046372D3739314545314133324237412F7265736F75726365732F
310
636F72652E786D6C8D504B6E833010BD0A9A6D65B00922041947112427E8052C33A156828DFCA97AFC9A40A576D7CDCCE87D344F8F9FBFE667F689CE6B6B3A6039850C8DB2A336530731DC4903D95970676DF82583CCC8193B5861107C72362E3BA4AC096842428D1D7107A5F7182053CF7474E0D507CE32973124857FE48B
310
540F3961CEF244279DE03EB81420DB9EAC1384436FA353E879B1B182C7A8C75DA3C7F453DF353A1075D537A7BA6464B8F535A99AE14A9A2BBD90E350DD183B5CFABE3AF262350B1EF4FC9351399401471025A527C218A1E53BAB5A5AB765F5469B96525EACF23FA6B88CFF34456DC2A1DCE36E360F82A5202F42F062ED2BAD
310
579969AFDD8A6F504B010214000A0000080000CC70623B3DEE336E79000000790000001B00000000000000000000000000000000006175746F6465736B2D64657369676E2D7061636B6167652E786D6C504B01021400140006080800CC70623BD486FD9CA0000000F40000001300000000000000000000000000B20000005B
310
436F6E74656E745F54797065735D2E786D6C504B01021400140006080800CC70623B853B8169EB0000007C010000080000000000000000000000000083010000636F72652E786D6C504B01021400140006080800CC70623B55019EA25F0000007C000000070000000000000000000000000094020000636E782E786D6C504B
310
01021400140006080800CC70623BDBABAAF470010000D40300000C00000000000000000000000000180300006662782F636F72652E786D6C504B01021400140006080800CC70623B9C113CC27E0000009D0000000B00000000000000000000000000B20400006662782F636E782E786D6C504B01021400140006080800CC70
310
623B7DF2F77C2A010000120200003100000000000000000000000000590500006662782F41393633353835312D344632462D344230382D423046372D3739314545314133324237412F636F72652E786D6C504B01021400140006080800CC70623BAD7543B64E010000330300003000000000000000000000000000D2060000
310
6662782F41393633353835312D344632462D344230382D423046372D3739314545314133324237412F636E782E786D6C504B01021400140006080800CC70623BE75B7789680500003C10000034000000000000000000000000006E0800006662782F41393633353835312D344632462D344230382D423046372D3739314545
310
314133324237412F6F626A656374732E786D6C504B01021400140006080000CC70623B0000000000000000000000003500000000000000000000000000280E00006662782F41393633353835312D344632462D344230382D423046372D3739314545314133324237412F76657274696365732E62696E504B01021400140006
310
080800CC70623BF270F133060000000400000036000000000000000000000000007B0E00006662782F41393633353835312D344632462D344230382D423046372D3739314545314133324237412F747269616E676C65732E62696E504B01021400140006080000CC70623B0000000000000000000000003700000000000000
310
000000000000D50E00006662782F41393633353835312D344632462D344230382D423046372D3739314545314133324237412F617474726962757465732E62696E504B01021400140006080800CC70623B08DA0BD1900000004101000036000000000000000000000000002A0F00006662782F41393633353835312D344632
310
462D344230382D423046372D3739314545314133324237412F6469726563746F72792E786D6C504B01021400140006080800CC70623BEDD1DC58FD000000A00100003B000000000000000000000000000E1000006662782F41393633353835312D344632462D344230382D423046372D3739314545314133324237412F7265
310
736F75726365732F636F72652E786D6C504B0506000000000E000E0080040000641100000000
  0
XRECORD
  5
1F8
102
{ACAD_REACTORS
330
1F7
102
}
330
1F7
100
AcDbXrecord
280
     1
 70
     1
 90
429727718
  1
30362254-06B7-45E0-A893-8CFA70E3D6BC
310
504B03040A0000080000CC70623B3DEE336E79000000790000001B0000006175746F6465736B2D64657369676E2D7061636B6167652E786D6C3C3F786D6C2076657273696F6E3D22312E302220656E636F64696E673D227574662D3822203F3E3C666F726D6174733E3C666F726D61743E687474703A2F2F736368656D612E
310
6175746F6465736B2E636F6D2F64657369676E2D7061636B6167652F323030393C2F666F726D61743E3C2F666F726D6174733E504B0304140006080800CC70623BD486FD9CA0000000F4000000130000005B436F6E74656E745F54797065735D2E786D6C7D8EC10E82300C865F65E91D8A1E8C310C0EEA1BF002731658846E
310
D98AC1B77784ABF1D8FE5FBFBF75BBCE937A534CCEB38643598122B6FEE978D0B0485F9C41B54DDD7D022595594E1A469170414C76A4D9A4D207E29CF43ECE46F218070CC6BECC4078ACAA135ACF422C856C0E68EA1BF5669944DDD7BCDE7B1F8E415D77AECB980613C2E4AC91FC167A2B244592486606FC29C8FD7F045B9A
310
EF7053A7E60B504B0304140006080800CC70623B1EC5D7A3EB0000007C01000008000000636F72652E786D6C8D90416EC3201045AF82665B6103C6756C6122AB4D4ED00B204C5C94182C03558F5F9C3852BBEB6A467FFE9B197D71FC9E6FE8CBACC17AD7032D0820E3B41FAD9B7A48F1820F808E52ACDEC75F36404ECDA687
310
4D0629A6D5A76597B477D1B89855E747B38B2A041301E95B6E7A08FAD3CCAA50296647B8168BD2573599823EBB0CA76447F43862C7BCCF5EAC59410E4DDD9C7973C2755553CCCFA4C603E3040F1565ED3B1FDE4E432BCA0D9622DAF9795FAF464533826484B498524CD807E51D79ED187F21878E10516EF63F505AC67F42C9
310
BA58B1FDDD071640D2FCC87D2045B96591CB3DA85CB7DCE40F504B0304140006080800CC70623B55019EA25F0000007C00000007000000636E782E786D6C4DCB3B0E80201045D1AD90E915ED2CF8AC45050C11660C8261F98AB1B07AC9C97D42D718D865D3E909258CFD00CCE24AC6E326A164D74DC0B4128928FF32603847
310
2BA13128B1252AC747C6BAB984FC68F0B87FE8960A5C09FE86CFB69FBA01504B0304140006080800CC70623B8C9102E971010000D40300000C0000006662782F636F72652E786D6CC5535B6E833010BC8AE5DF0A6C08340F1947A84D4ED00B38C6A128602363A31CBFCB234A53A551FA553EC09AD9F5CE8C31DB9E9B1AF5CA
310
7695D1198E428A91D2D214952E33ECDD315861B4E5CC1AE3BE9561A445A3323CC098B3D21ADFCE9034DA29ED00D5A6503328BA4E398C640D8B0C77F253352214DE4145770A5B214FA2546114020D759C75CE8200340D19DE981F0F6746269C33EFAB6266AB02A655C74A59CCF365BADC27CB5D902ED22848F6340DF238A141
310
BE88E2F57B92BFEDF23523433367AE6A2EEAA455C2A902F398D2751045018D3FA264435F3771F242571B4A1919CA6F9A7C5B3CD9E42BED16F12C776AEB308F40C848FC700B1139D4891EF410CEC810227CC6846F8386402064270EF5C5C709A05E49676C024C61FC95EA45ED154CA5211D1FF4FB8291A913A68E9B83EBBB33
310
E2A7673CDE118E5AE8124C0807CB8377834E366998436B950D7A7746DAD846D4CFD978E0F04FD455FC5D49D2D4C6FE9722321F10997F0F32DC47FE05504B0304140006080800CC70623BFFEA85907E0000009D0000000B0000006662782F636E782E786D6C4DCCD10A83201886E15B91FFDC95D95A811AB6F23E625948A6C3
310
E9D8E5AF46073BFAE0E1E365ED67B3E8ADC3CB78C7815C7240DA3DFC64DCC221C519D7805AC182F7F1EF06C88D9BE6703008B6049F9E274D7A1E938DBB5AE3D6131B2589BA0D3D965551E0B2EA732C9B9A624AAEB41E3A557677029960D9AFB4EF11165F504B0304140006080800CC70623B4FEEA4082C0100001202000031
310
0000006662782F39464131463745442D413632322D343644302D413938332D3331353338454246344243312F636F72652E786D6C8D515B6EC32010BC0AE2AB55850DD871ED0813254D72825EC00192A2C460F1A872FC42ED48ED5F7E00CDCECCCEB26C731F6FE05B39AFADE921293004CA082BB5B9F43086336A21D870E6AC
310
0D7F68109861543DCC30E4ECE26C9C164858139409093556AA051CBC570102714B8F1E7AF1A5C6A11862480C7F2DA6415C878B2A4891CA89C7990F2E050073937C42DE1DB7E4F87ED8A36D4329AA9B3D46DBAEAD504556557BD81DEBDD0761E52CE42C462D17B996298E3E6BE59E35C962CE821E1FF18553435012728A7187
310
0841987E927A8D9B35ADDF70BBC6989599FE4F1427F9A4286A132ABAC49D651EF234CD5CE04CDA78BA3DC2A8FB645D00B9DF8B57E215725C60BCA2A463E54C4CE327C7A65E1C7DB02E7DEFCBF594B864C5CA6CDBD49C957943E9FA5D5FBAF336F90F504B0304140006080800CC70623BAD7543B64E01000033030000300000
310
006662782F39464131463745442D413632322D343644302D413938332D3331353338454246344243312F636E782E786D6CD593CD6EC32010845F0571AD6CE3D48AD20813A9873E410FBD12D82434182C7EAAE6EDBB2424CD25871E7B41D6EC30B3FA84F9E67BB2E40B4234DE8DB46F1925E094D7C6ED479AD3AE5951B2113C
310
789FEE6C943839C1488B4C05DF079FE72A69D8C96C13AAD6B8631503449F83828872B949AC57D26200B826A308D316B4064D6E46FCDA41C05550DC9E483A00797BFD207EFB092A45DE9514C1BBD22178396BD39D891265658C238DEA00936C654E5E433CB65A26D9F6EDB5EBC14EBF49A45CB856E66048291F6939A9A81BB5
310
C8917738143CA680F4AA299D66A042CEB3354A2684DC9D8D178FE0D9B8B41CAAD720F880EE7EF93C0C18769E099ECC04D5A102C8049A8A05632F4DDF376CF1DE0F6BB65C2F8627B65A33C6BB62177CEBBDAD973006829F89F22E814B54F4BC2BE347F8AA8F681390B50FA73F804400B5F542E796F19FF974E7F78DB802FE05
310
E207504B0304140006080800CC70623B16AB87BA640500003C100000340000006662782F39464131463745442D413632322D343644302D413938332D3331353338454246344243312F6F626A656374732E786D6CAD575B6FA33818FD2B887DE6924B3BED8A326A92B68A663B534DD4D13E548A0C38942D60649B369D5FBFC7
310
600890A493BDE42160637FD7F31D7FF63E6FB3D478A55C242CBF3247B66B1A340F5994E4F19559CA8D75611A9F7D8F33263BCB4C232719BD32D5B4E97B316765A1A722BA21652A07B3B7B33F0D11D29C9A46981221AE4C113ED38CD8A4942CA2E2C58E882476BCD9DA23BB5ED8171B73523C0F841684D35CC252CCE79062D4
310
468DFA43D7747CCF51DF7D4FFDEB5593E3AB9CCA9FBEFE241792E4E19EB28198C968BAB8199F5D5A67D3E9C49A9E8F47D6EC76B6B0469F26EEFC7C3EBFBCBEB98462213924694B38DD98FE1D62C393D073EA4FADC5DAF04326852CCF6958F90F0F2B9BB5C48816348F90C7840A68EB78EDF68723159BCEE7891A6B95DDE9D3
310
BCEAEEE8086A6C6F9E5D4B59F0175C10A7A0820BAA5055C7473B5AE3CFDD452D602CD5DF12616444529E90D448938013FE6EFA58AA96F85E4F8C42275708571E98FE6827AF6B2B4AE3D7D83D64E5A64C53054DD3AF90BD06FEA9149565C94FCA0F6B834DC85599E4F2423B24DF0B6AFA979E534DFA9E7A4CC6FA631D486393
310
921829879BF5D781A373557BCB85E97FB90DB62B558F8795179C15944B051F40AB495CF35451D26A4727654E6D8033BD98EF82F21D91FF8AF2DD9982BCF1643BDD4EB516C9492E368C67C88DED563FC36D5EACF66DFF057C3658BDBFA69DF9578B3DA735B64F18C7F20770A9D45CFCF7FCF563D6456A277DBEF78A02637CA2
310
43B90A490AEAB94F72244481D24819A6C0E59B606BFA4B3025981DBB48EAB701D97BF19C577CC77F2D1B6C55A9EF3C732474C0B727303F625995056C3B02963D9EAC146BE78EC5FCEC7FA999EBC5EACBAAE41B12D27B4D2C0BBA49F244E2ECDC81B76B502F113D8F5EE8FB1BE3111CDD4FC2AA9B844CAB1288B68AB90A7CDC
310
1C166AB0D3DC5310625FCC14E779BFD0709F8890A629C9292B1B2DED31A4B0DA928CEE135085754027E3018A397D4D5427D15BD1330B677DC8934285AC3DF45A9EB68FF8F2B8FC0A509AFEECFD0FF2DE25CC6047F7214B195F07EFEB9A094D800F7BFAE8FED187B78EA8A3A400F115961BCAD1215E47C966530AF0EE8128FE
310
58CEBB996A8964FFA529A046635D9353B0336A8F700DDF46271A024E70B0B37C9DE01847591E54DED53D54202AB947E4076556AC49C6CA5C9E1226B7F1A7B1BE15DEED62C41B91E1B3E9AFAAA735036547343A925075041DF0A9979E893B391F8FCFA6967B3EFB644DCF6E5CEBFAE272625DCC6FAF3FB93793C5F90CE1EF57
310
407342756B10D1C489E8953CD1617E5CEECAD6F4EF8914CE5D5D504E5C3F1F9736DA62CFC11E00BCDDB8CC8A9466349744C1F75EBDA4DF09BA8A9E8C7A7E9991989E20E5DBDD6A6003664ED8F7A04A8DBE0DF6EAD9B9AA858342E47399053949D2C146EDB85DE4B176BB0965FBAC19BD19AA918E27FA50C1D22402E144464C
310
59462568E704B6E71915404CB72B8FF4EDE184DDAF753F284990D2C6926782963815403548A70C657FDEF80D2D9CEAA2AE4C1C76F60BFE74219A06527D6582DF6412526107381E55E353090704D085B52408D0933C4ED159D79BDA71BB4BC506F4831350EB6F979CD22D69BF7AC49B91A2C0A9DDA3D5CA36AD20FC478E37E6
310
1844E2352865EBCB6EA275A652E3836BE04EFB400BF1A2556F515F1FBB35B2AB35BD889C744FFA1004B5544B121E57F70215746DD2F5E2C1412B602CBF19455AC6C8E5E9922C4E01E65215385004546899059180EAFCF7A707CE7017CD8CDB0410789AB32C63B91E5CEBBBACB17AC6CD347A022D5075FD106377347AAABA7E
310
7D11590744509B44E205134DC1290F06580320F78E537D3D73540E06CB970B431F185308AD40BBD794D6D77003C5A36E8EAA54BA64597CD8F83BD552A080A365F7FF06504B0304140006080000CC70623B000000000000000000000000350000006662782F39464131463745442D413632322D343644302D413938332D3331
310
353338454246344243312F76657274696365732E62696E504B0304140006080800CC70623BF270F1330600000004000000360000006662782F39464131463745442D413632322D343644302D413938332D3331353338454246344243312F747269616E676C65732E62696E636660600000504B0304140006080000CC70623B
310
000000000000000000000000370000006662782F39464131463745442D413632322D343644302D413938332D3331353338454246344243312F617474726962757465732E62696E504B0304140006080800CC70623B08DA0BD19000000041010000360000006662782F39464131463745442D413632322D343644302D413938
310
332D3331353338454246344243312F6469726563746F72792E786D6C858F410AC3201045AF22B36F53E9A60B35CBEEBAE80D244E44489C6234F4F835464A48035D0DF398FF9F8AF63D0E6CC63039F212F8F9020C7D47C6792B21C5FE7403D62A1188E2E60C98D7234A5830286103A55745067B9D86B8A3CF9C7F90C11DE607
310
FB144396D7B6A82D282E9A152AD114D5EF2CB866EEE831B8EEA07A7BB5A8D7D61A2BAAEB7FD5F70921FF497D00504B0304140006080800CC70623B0D6EF93BFE000000A00100003B0000006662782F39464131463745442D413632322D343644302D413938332D3331353338454246344243312F7265736F75726365732F63
310
6F72652E786D6C8D50596E833010BD0A9ADFCA60B334011947A8694ED00B586642AC041B79A97AFC9A40A5F6AF3F33A3B7689E1E3F7DCD8FEC139DD7D6F4C0720A191A65476DA61E62B892236427C19DB5E1970C322367EC618541F0C9D9B8EC90B226A009093576C41D94DE63804C3DD2D18357379C652E63480A7FCF17A9
310
EE72C29CE5894E3AC17D702940B63D59270887DE46A7D0F36263058F518FBB468FE9A7BE6A7420864373B8D4873369AA8691FA421B3294352543C5CAF65C0F6FEF43CB8BD52C78D0F34F46E550061C419494B6843142CB0F5677F4B52BEB177AEC28E5C52AFF638ACBF84F53D42654E51E77B379102C05791282176B5F693D
310
CB4C7BED567C03504B010214000A0000080000CC70623B3DEE336E79000000790000001B00000000000000000000000000000000006175746F6465736B2D64657369676E2D7061636B6167652E786D6C504B01021400140006080800CC70623BD486FD9CA0000000F40000001300000000000000000000000000B20000005B
310
436F6E74656E745F54797065735D2E786D6C504B01021400140006080800CC70623B1EC5D7A3EB0000007C010000080000000000000000000000000083010000636F72652E786D6C504B01021400140006080800CC70623B55019EA25F0000007C000000070000000000000000000000000094020000636E782E786D6C504B
310
01021400140006080800CC70623B8C9102E971010000D40300000C00000000000000000000000000180300006662782F636F72652E786D6C504B01021400140006080800CC70623BFFEA85907E0000009D0000000B00000000000000000000000000B30400006662782F636E782E786D6C504B01021400140006080800CC70
310
623B4FEEA4082C0100001202000031000000000000000000000000005A0500006662782F39464131463745442D413632322D343644302D413938332D3331353338454246344243312F636F72652E786D6C504B01021400140006080800CC70623BAD7543B64E010000330300003000000000000000000000000000D5060000
310
6662782F39464131463745442D413632322D343644302D413938332D3331353338454246344243312F636E782E786D6C504B01021400140006080800CC70623B16AB87BA640500003C1000003400000000000000000000000000710800006662782F39464131463745442D413632322D343644302D413938332D3331353338
310
454246344243312F6F626A656374732E786D6C504B01021400140006080000CC70623B0000000000000000000000003500000000000000000000000000270E00006662782F39464131463745442D413632322D343644302D413938332D3331353338454246344243312F76657274696365732E62696E504B01021400140006
310
080800CC70623BF270F133060000000400000036000000000000000000000000007A0E00006662782F39464131463745442D413632322D343644302D413938332D3331353338454246344243312F747269616E676C65732E62696E504B01021400140006080000CC70623B0000000000000000000000003700000000000000
310
000000000000D40E00006662782F39464131463745442D413632322D343644302D413938332D3331353338454246344243312F617474726962757465732E62696E504B01021400140006080800CC70623B08DA0BD190000000410100003600000000000000000000000000290F00006662782F39464131463745442D413632
310
322D343644302D413938332D3331353338454246344243312F6469726563746F72792E786D6C504B01021400140006080800CC70623B0D6EF93BFE000000A00100003B000000000000000000000000000D1000006662782F39464131463745442D413632322D343644302D413938332D3331353338454246344243312F7265
310
736F75726365732F636F72652E786D6C504B0506000000000E000E0080040000641100000000
  0
XRECORD
  5
175
102
{ACAD_REACTORS
330
173
102
}
330
173
100
AcDbXrecord
280
     1
270
     1
271
     1
  0
XRECORD
  5
174
102
{ACAD_REACTORS
330
173
102
}
330
173
100
AcDbXrecord
280
     1
270
     1
271
     1
  0
XRECORD
  5
1FB
102
{ACAD_REACTORS
330
173
102
}
330
173
100
AcDbXrecord
280
     1
 70
     0
 90
1673772943
  1
ECE7A1D2-D628-4531-984C-D00F80459256
310
504B03040A0000080000CC70623B3DEE336E79000000790000001B0000006175746F6465736B2D64657369676E2D7061636B6167652E786D6C3C3F786D6C2076657273696F6E3D22312E302220656E636F64696E673D227574662D3822203F3E3C666F726D6174733E3C666F726D61743E687474703A2F2F736368656D612E
310
6175746F6465736B2E636F6D2F64657369676E2D7061636B6167652F323030393C2F666F726D61743E3C2F666F726D6174733E504B0304140006080800CC70623BD486FD9CA0000000F4000000130000005B436F6E74656E745F54797065735D2E786D6C7D8EC10E82300C865F65E91D8A1E8C310C0EEA1BF002731658846E
310
D98AC1B77784ABF1D8FE5FBFBF75BBCE937A534CCEB38643598122B6FEE978D0B0485F9C41B54DDD7D022595594E1A469170414C76A4D9A4D207E29CF43ECE46F218070CC6BECC4078ACAA135ACF422C856C0E68EA1BF5669944DDD7BCDE7B1F8E415D77AECB980613C2E4AC91FC167A2B244592486606FC29C8FD7F045B9A
310
EF7053A7E60B504B0304140006080800CC70623BD9DDAED0EC0000007C01000008000000636F72652E786D6C8D90416EC3201045AF82665B61836D9CD8C2444DD39CA01740405C94182C03558F5F9C3852BBEB6A467FFE9B197D7EF89E6EE8CB2CC17A37002D0820E394D7D68D03A478C17B4007C117EFE32F1B20272733C0
310
2A83E0E3E2D3BC49CABB685CCCAAF3DA6CA20CC14440EA969B0182FA34932C648AD911AEC52CD5558EA6A0CF2EC329598D1E47ACCEFBECC59A050463A7EA5833865FEBDD0E37353BE3EE8DBDE3F6786A48D375FBF6CC78B9C282473B3DEFABC5C86834888A900E538A49F5419B9EB47DD5BC907D4F082F57FB1F28CDFA9F50
310
B22ED6D5F6EE030B20687EE43E10BC5CB3C8E51E54AE6B6EE207504B0304140006080800CC70623B55019EA25F0000007C00000007000000636E782E786D6C4DCB3B0E80201045D1AD90E915ED2CF8AC45050C11660C8261F98AB1B07AC9C97D42D718D865D3E909258CFD00CCE24AC6E326A164D74DC0B4128928FF326038
310
472BA13128B1252AC747C6BAB984FC68F0B87FE8960A5C09FE86CFB69FBA01504B0304140006080800CC70623BA24EB22D72010000D40300000C0000006662782F636F72652E786D6CC5535B6E833010BC8AE5DF0A6C5E49888CA3A6694ED00B38E05014B091B1518EDFE511A5A9D228FD2A1F60CDEC7A67C6986DCE4D8D7A
310
69BA4AAB0C073EC548AA5C17952A33ECECD15B61B4E1CC686DBF9561A44423333CC098B3D268D7CE50AE9595CA02AA74216750749DB418E5352C32DCE59FB211BE70162ABA93DF8AFC244AE9073ED050C759670D0840D390E18DF9F1706664C23973AE2A66B62A605A75ACA4C13C4976E1364A12EF355A2EBD384AF65EFA96
310
BC7B8BED2EA6719AAE16FB8491A199335B351775B991C2CA02F390D2D40B028F861F41BCA68B7518BFD0D59A524686F29B26D7164F36B94AD9289CE54E6D1DE6010819891F6E21228B3AD1831EC219194284CF98F06DD01008846CC5A1BEF83801D4CBDC6A1303536877A57A513B0953A94FC707FDBE6064EA84A9E3E6E0FA
310
EE8CF0E9198F7784A316AA0413C2C2F2E0ECA0934D1AE6D05A69BCDE9E91D2A611F573361E38FC1375157F5752AE6B6DFE4B11990F88CCBF0719EE23FF02504B0304140006080800CC70623B408A7D3B7C0000009D0000000B0000006662782F636E782E786D6C4DCCD10A83201886E15B91FFDC552A92A0064DBC8F581632
310
D3703A76F9ABD1C18E3E78F878E5F0D9027ABBFCF2292AE86E2D20171F69F6715550CB827B40839639A5F2770314A7CD293819B45C73AAFB45B35BA61ACAA1C1C7E7855C58C15BC331339661262CC762340413D68D77DA5B42298546CBE6573AF60CEB2F504B0304140006080800CC70623B449FB9BD290100001202000031
310
0000006662782F36394639363044362D344446342D343946362D394244322D3234314243333846323333332F636F72652E786D6C8D515B6EC32010BC0AE22B55850D98B871848994463E412FE002495162B07854397EA176A4F62F3F2C9A9D991D587EB84F37F0AD7D30CEF6905418026DA553C65E7A98E219ED203808EE9D
310
8B7F6810D871D23D2C3014FCE25D9A57483A1BB58D19B54EE9151C43D0110279CB971E06F9A5A7B11A53CC8C70ADE6515EC78BAE4895DB992778883E0700CB907242D17643D7E2538BD869608875438BBAE38922CAC8F1BDD90DB4691A5E2F42C153326A951B95E398B3D1FE599322163C9AE9115F7A3D46ADA0A018778810
310
84E907617BDCEE297BC5BB3DC6BC2EF47FA234AB2745C9D8D8D035EE220B50105E2F0DC1954B9FB747187D9F9D8FA0CCDB042D5FA0C015C65B42DF78BD10F3F3B363CB56C7109DCFDFBBB97E662ED92EB62D13BC2E1BCAE5777DB9966D8A1F504B0304140006080800CC70623BAD7543B64E01000033030000300000006662
310
782F36394639363044362D344446342D343946362D394244322D3234314243333846323333332F636E782E786D6CD593CD6EC32010845F0571AD6CE3D48AD20813A9873E410FBD12D82434182C7EAAE6EDBB2424CD25871E7B41D6EC30B3FA84F9E67BB2E40B4234DE8DB46F1925E094D7C6ED479AD3AE5951B2113C789FEE
310
6C943839C1488B4C05DF079FE72A69D8C96C13AAD6B8631503449F83828872B949AC57D26200B826A308D316B4064D6E46FCDA41C05550DC9E483A00797BFD207EFB092A45DE9514C1BBD22178396BD39D891265658C238DEA00936C654E5E433CB65A26D9F6EDB5EBC14EBF49A45CB856E66048291F6939A9A81BB5C89177
310
38143CA680F4AA299D66A042CEB3354A2684DC9D8D178FE0D9B8B41CAAD720F880EE7EF93C0C18769E099ECC04D5A102C8049A8A05632F4DDF376CF1DE0F6BB65C2F8627B65A33C6BB62177CEBBDAD973006829F89F22E814B54F4BC2BE347F8AA8F681390B50FA73F804400B5F542E796F19FF974E7F78DB802FE05E20750
310
4B0304140006080800CC70623B8D05915C650500003B100000340000006662782F36394639363044362D344446342D343946362D394244322D3234314243333846323333332F6F626A656374732E786D6CAD575B6FA33814FE2B887D06429276DA1565D4266D158D3A339A6846FB502932E050B66023DB74D2FDF5FB190C01
310
9276B2973C046C8ECFF53B17071F77456EBD502133CEAE6CDF9DD81665314F32965ED995DA3A17B6F5310C04E7AA47665B8C14F4CAD6DB7618A48257A5D94AE89654B91AEDDEDDFC61C998326A5B714EA4BCB265FC440BE2924AF184CA6737218AB8E976E7FA6E4338649B0A523E8D98964450A6A029F619B8588D52FE7039
310
B1BD30F0F4F730D0FF866AF6369557DB33949F31A9088B0F848DD8CCFCF9F2767A76E99CCDE733677E3EF59D9BBB9BA5E37F984D16E78BC5E5F5ED25044B25C0C96822E8D60EEFE11B91C581D77CEA34368A1F5329E68CD1B8B61F16D63A1B8E092D294B10C78C4A48EB593D192E7DED9BDEE7995E1B91FDEDD3ACEA9FE831
310
6A756F9F7D4D79F4274C90A7A04248AA51D5F8C718DAE06FB2F75AC4796EBE65D22A88A22223B995679120E2D50E41AA49C260C046A35368846B0BECD0DFF3EBEB8AD4F835768F69B9ADF25C43D30E6B646F807FAA64AD59F61715C7A54127C4AACA98BA3006A9D792DAE165E0D59B61A01FB3A9F9D838D2DAE62445C86166
310
F37564E842E7DE6A69879FEEA2DD5AE7E371E1A5E025154AC307D06A03D73EB5978C58FFA4C8E9033066E0F3BD53BEC1F39F91BE7B55103791EDE6BBB991A2046172CB4581D8B893FA674DDA17A77B3B7C413D1B511FD2743BFF8A38F03A658705E3ADF8015C3A3417FF3D7E439FF591DA0B5F18BC20C1B8981957AE6392A3
310
F43C640C01D1A0B4728E2DD4F26DB4B3C3152A252A3B4E913CEC1C72F012782FF88EFF8637AA552DBEF76408E8A8DE9E50F9E1CB3A2DA0DB1B6039A893B56063DC5B3E3FFB5F72E67AB9FEB4AEC496C4F4C1149625DD662C53E89D7BF0F6151A046260D1337DFDC94502430F83B0EE07A130A224BCAD7DAE1D9FB6CD422FF6
310
920702629C4BB9AE79C12F243C6432A6794E18E5552BA56B431AAB5D91317302B2B071E86C3A42B1A02F999E24061403B5D0EB639195DA655DD3EBEAB4FB862DDF579F014AD0E73C22F99E28DA57FB98E75C6CA2D74D53086D600F4786E0FE3144B771A8A7B900F03594DB8A633CBC49B2EDB69228BB479CF863B5E807AAAB
310
23872F6DFEB4129B949CA33823F58830E86D65621E10047D9DB34D862E8EAC3C2ABC2F7B2C40D67CDFE01F5545B92105AF983AC54D93D69E56FB8E797F88913F898A9FEC705D3F9D1B54EC8426FB500D40A03BD0119B06E1B95DDC7EB8F6975367793EBD70E66733DFB9BC982F9CE564727731999F5D4ECFCE3B8D6A4DC2A0
310
6D50FD148437D110834A64C6CDDF57FBACB5C307A2A477DFE4939736CFEF2B175371E0E10CF0DD1D5C15654E0BCA14D1E87DD02FF93782A162C0A3D95F1524A52770F972BF1EE9809D13CE7DD599467F8ECE9ADD85CE85A34CD45355448C64F9E8A031DC2D596ACC6E5DD93D9B82DE2EF5CAF81363A8E47996A0DE24564A79
310
4115AACE09C55E14540231FDA13C319787134EBF34E3A022514E5B4D9E0826E25C02D5805B15ABE1BEF51B26383D445DD9E875EE33FE4C22DA16427D65A3BCA92CA6D28DD01DF5DC53330704308475351050232CCD31583787BA75774AFB06E5070DD0C8EF484E19968C5D83BA5B90B244D31E54D55A372320FE4786B7EA58
310
44E135AA5467CB7EA333A61683CC6A8C3257034C10CF46F40EF9F5BE59BE5BD30C3C72D235E95D10345C1D45445A5F0BB47E46A5EBE5570F9380B5FA629579952296A773720405982B9DE04011506178964401AA8BDF1FBF0A8EAB6861DD6580C0E38217056766716DAEB2D6FA0917D3E4116581EADB879C4E7CFFB11EFACD
310
3D641311495D92C8676CB409A72D18610D803CE8A626049E8EC1887CB5B44CC39883690DDA8399B4B9855B481E7D71D4A9D22F96E5BB73BF5793020C02137BF837504B0304140006080000CC70623B000000000000000000000000350000006662782F36394639363044362D344446342D343946362D394244322D32343142
310
43333846323333332F76657274696365732E62696E504B0304140006080800CC70623BF270F1330600000004000000360000006662782F36394639363044362D344446342D343946362D394244322D3234314243333846323333332F747269616E676C65732E62696E636660600000504B0304140006080000CC70623B0000
310
00000000000000000000370000006662782F36394639363044362D344446342D343946362D394244322D3234314243333846323333332F617474726962757465732E62696E504B0304140006080800CC70623B08DA0BD19000000041010000360000006662782F36394639363044362D344446342D343946362D394244322D
310
3234314243333846323333332F6469726563746F72792E786D6C858F410AC3201045AF22B36F53E9A60B35CBEEBAE80D244E44489C6234F4F835464A48035D0DF398FF9F8AF63D0E6CC63039F212F8F9020C7D47C6792B21C5FE7403D62A1188E2E60C98D7234A5830286103A55745067B9D86B8A3CF9C7F90C11DE607FB14
310
4396D7B6A82D282E9A152AD114D5EF2CB866EEE831B8EEA07A7BB5A8D7D61A2BAAEB7FD5F70921FF497D00504B0304140006080800CC70623BCA768048FE000000A00100003B0000006662782F36394639363044362D344446342D343946362D394244322D3234314243333846323333332F7265736F75726365732F636F72
310
652E786D6C8D50596E833010BD0A9ADFCA60D600328E9AA639412F609909B1126CE4A5EAF16B0295DABFFECC8CDEA2797AECF8353F924FB44E193D409E5248504B332A3D0D10FC95B4901C39B3C6F85F3248B49871801506CE266BC2B243D2688FDA47549B11775038871E12F988C7004EDE7016A9083E2ADC3D5D84BC8B09
310
D33C8D74D471E6BC8D0192EDC93A815B742658898E651BCB59086ADC356A8C3FD555A1055ED7E7E254D615792D0F075295F585746FF53B694EE78A565DD736979A65AB9933AFE69F8CD2A2F038022F28ED489E135A7CE4554F9BBEA85E68DB53CAB255FEC71496F19FA6A0B42F8B3DEE6673C0F318E4497096AD7DC5F52C33
310
EEB55BFE0D504B010214000A0000080000CC70623B3DEE336E79000000790000001B00000000000000000000000000000000006175746F6465736B2D64657369676E2D7061636B6167652E786D6C504B01021400140006080800CC70623BD486FD9CA0000000F40000001300000000000000000000000000B20000005B436F
310
6E74656E745F54797065735D2E786D6C504B01021400140006080800CC70623BD9DDAED0EC0000007C010000080000000000000000000000000083010000636F72652E786D6C504B01021400140006080800CC70623B55019EA25F0000007C000000070000000000000000000000000095020000636E782E786D6C504B0102
310
1400140006080800CC70623BA24EB22D72010000D40300000C00000000000000000000000000190300006662782F636F72652E786D6C504B01021400140006080800CC70623B408A7D3B7C0000009D0000000B00000000000000000000000000B50400006662782F636E782E786D6C504B01021400140006080800CC70623B
310
449FB9BD290100001202000031000000000000000000000000005A0500006662782F36394639363044362D344446342D343946362D394244322D3234314243333846323333332F636F72652E786D6C504B01021400140006080800CC70623BAD7543B64E010000330300003000000000000000000000000000D20600006662
310
782F36394639363044362D344446342D343946362D394244322D3234314243333846323333332F636E782E786D6C504B01021400140006080800CC70623B8D05915C650500003B10000034000000000000000000000000006E0800006662782F36394639363044362D344446342D343946362D394244322D32343142433338
310
46323333332F6F626A656374732E786D6C504B01021400140006080000CC70623B0000000000000000000000003500000000000000000000000000250E00006662782F36394639363044362D344446342D343946362D394244322D3234314243333846323333332F76657274696365732E62696E504B010214001400060808
310
00CC70623BF270F13306000000040000003600000000000000000000000000780E00006662782F36394639363044362D344446342D343946362D394244322D3234314243333846323333332F747269616E676C65732E62696E504B01021400140006080000CC70623B00000000000000000000000037000000000000000000
310
00000000D20E00006662782F36394639363044362D344446342D343946362D394244322D3234314243333846323333332F617474726962757465732E62696E504B01021400140006080800CC70623B08DA0BD190000000410100003600000000000000000000000000270F00006662782F36394639363044362D344446342D
310
343946362D394244322D3234314243333846323333332F6469726563746F72792E786D6C504B01021400140006080800CC70623BCA768048FE000000A00100003B000000000000000000000000000B1000006662782F36394639363044362D344446342D343946362D394244322D3234314243333846323333332F7265736F
310
75726365732F636F72652E786D6C504B0506000000000E000E0080040000621100000000
  0
XRECORD
  5
176
102
{ACAD_REACTORS
330
173
102
}
330
173
100
AcDbXrecord
280
     1
270
     1
271
     1
  0
XRECORD
  5
177
102
{ACAD_REACTORS
330
173
102
}
330
173
100
AcDbXrecord
280
     1
270
     1
271
     1
  0
XRECORD
  5
B69
102
{ACAD_REACTORS
330
B68
102
}
330
B68
100
AcDbXrecord
280
     1
102
DISPLAYNAME
  1
Imperial24
102
FLAGS
 90
        0
  0
XRECORD
  5
B65
102
{ACAD_REACTORS
330
B64
102
}
330
B64
100
AcDbXrecord
280
     1
102
DISPLAYNAME
  1
Metric50
102
FLAGS
 90
        0
  0
CELLSTYLEMAP
  5
B5A
102
{ACAD_REACTORS
330
162
102
}
330
162
100
AcDbCellStyleMap
 90
        3
300
CELLSTYLE
  1
TABLEFORMAT_BEGIN
 90
        5
170
     1
 91
        0
 92
    32768
 62
   257
 93
        1
300
CONTENTFORMAT
  1
CONTENTFORMAT_BEGIN
 90
        0
 91
        0
 92
      512
 93
        0
300

 40
0.0
140
1.0
 94
        5
 62
     0
340
11
144
6.0
309
CONTENTFORMAT_END
171
     1
301
MARGIN
  1
CELLMARGIN_BEGIN
 40
1.5
 40
1.5
 40
1.5
 40
1.5
 40
4.5
 40
4.5
309
CELLMARGIN_END
 94
        6
 95
        1
302
GRIDFORMAT
  1
GRIDFORMAT_BEGIN
 90
        0
 91
        1
 62
     0
 92
       -2
340
14
 93
        0
 40
1.125
309
GRIDFORMAT_END
 95
        2
302
GRIDFORMAT
  1
GRIDFORMAT_BEGIN
 90
        0
 91
        1
 62
     0
 92
       -2
340
14
 93
        0
 40
1.125
309
GRIDFORMAT_END
 95
        4
302
GRIDFORMAT
  1
GRIDFORMAT_BEGIN
 90
        0
 91
        1
 62
     0
 92
       -2
340
14
 93
        0
 40
1.125
309
GRIDFORMAT_END
 95
        8
302
GRIDFORMAT
  1
GRIDFORMAT_BEGIN
 90
        0
 91
        1
 62
     0
 92
       -2
340
14
 93
        0
 40
1.125
309
GRIDFORMAT_END
 95
       16
302
GRIDFORMAT
  1
GRIDFORMAT_BEGIN
 90
        0
 91
        1
 62
     0
 92
       -2
340
14
 93
        0
 40
1.125
309
GRIDFORMAT_END
 95
       32
302
GRIDFORMAT
  1
GRIDFORMAT_BEGIN
 90
        0
 91
        1
 62
     0
 92
       -2
340
14
 93
        0
 40
1.125
309
GRIDFORMAT_END
309
TABLEFORMAT_END
  1
CELLSTYLE_BEGIN
 90
        1
 91
        1
300
_TITLE
309
CELLSTYLE_END
300
CELLSTYLE
  1
TABLEFORMAT_BEGIN
 90
        5
170
     1
 91
        0
 92
        0
 62
   257
 93
        1
300
CONTENTFORMAT
  1
CONTENTFORMAT_BEGIN
 90
        0
 91
        0
 92
      512
 93
        0
300

 40
0.0
140
1.0
 94
        5
 62
     0
340
11
144
4.5
309
CONTENTFORMAT_END
171
     1
301
MARGIN
  1
CELLMARGIN_BEGIN
 40
1.5
 40
1.5
 40
1.5
 40
1.5
 40
4.5
 40
4.5
309
CELLMARGIN_END
 94
        6
 95
        1
302
GRIDFORMAT
  1
GRIDFORMAT_BEGIN
 90
        0
 91
        1
 62
     0
 92
       -2
340
14
 93
        0
 40
1.125
309
GRIDFORMAT_END
 95
        2
302
GRIDFORMAT
  1
GRIDFORMAT_BEGIN
 90
        0
 91
        1
 62
     0
 92
       -2
340
14
 93
        0
 40
1.125
309
GRIDFORMAT_END
 95
        4
302
GRIDFORMAT
  1
GRIDFORMAT_BEGIN
 90
        0
 91
        1
 62
     0
 92
       -2
340
14
 93
        0
 40
1.125
309
GRIDFORMAT_END
 95
        8
302
GRIDFORMAT
  1
GRIDFORMAT_BEGIN
 90
        0
 91
        1
 62
     0
 92
       -2
340
14
 93
        0
 40
1.125
309
GRIDFORMAT_END
 95
       16
302
GRIDFORMAT
  1
GRIDFORMAT_BEGIN
 90
        0
 91
        1
 62
     0
 92
       -2
340
14
 93
        0
 40
1.125
309
GRIDFORMAT_END
 95
       32
302
GRIDFORMAT
  1
GRIDFORMAT_BEGIN
 90
        0
 91
        1
 62
     0
 92
       -2
340
14
 93
        0
 40
1.125
309
GRIDFORMAT_END
309
TABLEFORMAT_END
  1
CELLSTYLE_BEGIN
 90
        2
 91
        1
300
_HEADER
309
CELLSTYLE_END
300
CELLSTYLE
  1
TABLEFORMAT_BEGIN
 90
        5
170
     1
 91
        0
 92
        0
 62
   257
 93
        1
300
CONTENTFORMAT
  1
CONTENTFORMAT_BEGIN
 90
        0
 91
        0
 92
      512
 93
        0
300

 40
0.0
140
1.0
 94
        2
 62
     0
340
11
144
4.5
309
CONTENTFORMAT_END
171
     1
301
MARGIN
  1
CELLMARGIN_BEGIN
 40
1.5
 40
1.5
 40
1.5
 40
1.5
 40
4.5
 40
4.5
309
CELLMARGIN_END
 94
        6
 95
        1
302
GRIDFORMAT
  1
GRIDFORMAT_BEGIN
 90
        0
 91
        1
 62
     0
 92
       -2
340
14
 93
        0
 40
1.125
309
GRIDFORMAT_END
 95
        2
302
GRIDFORMAT
  1
GRIDFORMAT_BEGIN
 90
        0
 91
        1
 62
     0
 92
       -2
340
14
 93
        0
 40
1.125
309
GRIDFORMAT_END
 95
        4
302
GRIDFORMAT
  1
GRIDFORMAT_BEGIN
 90
        0
 91
        1
 62
     0
 92
       -2
340
14
 93
        0
 40
1.125
309
GRIDFORMAT_END
 95
        8
302
GRIDFORMAT
  1
GRIDFORMAT_BEGIN
 90
        0
 91
        1
 62
     0
 92
       -2
340
14
 93
        0
 40
1.125
309
GRIDFORMAT_END
 95
       16
302
GRIDFORMAT
  1
GRIDFORMAT_BEGIN
 90
        0
 91
        1
 62
     0
 92
       -2
340
14
 93
        0
 40
1.125
309
GRIDFORMAT_END
 95
       32
302
GRIDFORMAT
  1
GRIDFORMAT_BEGIN
 90
        0
 91
        1
 62
     0
 92
       -2
340
14
 93
        0
 40
1.125
309
GRIDFORMAT_END
309
TABLEFORMAT_END
  1
CELLSTYLE_BEGIN
 90
        3
 91
        2
300
_DATA
309
CELLSTYLE_END
  0
ENDSEC
  0
SECTION
  2
ACDSDATA
 70
     2
 71
     8
  0
ACDSSCHEMA
 90
        0
  1
AcDb_Thumbnail_Schema
  2
AcDbDs::ID
280
    10
 91
        8
  2
Thumbnail_Data
280
    15
 91
        0
101
ACDSRECORD
 95
        0
 90
        1
  2
AcDbDs::TreatedAsObjectData
280
     1
291
     1
101
ACDSRECORD
 95
        0
 90
        2
  2
AcDbDs::Legacy
280
     1
291
     1
101
ACDSRECORD
  1
AcDbDs::ID
 90
        3
  2
AcDs:Indexable
280
     1
291
     1
101
ACDSRECORD
  1
AcDbDs::ID
 90
        4
  2
AcDbDs::HandleAttribute
280
     7
282
     1
  0
ACDSSCHEMA
 90
        1
  1
AcDbDs::TreatedAsObjectDataSchema
  2
AcDbDs::TreatedAsObjectData
280
     1
 91
        0
  0
ACDSSCHEMA
 90
        2
  1
AcDbDs::LegacySchema
  2
AcDbDs::Legacy
280
     1
 91
        0
  0
ACDSSCHEMA
 90
        3
  1
AcDbDs::IndexedPropertySchema
  2
AcDs:Indexable
280
     1
 91
        0
  0
ACDSSCHEMA
 90
        4
  1
AcDbDs::HandleAttributeSchema
  2
AcDbDs::HandleAttribute
280
     7
 91
        1
284
     1
  0
ACDSRECORD
 90
        0
  2
AcDbDs::ID
280
    10
320
22
  2
Thumbnail_Data
280
    15
 94
      896
310
89504E470D0A1A0A0000000D49484452000001000000009108030000001BE1960600000300504C5445212830FFFFFF2128300000000000000000000000000000000000000000000000000000330000660000990000CC0000FF0033000033330033660033990033CC0033FF0066000066330066660066990066CC0066FF0099
310
000099330099660099990099CC0099FF00CC0000CC3300CC6600CC9900CCCC00CCFF00FF0000FF3300FF6600FF9900FFCC00FFFF3300003300333300663300993300CC3300FF3333003333333333663333993333CC3333FF3366003366333366663366993366CC3366FF3399003399333399663399993399CC3399FF33CC00
310
33CC3333CC6633CC9933CCCC33CCFF33FF0033FF3333FF6633FF9933FFCC33FFFF6600006600336600666600996600CC6600FF6633006633336633666633996633CC6633FF6666006666336666666666996666CC6666FF6699006699336699666699996699CC6699FF66CC0066CC3366CC6666CC9966CCCC66CCFF66FF0066
310
FF3366FF6666FF9966FFCC66FFFF9900009900339900669900999900CC9900FF9933009933339933669933999933CC9933FF9966009966339966669966999966CC9966FF9999009999339999669999999999CC9999FF99CC0099CC3399CC6699CC9999CCCC99CCFF99FF0099FF3399FF6699FF9999FFCC99FFFFCC0000CC00
310
33CC0066CC0099CC00CCCC00FFCC3300CC3333CC3366CC3399CC33CCCC33FFCC6600CC6633CC6666CC6699CC66CCCC66FFCC9900CC9933CC9966CC9999CC99CCCC99FFCCCC00CCCC33CCCC66CCCC99CCCCCCCCCCFFCCFF00CCFF33CCFF66CCFF99CCFFCCCCFFFFFF0000FF0033FF0066FF0099FF00CCFF00FFFF3300FF3333
310
FF3366FF3399FF33CCFF33FFFF6600FF6633FF6666FF6699FF66CCFF66FFFF9900FF9933FF9966FF9999FF99CCFF99FFFFCC00FFCC33FFCC66FFCC99FFCCCCFFCCFFFFFF00FFFF33FFFF66FFFF99FFFFCCFFFFFF0000000D0D0D1A1A1A2828283535354343435050505D5D5D6B6B6B787878868686939393A1A1A1AEAEAEBB
310
BBBBC9C9C9D6D6D6E4E4E4F1F1F1FFFFFF0000000000000000000000000000000000000000000000000000000000002E4550F10000003B4944415478DAEDC13101000000C2A0F54F6D0B2FA0000000000000000000000000000000000000000000000000000000000000000000000000CE06919100016C9A5B1B0000000049
310
454E44AE426082
  0
ENDSEC
  0
EOF
