  0
SECTION
  2
HEADER
  9
$ACADVER
  1
AC1027
  9
$ACADMAINTVER
 70
   125
  9
$DWGCODEPAGE
  3
ANSI_1252
  9
$LASTSAVEDBY
  1
ufficio.tecnico
  9
$REQUIREDVERSIONS
160
                 0
  9
$INSBASE
 10
0.0
 20
0.0
 30
0.0
  9
$EXTMIN
 10
-23.00000030450866
 20
-22.99999961558762
 30
0.0
  9
$EXTMAX
 10
104.4822164822988
 20
76.54918862213065
 30
0.0
  9
$LIMMIN
 10
0.0
 20
0.0
  9
$LIMMAX
 10
12.0
 20
9.0
  9
$ORTHOMODE
 70
     0
  9
$REGENMODE
 70
     1
  9
$FILLMODE
 70
     1
  9
$QTEXTMODE
 70
     0
  9
$MIRRTEXT
 70
     0
  9
$LTSCALE
 40
1.0
  9
$ATTMODE
 70
     1
  9
$TEXTSIZE
 40
0.2
  9
$TRACEWID
 40
0.05
  9
$TEXTSTYLE
  7
Standard
  9
$CLAYER
  8
0
  9
$CELTYPE
  6
ByLayer
  9
$CECOLOR
 62
   256
  9
$CELTSCALE
 40
1.0
  9
$DISPSILH
 70
     0
  9
$DIMSCALE
 40
1.0
  9
$DIMASZ
 40
0.18
  9
$DIMEXO
 40
0.0625
  9
$DIMDLI
 40
0.38
  9
$DIMRND
 40
0.0
  9
$DIMDLE
 40
0.0
  9
$DIMEXE
 40
0.18
  9
$DIMTP
 40
0.0
  9
$DIMTM
 40
0.0
  9
$DIMTXT
 40
0.18
  9
$DIMCEN
 40
0.09
  9
$DIMTSZ
 40
0.0
  9
$DIMTOL
 70
     0
  9
$DIMLIM
 70
     0
  9
$DIMTIH
 70
     1
  9
$DIMTOH
 70
     1
  9
$DIMSE1
 70
     0
  9
$DIMSE2
 70
     0
  9
$DIMTAD
 70
     0
  9
$DIMZIN
 70
     0
  9
$DIMBLK
  1

  9
$DIMASO
 70
     1
  9
$DIMSHO
 70
     1
  9
$DIMPOST
  1

  9
$DIMAPOST
  1

  9
$DIMALT
 70
     0
  9
$DIMALTD
 70
     2
  9
$DIMALTF
 40
25.4
  9
$DIMLFAC
 40
1.0
  9
$DIMTOFL
 70
     0
  9
$DIMTVP
 40
0.0
  9
$DIMTIX
 70
     0
  9
$DIMSOXD
 70
     0
  9
$DIMSAH
 70
     0
  9
$DIMBLK1
  1

  9
$DIMBLK2
  1

  9
$DIMSTYLE
  2
Standard
  9
$DIMCLRD
 70
     0
  9
$DIMCLRE
 70
     0
  9
$DIMCLRT
 70
     0
  9
$DIMTFAC
 40
1.0
  9
$DIMGAP
 40
0.09
  9
$DIMJUST
 70
     0
  9
$DIMSD1
 70
     0
  9
$DIMSD2
 70
     0
  9
$DIMTOLJ
 70
     1
  9
$DIMTZIN
 70
     0
  9
$DIMALTZ
 70
     0
  9
$DIMALTTZ
 70
     0
  9
$DIMUPT
 70
     0
  9
$DIMDEC
 70
     4
  9
$DIMTDEC
 70
     4
  9
$DIMALTU
 70
     2
  9
$DIMALTTD
 70
     2
  9
$DIMTXSTY
  7
Standard
  9
$DIMAUNIT
 70
     0
  9
$DIMADEC
 70
     0
  9
$DIMALTRND
 40
0.0
  9
$DIMAZIN
 70
     0
  9
$DIMDSEP
 70
    46
  9
$DIMATFIT
 70
     3
  9
$DIMFRAC
 70
     0
  9
$DIMLDRBLK
  1

  9
$DIMLUNIT
 70
     2
  9
$DIMLWD
 70
    -2
  9
$DIMLWE
 70
    -2
  9
$DIMTMOVE
 70
     0
  9
$DIMFXL
 40
1.0
  9
$DIMFXLON
 70
     0
  9
$DIMJOGANG
 40
0.7853981633974483
  9
$DIMTFILL
 70
     0
  9
$DIMTFILLCLR
 70
     0
  9
$DIMARCSYM
 70
     0
  9
$DIMLTYPE
  6

  9
$DIMLTEX1
  6

  9
$DIMLTEX2
  6

  9
$DIMTXTDIRECTION
 70
     0
  9
$LUNITS
 70
     2
  9
$LUPREC
 70
     4
  9
$SKETCHINC
 40
0.1
  9
$FILLETRAD
 40
0.0
  9
$AUNITS
 70
     0
  9
$AUPREC
 70
     0
  9
$MENU
  1
.
  9
$ELEVATION
 40
0.0
  9
$PELEVATION
 40
0.0
  9
$THICKNESS
 40
0.0
  9
$LIMCHECK
 70
     0
  9
$CHAMFERA
 40
0.0
  9
$CHAMFERB
 40
0.0
  9
$CHAMFERC
 40
0.0
  9
$CHAMFERD
 40
0.0
  9
$SKPOLY
 70
     0
  9
$TDCREATE
 40
2459328.431932870
  9
$TDUCREATE
 40
2459328.348599537
  9
$TDUPDATE
 40
2459341.395868056
  9
$TDUUPDATE
 40
2459341.312534722
  9
$TDINDWG
 40
0.0097337963
  9
$TDUSRTIMER
 40
0.0097337963
  9
$USRTIMER
 70
     1
  9
$ANGBASE
 50
0.0
  9
$ANGDIR
 70
     0
  9
$PDMODE
 70
     0
  9
$PDSIZE
 40
0.0
  9
$PLINEWID
 40
0.0
  9
$SPLFRAME
 70
     0
  9
$SPLINETYPE
 70
     6
  9
$SPLINESEGS
 70
     8
  9
$HANDSEED
  5
D69
  9
$SURFTAB1
 70
     6
  9
$SURFTAB2
 70
     6
  9
$SURFTYPE
 70
     6
  9
$SURFU
 70
     6
  9
$SURFV
 70
     6
  9
$UCSBASE
  2

  9
$UCSNAME
  2

  9
$UCSORG
 10
0.0
 20
0.0
 30
0.0
  9
$UCSXDIR
 10
1.0
 20
0.0
 30
0.0
  9
$UCSYDIR
 10
0.0
 20
1.0
 30
0.0
  9
$UCSORTHOREF
  2

  9
$UCSORTHOVIEW
 70
     0
  9
$UCSORGTOP
 10
0.0
 20
0.0
 30
0.0
  9
$UCSORGBOTTOM
 10
0.0
 20
0.0
 30
0.0
  9
$UCSORGLEFT
 10
0.0
 20
0.0
 30
0.0
  9
$UCSORGRIGHT
 10
0.0
 20
0.0
 30
0.0
  9
$UCSORGFRONT
 10
0.0
 20
0.0
 30
0.0
  9
$UCSORGBACK
 10
0.0
 20
0.0
 30
0.0
  9
$PUCSBASE
  2

  9
$PUCSNAME
  2

  9
$PUCSORG
 10
0.0
 20
0.0
 30
0.0
  9
$PUCSXDIR
 10
1.0
 20
0.0
 30
0.0
  9
$PUCSYDIR
 10
0.0
 20
1.0
 30
0.0
  9
$PUCSORTHOREF
  2

  9
$PUCSORTHOVIEW
 70
     0
  9
$PUCSORGTOP
 10
0.0
 20
0.0
 30
0.0
  9
$PUCSORGBOTTOM
 10
0.0
 20
0.0
 30
0.0
  9
$PUCSORGLEFT
 10
0.0
 20
0.0
 30
0.0
  9
$PUCSORGRIGHT
 10
0.0
 20
0.0
 30
0.0
  9
$PUCSORGFRONT
 10
0.0
 20
0.0
 30
0.0
  9
$PUCSORGBACK
 10
0.0
 20
0.0
 30
0.0
  9
$USERI1
 70
     0
  9
$USERI2
 70
     0
  9
$USERI3
 70
     0
  9
$USERI4
 70
     0
  9
$USERI5
 70
     0
  9
$USERR1
 40
0.0
  9
$USERR2
 40
0.0
  9
$USERR3
 40
0.0
  9
$USERR4
 40
0.0
  9
$USERR5
 40
0.0
  9
$WORLDVIEW
 70
     1
  9
$SHADEDGE
 70
     3
  9
$SHADEDIF
 70
    70
  9
$TILEMODE
 70
     1
  9
$MAXACTVP
 70
    64
  9
$PINSBASE
 10
0.0
 20
0.0
 30
0.0
  9
$PLIMCHECK
 70
     0
  9
$PEXTMIN
 10
1.000000000000000E+20
 20
1.000000000000000E+20
 30
1.000000000000000E+20
  9
$PEXTMAX
 10
-1.000000000000000E+20
 20
-1.000000000000000E+20
 30
-1.000000000000000E+20
  9
$PLIMMIN
 10
0.0
 20
0.0
  9
$PLIMMAX
 10
12.0
 20
9.0
  9
$UNITMODE
 70
     0
  9
$VISRETAIN
 70
     1
  9
$PLINEGEN
 70
     0
  9
$PSLTSCALE
 70
     1
  9
$TREEDEPTH
 70
  3020
  9
$CMLSTYLE
  2
Standard
  9
$CMLJUST
 70
     0
  9
$CMLSCALE
 40
1.0
  9
$PROXYGRAPHICS
 70
     1
  9
$MEASUREMENT
 70
     0
  9
$CELWEIGHT
370
    -1
  9
$ENDCAPS
280
     0
  9
$JOINSTYLE
280
     0
  9
$LWDISPLAY
290
     1
  9
$INSUNITS
 70
     5
  9
$HYPERLINKBASE
  1

  9
$STYLESHEET
  1

  9
$XEDIT
290
     1
  9
$CEPSNTYPE
380
     0
  9
$PSTYLEMODE
290
     1
  9
$FINGERPRINTGUID
  2
{DB6A08B1-8825-3C4A-A80C-4CD52FAED8A9}
  9
$VERSIONGUID
  2
{BCE61988-4574-7F4F-AB9B-54D758E95402}
  9
$EXTNAMES
290
     1
  9
$PSVPSCALE
 40
0.0
  9
$OLESTARTUP
290
     0
  9
$SORTENTS
280
   127
  9
$INDEXCTL
280
     0
  9
$HIDETEXT
280
     1
  9
$XCLIPFRAME
280
     2
  9
$HALOGAP
280
     0
  9
$OBSCOLOR
 70
   257
  9
$OBSLTYPE
280
     0
  9
$INTERSECTIONDISPLAY
280
     0
  9
$INTERSECTIONCOLOR
 70
   257
  9
$DIMASSOC
280
     2
  9
$PROJECTNAME
  1

  9
$CAMERADISPLAY
290
     0
  9
$LENSLENGTH
 40
50.0
  9
$CAMERAHEIGHT
 40
0.0
  9
$STEPSPERSEC
 40
2.0
  9
$STEPSIZE
 40
6.0
  9
$3DDWFPREC
 40
2.0
  9
$PSOLWIDTH
 40
0.25
  9
$PSOLHEIGHT
 40
4.0
  9
$LOFTANG1
 40
1.570796326794896
  9
$LOFTANG2
 40
1.570796326794896
  9
$LOFTMAG1
 40
0.0
  9
$LOFTMAG2
 40
0.0
  9
$LOFTPARAM
 70
     7
  9
$LOFTNORMALS
280
     1
  9
$LATITUDE
 40
37.795
  9
$LONGITUDE
 40
-122.394
  9
$NORTHDIRECTION
 40
0.0
  9
$TIMEZONE
 70
 -8000
  9
$LIGHTGLYPHDISPLAY
280
     1
  9
$TILEMODELIGHTSYNCH
280
     1
  9
$CMATERIAL
347
11
  9
$SOLIDHIST
280
     0
  9
$SHOWHIST
280
     1
  9
$DWFFRAME
280
     2
  9
$DGNFRAME
280
     0
  9
$REALWORLDSCALE
290
     1
  9
$INTERFERECOLOR
 62
     1
  9
$INTERFEREOBJVS
345
33
  9
$INTERFEREVPVS
346
30
  9
$CSHADOW
280
     0
  9
$SHADOWPLANELOCATION
 40
0.0
  0
ENDSEC
  0
SECTION
  2
CLASSES
  0
CLASS
  1
ACDBDICTIONARYWDFLT
  2
AcDbDictionaryWithDefault
  3
ObjectDBX Classes
 90
        0
 91
        1
280
     0
281
     0
  0
CLASS
  1
MATERIAL
  2
AcDbMaterial
  3
ObjectDBX Classes
 90
     1153
 91
        3
280
     0
281
     0
  0
CLASS
  1
VISUALSTYLE
  2
AcDbVisualStyle
  3
ObjectDBX Classes
 90
     4095
 91
       24
280
     0
281
     0
  0
CLASS
  1
SCALE
  2
AcDbScale
  3
ObjectDBX Classes
 90
     1153
 91
       17
280
     0
281
     0
  0
CLASS
  1
TABLESTYLE
  2
AcDbTableStyle
  3
ObjectDBX Classes
 90
     4095
 91
        1
280
     0
281
     0
  0
CLASS
  1
MLEADERSTYLE
  2
AcDbMLeaderStyle
  3
ACDB_MLEADERSTYLE_CLASS
 90
     4095
 91
        1
280
     0
281
     0
  0
CLASS
  1
ACDBSECTIONVIEWSTYLE
  2
AcDbSectionViewStyle
  3
ObjectDBX Classes
 90
     1025
 91
        1
280
     0
281
     0
  0
CLASS
  1
ACDBDETAILVIEWSTYLE
  2
AcDbDetailViewStyle
  3
ObjectDBX Classes
 90
     1025
 91
        1
280
     0
281
     0
  0
CLASS
  1
DICTIONARYVAR
  2
AcDbDictionaryVar
  3
ObjectDBX Classes
 90
        0
 91
        5
280
     0
281
     0
  0
CLASS
  1
CELLSTYLEMAP
  2
AcDbCellStyleMap
  3
ObjectDBX Classes
 90
     1152
 91
        7
280
     0
281
     0
  0
CLASS
  1
SORTENTSTABLE
  2
AcDbSortentsTable
  3
ObjectDBX Classes
 90
        0
 91
        3
280
     0
281
     0
  0
ENDSEC
  0
SECTION
  2
TABLES
  0
TABLE
  2
VPORT
  5
8
330
0
100
AcDbSymbolTable
 70
     1
1001
ACAD
1000
DbSaveVer
1071
      105
  0
VPORT
  5
57
330
8
100
AcDbSymbolTableRecord
100
AcDbViewportTableRecord
  2
*Active
 70
     0
 10
0.0
 20
0.0
 11
1.0
 21
1.0
 12
24.41625756357661
 22
41.53377458958431
 13
0.0
 23
0.0
 14
1.0
 24
1.0
 15
0.0
 25
0.0
 16
0.0
 26
0.0
 36
1.0
 17
14.84999673225613
 27
-10.50008306681943
 37
0.0
 40
360.3206972995867
 41
1.931468531468531
 42
50.0
 43
0.0
 44
0.0
 50
0.0
 51
0.0
 71
     0
 72
   100
 73
     1
 74
     0
 75
     1
 76
     0
 77
     0
 78
     0
281
     0
 65
     1
110
0.0
120
0.0
130
0.0
111
1.0
121
0.0
131
0.0
112
0.0
122
1.0
132
0.0
 79
     0
146
0.0
348
2F
 60
     3
 61
     5
292
     1
282
     1
141
0.0
142
0.0
 63
   250
421
  3355443
1001
ACAD_NAV_VCDISPLAY
1070
     3
  0
ENDTAB
  0
TABLE
  2
LTYPE
  5
5
330
0
100
AcDbSymbolTable
 70
     1
  0
LTYPE
  5
5B
330
5
100
AcDbSymbolTableRecord
100
AcDbLinetypeTableRecord
  2
ByBlock
 70
     0
  3

 72
    65
 73
     0
 40
0.0
  0
LTYPE
  5
5C
330
5
100
AcDbSymbolTableRecord
100
AcDbLinetypeTableRecord
  2
ByLayer
 70
     0
  3

 72
    65
 73
     0
 40
0.0
  0
LTYPE
  5
5D
330
5
100
AcDbSymbolTableRecord
100
AcDbLinetypeTableRecord
  2
Continuous
 70
     0
  3
Solid line
 72
    65
 73
     0
 40
0.0
  0
ENDTAB
  0
TABLE
  2
LAYER
  5
2
330
0
100
AcDbSymbolTable
 70
     3
  0
LAYER
  5
54
330
2
100
AcDbSymbolTableRecord
100
AcDbLayerTableRecord
  2
0
 70
     0
 62
     7
  6
Continuous
370
    -3
390
F
347
21
348
0
  0
LAYER
  5
78
330
2
100
AcDbSymbolTableRecord
100
AcDbLayerTableRecord
  2
Livello 3
 70
     0
 62
     7
  6
Continuous
370
     0
390
F
347
21
348
0
  0
LAYER
  5
5C8
330
2
100
AcDbSymbolTableRecord
100
AcDbLayerTableRecord
  2
Livello 1
 70
     0
 62
     7
  6
Continuous
370
     0
390
F
347
21
348
0
  0
ENDTAB
  0
TABLE
  2
STYLE
  5
3
330
0
100
AcDbSymbolTable
 70
     2
  0
STYLE
  5
55
330
3
100
AcDbSymbolTableRecord
100
AcDbTextStyleTableRecord
  2
Standard
 70
     0
 40
0.0
 41
1.0
 50
0.0
 71
     0
 42
0.2
  3
txt
  4

  0
STYLE
  5
5A
330
3
100
AcDbSymbolTableRecord
100
AcDbTextStyleTableRecord
  2
Annotative
 70
     0
 40
0.0
 41
1.0
 50
0.0
 71
     0
 42
0.2
  3
txt
  4

1001
AcadAnnotative
1000
AnnotativeData
1002
{
1070
     1
1070
     1
1002
}
  0
ENDTAB
  0
TABLE
  2
VIEW
  5
6
330
0
100
AcDbSymbolTable
 70
     0
  0
ENDTAB
  0
TABLE
  2
UCS
  5
7
330
0
100
AcDbSymbolTable
 70
     0
  0
ENDTAB
  0
TABLE
  2
APPID
  5
9
330
0
100
AcDbSymbolTable
 70
     3
  0
APPID
  5
56
330
9
100
AcDbSymbolTableRecord
100
AcDbRegAppTableRecord
  2
ACAD
 70
     0
  0
APPID
  5
5E
330
9
100
AcDbSymbolTableRecord
100
AcDbRegAppTableRecord
  2
AcadAnnotative
 70
     0
  0
APPID
  5
59C
330
9
100
AcDbSymbolTableRecord
100
AcDbRegAppTableRecord
  2
ACAD_NAV_VCDISPLAY
 70
     0
  0
ENDTAB
  0
TABLE
  2
DIMSTYLE
  5
A
330
0
100
AcDbSymbolTable
 70
     2
100
AcDbDimStyleTable
 71
     0
  0
DIMSTYLE
105
58
330
A
100
AcDbSymbolTableRecord
100
AcDbDimStyleTableRecord
  2
Standard
 70
     0
340
55
  0
DIMSTYLE
105
59
330
A
100
AcDbSymbolTableRecord
100
AcDbDimStyleTableRecord
  2
Annotative
 70
     0
340
55
1001
AcadAnnotative
1000
AnnotativeData
1002
{
1070
     1
1070
     1
1002
}
  0
ENDTAB
  0
TABLE
  2
BLOCK_RECORD
  5
1
330
0
100
AcDbSymbolTable
 70
    11
  0
BLOCK_RECORD
  5
70
102
{ACAD_XDICTIONARY
360
59D
102
}
330
1
100
AcDbSymbolTableRecord
100
AcDbBlockTableRecord
  2
*Model_Space
340
73
 70
     0
280
     1
281
     0
  0
BLOCK_RECORD
  5
6C
330
1
100
AcDbSymbolTableRecord
100
AcDbBlockTableRecord
  2
*Paper_Space
340
6F
 70
     0
280
     1
281
     0
  0
BLOCK_RECORD
  5
74
330
1
100
AcDbSymbolTableRecord
100
AcDbBlockTableRecord
  2
*Paper_Space0
340
77
 70
     0
280
     1
281
     0
  0
BLOCK_RECORD
  5
51F
330
1
100
AcDbSymbolTableRecord
100
AcDbBlockTableRecord
  2
Block_0
340
0
 70
     0
280
     1
281
     0
  0
BLOCK_RECORD
  5
523
330
1
100
AcDbSymbolTableRecord
100
AcDbBlockTableRecord
  2
Block_1
340
0
102
{BLKREFS
331
524
102
}
 70
     0
280
     1
281
     0
  0
BLOCK_RECORD
  5
52F
330
1
100
AcDbSymbolTableRecord
100
AcDbBlockTableRecord
  2
Block_2
340
0
 70
     0
280
     1
281
     0
  0
BLOCK_RECORD
  5
533
330
1
100
AcDbSymbolTableRecord
100
AcDbBlockTableRecord
  2
Block_3
340
0
102
{BLKREFS
331
534
102
}
 70
     0
280
     1
281
     0
  0
BLOCK_RECORD
  5
53C
330
1
100
AcDbSymbolTableRecord
100
AcDbBlockTableRecord
  2
Block_4
340
0
 70
     0
280
     1
281
     0
  0
BLOCK_RECORD
  5
540
330
1
100
AcDbSymbolTableRecord
100
AcDbBlockTableRecord
  2
Block_5
340
0
102
{BLKREFS
331
541
102
}
 70
     0
280
     1
281
     0
  0
BLOCK_RECORD
  5
54B
330
1
100
AcDbSymbolTableRecord
100
AcDbBlockTableRecord
  2
Block_6
340
0
 70
     0
280
     1
281
     0
  0
BLOCK_RECORD
  5
54F
330
1
100
AcDbSymbolTableRecord
100
AcDbBlockTableRecord
  2
Block_7
340
0
102
{BLKREFS
331
550
102
}
 70
     0
280
     1
281
     0
  0
ENDTAB
  0
ENDSEC
  0
SECTION
  2
BLOCKS
  0
BLOCK
  5
71
330
70
100
AcDbEntity
  8
0
100
AcDbBlockBegin
  2
*Model_Space
 70
     0
 10
0.0
 20
0.0
 30
0.0
  3
*Model_Space
  1

  0
ENDBLK
  5
72
330
70
100
AcDbEntity
  8
0
100
AcDbBlockEnd
  0
BLOCK
  5
6D
330
6C
100
AcDbEntity
 67
     1
  8
0
100
AcDbBlockBegin
  2
*Paper_Space
 70
     0
 10
0.0
 20
0.0
 30
0.0
  3
*Paper_Space
  1

  0
ENDBLK
  5
6E
330
6C
100
AcDbEntity
 67
     1
  8
0
100
AcDbBlockEnd
  0
BLOCK
  5
75
330
74
100
AcDbEntity
 67
     1
  8
0
100
AcDbBlockBegin
  2
*Paper_Space0
 70
     0
 10
0.0
 20
0.0
 30
0.0
  3
*Paper_Space0
  1

  0
ENDBLK
  5
76
330
74
100
AcDbEntity
 67
     1
  8
0
100
AcDbBlockEnd
  0
BLOCK
  5
521
330
51F
100
AcDbEntity
  8
0
100
AcDbBlockBegin
  2
Block_0
 70
     0
 10
0.0
 20
0.0
 30
0.0
  3
Block_0
  1

  0
INSERT
  5
524
330
51F
100
AcDbEntity
  8
Livello 3
100
AcDbBlockReference
  2
Block_1
 10
0.0
 20
0.0
 30
0.0
  0
ENDBLK
  5
522
330
51F
100
AcDbEntity
  8
0
100
AcDbBlockEnd
  0
BLOCK
  5
525
330
523
100
AcDbEntity
  8
0
100
AcDbBlockBegin
  2
Block_1
 70
     0
 10
0.0
 20
0.0
 30
0.0
  3
Block_1
  1

  0
SPLINE
  5
527
330
523
100
AcDbEntity
  8
Livello 3
100
AcDbSpline
210
0.0
220
0.0
230
1.0
 70
    11
 71
     3
 72
    20
 73
    16
 74
     0
 42
0.000000001
 43
0.0000000001
 40
0.0
 40
0.0
 40
0.0
 40
0.0
 40
1.0
 40
1.0
 40
1.0
 40
2.0
 40
2.0
 40
2.0
 40
3.0
 40
3.0
 40
3.0
 40
4.0
 40
4.0
 40
4.0
 40
5.0
 40
5.0
 40
5.0
 40
5.0
 10
13.54756238810616
 20
-8.907225475203746
 30
0.0
 10
13.54756238810616
 20
-8.789127601969383
 30
0.0
 10
13.48026244780181
 20
-8.718020831153825
 30
0.0
 10
13.37740912208967
 20
-8.718020831153825
 30
0.0
 10
13.31010918178532
 20
-8.718020831153825
 30
0.0
 10
13.24787353184428
 20
-8.759930417731892
 30
0.0
 10
13.21740166227724
 20
-8.819599471536418
 30
0.0
 10
13.20978800125484
 20
-8.832294648399564
 30
0.0
 10
13.2047064854141
 20
-8.848813881251338
 30
0.0
 10
13.2047064854141
 20
-8.869122719136884
 30
0.0
 10
13.20723863059576
 20
-9.004997285075136
 30
0.0
 10
13.2694742805368
 20
-9.105318465605613
 30
0.0
 10
13.38629746844162
 20
-9.105318465605613
 30
0.0
 10
13.48279459298346
 20
-9.105318465605613
 30
0.0
 10
13.54756238810616
 20
-9.025323348438112
 30
0.0
 10
13.54756238810616
 20
-8.907225475203746
 30
0.0
  0
SPLINE
  5
528
330
523
100
AcDbEntity
  8
Livello 3
100
AcDbSpline
210
0.0
220
0.0
230
1.0
 70
     9
 71
     3
 72
    38
 73
    34
 74
     0
 42
0.000000001
 43
0.0000000001
 40
0.0
 40
0.0
 40
0.0
 40
0.0
 40
1.0
 40
1.0
 40
1.0
 40
2.0
 40
2.0
 40
2.0
 40
3.0
 40
3.0
 40
3.0
 40
4.0
 40
4.0
 40
4.0
 40
5.0
 40
5.0
 40
5.0
 40
6.0
 40
6.0
 40
6.0
 40
7.0
 40
7.0
 40
7.0
 40
8.0
 40
8.0
 40
8.0
 40
9.0
 40
9.0
 40
9.0
 40
10.0
 40
10.0
 40
10.0
 40
11.0
 40
11.0
 40
11.0
 40
11.0
 10
13.57930894300274
 20
-8.43102715175509
 30
0.0
 10
13.55645073445811
 20
-8.429769691902974
 30
0.0
 10
13.52725355022061
 20
-8.43102715175509
 30
0.0
 10
13.49550699532404
 20
-8.436108667595831
 30
0.0
 10
13.32025498798938
 20
-8.465323077310751
 30
0.0
 10
13.22756469395873
 20
-8.593566756749176
 30
0.0
 10
13.2085133159253
 20
-8.729441322687428
 30
0.0
 10
13.2085133159253
 20
-8.729441322687428
 30
0.0
 10
13.2123201464365
 20
-8.729441322687428
 30
0.0
 10
13.2123201464365
 20
-8.729441322687428
 30
0.0
 10
13.25169758783291
 20
-8.677385929905305
 30
0.0
 10
13.32025498798938
 20
-8.634201657997698
 30
0.0
 10
13.41168782216791
 20
-8.634201657997698
 30
0.0
 10
13.55772541978765
 20
-8.634201657997698
 30
0.0
 10
13.66057874549978
 20
-8.739604354368918
 30
0.0
 10
13.66057874549978
 20
-8.900869274033462
 30
0.0
 10
13.66057874549978
 20
-9.051988387493942
 30
0.0
 10
13.55772541978765
 20
-9.1916697839434
 30
0.0
 10
13.38629746844162
 20
-9.1916697839434
 30
0.0
 10
13.20978800125484
 20
-9.1916697839434
 30
0.0
 10
13.09422227320214
 20
-9.054520532675603
 30
0.0
 10
13.09422227320214
 20
-8.839925534899391
 30
0.0
 10
13.09422227320214
 20
-8.677385929905305
 30
0.0
 10
13.15263386715455
 20
-8.549125024989454
 30
0.0
 10
13.23390366965159
 20
-8.46785522249241
 30
0.0
 10
13.30247829528549
 20
-8.400555282188053
 30
0.0
 10
13.39391112946402
 20
-8.35864569560999
 30
0.0
 10
13.4980391405057
 20
-8.345950518746843
 30
0.0
 10
13.53106038073182
 20
-8.340869002906101
 30
0.0
 10
13.55898287963977
 20
-8.339611543053985
 30
0.0
 10
13.57930894300274
 20
-8.339611543053985
 30
0.0
 10
13.57930894300274
 20
-8.339611543053985
 30
0.0
 10
13.57930894300274
 20
-8.43102715175509
 30
0.0
 10
13.57930894300274
 20
-8.43102715175509
 30
0.0
  0
HATCH
  5
529
330
523
100
AcDbEntity
  8
Livello 3
 62
   250
420
  1907995
440
 33554687
100
AcDbHatch
 10
0.0
 20
0.0
 30
0.0
210
0.0
220
0.0
230
1.0
  2
SOLID
 70
     1
 71
     1
 91
        2
 92
        1
 93
        1
 72
     4
 94
        3
 73
     0
 74
     0
 95
       20
 96
       16
 40
0.0
 40
0.0
 40
0.0
 40
0.0
 40
1.0
 40
1.0
 40
1.0
 40
2.0
 40
2.0
 40
2.0
 40
3.0
 40
3.0
 40
3.0
 40
4.0
 40
4.0
 40
4.0
 40
5.0
 40
5.0
 40
5.0
 40
5.0
 10
13.54756238810616
 20
-8.907225475203746
 10
13.54756238810616
 20
-8.789127601969383
 10
13.48026244780181
 20
-8.718020831153825
 10
13.37740912208967
 20
-8.718020831153825
 10
13.31010918178532
 20
-8.718020831153825
 10
13.24787353184428
 20
-8.759930417731892
 10
13.21740166227724
 20
-8.819599471536418
 10
13.20978800125484
 20
-8.832294648399564
 10
13.2047064854141
 20
-8.848813881251338
 10
13.2047064854141
 20
-8.869122719136884
 10
13.20723863059576
 20
-9.004997285075136
 10
13.2694742805368
 20
-9.105318465605613
 10
13.38629746844162
 20
-9.105318465605613
 10
13.48279459298346
 20
-9.105318465605613
 10
13.54756238810616
 20
-9.025323348438112
 10
13.54756238810616
 20
-8.907225475203746
 97
        0
 97
        1
330
527
 92
        1
 93
        1
 72
     4
 94
        3
 73
     0
 74
     0
 95
       38
 96
       34
 40
0.0
 40
0.0
 40
0.0
 40
0.0
 40
1.0
 40
1.0
 40
1.0
 40
2.0
 40
2.0
 40
2.0
 40
3.0
 40
3.0
 40
3.0
 40
4.0
 40
4.0
 40
4.0
 40
5.0
 40
5.0
 40
5.0
 40
6.0
 40
6.0
 40
6.0
 40
7.0
 40
7.0
 40
7.0
 40
8.0
 40
8.0
 40
8.0
 40
9.0
 40
9.0
 40
9.0
 40
10.0
 40
10.0
 40
10.0
 40
11.0
 40
11.0
 40
11.0
 40
11.0
 10
13.57930894300274
 20
-8.43102715175509
 10
13.55645073445811
 20
-8.429769691902974
 10
13.52725355022061
 20
-8.43102715175509
 10
13.49550699532404
 20
-8.436108667595831
 10
13.32025498798938
 20
-8.465323077310751
 10
13.22756469395873
 20
-8.593566756749176
 10
13.2085133159253
 20
-8.729441322687428
 10
13.2085133159253
 20
-8.729441322687428
 10
13.2123201464365
 20
-8.729441322687428
 10
13.2123201464365
 20
-8.729441322687428
 10
13.25169758783291
 20
-8.677385929905305
 10
13.32025498798938
 20
-8.634201657997698
 10
13.41168782216791
 20
-8.634201657997698
 10
13.55772541978765
 20
-8.634201657997698
 10
13.66057874549978
 20
-8.739604354368918
 10
13.66057874549978
 20
-8.900869274033462
 10
13.66057874549978
 20
-9.051988387493942
 10
13.55772541978765
 20
-9.1916697839434
 10
13.38629746844162
 20
-9.1916697839434
 10
13.20978800125484
 20
-9.1916697839434
 10
13.09422227320214
 20
-9.054520532675603
 10
13.09422227320214
 20
-8.839925534899391
 10
13.09422227320214
 20
-8.677385929905305
 10
13.15263386715455
 20
-8.549125024989454
 10
13.23390366965159
 20
-8.46785522249241
 10
13.30247829528549
 20
-8.400555282188053
 10
13.39391112946402
 20
-8.35864569560999
 10
13.4980391405057
 20
-8.345950518746843
 10
13.53106038073182
 20
-8.340869002906101
 10
13.55898287963977
 20
-8.339611543053985
 10
13.57930894300274
 20
-8.339611543053985
 10
13.57930894300274
 20
-8.339611543053985
 10
13.57930894300274
 20
-8.43102715175509
 10
13.57930894300274
 20
-8.43102715175509
 97
        0
 97
        1
330
528
 75
     2
 76
     1
 98
        1
 10
0.0
 20
0.0
450
        0
451
        0
460
0.0
461
0.0
452
        0
462
0.0
453
        0
470

  0
SPLINE
  5
52A
330
523
100
AcDbEntity
  8
Livello 3
100
AcDbSpline
210
0.0
220
0.0
230
1.0
 70
     9
 71
     3
 72
    17
 73
    13
 74
     0
 42
0.000000001
 43
0.0000000001
 40
0.0
 40
0.0
 40
0.0
 40
0.0
 40
1.0
 40
1.0
 40
1.0
 40
2.0
 40
2.0
 40
2.0
 40
3.0
 40
3.0
 40
3.0
 40
4.0
 40
4.0
 40
4.0
 40
4.0
 10
13.85999809766347
 20
-8.768818764083835
 30
0.0
 10
13.85999809766347
 20
-8.983413761860049
 30
0.0
 10
13.92602335263828
 20
-9.105318465605613
 30
0.0
 10
14.0276192184983
 20
-9.105318465605613
 30
0.0
 10
14.14191026122146
 20
-9.105318465605613
 30
0.0
 10
14.19651502466267
 20
-8.971993270326445
 30
0.0
 10
14.19651502466267
 20
-8.761187877584008
 30
0.0
 10
14.19651502466267
 20
-8.558013371341399
 30
0.0
 10
14.14444240640312
 20
-8.424688176062229
 30
0.0
 10
14.02889390382784
 20
-8.424688176062229
 30
0.0
 10
13.93110486847903
 20
-8.424688176062229
 30
0.0
 10
13.85999809766347
 20
-8.544043509148711
 30
0.0
 10
13.85999809766347
 20
-8.768818764083835
 30
0.0
  0
SPLINE
  5
52B
330
523
100
AcDbEntity
  8
Livello 3
100
AcDbSpline
210
0.0
220
0.0
230
1.0
 70
     9
 71
     3
 72
    17
 73
    13
 74
     0
 42
0.000000001
 43
0.0000000001
 40
0.0
 40
0.0
 40
0.0
 40
0.0
 40
1.0
 40
1.0
 40
1.0
 40
2.0
 40
2.0
 40
2.0
 40
3.0
 40
3.0
 40
3.0
 40
4.0
 40
4.0
 40
4.0
 40
4.0
 10
14.30825669672675
 20
-8.756106361743263
 30
0.0
 10
14.30825669672675
 20
-9.036743839971716
 30
0.0
 10
14.20412868568508
 20
-9.1916697839434
 30
0.0
 10
14.02126301732801
 20
-9.1916697839434
 30
0.0
 10
13.85999809766347
 20
-9.1916697839434
 30
0.0
 10
13.75078857078105
 20
-9.040550670482915
 30
0.0
 10
13.74825642559939
 20
-8.767544078754294
 30
0.0
 10
13.74825642559939
 20
-8.490713431037043
 30
0.0
 10
13.86761175868587
 20
-8.338336857724442
 30
0.0
 10
14.0352328795207
 20
-8.338336857724442
 30
0.0
 10
14.20921020152582
 20
-8.338336857724442
 30
0.0
 10
14.30825669672675
 20
-8.493262801696127
 30
0.0
 10
14.30825669672675
 20
-8.756106361743263
 30
0.0
  0
HATCH
  5
52C
330
523
100
AcDbEntity
  8
Livello 3
 62
   250
420
  1907995
440
 33554687
100
AcDbHatch
 10
0.0
 20
0.0
 30
0.0
210
0.0
220
0.0
230
1.0
  2
SOLID
 70
     1
 71
     1
 91
        2
 92
        1
 93
        1
 72
     4
 94
        3
 73
     0
 74
     0
 95
       17
 96
       13
 40
0.0
 40
0.0
 40
0.0
 40
0.0
 40
1.0
 40
1.0
 40
1.0
 40
2.0
 40
2.0
 40
2.0
 40
3.0
 40
3.0
 40
3.0
 40
4.0
 40
4.0
 40
4.0
 40
4.0
 10
13.85999809766347
 20
-8.768818764083835
 10
13.85999809766347
 20
-8.983413761860049
 10
13.92602335263828
 20
-9.105318465605613
 10
14.0276192184983
 20
-9.105318465605613
 10
14.14191026122146
 20
-9.105318465605613
 10
14.19651502466267
 20
-8.971993270326445
 10
14.19651502466267
 20
-8.761187877584008
 10
14.19651502466267
 20
-8.558013371341399
 10
14.14444240640312
 20
-8.424688176062229
 10
14.02889390382784
 20
-8.424688176062229
 10
13.93110486847903
 20
-8.424688176062229
 10
13.85999809766347
 20
-8.544043509148711
 10
13.85999809766347
 20
-8.768818764083835
 97
        0
 97
        1
330
52A
 92
        1
 93
        1
 72
     4
 94
        3
 73
     0
 74
     0
 95
       17
 96
       13
 40
0.0
 40
0.0
 40
0.0
 40
0.0
 40
1.0
 40
1.0
 40
1.0
 40
2.0
 40
2.0
 40
2.0
 40
3.0
 40
3.0
 40
3.0
 40
4.0
 40
4.0
 40
4.0
 40
4.0
 10
14.30825669672675
 20
-8.756106361743263
 10
14.30825669672675
 20
-9.036743839971716
 10
14.20412868568508
 20
-9.1916697839434
 10
14.02126301732801
 20
-9.1916697839434
 10
13.85999809766347
 20
-9.1916697839434
 10
13.75078857078105
 20
-9.040550670482915
 10
13.74825642559939
 20
-8.767544078754294
 10
13.74825642559939
 20
-8.490713431037043
 10
13.86761175868587
 20
-8.338336857724442
 10
14.0352328795207
 20
-8.338336857724442
 10
14.20921020152582
 20
-8.338336857724442
 10
14.30825669672675
 20
-8.493262801696127
 10
14.30825669672675
 20
-8.756106361743263
 97
        0
 97
        1
330
52B
 75
     2
 76
     1
 98
        1
 10
0.0
 20
0.0
450
        0
451
        0
460
0.0
461
0.0
452
        0
462
0.0
453
        0
470

  0
SPLINE
  5
52D
330
523
100
AcDbEntity
  8
Livello 3
100
AcDbSpline
210
0.0
220
0.0
230
1.0
 70
    11
 71
     3
 72
    50
 73
    46
 74
     0
 42
0.000000001
 43
0.0000000001
 40
0.0
 40
0.0
 40
0.0
 40
0.0
 40
1.0
 40
1.0
 40
1.0
 40
2.0
 40
2.0
 40
2.0
 40
3.0
 40
3.0
 40
3.0
 40
4.0
 40
4.0
 40
4.0
 40
5.0
 40
5.0
 40
5.0
 40
6.0
 40
6.0
 40
6.0
 40
7.0
 40
7.0
 40
7.0
 40
8.0
 40
8.0
 40
8.0
 40
9.0
 40
9.0
 40
9.0
 40
10.0
 40
10.0
 40
10.0
 40
11.0
 40
11.0
 40
11.0
 40
12.0
 40
12.0
 40
12.0
 40
13.0
 40
13.0
 40
13.0
 40
14.0
 40
14.0
 40
14.0
 40
15.0
 40
15.0
 40
15.0
 40
15.0
 10
14.90386202969417
 20
-8.446271699277318
 30
0.0
 10
14.90386202969417
 20
-8.446271699277318
 30
0.0
 10
14.58894585138748
 20
-8.446271699277318
 30
0.0
 10
14.58894585138748
 20
-8.446271699277318
 30
0.0
 10
14.58894585138748
 20
-8.446271699277318
 30
0.0
 10
14.55719929649091
 20
-8.658334551871874
 30
0.0
 10
14.55719929649091
 20
-8.658334551871874
 30
0.0
 10
14.57625067452434
 20
-8.655802406690215
 30
0.0
 10
14.59402736722823
 20
-8.653253036031131
 30
0.0
 10
14.62449923679526
 20
-8.653253036031131
 30
0.0
 10
14.68799234658842
 20
-8.653253036031131
 30
0.0
 10
14.75148545638157
 20
-8.667222898223817
 30
0.0
 10
14.80228338931158
 20
-8.697694767790853
 30
0.0
 10
14.86703395895685
 20
-8.734522838528175
 30
0.0
 10
14.92039848802337
 20
-8.80562960934373
 30
0.0
 10
14.92039848802337
 20
-8.909757620385407
 30
0.0
 10
14.92039848802337
 20
-9.07103976552738
 30
0.0
 10
14.79212035763009
 20
-9.1916697839434
 30
0.0
 10
14.61307874526166
 20
-9.1916697839434
 30
0.0
 10
14.52292059641267
 20
-9.1916697839434
 30
0.0
 10
14.44671508427894
 20
-9.166279430217107
 30
0.0
 10
14.40735486835996
 20
-9.140871851013391
 30
0.0
 10
14.40735486835996
 20
-9.140871851013391
 30
0.0
 10
14.43529459274534
 20
-9.055795218005147
 30
0.0
 10
14.43529459274534
 20
-9.055795218005147
 30
0.0
 10
14.46957329282358
 20
-9.076104055890695
 30
0.0
 10
14.53687323312793
 20
-9.101511635094412
 30
0.0
 10
14.61180405993212
 20
-9.101511635094412
 30
0.0
 10
14.71720675630333
 20
-9.101511635094412
 30
0.0
 10
14.80736490515232
 20
-9.032937009460512
 30
0.0
 10
14.80736490515232
 20
-8.922470022725979
 30
0.0
 10
14.80609021982278
 20
-8.815792641025216
 30
0.0
 10
14.73498344900722
 20
-8.739604354368918
 30
0.0
 10
14.56989447335405
 20
-8.739604354368918
 30
0.0
 10
14.52292059641267
 20
-8.739604354368918
 30
0.0
 10
14.48609252567535
 20
-8.744685870209661
 30
0.0
 10
14.45560343063089
 20
-8.748492700720861
 30
0.0
 10
14.45560343063089
 20
-8.748492700720861
 30
0.0
 10
14.50895073421998
 20
-8.35230671991713
 30
0.0
 10
14.50895073421998
 20
-8.35230671991713
 30
0.0
 10
14.50895073421998
 20
-8.35230671991713
 30
0.0
 10
14.90386202969417
 20
-8.35230671991713
 30
0.0
 10
14.90386202969417
 20
-8.35230671991713
 30
0.0
 10
14.90386202969417
 20
-8.35230671991713
 30
0.0
 10
14.90386202969417
 20
-8.446271699277318
 30
0.0
 10
14.90386202969417
 20
-8.446271699277318
 30
0.0
  0
HATCH
  5
52E
330
523
100
AcDbEntity
  8
Livello 3
 62
   250
420
  1907995
440
 33554687
100
AcDbHatch
 10
0.0
 20
0.0
 30
0.0
210
0.0
220
0.0
230
1.0
  2
SOLID
 70
     1
 71
     1
 91
        1
 92
        1
 93
        1
 72
     4
 94
        3
 73
     0
 74
     0
 95
       50
 96
       46
 40
0.0
 40
0.0
 40
0.0
 40
0.0
 40
1.0
 40
1.0
 40
1.0
 40
2.0
 40
2.0
 40
2.0
 40
3.0
 40
3.0
 40
3.0
 40
4.0
 40
4.0
 40
4.0
 40
5.0
 40
5.0
 40
5.0
 40
6.0
 40
6.0
 40
6.0
 40
7.0
 40
7.0
 40
7.0
 40
8.0
 40
8.0
 40
8.0
 40
9.0
 40
9.0
 40
9.0
 40
10.0
 40
10.0
 40
10.0
 40
11.0
 40
11.0
 40
11.0
 40
12.0
 40
12.0
 40
12.0
 40
13.0
 40
13.0
 40
13.0
 40
14.0
 40
14.0
 40
14.0
 40
15.0
 40
15.0
 40
15.0
 40
15.0
 10
14.90386202969417
 20
-8.446271699277318
 10
14.90386202969417
 20
-8.446271699277318
 10
14.58894585138748
 20
-8.446271699277318
 10
14.58894585138748
 20
-8.446271699277318
 10
14.58894585138748
 20
-8.446271699277318
 10
14.55719929649091
 20
-8.658334551871874
 10
14.55719929649091
 20
-8.658334551871874
 10
14.57625067452434
 20
-8.655802406690215
 10
14.59402736722823
 20
-8.653253036031131
 10
14.62449923679526
 20
-8.653253036031131
 10
14.68799234658842
 20
-8.653253036031131
 10
14.75148545638157
 20
-8.667222898223817
 10
14.80228338931158
 20
-8.697694767790853
 10
14.86703395895685
 20
-8.734522838528175
 10
14.92039848802337
 20
-8.80562960934373
 10
14.92039848802337
 20
-8.909757620385407
 10
14.92039848802337
 20
-9.07103976552738
 10
14.79212035763009
 20
-9.1916697839434
 10
14.61307874526166
 20
-9.1916697839434
 10
14.52292059641267
 20
-9.1916697839434
 10
14.44671508427894
 20
-9.166279430217107
 10
14.40735486835996
 20
-9.140871851013391
 10
14.40735486835996
 20
-9.140871851013391
 10
14.43529459274534
 20
-9.055795218005147
 10
14.43529459274534
 20
-9.055795218005147
 10
14.46957329282358
 20
-9.076104055890695
 10
14.53687323312793
 20
-9.101511635094412
 10
14.61180405993212
 20
-9.101511635094412
 10
14.71720675630333
 20
-9.101511635094412
 10
14.80736490515232
 20
-9.032937009460512
 10
14.80736490515232
 20
-8.922470022725979
 10
14.80609021982278
 20
-8.815792641025216
 10
14.73498344900722
 20
-8.739604354368918
 10
14.56989447335405
 20
-8.739604354368918
 10
14.52292059641267
 20
-8.739604354368918
 10
14.48609252567535
 20
-8.744685870209661
 10
14.45560343063089
 20
-8.748492700720861
 10
14.45560343063089
 20
-8.748492700720861
 10
14.50895073421998
 20
-8.35230671991713
 10
14.50895073421998
 20
-8.35230671991713
 10
14.50895073421998
 20
-8.35230671991713
 10
14.90386202969417
 20
-8.35230671991713
 10
14.90386202969417
 20
-8.35230671991713
 10
14.90386202969417
 20
-8.35230671991713
 10
14.90386202969417
 20
-8.446271699277318
 10
14.90386202969417
 20
-8.446271699277318
 97
        0
 97
        1
330
52D
 75
     2
 76
     1
 98
        1
 10
0.0
 20
0.0
450
        0
451
        0
460
0.0
461
0.0
452
        0
462
0.0
453
        0
470

  0
ENDBLK
  5
526
330
523
100
AcDbEntity
  8
0
100
AcDbBlockEnd
  0
BLOCK
  5
531
330
52F
100
AcDbEntity
  8
0
100
AcDbBlockBegin
  2
Block_2
 70
     0
 10
0.0
 20
0.0
 30
0.0
  3
Block_2
  1

  0
INSERT
  5
534
330
52F
100
AcDbEntity
  8
Livello 3
100
AcDbBlockReference
  2
Block_3
 10
0.0
 20
0.0
 30
0.0
  0
ENDBLK
  5
532
330
52F
100
AcDbEntity
  8
0
100
AcDbBlockEnd
  0
BLOCK
  5
535
330
533
100
AcDbEntity
  8
0
100
AcDbBlockBegin
  2
Block_3
 70
     0
 10
0.0
 20
0.0
 30
0.0
  3
Block_3
  1

  0
SPLINE
  5
537
330
533
100
AcDbEntity
  8
Livello 3
100
AcDbSpline
210
0.0
220
0.0
230
1.0
 70
    11
 71
     3
 72
    29
 73
    25
 74
     0
 42
0.000000001
 43
0.0000000001
 40
0.0
 40
0.0
 40
0.0
 40
0.0
 40
1.0
 40
1.0
 40
1.0
 40
2.0
 40
2.0
 40
2.0
 40
3.0
 40
3.0
 40
3.0
 40
4.0
 40
4.0
 40
4.0
 40
5.0
 40
5.0
 40
5.0
 40
6.0
 40
6.0
 40
6.0
 40
7.0
 40
7.0
 40
7.0
 40
8.0
 40
8.0
 40
8.0
 40
8.0
 10
24.58027397388966
 20
-6.690719941903706
 30
0.0
 10
24.58027397388966
 20
-6.690719941903706
 30
0.0
 10
24.58027397388966
 20
-6.693269312562793
 30
0.0
 10
24.58027397388966
 20
-6.693269312562793
 30
0.0
 10
24.58027397388966
 20
-6.693269312562793
 30
0.0
 10
24.65775417135292
 20
-6.836757539523448
 30
0.0
 10
24.65775417135292
 20
-6.836757539523448
 30
0.0
 10
24.65775417135292
 20
-6.836757539523448
 30
0.0
 10
24.57266031286725
 20
-6.858341062738539
 30
0.0
 10
24.57266031286725
 20
-6.858341062738539
 30
0.0
 10
24.57266031286725
 20
-6.858341062738539
 30
0.0
 10
24.4761631883254
 20
-6.678024765040562
 30
0.0
 10
24.4761631883254
 20
-6.678024765040562
 30
0.0
 10
24.4761631883254
 20
-6.678024765040562
 30
0.0
 10
24.4761631883254
 20
-6.58278510035083
 30
0.0
 10
24.4761631883254
 20
-6.58278510035083
 30
0.0
 10
24.4761631883254
 20
-6.58278510035083
 30
0.0
 10
25.30153916468156
 20
-6.58278510035083
 30
0.0
 10
25.30153916468156
 20
-6.58278510035083
 30
0.0
 10
25.30153916468156
 20
-6.58278510035083
 30
0.0
 10
25.30153916468156
 20
-6.690719941903706
 30
0.0
 10
25.30153916468156
 20
-6.690719941903706
 30
0.0
 10
25.30153916468156
 20
-6.690719941903706
 30
0.0
 10
24.58027397388966
 20
-6.690719941903706
 30
0.0
 10
24.58027397388966
 20
-6.690719941903706
 30
0.0
  0
HATCH
  5
538
330
533
100
AcDbEntity
  8
Livello 3
 62
   250
420
  1907995
440
 33554687
100
AcDbHatch
 10
0.0
 20
0.0
 30
0.0
210
0.0
220
0.0
230
1.0
  2
SOLID
 70
     1
 71
     1
 91
        1
 92
        1
 93
        1
 72
     4
 94
        3
 73
     0
 74
     0
 95
       29
 96
       25
 40
0.0
 40
0.0
 40
0.0
 40
0.0
 40
1.0
 40
1.0
 40
1.0
 40
2.0
 40
2.0
 40
2.0
 40
3.0
 40
3.0
 40
3.0
 40
4.0
 40
4.0
 40
4.0
 40
5.0
 40
5.0
 40
5.0
 40
6.0
 40
6.0
 40
6.0
 40
7.0
 40
7.0
 40
7.0
 40
8.0
 40
8.0
 40
8.0
 40
8.0
 10
24.58027397388966
 20
-6.690719941903706
 10
24.58027397388966
 20
-6.690719941903706
 10
24.58027397388966
 20
-6.693269312562793
 10
24.58027397388966
 20
-6.693269312562793
 10
24.58027397388966
 20
-6.693269312562793
 10
24.65775417135292
 20
-6.836757539523448
 10
24.65775417135292
 20
-6.836757539523448
 10
24.65775417135292
 20
-6.836757539523448
 10
24.57266031286725
 20
-6.858341062738539
 10
24.57266031286725
 20
-6.858341062738539
 10
24.57266031286725
 20
-6.858341062738539
 10
24.4761631883254
 20
-6.678024765040562
 10
24.4761631883254
 20
-6.678024765040562
 10
24.4761631883254
 20
-6.678024765040562
 10
24.4761631883254
 20
-6.58278510035083
 10
24.4761631883254
 20
-6.58278510035083
 10
24.4761631883254
 20
-6.58278510035083
 10
25.30153916468156
 20
-6.58278510035083
 10
25.30153916468156
 20
-6.58278510035083
 10
25.30153916468156
 20
-6.58278510035083
 10
25.30153916468156
 20
-6.690719941903706
 10
25.30153916468156
 20
-6.690719941903706
 10
25.30153916468156
 20
-6.690719941903706
 10
24.58027397388966
 20
-6.690719941903706
 10
24.58027397388966
 20
-6.690719941903706
 97
        0
 97
        1
330
537
 75
     2
 76
     1
 98
        1
 10
0.0
 20
0.0
450
        0
451
        0
460
0.0
461
0.0
452
        0
462
0.0
453
        0
470

  0
SPLINE
  5
539
330
533
100
AcDbEntity
  8
Livello 3
100
AcDbSpline
210
0.0
220
0.0
230
1.0
 70
    11
 71
     3
 72
    26
 73
    22
 74
     0
 42
0.000000001
 43
0.0000000001
 40
0.0
 40
0.0
 40
0.0
 40
0.0
 40
1.0
 40
1.0
 40
1.0
 40
2.0
 40
2.0
 40
2.0
 40
3.0
 40
3.0
 40
3.0
 40
4.0
 40
4.0
 40
4.0
 40
5.0
 40
5.0
 40
5.0
 40
6.0
 40
6.0
 40
6.0
 40
7.0
 40
7.0
 40
7.0
 40
7.0
 10
24.98917235703395
 20
-5.936381834453403
 30
0.0
 10
24.98917235703395
 20
-5.936381834453403
 30
0.0
 10
24.71359916916882
 20
-5.936381834453403
 30
0.0
 10
24.71359916916882
 20
-5.936381834453403
 30
0.0
 10
24.67043212273865
 20
-5.936381834453403
 30
0.0
 10
24.62726507630846
 20
-5.935107149123862
 30
0.0
 10
24.58409802987829
 20
-5.932575003942202
 30
0.0
 10
24.58409802987829
 20
-5.932575003942202
 30
0.0
 10
24.58409802987829
 20
-5.936381834453403
 30
0.0
 10
24.58409802987829
 20
-5.936381834453403
 30
0.0
 10
24.63232936667179
 20
-5.961789413657121
 30
0.0
 10
24.66788275207956
 20
-5.982098251542669
 30
0.0
 10
24.70598550814642
 20
-6.004956460087303
 30
0.0
 10
24.70598550814642
 20
-6.004956460087303
 30
0.0
 10
24.98662298637487
 20
-6.206856281000367
 30
0.0
 10
24.98662298637487
 20
-6.206856281000367
 30
0.0
 10
24.98662298637487
 20
-6.206856281000367
 30
0.0
 10
24.98917235703395
 20
-6.206856281000367
 30
0.0
 10
24.98917235703395
 20
-6.206856281000367
 30
0.0
 10
24.98917235703395
 20
-6.206856281000367
 30
0.0
 10
24.98917235703395
 20
-5.936381834453403
 30
0.0
 10
24.98917235703395
 20
-5.936381834453403
 30
0.0
  0
SPLINE
  5
53A
330
533
100
AcDbEntity
  8
Livello 3
100
AcDbSpline
210
0.0
220
0.0
230
1.0
 70
    11
 71
     3
 72
    38
 73
    34
 74
     0
 42
0.000000001
 43
0.0000000001
 40
0.0
 40
0.0
 40
0.0
 40
0.0
 40
1.0
 40
1.0
 40
1.0
 40
2.0
 40
2.0
 40
2.0
 40
3.0
 40
3.0
 40
3.0
 40
4.0
 40
4.0
 40
4.0
 40
5.0
 40
5.0
 40
5.0
 40
6.0
 40
6.0
 40
6.0
 40
7.0
 40
7.0
 40
7.0
 40
8.0
 40
8.0
 40
8.0
 40
9.0
 40
9.0
 40
9.0
 40
10.0
 40
10.0
 40
10.0
 40
11.0
 40
11.0
 40
11.0
 40
11.0
 10
25.30153916468156
 20
-5.936381834453403
 30
0.0
 10
25.30153916468156
 20
-5.936381834453403
 30
0.0
 10
25.07678113522386
 20
-5.936381834453403
 30
0.0
 10
25.07678113522386
 20
-5.936381834453403
 30
0.0
 10
25.07678113522386
 20
-5.936381834453403
 30
0.0
 10
25.07678113522386
 20
-6.319872638393988
 30
0.0
 10
25.07678113522386
 20
-6.319872638393988
 30
0.0
 10
25.07678113522386
 20
-6.319872638393988
 30
0.0
 10
25.00312499374922
 20
-6.319872638393988
 30
0.0
 10
25.00312499374922
 20
-6.319872638393988
 30
0.0
 10
25.00312499374922
 20
-6.319872638393988
 30
0.0
 10
24.4761631883254
 20
-5.951626381975634
 30
0.0
 10
24.4761631883254
 20
-5.951626381975634
 30
0.0
 10
24.4761631883254
 20
-5.951626381975634
 30
0.0
 10
24.4761631883254
 20
-5.83099636355961
 30
0.0
 10
24.4761631883254
 20
-5.83099636355961
 30
0.0
 10
24.4761631883254
 20
-5.83099636355961
 30
0.0
 10
24.98917235703395
 20
-5.83099636355961
 30
0.0
 10
24.98917235703395
 20
-5.83099636355961
 30
0.0
 10
24.98917235703395
 20
-5.83099636355961
 30
0.0
 10
24.98917235703395
 20
-5.715430635506906
 30
0.0
 10
24.98917235703395
 20
-5.715430635506906
 30
0.0
 10
24.98917235703395
 20
-5.715430635506906
 30
0.0
 10
25.07678113522386
 20
-5.715430635506906
 30
0.0
 10
25.07678113522386
 20
-5.715430635506906
 30
0.0
 10
25.07678113522386
 20
-5.715430635506906
 30
0.0
 10
25.07678113522386
 20
-5.83099636355961
 30
0.0
 10
25.07678113522386
 20
-5.83099636355961
 30
0.0
 10
25.07678113522386
 20
-5.83099636355961
 30
0.0
 10
25.30153916468156
 20
-5.83099636355961
 30
0.0
 10
25.30153916468156
 20
-5.83099636355961
 30
0.0
 10
25.30153916468156
 20
-5.83099636355961
 30
0.0
 10
25.30153916468156
 20
-5.936381834453403
 30
0.0
 10
25.30153916468156
 20
-5.936381834453403
 30
0.0
  0
HATCH
  5
53B
330
533
100
AcDbEntity
  8
Livello 3
 62
   250
420
  1907995
440
 33554687
100
AcDbHatch
 10
0.0
 20
0.0
 30
0.0
210
0.0
220
0.0
230
1.0
  2
SOLID
 70
     1
 71
     1
 91
        2
 92
        1
 93
        1
 72
     4
 94
        3
 73
     0
 74
     0
 95
       26
 96
       22
 40
0.0
 40
0.0
 40
0.0
 40
0.0
 40
1.0
 40
1.0
 40
1.0
 40
2.0
 40
2.0
 40
2.0
 40
3.0
 40
3.0
 40
3.0
 40
4.0
 40
4.0
 40
4.0
 40
5.0
 40
5.0
 40
5.0
 40
6.0
 40
6.0
 40
6.0
 40
7.0
 40
7.0
 40
7.0
 40
7.0
 10
24.98917235703395
 20
-5.936381834453403
 10
24.98917235703395
 20
-5.936381834453403
 10
24.71359916916882
 20
-5.936381834453403
 10
24.71359916916882
 20
-5.936381834453403
 10
24.67043212273865
 20
-5.936381834453403
 10
24.62726507630846
 20
-5.935107149123862
 10
24.58409802987829
 20
-5.932575003942202
 10
24.58409802987829
 20
-5.932575003942202
 10
24.58409802987829
 20
-5.936381834453403
 10
24.58409802987829
 20
-5.936381834453403
 10
24.63232936667179
 20
-5.961789413657121
 10
24.66788275207956
 20
-5.982098251542669
 10
24.70598550814642
 20
-6.004956460087303
 10
24.70598550814642
 20
-6.004956460087303
 10
24.98662298637487
 20
-6.206856281000367
 10
24.98662298637487
 20
-6.206856281000367
 10
24.98662298637487
 20
-6.206856281000367
 10
24.98917235703395
 20
-6.206856281000367
 10
24.98917235703395
 20
-6.206856281000367
 10
24.98917235703395
 20
-6.206856281000367
 10
24.98917235703395
 20
-5.936381834453403
 10
24.98917235703395
 20
-5.936381834453403
 97
        0
 97
        1
330
539
 92
        1
 93
        1
 72
     4
 94
        3
 73
     0
 74
     0
 95
       38
 96
       34
 40
0.0
 40
0.0
 40
0.0
 40
0.0
 40
1.0
 40
1.0
 40
1.0
 40
2.0
 40
2.0
 40
2.0
 40
3.0
 40
3.0
 40
3.0
 40
4.0
 40
4.0
 40
4.0
 40
5.0
 40
5.0
 40
5.0
 40
6.0
 40
6.0
 40
6.0
 40
7.0
 40
7.0
 40
7.0
 40
8.0
 40
8.0
 40
8.0
 40
9.0
 40
9.0
 40
9.0
 40
10.0
 40
10.0
 40
10.0
 40
11.0
 40
11.0
 40
11.0
 40
11.0
 10
25.30153916468156
 20
-5.936381834453403
 10
25.30153916468156
 20
-5.936381834453403
 10
25.07678113522386
 20
-5.936381834453403
 10
25.07678113522386
 20
-5.936381834453403
 10
25.07678113522386
 20
-5.936381834453403
 10
25.07678113522386
 20
-6.319872638393988
 10
25.07678113522386
 20
-6.319872638393988
 10
25.07678113522386
 20
-6.319872638393988
 10
25.00312499374922
 20
-6.319872638393988
 10
25.00312499374922
 20
-6.319872638393988
 10
25.00312499374922
 20
-6.319872638393988
 10
24.4761631883254
 20
-5.951626381975634
 10
24.4761631883254
 20
-5.951626381975634
 10
24.4761631883254
 20
-5.951626381975634
 10
24.4761631883254
 20
-5.83099636355961
 10
24.4761631883254
 20
-5.83099636355961
 10
24.4761631883254
 20
-5.83099636355961
 10
24.98917235703395
 20
-5.83099636355961
 10
24.98917235703395
 20
-5.83099636355961
 10
24.98917235703395
 20
-5.83099636355961
 10
24.98917235703395
 20
-5.715430635506906
 10
24.98917235703395
 20
-5.715430635506906
 10
24.98917235703395
 20
-5.715430635506906
 10
25.07678113522386
 20
-5.715430635506906
 10
25.07678113522386
 20
-5.715430635506906
 10
25.07678113522386
 20
-5.715430635506906
 10
25.07678113522386
 20
-5.83099636355961
 10
25.07678113522386
 20
-5.83099636355961
 10
25.07678113522386
 20
-5.83099636355961
 10
25.30153916468156
 20
-5.83099636355961
 10
25.30153916468156
 20
-5.83099636355961
 10
25.30153916468156
 20
-5.83099636355961
 10
25.30153916468156
 20
-5.936381834453403
 10
25.30153916468156
 20
-5.936381834453403
 97
        0
 97
        1
330
53A
 75
     2
 76
     1
 98
        1
 10
0.0
 20
0.0
450
        0
451
        0
460
0.0
461
0.0
452
        0
462
0.0
453
        0
470

  0
ENDBLK
  5
536
330
533
100
AcDbEntity
  8
0
100
AcDbBlockEnd
  0
BLOCK
  5
53E
330
53C
100
AcDbEntity
  8
0
100
AcDbBlockBegin
  2
Block_4
 70
     0
 10
0.0
 20
0.0
 30
0.0
  3
Block_4
  1

  0
INSERT
  5
541
330
53C
100
AcDbEntity
  8
Livello 3
100
AcDbBlockReference
  2
Block_5
 10
0.0
 20
0.0
 30
0.0
  0
ENDBLK
  5
53F
330
53C
100
AcDbEntity
  8
0
100
AcDbBlockEnd
  0
BLOCK
  5
542
330
540
100
AcDbEntity
  8
0
100
AcDbBlockBegin
  2
Block_5
 70
     0
 10
0.0
 20
0.0
 30
0.0
  3
Block_5
  1

  0
SPLINE
  5
544
330
540
100
AcDbEntity
  8
Livello 3
100
AcDbSpline
210
0.0
220
0.0
230
1.0
 70
     9
 71
     3
 72
    59
 73
    55
 74
     0
 42
0.000000001
 43
0.0000000001
 40
0.0
 40
0.0
 40
0.0
 40
0.0
 40
1.0
 40
1.0
 40
1.0
 40
2.0
 40
2.0
 40
2.0
 40
3.0
 40
3.0
 40
3.0
 40
4.0
 40
4.0
 40
4.0
 40
5.0
 40
5.0
 40
5.0
 40
6.0
 40
6.0
 40
6.0
 40
7.0
 40
7.0
 40
7.0
 40
8.0
 40
8.0
 40
8.0
 40
9.0
 40
9.0
 40
9.0
 40
10.0
 40
10.0
 40
10.0
 40
11.0
 40
11.0
 40
11.0
 40
12.0
 40
12.0
 40
12.0
 40
13.0
 40
13.0
 40
13.0
 40
14.0
 40
14.0
 40
14.0
 40
15.0
 40
15.0
 40
15.0
 40
16.0
 40
16.0
 40
16.0
 40
17.0
 40
17.0
 40
17.0
 40
18.0
 40
18.0
 40
18.0
 40
18.0
 10
13.09477348847978
 20
-17.47442002601333
 30
0.0
 10
13.12652004337635
 20
-17.49474608937631
 30
0.0
 10
13.200176184851
 20
-17.52650986975031
 30
0.0
 10
13.27763915683684
 20
-17.52650986975031
 30
0.0
 10
13.42112738379749
 20
-17.52650986975031
 30
0.0
 10
13.46556911555722
 20
-17.43507703557178
 30
0.0
 10
13.4643116557051
 20
-17.36651963541531
 30
0.0
 10
13.46303697037556
 20
-17.25097113284003
 30
0.0
 10
13.35890895933388
 20
-17.20143065976214
 30
0.0
 10
13.250974117781
 20
-17.20143065976214
 30
0.0
 10
13.250974117781
 20
-17.20143065976214
 30
0.0
 10
13.18875569331739
 20
-17.20143065976214
 30
0.0
 10
13.18875569331739
 20
-17.20143065976214
 30
0.0
 10
13.18875569331739
 20
-17.20143065976214
 30
0.0
 10
13.18875569331739
 20
-17.11761148660601
 30
0.0
 10
13.18875569331739
 20
-17.11761148660601
 30
0.0
 10
13.18875569331739
 20
-17.11761148660601
 30
0.0
 10
13.250974117781
 20
-17.11761148660601
 30
0.0
 10
13.250974117781
 20
-17.11761148660601
 30
0.0
 10
13.33224392027805
 20
-17.11761148660601
 30
0.0
 10
13.43509724599018
 20
-17.07571912550537
 30
0.0
 10
13.43509724599018
 20
-16.97791286467913
 30
0.0
 10
13.43509724599018
 20
-16.91190483518174
 30
0.0
 10
13.39318765941212
 20
-16.85347601575191
 30
0.0
 10
13.29033433369998
 20
-16.85347601575191
 30
0.0
 10
13.22430907872517
 20
-16.85347601575191
 30
0.0
 10
13.16081596893202
 20
-16.88269042546682
 30
0.0
 10
13.12526258352424
 20
-16.90811523014797
 30
0.0
 10
13.12526258352424
 20
-16.90811523014797
 30
0.0
 10
13.09604817380932
 20
-16.82681097669607
 30
0.0
 10
13.09604817380932
 20
-16.82681097669607
 30
0.0
 10
13.13923244571692
 20
-16.79508164727692
 30
0.0
 10
13.22303439339563
 20
-16.76335231785777
 30
0.0
 10
13.31191785691507
 20
-16.76335231785777
 30
0.0
 10
13.47445746190916
 20
-16.76335231785777
 30
0.0
 10
13.5481136033838
 20
-16.85984944239962
 30
0.0
 10
13.5481136033838
 20
-16.96013617197524
 30
0.0
 10
13.5481136033838
 20
-17.04523003046091
 30
0.0
 10
13.49731567045379
 20
-17.11761148660601
 30
0.0
 10
13.3957370300712
 20
-17.15443955734333
 30
0.0
 10
13.3957370300712
 20
-17.15443955734333
 30
0.0
 10
13.3957370300712
 20
-17.15698892800242
 30
0.0
 10
13.3957370300712
 20
-17.15698892800242
 30
0.0
 10
13.49731567045379
 20
-17.17731499136539
 30
0.0
 10
13.57986015828038
 20
-17.25348605254426
 30
0.0
 10
13.57986015828038
 20
-17.3690690060744
 30
0.0
 10
13.57986015828038
 20
-17.50108506506917
 30
0.0
 10
13.47700683256825
 20
-17.6166680185993
 30
0.0
 10
13.27891384216638
 20
-17.6166680185993
 30
0.0
 10
13.18620632265831
 20
-17.6166680185993
 30
0.0
 10
13.10493652016126
 20
-17.58745360888438
 30
0.0
 10
13.06430161891274
 20
-17.56078856982855
 30
0.0
 10
13.06430161891274
 20
-17.56078856982855
 30
0.0
 10
13.09477348847978
 20
-17.47442002601333
 30
0.0
 10
13.09477348847978
 20
-17.47442002601333
 30
0.0
  0
HATCH
  5
545
330
540
100
AcDbEntity
  8
Livello 3
 62
   250
420
  1907995
440
 33554687
100
AcDbHatch
 10
0.0
 20
0.0
 30
0.0
210
0.0
220
0.0
230
1.0
  2
SOLID
 70
     1
 71
     1
 91
        1
 92
        1
 93
        1
 72
     4
 94
        3
 73
     0
 74
     0
 95
       59
 96
       55
 40
0.0
 40
0.0
 40
0.0
 40
0.0
 40
1.0
 40
1.0
 40
1.0
 40
2.0
 40
2.0
 40
2.0
 40
3.0
 40
3.0
 40
3.0
 40
4.0
 40
4.0
 40
4.0
 40
5.0
 40
5.0
 40
5.0
 40
6.0
 40
6.0
 40
6.0
 40
7.0
 40
7.0
 40
7.0
 40
8.0
 40
8.0
 40
8.0
 40
9.0
 40
9.0
 40
9.0
 40
10.0
 40
10.0
 40
10.0
 40
11.0
 40
11.0
 40
11.0
 40
12.0
 40
12.0
 40
12.0
 40
13.0
 40
13.0
 40
13.0
 40
14.0
 40
14.0
 40
14.0
 40
15.0
 40
15.0
 40
15.0
 40
16.0
 40
16.0
 40
16.0
 40
17.0
 40
17.0
 40
17.0
 40
18.0
 40
18.0
 40
18.0
 40
18.0
 10
13.09477348847978
 20
-17.47442002601333
 10
13.12652004337635
 20
-17.49474608937631
 10
13.200176184851
 20
-17.52650986975031
 10
13.27763915683684
 20
-17.52650986975031
 10
13.42112738379749
 20
-17.52650986975031
 10
13.46556911555722
 20
-17.43507703557178
 10
13.4643116557051
 20
-17.36651963541531
 10
13.46303697037556
 20
-17.25097113284003
 10
13.35890895933388
 20
-17.20143065976214
 10
13.250974117781
 20
-17.20143065976214
 10
13.250974117781
 20
-17.20143065976214
 10
13.18875569331739
 20
-17.20143065976214
 10
13.18875569331739
 20
-17.20143065976214
 10
13.18875569331739
 20
-17.20143065976214
 10
13.18875569331739
 20
-17.11761148660601
 10
13.18875569331739
 20
-17.11761148660601
 10
13.18875569331739
 20
-17.11761148660601
 10
13.250974117781
 20
-17.11761148660601
 10
13.250974117781
 20
-17.11761148660601
 10
13.33224392027805
 20
-17.11761148660601
 10
13.43509724599018
 20
-17.07571912550537
 10
13.43509724599018
 20
-16.97791286467913
 10
13.43509724599018
 20
-16.91190483518174
 10
13.39318765941212
 20
-16.85347601575191
 10
13.29033433369998
 20
-16.85347601575191
 10
13.22430907872517
 20
-16.85347601575191
 10
13.16081596893202
 20
-16.88269042546682
 10
13.12526258352424
 20
-16.90811523014797
 10
13.12526258352424
 20
-16.90811523014797
 10
13.09604817380932
 20
-16.82681097669607
 10
13.09604817380932
 20
-16.82681097669607
 10
13.13923244571692
 20
-16.79508164727692
 10
13.22303439339563
 20
-16.76335231785777
 10
13.31191785691507
 20
-16.76335231785777
 10
13.47445746190916
 20
-16.76335231785777
 10
13.5481136033838
 20
-16.85984944239962
 10
13.5481136033838
 20
-16.96013617197524
 10
13.5481136033838
 20
-17.04523003046091
 10
13.49731567045379
 20
-17.11761148660601
 10
13.3957370300712
 20
-17.15443955734333
 10
13.3957370300712
 20
-17.15443955734333
 10
13.3957370300712
 20
-17.15698892800242
 10
13.3957370300712
 20
-17.15698892800242
 10
13.49731567045379
 20
-17.17731499136539
 10
13.57986015828038
 20
-17.25348605254426
 10
13.57986015828038
 20
-17.3690690060744
 10
13.57986015828038
 20
-17.50108506506917
 10
13.47700683256825
 20
-17.6166680185993
 10
13.27891384216638
 20
-17.6166680185993
 10
13.18620632265831
 20
-17.6166680185993
 10
13.10493652016126
 20
-17.58745360888438
 10
13.06430161891274
 20
-17.56078856982855
 10
13.06430161891274
 20
-17.56078856982855
 10
13.09477348847978
 20
-17.47442002601333
 10
13.09477348847978
 20
-17.47442002601333
 97
        0
 97
        1
330
544
 75
     2
 76
     1
 98
        1
 10
0.0
 20
0.0
450
        0
451
        0
460
0.0
461
0.0
452
        0
462
0.0
453
        0
470

  0
SPLINE
  5
546
330
540
100
AcDbEntity
  8
Livello 3
100
AcDbSpline
210
0.0
220
0.0
230
1.0
 70
     9
 71
     3
 72
    17
 73
    13
 74
     0
 42
0.000000001
 43
0.0000000001
 40
0.0
 40
0.0
 40
0.0
 40
0.0
 40
1.0
 40
1.0
 40
1.0
 40
2.0
 40
2.0
 40
2.0
 40
3.0
 40
3.0
 40
3.0
 40
4.0
 40
4.0
 40
4.0
 40
4.0
 10
13.81991441169259
 20
-17.19381699873974
 30
0.0
 10
13.81991441169259
 20
-17.40841199651595
 30
0.0
 10
13.8859396666674
 20
-17.53029947478409
 30
0.0
 10
13.98753553252742
 20
-17.53029947478409
 30
0.0
 10
14.10182657525058
 20
-17.53029947478409
 30
0.0
 10
14.15643133869179
 20
-17.39697427950492
 30
0.0
 10
14.15643133869179
 20
-17.18620333771734
 30
0.0
 10
14.15643133869179
 20
-16.9830116059973
 30
0.0
 10
14.10435872043224
 20
-16.84968641071813
 30
0.0
 10
13.98881021785696
 20
-16.84968641071813
 30
0.0
 10
13.89102118250814
 20
-16.84968641071813
 30
0.0
 10
13.81991441169259
 20
-16.96902451832719
 30
0.0
 10
13.81991441169259
 20
-17.19381699873974
 30
0.0
  0
SPLINE
  5
547
330
540
100
AcDbEntity
  8
Livello 3
100
AcDbSpline
210
0.0
220
0.0
230
1.0
 70
     9
 71
     3
 72
    17
 73
    13
 74
     0
 42
0.000000001
 43
0.0000000001
 40
0.0
 40
0.0
 40
0.0
 40
0.0
 40
1.0
 40
1.0
 40
1.0
 40
2.0
 40
2.0
 40
2.0
 40
3.0
 40
3.0
 40
3.0
 40
4.0
 40
4.0
 40
4.0
 40
4.0
 10
14.26817301075587
 20
-17.18110459639916
 30
0.0
 10
14.26817301075587
 20
-17.46174207462762
 30
0.0
 10
14.16404499971419
 20
-17.6166680185993
 30
0.0
 10
13.98117933135713
 20
-17.6166680185993
 30
0.0
 10
13.81991441169259
 20
-17.6166680185993
 30
0.0
 10
13.71070488481017
 20
-17.46553167966139
 30
0.0
 10
13.70817273962851
 20
-17.19254231341019
 30
0.0
 10
13.70817273962851
 20
-16.91569444021552
 30
0.0
 10
13.82752807271499
 20
-16.76335231785777
 30
0.0
 10
13.99514919354982
 20
-16.76335231785777
 30
0.0
 10
14.16912651555494
 20
-16.76335231785777
 30
0.0
 10
14.26817301075587
 20
-16.9182438108746
 30
0.0
 10
14.26817301075587
 20
-17.18110459639916
 30
0.0
  0
HATCH
  5
548
330
540
100
AcDbEntity
  8
Livello 3
 62
   250
420
  1907995
440
 33554687
100
AcDbHatch
 10
0.0
 20
0.0
 30
0.0
210
0.0
220
0.0
230
1.0
  2
SOLID
 70
     1
 71
     1
 91
        2
 92
        1
 93
        1
 72
     4
 94
        3
 73
     0
 74
     0
 95
       17
 96
       13
 40
0.0
 40
0.0
 40
0.0
 40
0.0
 40
1.0
 40
1.0
 40
1.0
 40
2.0
 40
2.0
 40
2.0
 40
3.0
 40
3.0
 40
3.0
 40
4.0
 40
4.0
 40
4.0
 40
4.0
 10
13.81991441169259
 20
-17.19381699873974
 10
13.81991441169259
 20
-17.40841199651595
 10
13.8859396666674
 20
-17.53029947478409
 10
13.98753553252742
 20
-17.53029947478409
 10
14.10182657525058
 20
-17.53029947478409
 10
14.15643133869179
 20
-17.39697427950492
 10
14.15643133869179
 20
-17.18620333771734
 10
14.15643133869179
 20
-16.9830116059973
 10
14.10435872043224
 20
-16.84968641071813
 10
13.98881021785696
 20
-16.84968641071813
 10
13.89102118250814
 20
-16.84968641071813
 10
13.81991441169259
 20
-16.96902451832719
 10
13.81991441169259
 20
-17.19381699873974
 97
        0
 97
        1
330
546
 92
        1
 93
        1
 72
     4
 94
        3
 73
     0
 74
     0
 95
       17
 96
       13
 40
0.0
 40
0.0
 40
0.0
 40
0.0
 40
1.0
 40
1.0
 40
1.0
 40
2.0
 40
2.0
 40
2.0
 40
3.0
 40
3.0
 40
3.0
 40
4.0
 40
4.0
 40
4.0
 40
4.0
 10
14.26817301075587
 20
-17.18110459639916
 10
14.26817301075587
 20
-17.46174207462762
 10
14.16404499971419
 20
-17.6166680185993
 10
13.98117933135713
 20
-17.6166680185993
 10
13.81991441169259
 20
-17.6166680185993
 10
13.71070488481017
 20
-17.46553167966139
 10
13.70817273962851
 20
-17.19254231341019
 10
13.70817273962851
 20
-16.91569444021552
 10
13.82752807271499
 20
-16.76335231785777
 10
13.99514919354982
 20
-16.76335231785777
 10
14.16912651555494
 20
-16.76335231785777
 10
14.26817301075587
 20
-16.9182438108746
 10
14.26817301075587
 20
-17.18110459639916
 97
        0
 97
        1
330
547
 75
     2
 76
     1
 98
        1
 10
0.0
 20
0.0
450
        0
451
        0
460
0.0
461
0.0
452
        0
462
0.0
453
        0
470

  0
SPLINE
  5
549
330
540
100
AcDbEntity
  8
Livello 3
100
AcDbSpline
210
0.0
220
0.0
230
1.0
 70
     9
 71
     3
 72
    59
 73
    55
 74
     0
 42
0.000000001
 43
0.0000000001
 40
0.0
 40
0.0
 40
0.0
 40
0.0
 40
1.0
 40
1.0
 40
1.0
 40
2.0
 40
2.0
 40
2.0
 40
3.0
 40
3.0
 40
3.0
 40
4.0
 40
4.0
 40
4.0
 40
5.0
 40
5.0
 40
5.0
 40
6.0
 40
6.0
 40
6.0
 40
7.0
 40
7.0
 40
7.0
 40
8.0
 40
8.0
 40
8.0
 40
9.0
 40
9.0
 40
9.0
 40
10.0
 40
10.0
 40
10.0
 40
11.0
 40
11.0
 40
11.0
 40
12.0
 40
12.0
 40
12.0
 40
13.0
 40
13.0
 40
13.0
 40
14.0
 40
14.0
 40
14.0
 40
15.0
 40
15.0
 40
15.0
 40
16.0
 40
16.0
 40
16.0
 40
17.0
 40
17.0
 40
17.0
 40
18.0
 40
18.0
 40
18.0
 40
18.0
 10
14.39774305195612
 20
-17.47442002601333
 30
0.0
 10
14.42948960685269
 20
-17.49474608937631
 30
0.0
 10
14.50314574832734
 20
-17.52650986975031
 30
0.0
 10
14.58060872031318
 20
-17.52650986975031
 30
0.0
 10
14.72409694727383
 20
-17.52650986975031
 30
0.0
 10
14.76853867903356
 20
-17.43507703557178
 30
0.0
 10
14.76728121918144
 20
-17.36651963541531
 30
0.0
 10
14.7660065338519
 20
-17.25097113284003
 30
0.0
 10
14.66187852281022
 20
-17.20143065976214
 30
0.0
 10
14.55394368125734
 20
-17.20143065976214
 30
0.0
 10
14.55394368125734
 20
-17.20143065976214
 30
0.0
 10
14.49172525679373
 20
-17.20143065976214
 30
0.0
 10
14.49172525679373
 20
-17.20143065976214
 30
0.0
 10
14.49172525679373
 20
-17.20143065976214
 30
0.0
 10
14.49172525679373
 20
-17.11761148660601
 30
0.0
 10
14.49172525679373
 20
-17.11761148660601
 30
0.0
 10
14.49172525679373
 20
-17.11761148660601
 30
0.0
 10
14.55394368125734
 20
-17.11761148660601
 30
0.0
 10
14.55394368125734
 20
-17.11761148660601
 30
0.0
 10
14.63521348375439
 20
-17.11761148660601
 30
0.0
 10
14.73806680946652
 20
-17.07571912550537
 30
0.0
 10
14.73806680946652
 20
-16.97791286467913
 30
0.0
 10
14.73806680946652
 20
-16.91190483518174
 30
0.0
 10
14.69615722288846
 20
-16.85347601575191
 30
0.0
 10
14.59330389717632
 20
-16.85347601575191
 30
0.0
 10
14.52727864220151
 20
-16.85347601575191
 30
0.0
 10
14.46378553240836
 20
-16.88269042546682
 30
0.0
 10
14.42823214700058
 20
-16.90811523014797
 30
0.0
 10
14.42823214700058
 20
-16.90811523014797
 30
0.0
 10
14.39901773728566
 20
-16.82681097669607
 30
0.0
 10
14.39901773728566
 20
-16.82681097669607
 30
0.0
 10
14.44220200919327
 20
-16.79508164727692
 30
0.0
 10
14.52600395687197
 20
-16.76335231785777
 30
0.0
 10
14.61488742039141
 20
-16.76335231785777
 30
0.0
 10
14.7774270253855
 20
-16.76335231785777
 30
0.0
 10
14.85108316686014
 20
-16.85984944239962
 30
0.0
 10
14.85108316686014
 20
-16.96013617197524
 30
0.0
 10
14.85108316686014
 20
-17.04523003046091
 30
0.0
 10
14.80028523393013
 20
-17.11761148660601
 30
0.0
 10
14.69870659354754
 20
-17.15443955734333
 30
0.0
 10
14.69870659354754
 20
-17.15443955734333
 30
0.0
 10
14.69870659354754
 20
-17.15698892800242
 30
0.0
 10
14.69870659354754
 20
-17.15698892800242
 30
0.0
 10
14.80028523393013
 20
-17.17731499136539
 30
0.0
 10
14.88282972175672
 20
-17.25348605254426
 30
0.0
 10
14.88282972175672
 20
-17.3690690060744
 30
0.0
 10
14.88282972175672
 20
-17.50108506506917
 30
0.0
 10
14.77997639604459
 20
-17.6166680185993
 30
0.0
 10
14.58188340564272
 20
-17.6166680185993
 30
0.0
 10
14.48917588613465
 20
-17.6166680185993
 30
0.0
 10
14.4079060836376
 20
-17.58745360888438
 30
0.0
 10
14.36727118238908
 20
-17.56078856982855
 30
0.0
 10
14.36727118238908
 20
-17.56078856982855
 30
0.0
 10
14.39774305195612
 20
-17.47442002601333
 30
0.0
 10
14.39774305195612
 20
-17.47442002601333
 30
0.0
  0
HATCH
  5
54A
330
540
100
AcDbEntity
  8
Livello 3
 62
   250
420
  1907995
440
 33554687
100
AcDbHatch
 10
0.0
 20
0.0
 30
0.0
210
0.0
220
0.0
230
1.0
  2
SOLID
 70
     1
 71
     1
 91
        1
 92
        1
 93
        1
 72
     4
 94
        3
 73
     0
 74
     0
 95
       59
 96
       55
 40
0.0
 40
0.0
 40
0.0
 40
0.0
 40
1.0
 40
1.0
 40
1.0
 40
2.0
 40
2.0
 40
2.0
 40
3.0
 40
3.0
 40
3.0
 40
4.0
 40
4.0
 40
4.0
 40
5.0
 40
5.0
 40
5.0
 40
6.0
 40
6.0
 40
6.0
 40
7.0
 40
7.0
 40
7.0
 40
8.0
 40
8.0
 40
8.0
 40
9.0
 40
9.0
 40
9.0
 40
10.0
 40
10.0
 40
10.0
 40
11.0
 40
11.0
 40
11.0
 40
12.0
 40
12.0
 40
12.0
 40
13.0
 40
13.0
 40
13.0
 40
14.0
 40
14.0
 40
14.0
 40
15.0
 40
15.0
 40
15.0
 40
16.0
 40
16.0
 40
16.0
 40
17.0
 40
17.0
 40
17.0
 40
18.0
 40
18.0
 40
18.0
 40
18.0
 10
14.39774305195612
 20
-17.47442002601333
 10
14.42948960685269
 20
-17.49474608937631
 10
14.50314574832734
 20
-17.52650986975031
 10
14.58060872031318
 20
-17.52650986975031
 10
14.72409694727383
 20
-17.52650986975031
 10
14.76853867903356
 20
-17.43507703557178
 10
14.76728121918144
 20
-17.36651963541531
 10
14.7660065338519
 20
-17.25097113284003
 10
14.66187852281022
 20
-17.20143065976214
 10
14.55394368125734
 20
-17.20143065976214
 10
14.55394368125734
 20
-17.20143065976214
 10
14.49172525679373
 20
-17.20143065976214
 10
14.49172525679373
 20
-17.20143065976214
 10
14.49172525679373
 20
-17.20143065976214
 10
14.49172525679373
 20
-17.11761148660601
 10
14.49172525679373
 20
-17.11761148660601
 10
14.49172525679373
 20
-17.11761148660601
 10
14.55394368125734
 20
-17.11761148660601
 10
14.55394368125734
 20
-17.11761148660601
 10
14.63521348375439
 20
-17.11761148660601
 10
14.73806680946652
 20
-17.07571912550537
 10
14.73806680946652
 20
-16.97791286467913
 10
14.73806680946652
 20
-16.91190483518174
 10
14.69615722288846
 20
-16.85347601575191
 10
14.59330389717632
 20
-16.85347601575191
 10
14.52727864220151
 20
-16.85347601575191
 10
14.46378553240836
 20
-16.88269042546682
 10
14.42823214700058
 20
-16.90811523014797
 10
14.42823214700058
 20
-16.90811523014797
 10
14.39901773728566
 20
-16.82681097669607
 10
14.39901773728566
 20
-16.82681097669607
 10
14.44220200919327
 20
-16.79508164727692
 10
14.52600395687197
 20
-16.76335231785777
 10
14.61488742039141
 20
-16.76335231785777
 10
14.7774270253855
 20
-16.76335231785777
 10
14.85108316686014
 20
-16.85984944239962
 10
14.85108316686014
 20
-16.96013617197524
 10
14.85108316686014
 20
-17.04523003046091
 10
14.80028523393013
 20
-17.11761148660601
 10
14.69870659354754
 20
-17.15443955734333
 10
14.69870659354754
 20
-17.15443955734333
 10
14.69870659354754
 20
-17.15698892800242
 10
14.69870659354754
 20
-17.15698892800242
 10
14.80028523393013
 20
-17.17731499136539
 10
14.88282972175672
 20
-17.25348605254426
 10
14.88282972175672
 20
-17.3690690060744
 10
14.88282972175672
 20
-17.50108506506917
 10
14.77997639604459
 20
-17.6166680185993
 10
14.58188340564272
 20
-17.6166680185993
 10
14.48917588613465
 20
-17.6166680185993
 10
14.4079060836376
 20
-17.58745360888438
 10
14.36727118238908
 20
-17.56078856982855
 10
14.36727118238908
 20
-17.56078856982855
 10
14.39774305195612
 20
-17.47442002601333
 10
14.39774305195612
 20
-17.47442002601333
 97
        0
 97
        1
330
549
 75
     2
 76
     1
 98
        1
 10
0.0
 20
0.0
450
        0
451
        0
460
0.0
461
0.0
452
        0
462
0.0
453
        0
470

  0
ENDBLK
  5
543
330
540
100
AcDbEntity
  8
0
100
AcDbBlockEnd
  0
BLOCK
  5
54D
330
54B
100
AcDbEntity
  8
0
100
AcDbBlockBegin
  2
Block_6
 70
     0
 10
0.0
 20
0.0
 30
0.0
  3
Block_6
  1

  0
INSERT
  5
550
330
54B
100
AcDbEntity
  8
Livello 3
100
AcDbBlockReference
  2
Block_7
 10
0.0
 20
0.0
 30
0.0
  0
ENDBLK
  5
54E
330
54B
100
AcDbEntity
  8
0
100
AcDbBlockEnd
  0
BLOCK
  5
551
330
54F
100
AcDbEntity
  8
0
100
AcDbBlockBegin
  2
Block_7
 70
     0
 10
0.0
 20
0.0
 30
0.0
  3
Block_7
  1

  0
SPLINE
  5
553
330
54F
100
AcDbEntity
  8
Livello 3
100
AcDbSpline
210
0.0
220
0.0
230
1.0
 70
    11
 71
     3
 72
    29
 73
    25
 74
     0
 42
0.000000001
 43
0.0000000001
 40
0.0
 40
0.0
 40
0.0
 40
0.0
 40
1.0
 40
1.0
 40
1.0
 40
2.0
 40
2.0
 40
2.0
 40
3.0
 40
3.0
 40
3.0
 40
4.0
 40
4.0
 40
4.0
 40
5.0
 40
5.0
 40
5.0
 40
6.0
 40
6.0
 40
6.0
 40
7.0
 40
7.0
 40
7.0
 40
8.0
 40
8.0
 40
8.0
 40
8.0
 10
24.35772080554251
 20
-14.7822846100197
 30
0.0
 10
24.35772080554251
 20
-14.7822846100197
 30
0.0
 10
24.35772080554251
 20
-14.78483398067879
 30
0.0
 10
24.35772080554251
 20
-14.78483398067879
 30
0.0
 10
24.35772080554251
 20
-14.78483398067879
 30
0.0
 10
24.43516655205093
 20
-14.92832220763945
 30
0.0
 10
24.43516655205093
 20
-14.92832220763945
 30
0.0
 10
24.43516655205093
 20
-14.92832220763945
 30
0.0
 10
24.35007269356527
 20
-14.94992295633196
 30
0.0
 10
24.35007269356527
 20
-14.94992295633196
 30
0.0
 10
24.35007269356527
 20
-14.94992295633196
 30
0.0
 10
24.25357556902341
 20
-14.76960665863398
 30
0.0
 10
24.25357556902341
 20
-14.76960665863398
 30
0.0
 10
24.25357556902341
 20
-14.76960665863398
 30
0.0
 10
24.25357556902341
 20
-14.67434976846683
 30
0.0
 10
24.25357556902341
 20
-14.67434976846683
 30
0.0
 10
24.25357556902341
 20
-14.67434976846683
 30
0.0
 10
25.07898599633442
 20
-14.67434976846683
 30
0.0
 10
25.07898599633442
 20
-14.67434976846683
 30
0.0
 10
25.07898599633442
 20
-14.67434976846683
 30
0.0
 10
25.07898599633442
 20
-14.7822846100197
 30
0.0
 10
25.07898599633442
 20
-14.7822846100197
 30
0.0
 10
25.07898599633442
 20
-14.7822846100197
 30
0.0
 10
24.35772080554251
 20
-14.7822846100197
 30
0.0
 10
24.35772080554251
 20
-14.7822846100197
 30
0.0
  0
HATCH
  5
554
330
54F
100
AcDbEntity
  8
Livello 3
 62
   250
420
  1907995
440
 33554687
100
AcDbHatch
 10
0.0
 20
0.0
 30
0.0
210
0.0
220
0.0
230
1.0
  2
SOLID
 70
     1
 71
     1
 91
        1
 92
        1
 93
        1
 72
     4
 94
        3
 73
     0
 74
     0
 95
       29
 96
       25
 40
0.0
 40
0.0
 40
0.0
 40
0.0
 40
1.0
 40
1.0
 40
1.0
 40
2.0
 40
2.0
 40
2.0
 40
3.0
 40
3.0
 40
3.0
 40
4.0
 40
4.0
 40
4.0
 40
5.0
 40
5.0
 40
5.0
 40
6.0
 40
6.0
 40
6.0
 40
7.0
 40
7.0
 40
7.0
 40
8.0
 40
8.0
 40
8.0
 40
8.0
 10
24.35772080554251
 20
-14.7822846100197
 10
24.35772080554251
 20
-14.7822846100197
 10
24.35772080554251
 20
-14.78483398067879
 10
24.35772080554251
 20
-14.78483398067879
 10
24.35772080554251
 20
-14.78483398067879
 10
24.43516655205093
 20
-14.92832220763945
 10
24.43516655205093
 20
-14.92832220763945
 10
24.43516655205093
 20
-14.92832220763945
 10
24.35007269356527
 20
-14.94992295633196
 10
24.35007269356527
 20
-14.94992295633196
 10
24.35007269356527
 20
-14.94992295633196
 10
24.25357556902341
 20
-14.76960665863398
 10
24.25357556902341
 20
-14.76960665863398
 10
24.25357556902341
 20
-14.76960665863398
 10
24.25357556902341
 20
-14.67434976846683
 10
24.25357556902341
 20
-14.67434976846683
 10
24.25357556902341
 20
-14.67434976846683
 10
25.07898599633442
 20
-14.67434976846683
 10
25.07898599633442
 20
-14.67434976846683
 10
25.07898599633442
 20
-14.67434976846683
 10
25.07898599633442
 20
-14.7822846100197
 10
25.07898599633442
 20
-14.7822846100197
 10
25.07898599633442
 20
-14.7822846100197
 10
24.35772080554251
 20
-14.7822846100197
 10
24.35772080554251
 20
-14.7822846100197
 97
        0
 97
        1
330
553
 75
     2
 76
     1
 98
        1
 10
0.0
 20
0.0
450
        0
451
        0
460
0.0
461
0.0
452
        0
462
0.0
453
        0
470

  0
SPLINE
  5
555
330
54F
100
AcDbEntity
  8
Livello 3
100
AcDbSpline
210
0.0
220
0.0
230
1.0
 70
    11
 71
     3
 72
    26
 73
    22
 74
     0
 42
0.000000001
 43
0.0000000001
 40
0.0
 40
0.0
 40
0.0
 40
0.0
 40
1.0
 40
1.0
 40
1.0
 40
2.0
 40
2.0
 40
2.0
 40
3.0
 40
3.0
 40
3.0
 40
4.0
 40
4.0
 40
4.0
 40
5.0
 40
5.0
 40
5.0
 40
6.0
 40
6.0
 40
6.0
 40
7.0
 40
7.0
 40
7.0
 40
7.0
 10
24.76658473773197
 20
-14.0279465025694
 30
0.0
 10
24.76658473773197
 20
-14.0279465025694
 30
0.0
 10
24.49104600082168
 20
-14.0279465025694
 30
0.0
 10
24.49104600082168
 20
-14.0279465025694
 30
0.0
 10
24.4478789543915
 20
-14.0279465025694
 30
0.0
 10
24.40467745700647
 20
-14.02667181723986
 30
0.0
 10
24.36151041057629
 20
-14.02415689753562
 30
0.0
 10
24.36151041057629
 20
-14.02415689753562
 30
0.0
 10
24.36151041057629
 20
-14.0279465025694
 30
0.0
 10
24.36151041057629
 20
-14.0279465025694
 30
0.0
 10
24.40977619832465
 20
-14.05337130725054
 30
0.0
 10
24.44532958373243
 20
-14.07366291965866
 30
0.0
 10
24.48343233979928
 20
-14.09650390272586
 30
0.0
 10
24.48343233979928
 20
-14.09650390272586
 30
0.0
 10
24.76406981802773
 20
-14.29842094911636
 30
0.0
 10
24.76406981802773
 20
-14.29842094911636
 30
0.0
 10
24.76406981802773
 20
-14.29842094911636
 30
0.0
 10
24.76658473773197
 20
-14.29842094911636
 30
0.0
 10
24.76658473773197
 20
-14.29842094911636
 30
0.0
 10
24.76658473773197
 20
-14.29842094911636
 30
0.0
 10
24.76658473773197
 20
-14.0279465025694
 30
0.0
 10
24.76658473773197
 20
-14.0279465025694
 30
0.0
  0
SPLINE
  5
556
330
54F
100
AcDbEntity
  8
Livello 3
100
AcDbSpline
210
0.0
220
0.0
230
1.0
 70
    11
 71
     3
 72
    38
 73
    34
 74
     0
 42
0.000000001
 43
0.0000000001
 40
0.0
 40
0.0
 40
0.0
 40
0.0
 40
1.0
 40
1.0
 40
1.0
 40
2.0
 40
2.0
 40
2.0
 40
3.0
 40
3.0
 40
3.0
 40
4.0
 40
4.0
 40
4.0
 40
5.0
 40
5.0
 40
5.0
 40
6.0
 40
6.0
 40
6.0
 40
7.0
 40
7.0
 40
7.0
 40
8.0
 40
8.0
 40
8.0
 40
9.0
 40
9.0
 40
9.0
 40
10.0
 40
10.0
 40
10.0
 40
11.0
 40
11.0
 40
11.0
 40
11.0
 10
25.07898599633442
 20
-14.0279465025694
 30
0.0
 10
25.07898599633442
 20
-14.0279465025694
 30
0.0
 10
24.85422796687672
 20
-14.0279465025694
 30
0.0
 10
24.85422796687672
 20
-14.0279465025694
 30
0.0
 10
24.85422796687672
 20
-14.0279465025694
 30
0.0
 10
24.85422796687672
 20
-14.41145453198741
 30
0.0
 10
24.85422796687672
 20
-14.41145453198741
 30
0.0
 10
24.85422796687672
 20
-14.41145453198741
 30
0.0
 10
24.78057182540208
 20
-14.41145453198741
 30
0.0
 10
24.78057182540208
 20
-14.41145453198741
 30
0.0
 10
24.78057182540208
 20
-14.41145453198741
 30
0.0
 10
24.25357556902341
 20
-14.0431738246142
 30
0.0
 10
24.25357556902341
 20
-14.0431738246142
 30
0.0
 10
24.25357556902341
 20
-14.0431738246142
 30
0.0
 10
24.25357556902341
 20
-13.92256103167561
 30
0.0
 10
24.25357556902341
 20
-13.92256103167561
 30
0.0
 10
24.25357556902341
 20
-13.92256103167561
 30
0.0
 10
24.76658473773197
 20
-13.92256103167561
 30
0.0
 10
24.76658473773197
 20
-13.92256103167561
 30
0.0
 10
24.76658473773197
 20
-13.92256103167561
 30
0.0
 10
24.76658473773197
 20
-13.80697807814547
 30
0.0
 10
24.76658473773197
 20
-13.80697807814547
 30
0.0
 10
24.76658473773197
 20
-13.80697807814547
 30
0.0
 10
24.85422796687672
 20
-13.80697807814547
 30
0.0
 10
24.85422796687672
 20
-13.80697807814547
 30
0.0
 10
24.85422796687672
 20
-13.80697807814547
 30
0.0
 10
24.85422796687672
 20
-13.92256103167561
 30
0.0
 10
24.85422796687672
 20
-13.92256103167561
 30
0.0
 10
24.85422796687672
 20
-13.92256103167561
 30
0.0
 10
25.07898599633442
 20
-13.92256103167561
 30
0.0
 10
25.07898599633442
 20
-13.92256103167561
 30
0.0
 10
25.07898599633442
 20
-13.92256103167561
 30
0.0
 10
25.07898599633442
 20
-14.0279465025694
 30
0.0
 10
25.07898599633442
 20
-14.0279465025694
 30
0.0
  0
HATCH
  5
557
330
54F
100
AcDbEntity
  8
Livello 3
 62
   250
420
  1907995
440
 33554687
100
AcDbHatch
 10
0.0
 20
0.0
 30
0.0
210
0.0
220
0.0
230
1.0
  2
SOLID
 70
     1
 71
     1
 91
        2
 92
        1
 93
        1
 72
     4
 94
        3
 73
     0
 74
     0
 95
       26
 96
       22
 40
0.0
 40
0.0
 40
0.0
 40
0.0
 40
1.0
 40
1.0
 40
1.0
 40
2.0
 40
2.0
 40
2.0
 40
3.0
 40
3.0
 40
3.0
 40
4.0
 40
4.0
 40
4.0
 40
5.0
 40
5.0
 40
5.0
 40
6.0
 40
6.0
 40
6.0
 40
7.0
 40
7.0
 40
7.0
 40
7.0
 10
24.76658473773197
 20
-14.0279465025694
 10
24.76658473773197
 20
-14.0279465025694
 10
24.49104600082168
 20
-14.0279465025694
 10
24.49104600082168
 20
-14.0279465025694
 10
24.4478789543915
 20
-14.0279465025694
 10
24.40467745700647
 20
-14.02667181723986
 10
24.36151041057629
 20
-14.02415689753562
 10
24.36151041057629
 20
-14.02415689753562
 10
24.36151041057629
 20
-14.0279465025694
 10
24.36151041057629
 20
-14.0279465025694
 10
24.40977619832465
 20
-14.05337130725054
 10
24.44532958373243
 20
-14.07366291965866
 10
24.48343233979928
 20
-14.09650390272586
 10
24.48343233979928
 20
-14.09650390272586
 10
24.76406981802773
 20
-14.29842094911636
 10
24.76406981802773
 20
-14.29842094911636
 10
24.76406981802773
 20
-14.29842094911636
 10
24.76658473773197
 20
-14.29842094911636
 10
24.76658473773197
 20
-14.29842094911636
 10
24.76658473773197
 20
-14.29842094911636
 10
24.76658473773197
 20
-14.0279465025694
 10
24.76658473773197
 20
-14.0279465025694
 97
        0
 97
        1
330
555
 92
        1
 93
        1
 72
     4
 94
        3
 73
     0
 74
     0
 95
       38
 96
       34
 40
0.0
 40
0.0
 40
0.0
 40
0.0
 40
1.0
 40
1.0
 40
1.0
 40
2.0
 40
2.0
 40
2.0
 40
3.0
 40
3.0
 40
3.0
 40
4.0
 40
4.0
 40
4.0
 40
5.0
 40
5.0
 40
5.0
 40
6.0
 40
6.0
 40
6.0
 40
7.0
 40
7.0
 40
7.0
 40
8.0
 40
8.0
 40
8.0
 40
9.0
 40
9.0
 40
9.0
 40
10.0
 40
10.0
 40
10.0
 40
11.0
 40
11.0
 40
11.0
 40
11.0
 10
25.07898599633442
 20
-14.0279465025694
 10
25.07898599633442
 20
-14.0279465025694
 10
24.85422796687672
 20
-14.0279465025694
 10
24.85422796687672
 20
-14.0279465025694
 10
24.85422796687672
 20
-14.0279465025694
 10
24.85422796687672
 20
-14.41145453198741
 10
24.85422796687672
 20
-14.41145453198741
 10
24.85422796687672
 20
-14.41145453198741
 10
24.78057182540208
 20
-14.41145453198741
 10
24.78057182540208
 20
-14.41145453198741
 10
24.78057182540208
 20
-14.41145453198741
 10
24.25357556902341
 20
-14.0431738246142
 10
24.25357556902341
 20
-14.0431738246142
 10
24.25357556902341
 20
-14.0431738246142
 10
24.25357556902341
 20
-13.92256103167561
 10
24.25357556902341
 20
-13.92256103167561
 10
24.25357556902341
 20
-13.92256103167561
 10
24.76658473773197
 20
-13.92256103167561
 10
24.76658473773197
 20
-13.92256103167561
 10
24.76658473773197
 20
-13.92256103167561
 10
24.76658473773197
 20
-13.80697807814547
 10
24.76658473773197
 20
-13.80697807814547
 10
24.76658473773197
 20
-13.80697807814547
 10
24.85422796687672
 20
-13.80697807814547
 10
24.85422796687672
 20
-13.80697807814547
 10
24.85422796687672
 20
-13.80697807814547
 10
24.85422796687672
 20
-13.92256103167561
 10
24.85422796687672
 20
-13.92256103167561
 10
24.85422796687672
 20
-13.92256103167561
 10
25.07898599633442
 20
-13.92256103167561
 10
25.07898599633442
 20
-13.92256103167561
 10
25.07898599633442
 20
-13.92256103167561
 10
25.07898599633442
 20
-14.0279465025694
 10
25.07898599633442
 20
-14.0279465025694
 97
        0
 97
        1
330
556
 75
     2
 76
     1
 98
        1
 10
0.0
 20
0.0
450
        0
451
        0
460
0.0
461
0.0
452
        0
462
0.0
453
        0
470

  0
ENDBLK
  5
552
330
54F
100
AcDbEntity
  8
0
100
AcDbBlockEnd
  0
ENDSEC
  0
SECTION
  2
ENTITIES
  0
SPLINE
  5
B7F
330
70
100
AcDbEntity
  8
Livello 1
100
AcDbSpline
210
0.0
220
0.0
230
1.0
 70
     9
 71
     3
 72
    17
 73
    13
 74
     0
 42
0.000000001
 43
0.0000000001
 40
0.0
 40
0.0
 40
0.0
 40
0.0
 40
1.0
 40
1.0
 40
1.0
 40
2.0
 40
2.0
 40
2.0
 40
3.0
 40
3.0
 40
3.0
 40
4.0
 40
4.0
 40
4.0
 40
4.0
 10
24.92228296152388
 20
59.60440726465137
 30
0.0
 10
24.92228296152388
 20
58.92012342810295
 30
0.0
 10
24.43832028003345
 20
58.36539718177767
 30
0.0
 10
23.84129683364728
 20
58.36539718177767
 30
0.0
 10
23.24427338726076
 20
58.36539718177767
 30
0.0
 10
22.76031070577065
 20
58.92012342810295
 30
0.0
 10
22.76031070577065
 20
59.60440726465137
 30
0.0
 10
22.76031070577065
 20
60.28866307056616
 30
0.0
 10
23.24427338726076
 20
60.84338931689146
 30
0.0
 10
23.84129683364728
 20
60.84338931689146
 30
0.0
 10
24.43832028003345
 20
60.84338931689146
 30
0.0
 10
24.92228296152388
 20
60.28866307056616
 30
0.0
 10
24.92228296152388
 20
59.60440726465137
 30
0.0
  0
LINE
  5
B80
330
70
100
AcDbEntity
  8
Livello 1
100
AcDbLine
 10
2.444540963016947
 20
30.98541028457075
 30
0.0
 11
-20.27675941963898
 21
30.98541028457075
 31
0.0
  0
LINE
  5
B81
330
70
100
AcDbEntity
  8
Livello 1
100
AcDbLine
 10
2.444540963016947
 20
32.72468309196177
 30
0.0
 11
-20.27675941963898
 21
32.72468309196177
 31
0.0
  0
LINE
  5
B82
330
70
100
AcDbEntity
  8
Livello 1
100
AcDbLine
 10
2.444540963016947
 20
33.01062358911884
 30
0.0
 11
-20.27675941963898
 21
33.01062358911884
 31
0.0
  0
LINE
  5
B83
330
70
100
AcDbEntity
  8
Livello 1
100
AcDbLine
 10
-23.00000030450866
 20
50.38000214491876
 30
0.0
 11
-23.00000030450866
 21
73.51542226213168
 31
0.0
  0
LINE
  5
B84
330
70
100
AcDbEntity
  8
Livello 1
100
AcDbLine
 10
-21.35774557482344
 20
32.43877062543658
 30
0.0
 11
-21.35774557482344
 21
48.95043981229676
 31
0.0
  0
LINE
  5
B85
330
70
100
AcDbEntity
  8
Livello 1
100
AcDbLine
 10
-21.14986832500884
 20
34.17804343282626
 30
0.0
 11
-21.14986832500884
 21
48.95043981229676
 31
0.0
  0
LINE
  5
B86
330
70
100
AcDbEntity
  8
Livello 1
100
AcDbLine
 10
-21.00432979399116
 20
51.23776757512655
 30
0.0
 11
-21.00432979399116
 21
72.65762880129027
 31
0.0
  0
LINE
  5
B87
330
70
100
AcDbEntity
  8
Livello 1
100
AcDbLine
 10
-19.38286278928746
 20
53.09619860753506
 30
0.0
 11
-19.38286278928746
 21
70.82299577712425
 31
0.0
  0
LINE
  5
B88
330
70
100
AcDbEntity
  8
Livello 1
100
AcDbLine
 10
3.899706131108246
 20
48.95043981229676
 30
0.0
 11
-21.73194908063724
 21
48.95043981229676
 31
0.0
  0
LINE
  5
B89
330
70
100
AcDbEntity
  8
Livello 1
100
AcDbLine
 10
3.151323594532925
 20
51.23776757512655
 30
0.0
 11
-21.00432979399116
 21
51.23776757512655
 31
0.0
  0
LINE
  5
B8A
330
70
100
AcDbEntity
  8
Livello 1
100
AcDbLine
 10
1.550619899100837
 20
53.09619860753506
 30
0.0
 11
-19.38286278928746
 21
53.09619860753506
 31
0.0
  0
LINE
  5
B8B
330
70
100
AcDbEntity
  8
Livello 1
100
AcDbLine
 10
-21.00432979399116
 20
72.65762880129027
 30
0.0
 11
-19.38286278928746
 21
70.82299577712425
 31
0.0
  0
LINE
  5
B8C
330
70
100
AcDbEntity
  8
Livello 1
100
AcDbLine
 10
-21.00432979399116
 20
51.23776757512655
 30
0.0
 11
-19.38286278928746
 21
53.09619860753506
 31
0.0
  0
LINE
  5
B8D
330
70
100
AcDbEntity
  8
Livello 1
100
AcDbLine
 10
1.550619899100837
 20
53.09619860753506
 30
0.0
 11
3.151323594532925
 21
51.23776757512655
 31
0.0
  0
LINE
  5
B8E
330
70
100
AcDbEntity
  8
Livello 1
100
AcDbLine
 10
1.550619899100837
 20
70.82299577712425
 30
0.0
 11
3.151323594532925
 21
72.65762880129027
 31
0.0
  0
LINE
  5
B8F
330
70
100
AcDbEntity
  8
Livello 1
100
AcDbLine
 10
-19.38286278928746
 20
70.82299577712425
 30
0.0
 11
1.550619899100837
 21
70.82299577712425
 31
0.0
  0
LINE
  5
B90
330
70
100
AcDbEntity
  8
Livello 1
100
AcDbLine
 10
1.550619899100837
 20
70.82299577712425
 30
0.0
 11
1.550619899100837
 21
53.09619860753506
 31
0.0
  0
LINE
  5
B91
330
70
100
AcDbEntity
  8
Livello 1
100
AcDbLine
 10
-21.00432979399116
 20
72.65762880129027
 30
0.0
 11
3.151323594532925
 21
72.65762880129027
 31
0.0
  0
LINE
  5
B92
330
70
100
AcDbEntity
  8
Livello 1
100
AcDbLine
 10
-21.73194908063724
 20
74.84965240861197
 30
0.0
 11
3.899706131108246
 21
74.84965240861197
 31
0.0
  0
LINE
  5
B93
330
70
100
AcDbEntity
  8
Livello 1
100
AcDbLine
 10
3.151323594532925
 20
72.65762880129027
 30
0.0
 11
3.151323594532925
 21
51.23776757512655
 31
0.0
  0
LINE
  5
B94
330
70
100
AcDbEntity
  8
Livello 1
100
AcDbLine
 10
3.317649846330027
 20
34.17804343282626
 30
0.0
 11
3.317649846330027
 21
48.95043981229676
 31
0.0
  0
LINE
  5
B95
330
70
100
AcDbEntity
  8
Livello 1
100
AcDbLine
 10
3.525502634747539
 20
32.43877062543658
 30
0.0
 11
3.525502634747539
 21
48.95043981229676
 31
0.0
  0
LINE
  5
B96
330
70
100
AcDbEntity
  8
Livello 1
100
AcDbLine
 10
5.126157417886446
 20
73.51542226213168
 30
0.0
 11
5.126157417886446
 21
50.38000214491876
 31
0.0
  0
LINE
  5
B97
330
70
100
AcDbEntity
  8
Livello 1
100
AcDbLine
 10
9.788623908128357
 20
57.22171928504565
 30
0.0
 11
9.788623908128357
 21
53.98134996713418
 31
0.0
  0
LINE
  5
B98
330
70
100
AcDbEntity
  8
Livello 1
100
AcDbLine
 10
10.43304336627503
 20
57.98420859037896
 30
0.0
 11
10.43304336627503
 21
53.21891672306896
 31
0.0
  0
LINE
  5
B99
330
70
100
AcDbEntity
  8
Livello 1
100
AcDbLine
 10
27.87418874661862
 20
48.90634762505675
 30
0.0
 11
26.46057457129413
 21
48.85872357793704
 31
0.0
  0
LINE
  5
B9A
330
70
100
AcDbEntity
  8
Livello 1
100
AcDbLine
 10
13.92540677314826
 20
53.09981455931796
 30
0.0
 11
13.92540677314826
 21
58.10331075412998
 31
0.0
  0
LINE
  5
B9B
330
70
100
AcDbEntity
  8
Livello 1
100
AcDbLine
 10
13.92540677314826
 20
58.10331075412998
 30
0.0
 11
13.94621771169176
 21
58.12716482364095
 31
0.0
  0
LINE
  5
B9C
330
70
100
AcDbEntity
  8
Livello 1
100
AcDbLine
 10
13.94621771169176
 20
58.12716482364095
 30
0.0
 11
13.94621771169176
 21
58.15096283188407
 31
0.0
  0
LINE
  5
B9D
330
70
100
AcDbEntity
  8
Livello 1
100
AcDbLine
 10
13.94621771169176
 20
58.15096283188407
 30
0.0
 11
13.94621771169176
 21
58.17481690139516
 31
0.0
  0
LINE
  5
B9E
330
70
100
AcDbEntity
  8
Livello 1
100
AcDbLine
 10
13.94621771169176
 20
58.17481690139516
 30
0.0
 11
13.94621771169176
 21
58.19858687900446
 31
0.0
  0
LINE
  5
B9F
330
70
100
AcDbEntity
  8
Livello 1
100
AcDbLine
 10
13.94621771169176
 20
58.19858687900446
 30
0.0
 11
13.96702989229436
 21
58.22244094851544
 31
0.0
  0
LINE
  5
BA0
330
70
100
AcDbEntity
  8
Livello 1
100
AcDbLine
 10
13.96702989229436
 20
58.22244094851544
 30
0.0
 11
13.96702989229436
 21
58.24629501802647
 31
0.0
  0
LINE
  5
BA1
330
70
100
AcDbEntity
  8
Livello 1
100
AcDbLine
 10
13.96702989229436
 20
58.24629501802647
 30
0.0
 11
13.98776994809296
 21
58.27006499563535
 31
0.0
  0
LINE
  5
BA2
330
70
100
AcDbEntity
  8
Livello 1
100
AcDbLine
 10
13.98776994809296
 20
58.27006499563535
 30
0.0
 11
14.00858088506061
 21
58.27006499563535
 31
0.0
  0
LINE
  5
BA3
330
70
100
AcDbEntity
  8
Livello 1
100
AcDbLine
 10
14.00858088506061
 20
58.27006499563535
 30
0.0
 11
14.00858088506061
 21
58.29391906514636
 31
0.0
  0
LINE
  5
BA4
330
70
100
AcDbEntity
  8
Livello 1
100
AcDbLine
 10
14.00858088506061
 20
58.29391906514636
 30
0.0
 11
14.02939306566364
 21
58.29391906514636
 31
0.0
  0
LINE
  5
BA5
330
70
100
AcDbEntity
  8
Livello 1
100
AcDbLine
 10
14.02939306566364
 20
58.29391906514636
 30
0.0
 11
14.05013312303754
 21
58.31777313465767
 31
0.0
  0
LINE
  5
BA6
330
70
100
AcDbEntity
  8
Livello 1
100
AcDbLine
 10
14.05013312303754
 20
58.31777313465767
 30
0.0
 11
14.07094405842966
 21
58.31777313465767
 31
0.0
  0
LINE
  5
BA7
330
70
100
AcDbEntity
  8
Livello 1
100
AcDbLine
 10
14.07094405842966
 20
58.31777313465767
 30
0.0
 11
14.07094405842966
 21
58.34154311226666
 31
0.0
  0
LINE
  5
BA8
330
70
100
AcDbEntity
  8
Livello 1
100
AcDbLine
 10
14.07094405842966
 20
58.34154311226666
 30
0.0
 11
14.09170857300003
 21
58.34154311226666
 31
0.0
  0
LINE
  5
BA9
330
70
100
AcDbEntity
  8
Livello 1
100
AcDbLine
 10
14.09170857300003
 20
58.34154311226666
 30
0.0
 11
14.11251950734228
 21
58.34154311226666
 31
0.0
  0
LINE
  5
BAA
330
70
100
AcDbEntity
  8
Livello 1
100
AcDbLine
 10
14.11251950734228
 20
58.34154311226666
 30
0.0
 11
14.13330723179894
 21
58.34154311226666
 31
0.0
  0
LINE
  5
BAB
330
70
100
AcDbEntity
  8
Livello 1
100
AcDbLine
 10
14.13330723179894
 20
58.34154311226666
 30
0.0
 11
14.15407174794495
 21
58.34154311226666
 31
0.0
  0
LINE
  5
BAC
330
70
100
AcDbEntity
  8
Livello 1
100
AcDbLine
 10
26.29427277564329
 20
51.59871804879657
 30
0.0
 11
26.31508495624584
 21
51.59871804879657
 31
0.0
  0
LINE
  5
BAD
330
70
100
AcDbEntity
  8
Livello 1
100
AcDbLine
 10
26.31508495624584
 20
51.59871804879657
 30
0.0
 11
26.31508495624584
 21
51.62257211830698
 31
0.0
  0
LINE
  5
BAE
330
70
100
AcDbEntity
  8
Livello 1
100
AcDbLine
 10
26.46057457129413
 20
50.28828591055907
 30
0.0
 11
28.64336062151628
 21
50.28828591055907
 31
0.0
  0
LINE
  5
BAF
330
70
100
AcDbEntity
  8
Livello 1
100
AcDbLine
 10
25.15094793054405
 20
51.62257211830698
 30
0.0
 11
26.29427277564329
 21
51.59871804879657
 31
0.0
  0
LINE
  5
BB0
330
70
100
AcDbEntity
  8
Livello 1
100
AcDbLine
 10
22.38615612170261
 20
71.61287101184896
 30
0.0
 11
22.40696830230527
 21
71.61287101184896
 31
0.0
  0
LINE
  5
BB1
330
70
100
AcDbEntity
  8
Livello 1
100
AcDbLine
 10
22.40696830230527
 20
71.61287101184896
 30
0.0
 11
22.44851929507195
 21
71.63672508136055
 31
0.0
  0
LINE
  5
BB2
330
70
100
AcDbEntity
  8
Livello 1
100
AcDbLine
 10
22.44851929507195
 20
71.63672508136055
 30
0.0
 11
22.46925810723496
 21
71.63672508136055
 31
0.0
  0
LINE
  5
BB3
330
70
100
AcDbEntity
  8
Livello 1
100
AcDbLine
 10
22.46925810723496
 20
71.63672508136055
 30
0.0
 11
22.49007028783797
 21
71.66052308960345
 31
0.0
  0
LINE
  5
BB4
330
70
100
AcDbEntity
  8
Livello 1
100
AcDbLine
 10
22.49007028783797
 20
71.66052308960345
 30
0.0
 11
22.51088246844057
 21
71.66052308960345
 31
0.0
  0
LINE
  5
BB5
330
70
100
AcDbEntity
  8
Livello 1
100
AcDbLine
 10
21.03490511974664
 20
52.71854187601696
 30
0.0
 11
21.88725073475016
 21
52.71854187601696
 31
0.0
  0
LINE
  5
BB6
330
70
100
AcDbEntity
  8
Livello 1
100
AcDbLine
 10
21.88725073475016
 20
52.71854187601696
 30
0.0
 11
22.53164573675054
 21
52.71854187601696
 31
0.0
  0
LINE
  5
BB7
330
70
100
AcDbEntity
  8
Livello 1
100
AcDbLine
 10
18.74825542954815
 20
52.86149810927955
 30
0.0
 11
14.15407174794495
 21
52.86149810927955
 31
0.0
  0
LINE
  5
BB8
330
70
100
AcDbEntity
  8
Livello 1
100
AcDbLine
 10
14.15407174794495
 20
52.86149810927955
 30
0.0
 11
18.41565183824647
 21
52.86149810927955
 31
0.0
  0
LINE
  5
BB9
330
70
100
AcDbEntity
  8
Livello 1
100
AcDbLine
 10
21.03490511974664
 20
52.98062830366433
 30
0.0
 11
20.16179623643387
 21
52.98062830366433
 31
0.0
  0
LINE
  5
BBA
330
70
100
AcDbEntity
  8
Livello 1
100
AcDbLine
 10
19.72527847899687
 20
52.98062830366433
 30
0.0
 11
18.85216959568336
 21
52.98062830366433
 31
0.0
  0
LINE
  5
BBB
330
70
100
AcDbEntity
  8
Livello 1
100
AcDbLine
 10
18.85216959568336
 20
52.98062830366433
 30
0.0
 11
19.72527847899687
 21
52.98062830366433
 31
0.0
  0
LINE
  5
BBC
330
70
100
AcDbEntity
  8
Livello 1
100
AcDbLine
 10
20.16179623643387
 20
52.98062830366433
 30
0.0
 11
21.03490511974664
 21
52.98062830366433
 31
0.0
  0
LINE
  5
BBD
330
70
100
AcDbEntity
  8
Livello 1
100
AcDbLine
 10
20.16179623643387
 20
53.60013334510185
 30
0.0
 11
19.72527847899687
 21
53.60013334510185
 31
0.0
  0
LINE
  5
BBE
330
70
100
AcDbEntity
  8
Livello 1
100
AcDbLine
 10
14.15407174794495
 20
52.86149810927955
 30
0.0
 11
14.13330723179894
 21
52.86149810927955
 31
0.0
  0
LINE
  5
BBF
330
70
100
AcDbEntity
  8
Livello 1
100
AcDbLine
 10
14.13330723179894
 20
52.86149810927955
 30
0.0
 11
14.11251950734228
 21
52.86149810927955
 31
0.0
  0
LINE
  5
BC0
330
70
100
AcDbEntity
  8
Livello 1
100
AcDbLine
 10
14.11251950734228
 20
52.86149810927955
 30
0.0
 11
14.09170857300003
 21
52.86149810927955
 31
0.0
  0
LINE
  5
BC1
330
70
100
AcDbEntity
  8
Livello 1
100
AcDbLine
 10
14.09170857300003
 20
52.86149810927955
 30
0.0
 11
14.07094405842966
 21
52.88535217879027
 31
0.0
  0
LINE
  5
BC2
330
70
100
AcDbEntity
  8
Livello 1
100
AcDbLine
 10
14.07094405842966
 20
52.88535217879027
 30
0.0
 11
14.05013312303754
 21
52.88535217879027
 31
0.0
  0
LINE
  5
BC3
330
70
100
AcDbEntity
  8
Livello 1
100
AcDbLine
 10
14.05013312303754
 20
52.88535217879027
 30
0.0
 11
14.02939306566364
 21
52.90915018703376
 31
0.0
  0
LINE
  5
BC4
330
70
100
AcDbEntity
  8
Livello 1
100
AcDbLine
 10
14.02939306566364
 20
52.90915018703376
 30
0.0
 11
14.00858088506061
 21
52.90915018703376
 31
0.0
  0
LINE
  5
BC5
330
70
100
AcDbEntity
  8
Livello 1
100
AcDbLine
 10
14.00858088506061
 20
52.90915018703376
 30
0.0
 11
14.00858088506061
 21
52.93300425654445
 31
0.0
  0
LINE
  5
BC6
330
70
100
AcDbEntity
  8
Livello 1
100
AcDbLine
 10
14.00858088506061
 20
52.93300425654445
 30
0.0
 11
13.98776994809296
 21
52.95685832605546
 31
0.0
  0
LINE
  5
BC7
330
70
100
AcDbEntity
  8
Livello 1
100
AcDbLine
 10
13.98776994809296
 20
52.95685832605546
 30
0.0
 11
13.96702989229436
 21
52.95685832605546
 31
0.0
  0
LINE
  5
BC8
330
70
100
AcDbEntity
  8
Livello 1
100
AcDbLine
 10
13.96702989229436
 20
52.95685832605546
 30
0.0
 11
13.96702989229436
 21
52.98062830366433
 31
0.0
  0
LINE
  5
BC9
330
70
100
AcDbEntity
  8
Livello 1
100
AcDbLine
 10
13.96702989229436
 20
52.98062830366433
 30
0.0
 11
13.94621771169176
 21
53.00448237317564
 31
0.0
  0
LINE
  5
BCA
330
70
100
AcDbEntity
  8
Livello 1
100
AcDbLine
 10
13.94621771169176
 20
53.00448237317564
 30
0.0
 11
13.94621771169176
 21
53.02833644268673
 31
0.0
  0
LINE
  5
BCB
330
70
100
AcDbEntity
  8
Livello 1
100
AcDbLine
 10
13.94621771169176
 20
53.02833644268673
 30
0.0
 11
13.94621771169176
 21
53.05210642029567
 31
0.0
  0
LINE
  5
BCC
330
70
100
AcDbEntity
  8
Livello 1
100
AcDbLine
 10
13.94621771169176
 20
53.05210642029567
 30
0.0
 11
13.94621771169176
 21
53.07596048980705
 31
0.0
  0
LINE
  5
BCD
330
70
100
AcDbEntity
  8
Livello 1
100
AcDbLine
 10
13.94621771169176
 20
53.07596048980705
 30
0.0
 11
13.92540677314826
 21
53.09981455931796
 31
0.0
  0
LINE
  5
BCE
330
70
100
AcDbEntity
  8
Livello 1
100
AcDbLine
 10
26.35663594901215
 20
51.59871804879657
 30
0.0
 11
26.33582376840929
 21
51.59871804879657
 31
0.0
  0
LINE
  5
BCF
330
70
100
AcDbEntity
  8
Livello 1
100
AcDbLine
 10
26.33582376840929
 20
51.59871804879657
 30
0.0
 11
26.31508495624584
 21
51.62257211830698
 31
0.0
  0
LINE
  5
BD0
330
70
100
AcDbEntity
  8
Livello 1
100
AcDbLine
 10
26.39821139792517
 20
51.57492004055334
 30
0.0
 11
26.35663594901215
 21
51.59871804879657
 31
0.0
  0
LINE
  5
BD1
330
70
100
AcDbEntity
  8
Livello 1
100
AcDbLine
 10
18.85216959568336
 20
52.98062830366433
 30
0.0
 11
18.85216959568336
 21
58.22244094851544
 31
0.0
  0
LINE
  5
BD2
330
70
100
AcDbEntity
  8
Livello 1
100
AcDbLine
 10
19.72527847899687
 20
52.98062830366433
 30
0.0
 11
19.72527847899687
 21
58.22244094851544
 31
0.0
  0
LINE
  5
BD3
330
70
100
AcDbEntity
  8
Livello 1
100
AcDbLine
 10
20.16179623643387
 20
57.60293590707826
 30
0.0
 11
19.72527847899687
 21
57.60293590707826
 31
0.0
  0
LINE
  5
BD4
330
70
100
AcDbEntity
  8
Livello 1
100
AcDbLine
 10
21.03490511974664
 20
58.22244094851544
 30
0.0
 11
20.16179623643387
 21
58.22244094851544
 31
0.0
  0
LINE
  5
BD5
330
70
100
AcDbEntity
  8
Livello 1
100
AcDbLine
 10
19.72527847899687
 20
58.22244094851544
 30
0.0
 11
18.85216959568336
 21
58.22244094851544
 31
0.0
  0
LINE
  5
BD6
330
70
100
AcDbEntity
  8
Livello 1
100
AcDbLine
 10
21.03490511974664
 20
58.22244094851544
 30
0.0
 11
20.16179623643387
 21
58.22244094851544
 31
0.0
  0
LINE
  5
BD7
330
70
100
AcDbEntity
  8
Livello 1
100
AcDbLine
 10
19.72527847899687
 20
58.22244094851544
 30
0.0
 11
18.85216959568336
 21
58.22244094851544
 31
0.0
  0
LINE
  5
BD8
330
70
100
AcDbEntity
  8
Livello 1
100
AcDbLine
 10
18.41565183824647
 20
58.34154311226666
 30
0.0
 11
14.15407174794495
 21
58.34154311226666
 31
0.0
  0
LINE
  5
BD9
330
70
100
AcDbEntity
  8
Livello 1
100
AcDbLine
 10
18.74825542954815
 20
58.36539718177767
 30
0.0
 11
14.15407174794495
 21
58.36539718177767
 31
0.0
  0
LINE
  5
BDA
330
70
100
AcDbEntity
  8
Livello 1
100
AcDbLine
 10
26.43981130298405
 20
51.52723993216554
 30
0.0
 11
26.41902357852777
 21
51.55106597104236
 31
0.0
  0
LINE
  5
BDB
330
70
100
AcDbEntity
  8
Livello 1
100
AcDbLine
 10
26.41902357852777
 20
51.55106597104236
 30
0.0
 11
26.39821139792517
 21
51.57492004055334
 31
0.0
  0
LINE
  5
BDC
330
70
100
AcDbEntity
  8
Livello 1
100
AcDbLine
 10
20.16179623643387
 20
52.98062830366433
 30
0.0
 11
20.16179623643387
 21
58.22244094851544
 31
0.0
  0
LINE
  5
BDD
330
70
100
AcDbEntity
  8
Livello 1
100
AcDbLine
 10
21.03490511974664
 20
52.71854187601696
 30
0.0
 11
21.03490511974664
 21
58.48452737616284
 31
0.0
  0
LINE
  5
BDE
330
70
100
AcDbEntity
  8
Livello 1
100
AcDbLine
 10
21.78328765632187
 20
70.27858480410076
 30
0.0
 11
21.78328765632187
 21
68.01505504951416
 31
0.0
  0
LINE
  5
BDF
330
70
100
AcDbEntity
  8
Livello 1
100
AcDbLine
 10
21.78328765632187
 20
68.01505504951416
 30
0.0
 11
21.78328765632187
 21
66.20430412549305
 31
0.0
  0
LINE
  5
BE0
330
70
100
AcDbEntity
  8
Livello 1
100
AcDbLine
 10
21.78328765632187
 20
66.20430412549305
 30
0.0
 11
21.78328765632187
 21
59.98556782541616
 31
0.0
  0
LINE
  5
BE1
330
70
100
AcDbEntity
  8
Livello 1
100
AcDbLine
 10
21.78328765632187
 20
59.98556782541616
 30
0.0
 11
21.78328765632187
 21
58.48452737616284
 31
0.0
  0
LINE
  5
BE2
330
70
100
AcDbEntity
  8
Livello 1
100
AcDbLine
 10
21.78328765632187
 20
58.48452737616284
 30
0.0
 11
21.03490511974664
 21
58.48452737616284
 31
0.0
  0
LINE
  5
BE3
330
70
100
AcDbEntity
  8
Livello 1
100
AcDbLine
 10
21.78328765632187
 20
70.27858480410076
 30
0.0
 11
21.78328765632187
 21
70.39768696785235
 31
0.0
  0
LINE
  5
BE4
330
70
100
AcDbEntity
  8
Livello 1
100
AcDbLine
 10
21.78328765632187
 20
70.39768696785235
 30
0.0
 11
21.78328765632187
 21
70.49301915399436
 31
0.0
  0
LINE
  5
BE5
330
70
100
AcDbEntity
  8
Livello 1
100
AcDbLine
 10
21.78328765632187
 20
70.49301915399436
 30
0.0
 11
21.80407538077827
 21
70.58829527886847
 31
0.0
  0
LINE
  5
BE6
330
70
100
AcDbEntity
  8
Livello 1
100
AcDbLine
 10
21.80407538077827
 20
70.58829527886847
 30
0.0
 11
21.82488756138116
 21
70.70742547325366
 31
0.0
  0
LINE
  5
BE7
330
70
100
AcDbEntity
  8
Livello 1
100
AcDbLine
 10
21.82488756138116
 20
70.70742547325366
 30
0.0
 11
21.84565082969087
 21
70.80275765939565
 31
0.0
  0
LINE
  5
BE8
330
70
100
AcDbEntity
  8
Livello 1
100
AcDbLine
 10
21.84565082969087
 20
70.80275765939565
 30
0.0
 11
21.88725073475016
 21
70.89808984553797
 31
0.0
  0
LINE
  5
BE9
330
70
100
AcDbEntity
  8
Livello 1
100
AcDbLine
 10
21.88725073475016
 20
70.89808984553797
 30
0.0
 11
21.92882618366278
 21
70.99336597041236
 31
0.0
  0
LINE
  5
BEA
330
70
100
AcDbEntity
  8
Livello 1
100
AcDbLine
 10
21.92882618366278
 20
70.99336597041236
 30
0.0
 11
21.97037717642903
 21
71.08869815655435
 31
0.0
  0
LINE
  5
BEB
330
70
100
AcDbEntity
  8
Livello 1
100
AcDbLine
 10
21.97037717642903
 20
71.08869815655435
 30
0.0
 11
22.01195262534176
 21
71.16017627318536
 31
0.0
  0
LINE
  5
BEC
330
70
100
AcDbEntity
  8
Livello 1
100
AcDbLine
 10
22.01195262534176
 20
71.16017627318536
 30
0.0
 11
22.05350361810838
 21
71.25545239805956
 31
0.0
  0
LINE
  5
BED
330
70
100
AcDbEntity
  8
Livello 1
100
AcDbLine
 10
22.05350361810838
 20
71.25545239805956
 30
0.0
 11
22.11586679147695
 21
71.32693051469075
 31
0.0
  0
LINE
  5
BEE
330
70
100
AcDbEntity
  8
Livello 1
100
AcDbLine
 10
22.11586679147695
 20
71.32693051469075
 30
0.0
 11
22.17822996484628
 21
71.42226270083274
 31
0.0
  0
LINE
  5
BEF
330
70
100
AcDbEntity
  8
Livello 1
100
AcDbLine
 10
22.17822996484628
 20
71.42226270083274
 30
0.0
 11
22.24059313821516
 21
71.49374081746376
 31
0.0
  0
LINE
  5
BF0
330
70
100
AcDbEntity
  8
Livello 1
100
AcDbLine
 10
22.24059313821516
 20
71.49374081746376
 30
0.0
 11
22.30298076773033
 21
71.54139289521795
 31
0.0
  0
LINE
  5
BF1
330
70
100
AcDbEntity
  8
Livello 1
100
AcDbLine
 10
22.30298076773033
 20
71.54139289521795
 30
0.0
 11
22.38615612170261
 21
71.61287101184896
 31
0.0
  0
LINE
  5
BF2
330
70
100
AcDbEntity
  8
Livello 1
100
AcDbLine
 10
23.07215102876194
 20
71.77962525335435
 30
0.0
 11
23.07215102876194
 21
71.77962525335435
 31
0.0
  0
LINE
  5
BF3
330
70
100
AcDbEntity
  8
Livello 1
100
AcDbLine
 10
22.53164573675054
 20
30.89369405021208
 30
0.0
 11
22.53164573675054
 21
59.60435120338357
 31
0.0
  0
LINE
  5
BF4
330
70
100
AcDbEntity
  8
Livello 1
100
AcDbLine
 10
22.84348605974256
 20
70.27858480410076
 30
0.0
 11
22.84348605974256
 21
60.58121879734196
 31
0.0
  0
LINE
  5
BF5
330
70
100
AcDbEntity
  8
Livello 1
100
AcDbLine
 10
26.29427277564329
 20
61.10539165263715
 30
0.0
 11
24.31939003999685
 21
61.01014355839698
 31
0.0
  0
LINE
  5
BF6
330
70
100
AcDbEntity
  8
Livello 1
100
AcDbLine
 10
25.89930601097237
 20
61.74875076358496
 30
0.0
 11
26.46057457129413
 21
61.74875076358496
 31
0.0
  0
LINE
  5
BF7
330
70
100
AcDbEntity
  8
Livello 1
100
AcDbLine
 10
26.46057457129413
 20
51.47958785441105
 30
0.0
 11
26.43981130298405
 21
51.50344192392205
 31
0.0
  0
LINE
  5
BF8
330
70
100
AcDbEntity
  8
Livello 1
100
AcDbLine
 10
26.43981130298405
 20
51.50344192392205
 30
0.0
 11
26.43981130298405
 21
51.52723993216554
 31
0.0
  0
LINE
  5
BF9
330
70
100
AcDbEntity
  8
Livello 1
100
AcDbLine
 10
25.15094793054405
 20
32.63296685760116
 30
0.0
 11
25.15094793054405
 21
59.60435120338357
 31
0.0
  0
LINE
  5
BFA
330
70
100
AcDbEntity
  8
Livello 1
100
AcDbLine
 10
26.46057457129413
 20
58.10331075412998
 30
0.0
 11
26.46057457129413
 21
58.07948471525285
 31
0.0
  0
LINE
  5
BFB
330
70
100
AcDbEntity
  8
Livello 1
100
AcDbLine
 10
26.46057457129413
 20
58.07948471525285
 30
0.0
 11
26.46057457129413
 21
58.05568670700996
 31
0.0
  0
LINE
  5
BFC
330
70
100
AcDbEntity
  8
Livello 1
100
AcDbLine
 10
26.46057457129413
 20
58.05568670700996
 30
0.0
 11
26.46057457129413
 21
58.03183263749895
 31
0.0
  0
LINE
  5
BFD
330
70
100
AcDbEntity
  8
Livello 1
100
AcDbLine
 10
26.46057457129413
 20
51.45573378490005
 30
0.0
 11
26.46057457129413
 21
51.47958785441105
 31
0.0
  0
LINE
  5
BFE
330
70
100
AcDbEntity
  8
Livello 1
100
AcDbLine
 10
25.89930601097237
 20
61.74875076358496
 30
0.0
 11
25.89930601097237
 21
65.48946689791396
 31
0.0
  0
LINE
  5
BFF
330
70
100
AcDbEntity
  8
Livello 1
100
AcDbLine
 10
26.29427277564329
 20
61.10539165263715
 30
0.0
 11
26.29427277564329
 21
61.34370810267535
 31
0.0
  0
LINE
  5
C00
330
70
100
AcDbEntity
  8
Livello 1
100
AcDbLine
 10
26.29427277564329
 20
61.34370810267535
 30
0.0
 11
26.29427277564329
 21
61.74875076358496
 31
0.0
  0
LINE
  5
C01
330
70
100
AcDbEntity
  8
Livello 1
100
AcDbLine
 10
26.46057457129413
 20
48.85872357793704
 30
0.0
 11
26.46057457129413
 21
74.87703833800326
 31
0.0
  0
LINE
  5
C02
330
70
100
AcDbEntity
  8
Livello 1
100
AcDbLine
 10
26.46057457129413
 20
61.10539165263715
 30
0.0
 11
26.46057457129413
 21
61.12924572214817
 31
0.0
  0
LINE
  5
C03
330
70
100
AcDbEntity
  8
Livello 1
100
AcDbLine
 10
26.46057457129413
 20
61.12924572214817
 30
0.0
 11
26.46057457129413
 21
61.15309979165916
 31
0.0
  0
LINE
  5
C04
330
70
100
AcDbEntity
  8
Livello 1
100
AcDbLine
 10
26.46057457129413
 20
61.15309979165916
 30
0.0
 11
26.46057457129413
 21
61.17689779990207
 31
0.0
  0
LINE
  5
C05
330
70
100
AcDbEntity
  8
Livello 1
100
AcDbLine
 10
26.46057457129413
 20
65.48946689791396
 30
0.0
 11
25.89930601097237
 21
65.48946689791396
 31
0.0
  0
LINE
  5
C06
330
70
100
AcDbEntity
  8
Livello 1
100
AcDbLine
 10
28.01967836166696
 20
48.97782574168767
 30
0.0
 11
28.01967836166696
 21
74.75790814361876
 31
0.0
  0
LINE
  5
C07
330
70
100
AcDbEntity
  8
Livello 1
100
AcDbLine
 10
28.64336062151628
 20
74.01935699969816
 30
0.0
 11
28.64336062151628
 21
49.69260690799933
 31
0.0
  0
LINE
  5
C08
330
70
100
AcDbEntity
  8
Livello 1
100
AcDbLine
 10
22.53164573675054
 20
71.66052308960345
 30
0.0
 11
22.51088246844057
 21
71.66052308960345
 31
0.0
  0
LINE
  5
C09
330
70
100
AcDbEntity
  8
Livello 1
100
AcDbLine
 10
23.11370202152864
 20
70.63594735662267
 30
0.0
 11
23.09288984092538
 21
70.63594735662267
 31
0.0
  0
LINE
  5
C0A
330
70
100
AcDbEntity
  8
Livello 1
100
AcDbLine
 10
23.09288984092538
 20
70.63594735662267
 30
0.0
 11
23.07215102876194
 21
70.61214934837946
 31
0.0
  0
LINE
  5
C0B
330
70
100
AcDbEntity
  8
Livello 1
100
AcDbLine
 10
23.07215102876194
 20
70.61214934837946
 30
0.0
 11
23.05133884815945
 21
70.61214934837946
 31
0.0
  0
LINE
  5
C0C
330
70
100
AcDbEntity
  8
Livello 1
100
AcDbLine
 10
23.05133884815945
 20
70.61214934837946
 30
0.0
 11
23.03060003599606
 21
70.61214934837946
 31
0.0
  0
LINE
  5
C0D
330
70
100
AcDbEntity
  8
Livello 1
100
AcDbLine
 10
23.03060003599606
 20
70.61214934837946
 30
0.0
 11
23.00978785539334
 21
70.58829527886847
 31
0.0
  0
LINE
  5
C0E
330
70
100
AcDbEntity
  8
Livello 1
100
AcDbLine
 10
23.00978785539334
 20
70.58829527886847
 30
0.0
 11
22.98897567479011
 21
70.58829527886847
 31
0.0
  0
LINE
  5
C0F
330
70
100
AcDbEntity
  8
Livello 1
100
AcDbLine
 10
22.98897567479011
 20
70.58829527886847
 30
0.0
 11
22.98897567479011
 21
70.56452530125955
 31
0.0
  0
LINE
  5
C10
330
70
100
AcDbEntity
  8
Livello 1
100
AcDbLine
 10
22.98897567479011
 20
70.56452530125955
 30
0.0
 11
22.96821240648046
 21
70.56452530125955
 31
0.0
  0
LINE
  5
C11
330
70
100
AcDbEntity
  8
Livello 1
100
AcDbLine
 10
22.96821240648046
 20
70.56452530125955
 30
0.0
 11
22.94742468202412
 21
70.54067123174846
 31
0.0
  0
LINE
  5
C12
330
70
100
AcDbEntity
  8
Livello 1
100
AcDbLine
 10
22.94742468202412
 20
70.54067123174846
 30
0.0
 11
22.92666141371404
 21
70.51681716223746
 31
0.0
  0
LINE
  5
C13
330
70
100
AcDbEntity
  8
Livello 1
100
AcDbLine
 10
22.92666141371404
 20
70.51681716223746
 30
0.0
 11
22.90584923311113
 21
70.51681716223746
 31
0.0
  0
LINE
  5
C14
330
70
100
AcDbEntity
  8
Livello 1
100
AcDbLine
 10
22.90584923311113
 20
70.51681716223746
 30
0.0
 11
22.90584923311113
 21
70.49301915399436
 31
0.0
  0
LINE
  5
C15
330
70
100
AcDbEntity
  8
Livello 1
100
AcDbLine
 10
22.90584923311113
 20
70.49301915399436
 30
0.0
 11
22.88503705250855
 21
70.46919311511754
 31
0.0
  0
LINE
  5
C16
330
70
100
AcDbEntity
  8
Livello 1
100
AcDbLine
 10
22.88503705250855
 20
70.46919311511754
 30
0.0
 11
22.88503705250855
 21
70.44539510687435
 31
0.0
  0
LINE
  5
C17
330
70
100
AcDbEntity
  8
Livello 1
100
AcDbLine
 10
22.88503705250855
 20
70.44539510687435
 30
0.0
 11
22.86429824034485
 21
70.44539510687435
 31
0.0
  0
LINE
  5
C18
330
70
100
AcDbEntity
  8
Livello 1
100
AcDbLine
 10
22.86429824034485
 20
70.44539510687435
 30
0.0
 11
22.86429824034485
 21
70.42154103736335
 31
0.0
  0
LINE
  5
C19
330
70
100
AcDbEntity
  8
Livello 1
100
AcDbLine
 10
22.86429824034485
 20
70.42154103736335
 30
0.0
 11
22.86429824034485
 21
70.39768696785235
 31
0.0
  0
LINE
  5
C1A
330
70
100
AcDbEntity
  8
Livello 1
100
AcDbLine
 10
22.86429824034485
 20
70.39768696785235
 30
0.0
 11
22.86429824034485
 21
70.37391699024306
 31
0.0
  0
LINE
  5
C1B
330
70
100
AcDbEntity
  8
Livello 1
100
AcDbLine
 10
22.86429824034485
 20
70.37391699024306
 30
0.0
 11
22.84348605974256
 21
70.37391699024306
 31
0.0
  0
LINE
  5
C1C
330
70
100
AcDbEntity
  8
Livello 1
100
AcDbLine
 10
22.84348605974256
 20
70.37391699024306
 30
0.0
 11
22.84348605974256
 21
70.35006292073205
 31
0.0
  0
LINE
  5
C1D
330
70
100
AcDbEntity
  8
Livello 1
100
AcDbLine
 10
22.84348605974256
 20
70.35006292073205
 30
0.0
 11
22.84348605974256
 21
70.32620885122067
 31
0.0
  0
LINE
  5
C1E
330
70
100
AcDbEntity
  8
Livello 1
100
AcDbLine
 10
22.84348605974256
 20
70.32620885122067
 30
0.0
 11
22.84348605974256
 21
70.30243887361177
 31
0.0
  0
LINE
  5
C1F
330
70
100
AcDbEntity
  8
Livello 1
100
AcDbLine
 10
22.84348605974256
 20
70.30243887361177
 30
0.0
 11
22.84348605974256
 21
70.27858480410076
 31
0.0
  0
LINE
  5
C20
330
70
100
AcDbEntity
  8
Livello 1
100
AcDbLine
 10
26.29427277564329
 20
70.94574192329176
 30
0.0
 11
23.11370202152864
 21
70.63594735662267
 31
0.0
  0
LINE
  5
C21
330
70
100
AcDbEntity
  8
Livello 1
100
AcDbLine
 10
26.46057457129413
 20
70.94574192329176
 30
0.0
 11
26.29427277564329
 21
70.94574192329176
 31
0.0
  0
LINE
  5
C22
330
70
100
AcDbEntity
  8
Livello 1
100
AcDbLine
 10
22.53164573675054
 20
71.66052308960345
 30
0.0
 11
22.57319672951687
 21
71.68434912848055
 31
0.0
  0
LINE
  5
C23
330
70
100
AcDbEntity
  8
Livello 1
100
AcDbLine
 10
22.57319672951687
 20
71.68434912848055
 30
0.0
 11
22.59400891011976
 21
71.68434912848055
 31
0.0
  0
LINE
  5
C24
330
70
100
AcDbEntity
  8
Livello 1
100
AcDbLine
 10
22.59400891011976
 20
71.68434912848055
 30
0.0
 11
22.61482109072245
 21
71.68434912848055
 31
0.0
  0
LINE
  5
C25
330
70
100
AcDbEntity
  8
Livello 1
100
AcDbLine
 10
22.61482109072245
 20
71.68434912848055
 30
0.0
 11
22.63555990288574
 21
71.70814713672335
 31
0.0
  0
LINE
  5
C26
330
70
100
AcDbEntity
  8
Livello 1
100
AcDbLine
 10
22.63555990288574
 20
71.70814713672335
 30
0.0
 11
22.65637208348878
 21
71.70814713672335
 31
0.0
  0
LINE
  5
C27
330
70
100
AcDbEntity
  8
Livello 1
100
AcDbLine
 10
22.65637208348878
 20
71.70814713672335
 30
0.0
 11
22.67718426409135
 21
71.70814713672335
 31
0.0
  0
LINE
  5
C28
330
70
100
AcDbEntity
  8
Livello 1
100
AcDbLine
 10
22.67718426409135
 20
71.70814713672335
 30
0.0
 11
22.69794753240137
 21
71.70814713672335
 31
0.0
  0
LINE
  5
C29
330
70
100
AcDbEntity
  8
Livello 1
100
AcDbLine
 10
22.69794753240137
 20
71.70814713672335
 30
0.0
 11
22.71875971300403
 21
71.70814713672335
 31
0.0
  0
LINE
  5
C2A
330
70
100
AcDbEntity
  8
Livello 1
100
AcDbLine
 10
22.71875971300403
 20
71.70814713672335
 30
0.0
 11
22.73954743746063
 21
71.73200120623436
 31
0.0
  0
LINE
  5
C2B
330
70
100
AcDbEntity
  8
Livello 1
100
AcDbLine
 10
22.73954743746063
 20
71.73200120623436
 30
0.0
 11
22.76031070577065
 21
71.73200120623436
 31
0.0
  0
LINE
  5
C2C
330
70
100
AcDbEntity
  8
Livello 1
100
AcDbLine
 10
22.76031070577065
 20
71.73200120623436
 30
0.0
 11
22.78112288637325
 21
71.73200120623436
 31
0.0
  0
LINE
  5
C2D
330
70
100
AcDbEntity
  8
Livello 1
100
AcDbLine
 10
22.78112288637325
 20
71.73200120623436
 30
0.0
 11
22.80191061082994
 21
71.73200120623436
 31
0.0
  0
LINE
  5
C2E
330
70
100
AcDbEntity
  8
Livello 1
100
AcDbLine
 10
22.80191061082994
 20
71.73200120623436
 30
0.0
 11
22.84348605974256
 21
71.75582724511146
 31
0.0
  0
LINE
  5
C2F
330
70
100
AcDbEntity
  8
Livello 1
100
AcDbLine
 10
22.84348605974256
 20
71.75582724511146
 30
0.0
 11
22.86429824034485
 21
71.75582724511146
 31
0.0
  0
LINE
  5
C30
330
70
100
AcDbEntity
  8
Livello 1
100
AcDbLine
 10
22.86429824034485
 20
71.75582724511146
 30
0.0
 11
22.88503705250855
 21
71.75582724511146
 31
0.0
  0
LINE
  5
C31
330
70
100
AcDbEntity
  8
Livello 1
100
AcDbLine
 10
22.88503705250855
 20
71.75582724511146
 30
0.0
 11
22.92666141371404
 21
71.75582724511146
 31
0.0
  0
LINE
  5
C32
330
70
100
AcDbEntity
  8
Livello 1
100
AcDbLine
 10
22.92666141371404
 20
71.75582724511146
 30
0.0
 11
22.94742468202412
 21
71.75582724511146
 31
0.0
  0
LINE
  5
C33
330
70
100
AcDbEntity
  8
Livello 1
100
AcDbLine
 10
22.94742468202412
 20
71.75582724511146
 30
0.0
 11
22.98897567479011
 21
71.77962525335435
 31
0.0
  0
LINE
  5
C34
330
70
100
AcDbEntity
  8
Livello 1
100
AcDbLine
 10
22.98897567479011
 20
71.77962525335435
 30
0.0
 11
23.00978785539334
 21
71.77962525335435
 31
0.0
  0
LINE
  5
C35
330
70
100
AcDbEntity
  8
Livello 1
100
AcDbLine
 10
23.00978785539334
 20
71.77962525335435
 30
0.0
 11
23.05133884815945
 21
71.77962525335435
 31
0.0
  0
LINE
  5
C36
330
70
100
AcDbEntity
  8
Livello 1
100
AcDbLine
 10
23.05133884815945
 20
71.77962525335435
 30
0.0
 11
23.07215102876194
 21
71.77962525335435
 31
0.0
  0
LINE
  5
C37
330
70
100
AcDbEntity
  8
Livello 1
100
AcDbLine
 10
23.07215102876194
 20
71.77962525335435
 30
0.0
 11
26.46057457129413
 21
72.06721955791747
 31
0.0
  0
LINE
  5
C38
330
70
100
AcDbEntity
  8
Livello 1
100
AcDbLine
 10
26.46057457129413
 20
73.42370602777197
 30
0.0
 11
28.64336062151628
 21
73.42370602777197
 31
0.0
  0
LINE
  5
C39
330
70
100
AcDbEntity
  8
Livello 1
100
AcDbLine
 10
28.64336062151628
 20
49.69260690799933
 30
0.0
 11
28.01967836166696
 21
48.97782574168767
 31
0.0
  0
LINE
  5
C3A
330
70
100
AcDbEntity
  8
Livello 1
100
AcDbLine
 10
27.87418874661862
 20
74.82938626024974
 30
0.0
 11
26.46057457129413
 21
74.87703833800326
 31
0.0
  0
LINE
  5
C3B
330
70
100
AcDbEntity
  8
Livello 1
100
AcDbLine
 10
28.64336062151628
 20
74.01935699969816
 30
0.0
 11
28.01967836166696
 21
74.75790814361876
 31
0.0
  0
LINE
  5
C3C
330
70
100
AcDbEntity
  8
Livello 1
100
AcDbLine
 10
22.53164573675054
 20
32.34702636044267
 30
0.0
 11
25.15094793054405
 21
34.08629916783306
 31
0.0
  0
LINE
  5
C3D
330
70
100
AcDbEntity
  8
Livello 1
100
AcDbLine
 10
22.53164573675054
 20
30.89369405021208
 30
0.0
 11
25.15094793054405
 21
32.63296685760116
 31
0.0
  0
LINE
  5
C3E
330
70
100
AcDbEntity
  8
Livello 1
100
AcDbLine
 10
-21.73194908063724
 20
74.94498459475394
 30
0.0
 11
-22.00216504924973
 21
74.89727645573225
 31
0.0
  0
LINE
  5
C3F
330
70
100
AcDbEntity
  8
Livello 1
100
AcDbLine
 10
-22.00216504924973
 20
74.89727645573225
 30
0.0
 11
-22.27240547400914
 21
74.80202836149167
 31
0.0
  0
LINE
  5
C40
330
70
100
AcDbEntity
  8
Livello 1
100
AcDbLine
 10
-22.27240547400914
 20
74.80202836149167
 30
0.0
 11
-22.50107044880554
 21
74.63524608935266
 31
0.0
  0
LINE
  5
C41
330
70
100
AcDbEntity
  8
Livello 1
100
AcDbLine
 10
-22.50107044880554
 20
74.63524608935266
 30
0.0
 11
-22.70897215476765
 21
74.39695766994806
 31
0.0
  0
LINE
  5
C42
330
70
100
AcDbEntity
  8
Livello 1
100
AcDbLine
 10
-22.70897215476765
 20
74.39695766994806
 30
0.0
 11
-22.85446177349113
 21
74.13487124230066
 31
0.0
  0
LINE
  5
C43
330
70
100
AcDbEntity
  8
Livello 1
100
AcDbLine
 10
-22.85446177349113
 20
74.13487124230066
 30
0.0
 11
-22.93763712956425
 21
73.82513273689905
 31
0.0
  0
LINE
  5
C44
330
70
100
AcDbEntity
  8
Livello 1
100
AcDbLine
 10
-22.93763712956425
 20
73.82513273689905
 30
0.0
 11
-22.97918812338017
 21
73.51542226213168
 31
0.0
  0
LINE
  5
C45
330
70
100
AcDbEntity
  8
Livello 1
100
AcDbLine
 10
3.899706131108246
 20
48.95043981229676
 30
0.0
 11
4.169922092894267
 21
48.99809189005097
 31
0.0
  0
LINE
  5
C46
330
70
100
AcDbEntity
  8
Livello 1
100
AcDbLine
 10
4.169922092894267
 20
48.99809189005097
 30
0.0
 11
4.44016251082678
 21
49.09336801492506
 31
0.0
  0
LINE
  5
C47
330
70
100
AcDbEntity
  8
Livello 1
100
AcDbLine
 10
4.44016251082678
 20
49.09336801492506
 30
0.0
 11
4.668827479846555
 21
49.26017831769806
 31
0.0
  0
LINE
  5
C48
330
70
100
AcDbEntity
  8
Livello 1
100
AcDbLine
 10
4.668827479846555
 20
49.26017831769806
 30
0.0
 11
4.876729180556651
 21
49.49841067583474
 31
0.0
  0
LINE
  5
C49
330
70
100
AcDbEntity
  8
Livello 1
100
AcDbLine
 10
4.876729180556651
 20
49.49841067583474
 30
0.0
 11
5.022218795604572
 21
49.76049710348184
 31
0.0
  0
LINE
  5
C4A
330
70
100
AcDbEntity
  8
Livello 1
100
AcDbLine
 10
5.022218795604572
 20
49.76049710348184
 30
0.0
 11
5.105394149576341
 21
50.07029167015137
 31
0.0
  0
LINE
  5
C4B
330
70
100
AcDbEntity
  8
Livello 1
100
AcDbLine
 10
5.105394149576341
 20
50.07029167015137
 30
0.0
 11
5.14696959848905
 21
50.38000214491876
 31
0.0
  0
LINE
  5
C4C
330
70
100
AcDbEntity
  8
Livello 1
100
AcDbLine
 10
-22.97918812338017
 20
50.38000214491876
 30
0.0
 11
-22.93763712956425
 21
50.07029167015137
 31
0.0
  0
LINE
  5
C4D
330
70
100
AcDbEntity
  8
Livello 1
100
AcDbLine
 10
-22.93763712956425
 20
50.07029167015137
 30
0.0
 11
-22.85446177349113
 21
49.76049710348184
 31
0.0
  0
LINE
  5
C4E
330
70
100
AcDbEntity
  8
Livello 1
100
AcDbLine
 10
-22.85446177349113
 20
49.76049710348184
 30
0.0
 11
-22.70897215476765
 21
49.49841067583474
 31
0.0
  0
LINE
  5
C4F
330
70
100
AcDbEntity
  8
Livello 1
100
AcDbLine
 10
-22.70897215476765
 20
49.49841067583474
 30
0.0
 11
-22.50107044880554
 21
49.26017831769806
 31
0.0
  0
LINE
  5
C50
330
70
100
AcDbEntity
  8
Livello 1
100
AcDbLine
 10
-22.50107044880554
 20
49.26017831769806
 30
0.0
 11
-22.27240547400914
 21
49.09336801492506
 31
0.0
  0
LINE
  5
C51
330
70
100
AcDbEntity
  8
Livello 1
100
AcDbLine
 10
-22.27240547400914
 20
49.09336801492506
 30
0.0
 11
-22.00216504924973
 21
48.99809189005097
 31
0.0
  0
LINE
  5
C52
330
70
100
AcDbEntity
  8
Livello 1
100
AcDbLine
 10
-22.00216504924973
 20
48.99809189005097
 30
0.0
 11
-21.73194908063724
 21
48.95043981229676
 31
0.0
  0
LINE
  5
C53
330
70
100
AcDbEntity
  8
Livello 1
100
AcDbLine
 10
5.105394149576341
 20
73.51542226213168
 30
0.0
 11
5.084606425120057
 21
73.82513273689905
 31
0.0
  0
LINE
  5
C54
330
70
100
AcDbEntity
  8
Livello 1
100
AcDbLine
 10
5.084606425120057
 20
73.82513273689905
 30
0.0
 11
4.980667802838155
 21
74.11110126469175
 31
0.0
  0
LINE
  5
C55
330
70
100
AcDbEntity
  8
Livello 1
100
AcDbLine
 10
4.980667802838155
 20
74.11110126469175
 30
0.0
 11
4.835104819350732
 21
74.37310360043745
 31
0.0
  0
LINE
  5
C56
330
70
100
AcDbEntity
  8
Livello 1
100
AcDbLine
 10
4.835104819350732
 20
74.37310360043745
 30
0.0
 11
4.648064211536535
 21
74.58756598096454
 31
0.0
  0
LINE
  5
C57
330
70
100
AcDbEntity
  8
Livello 1
100
AcDbLine
 10
4.648064211536535
 20
74.58756598096454
 30
0.0
 11
4.41939924251676
 21
74.75437628373786
 31
0.0
  0
LINE
  5
C58
330
70
100
AcDbEntity
  8
Livello 1
100
AcDbLine
 10
4.41939924251676
 20
74.75437628373786
 30
0.0
 11
4.169922092894267
 21
74.87350647812296
 31
0.0
  0
LINE
  5
C59
330
70
100
AcDbEntity
  8
Livello 1
100
AcDbLine
 10
4.169922092894267
 20
74.87350647812296
 30
0.0
 11
3.899706131108246
 21
74.89727645573225
 31
0.0
  0
LINE
  5
C5A
330
70
100
AcDbEntity
  8
Livello 1
100
AcDbLine
 10
10.43304336627503
 20
57.96035452086766
 30
0.0
 11
10.22514166556536
 21
57.91273047374764
 31
0.0
  0
LINE
  5
C5B
330
70
100
AcDbEntity
  8
Livello 1
100
AcDbLine
 10
10.22514166556536
 20
57.91273047374764
 30
0.0
 11
10.05883986991443
 21
57.81739828760567
 31
0.0
  0
LINE
  5
C5C
330
70
100
AcDbEntity
  8
Livello 1
100
AcDbLine
 10
10.05883986991443
 20
57.81739828760567
 30
0.0
 11
9.913350254866259
 21
57.65061601546634
 31
0.0
  0
LINE
  5
C5D
330
70
100
AcDbEntity
  8
Livello 1
100
AcDbLine
 10
9.913350254866259
 20
57.65061601546634
 30
0.0
 11
9.830174900894775
 21
57.46003573508374
 31
0.0
  0
LINE
  5
C5E
330
70
100
AcDbEntity
  8
Livello 1
100
AcDbLine
 10
9.830174900894775
 20
57.46003573508374
 30
0.0
 11
9.788623908128357
 21
57.22171928504565
 31
0.0
  0
LINE
  5
C5F
330
70
100
AcDbEntity
  8
Livello 1
100
AcDbLine
 10
9.788623908128357
 20
53.98134996713418
 30
0.0
 11
9.830174900894775
 21
53.74311760899806
 31
0.0
  0
LINE
  5
C60
330
70
100
AcDbEntity
  8
Livello 1
100
AcDbLine
 10
9.830174900894775
 20
53.74311760899806
 30
0.0
 11
9.913350254866259
 21
53.55250929798126
 31
0.0
  0
LINE
  5
C61
330
70
100
AcDbEntity
  8
Livello 1
100
AcDbLine
 10
9.913350254866259
 20
53.55250929798126
 30
0.0
 11
10.05883986991443
 21
53.38567096457444
 31
0.0
  0
LINE
  5
C62
330
70
100
AcDbEntity
  8
Livello 1
100
AcDbLine
 10
10.05883986991443
 20
53.38567096457444
 30
0.0
 11
10.22514166556536
 21
53.29042287033416
 31
0.0
  0
LINE
  5
C63
330
70
100
AcDbEntity
  8
Livello 1
100
AcDbLine
 10
10.22514166556536
 20
53.29042287033416
 30
0.0
 11
10.43304336627503
 21
53.24271473131216
 31
0.0
  0
LINE
  5
C64
330
70
100
AcDbEntity
  8
Livello 1
100
AcDbLine
 10
13.94621771169176
 20
53.09981455931796
 30
0.0
 11
13.96702989229436
 21
52.98062830366433
 31
0.0
  0
LINE
  5
C65
330
70
100
AcDbEntity
  8
Livello 1
100
AcDbLine
 10
13.96702989229436
 20
52.98062830366433
 30
0.0
 11
14.05013312303754
 21
52.88535217879027
 31
0.0
  0
LINE
  5
C66
330
70
100
AcDbEntity
  8
Livello 1
100
AcDbLine
 10
14.05013312303754
 20
52.88535217879027
 30
0.0
 11
14.15407174794495
 21
52.86149810927955
 31
0.0
  0
LINE
  5
C67
330
70
100
AcDbEntity
  8
Livello 1
100
AcDbLine
 10
14.15407174794495
 20
58.34154311226666
 30
0.0
 11
14.05013312303754
 21
58.31777313465767
 31
0.0
  0
LINE
  5
C68
330
70
100
AcDbEntity
  8
Livello 1
100
AcDbLine
 10
14.05013312303754
 20
58.31777313465767
 30
0.0
 11
13.96702989229436
 21
58.22244094851544
 31
0.0
  0
LINE
  5
C69
330
70
100
AcDbEntity
  8
Livello 1
100
AcDbLine
 10
13.96702989229436
 20
58.22244094851544
 30
0.0
 11
13.94621771169176
 21
58.10331075412998
 31
0.0
  0
LINE
  5
C6A
330
70
100
AcDbEntity
  8
Livello 1
100
AcDbLine
 10
18.74825542954815
 20
52.86149810927955
 30
0.0
 11
18.83135741508084
 21
52.88535217879027
 31
0.0
  0
LINE
  5
C6B
330
70
100
AcDbEntity
  8
Livello 1
100
AcDbLine
 10
18.83135741508084
 20
52.88535217879027
 30
0.0
 11
18.85216959568336
 21
52.98062830366433
 31
0.0
  0
LINE
  5
C6C
330
70
100
AcDbEntity
  8
Livello 1
100
AcDbLine
 10
18.85216959568336
 20
58.22244094851544
 30
0.0
 11
18.83135741508084
 21
58.31777313465767
 31
0.0
  0
LINE
  5
C6D
330
70
100
AcDbEntity
  8
Livello 1
100
AcDbLine
 10
18.83135741508084
 20
58.31777313465767
 30
0.0
 11
18.74825542954815
 21
58.34154311226666
 31
0.0
  0
LINE
  5
C6E
330
70
100
AcDbEntity
  8
Livello 1
100
AcDbLine
 10
25.15094793054405
 20
59.60435120338357
 30
0.0
 11
25.13013574994076
 21
59.91414577005295
 31
0.0
  0
LINE
  5
C6F
330
70
100
AcDbEntity
  8
Livello 1
100
AcDbLine
 10
25.13013574994076
 20
59.91414577005295
 30
0.0
 11
25.04700930826215
 21
60.22388427545434
 31
0.0
  0
LINE
  5
C70
330
70
100
AcDbEntity
  8
Livello 1
100
AcDbLine
 10
25.04700930826215
 20
60.22388427545434
 30
0.0
 11
24.90147078092125
 21
60.48594267246817
 31
0.0
  0
LINE
  5
C71
330
70
100
AcDbEntity
  8
Livello 1
100
AcDbLine
 10
24.90147078092125
 20
60.48594267246817
 30
0.0
 11
24.71438126081376
 21
60.72417503060456
 31
0.0
  0
LINE
  5
C72
330
70
100
AcDbEntity
  8
Livello 1
100
AcDbLine
 10
24.71438126081376
 20
60.72417503060456
 30
0.0
 11
24.50652847239656
 21
60.91486743352276
 31
0.0
  0
LINE
  5
C73
330
70
100
AcDbEntity
  8
Livello 1
100
AcDbLine
 10
24.50652847239656
 20
60.91486743352276
 30
0.0
 11
24.23628805446455
 21
61.03396959727405
 31
0.0
  0
LINE
  5
C74
330
70
100
AcDbEntity
  8
Livello 1
100
AcDbLine
 10
24.23628805446455
 20
61.03396959727405
 30
0.0
 11
23.98681090484186
 21
61.10539165263715
 31
0.0
  0
LINE
  5
C75
330
70
100
AcDbEntity
  8
Livello 1
100
AcDbLine
 10
23.98681090484186
 20
61.10539165263715
 30
0.0
 11
23.69578276245278
 21
61.10539165263715
 31
0.0
  0
LINE
  5
C76
330
70
100
AcDbEntity
  8
Livello 1
100
AcDbLine
 10
23.69578276245278
 20
61.10539165263715
 30
0.0
 11
23.44635452512296
 21
61.03396959727405
 31
0.0
  0
LINE
  5
C77
330
70
100
AcDbEntity
  8
Livello 1
100
AcDbLine
 10
23.44635452512296
 20
61.03396959727405
 30
0.0
 11
23.17606519489755
 21
60.91486743352276
 31
0.0
  0
LINE
  5
C78
330
70
100
AcDbEntity
  8
Livello 1
100
AcDbLine
 10
23.17606519489755
 20
60.91486743352276
 30
0.0
 11
22.96821240648046
 21
60.72417503060456
 31
0.0
  0
LINE
  5
C79
330
70
100
AcDbEntity
  8
Livello 1
100
AcDbLine
 10
22.96821240648046
 20
60.72417503060456
 30
0.0
 11
22.78112288637325
 21
60.48594267246817
 31
0.0
  0
LINE
  5
C7A
330
70
100
AcDbEntity
  8
Livello 1
100
AcDbLine
 10
22.78112288637325
 20
60.48594267246817
 30
0.0
 11
22.63555990288574
 21
60.22388427545434
 31
0.0
  0
LINE
  5
C7B
330
70
100
AcDbEntity
  8
Livello 1
100
AcDbLine
 10
22.63555990288574
 20
60.22388427545434
 30
0.0
 11
22.55243346120713
 21
59.91414577005295
 31
0.0
  0
LINE
  5
C7C
330
70
100
AcDbEntity
  8
Livello 1
100
AcDbLine
 10
22.55243346120713
 20
59.91414577005295
 30
0.0
 11
22.53164573675054
 21
59.60435120338357
 31
0.0
  0
LINE
  5
C7D
330
70
100
AcDbEntity
  8
Livello 1
100
AcDbLine
 10
27.87418874661862
 20
48.90634762505675
 30
0.0
 11
28.01967836166696
 21
48.97782574168767
 31
0.0
  0
LINE
  5
C7E
330
70
100
AcDbEntity
  8
Livello 1
100
AcDbLine
 10
26.46057457129413
 20
51.40810973778005
 30
0.0
 11
26.41902357852777
 21
51.52723993216554
 31
0.0
  0
LINE
  5
C7F
330
70
100
AcDbEntity
  8
Livello 1
100
AcDbLine
 10
26.41902357852777
 20
51.52723993216554
 30
0.0
 11
26.31508495624584
 21
51.59871804879657
 31
0.0
  0
LINE
  5
C80
330
70
100
AcDbEntity
  8
Livello 1
100
AcDbLine
 10
28.01967836166696
 20
74.73413816600916
 30
0.0
 11
27.87418874661862
 21
74.80556022137266
 31
0.0
  0
LINE
  5
C81
330
70
100
AcDbEntity
  8
Livello 1
100
AcDbLine
 10
-21.35774557482344
 20
32.43877062543658
 30
0.0
 11
-21.33693339369495
 21
32.20053826729958
 31
0.0
  0
LINE
  5
C82
330
70
100
AcDbEntity
  8
Livello 1
100
AcDbLine
 10
-21.33693339369495
 20
32.20053826729958
 30
0.0
 11
-21.29538239987872
 21
31.93836774775036
 31
0.0
  0
LINE
  5
C83
330
70
100
AcDbEntity
  8
Livello 1
100
AcDbLine
 10
-21.29538239987872
 20
31.93836774775036
 30
0.0
 11
-21.21223149995322
 21
31.72390536722387
 31
0.0
  0
LINE
  5
C84
330
70
100
AcDbEntity
  8
Livello 1
100
AcDbLine
 10
-21.21223149995322
 20
31.72390536722387
 30
0.0
 11
-21.10826841889855
 21
31.50958313986627
 31
0.0
  0
LINE
  5
C85
330
70
100
AcDbEntity
  8
Livello 1
100
AcDbLine
 10
-21.10826841889855
 20
31.50958313986627
 30
0.0
 11
-20.98351761286236
 21
31.34271677582416
 31
0.0
  0
LINE
  5
C86
330
70
100
AcDbEntity
  8
Livello 1
100
AcDbLine
 10
-20.98351761286236
 20
31.34271677582416
 30
0.0
 11
-20.81721581301085
 21
31.19973251192835
 31
0.0
  0
LINE
  5
C87
330
70
100
AcDbEntity
  8
Livello 1
100
AcDbLine
 10
-20.81721581301085
 20
31.19973251192835
 30
0.0
 11
-20.65093846930557
 21
31.08068640944518
 31
0.0
  0
LINE
  5
C88
330
70
100
AcDbEntity
  8
Livello 1
100
AcDbLine
 10
-20.65093846930557
 20
31.08068640944518
 30
0.0
 11
-20.46382448832495
 21
31.00920829281455
 31
0.0
  0
LINE
  5
C89
330
70
100
AcDbEntity
  8
Livello 1
100
AcDbLine
 10
-20.46382448832495
 20
31.00920829281455
 30
0.0
 11
-20.27675941963898
 21
30.98541028457075
 31
0.0
  0
LINE
  5
C8A
330
70
100
AcDbEntity
  8
Livello 1
100
AcDbLine
 10
2.444540963016947
 20
30.98541028457075
 30
0.0
 11
2.631630483124126
 21
31.00920829281455
 31
0.0
  0
LINE
  5
C8B
330
70
100
AcDbEntity
  8
Livello 1
100
AcDbLine
 10
2.631630483124126
 20
31.00920829281455
 30
0.0
 11
2.818671090938664
 21
31.08068640944518
 31
0.0
  0
LINE
  5
C8C
330
70
100
AcDbEntity
  8
Livello 1
100
AcDbLine
 10
2.818671090938664
 20
31.08068640944518
 30
0.0
 11
2.984972886589133
 21
31.19973251192835
 31
0.0
  0
LINE
  5
C8D
330
70
100
AcDbEntity
  8
Livello 1
100
AcDbLine
 10
2.984972886589133
 20
31.19973251192835
 30
0.0
 11
3.130535870076641
 21
31.34271677582416
 31
0.0
  0
LINE
  5
C8E
330
70
100
AcDbEntity
  8
Livello 1
100
AcDbLine
 10
3.130535870076641
 20
31.34271677582416
 30
0.0
 11
3.276025485124876
 21
31.50958313986627
 31
0.0
  0
LINE
  5
C8F
330
70
100
AcDbEntity
  8
Livello 1
100
AcDbLine
 10
3.276025485124876
 20
31.50958313986627
 30
0.0
 11
3.380013019699362
 21
31.72390536722387
 31
0.0
  0
LINE
  5
C90
330
70
100
AcDbEntity
  8
Livello 1
100
AcDbLine
 10
3.380013019699362
 20
31.72390536722387
 30
0.0
 11
3.463115005231628
 21
31.93836774775036
 31
0.0
  0
LINE
  5
C91
330
70
100
AcDbEntity
  8
Livello 1
100
AcDbLine
 10
3.463115005231628
 20
31.93836774775036
 30
0.0
 11
3.504690454144252
 21
32.20053826729958
 31
0.0
  0
LINE
  5
C92
330
70
100
AcDbEntity
  8
Livello 1
100
AcDbLine
 10
3.504690454144252
 20
32.20053826729958
 30
0.0
 11
3.525502634747539
 21
32.43877062543658
 31
0.0
  0
LINE
  5
C93
330
70
100
AcDbEntity
  8
Livello 1
100
AcDbLine
 10
-21.14986832500884
 20
34.17804343282626
 30
0.0
 11
-21.12905614388046
 21
33.96372120546806
 31
0.0
  0
LINE
  5
C94
330
70
100
AcDbEntity
  8
Livello 1
100
AcDbLine
 10
-21.12905614388046
 20
33.96372120546806
 30
0.0
 11
-21.08750515006398
 21
33.77302880255084
 31
0.0
  0
LINE
  5
C95
330
70
100
AcDbEntity
  8
Livello 1
100
AcDbLine
 10
-21.08750515006398
 20
33.77302880255084
 30
0.0
 11
-21.02514197511965
 21
33.60630259167894
 31
0.0
  0
LINE
  5
C96
330
70
100
AcDbEntity
  8
Livello 1
100
AcDbLine
 10
-21.02514197511965
 20
33.60630259167894
 30
0.0
 11
-20.94196661904647
 21
33.43940819700495
 31
0.0
  0
LINE
  5
C97
330
70
100
AcDbEntity
  8
Livello 1
100
AcDbLine
 10
-20.94196661904647
 20
33.43940819700495
 30
0.0
 11
-20.83802799413906
 21
33.29656408627795
 31
0.0
  0
LINE
  5
C98
330
70
100
AcDbEntity
  8
Livello 1
100
AcDbLine
 10
-20.83802799413906
 20
33.29656408627795
 30
0.0
 11
-20.71330164425012
 21
33.17737783062407
 31
0.0
  0
LINE
  5
C99
330
70
100
AcDbEntity
  8
Livello 1
100
AcDbLine
 10
-20.71330164425012
 20
33.17737783062407
 30
0.0
 11
-20.56781202552688
 21
33.08210170575086
 31
0.0
  0
LINE
  5
C9A
330
70
100
AcDbEntity
  8
Livello 1
100
AcDbLine
 10
-20.56781202552688
 20
33.08210170575086
 30
0.0
 11
-20.42227349450914
 21
33.03442159736275
 31
0.0
  0
LINE
  5
C9B
330
70
100
AcDbEntity
  8
Livello 1
100
AcDbLine
 10
-20.42227349450914
 20
33.03442159736275
 30
0.0
 11
-20.27675941963898
 21
33.01062358911884
 31
0.0
  0
LINE
  5
C9C
330
70
100
AcDbEntity
  8
Livello 1
100
AcDbLine
 10
2.444540963016947
 20
33.01062358911884
 30
0.0
 11
2.590030578065153
 21
33.03442159736275
 31
0.0
  0
LINE
  5
C9D
330
70
100
AcDbEntity
  8
Livello 1
100
AcDbLine
 10
2.590030578065153
 20
33.03442159736275
 30
0.0
 11
2.735569105406057
 21
33.08210170575086
 31
0.0
  0
LINE
  5
C9E
330
70
100
AcDbEntity
  8
Livello 1
100
AcDbLine
 10
2.735569105406057
 20
33.08210170575086
 30
0.0
 11
2.88105872045395
 21
33.17737783062407
 31
0.0
  0
LINE
  5
C9F
330
70
100
AcDbEntity
  8
Livello 1
100
AcDbLine
 10
2.88105872045395
 20
33.17737783062407
 30
0.0
 11
3.00578506719205
 21
33.29656408627795
 31
0.0
  0
LINE
  5
CA0
330
70
100
AcDbEntity
  8
Livello 1
100
AcDbLine
 10
3.00578506719205
 20
33.29656408627795
 30
0.0
 11
3.109723689474037
 21
33.43940819700495
 31
0.0
  0
LINE
  5
CA1
330
70
100
AcDbEntity
  8
Livello 1
100
AcDbLine
 10
3.109723689474037
 20
33.43940819700495
 30
0.0
 11
3.192899043445549
 21
33.60630259167894
 31
0.0
  0
LINE
  5
CA2
330
70
100
AcDbEntity
  8
Livello 1
100
AcDbLine
 10
3.192899043445549
 20
33.60630259167894
 30
0.0
 11
3.255262216814855
 21
33.77302880255084
 31
0.0
  0
LINE
  5
CA3
330
70
100
AcDbEntity
  8
Livello 1
100
AcDbLine
 10
3.255262216814855
 20
33.77302880255084
 30
0.0
 11
3.29683766572748
 21
33.96372120546806
 31
0.0
  0
LINE
  5
CA4
330
70
100
AcDbEntity
  8
Livello 1
100
AcDbLine
 10
3.29683766572748
 20
33.96372120546806
 30
0.0
 11
3.317649846330027
 21
34.17804343282626
 31
0.0
  0
LINE
  5
CA5
330
70
100
AcDbEntity
  8
Livello 1
100
AcDbLine
 10
2.444540963016947
 20
32.72468309196177
 30
0.0
 11
2.631630483124126
 21
32.74848110020367
 31
0.0
  0
LINE
  5
CA6
330
70
100
AcDbEntity
  8
Livello 1
100
AcDbLine
 10
2.631630483124126
 20
32.74848110020367
 30
0.0
 11
2.818671090938664
 21
32.81995921683495
 31
0.0
  0
LINE
  5
CA7
330
70
100
AcDbEntity
  8
Livello 1
100
AcDbLine
 10
2.818671090938664
 20
32.81995921683495
 30
0.0
 11
2.984972886589133
 21
32.91523534170875
 31
0.0
  0
LINE
  5
CA8
330
70
100
AcDbEntity
  8
Livello 1
100
AcDbLine
 10
2.984972886589133
 20
32.91523534170875
 30
0.0
 11
3.130535870076641
 21
33.05819157497194
 31
0.0
  0
LINE
  5
CA9
330
70
100
AcDbEntity
  8
Livello 1
100
AcDbLine
 10
3.130535870076641
 20
33.05819157497194
 30
0.0
 11
3.276025485124876
 21
33.24888397788985
 31
0.0
  0
LINE
  5
CAA
330
70
100
AcDbEntity
  8
Livello 1
100
AcDbLine
 10
3.276025485124876
 20
33.24888397788985
 30
0.0
 11
3.380013019699362
 21
33.46331832778316
 31
0.0
  0
LINE
  5
CAB
330
70
100
AcDbEntity
  8
Livello 1
100
AcDbLine
 10
3.380013019699362
 20
33.46331832778316
 30
0.0
 11
3.463115005231628
 21
33.67778070831085
 31
0.0
  0
LINE
  5
CAC
330
70
100
AcDbEntity
  8
Livello 1
100
AcDbLine
 10
3.463115005231628
 20
33.67778070831085
 30
0.0
 11
3.504690454144252
 21
33.91601306644668
 31
0.0
  0
LINE
  5
CAD
330
70
100
AcDbEntity
  8
Livello 1
100
AcDbLine
 10
3.504690454144252
 20
33.91601306644668
 30
0.0
 11
3.525502634747539
 21
34.17804343282626
 31
0.0
  0
LINE
  5
CAE
330
70
100
AcDbEntity
  8
Livello 1
100
AcDbLine
 10
-21.35774557482344
 20
34.17804343282626
 30
0.0
 11
-21.33693339369495
 21
33.91601306644668
 31
0.0
  0
LINE
  5
CAF
330
70
100
AcDbEntity
  8
Livello 1
100
AcDbLine
 10
-21.33693339369495
 20
33.91601306644668
 30
0.0
 11
-21.29538239987872
 21
33.67778070831085
 31
0.0
  0
LINE
  5
CB0
330
70
100
AcDbEntity
  8
Livello 1
100
AcDbLine
 10
-21.29538239987872
 20
33.67778070831085
 30
0.0
 11
-21.21223149995322
 21
33.46331832778316
 31
0.0
  0
LINE
  5
CB1
330
70
100
AcDbEntity
  8
Livello 1
100
AcDbLine
 10
-21.21223149995322
 20
33.46331832778316
 30
0.0
 11
-21.10826841889855
 21
33.24888397788985
 31
0.0
  0
LINE
  5
CB2
330
70
100
AcDbEntity
  8
Livello 1
100
AcDbLine
 10
-21.10826841889855
 20
33.24888397788985
 30
0.0
 11
-20.98351761286236
 21
33.05819157497194
 31
0.0
  0
LINE
  5
CB3
330
70
100
AcDbEntity
  8
Livello 1
100
AcDbLine
 10
-20.98351761286236
 20
33.05819157497194
 30
0.0
 11
-20.81721581301085
 21
32.91523534170875
 31
0.0
  0
LINE
  5
CB4
330
70
100
AcDbEntity
  8
Livello 1
100
AcDbLine
 10
-20.81721581301085
 20
32.91523534170875
 30
0.0
 11
-20.65093846930557
 21
32.81995921683495
 31
0.0
  0
LINE
  5
CB5
330
70
100
AcDbEntity
  8
Livello 1
100
AcDbLine
 10
-20.65093846930557
 20
32.81995921683495
 30
0.0
 11
-20.46382448832495
 21
32.74848110020367
 31
0.0
  0
LINE
  5
CB6
330
70
100
AcDbEntity
  8
Livello 1
100
AcDbLine
 10
-20.46382448832495
 20
32.74848110020367
 30
0.0
 11
-20.27675941963898
 21
32.72468309196177
 31
0.0
  0
LINE
  5
CB7
330
70
100
AcDbEntity
  8
Livello 1
100
AcDbLine
 10
10.43304336627503
 20
52.95685832605546
 30
0.0
 11
12.94838369901794
 21
52.95685832605546
 31
0.0
  0
LINE
  5
CB8
330
70
100
AcDbEntity
  8
Livello 1
100
AcDbLine
 10
12.94838369901794
 20
52.95685832605546
 30
0.0
 11
12.94838369901794
 21
58.36539718177767
 31
0.0
  0
LINE
  5
CB9
330
70
100
AcDbEntity
  8
Livello 1
100
AcDbLine
 10
12.94838369901794
 20
58.36539718177767
 30
0.0
 11
10.43304336627503
 21
58.36539718177767
 31
0.0
  0
LINE
  5
CBA
330
70
100
AcDbEntity
  8
Livello 1
100
AcDbLine
 10
10.43304336627503
 20
58.36539718177767
 30
0.0
 11
10.43304336627503
 21
52.95685832605546
 31
0.0
  0
LINE
  5
CBB
330
70
100
AcDbEntity
  8
Livello 1
100
AcDbLine
 10
12.96919466224335
 20
53.71926353948706
 30
0.0
 11
13.91503612500702
 21
53.71926353948706
 31
0.0
  0
LINE
  5
CBC
330
70
100
AcDbEntity
  8
Livello 1
100
AcDbLine
 10
13.91503612500702
 20
53.71926353948706
 30
0.0
 11
13.91503612500702
 21
57.50765978220375
 31
0.0
  0
LINE
  5
CBD
330
70
100
AcDbEntity
  8
Livello 1
100
AcDbLine
 10
13.91503612500702
 20
57.50765978220375
 30
0.0
 11
12.96919466224335
 21
57.50765978220375
 31
0.0
  0
LINE
  5
CBE
330
70
100
AcDbEntity
  8
Livello 1
100
AcDbLine
 10
12.96919466224335
 20
57.50765978220375
 30
0.0
 11
12.96919466224335
 21
53.71926353948706
 31
0.0
  0
LINE
  5
CBF
330
70
100
AcDbEntity
  8
Livello 1
100
AcDbLine
 10
-15.85085712190223
 20
42.57582515669525
 30
0.0
 11
-15.85085712190223
 21
47.43336584041057
 31
0.0
  0
LINE
  5
CC0
330
70
100
AcDbEntity
  8
Livello 1
100
AcDbLine
 10
-15.83508290706336
 20
42.57582515669525
 30
0.0
 11
-15.81930869222435
 21
42.35914835608457
 31
0.0
  0
LINE
  5
CC1
330
70
100
AcDbEntity
  8
Livello 1
100
AcDbLine
 10
-15.81930869222435
 20
42.35914835608457
 30
0.0
 11
-15.75630965745705
 21
42.16055131438617
 31
0.0
  0
LINE
  5
CC2
330
70
100
AcDbEntity
  8
Livello 1
100
AcDbLine
 10
-15.75630965745705
 20
42.16055131438617
 30
0.0
 11
-15.66178664915884
 21
41.96187018078544
 31
0.0
  0
LINE
  5
CC3
330
70
100
AcDbEntity
  8
Livello 1
100
AcDbLine
 10
-15.66178664915884
 20
41.96187018078544
 30
0.0
 11
-15.53573966733003
 21
41.79934856501034
 31
0.0
  0
LINE
  5
CC4
330
70
100
AcDbEntity
  8
Livello 1
100
AcDbLine
 10
-15.53573966733003
 20
41.79934856501034
 30
0.0
 11
-15.39394292680896
 21
41.67295843642534
 31
0.0
  0
LINE
  5
CC5
330
70
100
AcDbEntity
  8
Livello 1
100
AcDbLine
 10
-15.39394292680896
 20
41.67295843642534
 30
0.0
 11
-15.2206222127572
 21
41.58261570313086
 31
0.0
  0
LINE
  5
CC6
330
70
100
AcDbEntity
  8
Livello 1
100
AcDbLine
 10
-15.2206222127572
 20
41.58261570313086
 30
0.0
 11
-15.03155174001415
 21
41.52854461019706
 31
0.0
  0
LINE
  5
CC7
330
70
100
AcDbEntity
  8
Livello 1
100
AcDbLine
 10
-15.03155174001415
 20
48.48075850944496
 30
0.0
 11
-15.2206222127572
 21
48.42657529397484
 31
0.0
  0
LINE
  5
CC8
330
70
100
AcDbEntity
  8
Livello 1
100
AcDbLine
 10
-15.2206222127572
 20
48.42657529397484
 30
0.0
 11
-15.39394292680896
 21
48.33623256068046
 31
0.0
  0
LINE
  5
CC9
330
70
100
AcDbEntity
  8
Livello 1
100
AcDbLine
 10
-15.39394292680896
 20
48.33623256068046
 30
0.0
 11
-15.53573966733003
 21
48.20987046273026
 31
0.0
  0
LINE
  5
CCA
330
70
100
AcDbEntity
  8
Livello 1
100
AcDbLine
 10
-15.53573966733003
 20
48.20987046273026
 30
0.0
 11
-15.66178664915884
 21
48.04734884695483
 31
0.0
  0
LINE
  5
CCB
330
70
100
AcDbEntity
  8
Livello 1
100
AcDbLine
 10
-15.66178664915884
 20
48.04734884695483
 30
0.0
 11
-15.75630965745705
 21
47.84875180525617
 31
0.0
  0
LINE
  5
CCC
330
70
100
AcDbEntity
  8
Livello 1
100
AcDbLine
 10
-15.75630965745705
 20
47.84875180525617
 30
0.0
 11
-15.81930869222435
 21
47.65007067165575
 31
0.0
  0
LINE
  5
CCD
330
70
100
AcDbEntity
  8
Livello 1
100
AcDbLine
 10
-15.81930869222435
 20
47.65007067165575
 30
0.0
 11
-15.83508290706336
 21
47.43336584041057
 31
0.0
  0
LINE
  5
CCE
330
70
100
AcDbEntity
  8
Livello 1
100
AcDbLine
 10
-2.396064097742538
 20
41.51040879001658
 30
0.0
 11
-2.396064097742538
 21
41.52854461019706
 31
0.0
  0
LINE
  5
CCF
330
70
100
AcDbEntity
  8
Livello 1
100
AcDbLine
 10
-2.396064097742538
 20
41.52854461019706
 30
0.0
 11
-2.396064097742538
 21
41.54656830784157
 31
0.0
  0
LINE
  5
CD0
330
70
100
AcDbEntity
  8
Livello 1
100
AcDbLine
 10
-2.396064097742538
 20
41.54656830784157
 30
0.0
 11
-2.411838312183363
 21
41.56459200548607
 31
0.0
  0
LINE
  5
CD1
330
70
100
AcDbEntity
  8
Livello 1
100
AcDbLine
 10
-2.411838312183363
 20
41.56459200548607
 30
0.0
 11
-2.411838312183363
 21
41.58261570313086
 31
0.0
  0
LINE
  5
CD2
330
70
100
AcDbEntity
  8
Livello 1
100
AcDbLine
 10
-1.576807648844862
 20
47.43336584041057
 30
0.0
 11
-1.576807648844862
 21
42.57582515669525
 31
0.0
  0
LINE
  5
CD3
330
70
100
AcDbEntity
  8
Livello 1
100
AcDbLine
 10
-2.396064097742538
 20
48.49878220708948
 30
0.0
 11
-4.192123490771564
 21
48.69746334069055
 31
0.0
  0
LINE
  5
CD4
330
70
100
AcDbEntity
  8
Livello 1
100
AcDbLine
 10
-4.192123490771564
 20
48.69746334069055
 30
0.0
 11
-6.003981554387337
 21
48.84187716691875
 31
0.0
  0
LINE
  5
CD5
330
70
100
AcDbEntity
  8
Livello 1
100
AcDbLine
 10
-6.003981554387337
 20
48.84187716691875
 30
0.0
 11
-7.815766249563552
 21
48.91408408003306
 31
0.0
  0
LINE
  5
CD6
330
70
100
AcDbEntity
  8
Livello 1
100
AcDbLine
 10
-7.815766249563552
 20
48.91408408003306
 30
0.0
 11
-9.611850098739239
 21
48.91408408003306
 31
0.0
  0
LINE
  5
CD7
330
70
100
AcDbEntity
  8
Livello 1
100
AcDbLine
 10
-9.611850098739239
 20
48.91408408003306
 30
0.0
 11
-11.42368310452022
 21
48.84187716691875
 31
0.0
  0
LINE
  5
CD8
330
70
100
AcDbEntity
  8
Livello 1
100
AcDbLine
 10
-11.42368310452022
 20
48.84187716691875
 30
0.0
 11
-13.23549230161322
 21
48.69746334069055
 31
0.0
  0
LINE
  5
CD9
330
70
100
AcDbEntity
  8
Livello 1
100
AcDbLine
 10
-13.23549230161322
 20
48.69746334069055
 30
0.0
 11
-15.03155174001415
 21
48.49878220708948
 31
0.0
  0
LINE
  5
CDA
330
70
100
AcDbEntity
  8
Livello 1
100
AcDbLine
 10
-15.03155174001415
 20
41.51040879001658
 30
0.0
 11
-13.23549230161322
 21
41.31183977895216
 31
0.0
  0
LINE
  5
CDB
330
70
100
AcDbEntity
  8
Livello 1
100
AcDbLine
 10
-13.23549230161322
 20
41.31183977895216
 30
0.0
 11
-11.42368310452022
 21
41.16734186082084
 31
0.0
  0
LINE
  5
CDC
330
70
100
AcDbEntity
  8
Livello 1
100
AcDbLine
 10
-11.42368310452022
 20
41.16734186082084
 30
0.0
 11
-9.611850098739239
 21
41.09513494770626
 31
0.0
  0
LINE
  5
CDD
330
70
100
AcDbEntity
  8
Livello 1
100
AcDbLine
 10
-9.611850098739239
 20
41.09513494770626
 30
0.0
 11
-7.815766249563552
 21
41.09513494770626
 31
0.0
  0
LINE
  5
CDE
330
70
100
AcDbEntity
  8
Livello 1
100
AcDbLine
 10
-7.815766249563552
 20
41.09513494770626
 30
0.0
 11
-6.003981554387337
 21
41.16734186082084
 31
0.0
  0
LINE
  5
CDF
330
70
100
AcDbEntity
  8
Livello 1
100
AcDbLine
 10
-6.003981554387337
 20
41.16734186082084
 30
0.0
 11
-4.192123490771564
 21
41.31183977895216
 31
0.0
  0
LINE
  5
CE0
330
70
100
AcDbEntity
  8
Livello 1
100
AcDbLine
 10
-4.192123490771564
 20
41.31183977895216
 30
0.0
 11
-2.396064097742538
 21
41.51040879001658
 31
0.0
  0
LINE
  5
CE1
330
70
100
AcDbEntity
  8
Livello 1
100
AcDbLine
 10
-8.713844858371146
 20
47.65007067165575
 30
0.0
 11
-9.013163634395965
 21
47.63204697401095
 31
0.0
  0
LINE
  5
CE2
330
70
100
AcDbEntity
  8
Livello 1
100
AcDbLine
 10
-9.013163634395965
 20
47.63204697401095
 30
0.0
 11
-9.312506866567446
 21
47.55972793836067
 31
0.0
  0
LINE
  5
CE3
330
70
100
AcDbEntity
  8
Livello 1
100
AcDbLine
 10
-9.312506866567446
 20
47.55972793836067
 30
0.0
 11
-9.596075884298471
 21
47.45138953805508
 31
0.0
  0
LINE
  5
CE4
330
70
100
AcDbEntity
  8
Livello 1
100
AcDbLine
 10
-9.596075884298471
 20
47.45138953805508
 30
0.0
 11
-9.87969381432245
 21
47.28895201418166
 31
0.0
  0
LINE
  5
CE5
330
70
100
AcDbEntity
  8
Livello 1
100
AcDbLine
 10
-9.87969381432245
 20
47.28895201418166
 30
0.0
 11
-10.11603801331793
 21
47.10829457822606
 31
0.0
  0
LINE
  5
CE6
330
70
100
AcDbEntity
  8
Livello 1
100
AcDbLine
 10
-10.11603801331793
 20
47.10829457822606
 30
0.0
 11
-10.35233330002063
 21
46.87356604933626
 31
0.0
  0
LINE
  5
CE7
330
70
100
AcDbEntity
  8
Livello 1
100
AcDbLine
 10
-10.35233330002063
 20
46.87356604933626
 30
0.0
 11
-10.55717798242796
 21
46.60267800262093
 31
0.0
  0
LINE
  5
CE8
330
70
100
AcDbEntity
  8
Livello 1
100
AcDbLine
 10
-10.55717798242796
 20
46.60267800262093
 30
0.0
 11
-10.71470002151423
 21
46.33190207844165
 31
0.0
  0
LINE
  5
CE9
330
70
100
AcDbEntity
  8
Livello 1
100
AcDbLine
 10
-10.71470002151423
 20
46.33190207844165
 30
0.0
 11
-10.85652059858375
 21
46.00683081625675
 31
0.0
  0
LINE
  5
CEA
330
70
100
AcDbEntity
  8
Livello 1
100
AcDbLine
 10
-10.85652059858375
 20
46.00683081625675
 30
0.0
 11
-10.95104360688225
 21
45.68175955407227
 31
0.0
  0
LINE
  5
CEB
330
70
100
AcDbEntity
  8
Livello 1
100
AcDbLine
 10
-10.95104360688225
 20
45.68175955407227
 30
0.0
 11
-11.01404264164955
 21
45.33869262487715
 31
0.0
  0
LINE
  5
CEC
330
70
100
AcDbEntity
  8
Livello 1
100
AcDbLine
 10
-11.01404264164955
 20
45.33869262487715
 30
0.0
 11
-11.02981685648845
 21
44.99559766504785
 31
0.0
  0
LINE
  5
CED
330
70
100
AcDbEntity
  8
Livello 1
100
AcDbLine
 10
-11.02981685648845
 20
44.99559766504785
 30
0.0
 11
-11.01404264164955
 21
44.65250270521827
 31
0.0
  0
LINE
  5
CEE
330
70
100
AcDbEntity
  8
Livello 1
100
AcDbLine
 10
-11.01404264164955
 20
44.65250270521827
 30
0.0
 11
-10.95104360688225
 21
44.30940774538894
 31
0.0
  0
LINE
  5
CEF
330
70
100
AcDbEntity
  8
Livello 1
100
AcDbLine
 10
-10.95104360688225
 20
44.30940774538894
 30
0.0
 11
-10.85652059858375
 21
43.98436451383844
 31
0.0
  0
LINE
  5
CF0
330
70
100
AcDbEntity
  8
Livello 1
100
AcDbLine
 10
-10.85652059858375
 20
43.98436451383844
 30
0.0
 11
-10.71470002151423
 21
43.65929325165356
 31
0.0
  0
LINE
  5
CF1
330
70
100
AcDbEntity
  8
Livello 1
100
AcDbLine
 10
-10.71470002151423
 20
43.65929325165356
 30
0.0
 11
-10.55717798242796
 21
43.38840520493826
 31
0.0
  0
LINE
  5
CF2
330
70
100
AcDbEntity
  8
Livello 1
100
AcDbLine
 10
-10.55717798242796
 20
43.38840520493826
 30
0.0
 11
-10.35233330002063
 21
43.11760125012526
 31
0.0
  0
LINE
  5
CF3
330
70
100
AcDbEntity
  8
Livello 1
100
AcDbLine
 10
-10.35233330002063
 20
43.11760125012526
 30
0.0
 11
-10.11603801331793
 21
42.88287272123617
 31
0.0
  0
LINE
  5
CF4
330
70
100
AcDbEntity
  8
Livello 1
100
AcDbLine
 10
-10.11603801331793
 20
42.88287272123617
 30
0.0
 11
-9.87969381432245
 21
42.70221528527966
 31
0.0
  0
LINE
  5
CF5
330
70
100
AcDbEntity
  8
Livello 1
100
AcDbLine
 10
-9.87969381432245
 20
42.70221528527966
 30
0.0
 11
-9.596075884298471
 21
42.53969366950457
 31
0.0
  0
LINE
  5
CF6
330
70
100
AcDbEntity
  8
Livello 1
100
AcDbLine
 10
-9.596075884298471
 20
42.53969366950457
 30
0.0
 11
-9.312506866567446
 21
42.43143936110084
 31
0.0
  0
LINE
  5
CF7
330
70
100
AcDbEntity
  8
Livello 1
100
AcDbLine
 10
-9.312506866567446
 20
42.43143936110084
 30
0.0
 11
-9.013163634395965
 21
42.35914835608457
 31
0.0
  0
LINE
  5
CF8
330
70
100
AcDbEntity
  8
Livello 1
100
AcDbLine
 10
-9.013163634395965
 20
42.35914835608457
 30
0.0
 11
-8.713844858371146
 21
42.34109662780546
 31
0.0
  0
LINE
  5
CF9
330
70
100
AcDbEntity
  8
Livello 1
100
AcDbLine
 10
-8.713844858371146
 20
42.34109662780546
 30
0.0
 11
-8.41445271390674
 21
42.35914835608457
 31
0.0
  0
LINE
  5
CFA
330
70
100
AcDbEntity
  8
Livello 1
100
AcDbLine
 10
-8.41445271390674
 20
42.35914835608457
 30
0.0
 11
-8.115109481735373
 21
42.43143936110084
 31
0.0
  0
LINE
  5
CFB
330
70
100
AcDbEntity
  8
Livello 1
100
AcDbLine
 10
-8.115109481735373
 20
42.43143936110084
 30
0.0
 11
-7.831540464004064
 21
42.53969366950457
 31
0.0
  0
LINE
  5
CFC
330
70
100
AcDbEntity
  8
Livello 1
100
AcDbLine
 10
-7.831540464004064
 20
42.53969366950457
 30
0.0
 11
-7.547946990126632
 21
42.70221528527966
 31
0.0
  0
LINE
  5
CFD
330
70
100
AcDbEntity
  8
Livello 1
100
AcDbLine
 10
-7.547946990126632
 20
42.70221528527966
 30
0.0
 11
-7.311651703424075
 21
42.88287272123617
 31
0.0
  0
LINE
  5
CFE
330
70
100
AcDbEntity
  8
Livello 1
100
AcDbLine
 10
-7.311651703424075
 20
42.88287272123617
 30
0.0
 11
-7.075307504428849
 21
43.11760125012526
 31
0.0
  0
LINE
  5
CFF
330
70
100
AcDbEntity
  8
Livello 1
100
AcDbLine
 10
-7.075307504428849
 20
43.11760125012526
 30
0.0
 11
-6.870487278167445
 21
43.38840520493826
 31
0.0
  0
LINE
  5
D00
330
70
100
AcDbEntity
  8
Livello 1
100
AcDbLine
 10
-6.870487278167445
 20
43.38840520493826
 30
0.0
 11
-6.712916326788246
 21
43.65929325165356
 31
0.0
  0
LINE
  5
D01
330
70
100
AcDbEntity
  8
Livello 1
100
AcDbLine
 10
-6.712916326788246
 20
43.65929325165356
 30
0.0
 11
-6.571144045996049
 21
43.98436451383844
 31
0.0
  0
LINE
  5
D02
330
70
100
AcDbEntity
  8
Livello 1
100
AcDbLine
 10
-6.571144045996049
 20
43.98436451383844
 30
0.0
 11
-6.476621040085547
 21
44.30940774538894
 31
0.0
  0
LINE
  5
D03
330
70
100
AcDbEntity
  8
Livello 1
100
AcDbLine
 10
-6.476621040085547
 20
44.30940774538894
 30
0.0
 11
-6.413573094616737
 21
44.65250270521827
 31
0.0
  0
LINE
  5
D04
330
70
100
AcDbEntity
  8
Livello 1
100
AcDbLine
 10
-6.413573094616737
 20
44.65250270521827
 30
0.0
 11
-6.397847792469235
 21
44.99559766504785
 31
0.0
  0
LINE
  5
D05
330
70
100
AcDbEntity
  8
Livello 1
100
AcDbLine
 10
-6.397847792469235
 20
44.99559766504785
 30
0.0
 11
-6.413573094616737
 21
45.33869262487715
 31
0.0
  0
LINE
  5
D06
330
70
100
AcDbEntity
  8
Livello 1
100
AcDbLine
 10
-6.413573094616737
 20
45.33869262487715
 30
0.0
 11
-6.476621040085547
 21
45.68175955407227
 31
0.0
  0
LINE
  5
D07
330
70
100
AcDbEntity
  8
Livello 1
100
AcDbLine
 10
-6.476621040085547
 20
45.68175955407227
 30
0.0
 11
-6.571144045996049
 21
46.00683081625675
 31
0.0
  0
LINE
  5
D08
330
70
100
AcDbEntity
  8
Livello 1
100
AcDbLine
 10
-6.571144045996049
 20
46.00683081625675
 30
0.0
 11
-6.712916326788246
 21
46.33190207844165
 31
0.0
  0
LINE
  5
D09
330
70
100
AcDbEntity
  8
Livello 1
100
AcDbLine
 10
-6.712916326788246
 20
46.33190207844165
 30
0.0
 11
-6.870487278167445
 21
46.60267800262093
 31
0.0
  0
LINE
  5
D0A
330
70
100
AcDbEntity
  8
Livello 1
100
AcDbLine
 10
-6.870487278167445
 20
46.60267800262093
 30
0.0
 11
-7.075307504428849
 21
46.87356604933626
 31
0.0
  0
LINE
  5
D0B
330
70
100
AcDbEntity
  8
Livello 1
100
AcDbLine
 10
-7.075307504428849
 20
46.87356604933626
 30
0.0
 11
-7.311651703424075
 21
47.10829457822606
 31
0.0
  0
LINE
  5
D0C
330
70
100
AcDbEntity
  8
Livello 1
100
AcDbLine
 10
-7.311651703424075
 20
47.10829457822606
 30
0.0
 11
-7.547946990126632
 21
47.28895201418166
 31
0.0
  0
LINE
  5
D0D
330
70
100
AcDbEntity
  8
Livello 1
100
AcDbLine
 10
-7.547946990126632
 20
47.28895201418166
 30
0.0
 11
-7.831540464004064
 21
47.45138953805508
 31
0.0
  0
LINE
  5
D0E
330
70
100
AcDbEntity
  8
Livello 1
100
AcDbLine
 10
-7.831540464004064
 20
47.45138953805508
 30
0.0
 11
-8.115109481735373
 21
47.55972793836067
 31
0.0
  0
LINE
  5
D0F
330
70
100
AcDbEntity
  8
Livello 1
100
AcDbLine
 10
-8.115109481735373
 20
47.55972793836067
 30
0.0
 11
-8.41445271390674
 21
47.63204697401095
 31
0.0
  0
LINE
  5
D10
330
70
100
AcDbEntity
  8
Livello 1
100
AcDbLine
 10
-8.41445271390674
 20
47.63204697401095
 30
0.0
 11
-8.713844858371146
 21
47.65007067165575
 31
0.0
  0
LINE
  5
D11
330
70
100
AcDbEntity
  8
Livello 1
100
AcDbLine
 10
-1.592532950992335
 20
47.43336584041057
 30
0.0
 11
-1.608307165432734
 21
47.65007067165575
 31
0.0
  0
LINE
  5
D12
330
70
100
AcDbEntity
  8
Livello 1
100
AcDbLine
 10
-1.608307165432734
 20
47.65007067165575
 30
0.0
 11
-1.671355110901544
 21
47.84875180525617
 31
0.0
  0
LINE
  5
D13
330
70
100
AcDbEntity
  8
Livello 1
100
AcDbLine
 10
-1.671355110901544
 20
47.84875180525617
 30
0.0
 11
-1.765853660665356
 21
48.04734884695483
 31
0.0
  0
LINE
  5
D14
330
70
100
AcDbEntity
  8
Livello 1
100
AcDbLine
 10
-1.765853660665356
 20
48.04734884695483
 30
0.0
 11
-1.891925095456343
 21
48.20987046273026
 31
0.0
  0
LINE
  5
D15
330
70
100
AcDbEntity
  8
Livello 1
100
AcDbLine
 10
-1.891925095456343
 20
48.20987046273026
 30
0.0
 11
-2.033696537349641
 21
48.33623256068046
 31
0.0
  0
LINE
  5
D16
330
70
100
AcDbEntity
  8
Livello 1
100
AcDbLine
 10
-2.033696537349641
 20
48.33623256068046
 30
0.0
 11
-2.206993629775638
 21
48.42657529397484
 31
0.0
  0
LINE
  5
D17
330
70
100
AcDbEntity
  8
Livello 1
100
AcDbLine
 10
-2.206993629775638
 20
48.42657529397484
 30
0.0
 11
-2.396064097742538
 21
48.48075850944496
 31
0.0
  0
LINE
  5
D18
330
70
100
AcDbEntity
  8
Livello 1
100
AcDbLine
 10
-2.396064097742538
 20
41.52854461019706
 30
0.0
 11
-2.206993629775638
 21
41.58261570313086
 31
0.0
  0
LINE
  5
D19
330
70
100
AcDbEntity
  8
Livello 1
100
AcDbLine
 10
-2.206993629775638
 20
41.58261570313086
 30
0.0
 11
-2.033696537349641
 21
41.67295843642534
 31
0.0
  0
LINE
  5
D1A
330
70
100
AcDbEntity
  8
Livello 1
100
AcDbLine
 10
-2.033696537349641
 20
41.67295843642534
 30
0.0
 11
-1.891925095456343
 21
41.79934856501034
 31
0.0
  0
LINE
  5
D1B
330
70
100
AcDbEntity
  8
Livello 1
100
AcDbLine
 10
-1.891925095456343
 20
41.79934856501034
 30
0.0
 11
-1.765853660665356
 21
41.96187018078544
 31
0.0
  0
LINE
  5
D1C
330
70
100
AcDbEntity
  8
Livello 1
100
AcDbLine
 10
-1.765853660665356
 20
41.96187018078544
 30
0.0
 11
-1.671355110901544
 21
42.16055131438617
 31
0.0
  0
LINE
  5
D1D
330
70
100
AcDbEntity
  8
Livello 1
100
AcDbLine
 10
-1.671355110901544
 20
42.16055131438617
 30
0.0
 11
-1.608307165432734
 21
42.35914835608457
 31
0.0
  0
LINE
  5
D1E
330
70
100
AcDbEntity
  8
Livello 1
100
AcDbLine
 10
-1.608307165432734
 20
42.35914835608457
 30
0.0
 11
-1.592532950992335
 21
42.57582515669525
 31
0.0
  0
LINE
  5
D1F
330
70
100
AcDbEntity
  8
Livello 1
100
AcDbLine
 10
28.97992449467145
 20
41.29619868519435
 30
0.0
 11
26.44030042591214
 21
41.29619868519435
 31
0.0
  0
LINE
  5
D20
330
70
100
AcDbEntity
  8
Livello 1
100
AcDbLine
 10
28.97992449467145
 20
48.90634762505675
 30
0.0
 11
26.44030042591214
 21
48.90634762505675
 31
0.0
  0
LINE
  5
D21
330
70
100
AcDbEntity
  8
Livello 1
100
AcDbLine
 10
26.07309138742787
 20
42.12032735463407
 30
0.0
 11
26.44030042591214
 21
41.29619868519435
 31
0.0
  0
LINE
  5
D22
330
70
100
AcDbEntity
  8
Livello 1
100
AcDbLine
 10
26.07309138742787
 20
48.09982219375277
 30
0.0
 11
26.07309138742787
 21
42.12032735463407
 31
0.0
  0
LINE
  5
D23
330
70
100
AcDbEntity
  8
Livello 1
100
AcDbLine
 10
26.44030042591214
 20
41.29619868519435
 30
0.0
 11
26.44030042591214
 21
48.90634762505675
 31
0.0
  0
LINE
  5
D24
330
70
100
AcDbEntity
  8
Livello 1
100
AcDbLine
 10
26.07309138742787
 20
48.09982219375277
 30
0.0
 11
26.44030042591214
 21
48.90634762505675
 31
0.0
  0
LINE
  5
D25
330
70
100
AcDbEntity
  8
Livello 1
100
AcDbLine
 10
29.16354286899466
 20
41.45392706256058
 30
0.0
 11
29.30123097681354
 21
42.36579161633577
 31
0.0
  0
LINE
  5
D26
330
70
100
AcDbEntity
  8
Livello 1
100
AcDbLine
 10
29.30123097681354
 20
42.36579161633577
 30
0.0
 11
29.40832281149736
 21
43.27765617011107
 31
0.0
  0
LINE
  5
D27
330
70
100
AcDbEntity
  8
Livello 1
100
AcDbLine
 10
29.40832281149736
 20
43.27765617011107
 30
0.0
 11
29.46948926842836
 21
44.18940860135094
 31
0.0
  0
LINE
  5
D28
330
70
100
AcDbEntity
  8
Livello 1
100
AcDbLine
 10
29.46948926842836
 20
44.18940860135094
 30
0.0
 11
29.48484609364328
 21
45.10127315512585
 31
0.0
  0
LINE
  5
D29
330
70
100
AcDbEntity
  8
Livello 1
100
AcDbLine
 10
29.48484609364328
 20
45.10127315512585
 30
0.0
 11
29.46948926842836
 21
46.01313770890135
 31
0.0
  0
LINE
  5
D2A
330
70
100
AcDbEntity
  8
Livello 1
100
AcDbLine
 10
29.46948926842836
 20
46.01313770890135
 30
0.0
 11
29.40832281149736
 21
46.92491817077459
 31
0.0
  0
LINE
  5
D2B
330
70
100
AcDbEntity
  8
Livello 1
100
AcDbLine
 10
29.40832281149736
 20
46.92491817077459
 30
0.0
 11
29.30123097681354
 21
47.83675469391627
 31
0.0
  0
LINE
  5
D2C
330
70
100
AcDbEntity
  8
Livello 1
100
AcDbLine
 10
29.30123097681354
 20
47.83675469391627
 30
0.0
 11
29.16354286899466
 21
48.74861924769047
 31
0.0
  0
LINE
  5
D2D
330
70
100
AcDbEntity
  8
Livello 1
100
AcDbLine
 10
29.34713353315644
 20
42.76906834730545
 30
0.0
 11
29.63781928949556
 21
42.82165381663844
 31
0.0
  0
LINE
  5
D2E
330
70
100
AcDbEntity
  8
Livello 1
100
AcDbLine
 10
29.63781928949556
 20
42.82165381663844
 30
0.0
 11
29.91321995432264
 21
42.90938970097394
 31
0.0
  0
LINE
  5
D2F
330
70
100
AcDbEntity
  8
Livello 1
100
AcDbLine
 10
29.91321995432264
 20
42.90938970097394
 30
0.0
 11
30.17326215919855
 21
43.04971105464306
 31
0.0
  0
LINE
  5
D30
330
70
100
AcDbEntity
  8
Livello 1
100
AcDbLine
 10
30.17326215919855
 20
43.04971105464306
 30
0.0
 11
30.41804372870834
 21
43.24253378574306
 31
0.0
  0
LINE
  5
D31
330
70
100
AcDbEntity
  8
Livello 1
100
AcDbLine
 10
30.41804372870834
 20
43.24253378574306
 30
0.0
 11
30.63227957134114
 21
43.45298778561215
 31
0.0
  0
LINE
  5
D32
330
70
100
AcDbEntity
  8
Livello 1
100
AcDbLine
 10
30.63227957134114
 20
43.45298778561215
 30
0.0
 11
30.81577403792485
 21
43.71602725481446
 31
0.0
  0
LINE
  5
D33
330
70
100
AcDbEntity
  8
Livello 1
100
AcDbLine
 10
30.81577403792485
 20
43.71602725481446
 30
0.0
 11
30.96884505836255
 21
43.99658587025067
 31
0.0
  0
LINE
  5
D34
330
70
100
AcDbEntity
  8
Livello 1
100
AcDbLine
 10
30.96884505836255
 20
43.99658587025067
 30
0.0
 11
31.09119915889812
 21
44.29463560128493
 31
0.0
  0
LINE
  5
D35
330
70
100
AcDbEntity
  8
Livello 1
100
AcDbLine
 10
31.09119915889812
 20
44.29463560128493
 30
0.0
 11
31.16772411868095
 21
44.61028857045516
 31
0.0
  0
LINE
  5
D36
330
70
100
AcDbEntity
  8
Livello 1
100
AcDbLine
 10
31.16772411868095
 20
44.61028857045516
 30
0.0
 11
31.21362662787277
 21
44.94343265522426
 31
0.0
  0
LINE
  5
D37
330
70
100
AcDbEntity
  8
Livello 1
100
AcDbLine
 10
31.21362662787277
 20
44.94343265522426
 30
0.0
 11
31.21362662787277
 21
45.25911365502776
 31
0.0
  0
LINE
  5
D38
330
70
100
AcDbEntity
  8
Livello 1
100
AcDbLine
 10
31.21362662787277
 20
45.25911365502776
 30
0.0
 11
31.16772411868095
 21
45.59225773979676
 31
0.0
  0
LINE
  5
D39
330
70
100
AcDbEntity
  8
Livello 1
100
AcDbLine
 10
31.16772411868095
 20
45.59225773979676
 30
0.0
 11
31.09119915889812
 21
45.90791070896708
 31
0.0
  0
LINE
  5
D3A
330
70
100
AcDbEntity
  8
Livello 1
100
AcDbLine
 10
31.09119915889812
 20
45.90791070896708
 30
0.0
 11
30.96884505836255
 21
46.20598847063567
 31
0.0
  0
LINE
  5
D3B
330
70
100
AcDbEntity
  8
Livello 1
100
AcDbLine
 10
30.96884505836255
 20
46.20598847063567
 30
0.0
 11
30.81577403792485
 21
46.48651905543715
 31
0.0
  0
LINE
  5
D3C
330
70
100
AcDbEntity
  8
Livello 1
100
AcDbLine
 10
30.81577403792485
 20
46.48651905543715
 30
0.0
 11
30.63227957134114
 21
46.74958655527345
 31
0.0
  0
LINE
  5
D3D
330
70
100
AcDbEntity
  8
Livello 1
100
AcDbLine
 10
30.63227957134114
 20
46.74958655527345
 30
0.0
 11
30.41804372870834
 21
46.96001252450836
 31
0.0
  0
LINE
  5
D3E
330
70
100
AcDbEntity
  8
Livello 1
100
AcDbLine
 10
30.41804372870834
 20
46.96001252450836
 30
0.0
 11
30.17326215919855
 21
47.15283525560894
 31
0.0
  0
LINE
  5
D3F
330
70
100
AcDbEntity
  8
Livello 1
100
AcDbLine
 10
30.17326215919855
 20
47.15283525560894
 30
0.0
 11
29.91321995432264
 21
47.29315660927745
 31
0.0
  0
LINE
  5
D40
330
70
100
AcDbEntity
  8
Livello 1
100
AcDbLine
 10
29.91321995432264
 20
47.29315660927745
 30
0.0
 11
29.63781928949556
 21
47.38086446297893
 31
0.0
  0
LINE
  5
D41
330
70
100
AcDbEntity
  8
Livello 1
100
AcDbLine
 10
29.63781928949556
 20
47.38086446297893
 30
0.0
 11
29.34713353315644
 21
47.43350599358007
 31
0.0
  0
LINE
  5
D42
330
70
100
AcDbEntity
  8
Livello 1
100
AcDbLine
 10
28.97992449467145
 20
41.31368980079415
 30
0.0
 11
29.08701795984135
 21
41.34870006262616
 31
0.0
  0
LINE
  5
D43
330
70
100
AcDbEntity
  8
Livello 1
100
AcDbLine
 10
29.08701795984135
 20
41.34870006262616
 30
0.0
 11
29.14825615047528
 21
41.47153030069605
 31
0.0
  0
LINE
  5
D44
330
70
100
AcDbEntity
  8
Livello 1
100
AcDbLine
 10
29.14825615047528
 20
48.74861924769047
 30
0.0
 11
29.08701795984135
 21
48.87133736322477
 31
0.0
  0
LINE
  5
D45
330
70
100
AcDbEntity
  8
Livello 1
100
AcDbLine
 10
29.08701795984135
 20
48.87133736322477
 30
0.0
 11
28.97992449467145
 21
48.90634762505675
 31
0.0
  0
LINE
  5
D46
330
70
100
AcDbEntity
  8
Livello 1
100
AcDbLine
 10
-23.00000030450866
 20
16.81575512931224
 30
0.0
 11
3.899706131108246
 21
16.81575512931224
 31
0.0
  0
LINE
  5
D47
330
70
100
AcDbEntity
  8
Livello 1
100
AcDbLine
 10
10.11083363720178
 20
16.81575512931224
 30
0.0
 11
31.21362662787277
 21
16.81575512931224
 31
0.0
  0
LINE
  5
D48
330
70
100
AcDbEntity
  8
Livello 1
100
AcDbLine
 10
42.18893526710462
 20
76.54918862213065
 30
0.0
 11
42.18893526710462
 21
29.97564280044116
 31
0.0
  0
SPLINE
  5
D49
330
70
100
AcDbEntity
  8
Livello 1
100
AcDbSpline
210
0.0
220
0.0
230
1.0
 70
    11
 71
     3
 72
    29
 73
    25
 74
     0
 42
0.000000001
 43
0.0000000001
 40
0.0
 40
0.0
 40
0.0
 40
0.0
 40
1.0
 40
1.0
 40
1.0
 40
2.0
 40
2.0
 40
2.0
 40
3.0
 40
3.0
 40
3.0
 40
4.0
 40
4.0
 40
4.0
 40
5.0
 40
5.0
 40
5.0
 40
6.0
 40
6.0
 40
6.0
 40
7.0
 40
7.0
 40
7.0
 40
8.0
 40
8.0
 40
8.0
 40
8.0
 10
-14.01130931158275
 20
13.74410799466355
 30
0.0
 10
-14.01130931158275
 20
13.74410799466355
 30
0.0
 10
-14.03680301817354
 20
13.74410799466355
 30
0.0
 10
-14.03680301817354
 20
13.74410799466355
 30
0.0
 10
-14.03680301817354
 20
13.74410799466355
 30
0.0
 10
-15.47168528778013
 20
12.96965052957932
 30
0.0
 10
-15.47168528778013
 20
12.96965052957932
 30
0.0
 10
-15.47168528778013
 20
12.96965052957932
 30
0.0
 10
-15.68752051993095
 20
13.82058911443605
 30
0.0
 10
-15.68752051993095
 20
13.82058911443605
 30
0.0
 10
-15.68752051993095
 20
13.82058911443605
 30
0.0
 10
-13.88435754295122
 20
14.78556035985457
 30
0.0
 10
-13.88435754295122
 20
14.78556035985457
 30
0.0
 10
-13.88435754295122
 20
14.78556035985457
 30
0.0
 10
-12.93196089605396
 20
14.78556035985457
 30
0.0
 10
-12.93196089605396
 20
14.78556035985457
 30
0.0
 10
-12.93196089605396
 20
14.78556035985457
 30
0.0
 10
-12.93196089605396
 20
6.531456086744441
 30
0.0
 10
-12.93196089605396
 20
6.531456086744441
 30
0.0
 10
-12.93196089605396
 20
6.531456086744441
 30
0.0
 10
-14.01130931158275
 20
6.531456086744441
 30
0.0
 10
-14.01130931158275
 20
6.531456086744441
 30
0.0
 10
-14.01130931158275
 20
6.531456086744441
 30
0.0
 10
-14.01130931158275
 20
13.74410799466355
 30
0.0
 10
-14.01130931158275
 20
13.74410799466355
 30
0.0
  0
HATCH
  5
D4A
330
70
100
AcDbEntity
  8
Livello 1
440
 33554687
100
AcDbHatch
 10
0.0
 20
0.0
 30
0.0
210
0.0
220
0.0
230
1.0
  2
SOLID
 70
     1
 71
     0
 91
        1
 92
        1
 93
        1
 72
     4
 94
        3
 73
     0
 74
     0
 95
       29
 96
       25
 40
0.0
 40
0.0
 40
0.0
 40
0.0
 40
1.0
 40
1.0
 40
1.0
 40
2.0
 40
2.0
 40
2.0
 40
3.0
 40
3.0
 40
3.0
 40
4.0
 40
4.0
 40
4.0
 40
5.0
 40
5.0
 40
5.0
 40
6.0
 40
6.0
 40
6.0
 40
7.0
 40
7.0
 40
7.0
 40
8.0
 40
8.0
 40
8.0
 40
8.0
 10
-14.01130931158275
 20
13.74410799466355
 10
-14.01130931158275
 20
13.74410799466355
 10
-14.03680301817354
 20
13.74410799466355
 10
-14.03680301817354
 20
13.74410799466355
 10
-14.03680301817354
 20
13.74410799466355
 10
-15.47168528778013
 20
12.96965052957932
 10
-15.47168528778013
 20
12.96965052957932
 10
-15.47168528778013
 20
12.96965052957932
 10
-15.68752051993095
 20
13.82058911443605
 10
-15.68752051993095
 20
13.82058911443605
 10
-15.68752051993095
 20
13.82058911443605
 10
-13.88435754295122
 20
14.78556035985457
 10
-13.88435754295122
 20
14.78556035985457
 10
-13.88435754295122
 20
14.78556035985457
 10
-12.93196089605396
 20
14.78556035985457
 10
-12.93196089605396
 20
14.78556035985457
 10
-12.93196089605396
 20
14.78556035985457
 10
-12.93196089605396
 20
6.531456086744441
 10
-12.93196089605396
 20
6.531456086744441
 10
-12.93196089605396
 20
6.531456086744441
 10
-14.01130931158275
 20
6.531456086744441
 10
-14.01130931158275
 20
6.531456086744441
 10
-14.01130931158275
 20
6.531456086744441
 10
-14.01130931158275
 20
13.74410799466355
 10
-14.01130931158275
 20
13.74410799466355
 97
        0
 97
        0
 75
     2
 76
     1
 98
        1
 10
-216.985138742176
 20
188.2657550864497
450
        0
451
        0
460
0.0
461
0.0
452
        0
462
0.0
453
        0
470

  0
SPLINE
  5
D4B
330
70
100
AcDbEntity
  8
Livello 1
100
AcDbSpline
210
0.0
220
0.0
230
1.0
 70
     9
 71
     3
 72
    59
 73
    55
 74
     0
 42
0.000000001
 43
0.0000000001
 40
0.0
 40
0.0
 40
0.0
 40
0.0
 40
1.0
 40
1.0
 40
1.0
 40
2.0
 40
2.0
 40
2.0
 40
3.0
 40
3.0
 40
3.0
 40
4.0
 40
4.0
 40
4.0
 40
5.0
 40
5.0
 40
5.0
 40
6.0
 40
6.0
 40
6.0
 40
7.0
 40
7.0
 40
7.0
 40
8.0
 40
8.0
 40
8.0
 40
9.0
 40
9.0
 40
9.0
 40
10.0
 40
10.0
 40
10.0
 40
11.0
 40
11.0
 40
11.0
 40
12.0
 40
12.0
 40
12.0
 40
13.0
 40
13.0
 40
13.0
 40
14.0
 40
14.0
 40
14.0
 40
15.0
 40
15.0
 40
15.0
 40
16.0
 40
16.0
 40
16.0
 40
17.0
 40
17.0
 40
17.0
 40
18.0
 40
18.0
 40
18.0
 40
18.0
 10
-9.65533058003271
 20
7.81406513590295
 30
0.0
 10
-9.337865031067025
 20
7.610804502273282
 30
0.0
 10
-8.601303616320649
 20
7.293511208081753
 30
0.0
 10
-7.826673896462125
 20
7.293511208081753
 30
0.0
 10
-6.391791626855649
 20
7.293511208081753
 30
0.0
 10
-5.947374309258464
 20
8.207839549867088
 30
0.0
 10
-5.959948907779534
 20
8.893413551431763
 30
0.0
 10
-5.97269576107493
 20
10.04889857718459
 30
0.0
 10
-7.013975871491737
 20
10.54430330796342
 30
0.0
 10
-8.09332428702055
 20
10.54430330796342
 30
0.0
 10
-8.09332428702055
 20
10.54430330796342
 30
0.0
 10
-8.715508531656638
 20
10.54430330796342
 30
0.0
 10
-8.715508531656638
 20
10.54430330796342
 30
0.0
 10
-8.715508531656638
 20
10.54430330796342
 30
0.0
 10
-8.715508531656638
 20
11.38249503952474
 30
0.0
 10
-8.715508531656638
 20
11.38249503952474
 30
0.0
 10
-8.715508531656638
 20
11.38249503952474
 30
0.0
 10
-8.09332428702055
 20
11.38249503952474
 30
0.0
 10
-8.09332428702055
 20
11.38249503952474
 30
0.0
 10
-7.280626262050049
 20
11.38249503952474
 30
0.0
 10
-6.252093004928724
 20
11.80141865053119
 30
0.0
 10
-6.252093004928724
 20
12.77913674924505
 30
0.0
 10
-6.252093004928724
 20
13.43956155376744
 30
0.0
 10
-6.671188870709443
 20
14.02350523851726
 30
0.0
 10
-7.699722127830739
 20
14.02350523851726
 30
0.0
 10
-8.359974677578833
 20
14.02350523851726
 30
0.0
 10
-8.994905775510432
 20
13.73170565091667
 30
0.0
 10
-9.350439629588152
 20
13.47745760410515
 30
0.0
 10
-9.350439629588152
 20
13.47745760410515
 30
0.0
 10
-9.64258372673737
 20
14.29015562907568
 30
0.0
 10
-9.64258372673737
 20
14.29015562907568
 30
0.0
 10
-9.21074100766134
 20
14.60779343281564
 30
0.0
 10
-8.372721530874372
 20
14.92508672700717
 30
0.0
 10
-7.483886895679859
 20
14.92508672700717
 30
0.0
 10
-5.858490845738941
 20
14.92508672700717
 30
0.0
 10
-5.121929430992537
 20
13.96011548158864
 30
0.0
 10
-5.121929430992537
 20
12.95690367628393
 30
0.0
 10
-5.121929430992537
 20
12.10630960097575
 30
0.0
 10
-5.629908760292664
 20
11.38249503952474
 30
0.0
 10
-6.645695164118535
 20
11.01421433215159
 30
0.0
 10
-6.645695164118535
 20
11.01421433215159
 30
0.0
 10
-6.645695164118535
 20
10.98872062556074
 30
0.0
 10
-6.645695164118535
 20
10.98872062556074
 30
0.0
 10
-5.629908760292664
 20
10.78545999193093
 30
0.0
 10
-4.804463882026738
 20
10.02374938014227
 30
0.0
 10
-4.804463882026738
 20
8.867919844840827
 30
0.0
 10
-4.804463882026738
 20
7.547414745344667
 30
0.0
 10
-5.832997139148062
 20
6.391929719591843
 30
0.0
 10
-7.813927043166728
 20
6.391929719591843
 30
0.0
 10
-8.741002238247432
 20
6.391929719591843
 30
0.0
 10
-9.553700263217962
 20
6.68407381674109
 30
0.0
 10
-9.960049275703141
 20
6.950724207299373
 30
0.0
 10
-9.960049275703141
 20
6.950724207299373
 30
0.0
 10
-9.65533058003271
 20
7.81406513590295
 30
0.0
 10
-9.65533058003271
 20
7.81406513590295
 30
0.0
  0
HATCH
  5
D4C
330
70
100
AcDbEntity
  8
Livello 1
440
 33554687
100
AcDbHatch
 10
0.0
 20
0.0
 30
0.0
210
0.0
220
0.0
230
1.0
  2
SOLID
 70
     1
 71
     0
 91
        1
 92
        1
 93
        1
 72
     4
 94
        3
 73
     0
 74
     0
 95
       59
 96
       55
 40
0.0
 40
0.0
 40
0.0
 40
0.0
 40
1.0
 40
1.0
 40
1.0
 40
2.0
 40
2.0
 40
2.0
 40
3.0
 40
3.0
 40
3.0
 40
4.0
 40
4.0
 40
4.0
 40
5.0
 40
5.0
 40
5.0
 40
6.0
 40
6.0
 40
6.0
 40
7.0
 40
7.0
 40
7.0
 40
8.0
 40
8.0
 40
8.0
 40
9.0
 40
9.0
 40
9.0
 40
10.0
 40
10.0
 40
10.0
 40
11.0
 40
11.0
 40
11.0
 40
12.0
 40
12.0
 40
12.0
 40
13.0
 40
13.0
 40
13.0
 40
14.0
 40
14.0
 40
14.0
 40
15.0
 40
15.0
 40
15.0
 40
16.0
 40
16.0
 40
16.0
 40
17.0
 40
17.0
 40
17.0
 40
18.0
 40
18.0
 40
18.0
 40
18.0
 10
-9.65533058003271
 20
7.81406513590295
 10
-9.337865031067025
 20
7.610804502273282
 10
-8.601303616320649
 20
7.293511208081753
 10
-7.826673896462125
 20
7.293511208081753
 10
-6.391791626855649
 20
7.293511208081753
 10
-5.947374309258464
 20
8.207839549867088
 10
-5.959948907779534
 20
8.893413551431763
 10
-5.97269576107493
 20
10.04889857718459
 10
-7.013975871491737
 20
10.54430330796342
 10
-8.09332428702055
 20
10.54430330796342
 10
-8.09332428702055
 20
10.54430330796342
 10
-8.715508531656638
 20
10.54430330796342
 10
-8.715508531656638
 20
10.54430330796342
 10
-8.715508531656638
 20
10.54430330796342
 10
-8.715508531656638
 20
11.38249503952474
 10
-8.715508531656638
 20
11.38249503952474
 10
-8.715508531656638
 20
11.38249503952474
 10
-8.09332428702055
 20
11.38249503952474
 10
-8.09332428702055
 20
11.38249503952474
 10
-7.280626262050049
 20
11.38249503952474
 10
-6.252093004928724
 20
11.80141865053119
 10
-6.252093004928724
 20
12.77913674924505
 10
-6.252093004928724
 20
13.43956155376744
 10
-6.671188870709443
 20
14.02350523851726
 10
-7.699722127830739
 20
14.02350523851726
 10
-8.359974677578833
 20
14.02350523851726
 10
-8.994905775510432
 20
13.73170565091667
 10
-9.350439629588152
 20
13.47745760410515
 10
-9.350439629588152
 20
13.47745760410515
 10
-9.64258372673737
 20
14.29015562907568
 10
-9.64258372673737
 20
14.29015562907568
 10
-9.21074100766134
 20
14.60779343281564
 10
-8.372721530874372
 20
14.92508672700717
 10
-7.483886895679859
 20
14.92508672700717
 10
-5.858490845738941
 20
14.92508672700717
 10
-5.121929430992537
 20
13.96011548158864
 10
-5.121929430992537
 20
12.95690367628393
 10
-5.121929430992537
 20
12.10630960097575
 10
-5.629908760292664
 20
11.38249503952474
 10
-6.645695164118535
 20
11.01421433215159
 10
-6.645695164118535
 20
11.01421433215159
 10
-6.645695164118535
 20
10.98872062556074
 10
-6.645695164118535
 20
10.98872062556074
 10
-5.629908760292664
 20
10.78545999193093
 10
-4.804463882026738
 20
10.02374938014227
 10
-4.804463882026738
 20
8.867919844840827
 10
-4.804463882026738
 20
7.547414745344667
 10
-5.832997139148062
 20
6.391929719591843
 10
-7.813927043166728
 20
6.391929719591843
 10
-8.741002238247432
 20
6.391929719591843
 10
-9.553700263217962
 20
6.68407381674109
 10
-9.960049275703141
 20
6.950724207299373
 10
-9.960049275703141
 20
6.950724207299373
 10
-9.65533058003271
 20
7.81406513590295
 10
-9.65533058003271
 20
7.81406513590295
 97
        0
 97
        0
 75
     2
 76
     1
 98
        1
 10
-216.985138742176
 20
188.2657550864497
450
        0
451
        0
460
0.0
461
0.0
452
        0
462
0.0
453
        0
470

  0
SPLINE
  5
D4D
330
70
100
AcDbEntity
  8
Livello 1
100
AcDbSpline
210
0.0
220
0.0
230
1.0
 70
     9
 71
     3
 72
    17
 73
    13
 74
     0
 42
0.000000001
 43
0.0000000001
 40
0.0
 40
0.0
 40
0.0
 40
0.0
 40
1.0
 40
1.0
 40
1.0
 40
2.0
 40
2.0
 40
2.0
 40
3.0
 40
3.0
 40
3.0
 40
4.0
 40
4.0
 40
4.0
 40
4.0
 10
50.26211460898088
 20
50.11105270128354
 30
0.0
 10
49.25890280367617
 20
50.11105270128354
 30
0.0
 10
48.77624492619265
 20
49.41273184642347
 30
0.0
 10
48.4587793772269
 20
48.29514287100835
 30
0.0
 10
48.73817662108064
 20
47.33017162558994
 30
0.0
 10
49.37310771901218
 20
46.80944544299444
 30
0.0
 10
50.16048429216602
 20
46.80944544299444
 30
0.0
 10
50.99850376895307
 20
46.77137713788235
 30
0.0
 10
51.73506518369947
 20
47.40630823581395
 30
0.0
 10
51.73506518369947
 20
48.46033519952616
 30
0.0
 10
51.73506518369947
 20
49.46354700483087
 30
0.0
 10
51.11288093906336
 20
50.11105270128354
 30
0.0
 10
50.26211460898088
 20
50.11105270128354
 30
0.0
  0
SPLINE
  5
D4E
330
70
100
AcDbEntity
  8
Livello 1
100
AcDbSpline
210
0.0
220
0.0
230
1.0
 70
     9
 71
     3
 72
    17
 73
    13
 74
     0
 42
0.000000001
 43
0.0000000001
 40
0.0
 40
0.0
 40
0.0
 40
0.0
 40
1.0
 40
1.0
 40
1.0
 40
2.0
 40
2.0
 40
2.0
 40
3.0
 40
3.0
 40
3.0
 40
4.0
 40
4.0
 40
4.0
 40
4.0
 10
46.13506247242582
 20
47.03802752844075
 30
0.0
 10
46.96050735069178
 20
47.03802752844075
 30
0.0
 10
47.40492466828897
 20
47.66021177307687
 30
0.0
 10
47.65882820555185
 20
48.61260841997415
 30
0.0
 10
47.41767152158445
 20
49.32384838290395
 30
0.0
 10
46.90969219228423
 20
49.86972376254183
 30
0.0
 10
46.16038392424246
 20
49.86972376254183
 30
0.0
 10
45.50013137449423
 20
49.86972376254183
 30
0.0
 10
44.81438511815537
 20
49.47612160335205
 30
0.0
 10
44.81438511815537
 20
48.47290979804725
 30
0.0
 10
44.81438511815537
 20
47.54600685774085
 30
0.0
 10
45.42399476427028
 20
47.03802752844075
 30
0.0
 10
46.13506247242582
 20
47.03802752844075
 30
0.0
  0
SPLINE
  5
D4F
330
70
100
AcDbEntity
  8
Livello 1
100
AcDbSpline
210
0.0
220
0.0
230
1.0
 70
     9
 71
     3
 72
    35
 73
    31
 74
     0
 42
0.000000001
 43
0.0000000001
 40
0.0
 40
0.0
 40
0.0
 40
0.0
 40
1.0
 40
1.0
 40
1.0
 40
2.0
 40
2.0
 40
2.0
 40
3.0
 40
3.0
 40
3.0
 40
4.0
 40
4.0
 40
4.0
 40
5.0
 40
5.0
 40
5.0
 40
6.0
 40
6.0
 40
6.0
 40
7.0
 40
7.0
 40
7.0
 40
8.0
 40
8.0
 40
8.0
 40
9.0
 40
9.0
 40
9.0
 40
10.0
 40
10.0
 40
10.0
 40
10.0
 10
50.31275751261404
 20
45.66670727053707
 30
0.0
 10
49.27147740219737
 20
45.66670727053707
 30
0.0
 10
48.53508824222513
 20
46.28889151517316
 30
0.0
 10
48.10324552314904
 20
47.30467791899906
 30
0.0
 10
48.10324552314904
 20
47.30467791899906
 30
0.0
 10
48.06517721803714
 20
47.29210332047784
 30
0.0
 10
48.06517721803714
 20
47.29210332047784
 30
0.0
 10
47.63350675373527
 20
46.37777497869257
 30
0.0
 10
46.92226679080545
 20
45.98417281950275
 30
0.0
 10
46.21119908264995
 20
45.98417281950275
 30
0.0
 10
44.90326858167475
 20
45.98417281950275
 30
0.0
 10
44.01443394648032
 20
47.08884268684815
 30
0.0
 10
44.01443394648032
 20
48.53647180975016
 30
0.0
 10
44.01443394648032
 20
50.13654640787445
 30
0.0
 10
45.01764575178504
 20
50.93649757954946
 30
0.0
 10
46.04617900890639
 20
50.93649757954946
 30
0.0
 10
46.74449986376657
 20
50.93649757954946
 30
0.0
 10
47.49380813180835
 20
50.59353832399285
 30
0.0
 10
47.97629375451765
 20
49.57775192016694
 30
0.0
 10
47.97629375451765
 20
49.57775192016694
 30
0.0
 10
48.01436205962966
 20
49.57775192016694
 30
0.0
 10
48.01436205962966
 20
49.57775192016694
 30
0.0
 10
48.4207110721149
 20
50.60628517728827
 30
0.0
 10
49.14452563356587
 20
51.24121627521976
 30
0.0
 10
50.14773743887065
 20
51.24121627521976
 30
0.0
 10
51.58261970847712
 20
51.24121627521976
 30
0.0
 10
52.54776320866984
 20
50.00942238446876
 30
0.0
 10
52.54776320866984
 20
48.43484149293525
 30
0.0
 10
52.54776320866984
 20
46.70798738095373
 30
0.0
 10
51.51922995154854
 20
45.66670727053707
 30
0.0
 10
50.31275751261404
 20
45.66670727053707
 30
0.0
  0
HATCH
  5
D50
330
70
100
AcDbEntity
  8
Livello 1
440
 33554687
100
AcDbHatch
 10
0.0
 20
0.0
 30
0.0
210
0.0
220
0.0
230
1.0
  2
SOLID
 70
     1
 71
     0
 91
        3
 92
        1
 93
        1
 72
     4
 94
        3
 73
     0
 74
     0
 95
       17
 96
       13
 40
0.0
 40
0.0
 40
0.0
 40
0.0
 40
1.0
 40
1.0
 40
1.0
 40
2.0
 40
2.0
 40
2.0
 40
3.0
 40
3.0
 40
3.0
 40
4.0
 40
4.0
 40
4.0
 40
4.0
 10
50.26211460898088
 20
50.11105270128354
 10
49.25890280367617
 20
50.11105270128354
 10
48.77624492619265
 20
49.41273184642347
 10
48.4587793772269
 20
48.29514287100835
 10
48.73817662108064
 20
47.33017162558994
 10
49.37310771901218
 20
46.80944544299444
 10
50.16048429216602
 20
46.80944544299444
 10
50.99850376895307
 20
46.77137713788235
 10
51.73506518369947
 20
47.40630823581395
 10
51.73506518369947
 20
48.46033519952616
 10
51.73506518369947
 20
49.46354700483087
 10
51.11288093906336
 20
50.11105270128354
 10
50.26211460898088
 20
50.11105270128354
 97
        0
 97
        0
 92
        1
 93
        1
 72
     4
 94
        3
 73
     0
 74
     0
 95
       17
 96
       13
 40
0.0
 40
0.0
 40
0.0
 40
0.0
 40
1.0
 40
1.0
 40
1.0
 40
2.0
 40
2.0
 40
2.0
 40
3.0
 40
3.0
 40
3.0
 40
4.0
 40
4.0
 40
4.0
 40
4.0
 10
46.13506247242582
 20
47.03802752844075
 10
46.96050735069178
 20
47.03802752844075
 10
47.40492466828897
 20
47.66021177307687
 10
47.65882820555185
 20
48.61260841997415
 10
47.41767152158445
 20
49.32384838290395
 10
46.90969219228423
 20
49.86972376254183
 10
46.16038392424246
 20
49.86972376254183
 10
45.50013137449423
 20
49.86972376254183
 10
44.81438511815537
 20
49.47612160335205
 10
44.81438511815537
 20
48.47290979804725
 10
44.81438511815537
 20
47.54600685774085
 10
45.42399476427028
 20
47.03802752844075
 10
46.13506247242582
 20
47.03802752844075
 97
        0
 97
        0
 92
        1
 93
        1
 72
     4
 94
        3
 73
     0
 74
     0
 95
       35
 96
       31
 40
0.0
 40
0.0
 40
0.0
 40
0.0
 40
1.0
 40
1.0
 40
1.0
 40
2.0
 40
2.0
 40
2.0
 40
3.0
 40
3.0
 40
3.0
 40
4.0
 40
4.0
 40
4.0
 40
5.0
 40
5.0
 40
5.0
 40
6.0
 40
6.0
 40
6.0
 40
7.0
 40
7.0
 40
7.0
 40
8.0
 40
8.0
 40
8.0
 40
9.0
 40
9.0
 40
9.0
 40
10.0
 40
10.0
 40
10.0
 40
10.0
 10
50.31275751261404
 20
45.66670727053707
 10
49.27147740219737
 20
45.66670727053707
 10
48.53508824222513
 20
46.28889151517316
 10
48.10324552314904
 20
47.30467791899906
 10
48.10324552314904
 20
47.30467791899906
 10
48.06517721803714
 20
47.29210332047784
 10
48.06517721803714
 20
47.29210332047784
 10
47.63350675373527
 20
46.37777497869257
 10
46.92226679080545
 20
45.98417281950275
 10
46.21119908264995
 20
45.98417281950275
 10
44.90326858167475
 20
45.98417281950275
 10
44.01443394648032
 20
47.08884268684815
 10
44.01443394648032
 20
48.53647180975016
 10
44.01443394648032
 20
50.13654640787445
 10
45.01764575178504
 20
50.93649757954946
 10
46.04617900890639
 20
50.93649757954946
 10
46.74449986376657
 20
50.93649757954946
 10
47.49380813180835
 20
50.59353832399285
 10
47.97629375451765
 20
49.57775192016694
 10
47.97629375451765
 20
49.57775192016694
 10
48.01436205962966
 20
49.57775192016694
 10
48.01436205962966
 20
49.57775192016694
 10
48.4207110721149
 20
50.60628517728827
 10
49.14452563356587
 20
51.24121627521976
 10
50.14773743887065
 20
51.24121627521976
 10
51.58261970847712
 20
51.24121627521976
 10
52.54776320866984
 20
50.00942238446876
 10
52.54776320866984
 20
48.43484149293525
 10
52.54776320866984
 20
46.70798738095373
 10
51.51922995154854
 20
45.66670727053707
 10
50.31275751261404
 20
45.66670727053707
 97
        0
 97
        0
 75
     2
 76
     1
 98
        1
 10
-216.985138742176
 20
188.2657550864497
450
        0
451
        0
460
0.0
461
0.0
452
        0
462
0.0
453
        0
470

  0
SPLINE
  5
D51
330
70
100
AcDbEntity
  8
Livello 1
100
AcDbSpline
210
0.0
220
0.0
230
1.0
 70
     9
 71
     3
 72
    17
 73
    13
 74
     0
 42
0.000000001
 43
0.0000000001
 40
0.0
 40
0.0
 40
0.0
 40
0.0
 40
1.0
 40
1.0
 40
1.0
 40
2.0
 40
2.0
 40
2.0
 40
3.0
 40
3.0
 40
3.0
 40
4.0
 40
4.0
 40
4.0
 40
4.0
 10
53.96989862498106
 20
51.91473244258614
 30
0.0
 10
53.22076261171344
 20
52.19412968643997
 30
0.0
 10
51.86201695233092
 20
52.53708894199656
 30
0.0
 10
50.93511401202448
 20
52.67678756392337
 30
0.0
 10
50.93511401202448
 20
52.67678756392337
 30
0.0
 10
50.80798998861877
 20
53.92115605319566
 30
0.0
 10
50.80798998861877
 20
53.92115605319566
 30
0.0
 10
51.88751065892176
 20
53.62918421082074
 30
0.0
 10
53.29689922193745
 20
53.07038972311315
 30
0.0
 10
53.89376201475704
 20
52.71485586903546
 30
0.0
 10
53.89376201475704
 20
52.71485586903546
 30
0.0
 10
53.96989862498106
 20
51.91473244258614
 30
0.0
 10
53.96989862498106
 20
51.91473244258614
 30
0.0
  0
HATCH
  5
D52
330
70
100
AcDbEntity
  8
Livello 1
440
 33554687
100
AcDbHatch
 10
0.0
 20
0.0
 30
0.0
210
0.0
220
0.0
230
1.0
  2
SOLID
 70
     1
 71
     0
 91
        1
 92
        1
 93
        1
 72
     4
 94
        3
 73
     0
 74
     0
 95
       17
 96
       13
 40
0.0
 40
0.0
 40
0.0
 40
0.0
 40
1.0
 40
1.0
 40
1.0
 40
2.0
 40
2.0
 40
2.0
 40
3.0
 40
3.0
 40
3.0
 40
4.0
 40
4.0
 40
4.0
 40
4.0
 10
53.96989862498106
 20
51.91473244258614
 10
53.22076261171344
 20
52.19412968643997
 10
51.86201695233092
 20
52.53708894199656
 10
50.93511401202448
 20
52.67678756392337
 10
50.93511401202448
 20
52.67678756392337
 10
50.80798998861877
 20
53.92115605319566
 10
50.80798998861877
 20
53.92115605319566
 10
51.88751065892176
 20
53.62918421082074
 10
53.29689922193745
 20
53.07038972311315
 10
53.89376201475704
 20
52.71485586903546
 10
53.89376201475704
 20
52.71485586903546
 10
53.96989862498106
 20
51.91473244258614
 10
53.96989862498106
 20
51.91473244258614
 97
        0
 97
        0
 75
     2
 76
     1
 98
        1
 10
-216.985138742176
 20
188.2657550864497
450
        0
451
        0
460
0.0
461
0.0
452
        0
462
0.0
453
        0
470

  0
SPLINE
  5
D53
330
70
100
AcDbEntity
  8
Livello 1
100
AcDbSpline
210
0.0
220
0.0
230
1.0
 70
    11
 71
     3
 72
    50
 73
    46
 74
     0
 42
0.000000001
 43
0.0000000001
 40
0.0
 40
0.0
 40
0.0
 40
0.0
 40
1.0
 40
1.0
 40
1.0
 40
2.0
 40
2.0
 40
2.0
 40
3.0
 40
3.0
 40
3.0
 40
4.0
 40
4.0
 40
4.0
 40
5.0
 40
5.0
 40
5.0
 40
6.0
 40
6.0
 40
6.0
 40
7.0
 40
7.0
 40
7.0
 40
8.0
 40
8.0
 40
8.0
 40
9.0
 40
9.0
 40
9.0
 40
10.0
 40
10.0
 40
10.0
 40
11.0
 40
11.0
 40
11.0
 40
12.0
 40
12.0
 40
12.0
 40
13.0
 40
13.0
 40
13.0
 40
14.0
 40
14.0
 40
14.0
 40
15.0
 40
15.0
 40
15.0
 40
15.0
 10
45.09378236200911
 20
59.83879656820926
 30
0.0
 10
45.09378236200911
 20
59.83879656820926
 30
0.0
 10
45.09378236200911
 20
56.68963478514246
 30
0.0
 10
45.09378236200911
 20
56.68963478514246
 30
0.0
 10
45.09378236200911
 20
56.68963478514246
 30
0.0
 10
47.21441088795467
 20
56.37216923617666
 30
0.0
 10
47.21441088795467
 20
56.37216923617666
 30
0.0
 10
47.18908943613803
 20
56.56268301651095
 30
0.0
 10
47.16359572954712
 20
56.74044994354983
 30
0.0
 10
47.16359572954712
 20
57.04516863922015
 30
0.0
 10
47.16359572954712
 20
57.68009973715175
 30
0.0
 10
47.30329435147405
 20
58.31503083508327
 30
0.0
 10
47.60801304714442
 20
58.82301016438336
 30
0.0
 10
47.97629375451765
 20
59.47051586083606
 30
0.0
 10
48.68736146267327
 20
60.00398889672704
 30
0.0
 10
49.72864157308993
 20
60.00398889672704
 30
0.0
 10
51.34146302450961
 20
60.00398889672704
 30
0.0
 10
52.54776320866984
 20
58.72137984756844
 30
0.0
 10
52.54776320866984
 20
56.93096372388416
 30
0.0
 10
52.54776320866984
 20
56.02938223539425
 30
0.0
 10
52.29385967140695
 20
55.26732711405705
 30
0.0
 10
52.03978387936979
 20
54.87372495486724
 30
0.0
 10
52.03978387936979
 20
54.87372495486724
 30
0.0
 10
51.18901754928737
 20
55.15312219872095
 30
0.0
 10
51.18901754928737
 20
55.15312219872095
 30
0.0
 10
51.39227818291715
 20
55.49590919950336
 30
0.0
 10
51.64618172018004
 20
56.16908085732117
 30
0.0
 10
51.64618172018004
 20
56.91821687058876
 30
0.0
 10
51.64618172018004
 20
57.97224383430097
 30
0.0
 10
50.96043546384106
 20
58.87382532279085
 30
0.0
 10
49.85576559649564
 20
58.87382532279085
 30
0.0
 10
48.78899177948802
 20
58.86107846949537
 30
0.0
 10
48.02710891292503
 20
58.15001076133984
 30
0.0
 10
48.02710891292503
 20
56.49912100480804
 30
0.0
 10
48.02710891292503
 20
56.02938223539425
 30
0.0
 10
48.07792407133257
 20
55.66110152802105
 30
0.0
 10
48.11599237644458
 20
55.35638283235076
 30
0.0
 10
48.11599237644458
 20
55.35638283235076
 30
0.0
 10
44.15413256840714
 20
55.88968361346736
 30
0.0
 10
44.15413256840714
 20
55.88968361346736
 30
0.0
 10
44.15413256840714
 20
55.88968361346736
 30
0.0
 10
44.15413256840714
 20
59.83879656820926
 30
0.0
 10
44.15413256840714
 20
59.83879656820926
 30
0.0
 10
44.15413256840714
 20
59.83879656820926
 30
0.0
 10
45.09378236200911
 20
59.83879656820926
 30
0.0
 10
45.09378236200911
 20
59.83879656820926
 30
0.0
  0
HATCH
  5
D54
330
70
100
AcDbEntity
  8
Livello 1
440
 33554687
100
AcDbHatch
 10
0.0
 20
0.0
 30
0.0
210
0.0
220
0.0
230
1.0
  2
SOLID
 70
     1
 71
     0
 91
        1
 92
        1
 93
        1
 72
     4
 94
        3
 73
     0
 74
     0
 95
       50
 96
       46
 40
0.0
 40
0.0
 40
0.0
 40
0.0
 40
1.0
 40
1.0
 40
1.0
 40
2.0
 40
2.0
 40
2.0
 40
3.0
 40
3.0
 40
3.0
 40
4.0
 40
4.0
 40
4.0
 40
5.0
 40
5.0
 40
5.0
 40
6.0
 40
6.0
 40
6.0
 40
7.0
 40
7.0
 40
7.0
 40
8.0
 40
8.0
 40
8.0
 40
9.0
 40
9.0
 40
9.0
 40
10.0
 40
10.0
 40
10.0
 40
11.0
 40
11.0
 40
11.0
 40
12.0
 40
12.0
 40
12.0
 40
13.0
 40
13.0
 40
13.0
 40
14.0
 40
14.0
 40
14.0
 40
15.0
 40
15.0
 40
15.0
 40
15.0
 10
45.09378236200911
 20
59.83879656820926
 10
45.09378236200911
 20
59.83879656820926
 10
45.09378236200911
 20
56.68963478514246
 10
45.09378236200911
 20
56.68963478514246
 10
45.09378236200911
 20
56.68963478514246
 10
47.21441088795467
 20
56.37216923617666
 10
47.21441088795467
 20
56.37216923617666
 10
47.18908943613803
 20
56.56268301651095
 10
47.16359572954712
 20
56.74044994354983
 10
47.16359572954712
 20
57.04516863922015
 10
47.16359572954712
 20
57.68009973715175
 10
47.30329435147405
 20
58.31503083508327
 10
47.60801304714442
 20
58.82301016438336
 10
47.97629375451765
 20
59.47051586083606
 10
48.68736146267327
 20
60.00398889672704
 10
49.72864157308993
 20
60.00398889672704
 10
51.34146302450961
 20
60.00398889672704
 10
52.54776320866984
 20
58.72137984756844
 10
52.54776320866984
 20
56.93096372388416
 10
52.54776320866984
 20
56.02938223539425
 10
52.29385967140695
 20
55.26732711405705
 10
52.03978387936979
 20
54.87372495486724
 10
52.03978387936979
 20
54.87372495486724
 10
51.18901754928737
 20
55.15312219872095
 10
51.18901754928737
 20
55.15312219872095
 10
51.39227818291715
 20
55.49590919950336
 10
51.64618172018004
 20
56.16908085732117
 10
51.64618172018004
 20
56.91821687058876
 10
51.64618172018004
 20
57.97224383430097
 10
50.96043546384106
 20
58.87382532279085
 10
49.85576559649564
 20
58.87382532279085
 10
48.78899177948802
 20
58.86107846949537
 10
48.02710891292503
 20
58.15001076133984
 10
48.02710891292503
 20
56.49912100480804
 10
48.02710891292503
 20
56.02938223539425
 10
48.07792407133257
 20
55.66110152802105
 10
48.11599237644458
 20
55.35638283235076
 10
48.11599237644458
 20
55.35638283235076
 10
44.15413256840714
 20
55.88968361346736
 10
44.15413256840714
 20
55.88968361346736
 10
44.15413256840714
 20
55.88968361346736
 10
44.15413256840714
 20
59.83879656820926
 10
44.15413256840714
 20
59.83879656820926
 10
44.15413256840714
 20
59.83879656820926
 10
45.09378236200911
 20
59.83879656820926
 10
45.09378236200911
 20
59.83879656820926
 97
        0
 97
        0
 75
     2
 76
     1
 98
        1
 10
-216.985138742176
 20
188.2657550864497
450
        0
451
        0
460
0.0
461
0.0
452
        0
462
0.0
453
        0
470

  0
SPLINE
  5
D55
330
70
100
AcDbEntity
  8
Livello 1
100
AcDbSpline
210
0.0
220
0.0
230
1.0
 70
    11
 71
     3
 72
    29
 73
    25
 74
     0
 42
0.000000001
 43
0.0000000001
 40
0.0
 40
0.0
 40
0.0
 40
0.0
 40
1.0
 40
1.0
 40
1.0
 40
2.0
 40
2.0
 40
2.0
 40
3.0
 40
3.0
 40
3.0
 40
4.0
 40
4.0
 40
4.0
 40
5.0
 40
5.0
 40
5.0
 40
6.0
 40
6.0
 40
6.0
 40
7.0
 40
7.0
 40
7.0
 40
8.0
 40
8.0
 40
8.0
 40
8.0
 10
12.11939543448886
 20
12.77465812511425
 30
0.0
 10
12.11939543448886
 20
12.77465812511425
 30
0.0
 10
12.09390172789795
 20
12.77465812511425
 30
0.0
 10
12.09390172789795
 20
12.77465812511425
 30
0.0
 10
12.09390172789795
 20
12.77465812511425
 30
0.0
 10
10.65901945829136
 20
11.99985615048158
 30
0.0
 10
10.65901945829136
 20
11.99985615048158
 30
0.0
 10
10.65901945829136
 20
11.99985615048158
 30
0.0
 10
10.44318422614046
 20
12.85079473533827
 30
0.0
 10
10.44318422614046
 20
12.85079473533827
 30
0.0
 10
10.44318422614046
 20
12.85079473533827
 30
0.0
 10
12.24634720312028
 20
13.81576598075674
 30
0.0
 10
12.24634720312028
 20
13.81576598075674
 30
0.0
 10
12.24634720312028
 20
13.81576598075674
 30
0.0
 10
13.19874385001756
 20
13.81576598075674
 30
0.0
 10
13.19874385001756
 20
13.81576598075674
 30
0.0
 10
13.19874385001756
 20
13.81576598075674
 30
0.0
 10
13.19874385001756
 20
5.562006217195147
 30
0.0
 10
13.19874385001756
 20
5.562006217195147
 30
0.0
 10
13.19874385001756
 20
5.562006217195147
 30
0.0
 10
12.11939543448886
 20
5.562006217195147
 30
0.0
 10
12.11939543448886
 20
5.562006217195147
 30
0.0
 10
12.11939543448886
 20
5.562006217195147
 30
0.0
 10
12.11939543448886
 20
12.77465812511425
 30
0.0
 10
12.11939543448886
 20
12.77465812511425
 30
0.0
  0
HATCH
  5
D56
330
70
100
AcDbEntity
  8
Livello 1
440
 33554687
100
AcDbHatch
 10
0.0
 20
0.0
 30
0.0
210
0.0
220
0.0
230
1.0
  2
SOLID
 70
     1
 71
     0
 91
        1
 92
        1
 93
        1
 72
     4
 94
        3
 73
     0
 74
     0
 95
       29
 96
       25
 40
0.0
 40
0.0
 40
0.0
 40
0.0
 40
1.0
 40
1.0
 40
1.0
 40
2.0
 40
2.0
 40
2.0
 40
3.0
 40
3.0
 40
3.0
 40
4.0
 40
4.0
 40
4.0
 40
5.0
 40
5.0
 40
5.0
 40
6.0
 40
6.0
 40
6.0
 40
7.0
 40
7.0
 40
7.0
 40
8.0
 40
8.0
 40
8.0
 40
8.0
 10
12.11939543448886
 20
12.77465812511425
 10
12.11939543448886
 20
12.77465812511425
 10
12.09390172789795
 20
12.77465812511425
 10
12.09390172789795
 20
12.77465812511425
 10
12.09390172789795
 20
12.77465812511425
 10
10.65901945829136
 20
11.99985615048158
 10
10.65901945829136
 20
11.99985615048158
 10
10.65901945829136
 20
11.99985615048158
 10
10.44318422614046
 20
12.85079473533827
 10
10.44318422614046
 20
12.85079473533827
 10
10.44318422614046
 20
12.85079473533827
 10
12.24634720312028
 20
13.81576598075674
 10
12.24634720312028
 20
13.81576598075674
 10
12.24634720312028
 20
13.81576598075674
 10
13.19874385001756
 20
13.81576598075674
 10
13.19874385001756
 20
13.81576598075674
 10
13.19874385001756
 20
13.81576598075674
 10
13.19874385001756
 20
5.562006217195147
 10
13.19874385001756
 20
5.562006217195147
 10
13.19874385001756
 20
5.562006217195147
 10
12.11939543448886
 20
5.562006217195147
 10
12.11939543448886
 20
5.562006217195147
 10
12.11939543448886
 20
5.562006217195147
 10
12.11939543448886
 20
12.77465812511425
 10
12.11939543448886
 20
12.77465812511425
 97
        0
 97
        0
 75
     2
 76
     1
 98
        1
 10
-216.985138742176
 20
188.2657550864497
450
        0
451
        0
460
0.0
461
0.0
452
        0
462
0.0
453
        0
470

  0
SPLINE
  5
D57
330
70
100
AcDbEntity
  8
Livello 1
100
AcDbSpline
210
0.0
220
0.0
230
1.0
 70
    11
 71
     3
 72
    29
 73
    25
 74
     0
 42
0.000000001
 43
0.0000000001
 40
0.0
 40
0.0
 40
0.0
 40
0.0
 40
1.0
 40
1.0
 40
1.0
 40
2.0
 40
2.0
 40
2.0
 40
3.0
 40
3.0
 40
3.0
 40
4.0
 40
4.0
 40
4.0
 40
5.0
 40
5.0
 40
5.0
 40
6.0
 40
6.0
 40
6.0
 40
7.0
 40
7.0
 40
7.0
 40
8.0
 40
8.0
 40
8.0
 40
8.0
 10
21.56756980278647
 20
13.81576598075674
 30
0.0
 10
21.56756980278647
 20
13.81576598075674
 30
0.0
 10
21.56756980278647
 20
13.07920456601027
 30
0.0
 10
21.56756980278647
 20
13.07920456601027
 30
0.0
 10
21.56756980278647
 20
13.07920456601027
 30
0.0
 10
17.97381844734815
 20
5.562006217195147
 30
0.0
 10
17.97381844734815
 20
5.562006217195147
 30
0.0
 10
17.97381844734815
 20
5.562006217195147
 30
0.0
 10
16.81833342159535
 20
5.562006217195147
 30
0.0
 10
16.81833342159535
 20
5.562006217195147
 30
0.0
 10
16.81833342159535
 20
5.562006217195147
 30
0.0
 10
20.39933792373827
 20
12.86354158863366
 30
0.0
 10
20.39933792373827
 20
12.86354158863366
 30
0.0
 10
20.39933792373827
 20
12.86354158863366
 30
0.0
 10
20.39933792373827
 20
12.88903529522454
 30
0.0
 10
20.39933792373827
 20
12.88903529522454
 30
0.0
 10
20.39933792373827
 20
12.88903529522454
 30
0.0
 10
16.36116925070263
 20
12.88903529522454
 30
0.0
 10
16.36116925070263
 20
12.88903529522454
 30
0.0
 10
16.36116925070263
 20
12.88903529522454
 30
0.0
 10
16.36116925070263
 20
13.81576598075674
 30
0.0
 10
16.36116925070263
 20
13.81576598075674
 30
0.0
 10
16.36116925070263
 20
13.81576598075674
 30
0.0
 10
21.56756980278647
 20
13.81576598075674
 30
0.0
 10
21.56756980278647
 20
13.81576598075674
 30
0.0
  0
HATCH
  5
D58
330
70
100
AcDbEntity
  8
Livello 1
440
 33554687
100
AcDbHatch
 10
0.0
 20
0.0
 30
0.0
210
0.0
220
0.0
230
1.0
  2
SOLID
 70
     1
 71
     0
 91
        1
 92
        1
 93
        1
 72
     4
 94
        3
 73
     0
 74
     0
 95
       29
 96
       25
 40
0.0
 40
0.0
 40
0.0
 40
0.0
 40
1.0
 40
1.0
 40
1.0
 40
2.0
 40
2.0
 40
2.0
 40
3.0
 40
3.0
 40
3.0
 40
4.0
 40
4.0
 40
4.0
 40
5.0
 40
5.0
 40
5.0
 40
6.0
 40
6.0
 40
6.0
 40
7.0
 40
7.0
 40
7.0
 40
8.0
 40
8.0
 40
8.0
 40
8.0
 10
21.56756980278647
 20
13.81576598075674
 10
21.56756980278647
 20
13.81576598075674
 10
21.56756980278647
 20
13.07920456601027
 10
21.56756980278647
 20
13.07920456601027
 10
21.56756980278647
 20
13.07920456601027
 10
17.97381844734815
 20
5.562006217195147
 10
17.97381844734815
 20
5.562006217195147
 10
17.97381844734815
 20
5.562006217195147
 10
16.81833342159535
 20
5.562006217195147
 10
16.81833342159535
 20
5.562006217195147
 10
16.81833342159535
 20
5.562006217195147
 10
20.39933792373827
 20
12.86354158863366
 10
20.39933792373827
 20
12.86354158863366
 10
20.39933792373827
 20
12.86354158863366
 10
20.39933792373827
 20
12.88903529522454
 10
20.39933792373827
 20
12.88903529522454
 10
20.39933792373827
 20
12.88903529522454
 10
16.36116925070263
 20
12.88903529522454
 10
16.36116925070263
 20
12.88903529522454
 10
16.36116925070263
 20
12.88903529522454
 10
16.36116925070263
 20
13.81576598075674
 10
16.36116925070263
 20
13.81576598075674
 10
16.36116925070263
 20
13.81576598075674
 10
21.56756980278647
 20
13.81576598075674
 10
21.56756980278647
 20
13.81576598075674
 97
        0
 97
        0
 75
     2
 76
     1
 98
        1
 10
-216.985138742176
 20
188.2657550864497
450
        0
451
        0
460
0.0
461
0.0
452
        0
462
0.0
453
        0
470

  0
SPLINE
  5
D59
330
70
100
AcDbEntity
  8
Livello 1
100
AcDbSpline
210
0.0
220
0.0
230
1.0
 70
     9
 71
     3
 72
    17
 73
    13
 74
     0
 42
0.000000001
 43
0.0000000001
 40
0.0
 40
0.0
 40
0.0
 40
0.0
 40
1.0
 40
1.0
 40
1.0
 40
2.0
 40
2.0
 40
2.0
 40
3.0
 40
3.0
 40
3.0
 40
4.0
 40
4.0
 40
4.0
 40
4.0
 10
22.35529088548887
 20
3.999999924182844
 30
0.0
 10
22.63468812934263
 20
4.749308192224759
 30
0.0
 10
22.97764738489926
 20
6.10805385160728
 30
0.0
 10
23.11734600682616
 20
7.034784537139444
 30
0.0
 10
23.11734600682616
 20
7.034784537139444
 30
0.0
 10
24.36171449609839
 20
7.161908560545185
 30
0.0
 10
24.36171449609839
 20
7.161908560545185
 30
0.0
 10
24.06974265372347
 20
6.082560145016344
 30
0.0
 10
23.51094816601594
 20
4.673171582000662
 30
0.0
 10
23.15541431193813
 20
4.076136534406828
 30
0.0
 10
23.15541431193813
 20
4.076136534406828
 30
0.0
 10
22.35529088548887
 20
3.999999924182844
 30
0.0
 10
22.35529088548887
 20
3.999999924182844
 30
0.0
  0
HATCH
  5
D5A
330
70
100
AcDbEntity
  8
Livello 1
440
 33554687
100
AcDbHatch
 10
0.0
 20
0.0
 30
0.0
210
0.0
220
0.0
230
1.0
  2
SOLID
 70
     1
 71
     0
 91
        1
 92
        1
 93
        1
 72
     4
 94
        3
 73
     0
 74
     0
 95
       17
 96
       13
 40
0.0
 40
0.0
 40
0.0
 40
0.0
 40
1.0
 40
1.0
 40
1.0
 40
2.0
 40
2.0
 40
2.0
 40
3.0
 40
3.0
 40
3.0
 40
4.0
 40
4.0
 40
4.0
 40
4.0
 10
22.35529088548887
 20
3.999999924182844
 10
22.63468812934263
 20
4.749308192224759
 10
22.97764738489926
 20
6.10805385160728
 10
23.11734600682616
 20
7.034784537139444
 10
23.11734600682616
 20
7.034784537139444
 10
24.36171449609839
 20
7.161908560545185
 10
24.36171449609839
 20
7.161908560545185
 10
24.06974265372347
 20
6.082560145016344
 10
23.51094816601594
 20
4.673171582000662
 10
23.15541431193813
 20
4.076136534406828
 10
23.15541431193813
 20
4.076136534406828
 10
22.35529088548887
 20
3.999999924182844
 10
22.35529088548887
 20
3.999999924182844
 97
        0
 97
        0
 75
     2
 76
     1
 98
        1
 10
-216.985138742176
 20
188.2657550864497
450
        0
451
        0
460
0.0
461
0.0
452
        0
462
0.0
453
        0
470

  0
SPLINE
  5
D5B
330
70
100
AcDbEntity
  8
Livello 1
100
AcDbSpline
210
0.0
220
0.0
230
1.0
 70
    11
 71
     3
 72
    50
 73
    46
 74
     0
 42
0.000000001
 43
0.0000000001
 40
0.0
 40
0.0
 40
0.0
 40
0.0
 40
1.0
 40
1.0
 40
1.0
 40
2.0
 40
2.0
 40
2.0
 40
3.0
 40
3.0
 40
3.0
 40
4.0
 40
4.0
 40
4.0
 40
5.0
 40
5.0
 40
5.0
 40
6.0
 40
6.0
 40
6.0
 40
7.0
 40
7.0
 40
7.0
 40
8.0
 40
8.0
 40
8.0
 40
9.0
 40
9.0
 40
9.0
 40
10.0
 40
10.0
 40
10.0
 40
11.0
 40
11.0
 40
11.0
 40
12.0
 40
12.0
 40
12.0
 40
13.0
 40
13.0
 40
13.0
 40
14.0
 40
14.0
 40
14.0
 40
15.0
 40
15.0
 40
15.0
 40
15.0
 10
30.27935501111196
 20
12.87628844192906
 30
0.0
 10
30.27935501111196
 20
12.87628844192906
 30
0.0
 10
27.13019322804513
 20
12.87628844192906
 30
0.0
 10
27.13019322804513
 20
12.87628844192906
 30
0.0
 10
27.13019322804513
 20
12.87628844192906
 30
0.0
 10
26.81272767907936
 20
10.75548766120923
 30
0.0
 10
26.81272767907936
 20
10.75548766120923
 30
0.0
 10
27.00324145941366
 20
10.78098136780016
 30
0.0
 10
27.18100838645253
 20
10.80647507439093
 30
0.0
 10
27.48572708212297
 20
10.80647507439093
 30
0.0
 10
28.12065818005445
 20
10.80647507439093
 30
0.0
 10
28.75558927798596
 20
10.66660419768985
 30
0.0
 10
29.26356860728603
 20
10.36205775679377
 30
0.0
 10
29.91107430373876
 20
9.993777049420572
 30
0.0
 10
30.44454733962977
 20
9.282709341264933
 30
0.0
 10
30.44454733962977
 20
8.241256976073941
 30
0.0
 10
30.44454733962977
 20
6.628607779428591
 30
0.0
 10
29.16193829047129
 20
5.422135340494065
 30
0.0
 10
27.37152216678686
 20
5.422135340494065
 30
0.0
 10
26.46994067829707
 20
5.422135340494065
 30
0.0
 10
25.70788555695978
 20
5.676038877756951
 30
0.0
 10
25.31428339776994
 20
5.930286924568349
 30
0.0
 10
25.31428339776994
 20
5.930286924568349
 30
0.0
 10
25.59368064162365
 20
6.780880999876586
 30
0.0
 10
25.59368064162365
 20
6.780880999876586
 30
0.0
 10
25.93646764240606
 20
6.577620366246748
 30
0.0
 10
26.60963930022385
 20
6.323716828983862
 30
0.0
 10
27.35877531349144
 20
6.323716828983862
 30
0.0
 10
28.41280227720364
 20
6.323716828983862
 30
0.0
 10
29.31438376569355
 20
7.00963534009719
 30
0.0
 10
29.31438376569355
 20
8.114132952668256
 30
0.0
 10
29.30163691239804
 20
9.181079024450156
 30
0.0
 10
28.59056920424257
 20
9.942789636238842
 30
0.0
 10
26.93967944771078
 20
9.942789636238842
 30
0.0
 10
26.46994067829707
 20
9.942789636238842
 30
0.0
 10
26.10165997092378
 20
9.892146732605652
 30
0.0
 10
25.79694127525346
 20
9.853906172719376
 30
0.0
 10
25.79694127525346
 20
9.853906172719376
 30
0.0
 10
26.33024205637005
 20
13.81576598075674
 30
0.0
 10
26.33024205637005
 20
13.81576598075674
 30
0.0
 10
26.33024205637005
 20
13.81576598075674
 30
0.0
 10
30.27935501111196
 20
13.81576598075674
 30
0.0
 10
30.27935501111196
 20
13.81576598075674
 30
0.0
 10
30.27935501111196
 20
13.81576598075674
 30
0.0
 10
30.27935501111196
 20
12.87628844192906
 30
0.0
 10
30.27935501111196
 20
12.87628844192906
 30
0.0
  0
HATCH
  5
D5C
330
70
100
AcDbEntity
  8
Livello 1
440
 33554687
100
AcDbHatch
 10
0.0
 20
0.0
 30
0.0
210
0.0
220
0.0
230
1.0
  2
SOLID
 70
     1
 71
     0
 91
        1
 92
        1
 93
        1
 72
     4
 94
        3
 73
     0
 74
     0
 95
       50
 96
       46
 40
0.0
 40
0.0
 40
0.0
 40
0.0
 40
1.0
 40
1.0
 40
1.0
 40
2.0
 40
2.0
 40
2.0
 40
3.0
 40
3.0
 40
3.0
 40
4.0
 40
4.0
 40
4.0
 40
5.0
 40
5.0
 40
5.0
 40
6.0
 40
6.0
 40
6.0
 40
7.0
 40
7.0
 40
7.0
 40
8.0
 40
8.0
 40
8.0
 40
9.0
 40
9.0
 40
9.0
 40
10.0
 40
10.0
 40
10.0
 40
11.0
 40
11.0
 40
11.0
 40
12.0
 40
12.0
 40
12.0
 40
13.0
 40
13.0
 40
13.0
 40
14.0
 40
14.0
 40
14.0
 40
15.0
 40
15.0
 40
15.0
 40
15.0
 10
30.27935501111196
 20
12.87628844192906
 10
30.27935501111196
 20
12.87628844192906
 10
27.13019322804513
 20
12.87628844192906
 10
27.13019322804513
 20
12.87628844192906
 10
27.13019322804513
 20
12.87628844192906
 10
26.81272767907936
 20
10.75548766120923
 10
26.81272767907936
 20
10.75548766120923
 10
27.00324145941366
 20
10.78098136780016
 10
27.18100838645253
 20
10.80647507439093
 10
27.48572708212297
 20
10.80647507439093
 10
28.12065818005445
 20
10.80647507439093
 10
28.75558927798596
 20
10.66660419768985
 10
29.26356860728603
 20
10.36205775679377
 10
29.91107430373876
 20
9.993777049420572
 10
30.44454733962977
 20
9.282709341264933
 10
30.44454733962977
 20
8.241256976073941
 10
30.44454733962977
 20
6.628607779428591
 10
29.16193829047129
 20
5.422135340494065
 10
27.37152216678686
 20
5.422135340494065
 10
26.46994067829707
 20
5.422135340494065
 10
25.70788555695978
 20
5.676038877756951
 10
25.31428339776994
 20
5.930286924568349
 10
25.31428339776994
 20
5.930286924568349
 10
25.59368064162365
 20
6.780880999876586
 10
25.59368064162365
 20
6.780880999876586
 10
25.93646764240606
 20
6.577620366246748
 10
26.60963930022385
 20
6.323716828983862
 10
27.35877531349144
 20
6.323716828983862
 10
28.41280227720364
 20
6.323716828983862
 10
29.31438376569355
 20
7.00963534009719
 10
29.31438376569355
 20
8.114132952668256
 10
29.30163691239804
 20
9.181079024450156
 10
28.59056920424257
 20
9.942789636238842
 10
26.93967944771078
 20
9.942789636238842
 10
26.46994067829707
 20
9.942789636238842
 10
26.10165997092378
 20
9.892146732605652
 10
25.79694127525346
 20
9.853906172719376
 10
25.79694127525346
 20
9.853906172719376
 10
26.33024205637005
 20
13.81576598075674
 10
26.33024205637005
 20
13.81576598075674
 10
26.33024205637005
 20
13.81576598075674
 10
30.27935501111196
 20
13.81576598075674
 10
30.27935501111196
 20
13.81576598075674
 10
30.27935501111196
 20
13.81576598075674
 10
30.27935501111196
 20
12.87628844192906
 10
30.27935501111196
 20
12.87628844192906
 97
        0
 97
        0
 75
     2
 76
     1
 98
        1
 10
-216.985138742176
 20
188.2657550864497
450
        0
451
        0
460
0.0
461
0.0
452
        0
462
0.0
453
        0
470

  0
ENDSEC
  0
SECTION
  2
OBJECTS
  0
DICTIONARY
  5
C
330
0
100
AcDbDictionary
281
     1
  3
ACAD_CIP_PREVIOUS_PRODUCT_INFO
350
59B
  3
ACAD_COLOR
350
63
  3
ACAD_DETAILVIEWSTYLE
350
6A
  3
ACAD_GROUP
350
D
  3
ACAD_LAYOUT
350
62
  3
ACAD_MATERIAL
350
10
  3
ACAD_MLEADERSTYLE
350
66
  3
ACAD_MLINESTYLE
350
5F
  3
ACAD_PLOTSETTINGS
350
61
  3
ACAD_PLOTSTYLENAME
350
E
  3
ACAD_SCALELIST
350
42
  3
ACAD_SECTIONVIEWSTYLE
350
68
  3
ACAD_TABLESTYLE
350
64
  3
ACAD_VISUALSTYLE
350
29
  3
ACDB_RECOMPOSE_DATA
350
D64
  3
AcDbVariableDictionary
350
558
  0
DICTIONARY
  5
59D
330
70
100
AcDbDictionary
280
     1
281
     1
  3
ACAD_SORTENTS
360
59E
  0
XRECORD
  5
59B
102
{ACAD_REACTORS
330
C
102
}
330
C
100
AcDbXrecord
280
     1
300
ACD
300
2019
300
ACD_F_S
  0
DICTIONARY
  5
63
102
{ACAD_REACTORS
330
C
102
}
330
C
100
AcDbDictionary
281
     1
  0
DICTIONARY
  5
6A
102
{ACAD_REACTORS
330
C
102
}
330
C
100
AcDbDictionary
281
     1
  3
Imperial24
350
6B
  0
DICTIONARY
  5
D
102
{ACAD_REACTORS
330
C
102
}
330
C
100
AcDbDictionary
281
     1
  0
DICTIONARY
  5
62
102
{ACAD_REACTORS
330
C
102
}
330
C
100
AcDbDictionary
281
     1
  3
Layout1
350
6F
  3
Layout2
350
77
  3
Model
350
73
  0
DICTIONARY
  5
10
102
{ACAD_REACTORS
330
C
102
}
330
C
100
AcDbDictionary
281
     1
  3
ByBlock
350
19
  3
ByLayer
350
11
  3
Global
350
21
  0
DICTIONARY
  5
66
102
{ACAD_REACTORS
330
C
102
}
330
C
100
AcDbDictionary
281
     1
  3
Standard
350
67
  0
DICTIONARY
  5
5F
102
{ACAD_REACTORS
330
C
102
}
330
C
100
AcDbDictionary
281
     1
  3
Standard
350
60
  0
DICTIONARY
  5
61
102
{ACAD_REACTORS
330
C
102
}
330
C
100
AcDbDictionary
281
     1
  0
ACDBDICTIONARYWDFLT
  5
E
102
{ACAD_REACTORS
330
C
102
}
330
C
100
AcDbDictionary
281
     1
  3
Normal
350
F
100
AcDbDictionaryWithDefault
340
F
  0
DICTIONARY
  5
42
102
{ACAD_REACTORS
330
C
102
}
330
C
100
AcDbDictionary
281
     1
  3
A0
350
43
  3
A1
350
44
  3
A2
350
45
  3
A3
350
46
  3
A4
350
47
  3
A5
350
48
  3
A6
350
49
  3
A7
350
4A
  3
A8
350
4B
  3
A9
350
4C
  3
B0
350
4D
  3
B1
350
4E
  3
B2
350
4F
  3
B3
350
50
  3
B4
350
51
  3
B5
350
52
  3
B6
350
53
  0
DICTIONARY
  5
68
102
{ACAD_REACTORS
330
C
102
}
330
C
100
AcDbDictionary
281
     1
  3
Imperial24
350
69
  0
DICTIONARY
  5
64
102
{ACAD_REACTORS
330
C
102
}
330
C
100
AcDbDictionary
281
     1
  3
Standard
350
65
  0
DICTIONARY
  5
29
102
{ACAD_REACTORS
330
C
102
}
330
C
100
AcDbDictionary
281
     1
  3
2dWireframe
350
2F
  3
Basic
350
2E
  3
Brighten
350
35
  3
ColorChange
350
39
  3
Conceptual
350
32
  3
Dim
350
34
  3
EdgeColorOff
350
41
  3
Facepattern
350
38
  3
Flat
350
2A
  3
FlatWithEdges
350
2B
  3
Gouraud
350
2C
  3
GouraudWithEdges
350
2D
  3
Hidden
350
31
  3
JitterOff
350
3F
  3
Linepattern
350
37
  3
OverhangOff
350
40
  3
Realistic
350
33
  3
Shaded
350
3E
  3
Shaded with edges
350
3D
  3
Shades of Gray
350
3A
  3
Sketchy
350
3B
  3
Thicken
350
36
  3
Wireframe
350
30
  3
X-Ray
350
3C
  0
XRECORD
  5
D64
102
{ACAD_REACTORS
330
C
102
}
330
C
100
AcDbXrecord
280
     1
 90
        1
330
65
  0
DICTIONARY
  5
558
102
{ACAD_REACTORS
330
C
102
}
330
C
100
AcDbDictionary
281
     1
  3
CANNOSCALE
350
55D
  3
CMLEADERSTYLE
350
55A
  3
CTABLESTYLE
350
559
  3
CVIEWDETAILSTYLE
350
55B
  3
CVIEWSECTIONSTYLE
350
55C
  0
SORTENTSTABLE
  5
59E
102
{ACAD_REACTORS
330
59D
102
}
330
59D
100
AcDbSortentsTable
330
70
  0
ACDBDETAILVIEWSTYLE
  5
6B
102
{ACAD_XDICTIONARY
360
D67
102
}
102
{ACAD_REACTORS
330
6A
102
}
330
6A
100
AcDbModelDocViewStyle
 70
     0
  3
Imperial24
290
     0
100
AcDbDetailViewStyle
 70
     0
 71
     0
 90
        3
 71
     1
340
55
 62
   256
 40
0.24
340
0
 62
   256
 40
0.24
300

 40
0.36
280
     3
 71
     2
340
5D
 90
       25
 62
   256
 71
     3
340
55
 62
   256
 40
0.24
 90
        1
 40
0.75
 90
        1
300
%<\AcVar ViewType \f "%tc1">% %<\AcVar ViewDetailId>%\PSCALE %<\AcVar ViewScale \f "%sn">%
 71
     4
340
5D
 90
       25
 62
   256
340
5D
 90
       25
 62
   256
280
     0
  0
LAYOUT
  5
6F
102
{ACAD_REACTORS
330
62
102
}
330
62
100
AcDbPlotSettings
  1

  2

  4

  6

 40
0.0
 41
0.0
 42
0.0
 43
0.0
 44
0.0
 45
0.0
 46
0.0
 47
0.0
 48
0.0
 49
0.0
140
0.0
141
0.0
142
1.0
143
1.0
 70
   688
 72
     0
 73
     0
 74
     5
  7

 75
    16
147
1.0
 76
     0
 77
     2
 78
   300
148
0.0
149
0.0
100
AcDbLayout
  1
Layout1
 70
     1
 71
     1
 10
0.0
 20
0.0
 11
12.0
 21
9.0
 12
0.0
 22
0.0
 32
0.0
 14
1.000000000000000E+20
 24
1.000000000000000E+20
 34
1.000000000000000E+20
 15
-1.000000000000000E+20
 25
-1.000000000000000E+20
 35
-1.000000000000000E+20
146
0.0
 13
0.0
 23
0.0
 33
0.0
 16
1.0
 26
0.0
 36
0.0
 17
0.0
 27
1.0
 37
0.0
 76
     0
330
6C
  0
LAYOUT
  5
77
102
{ACAD_REACTORS
330
62
102
}
330
62
100
AcDbPlotSettings
  1

  2

  4

  6

 40
0.0
 41
0.0
 42
0.0
 43
0.0
 44
0.0
 45
0.0
 46
0.0
 47
0.0
 48
0.0
 49
0.0
140
0.0
141
0.0
142
1.0
143
1.0
 70
   688
 72
     0
 73
     0
 74
     5
  7

 75
    16
147
1.0
 76
     0
 77
     2
 78
   300
148
0.0
149
0.0
100
AcDbLayout
  1
Layout2
 70
     1
 71
     2
 10
0.0
 20
0.0
 11
12.0
 21
9.0
 12
0.0
 22
0.0
 32
0.0
 14
0.0
 24
0.0
 34
0.0
 15
0.0
 25
0.0
 35
0.0
146
0.0
 13
0.0
 23
0.0
 33
0.0
 16
1.0
 26
0.0
 36
0.0
 17
0.0
 27
1.0
 37
0.0
 76
     0
330
74
  0
LAYOUT
  5
73
102
{ACAD_REACTORS
330
62
102
}
330
62
100
AcDbPlotSettings
  1

  2

  4

  6

 40
0.0
 41
0.0
 42
0.0
 43
0.0
 44
0.0
 45
0.0
 46
0.0
 47
0.0
 48
0.0
 49
0.0
140
0.0
141
0.0
142
1.0
143
1.0
 70
  1712
 72
     0
 73
     0
 74
     0
  7

 75
     0
147
1.0
 76
     0
 77
     2
 78
   300
148
0.0
149
0.0
100
AcDbLayout
  1
Model
 70
     1
 71
     0
 10
0.0
 20
0.0
 11
12.0
 21
9.0
 12
0.0
 22
0.0
 32
0.0
 14
0.0
 24
0.0
 34
0.0
 15
0.0
 25
0.0
 35
0.0
146
0.0
 13
0.0
 23
0.0
 33
0.0
 16
1.0
 26
0.0
 36
0.0
 17
0.0
 27
1.0
 37
0.0
 76
     0
330
70
331
57
  0
MATERIAL
  5
19
102
{ACAD_XDICTIONARY
360
1A
102
}
102
{ACAD_REACTORS
330
10
102
}
330
10
100
AcDbMaterial
  1
ByBlock
 72
     0
 43
0.0208333333333333
 43
0.0
 43
0.0
 43
0.0
 43
0.0
 43
0.0208333333333333
 43
0.0
 43
0.0
 43
0.0
 43
0.0
 43
1.0
 43
0.0
 43
0.0
 43
0.0
 43
0.0
 43
1.0
 77
     0
 47
0.0208333333333333
 47
0.0
 47
0.0
 47
0.0
 47
0.0
 47
0.0208333333333333
 47
0.0
 47
0.0
 47
0.0
 47
0.0
 47
1.0
 47
0.0
 47
0.0
 47
0.0
 47
0.0
 47
1.0
171
     0
 49
0.0208333333333333
 49
0.0
 49
0.0
 49
0.0
 49
0.0
 49
0.0208333333333333
 49
0.0
 49
0.0
 49
0.0
 49
0.0
 49
1.0
 49
0.0
 49
0.0
 49
0.0
 49
0.0
 49
1.0
175
     0
142
0.0208333333333333
142
0.0
142
0.0
142
0.0
142
0.0
142
0.0208333333333333
142
0.0
142
0.0
142
0.0
142
0.0
142
1.0
142
0.0
142
0.0
142
0.0
142
0.0
142
1.0
179
     0
144
0.0208333333333333
144
0.0
144
0.0
144
0.0
144
0.0
144
0.0208333333333333
144
0.0
144
0.0
144
0.0
144
0.0
144
1.0
144
0.0
144
0.0
144
0.0
144
0.0
144
1.0
147
0.0208333333333333
147
0.0
147
0.0
147
0.0
147
0.0
147
0.0208333333333333
147
0.0
147
0.0
147
0.0
147
0.0
147
1.0
147
0.0
147
0.0
147
0.0
147
0.0
147
1.0
  0
MATERIAL
  5
11
102
{ACAD_XDICTIONARY
360
12
102
}
102
{ACAD_REACTORS
330
10
102
}
330
10
100
AcDbMaterial
  1
ByLayer
 72
     0
 43
0.0208333333333333
 43
0.0
 43
0.0
 43
0.0
 43
0.0
 43
0.0208333333333333
 43
0.0
 43
0.0
 43
0.0
 43
0.0
 43
1.0
 43
0.0
 43
0.0
 43
0.0
 43
0.0
 43
1.0
 77
     0
 47
0.0208333333333333
 47
0.0
 47
0.0
 47
0.0
 47
0.0
 47
0.0208333333333333
 47
0.0
 47
0.0
 47
0.0
 47
0.0
 47
1.0
 47
0.0
 47
0.0
 47
0.0
 47
0.0
 47
1.0
171
     0
 49
0.0208333333333333
 49
0.0
 49
0.0
 49
0.0
 49
0.0
 49
0.0208333333333333
 49
0.0
 49
0.0
 49
0.0
 49
0.0
 49
1.0
 49
0.0
 49
0.0
 49
0.0
 49
0.0
 49
1.0
175
     0
142
0.0208333333333333
142
0.0
142
0.0
142
0.0
142
0.0
142
0.0208333333333333
142
0.0
142
0.0
142
0.0
142
0.0
142
1.0
142
0.0
142
0.0
142
0.0
142
0.0
142
1.0
179
     0
144
0.0208333333333333
144
0.0
144
0.0
144
0.0
144
0.0
144
0.0208333333333333
144
0.0
144
0.0
144
0.0
144
0.0
144
1.0
144
0.0
144
0.0
144
0.0
144
0.0
144
1.0
147
0.0208333333333333
147
0.0
147
0.0
147
0.0
147
0.0
147
0.0208333333333333
147
0.0
147
0.0
147
0.0
147
0.0
147
1.0
147
0.0
147
0.0
147
0.0
147
0.0
147
1.0
  0
MATERIAL
  5
21
102
{ACAD_XDICTIONARY
360
22
102
}
102
{ACAD_REACTORS
330
10
102
}
330
10
100
AcDbMaterial
  1
Global
 72
     0
 43
0.0208333333333333
 43
0.0
 43
0.0
 43
0.0
 43
0.0
 43
0.0208333333333333
 43
0.0
 43
0.0
 43
0.0
 43
0.0
 43
1.0
 43
0.0
 43
0.0
 43
0.0
 43
0.0
 43
1.0
 77
     0
 47
0.0208333333333333
 47
0.0
 47
0.0
 47
0.0
 47
0.0
 47
0.0208333333333333
 47
0.0
 47
0.0
 47
0.0
 47
0.0
 47
1.0
 47
0.0
 47
0.0
 47
0.0
 47
0.0
 47
1.0
171
     0
 49
0.0208333333333333
 49
0.0
 49
0.0
 49
0.0
 49
0.0
 49
0.0208333333333333
 49
0.0
 49
0.0
 49
0.0
 49
0.0
 49
1.0
 49
0.0
 49
0.0
 49
0.0
 49
0.0
 49
1.0
175
     0
142
0.0208333333333333
142
0.0
142
0.0
142
0.0
142
0.0
142
0.0208333333333333
142
0.0
142
0.0
142
0.0
142
0.0
142
1.0
142
0.0
142
0.0
142
0.0
142
0.0
142
1.0
179
     0
144
0.0208333333333333
144
0.0
144
0.0
144
0.0
144
0.0
144
0.0208333333333333
144
0.0
144
0.0
144
0.0
144
0.0
144
1.0
144
0.0
144
0.0
144
0.0
144
0.0
144
1.0
147
0.0208333333333333
147
0.0
147
0.0
147
0.0
147
0.0
147
0.0208333333333333
147
0.0
147
0.0
147
0.0
147
0.0
147
1.0
147
0.0
147
0.0
147
0.0
147
0.0
147
1.0
  0
MLEADERSTYLE
  5
67
102
{ACAD_REACTORS
330
66
102
}
330
66
100
AcDbMLeaderStyle
179
     2
170
     2
171
     1
172
     0
 90
        2
 40
0.0
 41
0.0
173
     1
 91
-1056964608
340
5B
 92
       -2
290
     1
 42
0.09
291
     1
 43
0.36
  3
Standard
 44
0.18
300

342
55
174
     1
178
     6
175
     1
176
     0
 93
-1056964608
 45
0.18
292
     0
297
     0
 46
0.18
 94
-1056964608
 47
1.0
 49
1.0
140
1.0
293
     1
141
0.0
294
     1
177
     0
142
1.0
295
     0
296
     0
143
0.125
271
     0
272
     9
273
     9
298
     1
  0
MLINESTYLE
  5
60
102
{ACAD_REACTORS
330
5F
102
}
330
5F
100
AcDbMlineStyle
  2
STANDARD
 70
     0
  3

 62
   256
 51
90.0
 52
90.0
 71
     2
 49
0.5
 62
   256
  6
BYLAYER
 49
-0.5
 62
   256
  6
BYLAYER
  0
ACDBPLACEHOLDER
  5
F
102
{ACAD_REACTORS
330
E
102
}
330
E
  0
SCALE
  5
43
102
{ACAD_REACTORS
330
42
102
}
330
42
100
AcDbScale
 70
     0
300
1:1
140
1.0
141
1.0
290
     1
  0
SCALE
  5
44
102
{ACAD_REACTORS
330
42
102
}
330
42
100
AcDbScale
 70
     0
300
1/128" = 1'-0"
140
0.0078125
141
12.0
290
     0
  0
SCALE
  5
45
102
{ACAD_REACTORS
330
42
102
}
330
42
100
AcDbScale
 70
     0
300
1/64" = 1'-0"
140
0.015625
141
12.0
290
     0
  0
SCALE
  5
46
102
{ACAD_REACTORS
330
42
102
}
330
42
100
AcDbScale
 70
     0
300
1/32" = 1'-0"
140
0.03125
141
12.0
290
     0
  0
SCALE
  5
47
102
{ACAD_REACTORS
330
42
102
}
330
42
100
AcDbScale
 70
     0
300
1/16" = 1'-0"
140
0.0625
141
12.0
290
     0
  0
SCALE
  5
48
102
{ACAD_REACTORS
330
42
102
}
330
42
100
AcDbScale
 70
     0
300
3/32" = 1'-0"
140
0.09375
141
12.0
290
     0
  0
SCALE
  5
49
102
{ACAD_REACTORS
330
42
102
}
330
42
100
AcDbScale
 70
     0
300
1/8" = 1'-0"
140
0.125
141
12.0
290
     0
  0
SCALE
  5
4A
102
{ACAD_REACTORS
330
42
102
}
330
42
100
AcDbScale
 70
     0
300
3/16" = 1'-0"
140
0.1875
141
12.0
290
     0
  0
SCALE
  5
4B
102
{ACAD_REACTORS
330
42
102
}
330
42
100
AcDbScale
 70
     0
300
1/4" = 1'-0"
140
0.25
141
12.0
290
     0
  0
SCALE
  5
4C
102
{ACAD_REACTORS
330
42
102
}
330
42
100
AcDbScale
 70
     0
300
3/8" = 1'-0"
140
0.375
141
12.0
290
     0
  0
SCALE
  5
4D
102
{ACAD_REACTORS
330
42
102
}
330
42
100
AcDbScale
 70
     0
300
1/2" = 1'-0"
140
0.5
141
12.0
290
     0
  0
SCALE
  5
4E
102
{ACAD_REACTORS
330
42
102
}
330
42
100
AcDbScale
 70
     0
300
3/4" = 1'-0"
140
0.75
141
12.0
290
     0
  0
SCALE
  5
4F
102
{ACAD_REACTORS
330
42
102
}
330
42
100
AcDbScale
 70
     0
300
1" = 1'-0"
140
1.0
141
12.0
290
     0
  0
SCALE
  5
50
102
{ACAD_REACTORS
330
42
102
}
330
42
100
AcDbScale
 70
     0
300
1-1/2" = 1'-0"
140
1.5
141
12.0
290
     0
  0
SCALE
  5
51
102
{ACAD_REACTORS
330
42
102
}
330
42
100
AcDbScale
 70
     0
300
3" = 1'-0"
140
3.0
141
12.0
290
     0
  0
SCALE
  5
52
102
{ACAD_REACTORS
330
42
102
}
330
42
100
AcDbScale
 70
     0
300
6" = 1'-0"
140
6.0
141
12.0
290
     0
  0
SCALE
  5
53
102
{ACAD_REACTORS
330
42
102
}
330
42
100
AcDbScale
 70
     0
300
1'-0" = 1'-0"
140
12.0
141
12.0
290
     0
  0
ACDBSECTIONVIEWSTYLE
  5
69
102
{ACAD_XDICTIONARY
360
D65
102
}
102
{ACAD_REACTORS
330
68
102
}
330
68
100
AcDbModelDocViewStyle
 70
     0
  3
Imperial24
290
     0
100
AcDbSectionViewStyle
 70
     0
 71
     0
 90
       78
 71
     1
340
55
 62
   256
 40
0.24
340
0
340
0
 62
   256
 40
0.24
300
I, O, Q, S, X, Z
 40
0.48
 90
        3
 40
0.18
 90
        1
 71
     2
340
5D
 90
       25
 62
   256
340
5D
 90
       50
 62
   256
 40
0.24
 40
0.0
 40
0.24
 71
     3
340
55
 62
   256
 40
0.24
 90
        1
 40
0.75
 90
        1
300
%<\AcVar ViewType \f "%tc1">% %<\AcVar ViewSectionStartId>%-%<\AcVar ViewSectionEndId>%\PSCALE %<\AcVar ViewScale \f "%sn">%
 71
     4
 62
   256
 62
   257
300
ANSI31
 40
1.0
 90
        0
290
     0
290
     0
 90
        6
 40
0.0
 40
1.570796326794896
 40
0.2617993877991494
 40
1.308996938995747
 40
-0.2617993877991494
 40
1.832595714594045
  0
TABLESTYLE
  5
65
102
{ACAD_XDICTIONARY
360
55E
102
}
102
{ACAD_REACTORS
330
64
102
}
330
64
100
AcDbTableStyle
280
     0
  3
Standard
 70
     0
 71
     0
 40
0.06
 41
0.06
280
     0
281
     0
  7
Standard
140
0.18
170
     2
 62
     0
 63
     7
283
     0
 90
      512
 91
        0
  1

274
    -2
284
     1
 64
     0
275
    -2
285
     1
 65
     0
276
    -2
286
     1
 66
     0
277
    -2
287
     1
 67
     0
278
    -2
288
     1
 68
     0
279
    -2
289
     1
 69
     0
  7
Standard
140
0.25
170
     5
 62
     0
 63
     7
283
     0
 90
      512
 91
        0
  1

274
    -2
284
     1
 64
     0
275
    -2
285
     1
 65
     0
276
    -2
286
     1
 66
     0
277
    -2
287
     1
 67
     0
278
    -2
288
     1
 68
     0
279
    -2
289
     1
 69
     0
  7
Standard
140
0.18
170
     5
 62
     0
 63
     7
283
     0
 90
      512
 91
        0
  1

274
    -2
284
     1
 64
     0
275
    -2
285
     1
 65
     0
276
    -2
286
     1
 66
     0
277
    -2
287
     1
 67
     0
278
    -2
288
     1
 68
     0
279
    -2
289
     1
 69
     0
  0
VISUALSTYLE
  5
2F
102
{ACAD_REACTORS
330
29
102
}
330
29
100
AcDbVisualStyle
  2
2dWireframe
 70
     4
177
     3
291
     0
 70
    58
 90
        0
176
     1
 90
        2
176
     1
 90
        0
176
     1
 90
        0
176
     1
 40
0.6
176
     1
 40
30.0
176
     1
 62
     7
420
 16777215
176
     1
 90
        1
176
     1
 90
        4
176
     1
 62
     7
176
     1
 62
   257
176
     1
 90
        1
176
     1
 90
        1
176
     1
 40
1.0
176
     1
 90
        0
176
     1
 62
   257
176
     1
 40
1.0
176
     1
 90
        1
176
     1
 90
        6
176
     1
 90
        2
176
     1
 62
     7
176
     1
 90
        5
176
     1
 90
        0
176
     1
 90
        0
176
     1
290
     0
176
     1
 90
        1
176
     1
 40
0.0
176
     1
 90
        0
176
     1
290
     1
176
     1
290
     1
176
     1
290
     0
176
     1
290
     0
176
     1
290
     0
176
     1
290
     0
176
     1
290
     0
176
     1
290
     0
176
     1
290
     0
176
     1
 90
       50
176
     1
 40
0.0
176
     1
 40
1.0
176
     1
 90
        0
176
     1
 62
    18
420
        0
176
     1
 90
       50
176
     1
 90
        3
176
     1
 62
     5
420
      255
176
     1
290
     0
176
     1
 90
       50
176
     1
 90
       50
176
     1
 90
       50
176
     1
290
     0
176
     1
 90
       50
176
     1
 62
   256
176
     0
 40
1.0
176
     0
 90
        2
176
     1
  1
strokes_ogs.tif
176
     1
290
     0
176
     1
 40
1.0
176
     1
 40
1.0
176
     1
1001
ACAD
1000
AcDbSavedByObjectVersion
1070
     0
  0
VISUALSTYLE
  5
2E
102
{ACAD_REACTORS
330
29
102
}
330
29
100
AcDbVisualStyle
  2
Basic
 70
     7
177
     3
291
     1
 70
    58
 90
        1
176
     1
 90
        0
176
     1
 90
        1
176
     1
 90
        0
176
     1
 40
0.6
176
     1
 40
30.0
176
     1
 62
     7
420
 16777215
176
     1
 90
        0
176
     1
 90
        4
176
     1
 62
     7
176
     1
 62
   257
176
     1
 90
        1
176
     1
 90
        1
176
     1
 40
1.0
176
     1
 90
        8
176
     1
 62
     7
176
     1
 40
1.0
176
     1
 90
        1
176
     1
 90
        6
176
     1
 90
        2
176
     1
 62
     7
176
     1
 90
        5
176
     1
 90
        0
176
     1
 90
        0
176
     1
290
     0
176
     1
 90
        1
176
     1
 40
0.0
176
     1
 90
        0
176
     1
290
     0
176
     1
290
     1
176
     1
290
     1
176
     1
290
     0
176
     1
290
     0
176
     1
290
     0
176
     1
290
     0
176
     1
290
     0
176
     1
290
     0
176
     1
 90
       50
176
     1
 40
0.0
176
     1
 40
1.0
176
     1
 90
        0
176
     1
 62
    18
420
        0
176
     1
 90
       50
176
     1
 90
        3
176
     1
 62
     5
420
      255
176
     1
290
     0
176
     1
 90
       50
176
     1
 90
       50
176
     1
 90
       50
176
     1
290
     0
176
     1
 90
       50
176
     1
 62
   256
176
     0
 40
1.0
176
     0
 90
        2
176
     1
  1
strokes_ogs.tif
176
     1
290
     0
176
     1
 40
1.0
176
     1
 40
1.0
176
     1
1001
ACAD
1000
AcDbSavedByObjectVersion
1070
     0
  0
VISUALSTYLE
  5
35
102
{ACAD_REACTORS
330
29
102
}
330
29
100
AcDbVisualStyle
  2
Brighten
 70
    12
177
     3
291
     1
 70
    58
 90
        2
176
     1
 90
        2
176
     1
 90
        0
176
     1
 90
        0
176
     1
 40
0.6
176
     1
 40
30.0
176
     1
 62
     7
420
 16777215
176
     1
 90
        1
176
     1
 90
        4
176
     1
 62
     7
176
     1
 62
   257
176
     1
 90
        1
176
     1
 90
        1
176
     1
 40
1.0
176
     1
 90
        8
176
     1
 62
     7
176
     1
 40
1.0
176
     1
 90
        1
176
     1
 90
        6
176
     1
 90
        2
176
     1
 62
     7
176
     1
 90
        5
176
     1
 90
        0
176
     1
 90
        0
176
     1
290
     0
176
     1
 90
        1
176
     1
 40
50.0
176
     1
 90
        0
176
     1
290
     0
176
     1
290
     1
176
     1
290
     1
176
     1
290
     0
176
     1
290
     0
176
     1
290
     0
176
     1
290
     0
176
     1
290
     0
176
     1
290
     0
176
     1
 90
       50
176
     1
 40
0.0
176
     1
 40
1.0
176
     1
 90
        0
176
     1
 62
    18
420
        0
176
     1
 90
       50
176
     1
 90
        3
176
     1
 62
     5
420
      255
176
     1
290
     0
176
     1
 90
       50
176
     1
 90
       50
176
     1
 90
       50
176
     1
290
     0
176
     1
 90
       50
176
     1
 62
   256
176
     0
 40
1.0
176
     0
 90
        2
176
     1
  1
strokes_ogs.tif
176
     1
290
     0
176
     1
 40
1.0
176
     1
 40
1.0
176
     1
1001
ACAD
1000
AcDbSavedByObjectVersion
1070
     0
  0
VISUALSTYLE
  5
39
102
{ACAD_REACTORS
330
29
102
}
330
29
100
AcDbVisualStyle
  2
ColorChange
 70
    16
177
     3
291
     1
 70
    58
 90
        2
176
     1
 90
        2
176
     1
 90
        3
176
     1
 90
        0
176
     1
 40
0.6
176
     1
 40
30.0
176
     1
 62
     8
420
  8421504
176
     1
 90
        1
176
     1
 90
        4
176
     1
 62
     7
176
     1
 62
   257
176
     1
 90
        1
176
     1
 90
        1
176
     1
 40
1.0
176
     1
 90
        8
176
     1
 62
     8
420
  8421504
176
     1
 40
1.0
176
     1
 90
        1
176
     1
 90
        6
176
     1
 90
        2
176
     1
 62
     7
176
     1
 90
        5
176
     1
 90
        0
176
     1
 90
        0
176
     1
290
     0
176
     1
 90
        1
176
     1
 40
0.0
176
     1
 90
        0
176
     1
290
     0
176
     1
290
     1
176
     1
290
     1
176
     1
290
     0
176
     1
290
     0
176
     1
290
     0
176
     1
290
     0
176
     1
290
     0
176
     1
290
     0
176
     1
 90
       50
176
     1
 40
0.0
176
     1
 40
1.0
176
     1
 90
        0
176
     1
 62
    18
420
        0
176
     1
 90
       50
176
     1
 90
        3
176
     1
 62
     5
420
      255
176
     1
290
     0
176
     1
 90
       50
176
     1
 90
       50
176
     1
 90
       50
176
     1
290
     0
176
     1
 90
       50
176
     1
 62
   256
176
     0
 40
1.0
176
     0
 90
        2
176
     1
  1
strokes_ogs.tif
176
     1
290
     0
176
     1
 40
1.0
176
     1
 40
1.0
176
     1
1001
ACAD
1000
AcDbSavedByObjectVersion
1070
     0
  0
VISUALSTYLE
  5
32
102
{ACAD_REACTORS
330
29
102
}
330
29
100
AcDbVisualStyle
  2
Conceptual
 70
     9
177
     3
291
     0
 70
    58
 90
        3
176
     1
 90
        2
176
     1
 90
        0
176
     1
 90
        0
176
     1
 40
0.6
176
     1
 40
30.0
176
     1
 62
     7
420
 16777215
176
     1
 90
        2
176
     1
 90
        2
176
     1
 62
     7
176
     1
 62
   257
176
     1
 90
        1
176
     1
 90
        1
176
     1
 40
179.0
176
     1
 90
        8
176
     1
 62
     7
176
     1
 40
1.0
176
     1
 90
        1
176
     1
 90
        6
176
     1
 90
        2
176
     1
 62
     7
176
     1
 90
        3
176
     1
 90
        0
176
     1
 90
        0
176
     1
290
     0
176
     1
 90
        1
176
     1
 40
0.0
176
     1
 90
        0
176
     1
290
     0
176
     1
290
     1
176
     1
290
     1
176
     1
290
     0
176
     1
290
     0
176
     1
290
     0
176
     1
290
     0
176
     1
290
     0
176
     1
290
     0
176
     1
 90
       50
176
     1
 40
0.0
176
     1
 40
1.0
176
     1
 90
        0
176
     1
 62
    18
420
        0
176
     1
 90
       50
176
     1
 90
        3
176
     1
 62
     5
420
      255
176
     1
290
     0
176
     1
 90
       50
176
     1
 90
       50
176
     1
 90
       50
176
     1
290
     0
176
     1
 90
       50
176
     1
 62
   256
176
     0
 40
1.0
176
     0
 90
        2
176
     1
  1
strokes_ogs.tif
176
     1
290
     0
176
     1
 40
1.0
176
     1
 40
1.0
176
     1
1001
ACAD
1000
AcDbSavedByObjectVersion
1070
     0
  0
VISUALSTYLE
  5
34
102
{ACAD_REACTORS
330
29
102
}
330
29
100
AcDbVisualStyle
  2
Dim
 70
    11
177
     3
291
     1
 70
    58
 90
        2
176
     1
 90
        2
176
     1
 90
        0
176
     1
 90
        0
176
     1
 40
0.6
176
     1
 40
30.0
176
     1
 62
     7
420
 16777215
176
     1
 90
        1
176
     1
 90
        4
176
     1
 62
     7
176
     1
 62
   257
176
     1
 90
        1
176
     1
 90
        1
176
     1
 40
1.0
176
     1
 90
        8
176
     1
 62
     7
176
     1
 40
1.0
176
     1
 90
        1
176
     1
 90
        6
176
     1
 90
        2
176
     1
 62
     7
176
     1
 90
        5
176
     1
 90
        0
176
     1
 90
        0
176
     1
290
     0
176
     1
 90
        1
176
     1
 40
-50.0
176
     1
 90
        0
176
     1
290
     0
176
     1
290
     1
176
     1
290
     1
176
     1
290
     0
176
     1
290
     0
176
     1
290
     0
176
     1
290
     0
176
     1
290
     0
176
     1
290
     0
176
     1
 90
       50
176
     1
 40
0.0
176
     1
 40
1.0
176
     1
 90
        0
176
     1
 62
    18
420
        0
176
     1
 90
       50
176
     1
 90
        3
176
     1
 62
     5
420
      255
176
     1
290
     0
176
     1
 90
       50
176
     1
 90
       50
176
     1
 90
       50
176
     1
290
     0
176
     1
 90
       50
176
     1
 62
   256
176
     0
 40
1.0
176
     0
 90
        2
176
     1
  1
strokes_ogs.tif
176
     1
290
     0
176
     1
 40
1.0
176
     1
 40
1.0
176
     1
1001
ACAD
1000
AcDbSavedByObjectVersion
1070
     0
  0
VISUALSTYLE
  5
41
102
{ACAD_REACTORS
330
29
102
}
330
29
100
AcDbVisualStyle
  2
EdgeColorOff
 70
    22
177
     3
291
     1
 70
    58
 90
        2
176
     0
 90
        2
176
     0
 90
        0
176
     0
 90
        0
176
     0
 40
0.6
176
     0
 40
30.0
176
     0
 62
     7
420
 16777215
176
     0
 90
        1
176
     0
 90
        4
176
     0
 62
     7
176
     0
 62
   257
176
     0
 90
        1
176
     0
 90
        1
176
     0
 40
1.0
176
     0
 90
        8
176
     2
 62
     7
176
     0
 40
1.0
176
     0
 90
        1
176
     0
 90
        6
176
     0
 90
        2
176
     0
 62
     7
176
     0
 90
        5
176
     0
 90
        0
176
     0
 90
        0
176
     0
290
     0
176
     0
 90
        1
176
     0
 40
0.0
176
     0
 90
        0
176
     0
290
     0
176
     0
290
     1
176
     0
290
     1
176
     0
290
     0
176
     0
290
     0
176
     0
290
     0
176
     0
290
     0
176
     0
290
     0
176
     0
290
     0
176
     0
 90
       50
176
     0
 40
0.0
176
     0
 40
1.0
176
     0
 90
        0
176
     0
 62
    18
420
        0
176
     0
 90
       50
176
     0
 90
        3
176
     0
 62
     5
420
      255
176
     0
290
     0
176
     0
 90
       50
176
     0
 90
       50
176
     0
 90
       50
176
     0
290
     0
176
     0
 90
       50
176
     0
 62
   256
176
     0
 40
1.0
176
     0
 90
        2
176
     0
  1
strokes_ogs.tif
176
     0
290
     0
176
     0
 40
1.0
176
     0
 40
1.0
176
     0
1001
ACAD
1000
AcDbSavedByObjectVersion
1070
     0
  0
VISUALSTYLE
  5
38
102
{ACAD_REACTORS
330
29
102
}
330
29
100
AcDbVisualStyle
  2
Facepattern
 70
    15
177
     3
291
     1
 70
    58
 90
        2
176
     1
 90
        2
176
     1
 90
        0
176
     1
 90
        0
176
     1
 40
0.6
176
     1
 40
30.0
176
     1
 62
     7
420
 16777215
176
     1
 90
        1
176
     1
 90
        4
176
     1
 62
     7
176
     1
 62
   257
176
     1
 90
        1
176
     1
 90
        1
176
     1
 40
1.0
176
     1
 90
        8
176
     1
 62
     7
176
     1
 40
1.0
176
     1
 90
        1
176
     1
 90
        6
176
     1
 90
        2
176
     1
 62
     7
176
     1
 90
        5
176
     1
 90
        0
176
     1
 90
        0
176
     1
290
     0
176
     1
 90
        1
176
     1
 40
0.0
176
     1
 90
        0
176
     1
290
     0
176
     1
290
     1
176
     1
290
     1
176
     1
290
     0
176
     1
290
     0
176
     1
290
     0
176
     1
290
     0
176
     1
290
     0
176
     1
290
     0
176
     1
 90
       50
176
     1
 40
0.0
176
     1
 40
1.0
176
     1
 90
        0
176
     1
 62
    18
420
        0
176
     1
 90
       50
176
     1
 90
        3
176
     1
 62
     5
420
      255
176
     1
290
     0
176
     1
 90
       50
176
     1
 90
       50
176
     1
 90
       50
176
     1
290
     0
176
     1
 90
       50
176
     1
 62
   256
176
     0
 40
1.0
176
     0
 90
        2
176
     1
  1
strokes_ogs.tif
176
     1
290
     0
176
     1
 40
1.0
176
     1
 40
1.0
176
     1
1001
ACAD
1000
AcDbSavedByObjectVersion
1070
     0
  0
VISUALSTYLE
  5
2A
102
{ACAD_REACTORS
330
29
102
}
330
29
100
AcDbVisualStyle
  2
Flat
 70
     0
177
     3
291
     1
 70
    58
 90
        2
176
     1
 90
        1
176
     1
 90
        1
176
     1
 90
        2
176
     1
 40
0.6
176
     1
 40
30.0
176
     1
 62
     7
420
 16777215
176
     1
 90
        0
176
     1
 90
        0
176
     1
 62
     7
176
     1
 62
   257
176
     1
 90
        1
176
     1
 90
        1
176
     1
 40
1.0
176
     1
 90
        8
176
     1
 62
     7
176
     1
 40
1.0
176
     1
 90
        1
176
     1
 90
        6
176
     1
 90
        2
176
     1
 62
     7
176
     1
 90
        5
176
     1
 90
        0
176
     1
 90
        0
176
     1
290
     0
176
     1
 90
       13
176
     1
 40
0.0
176
     1
 90
        0
176
     1
290
     0
176
     1
290
     1
176
     1
290
     1
176
     1
290
     0
176
     1
290
     0
176
     1
290
     0
176
     1
290
     0
176
     1
290
     0
176
     1
290
     0
176
     1
 90
       50
176
     1
 40
0.0
176
     1
 40
1.0
176
     1
 90
        0
176
     1
 62
    18
420
        0
176
     1
 90
       50
176
     1
 90
        3
176
     1
 62
     5
420
      255
176
     1
290
     0
176
     1
 90
       50
176
     1
 90
       50
176
     1
 90
       50
176
     1
290
     0
176
     1
 90
       50
176
     1
 62
   256
176
     0
 40
1.0
176
     0
 90
        2
176
     1
  1
strokes_ogs.tif
176
     1
290
     0
176
     1
 40
1.0
176
     1
 40
1.0
176
     1
1001
ACAD
1000
AcDbSavedByObjectVersion
1070
     0
  0
VISUALSTYLE
  5
2B
102
{ACAD_REACTORS
330
29
102
}
330
29
100
AcDbVisualStyle
  2
FlatWithEdges
 70
     1
177
     3
291
     1
 70
    58
 90
        2
176
     1
 90
        1
176
     1
 90
        1
176
     1
 90
        2
176
     1
 40
0.6
176
     1
 40
30.0
176
     1
 62
     7
420
 16777215
176
     1
 90
        1
176
     1
 90
        0
176
     1
 62
     7
176
     1
 62
   257
176
     1
 90
        1
176
     1
 90
        1
176
     1
 40
1.0
176
     1
 90
        0
176
     1
 62
   257
176
     1
 40
1.0
176
     1
 90
        1
176
     1
 90
        6
176
     1
 90
        2
176
     1
 62
     7
176
     1
 90
        5
176
     1
 90
        0
176
     1
 90
        0
176
     1
290
     0
176
     1
 90
       13
176
     1
 40
0.0
176
     1
 90
        0
176
     1
290
     0
176
     1
290
     1
176
     1
290
     1
176
     1
290
     0
176
     1
290
     0
176
     1
290
     0
176
     1
290
     0
176
     1
290
     0
176
     1
290
     0
176
     1
 90
       50
176
     1
 40
0.0
176
     1
 40
1.0
176
     1
 90
        0
176
     1
 62
    18
420
        0
176
     1
 90
       50
176
     1
 90
        3
176
     1
 62
     5
420
      255
176
     1
290
     0
176
     1
 90
       50
176
     1
 90
       50
176
     1
 90
       50
176
     1
290
     0
176
     1
 90
       50
176
     1
 62
   256
176
     0
 40
1.0
176
     0
 90
        2
176
     1
  1
strokes_ogs.tif
176
     1
290
     0
176
     1
 40
1.0
176
     1
 40
1.0
176
     1
1001
ACAD
1000
AcDbSavedByObjectVersion
1070
     0
  0
VISUALSTYLE
  5
2C
102
{ACAD_REACTORS
330
29
102
}
330
29
100
AcDbVisualStyle
  2
Gouraud
 70
     2
177
     3
291
     1
 70
    58
 90
        2
176
     1
 90
        2
176
     1
 90
        1
176
     1
 90
        2
176
     1
 40
0.6
176
     1
 40
30.0
176
     1
 62
     7
420
 16777215
176
     1
 90
        0
176
     1
 90
        0
176
     1
 62
     7
176
     1
 62
   257
176
     1
 90
        1
176
     1
 90
        1
176
     1
 40
1.0
176
     1
 90
        0
176
     1
 62
     7
176
     1
 40
1.0
176
     1
 90
        1
176
     1
 90
        6
176
     1
 90
        2
176
     1
 62
     7
176
     1
 90
        5
176
     1
 90
        0
176
     1
 90
        0
176
     1
290
     0
176
     1
 90
       13
176
     1
 40
0.0
176
     1
 90
        0
176
     1
290
     0
176
     1
290
     1
176
     1
290
     1
176
     1
290
     0
176
     1
290
     0
176
     1
290
     0
176
     1
290
     0
176
     1
290
     0
176
     1
290
     0
176
     1
 90
       50
176
     1
 40
0.0
176
     1
 40
1.0
176
     1
 90
        0
176
     1
 62
    18
420
        0
176
     1
 90
       50
176
     1
 90
        3
176
     1
 62
     5
420
      255
176
     1
290
     0
176
     1
 90
       50
176
     1
 90
       50
176
     1
 90
       50
176
     1
290
     0
176
     1
 90
       50
176
     1
 62
   256
176
     0
 40
1.0
176
     0
 90
        2
176
     1
  1
strokes_ogs.tif
176
     1
290
     0
176
     1
 40
1.0
176
     1
 40
1.0
176
     1
1001
ACAD
1000
AcDbSavedByObjectVersion
1070
     0
  0
VISUALSTYLE
  5
2D
102
{ACAD_REACTORS
330
29
102
}
330
29
100
AcDbVisualStyle
  2
GouraudWithEdges
 70
     3
177
     3
291
     1
 70
    58
 90
        2
176
     1
 90
        2
176
     1
 90
        1
176
     1
 90
        2
176
     1
 40
0.6
176
     1
 40
30.0
176
     1
 62
     7
420
 16777215
176
     1
 90
        1
176
     1
 90
        0
176
     1
 62
     7
176
     1
 62
   257
176
     1
 90
        1
176
     1
 90
        1
176
     1
 40
1.0
176
     1
 90
        0
176
     1
 62
   257
176
     1
 40
1.0
176
     1
 90
        1
176
     1
 90
        6
176
     1
 90
        2
176
     1
 62
     7
176
     1
 90
        5
176
     1
 90
        0
176
     1
 90
        0
176
     1
290
     0
176
     1
 90
       13
176
     1
 40
0.0
176
     1
 90
        0
176
     1
290
     0
176
     1
290
     1
176
     1
290
     1
176
     1
290
     0
176
     1
290
     0
176
     1
290
     0
176
     1
290
     0
176
     1
290
     0
176
     1
290
     0
176
     1
 90
       50
176
     1
 40
0.0
176
     1
 40
1.0
176
     1
 90
        0
176
     1
 62
    18
420
        0
176
     1
 90
       50
176
     1
 90
        3
176
     1
 62
     5
420
      255
176
     1
290
     0
176
     1
 90
       50
176
     1
 90
       50
176
     1
 90
       50
176
     1
290
     0
176
     1
 90
       50
176
     1
 62
   256
176
     0
 40
1.0
176
     0
 90
        2
176
     1
  1
strokes_ogs.tif
176
     1
290
     0
176
     1
 40
1.0
176
     1
 40
1.0
176
     1
1001
ACAD
1000
AcDbSavedByObjectVersion
1070
     0
  0
VISUALSTYLE
  5
31
102
{ACAD_REACTORS
330
29
102
}
330
29
100
AcDbVisualStyle
  2
Hidden
 70
     6
177
     3
291
     0
 70
    58
 90
        1
176
     1
 90
        2
176
     1
 90
        2
176
     1
 90
        0
176
     1
 40
0.6
176
     1
 40
30.0
176
     1
 62
     7
420
 16777215
176
     1
 90
        2
176
     1
 90
        2
176
     1
 62
     7
176
     1
 62
   257
176
     1
 90
        2
176
     1
 90
        1
176
     1
 40
40.0
176
     1
 90
        0
176
     1
 62
   257
176
     1
 40
1.0
176
     1
 90
        1
176
     1
 90
        6
176
     1
 90
        2
176
     1
 62
     7
176
     1
 90
        3
176
     1
 90
        0
176
     1
 90
        0
176
     1
290
     0
176
     1
 90
        1
176
     1
 40
0.0
176
     1
 90
        0
176
     1
290
     0
176
     1
290
     1
176
     1
290
     1
176
     1
290
     0
176
     1
290
     0
176
     1
290
     0
176
     1
290
     0
176
     1
290
     0
176
     1
290
     0
176
     1
 90
       50
176
     1
 40
0.0
176
     1
 40
1.0
176
     1
 90
        0
176
     1
 62
    18
420
        0
176
     1
 90
       50
176
     1
 90
        3
176
     1
 62
     5
420
      255
176
     1
290
     0
176
     1
 90
       50
176
     1
 90
       50
176
     1
 90
       50
176
     1
290
     0
176
     1
 90
       50
176
     1
 62
   256
176
     0
 40
1.0
176
     0
 90
        2
176
     1
  1
strokes_ogs.tif
176
     1
290
     0
176
     1
 40
1.0
176
     1
 40
1.0
176
     1
1001
ACAD
1000
AcDbSavedByObjectVersion
1070
     0
  0
VISUALSTYLE
  5
3F
102
{ACAD_REACTORS
330
29
102
}
330
29
100
AcDbVisualStyle
  2
JitterOff
 70
    20
177
     3
291
     1
 70
    58
 90
        2
176
     0
 90
        2
176
     0
 90
        0
176
     0
 90
        0
176
     0
 40
0.6
176
     0
 40
30.0
176
     0
 62
     7
420
 16777215
176
     0
 90
        1
176
     0
 90
        4
176
     0
 62
     7
176
     0
 62
   257
176
     0
 90
        1
176
     0
 90
        1
176
     0
 40
1.0
176
     0
 90
       10
176
     2
 62
     7
176
     0
 40
1.0
176
     0
 90
        1
176
     0
 90
        6
176
     0
 90
        2
176
     0
 62
     7
176
     0
 90
        5
176
     0
 90
        0
176
     0
 90
        0
176
     0
290
     0
176
     0
 90
        1
176
     0
 40
0.0
176
     0
 90
        0
176
     0
290
     0
176
     0
290
     1
176
     0
290
     1
176
     0
290
     0
176
     0
290
     0
176
     0
290
     0
176
     0
290
     0
176
     0
290
     0
176
     0
290
     0
176
     0
 90
       50
176
     0
 40
0.0
176
     0
 40
1.0
176
     0
 90
        0
176
     0
 62
    18
420
        0
176
     0
 90
       50
176
     0
 90
        3
176
     0
 62
     5
420
      255
176
     0
290
     0
176
     0
 90
       50
176
     0
 90
       50
176
     0
 90
       50
176
     0
290
     0
176
     0
 90
       50
176
     0
 62
   256
176
     0
 40
1.0
176
     0
 90
        2
176
     0
  1
strokes_ogs.tif
176
     0
290
     0
176
     0
 40
1.0
176
     0
 40
1.0
176
     0
1001
ACAD
1000
AcDbSavedByObjectVersion
1070
     0
  0
VISUALSTYLE
  5
37
102
{ACAD_REACTORS
330
29
102
}
330
29
100
AcDbVisualStyle
  2
Linepattern
 70
    14
177
     3
291
     1
 70
    58
 90
        2
176
     1
 90
        2
176
     1
 90
        0
176
     1
 90
        0
176
     1
 40
0.6
176
     1
 40
30.0
176
     1
 62
     7
420
 16777215
176
     1
 90
        1
176
     1
 90
        4
176
     1
 62
     7
176
     1
 62
   257
176
     1
 90
        7
176
     1
 90
        7
176
     1
 40
1.0
176
     1
 90
        8
176
     1
 62
     7
176
     1
 40
1.0
176
     1
 90
        1
176
     1
 90
        6
176
     1
 90
        2
176
     1
 62
     7
176
     1
 90
        5
176
     1
 90
        0
176
     1
 90
        0
176
     1
290
     0
176
     1
 90
        1
176
     1
 40
0.0
176
     1
 90
        0
176
     1
290
     0
176
     1
290
     1
176
     1
290
     1
176
     1
290
     0
176
     1
290
     0
176
     1
290
     0
176
     1
290
     0
176
     1
290
     0
176
     1
290
     0
176
     1
 90
       50
176
     1
 40
0.0
176
     1
 40
1.0
176
     1
 90
        0
176
     1
 62
    18
420
        0
176
     1
 90
       50
176
     1
 90
        3
176
     1
 62
     5
420
      255
176
     1
290
     0
176
     1
 90
       50
176
     1
 90
       50
176
     1
 90
       50
176
     1
290
     0
176
     1
 90
       50
176
     1
 62
   256
176
     0
 40
1.0
176
     0
 90
        2
176
     1
  1
strokes_ogs.tif
176
     1
290
     0
176
     1
 40
1.0
176
     1
 40
1.0
176
     1
1001
ACAD
1000
AcDbSavedByObjectVersion
1070
     0
  0
VISUALSTYLE
  5
40
102
{ACAD_REACTORS
330
29
102
}
330
29
100
AcDbVisualStyle
  2
OverhangOff
 70
    21
177
     3
291
     1
 70
    58
 90
        2
176
     0
 90
        2
176
     0
 90
        0
176
     0
 90
        0
176
     0
 40
0.6
176
     0
 40
30.0
176
     0
 62
     7
420
 16777215
176
     0
 90
        1
176
     0
 90
        4
176
     0
 62
     7
176
     0
 62
   257
176
     0
 90
        1
176
     0
 90
        1
176
     0
 40
1.0
176
     0
 90
        9
176
     2
 62
     7
176
     0
 40
1.0
176
     0
 90
        1
176
     0
 90
        6
176
     0
 90
        2
176
     0
 62
     7
176
     0
 90
        5
176
     0
 90
        0
176
     0
 90
        0
176
     0
290
     0
176
     0
 90
        1
176
     0
 40
0.0
176
     0
 90
        0
176
     0
290
     0
176
     0
290
     1
176
     0
290
     1
176
     0
290
     0
176
     0
290
     0
176
     0
290
     0
176
     0
290
     0
176
     0
290
     0
176
     0
290
     0
176
     0
 90
       50
176
     0
 40
0.0
176
     0
 40
1.0
176
     0
 90
        0
176
     0
 62
    18
420
        0
176
     0
 90
       50
176
     0
 90
        3
176
     0
 62
     5
420
      255
176
     0
290
     0
176
     0
 90
       50
176
     0
 90
       50
176
     0
 90
       50
176
     0
290
     0
176
     0
 90
       50
176
     0
 62
   256
176
     0
 40
1.0
176
     0
 90
        2
176
     0
  1
strokes_ogs.tif
176
     0
290
     0
176
     0
 40
1.0
176
     0
 40
1.0
176
     0
1001
ACAD
1000
AcDbSavedByObjectVersion
1070
     0
  0
VISUALSTYLE
  5
33
102
{ACAD_REACTORS
330
29
102
}
330
29
100
AcDbVisualStyle
  2
Realistic
 70
     8
177
     3
291
     0
 70
    58
 90
        2
176
     1
 90
        3
176
     1
 90
        0
176
     1
 90
        2
176
     1
 40
0.6
176
     1
 40
30.0
176
     1
 62
     7
420
 16777215
176
     1
 90
        0
176
     1
 90
        0
176
     1
 62
     7
176
     1
 62
   257
176
     1
 90
        1
176
     1
 90
        1
176
     1
 40
1.0
176
     1
 90
        8
176
     1
 62
   257
176
     1
 40
1.0
176
     1
 90
        1
176
     1
 90
        6
176
     1
 90
        2
176
     1
 62
     7
176
     1
 90
        3
176
     1
 90
        0
176
     1
 90
        0
176
     1
290
     0
176
     1
 90
       13
176
     1
 40
0.0
176
     1
 90
        0
176
     1
290
     0
176
     1
290
     1
176
     1
290
     1
176
     1
290
     0
176
     1
290
     0
176
     1
290
     0
176
     1
290
     0
176
     1
290
     0
176
     1
290
     0
176
     1
 90
       50
176
     1
 40
0.0
176
     1
 40
1.0
176
     1
 90
        0
176
     1
 62
    18
420
        0
176
     1
 90
       50
176
     1
 90
        3
176
     1
 62
     5
420
      255
176
     1
290
     0
176
     1
 90
       50
176
     1
 90
       50
176
     1
 90
       50
176
     1
290
     0
176
     1
 90
       50
176
     1
 62
   256
176
     0
 40
1.0
176
     0
 90
        2
176
     1
  1
strokes_ogs.tif
176
     1
290
     0
176
     1
 40
1.0
176
     1
 40
1.0
176
     1
1001
ACAD
1000
AcDbSavedByObjectVersion
1070
     0
  0
VISUALSTYLE
  5
3E
102
{ACAD_REACTORS
330
29
102
}
330
29
100
AcDbVisualStyle
  2
Shaded
 70
    27
177
     3
291
     0
 70
    58
 90
        2
176
     1
 90
        2
176
     1
 90
        1
176
     1
 90
        2
176
     1
 40
0.6
176
     1
 40
30.0
176
     1
 62
     7
420
 16777215
176
     1
 90
        0
176
     1
 90
        4
176
     1
 62
     7
176
     1
 62
   257
176
     1
 90
        1
176
     1
 90
        1
176
     1
 40
1.0
176
     1
 90
        8
176
     1
 62
   257
176
     1
 40
1.0
176
     1
 90
        1
176
     1
 90
        6
176
     1
 90
        2
176
     1
 62
     8
420
  7895160
176
     1
 90
        3
176
     1
 90
        0
176
     1
 90
        0
176
     1
290
     0
176
     1
 90
        5
176
     1
 40
0.0
176
     1
 90
        0
176
     1
290
     0
176
     1
290
     1
176
     1
290
     1
176
     1
290
     0
176
     1
290
     0
176
     1
290
     0
176
     1
290
     0
176
     1
290
     0
176
     1
290
     0
176
     1
 90
       50
176
     1
 40
0.0
176
     1
 40
1.0
176
     1
 90
        0
176
     1
 62
    18
420
        0
176
     1
 90
       50
176
     1
 90
        3
176
     1
 62
     5
420
      255
176
     1
290
     0
176
     1
 90
       50
176
     1
 90
       50
176
     1
 90
       50
176
     1
290
     0
176
     1
 90
       50
176
     1
 62
   256
176
     0
 40
1.0
176
     0
 90
        2
176
     1
  1
strokes_ogs.tif
176
     1
290
     0
176
     1
 40
1.0
176
     1
 40
1.0
176
     1
1001
ACAD
1000
AcDbSavedByObjectVersion
1070
     0
  0
VISUALSTYLE
  5
3D
102
{ACAD_REACTORS
330
29
102
}
330
29
100
AcDbVisualStyle
  2
Shaded with edges
 70
    26
177
     3
291
     0
 70
    58
 90
        2
176
     1
 90
        2
176
     1
 90
        1
176
     1
 90
        2
176
     1
 40
0.6
176
     1
 40
30.0
176
     1
 62
     7
420
 16777215
176
     1
 90
        1
176
     1
 90
        2
176
     1
 62
     7
176
     1
 62
   257
176
     1
 90
        2
176
     1
 90
        1
176
     1
 40
1.0
176
     1
 90
        8
176
     1
 62
   257
176
     1
 40
1.0
176
     1
 90
        1
176
     1
 90
        6
176
     1
 90
        2
176
     1
 62
     7
176
     1
 90
        3
176
     1
 90
        0
176
     1
 90
        0
176
     1
290
     0
176
     1
 90
        5
176
     1
 40
0.0
176
     1
 90
        0
176
     1
290
     0
176
     1
290
     1
176
     1
290
     1
176
     1
290
     0
176
     1
290
     0
176
     1
290
     0
176
     1
290
     0
176
     1
290
     0
176
     1
290
     0
176
     1
 90
       50
176
     1
 40
0.0
176
     1
 40
1.0
176
     1
 90
        0
176
     1
 62
    18
420
        0
176
     1
 90
       50
176
     1
 90
        3
176
     1
 62
     5
420
      255
176
     1
290
     0
176
     1
 90
       50
176
     1
 90
       50
176
     1
 90
       50
176
     1
290
     0
176
     1
 90
       50
176
     1
 62
   256
176
     0
 40
1.0
176
     0
 90
        2
176
     1
  1
strokes_ogs.tif
176
     1
290
     0
176
     1
 40
1.0
176
     1
 40
1.0
176
     1
1001
ACAD
1000
AcDbSavedByObjectVersion
1070
     0
  0
VISUALSTYLE
  5
3A
102
{ACAD_REACTORS
330
29
102
}
330
29
100
AcDbVisualStyle
  2
Shades of Gray
 70
    23
177
     3
291
     0
 70
    58
 90
        2
176
     1
 90
        2
176
     1
 90
        3
176
     1
 90
        0
176
     1
 40
0.6
176
     1
 40
30.0
176
     1
 62
     7
420
 16777215
176
     1
 90
        2
176
     1
 90
        2
176
     1
 62
     7
176
     1
 62
     7
176
     1
 90
        1
176
     1
 90
        1
176
     1
 40
40.0
176
     1
 90
        8
176
     1
 62
     7
176
     1
 40
1.0
176
     1
 90
        1
176
     1
 90
        6
176
     1
 90
        2
176
     1
 62
     7
176
     1
 90
        3
176
     1
 90
        0
176
     1
 90
        0
176
     1
290
     0
176
     1
 90
        1
176
     1
 40
0.0
176
     1
 90
        0
176
     1
290
     0
176
     1
290
     1
176
     1
290
     1
176
     1
290
     0
176
     1
290
     0
176
     1
290
     0
176
     1
290
     0
176
     1
290
     0
176
     1
290
     0
176
     1
 90
       50
176
     1
 40
0.0
176
     1
 40
1.0
176
     1
 90
        0
176
     1
 62
    18
420
        0
176
     1
 90
       50
176
     1
 90
        3
176
     1
 62
     5
420
      255
176
     1
290
     0
176
     1
 90
       50
176
     1
 90
       50
176
     1
 90
       50
176
     1
290
     0
176
     1
 90
       50
176
     1
 62
   256
176
     0
 40
1.0
176
     0
 90
        2
176
     1
  1
strokes_ogs.tif
176
     1
290
     0
176
     1
 40
1.0
176
     1
 40
1.0
176
     1
1001
ACAD
1000
AcDbSavedByObjectVersion
1070
     0
  0
VISUALSTYLE
  5
3B
102
{ACAD_REACTORS
330
29
102
}
330
29
100
AcDbVisualStyle
  2
Sketchy
 70
    24
177
     3
291
     0
 70
    58
 90
        1
176
     1
 90
        2
176
     1
 90
        2
176
     1
 90
        0
176
     1
 40
0.6
176
     1
 40
30.0
176
     1
 62
     7
420
 16777215
176
     1
 90
        2
176
     1
 90
        2
176
     1
 62
     7
176
     1
 62
     7
176
     1
 90
        1
176
     1
 90
        1
176
     1
 40
40.0
176
     1
 90
       11
176
     1
 62
     7
176
     1
 40
1.0
176
     1
 90
        1
176
     1
 90
        6
176
     1
 90
        2
176
     1
 62
     7
176
     1
 90
        6
176
     1
 90
        0
176
     1
 90
        0
176
     1
290
     0
176
     1
 90
        1
176
     1
 40
0.0
176
     1
 90
        0
176
     1
290
     0
176
     1
290
     1
176
     1
290
     1
176
     1
290
     0
176
     1
290
     0
176
     1
290
     0
176
     1
290
     0
176
     1
290
     0
176
     1
290
     0
176
     1
 90
       50
176
     1
 40
0.0
176
     1
 40
1.0
176
     1
 90
        0
176
     1
 62
    18
420
        0
176
     1
 90
       50
176
     1
 90
        3
176
     1
 62
     5
420
      255
176
     1
290
     0
176
     1
 90
       50
176
     1
 90
       50
176
     1
 90
       50
176
     1
290
     0
176
     1
 90
       50
176
     1
 62
   256
176
     0
 40
1.0
176
     0
 90
        2
176
     1
  1
strokes_ogs.tif
176
     1
290
     0
176
     1
 40
1.0
176
     1
 40
1.0
176
     1
1001
ACAD
1000
AcDbSavedByObjectVersion
1070
     0
  0
VISUALSTYLE
  5
36
102
{ACAD_REACTORS
330
29
102
}
330
29
100
AcDbVisualStyle
  2
Thicken
 70
    13
177
     3
291
     1
 70
    58
 90
        2
176
     1
 90
        2
176
     1
 90
        0
176
     1
 90
        0
176
     1
 40
0.6
176
     1
 40
30.0
176
     1
 62
     7
420
 16777215
176
     1
 90
        1
176
     1
 90
        4
176
     1
 62
     7
176
     1
 62
   257
176
     1
 90
        1
176
     1
 90
        1
176
     1
 40
1.0
176
     1
 90
       12
176
     1
 62
     7
176
     1
 40
1.0
176
     1
 90
        1
176
     1
 90
        6
176
     1
 90
        2
176
     1
 62
     7
176
     1
 90
        5
176
     1
 90
        0
176
     1
 90
        0
176
     1
290
     0
176
     1
 90
        1
176
     1
 40
0.0
176
     1
 90
        0
176
     1
290
     0
176
     1
290
     1
176
     1
290
     1
176
     1
290
     0
176
     1
290
     0
176
     1
290
     0
176
     1
290
     0
176
     1
290
     0
176
     1
290
     0
176
     1
 90
       50
176
     1
 40
0.0
176
     1
 40
1.0
176
     1
 90
        0
176
     1
 62
    18
420
        0
176
     1
 90
       50
176
     1
 90
        3
176
     1
 62
     5
420
      255
176
     1
290
     0
176
     1
 90
       50
176
     1
 90
       50
176
     1
 90
       50
176
     1
290
     0
176
     1
 90
       50
176
     1
 62
   256
176
     0
 40
1.0
176
     0
 90
        2
176
     1
  1
strokes_ogs.tif
176
     1
290
     0
176
     1
 40
1.0
176
     1
 40
1.0
176
     1
1001
ACAD
1000
AcDbSavedByObjectVersion
1070
     0
  0
VISUALSTYLE
  5
30
102
{ACAD_REACTORS
330
29
102
}
330
29
100
AcDbVisualStyle
  2
Wireframe
 70
     5
177
     3
291
     0
 70
    58
 90
        0
176
     1
 90
        2
176
     1
 90
        0
176
     1
 90
        0
176
     1
 40
0.6
176
     1
 40
30.0
176
     1
 62
     7
420
 16777215
176
     1
 90
        1
176
     1
 90
        4
176
     1
 62
     7
176
     1
 62
   257
176
     1
 90
        1
176
     1
 90
        1
176
     1
 40
1.0
176
     1
 90
        0
176
     1
 62
   257
176
     1
 40
1.0
176
     1
 90
        1
176
     1
 90
        6
176
     1
 90
        2
176
     1
 62
     7
176
     1
 90
        3
176
     1
 90
        0
176
     1
 90
        0
176
     1
290
     0
176
     1
 90
        1
176
     1
 40
0.0
176
     1
 90
        0
176
     1
290
     0
176
     1
290
     1
176
     1
290
     1
176
     1
290
     0
176
     1
290
     0
176
     1
290
     0
176
     1
290
     0
176
     1
290
     0
176
     1
290
     0
176
     1
 90
       50
176
     1
 40
0.0
176
     1
 40
1.0
176
     1
 90
        0
176
     1
 62
    18
420
        0
176
     1
 90
       50
176
     1
 90
        3
176
     1
 62
     5
420
      255
176
     1
290
     0
176
     1
 90
       50
176
     1
 90
       50
176
     1
 90
       50
176
     1
290
     0
176
     1
 90
       50
176
     1
 62
   256
176
     0
 40
1.0
176
     0
 90
        2
176
     1
  1
strokes_ogs.tif
176
     1
290
     0
176
     1
 40
1.0
176
     1
 40
1.0
176
     1
1001
ACAD
1000
AcDbSavedByObjectVersion
1070
     0
  0
VISUALSTYLE
  5
3C
102
{ACAD_REACTORS
330
29
102
}
330
29
100
AcDbVisualStyle
  2
X-Ray
 70
    25
177
     3
291
     0
 70
    58
 90
        2
176
     1
 90
        2
176
     1
 90
        1
176
     1
 90
        1
176
     1
 40
0.5
176
     1
 40
30.0
176
     1
 62
     7
420
 16777215
176
     1
 90
        1
176
     1
 90
        0
176
     1
 62
     7
176
     1
 62
   257
176
     1
 90
        1
176
     1
 90
        1
176
     1
 40
1.0
176
     1
 90
        8
176
     1
 62
     7
176
     1
 40
1.0
176
     1
 90
        1
176
     1
 90
        6
176
     1
 90
        2
176
     1
 62
     7
176
     1
 90
        3
176
     1
 90
        0
176
     1
 90
        0
176
     1
290
     0
176
     1
 90
       13
176
     1
 40
0.0
176
     1
 90
        0
176
     1
290
     0
176
     1
290
     1
176
     1
290
     1
176
     1
290
     0
176
     1
290
     0
176
     1
290
     0
176
     1
290
     0
176
     1
290
     0
176
     1
290
     0
176
     1
 90
       50
176
     1
 40
0.0
176
     1
 40
1.0
176
     1
 90
        0
176
     1
 62
    18
420
        0
176
     1
 90
       50
176
     1
 90
        3
176
     1
 62
     5
420
      255
176
     1
290
     0
176
     1
 90
       50
176
     1
 90
       50
176
     1
 90
       50
176
     1
290
     0
176
     1
 90
       50
176
     1
 62
   256
176
     0
 40
1.0
176
     0
 90
        2
176
     1
  1
strokes_ogs.tif
176
     1
290
     0
176
     1
 40
1.0
176
     1
 40
1.0
176
     1
1001
ACAD
1000
AcDbSavedByObjectVersion
1070
     0
  0
DICTIONARYVAR
  5
55D
102
{ACAD_REACTORS
330
558
102
}
330
558
100
DictionaryVariables
280
     0
  1
1:1
  0
DICTIONARYVAR
  5
55A
102
{ACAD_REACTORS
330
558
102
}
330
558
100
DictionaryVariables
280
     0
  1
STANDARD
  0
DICTIONARYVAR
  5
559
102
{ACAD_REACTORS
330
558
102
}
330
558
100
DictionaryVariables
280
     0
  1
STANDARD
  0
DICTIONARYVAR
  5
55B
102
{ACAD_REACTORS
330
558
102
}
330
558
100
DictionaryVariables
280
     0
  1
Imperial24
  0
DICTIONARYVAR
  5
55C
102
{ACAD_REACTORS
330
558
102
}
330
558
100
DictionaryVariables
280
     0
  1
Imperial24
  0
DICTIONARY
  5
D67
330
6B
100
AcDbDictionary
280
     1
281
     1
  3
ACAD_XREC_ROUNDTRIP
360
D68
  0
DICTIONARY
  5
1A
330
19
100
AcDbDictionary
280
     1
281
     1
  3
BUMPTILE
360
1C
  3
DIFFUSETILE
360
1B
  3
OPACITYTILE
360
1F
  3
REFLECTIONTILE
360
1E
  3
REFRACTIONTILE
360
20
  3
SPECULARTILE
360
1D
  0
DICTIONARY
  5
12
330
11
100
AcDbDictionary
280
     1
281
     1
  3
BUMPTILE
360
14
  3
DIFFUSETILE
360
13
  3
OPACITYTILE
360
17
  3
REFLECTIONTILE
360
16
  3
REFRACTIONTILE
360
18
  3
SPECULARTILE
360
15
  0
DICTIONARY
  5
22
330
21
100
AcDbDictionary
280
     1
281
     1
  3
BUMPTILE
360
24
  3
DIFFUSETILE
360
23
  3
OPACITYTILE
360
27
  3
REFLECTIONTILE
360
26
  3
REFRACTIONTILE
360
28
  3
SPECULARTILE
360
25
  0
DICTIONARY
  5
D65
330
69
100
AcDbDictionary
280
     1
281
     1
  3
ACAD_XREC_ROUNDTRIP
360
D66
  0
DICTIONARY
  5
55E
330
65
100
AcDbDictionary
280
     1
281
     1
  3
ACAD_ROUNDTRIP_2008_TABLESTYLE_CELLSTYLEMAP
360
D63
  0
XRECORD
  5
D68
102
{ACAD_REACTORS
330
D67
102
}
330
D67
100
AcDbXrecord
280
     1
102
DISPLAYNAME
  1
Imperial24
102
FLAGS
 90
        0
  0
XRECORD
  5
1C
102
{ACAD_REACTORS
330
1A
102
}
330
1A
100
AcDbXrecord
280
     1
270
     1
271
     1
  0
XRECORD
  5
1B
102
{ACAD_REACTORS
330
1A
102
}
330
1A
100
AcDbXrecord
280
     1
270
     1
271
     1
  0
XRECORD
  5
1F
102
{ACAD_REACTORS
330
1A
102
}
330
1A
100
AcDbXrecord
280
     1
270
     1
271
     1
  0
XRECORD
  5
1E
102
{ACAD_REACTORS
330
1A
102
}
330
1A
100
AcDbXrecord
280
     1
270
     1
271
     1
  0
XRECORD
  5
20
102
{ACAD_REACTORS
330
1A
102
}
330
1A
100
AcDbXrecord
280
     1
270
     1
271
     1
  0
XRECORD
  5
1D
102
{ACAD_REACTORS
330
1A
102
}
330
1A
100
AcDbXrecord
280
     1
270
     1
271
     1
  0
XRECORD
  5
14
102
{ACAD_REACTORS
330
12
102
}
330
12
100
AcDbXrecord
280
     1
270
     1
271
     1
  0
XRECORD
  5
13
102
{ACAD_REACTORS
330
12
102
}
330
12
100
AcDbXrecord
280
     1
270
     1
271
     1
  0
XRECORD
  5
17
102
{ACAD_REACTORS
330
12
102
}
330
12
100
AcDbXrecord
280
     1
270
     1
271
     1
  0
XRECORD
  5
16
102
{ACAD_REACTORS
330
12
102
}
330
12
100
AcDbXrecord
280
     1
270
     1
271
     1
  0
XRECORD
  5
18
102
{ACAD_REACTORS
330
12
102
}
330
12
100
AcDbXrecord
280
     1
270
     1
271
     1
  0
XRECORD
  5
15
102
{ACAD_REACTORS
330
12
102
}
330
12
100
AcDbXrecord
280
     1
270
     1
271
     1
  0
XRECORD
  5
24
102
{ACAD_REACTORS
330
22
102
}
330
22
100
AcDbXrecord
280
     1
270
     1
271
     1
  0
XRECORD
  5
23
102
{ACAD_REACTORS
330
22
102
}
330
22
100
AcDbXrecord
280
     1
270
     1
271
     1
  0
XRECORD
  5
27
102
{ACAD_REACTORS
330
22
102
}
330
22
100
AcDbXrecord
280
     1
270
     1
271
     1
  0
XRECORD
  5
26
102
{ACAD_REACTORS
330
22
102
}
330
22
100
AcDbXrecord
280
     1
270
     1
271
     1
  0
XRECORD
  5
28
102
{ACAD_REACTORS
330
22
102
}
330
22
100
AcDbXrecord
280
     1
270
     1
271
     1
  0
XRECORD
  5
25
102
{ACAD_REACTORS
330
22
102
}
330
22
100
AcDbXrecord
280
     1
270
     1
271
     1
  0
XRECORD
  5
D66
102
{ACAD_REACTORS
330
D65
102
}
330
D65
100
AcDbXrecord
280
     1
102
DISPLAYNAME
  1
Imperial24
102
FLAGS
 90
        0
  0
CELLSTYLEMAP
  5
D63
102
{ACAD_REACTORS
330
55E
102
}
330
55E
100
AcDbCellStyleMap
 90
        3
300
CELLSTYLE
  1
TABLEFORMAT_BEGIN
 90
        5
170
     1
 91
        0
 92
    32768
 62
   257
 93
        1
300
CONTENTFORMAT
  1
CONTENTFORMAT_BEGIN
 90
        0
 91
        0
 92
      512
 93
        0
300

 40
0.0
140
1.0
 94
        5
 62
     0
340
55
144
0.25
309
CONTENTFORMAT_END
171
     1
301
MARGIN
  1
CELLMARGIN_BEGIN
 40
0.06
 40
0.06
 40
0.06
 40
0.06
 40
0.18
 40
0.18
309
CELLMARGIN_END
 94
        6
 95
        1
302
GRIDFORMAT
  1
GRIDFORMAT_BEGIN
 90
        0
 91
        1
 62
     0
 92
       -2
340
0
 93
        0
 40
0.045
309
GRIDFORMAT_END
 95
        2
302
GRIDFORMAT
  1
GRIDFORMAT_BEGIN
 90
        0
 91
        1
 62
     0
 92
       -2
340
0
 93
        0
 40
0.045
309
GRIDFORMAT_END
 95
        4
302
GRIDFORMAT
  1
GRIDFORMAT_BEGIN
 90
        0
 91
        1
 62
     0
 92
       -2
340
0
 93
        0
 40
0.045
309
GRIDFORMAT_END
 95
        8
302
GRIDFORMAT
  1
GRIDFORMAT_BEGIN
 90
        0
 91
        1
 62
     0
 92
       -2
340
0
 93
        0
 40
0.045
309
GRIDFORMAT_END
 95
       16
302
GRIDFORMAT
  1
GRIDFORMAT_BEGIN
 90
        0
 91
        1
 62
     0
 92
       -2
340
0
 93
        0
 40
0.045
309
GRIDFORMAT_END
 95
       32
302
GRIDFORMAT
  1
GRIDFORMAT_BEGIN
 90
        0
 91
        1
 62
     0
 92
       -2
340
0
 93
        0
 40
0.045
309
GRIDFORMAT_END
309
TABLEFORMAT_END
  1
CELLSTYLE_BEGIN
 90
        1
 91
        1
300
_TITLE
309
CELLSTYLE_END
300
CELLSTYLE
  1
TABLEFORMAT_BEGIN
 90
        5
170
     1
 91
        0
 92
        0
 62
   257
 93
        1
300
CONTENTFORMAT
  1
CONTENTFORMAT_BEGIN
 90
        0
 91
        0
 92
      512
 93
        0
300

 40
0.0
140
1.0
 94
        5
 62
     0
340
55
144
0.18
309
CONTENTFORMAT_END
171
     1
301
MARGIN
  1
CELLMARGIN_BEGIN
 40
0.06
 40
0.06
 40
0.06
 40
0.06
 40
0.18
 40
0.18
309
CELLMARGIN_END
 94
        6
 95
        1
302
GRIDFORMAT
  1
GRIDFORMAT_BEGIN
 90
        0
 91
        1
 62
     0
 92
       -2
340
0
 93
        0
 40
0.045
309
GRIDFORMAT_END
 95
        2
302
GRIDFORMAT
  1
GRIDFORMAT_BEGIN
 90
        0
 91
        1
 62
     0
 92
       -2
340
0
 93
        0
 40
0.045
309
GRIDFORMAT_END
 95
        4
302
GRIDFORMAT
  1
GRIDFORMAT_BEGIN
 90
        0
 91
        1
 62
     0
 92
       -2
340
0
 93
        0
 40
0.045
309
GRIDFORMAT_END
 95
        8
302
GRIDFORMAT
  1
GRIDFORMAT_BEGIN
 90
        0
 91
        1
 62
     0
 92
       -2
340
0
 93
        0
 40
0.045
309
GRIDFORMAT_END
 95
       16
302
GRIDFORMAT
  1
GRIDFORMAT_BEGIN
 90
        0
 91
        1
 62
     0
 92
       -2
340
0
 93
        0
 40
0.045
309
GRIDFORMAT_END
 95
       32
302
GRIDFORMAT
  1
GRIDFORMAT_BEGIN
 90
        0
 91
        1
 62
     0
 92
       -2
340
0
 93
        0
 40
0.045
309
GRIDFORMAT_END
309
TABLEFORMAT_END
  1
CELLSTYLE_BEGIN
 90
        2
 91
        1
300
_HEADER
309
CELLSTYLE_END
300
CELLSTYLE
  1
TABLEFORMAT_BEGIN
 90
        5
170
     1
 91
        0
 92
        0
 62
   257
 93
        1
300
CONTENTFORMAT
  1
CONTENTFORMAT_BEGIN
 90
        0
 91
        0
 92
      512
 93
        0
300

 40
0.0
140
1.0
 94
        2
 62
     0
340
55
144
0.18
309
CONTENTFORMAT_END
171
     1
301
MARGIN
  1
CELLMARGIN_BEGIN
 40
0.06
 40
0.06
 40
0.06
 40
0.06
 40
0.18
 40
0.18
309
CELLMARGIN_END
 94
        6
 95
        1
302
GRIDFORMAT
  1
GRIDFORMAT_BEGIN
 90
        0
 91
        1
 62
     0
 92
       -2
340
0
 93
        0
 40
0.045
309
GRIDFORMAT_END
 95
        2
302
GRIDFORMAT
  1
GRIDFORMAT_BEGIN
 90
        0
 91
        1
 62
     0
 92
       -2
340
0
 93
        0
 40
0.045
309
GRIDFORMAT_END
 95
        4
302
GRIDFORMAT
  1
GRIDFORMAT_BEGIN
 90
        0
 91
        1
 62
     0
 92
       -2
340
0
 93
        0
 40
0.045
309
GRIDFORMAT_END
 95
        8
302
GRIDFORMAT
  1
GRIDFORMAT_BEGIN
 90
        0
 91
        1
 62
     0
 92
       -2
340
0
 93
        0
 40
0.045
309
GRIDFORMAT_END
 95
       16
302
GRIDFORMAT
  1
GRIDFORMAT_BEGIN
 90
        0
 91
        1
 62
     0
 92
       -2
340
0
 93
        0
 40
0.045
309
GRIDFORMAT_END
 95
       32
302
GRIDFORMAT
  1
GRIDFORMAT_BEGIN
 90
        0
 91
        1
 62
     0
 92
       -2
340
0
 93
        0
 40
0.045
309
GRIDFORMAT_END
309
TABLEFORMAT_END
  1
CELLSTYLE_BEGIN
 90
        3
 91
        2
300
_DATA
309
CELLSTYLE_END
  0
ENDSEC
  0
EOF
