  0
SECTION
  2
HEADER
  9
$ACADVER
  1
AC1027
  9
$ACADMAINTVER
 70
   125
  9
$DWGCODEPAGE
  3
ANSI_1252
  9
$LASTSAVEDBY
  1
ufficio.tecnico
  9
$REQUIREDVERSIONS
160
                 0
  9
$INSBASE
 10
0.0
 20
0.0
 30
0.0
  9
$EXTMIN
 10
32.21047043445287
 20
-184.9871581568782
 30
0.0
  9
$EXTMAX
 10
603.2437986773142
 20
-87.49443460540723
 30
0.0
  9
$LIMMIN
 10
0.0
 20
0.0
  9
$LIMMAX
 10
12.0
 20
9.0
  9
$ORTHOMODE
 70
     0
  9
$REGENMODE
 70
     1
  9
$FILLMODE
 70
     1
  9
$QTEXTMODE
 70
     0
  9
$MIRRTEXT
 70
     0
  9
$LTSCALE
 40
1.0
  9
$ATTMODE
 70
     1
  9
$TEXTSIZE
 40
0.2
  9
$TRACEWID
 40
0.05
  9
$TEXTSTYLE
  7
Standard
  9
$CLAYER
  8
0
  9
$CELTYPE
  6
ByLayer
  9
$CECOLOR
 62
   256
  9
$CELTSCALE
 40
1.0
  9
$DISPSILH
 70
     0
  9
$DIMSCALE
 40
1.0
  9
$DIMASZ
 40
0.18
  9
$DIMEXO
 40
0.0625
  9
$DIMDLI
 40
0.38
  9
$DIMRND
 40
0.0
  9
$DIMDLE
 40
0.0
  9
$DIMEXE
 40
0.18
  9
$DIMTP
 40
0.0
  9
$DIMTM
 40
0.0
  9
$DIMTXT
 40
0.18
  9
$DIMCEN
 40
0.09
  9
$DIMTSZ
 40
0.0
  9
$DIMTOL
 70
     0
  9
$DIMLIM
 70
     0
  9
$DIMTIH
 70
     1
  9
$DIMTOH
 70
     1
  9
$DIMSE1
 70
     0
  9
$DIMSE2
 70
     0
  9
$DIMTAD
 70
     0
  9
$DIMZIN
 70
     0
  9
$DIMBLK
  1

  9
$DIMASO
 70
     1
  9
$DIMSHO
 70
     1
  9
$DIMPOST
  1

  9
$DIMAPOST
  1

  9
$DIMALT
 70
     0
  9
$DIMALTD
 70
     2
  9
$DIMALTF
 40
25.4
  9
$DIMLFAC
 40
1.0
  9
$DIMTOFL
 70
     0
  9
$DIMTVP
 40
0.0
  9
$DIMTIX
 70
     0
  9
$DIMSOXD
 70
     0
  9
$DIMSAH
 70
     0
  9
$DIMBLK1
  1

  9
$DIMBLK2
  1

  9
$DIMSTYLE
  2
Standard
  9
$DIMCLRD
 70
     0
  9
$DIMCLRE
 70
     0
  9
$DIMCLRT
 70
     0
  9
$DIMTFAC
 40
1.0
  9
$DIMGAP
 40
0.09
  9
$DIMJUST
 70
     0
  9
$DIMSD1
 70
     0
  9
$DIMSD2
 70
     0
  9
$DIMTOLJ
 70
     1
  9
$DIMTZIN
 70
     0
  9
$DIMALTZ
 70
     0
  9
$DIMALTTZ
 70
     0
  9
$DIMUPT
 70
     0
  9
$DIMDEC
 70
     4
  9
$DIMTDEC
 70
     4
  9
$DIMALTU
 70
     2
  9
$DIMALTTD
 70
     2
  9
$DIMTXSTY
  7
Standard
  9
$DIMAUNIT
 70
     0
  9
$DIMADEC
 70
     0
  9
$DIMALTRND
 40
0.0
  9
$DIMAZIN
 70
     0
  9
$DIMDSEP
 70
    46
  9
$DIMATFIT
 70
     3
  9
$DIMFRAC
 70
     0
  9
$DIMLDRBLK
  1

  9
$DIMLUNIT
 70
     2
  9
$DIMLWD
 70
    -2
  9
$DIMLWE
 70
    -2
  9
$DIMTMOVE
 70
     0
  9
$DIMFXL
 40
1.0
  9
$DIMFXLON
 70
     0
  9
$DIMJOGANG
 40
0.7853981633974483
  9
$DIMTFILL
 70
     0
  9
$DIMTFILLCLR
 70
     0
  9
$DIMARCSYM
 70
     0
  9
$DIMLTYPE
  6

  9
$DIMLTEX1
  6

  9
$DIMLTEX2
  6

  9
$DIMTXTDIRECTION
 70
     0
  9
$LUNITS
 70
     2
  9
$LUPREC
 70
     4
  9
$SKETCHINC
 40
0.1
  9
$FILLETRAD
 40
0.0
  9
$AUNITS
 70
     0
  9
$AUPREC
 70
     0
  9
$MENU
  1
.
  9
$ELEVATION
 40
0.0
  9
$PELEVATION
 40
0.0
  9
$THICKNESS
 40
0.0
  9
$LIMCHECK
 70
     0
  9
$CHAMFERA
 40
0.0
  9
$CHAMFERB
 40
0.0
  9
$CHAMFERC
 40
0.0
  9
$CHAMFERD
 40
0.0
  9
$SKPOLY
 70
     0
  9
$TDCREATE
 40
2459328.435972222
  9
$TDUCREATE
 40
2459328.352638889
  9
$TDUPDATE
 40
2459341.401562500
  9
$TDUUPDATE
 40
2459341.318229167
  9
$TDINDWG
 40
0.0119907407
  9
$TDUSRTIMER
 40
0.0119907407
  9
$USRTIMER
 70
     1
  9
$ANGBASE
 50
0.0
  9
$ANGDIR
 70
     0
  9
$PDMODE
 70
     0
  9
$PDSIZE
 40
0.0
  9
$PLINEWID
 40
0.0
  9
$SPLFRAME
 70
     0
  9
$SPLINETYPE
 70
     6
  9
$SPLINESEGS
 70
     8
  9
$HANDSEED
  5
D5C
  9
$SURFTAB1
 70
     6
  9
$SURFTAB2
 70
     6
  9
$SURFTYPE
 70
     6
  9
$SURFU
 70
     6
  9
$SURFV
 70
     6
  9
$UCSBASE
  2

  9
$UCSNAME
  2

  9
$UCSORG
 10
0.0
 20
0.0
 30
0.0
  9
$UCSXDIR
 10
1.0
 20
0.0
 30
0.0
  9
$UCSYDIR
 10
0.0
 20
1.0
 30
0.0
  9
$UCSORTHOREF
  2

  9
$UCSORTHOVIEW
 70
     0
  9
$UCSORGTOP
 10
0.0
 20
0.0
 30
0.0
  9
$UCSORGBOTTOM
 10
0.0
 20
0.0
 30
0.0
  9
$UCSORGLEFT
 10
0.0
 20
0.0
 30
0.0
  9
$UCSORGRIGHT
 10
0.0
 20
0.0
 30
0.0
  9
$UCSORGFRONT
 10
0.0
 20
0.0
 30
0.0
  9
$UCSORGBACK
 10
0.0
 20
0.0
 30
0.0
  9
$PUCSBASE
  2

  9
$PUCSNAME
  2

  9
$PUCSORG
 10
0.0
 20
0.0
 30
0.0
  9
$PUCSXDIR
 10
1.0
 20
0.0
 30
0.0
  9
$PUCSYDIR
 10
0.0
 20
1.0
 30
0.0
  9
$PUCSORTHOREF
  2

  9
$PUCSORTHOVIEW
 70
     0
  9
$PUCSORGTOP
 10
0.0
 20
0.0
 30
0.0
  9
$PUCSORGBOTTOM
 10
0.0
 20
0.0
 30
0.0
  9
$PUCSORGLEFT
 10
0.0
 20
0.0
 30
0.0
  9
$PUCSORGRIGHT
 10
0.0
 20
0.0
 30
0.0
  9
$PUCSORGFRONT
 10
0.0
 20
0.0
 30
0.0
  9
$PUCSORGBACK
 10
0.0
 20
0.0
 30
0.0
  9
$USERI1
 70
     0
  9
$USERI2
 70
     0
  9
$USERI3
 70
     0
  9
$USERI4
 70
     0
  9
$USERI5
 70
     0
  9
$USERR1
 40
0.0
  9
$USERR2
 40
0.0
  9
$USERR3
 40
0.0
  9
$USERR4
 40
0.0
  9
$USERR5
 40
0.0
  9
$WORLDVIEW
 70
     1
  9
$SHADEDGE
 70
     3
  9
$SHADEDIF
 70
    70
  9
$TILEMODE
 70
     1
  9
$MAXACTVP
 70
    64
  9
$PINSBASE
 10
0.0
 20
0.0
 30
0.0
  9
$PLIMCHECK
 70
     0
  9
$PEXTMIN
 10
1.000000000000000E+20
 20
1.000000000000000E+20
 30
1.000000000000000E+20
  9
$PEXTMAX
 10
-1.000000000000000E+20
 20
-1.000000000000000E+20
 30
-1.000000000000000E+20
  9
$PLIMMIN
 10
0.0
 20
0.0
  9
$PLIMMAX
 10
12.0
 20
9.0
  9
$UNITMODE
 70
     0
  9
$VISRETAIN
 70
     1
  9
$PLINEGEN
 70
     0
  9
$PSLTSCALE
 70
     1
  9
$TREEDEPTH
 70
  3020
  9
$CMLSTYLE
  2
Standard
  9
$CMLJUST
 70
     0
  9
$CMLSCALE
 40
1.0
  9
$PROXYGRAPHICS
 70
     1
  9
$MEASUREMENT
 70
     0
  9
$CELWEIGHT
370
    -1
  9
$ENDCAPS
280
     0
  9
$JOINSTYLE
280
     0
  9
$LWDISPLAY
290
     1
  9
$INSUNITS
 70
     4
  9
$HYPERLINKBASE
  1

  9
$STYLESHEET
  1

  9
$XEDIT
290
     1
  9
$CEPSNTYPE
380
     0
  9
$PSTYLEMODE
290
     1
  9
$FINGERPRINTGUID
  2
{C45769F8-DECB-0040-B127-DE433134489D}
  9
$VERSIONGUID
  2
{BF3F0EB7-534C-AA40-9DFF-91740A5D518C}
  9
$EXTNAMES
290
     1
  9
$PSVPSCALE
 40
0.0
  9
$OLESTARTUP
290
     0
  9
$SORTENTS
280
   127
  9
$INDEXCTL
280
     0
  9
$HIDETEXT
280
     1
  9
$XCLIPFRAME
280
     2
  9
$HALOGAP
280
     0
  9
$OBSCOLOR
 70
   257
  9
$OBSLTYPE
280
     0
  9
$INTERSECTIONDISPLAY
280
     0
  9
$INTERSECTIONCOLOR
 70
   257
  9
$DIMASSOC
280
     2
  9
$PROJECTNAME
  1

  9
$CAMERADISPLAY
290
     0
  9
$LENSLENGTH
 40
50.0
  9
$CAMERAHEIGHT
 40
0.0
  9
$STEPSPERSEC
 40
2.0
  9
$STEPSIZE
 40
6.0
  9
$3DDWFPREC
 40
2.0
  9
$PSOLWIDTH
 40
0.25
  9
$PSOLHEIGHT
 40
4.0
  9
$LOFTANG1
 40
1.570796326794896
  9
$LOFTANG2
 40
1.570796326794896
  9
$LOFTMAG1
 40
0.0
  9
$LOFTMAG2
 40
0.0
  9
$LOFTPARAM
 70
     7
  9
$LOFTNORMALS
280
     1
  9
$LATITUDE
 40
37.795
  9
$LONGITUDE
 40
-122.394
  9
$NORTHDIRECTION
 40
0.0
  9
$TIMEZONE
 70
 -8000
  9
$LIGHTGLYPHDISPLAY
280
     1
  9
$TILEMODELIGHTSYNCH
280
     1
  9
$CMATERIAL
347
11
  9
$SOLIDHIST
280
     0
  9
$SHOWHIST
280
     1
  9
$DWFFRAME
280
     2
  9
$DGNFRAME
280
     0
  9
$REALWORLDSCALE
290
     1
  9
$INTERFERECOLOR
 62
     1
  9
$INTERFEREOBJVS
345
33
  9
$INTERFEREVPVS
346
30
  9
$CSHADOW
280
     0
  9
$SHADOWPLANELOCATION
 40
0.0
  0
ENDSEC
  0
SECTION
  2
CLASSES
  0
CLASS
  1
ACDBDICTIONARYWDFLT
  2
AcDbDictionaryWithDefault
  3
ObjectDBX Classes
 90
        0
 91
        1
280
     0
281
     0
  0
CLASS
  1
MATERIAL
  2
AcDbMaterial
  3
ObjectDBX Classes
 90
     1153
 91
        3
280
     0
281
     0
  0
CLASS
  1
VISUALSTYLE
  2
AcDbVisualStyle
  3
ObjectDBX Classes
 90
     4095
 91
       24
280
     0
281
     0
  0
CLASS
  1
SCALE
  2
AcDbScale
  3
ObjectDBX Classes
 90
     1153
 91
       17
280
     0
281
     0
  0
CLASS
  1
TABLESTYLE
  2
AcDbTableStyle
  3
ObjectDBX Classes
 90
     4095
 91
        1
280
     0
281
     0
  0
CLASS
  1
MLEADERSTYLE
  2
AcDbMLeaderStyle
  3
ACDB_MLEADERSTYLE_CLASS
 90
     4095
 91
        1
280
     0
281
     0
  0
CLASS
  1
ACDBSECTIONVIEWSTYLE
  2
AcDbSectionViewStyle
  3
ObjectDBX Classes
 90
     1025
 91
        1
280
     0
281
     0
  0
CLASS
  1
ACDBDETAILVIEWSTYLE
  2
AcDbDetailViewStyle
  3
ObjectDBX Classes
 90
     1025
 91
        1
280
     0
281
     0
  0
CLASS
  1
DICTIONARYVAR
  2
AcDbDictionaryVar
  3
ObjectDBX Classes
 90
        0
 91
        5
280
     0
281
     0
  0
CLASS
  1
CELLSTYLEMAP
  2
AcDbCellStyleMap
  3
ObjectDBX Classes
 90
     1152
 91
        5
280
     0
281
     0
  0
CLASS
  1
SORTENTSTABLE
  2
AcDbSortentsTable
  3
ObjectDBX Classes
 90
        0
 91
        4
280
     0
281
     0
  0
ENDSEC
  0
SECTION
  2
TABLES
  0
TABLE
  2
VPORT
  5
8
330
0
100
AcDbSymbolTable
 70
     1
1001
ACAD
1000
DbSaveVer
1071
      105
  0
VPORT
  5
57
330
8
100
AcDbSymbolTableRecord
100
AcDbViewportTableRecord
  2
*Active
 70
     0
 10
0.0
 20
0.0
 11
1.0
 21
1.0
 12
-49.40200794128907
 22
44.7691895268286
 13
0.0
 23
0.0
 14
1.0
 24
1.0
 15
0.0
 25
0.0
 16
0.0
 26
0.0
 36
1.0
 17
319.9999999200078
 27
-148.4999999628701
 37
0.0
 40
32.79181786714578
 41
1.931468531468531
 42
50.0
 43
0.0
 44
0.0
 50
0.0
 51
0.0
 71
     0
 72
   100
 73
     1
 74
     0
 75
     1
 76
     0
 77
     0
 78
     0
281
     0
 65
     1
110
0.0
120
0.0
130
0.0
111
1.0
121
0.0
131
0.0
112
0.0
122
1.0
132
0.0
 79
     0
146
0.0
348
2F
 60
     3
 61
     5
292
     1
282
     1
141
0.0
142
0.0
 63
   250
421
  3355443
1001
ACAD_NAV_VCDISPLAY
1070
     3
  0
ENDTAB
  0
TABLE
  2
LTYPE
  5
5
330
0
100
AcDbSymbolTable
 70
     1
  0
LTYPE
  5
5B
330
5
100
AcDbSymbolTableRecord
100
AcDbLinetypeTableRecord
  2
ByBlock
 70
     0
  3

 72
    65
 73
     0
 40
0.0
  0
LTYPE
  5
5C
330
5
100
AcDbSymbolTableRecord
100
AcDbLinetypeTableRecord
  2
ByLayer
 70
     0
  3

 72
    65
 73
     0
 40
0.0
  0
LTYPE
  5
5D
330
5
100
AcDbSymbolTableRecord
100
AcDbLinetypeTableRecord
  2
Continuous
 70
     0
  3
Solid line
 72
    65
 73
     0
 40
0.0
  0
ENDTAB
  0
TABLE
  2
LAYER
  5
2
330
0
100
AcDbSymbolTable
 70
     3
  0
LAYER
  5
54
330
2
100
AcDbSymbolTableRecord
100
AcDbLayerTableRecord
  2
0
 70
     0
 62
     7
  6
Continuous
370
    -3
390
F
347
21
348
0
  0
LAYER
  5
78
330
2
100
AcDbSymbolTableRecord
100
AcDbLayerTableRecord
  2
Livello 1
 70
     0
 62
     7
  6
Continuous
370
     0
390
F
347
21
348
0
  0
LAYER
  5
939
330
2
100
AcDbSymbolTableRecord
100
AcDbLayerTableRecord
  2
Livello 3
 70
     0
 62
     7
  6
Continuous
370
     0
390
F
347
21
348
0
  0
ENDTAB
  0
TABLE
  2
STYLE
  5
3
330
0
100
AcDbSymbolTable
 70
     2
  0
STYLE
  5
55
330
3
100
AcDbSymbolTableRecord
100
AcDbTextStyleTableRecord
  2
Standard
 70
     0
 40
0.0
 41
1.0
 50
0.0
 71
     0
 42
0.2
  3
txt
  4

  0
STYLE
  5
5A
330
3
100
AcDbSymbolTableRecord
100
AcDbTextStyleTableRecord
  2
Annotative
 70
     0
 40
0.0
 41
1.0
 50
0.0
 71
     0
 42
0.2
  3
txt
  4

1001
AcadAnnotative
1000
AnnotativeData
1002
{
1070
     1
1070
     1
1002
}
  0
ENDTAB
  0
TABLE
  2
VIEW
  5
6
330
0
100
AcDbSymbolTable
 70
     0
  0
ENDTAB
  0
TABLE
  2
UCS
  5
7
330
0
100
AcDbSymbolTable
 70
     0
  0
ENDTAB
  0
TABLE
  2
APPID
  5
9
330
0
100
AcDbSymbolTable
 70
     3
  0
APPID
  5
56
330
9
100
AcDbSymbolTableRecord
100
AcDbRegAppTableRecord
  2
ACAD
 70
     0
  0
APPID
  5
5E
330
9
100
AcDbSymbolTableRecord
100
AcDbRegAppTableRecord
  2
AcadAnnotative
 70
     0
  0
APPID
  5
92C
330
9
100
AcDbSymbolTableRecord
100
AcDbRegAppTableRecord
  2
ACAD_NAV_VCDISPLAY
 70
     0
  0
ENDTAB
  0
TABLE
  2
DIMSTYLE
  5
A
330
0
100
AcDbSymbolTable
 70
     2
100
AcDbDimStyleTable
 71
     0
  0
DIMSTYLE
105
58
330
A
100
AcDbSymbolTableRecord
100
AcDbDimStyleTableRecord
  2
Standard
 70
     0
340
55
  0
DIMSTYLE
105
59
330
A
100
AcDbSymbolTableRecord
100
AcDbDimStyleTableRecord
  2
Annotative
 70
     0
340
55
1001
AcadAnnotative
1000
AnnotativeData
1002
{
1070
     1
1070
     1
1002
}
  0
ENDTAB
  0
TABLE
  2
BLOCK_RECORD
  5
1
330
0
100
AcDbSymbolTable
 70
    28
  0
BLOCK_RECORD
  5
70
102
{ACAD_XDICTIONARY
360
363
102
}
330
1
100
AcDbSymbolTableRecord
100
AcDbBlockTableRecord
  2
*Model_Space
340
73
 70
     0
280
     1
281
     0
  0
BLOCK_RECORD
  5
6C
330
1
100
AcDbSymbolTableRecord
100
AcDbBlockTableRecord
  2
*Paper_Space
340
6F
 70
     0
280
     1
281
     0
  0
BLOCK_RECORD
  5
74
330
1
100
AcDbSymbolTableRecord
100
AcDbBlockTableRecord
  2
*Paper_Space0
340
77
 70
     0
280
     1
281
     0
  0
BLOCK_RECORD
  5
269
330
1
100
AcDbSymbolTableRecord
100
AcDbBlockTableRecord
  2
Block_0
340
0
 70
     0
280
     1
281
     0
  0
BLOCK_RECORD
  5
26D
330
1
100
AcDbSymbolTableRecord
100
AcDbBlockTableRecord
  2
Block_1
340
0
102
{BLKREFS
331
26E
102
}
 70
     0
280
     1
281
     0
  0
BLOCK_RECORD
  5
27A
330
1
100
AcDbSymbolTableRecord
100
AcDbBlockTableRecord
  2
Block_2
340
0
 70
     0
280
     1
281
     0
  0
BLOCK_RECORD
  5
27E
330
1
100
AcDbSymbolTableRecord
100
AcDbBlockTableRecord
  2
Block_3
340
0
102
{BLKREFS
331
27F
102
}
 70
     0
280
     1
281
     0
  0
BLOCK_RECORD
  5
28A
330
1
100
AcDbSymbolTableRecord
100
AcDbBlockTableRecord
  2
Block_4
340
0
 70
     0
280
     1
281
     0
  0
BLOCK_RECORD
  5
28E
330
1
100
AcDbSymbolTableRecord
100
AcDbBlockTableRecord
  2
Block_5
340
0
102
{BLKREFS
331
28F
102
}
 70
     0
280
     1
281
     0
  0
BLOCK_RECORD
  5
297
330
1
100
AcDbSymbolTableRecord
100
AcDbBlockTableRecord
  2
Block_6
340
0
 70
     0
280
     1
281
     0
  0
BLOCK_RECORD
  5
29B
330
1
100
AcDbSymbolTableRecord
100
AcDbBlockTableRecord
  2
Block_7
340
0
102
{BLKREFS
331
29C
102
}
 70
     0
280
     1
281
     0
  0
BLOCK_RECORD
  5
2A3
330
1
100
AcDbSymbolTableRecord
100
AcDbBlockTableRecord
  2
Block_8
340
0
 70
     0
280
     1
281
     0
  0
BLOCK_RECORD
  5
2A7
330
1
100
AcDbSymbolTableRecord
100
AcDbBlockTableRecord
  2
Block_9
340
0
102
{BLKREFS
331
2A8
102
}
 70
     0
280
     1
281
     0
  0
BLOCK_RECORD
  5
2B3
330
1
100
AcDbSymbolTableRecord
100
AcDbBlockTableRecord
  2
Block_10
340
0
 70
     0
280
     1
281
     0
  0
BLOCK_RECORD
  5
2B7
330
1
100
AcDbSymbolTableRecord
100
AcDbBlockTableRecord
  2
Block_11
340
0
102
{BLKREFS
331
2B8
102
}
 70
     0
280
     1
281
     0
  0
BLOCK_RECORD
  5
2C3
330
1
100
AcDbSymbolTableRecord
100
AcDbBlockTableRecord
  2
Block_12
340
0
 70
     0
280
     1
281
     0
  0
BLOCK_RECORD
  5
2C7
330
1
100
AcDbSymbolTableRecord
100
AcDbBlockTableRecord
  2
Block_13
340
0
102
{BLKREFS
331
2C8
102
}
 70
     0
280
     1
281
     0
  0
BLOCK_RECORD
  5
2D4
330
1
100
AcDbSymbolTableRecord
100
AcDbBlockTableRecord
  2
Block_14
340
0
 70
     0
280
     1
281
     0
  0
BLOCK_RECORD
  5
2D8
330
1
100
AcDbSymbolTableRecord
100
AcDbBlockTableRecord
  2
Block_15
340
0
102
{BLKREFS
331
2D9
102
}
 70
     0
280
     1
281
     0
  0
BLOCK_RECORD
  5
2E5
330
1
100
AcDbSymbolTableRecord
100
AcDbBlockTableRecord
  2
Block_16
340
0
 70
     0
280
     1
281
     0
  0
BLOCK_RECORD
  5
2E9
330
1
100
AcDbSymbolTableRecord
100
AcDbBlockTableRecord
  2
Block_17
340
0
102
{BLKREFS
331
2EA
102
}
 70
     0
280
     1
281
     0
  0
BLOCK_RECORD
  5
2F2
330
1
100
AcDbSymbolTableRecord
100
AcDbBlockTableRecord
  2
Block_18
340
0
 70
     0
280
     1
281
     0
  0
BLOCK_RECORD
  5
2F6
330
1
100
AcDbSymbolTableRecord
100
AcDbBlockTableRecord
  2
Block_19
340
0
102
{BLKREFS
331
2F7
102
}
 70
     0
280
     1
281
     0
  0
BLOCK_RECORD
  5
2FE
330
1
100
AcDbSymbolTableRecord
100
AcDbBlockTableRecord
  2
Block_20
340
0
 70
     0
280
     1
281
     0
  0
BLOCK_RECORD
  5
302
330
1
100
AcDbSymbolTableRecord
100
AcDbBlockTableRecord
  2
Block_21
340
0
102
{BLKREFS
331
303
102
}
 70
     0
280
     1
281
     0
  0
BLOCK_RECORD
  5
30F
330
1
100
AcDbSymbolTableRecord
100
AcDbBlockTableRecord
  2
Block_22
340
0
 70
     0
280
     1
281
     0
  0
BLOCK_RECORD
  5
313
330
1
100
AcDbSymbolTableRecord
100
AcDbBlockTableRecord
  2
Block_23
340
0
102
{BLKREFS
331
314
102
}
 70
     0
280
     1
281
     0
  0
ENDTAB
  0
ENDSEC
  0
SECTION
  2
BLOCKS
  0
BLOCK
  5
71
330
70
100
AcDbEntity
  8
0
100
AcDbBlockBegin
  2
*Model_Space
 70
     0
 10
0.0
 20
0.0
 30
0.0
  3
*Model_Space
  1

  0
ENDBLK
  5
72
330
70
100
AcDbEntity
  8
0
100
AcDbBlockEnd
  0
BLOCK
  5
6D
330
6C
100
AcDbEntity
 67
     1
  8
0
100
AcDbBlockBegin
  2
*Paper_Space
 70
     0
 10
0.0
 20
0.0
 30
0.0
  3
*Paper_Space
  1

  0
ENDBLK
  5
6E
330
6C
100
AcDbEntity
 67
     1
  8
0
100
AcDbBlockEnd
  0
BLOCK
  5
75
330
74
100
AcDbEntity
 67
     1
  8
0
100
AcDbBlockBegin
  2
*Paper_Space0
 70
     0
 10
0.0
 20
0.0
 30
0.0
  3
*Paper_Space0
  1

  0
ENDBLK
  5
76
330
74
100
AcDbEntity
 67
     1
  8
0
100
AcDbBlockEnd
  0
BLOCK
  5
26B
330
269
100
AcDbEntity
  8
0
100
AcDbBlockBegin
  2
Block_0
 70
     0
 10
0.0
 20
0.0
 30
0.0
  3
Block_0
  1

  0
INSERT
  5
26E
330
269
100
AcDbEntity
  8
Livello 1
100
AcDbBlockReference
  2
Block_1
 10
0.0
 20
0.0
 30
0.0
  0
ENDBLK
  5
26C
330
269
100
AcDbEntity
  8
0
100
AcDbBlockEnd
  0
BLOCK
  5
26F
330
26D
100
AcDbEntity
  8
0
100
AcDbBlockBegin
  2
Block_1
 70
     0
 10
0.0
 20
0.0
 30
0.0
  3
Block_1
  1

  0
SPLINE
  5
271
330
26D
100
AcDbEntity
  8
Livello 1
100
AcDbSpline
210
0.0
220
0.0
230
1.0
 70
    11
 71
     3
 72
    29
 73
    25
 74
     0
 42
0.000000001
 43
0.0000000001
 40
0.0
 40
0.0
 40
0.0
 40
0.0
 40
1.0
 40
1.0
 40
1.0
 40
2.0
 40
2.0
 40
2.0
 40
3.0
 40
3.0
 40
3.0
 40
4.0
 40
4.0
 40
4.0
 40
5.0
 40
5.0
 40
5.0
 40
6.0
 40
6.0
 40
6.0
 40
7.0
 40
7.0
 40
7.0
 40
8.0
 40
8.0
 40
8.0
 40
8.0
 10
42.12783337705483
 20
-175.9213893874433
 30
0.0
 10
42.12783337705483
 20
-175.9213893874433
 30
0.0
 10
42.10233967046399
 20
-175.9213893874433
 30
0.0
 10
42.10233967046399
 20
-175.9213893874433
 30
0.0
 10
42.10233967046399
 20
-175.9213893874433
 30
0.0
 10
40.66745740085743
 20
-176.6958468525274
 30
0.0
 10
40.66745740085743
 20
-176.6958468525274
 30
0.0
 10
40.66745740085743
 20
-176.6958468525274
 30
0.0
 10
40.45162216870654
 20
-175.8449082676706
 30
0.0
 10
40.45162216870654
 20
-175.8449082676706
 30
0.0
 10
40.45162216870654
 20
-175.8449082676706
 30
0.0
 10
42.25478514568631
 20
-174.8799370222522
 30
0.0
 10
42.25478514568631
 20
-174.8799370222522
 30
0.0
 10
42.25478514568631
 20
-174.8799370222522
 30
0.0
 10
43.20718179258363
 20
-174.8799370222522
 30
0.0
 10
43.20718179258363
 20
-174.8799370222522
 30
0.0
 10
43.20718179258363
 20
-174.8799370222522
 30
0.0
 10
43.20718179258363
 20
-183.1340412953623
 30
0.0
 10
43.20718179258363
 20
-183.1340412953623
 30
0.0
 10
43.20718179258363
 20
-183.1340412953623
 30
0.0
 10
42.12783337705483
 20
-183.1340412953623
 30
0.0
 10
42.12783337705483
 20
-183.1340412953623
 30
0.0
 10
42.12783337705483
 20
-183.1340412953623
 30
0.0
 10
42.12783337705483
 20
-175.9213893874433
 30
0.0
 10
42.12783337705483
 20
-175.9213893874433
 30
0.0
  0
HATCH
  5
272
330
26D
100
AcDbEntity
  8
Livello 1
 62
   250
420
  1907995
440
 33554687
100
AcDbHatch
 10
0.0
 20
0.0
 30
0.0
210
0.0
220
0.0
230
1.0
  2
SOLID
 70
     1
 71
     1
 91
        1
 92
        1
 93
        1
 72
     4
 94
        3
 73
     0
 74
     0
 95
       29
 96
       25
 40
0.0
 40
0.0
 40
0.0
 40
0.0
 40
1.0
 40
1.0
 40
1.0
 40
2.0
 40
2.0
 40
2.0
 40
3.0
 40
3.0
 40
3.0
 40
4.0
 40
4.0
 40
4.0
 40
5.0
 40
5.0
 40
5.0
 40
6.0
 40
6.0
 40
6.0
 40
7.0
 40
7.0
 40
7.0
 40
8.0
 40
8.0
 40
8.0
 40
8.0
 10
42.12783337705483
 20
-175.9213893874433
 10
42.12783337705483
 20
-175.9213893874433
 10
42.10233967046399
 20
-175.9213893874433
 10
42.10233967046399
 20
-175.9213893874433
 10
42.10233967046399
 20
-175.9213893874433
 10
40.66745740085743
 20
-176.6958468525274
 10
40.66745740085743
 20
-176.6958468525274
 10
40.66745740085743
 20
-176.6958468525274
 10
40.45162216870654
 20
-175.8449082676706
 10
40.45162216870654
 20
-175.8449082676706
 10
40.45162216870654
 20
-175.8449082676706
 10
42.25478514568631
 20
-174.8799370222522
 10
42.25478514568631
 20
-174.8799370222522
 10
42.25478514568631
 20
-174.8799370222522
 10
43.20718179258363
 20
-174.8799370222522
 10
43.20718179258363
 20
-174.8799370222522
 10
43.20718179258363
 20
-174.8799370222522
 10
43.20718179258363
 20
-183.1340412953623
 10
43.20718179258363
 20
-183.1340412953623
 10
43.20718179258363
 20
-183.1340412953623
 10
42.12783337705483
 20
-183.1340412953623
 10
42.12783337705483
 20
-183.1340412953623
 10
42.12783337705483
 20
-183.1340412953623
 10
42.12783337705483
 20
-175.9213893874433
 10
42.12783337705483
 20
-175.9213893874433
 97
        0
 97
        1
330
271
 75
     2
 76
     1
 98
        1
 10
0.0
 20
0.0
450
        0
451
        0
460
0.0
461
0.0
452
        0
462
0.0
453
        0
470

  0
SPLINE
  5
273
330
26D
100
AcDbEntity
  8
Livello 1
100
AcDbSpline
210
0.0
220
0.0
230
1.0
 70
    11
 71
     3
 72
    26
 73
    22
 74
     0
 42
0.000000001
 43
0.0000000001
 40
0.0
 40
0.0
 40
0.0
 40
0.0
 40
1.0
 40
1.0
 40
1.0
 40
2.0
 40
2.0
 40
2.0
 40
3.0
 40
3.0
 40
3.0
 40
4.0
 40
4.0
 40
4.0
 40
5.0
 40
5.0
 40
5.0
 40
6.0
 40
6.0
 40
6.0
 40
7.0
 40
7.0
 40
7.0
 40
7.0
 10
49.6712144515579
 20
-180.0100287093377
 30
0.0
 10
49.6712144515579
 20
-180.0100287093377
 30
0.0
 10
49.6712144515579
 20
-177.2546413402349
 30
0.0
 10
49.6712144515579
 20
-177.2546413402349
 30
0.0
 10
49.6712144515579
 20
-176.822970875933
 30
0.0
 10
49.68396130485333
 20
-176.3909559020828
 30
0.0
 10
49.7092827566699
 20
-175.959285437781
 30
0.0
 10
49.7092827566699
 20
-175.959285437781
 30
0.0
 10
49.6712144515579
 20
-175.959285437781
 30
0.0
 10
49.6712144515579
 20
-175.959285437781
 30
0.0
 10
49.4171386595207
 20
-176.4419433152645
 30
0.0
 10
49.21405028066525
 20
-176.7974771693423
 30
0.0
 10
48.9854681952189
 20
-177.1785047300109
 30
0.0
 10
48.9854681952189
 20
-177.1785047300109
 30
0.0
 10
46.96646998608825
 20
-179.9848795122954
 30
0.0
 10
46.96646998608825
 20
-179.9848795122954
 30
0.0
 10
46.96646998608825
 20
-179.9848795122954
 30
0.0
 10
46.96646998608825
 20
-180.0100287093377
 30
0.0
 10
46.96646998608825
 20
-180.0100287093377
 30
0.0
 10
46.96646998608825
 20
-180.0100287093377
 30
0.0
 10
49.6712144515579
 20
-180.0100287093377
 30
0.0
 10
49.6712144515579
 20
-180.0100287093377
 30
0.0
  0
SPLINE
  5
274
330
26D
100
AcDbEntity
  8
Livello 1
100
AcDbSpline
210
0.0
220
0.0
230
1.0
 70
    11
 71
     3
 72
    38
 73
    34
 74
     0
 42
0.000000001
 43
0.0000000001
 40
0.0
 40
0.0
 40
0.0
 40
0.0
 40
1.0
 40
1.0
 40
1.0
 40
2.0
 40
2.0
 40
2.0
 40
3.0
 40
3.0
 40
3.0
 40
4.0
 40
4.0
 40
4.0
 40
5.0
 40
5.0
 40
5.0
 40
6.0
 40
6.0
 40
6.0
 40
7.0
 40
7.0
 40
7.0
 40
8.0
 40
8.0
 40
8.0
 40
9.0
 40
9.0
 40
9.0
 40
10.0
 40
10.0
 40
10.0
 40
11.0
 40
11.0
 40
11.0
 40
11.0
 10
49.6712144515579
 20
-183.1340412953623
 30
0.0
 10
49.6712144515579
 20
-183.1340412953623
 30
0.0
 10
49.6712144515579
 20
-180.8864610007853
 30
0.0
 10
49.6712144515579
 20
-180.8864610007853
 30
0.0
 10
49.6712144515579
 20
-180.8864610007853
 30
0.0
 10
45.83630641215203
 20
-180.8864610007853
 30
0.0
 10
45.83630641215203
 20
-180.8864610007853
 30
0.0
 10
45.83630641215203
 20
-180.8864610007853
 30
0.0
 10
45.83630641215203
 20
-180.1498995860389
 30
0.0
 10
45.83630641215203
 20
-180.1498995860389
 30
0.0
 10
45.83630641215203
 20
-180.1498995860389
 30
0.0
 10
49.51876897633558
 20
-174.8799370222522
 30
0.0
 10
49.51876897633558
 20
-174.8799370222522
 30
0.0
 10
49.51876897633558
 20
-174.8799370222522
 30
0.0
 10
50.72524141527008
 20
-174.8799370222522
 30
0.0
 10
50.72524141527008
 20
-174.8799370222522
 30
0.0
 10
50.72524141527008
 20
-174.8799370222522
 30
0.0
 10
50.72524141527008
 20
-180.0100287093377
 30
0.0
 10
50.72524141527008
 20
-180.0100287093377
 30
0.0
 10
50.72524141527008
 20
-180.0100287093377
 30
0.0
 10
51.88072644102287
 20
-180.0100287093377
 30
0.0
 10
51.88072644102287
 20
-180.0100287093377
 30
0.0
 10
51.88072644102287
 20
-180.0100287093377
 30
0.0
 10
51.88072644102287
 20
-180.8864610007853
 30
0.0
 10
51.88072644102287
 20
-180.8864610007853
 30
0.0
 10
51.88072644102287
 20
-180.8864610007853
 30
0.0
 10
50.72524141527008
 20
-180.8864610007853
 30
0.0
 10
50.72524141527008
 20
-180.8864610007853
 30
0.0
 10
50.72524141527008
 20
-180.8864610007853
 30
0.0
 10
50.72524141527008
 20
-183.1340412953623
 30
0.0
 10
50.72524141527008
 20
-183.1340412953623
 30
0.0
 10
50.72524141527008
 20
-183.1340412953623
 30
0.0
 10
49.6712144515579
 20
-183.1340412953623
 30
0.0
 10
49.6712144515579
 20
-183.1340412953623
 30
0.0
  0
HATCH
  5
275
330
26D
100
AcDbEntity
  8
Livello 1
 62
   250
420
  1907995
440
 33554687
100
AcDbHatch
 10
0.0
 20
0.0
 30
0.0
210
0.0
220
0.0
230
1.0
  2
SOLID
 70
     1
 71
     1
 91
        2
 92
        1
 93
        1
 72
     4
 94
        3
 73
     0
 74
     0
 95
       26
 96
       22
 40
0.0
 40
0.0
 40
0.0
 40
0.0
 40
1.0
 40
1.0
 40
1.0
 40
2.0
 40
2.0
 40
2.0
 40
3.0
 40
3.0
 40
3.0
 40
4.0
 40
4.0
 40
4.0
 40
5.0
 40
5.0
 40
5.0
 40
6.0
 40
6.0
 40
6.0
 40
7.0
 40
7.0
 40
7.0
 40
7.0
 10
49.6712144515579
 20
-180.0100287093377
 10
49.6712144515579
 20
-180.0100287093377
 10
49.6712144515579
 20
-177.2546413402349
 10
49.6712144515579
 20
-177.2546413402349
 10
49.6712144515579
 20
-176.822970875933
 10
49.68396130485333
 20
-176.3909559020828
 10
49.7092827566699
 20
-175.959285437781
 10
49.7092827566699
 20
-175.959285437781
 10
49.6712144515579
 20
-175.959285437781
 10
49.6712144515579
 20
-175.959285437781
 10
49.4171386595207
 20
-176.4419433152645
 10
49.21405028066525
 20
-176.7974771693423
 10
48.9854681952189
 20
-177.1785047300109
 10
48.9854681952189
 20
-177.1785047300109
 10
46.96646998608825
 20
-179.9848795122954
 10
46.96646998608825
 20
-179.9848795122954
 10
46.96646998608825
 20
-179.9848795122954
 10
46.96646998608825
 20
-180.0100287093377
 10
46.96646998608825
 20
-180.0100287093377
 10
46.96646998608825
 20
-180.0100287093377
 10
49.6712144515579
 20
-180.0100287093377
 10
49.6712144515579
 20
-180.0100287093377
 97
        0
 97
        1
330
273
 92
        1
 93
        1
 72
     4
 94
        3
 73
     0
 74
     0
 95
       38
 96
       34
 40
0.0
 40
0.0
 40
0.0
 40
0.0
 40
1.0
 40
1.0
 40
1.0
 40
2.0
 40
2.0
 40
2.0
 40
3.0
 40
3.0
 40
3.0
 40
4.0
 40
4.0
 40
4.0
 40
5.0
 40
5.0
 40
5.0
 40
6.0
 40
6.0
 40
6.0
 40
7.0
 40
7.0
 40
7.0
 40
8.0
 40
8.0
 40
8.0
 40
9.0
 40
9.0
 40
9.0
 40
10.0
 40
10.0
 40
10.0
 40
11.0
 40
11.0
 40
11.0
 40
11.0
 10
49.6712144515579
 20
-183.1340412953623
 10
49.6712144515579
 20
-183.1340412953623
 10
49.6712144515579
 20
-180.8864610007853
 10
49.6712144515579
 20
-180.8864610007853
 10
49.6712144515579
 20
-180.8864610007853
 10
45.83630641215203
 20
-180.8864610007853
 10
45.83630641215203
 20
-180.8864610007853
 10
45.83630641215203
 20
-180.8864610007853
 10
45.83630641215203
 20
-180.1498995860389
 10
45.83630641215203
 20
-180.1498995860389
 10
45.83630641215203
 20
-180.1498995860389
 10
49.51876897633558
 20
-174.8799370222522
 10
49.51876897633558
 20
-174.8799370222522
 10
49.51876897633558
 20
-174.8799370222522
 10
50.72524141527008
 20
-174.8799370222522
 10
50.72524141527008
 20
-174.8799370222522
 10
50.72524141527008
 20
-174.8799370222522
 10
50.72524141527008
 20
-180.0100287093377
 10
50.72524141527008
 20
-180.0100287093377
 10
50.72524141527008
 20
-180.0100287093377
 10
51.88072644102287
 20
-180.0100287093377
 10
51.88072644102287
 20
-180.0100287093377
 10
51.88072644102287
 20
-180.0100287093377
 10
51.88072644102287
 20
-180.8864610007853
 10
51.88072644102287
 20
-180.8864610007853
 10
51.88072644102287
 20
-180.8864610007853
 10
50.72524141527008
 20
-180.8864610007853
 10
50.72524141527008
 20
-180.8864610007853
 10
50.72524141527008
 20
-180.8864610007853
 10
50.72524141527008
 20
-183.1340412953623
 10
50.72524141527008
 20
-183.1340412953623
 10
50.72524141527008
 20
-183.1340412953623
 10
49.6712144515579
 20
-183.1340412953623
 10
49.6712144515579
 20
-183.1340412953623
 97
        0
 97
        1
330
274
 75
     2
 76
     1
 98
        1
 10
0.0
 20
0.0
450
        0
451
        0
460
0.0
461
0.0
452
        0
462
0.0
453
        0
470

  0
SPLINE
  5
276
330
26D
100
AcDbEntity
  8
Livello 1
100
AcDbSpline
210
0.0
220
0.0
230
1.0
 70
     9
 71
     3
 72
    17
 73
    13
 74
     0
 42
0.000000001
 43
0.0000000001
 40
0.0
 40
0.0
 40
0.0
 40
0.0
 40
1.0
 40
1.0
 40
1.0
 40
2.0
 40
2.0
 40
2.0
 40
3.0
 40
3.0
 40
3.0
 40
4.0
 40
4.0
 40
4.0
 40
4.0
 10
52.3637288280549
 20
-184.695703078826
 30
0.0
 10
52.64312607190865
 20
-183.9467393203326
 30
0.0
 10
52.98608532746529
 20
-182.5879936609502
 30
0.0
 10
53.12578394939215
 20
-181.6609184658695
 30
0.0
 10
53.12578394939215
 20
-181.6609184658695
 30
0.0
 10
54.3701524386644
 20
-181.5337944424637
 30
0.0
 10
54.3701524386644
 20
-181.5337944424637
 30
0.0
 10
54.07818059628947
 20
-182.6134873675411
 30
0.0
 10
53.51938610858196
 20
-184.0228759305566
 30
0.0
 10
53.16385225450417
 20
-184.6195664686019
 30
0.0
 10
53.16385225450417
 20
-184.6195664686019
 30
0.0
 10
52.3637288280549
 20
-184.695703078826
 30
0.0
 10
52.3637288280549
 20
-184.695703078826
 30
0.0
  0
HATCH
  5
277
330
26D
100
AcDbEntity
  8
Livello 1
 62
   250
420
  1907995
440
 33554687
100
AcDbHatch
 10
0.0
 20
0.0
 30
0.0
210
0.0
220
0.0
230
1.0
  2
SOLID
 70
     1
 71
     1
 91
        1
 92
        1
 93
        1
 72
     4
 94
        3
 73
     0
 74
     0
 95
       17
 96
       13
 40
0.0
 40
0.0
 40
0.0
 40
0.0
 40
1.0
 40
1.0
 40
1.0
 40
2.0
 40
2.0
 40
2.0
 40
3.0
 40
3.0
 40
3.0
 40
4.0
 40
4.0
 40
4.0
 40
4.0
 10
52.3637288280549
 20
-184.695703078826
 10
52.64312607190865
 20
-183.9467393203326
 10
52.98608532746529
 20
-182.5879936609502
 10
53.12578394939215
 20
-181.6609184658695
 10
53.12578394939215
 20
-181.6609184658695
 10
54.3701524386644
 20
-181.5337944424637
 10
54.3701524386644
 20
-181.5337944424637
 10
54.07818059628947
 20
-182.6134873675411
 10
53.51938610858196
 20
-184.0228759305566
 10
53.16385225450417
 20
-184.6195664686019
 10
53.16385225450417
 20
-184.6195664686019
 10
52.3637288280549
 20
-184.695703078826
 10
52.3637288280549
 20
-184.695703078826
 97
        0
 97
        1
330
276
 75
     2
 76
     1
 98
        1
 10
0.0
 20
0.0
450
        0
451
        0
460
0.0
461
0.0
452
        0
462
0.0
453
        0
470

  0
SPLINE
  5
278
330
26D
100
AcDbEntity
  8
Livello 1
100
AcDbSpline
210
0.0
220
0.0
230
1.0
 70
    11
 71
     3
 72
    50
 73
    46
 74
     0
 42
0.000000001
 43
0.0000000001
 40
0.0
 40
0.0
 40
0.0
 40
0.0
 40
1.0
 40
1.0
 40
1.0
 40
2.0
 40
2.0
 40
2.0
 40
3.0
 40
3.0
 40
3.0
 40
4.0
 40
4.0
 40
4.0
 40
5.0
 40
5.0
 40
5.0
 40
6.0
 40
6.0
 40
6.0
 40
7.0
 40
7.0
 40
7.0
 40
8.0
 40
8.0
 40
8.0
 40
9.0
 40
9.0
 40
9.0
 40
10.0
 40
10.0
 40
10.0
 40
11.0
 40
11.0
 40
11.0
 40
12.0
 40
12.0
 40
12.0
 40
13.0
 40
13.0
 40
13.0
 40
14.0
 40
14.0
 40
14.0
 40
15.0
 40
15.0
 40
15.0
 40
15.0
 10
60.28779295367804
 20
-175.8197590706284
 30
0.0
 10
60.28779295367804
 20
-175.8197590706284
 30
0.0
 10
57.13863117061118
 20
-175.8197590706284
 30
0.0
 10
57.13863117061118
 20
-175.8197590706284
 30
0.0
 10
57.13863117061118
 20
-175.8197590706284
 30
0.0
 10
56.82116562164541
 20
-177.9402153417995
 30
0.0
 10
56.82116562164541
 20
-177.9402153417995
 30
0.0
 10
57.01167940197972
 20
-177.9150661447573
 30
0.0
 10
57.18944632901862
 20
-177.8895724381665
 30
0.0
 10
57.49416502468896
 20
-177.8895724381665
 30
0.0
 10
58.1290961226205
 20
-177.8895724381665
 30
0.0
 10
58.76402722055204
 20
-178.0290988053191
 30
0.0
 10
59.27200654985213
 20
-178.3339897557637
 30
0.0
 10
59.91951224630486
 20
-178.7022704631369
 30
0.0
 10
60.45298528219579
 20
-179.4133381712925
 30
0.0
 10
60.45298528219579
 20
-180.454446026935
 30
0.0
 10
60.45298528219579
 20
-182.067439733129
 30
0.0
 10
59.17037623303727
 20
-183.2735676625149
 30
0.0
 10
57.37996010935293
 20
-183.2735676625149
 30
0.0
 10
56.47837862086305
 20
-183.2735676625149
 30
0.0
 10
55.71632349952579
 20
-183.019664125252
 30
0.0
 10
55.32272134033599
 20
-182.7657605879891
 30
0.0
 10
55.32272134033599
 20
-182.7657605879891
 30
0.0
 10
55.60211858418974
 20
-181.9148220031324
 30
0.0
 10
55.60211858418974
 20
-181.9148220031324
 30
0.0
 10
55.9449055849721
 20
-182.1180826367621
 30
0.0
 10
56.61807724278993
 20
-182.3719861740251
 30
0.0
 10
57.3672132560575
 20
-182.3719861740251
 30
0.0
 10
58.42124021976968
 20
-182.3719861740251
 30
0.0
 10
59.32282170825957
 20
-181.6864121724603
 30
0.0
 10
59.32282170825957
 20
-180.5815700503407
 30
0.0
 10
59.31007485496415
 20
-179.5149684881073
 30
0.0
 10
58.59900714680858
 20
-178.7529133667701
 30
0.0
 10
56.94811739027686
 20
-178.7529133667701
 30
0.0
 10
56.47837862086305
 20
-178.7529133667701
 30
0.0
 10
56.11009791348983
 20
-178.8039007799518
 30
0.0
 10
55.80537921781949
 20
-178.8417968302895
 30
0.0
 10
55.80537921781949
 20
-178.8417968302895
 30
0.0
 10
56.33867999893618
 20
-174.8799370222522
 30
0.0
 10
56.33867999893618
 20
-174.8799370222522
 30
0.0
 10
56.33867999893618
 20
-174.8799370222522
 30
0.0
 10
60.28779295367804
 20
-174.8799370222522
 30
0.0
 10
60.28779295367804
 20
-174.8799370222522
 30
0.0
 10
60.28779295367804
 20
-174.8799370222522
 30
0.0
 10
60.28779295367804
 20
-175.8197590706284
 30
0.0
 10
60.28779295367804
 20
-175.8197590706284
 30
0.0
  0
HATCH
  5
279
330
26D
100
AcDbEntity
  8
Livello 1
 62
   250
420
  1907995
440
 33554687
100
AcDbHatch
 10
0.0
 20
0.0
 30
0.0
210
0.0
220
0.0
230
1.0
  2
SOLID
 70
     1
 71
     1
 91
        1
 92
        1
 93
        1
 72
     4
 94
        3
 73
     0
 74
     0
 95
       50
 96
       46
 40
0.0
 40
0.0
 40
0.0
 40
0.0
 40
1.0
 40
1.0
 40
1.0
 40
2.0
 40
2.0
 40
2.0
 40
3.0
 40
3.0
 40
3.0
 40
4.0
 40
4.0
 40
4.0
 40
5.0
 40
5.0
 40
5.0
 40
6.0
 40
6.0
 40
6.0
 40
7.0
 40
7.0
 40
7.0
 40
8.0
 40
8.0
 40
8.0
 40
9.0
 40
9.0
 40
9.0
 40
10.0
 40
10.0
 40
10.0
 40
11.0
 40
11.0
 40
11.0
 40
12.0
 40
12.0
 40
12.0
 40
13.0
 40
13.0
 40
13.0
 40
14.0
 40
14.0
 40
14.0
 40
15.0
 40
15.0
 40
15.0
 40
15.0
 10
60.28779295367804
 20
-175.8197590706284
 10
60.28779295367804
 20
-175.8197590706284
 10
57.13863117061118
 20
-175.8197590706284
 10
57.13863117061118
 20
-175.8197590706284
 10
57.13863117061118
 20
-175.8197590706284
 10
56.82116562164541
 20
-177.9402153417995
 10
56.82116562164541
 20
-177.9402153417995
 10
57.01167940197972
 20
-177.9150661447573
 10
57.18944632901862
 20
-177.8895724381665
 10
57.49416502468896
 20
-177.8895724381665
 10
58.1290961226205
 20
-177.8895724381665
 10
58.76402722055204
 20
-178.0290988053191
 10
59.27200654985213
 20
-178.3339897557637
 10
59.91951224630486
 20
-178.7022704631369
 10
60.45298528219579
 20
-179.4133381712925
 10
60.45298528219579
 20
-180.454446026935
 10
60.45298528219579
 20
-182.067439733129
 10
59.17037623303727
 20
-183.2735676625149
 10
57.37996010935293
 20
-183.2735676625149
 10
56.47837862086305
 20
-183.2735676625149
 10
55.71632349952579
 20
-183.019664125252
 10
55.32272134033599
 20
-182.7657605879891
 10
55.32272134033599
 20
-182.7657605879891
 10
55.60211858418974
 20
-181.9148220031324
 10
55.60211858418974
 20
-181.9148220031324
 10
55.9449055849721
 20
-182.1180826367621
 10
56.61807724278993
 20
-182.3719861740251
 10
57.3672132560575
 20
-182.3719861740251
 10
58.42124021976968
 20
-182.3719861740251
 10
59.32282170825957
 20
-181.6864121724603
 10
59.32282170825957
 20
-180.5815700503407
 10
59.31007485496415
 20
-179.5149684881073
 10
58.59900714680858
 20
-178.7529133667701
 10
56.94811739027686
 20
-178.7529133667701
 10
56.47837862086305
 20
-178.7529133667701
 10
56.11009791348983
 20
-178.8039007799518
 10
55.80537921781949
 20
-178.8417968302895
 10
55.80537921781949
 20
-178.8417968302895
 10
56.33867999893618
 20
-174.8799370222522
 10
56.33867999893618
 20
-174.8799370222522
 10
56.33867999893618
 20
-174.8799370222522
 10
60.28779295367804
 20
-174.8799370222522
 10
60.28779295367804
 20
-174.8799370222522
 10
60.28779295367804
 20
-174.8799370222522
 10
60.28779295367804
 20
-175.8197590706284
 10
60.28779295367804
 20
-175.8197590706284
 97
        0
 97
        1
330
278
 75
     2
 76
     1
 98
        1
 10
0.0
 20
0.0
450
        0
451
        0
460
0.0
461
0.0
452
        0
462
0.0
453
        0
470

  0
ENDBLK
  5
270
330
26D
100
AcDbEntity
  8
0
100
AcDbBlockEnd
  0
BLOCK
  5
27C
330
27A
100
AcDbEntity
  8
0
100
AcDbBlockBegin
  2
Block_2
 70
     0
 10
0.0
 20
0.0
 30
0.0
  3
Block_2
  1

  0
INSERT
  5
27F
330
27A
100
AcDbEntity
  8
Livello 1
100
AcDbBlockReference
  2
Block_3
 10
0.0
 20
0.0
 30
0.0
  0
ENDBLK
  5
27D
330
27A
100
AcDbEntity
  8
0
100
AcDbBlockEnd
  0
BLOCK
  5
280
330
27E
100
AcDbEntity
  8
0
100
AcDbBlockBegin
  2
Block_3
 70
     0
 10
0.0
 20
0.0
 30
0.0
  3
Block_3
  1

  0
SPLINE
  5
282
330
27E
100
AcDbEntity
  8
Livello 1
100
AcDbSpline
210
0.0
220
0.0
230
1.0
 70
     9
 71
     3
 72
    17
 73
    13
 74
     0
 42
0.000000001
 43
0.0000000001
 40
0.0
 40
0.0
 40
0.0
 40
0.0
 40
1.0
 40
1.0
 40
1.0
 40
2.0
 40
2.0
 40
2.0
 40
3.0
 40
3.0
 40
3.0
 40
4.0
 40
4.0
 40
4.0
 40
4.0
 10
125.9849025835211
 20
-141.4430460258371
 30
0.0
 10
124.9816907782164
 20
-141.4430460258371
 30
0.0
 10
124.4990329007329
 20
-142.1413668806973
 30
0.0
 10
124.1815673517671
 20
-143.2589558561123
 30
0.0
 10
124.4609645956209
 20
-144.2239271015308
 30
0.0
 10
125.0958956935524
 20
-144.7446532841263
 30
0.0
 10
125.8832722667063
 20
-144.7446532841263
 30
0.0
 10
126.7212917434933
 20
-144.7827215892383
 30
0.0
 10
127.4578531582397
 20
-144.1477904913068
 30
0.0
 10
127.4578531582397
 20
-143.0937635275945
 30
0.0
 10
127.4578531582397
 20
-142.0905517222898
 30
0.0
 10
126.8356689136036
 20
-141.4430460258371
 30
0.0
 10
125.9849025835211
 20
-141.4430460258371
 30
0.0
  0
SPLINE
  5
283
330
27E
100
AcDbEntity
  8
Livello 1
100
AcDbSpline
210
0.0
220
0.0
230
1.0
 70
     9
 71
     3
 72
    17
 73
    13
 74
     0
 42
0.000000001
 43
0.0000000001
 40
0.0
 40
0.0
 40
0.0
 40
0.0
 40
1.0
 40
1.0
 40
1.0
 40
2.0
 40
2.0
 40
2.0
 40
3.0
 40
3.0
 40
3.0
 40
4.0
 40
4.0
 40
4.0
 40
4.0
 10
121.8578504469661
 20
-144.51607119868
 30
0.0
 10
122.6832953252319
 20
-144.51607119868
 30
0.0
 10
123.1277126428292
 20
-143.8938869540439
 30
0.0
 10
123.3816161800921
 20
-142.9414903071466
 30
0.0
 10
123.1404594961246
 20
-142.2302503442167
 30
0.0
 10
122.6324801668245
 20
-141.6843749645789
 30
0.0
 10
121.8831718987827
 20
-141.6843749645789
 30
0.0
 10
121.2229193490345
 20
-141.6843749645789
 30
0.0
 10
120.5371730926955
 20
-142.0779771237687
 30
0.0
 10
120.5371730926955
 20
-143.0811889290734
 30
0.0
 10
120.5371730926955
 20
-144.0080918693799
 30
0.0
 10
121.1467827388105
 20
-144.51607119868
 30
0.0
 10
121.8578504469661
 20
-144.51607119868
 30
0.0
  0
SPLINE
  5
284
330
27E
100
AcDbEntity
  8
Livello 1
100
AcDbSpline
210
0.0
220
0.0
230
1.0
 70
     9
 71
     3
 72
    35
 73
    31
 74
     0
 42
0.000000001
 43
0.0000000001
 40
0.0
 40
0.0
 40
0.0
 40
0.0
 40
1.0
 40
1.0
 40
1.0
 40
2.0
 40
2.0
 40
2.0
 40
3.0
 40
3.0
 40
3.0
 40
4.0
 40
4.0
 40
4.0
 40
5.0
 40
5.0
 40
5.0
 40
6.0
 40
6.0
 40
6.0
 40
7.0
 40
7.0
 40
7.0
 40
8.0
 40
8.0
 40
8.0
 40
9.0
 40
9.0
 40
9.0
 40
10.0
 40
10.0
 40
10.0
 40
10.0
 10
126.0355454871543
 20
-145.8873914565837
 30
0.0
 10
124.9942653767375
 20
-145.8873914565837
 30
0.0
 10
124.2578762167654
 20
-145.2652072119476
 30
0.0
 10
123.8260334976893
 20
-144.2494208081216
 30
0.0
 10
123.8260334976893
 20
-144.2494208081216
 30
0.0
 10
123.7879651925773
 20
-144.2619954066428
 30
0.0
 10
123.7879651925773
 20
-144.2619954066428
 30
0.0
 10
123.3562947282755
 20
-145.1763237484281
 30
0.0
 10
122.6450547653457
 20
-145.5699259076179
 30
0.0
 10
121.9339870571901
 20
-145.5699259076179
 30
0.0
 10
120.626056556215
 20
-145.5699259076179
 30
0.0
 10
119.7372219210205
 20
-144.4652560402726
 30
0.0
 10
119.7372219210205
 20
-143.0176269173706
 30
0.0
 10
119.7372219210205
 20
-141.4175523192463
 30
0.0
 10
120.7404337263253
 20
-140.6176011475713
 30
0.0
 10
121.7689669834466
 20
-140.6176011475713
 30
0.0
 10
122.4672878383068
 20
-140.6176011475713
 30
0.0
 10
123.2165961063486
 20
-140.9605604031279
 30
0.0
 10
123.6990817290579
 20
-141.9763468069538
 30
0.0
 10
123.6990817290579
 20
-141.9763468069538
 30
0.0
 10
123.7371500341699
 20
-141.9763468069538
 30
0.0
 10
123.7371500341699
 20
-141.9763468069538
 30
0.0
 10
124.1434990466551
 20
-140.9478135498325
 30
0.0
 10
124.8673136081061
 20
-140.3128824519009
 30
0.0
 10
125.8705254134108
 20
-140.3128824519009
 30
0.0
 10
127.3054076830174
 20
-140.3128824519009
 30
0.0
 10
128.27055118321
 20
-141.544676342652
 30
0.0
 10
128.27055118321
 20
-143.1192572341855
 30
0.0
 10
128.27055118321
 20
-144.8461113461669
 30
0.0
 10
127.2420179260888
 20
-145.8873914565837
 30
0.0
 10
126.0355454871543
 20
-145.8873914565837
 30
0.0
  0
HATCH
  5
285
330
27E
100
AcDbEntity
  8
Livello 1
 62
   250
420
  1907995
440
 33554687
100
AcDbHatch
 10
0.0
 20
0.0
 30
0.0
210
0.0
220
0.0
230
1.0
  2
SOLID
 70
     1
 71
     1
 91
        3
 92
        1
 93
        1
 72
     4
 94
        3
 73
     0
 74
     0
 95
       17
 96
       13
 40
0.0
 40
0.0
 40
0.0
 40
0.0
 40
1.0
 40
1.0
 40
1.0
 40
2.0
 40
2.0
 40
2.0
 40
3.0
 40
3.0
 40
3.0
 40
4.0
 40
4.0
 40
4.0
 40
4.0
 10
125.9849025835211
 20
-141.4430460258371
 10
124.9816907782164
 20
-141.4430460258371
 10
124.4990329007329
 20
-142.1413668806973
 10
124.1815673517671
 20
-143.2589558561123
 10
124.4609645956209
 20
-144.2239271015308
 10
125.0958956935524
 20
-144.7446532841263
 10
125.8832722667063
 20
-144.7446532841263
 10
126.7212917434933
 20
-144.7827215892383
 10
127.4578531582397
 20
-144.1477904913068
 10
127.4578531582397
 20
-143.0937635275945
 10
127.4578531582397
 20
-142.0905517222898
 10
126.8356689136036
 20
-141.4430460258371
 10
125.9849025835211
 20
-141.4430460258371
 97
        0
 97
        1
330
282
 92
        1
 93
        1
 72
     4
 94
        3
 73
     0
 74
     0
 95
       17
 96
       13
 40
0.0
 40
0.0
 40
0.0
 40
0.0
 40
1.0
 40
1.0
 40
1.0
 40
2.0
 40
2.0
 40
2.0
 40
3.0
 40
3.0
 40
3.0
 40
4.0
 40
4.0
 40
4.0
 40
4.0
 10
121.8578504469661
 20
-144.51607119868
 10
122.6832953252319
 20
-144.51607119868
 10
123.1277126428292
 20
-143.8938869540439
 10
123.3816161800921
 20
-142.9414903071466
 10
123.1404594961246
 20
-142.2302503442167
 10
122.6324801668245
 20
-141.6843749645789
 10
121.8831718987827
 20
-141.6843749645789
 10
121.2229193490345
 20
-141.6843749645789
 10
120.5371730926955
 20
-142.0779771237687
 10
120.5371730926955
 20
-143.0811889290734
 10
120.5371730926955
 20
-144.0080918693799
 10
121.1467827388105
 20
-144.51607119868
 10
121.8578504469661
 20
-144.51607119868
 97
        0
 97
        1
330
283
 92
        1
 93
        1
 72
     4
 94
        3
 73
     0
 74
     0
 95
       35
 96
       31
 40
0.0
 40
0.0
 40
0.0
 40
0.0
 40
1.0
 40
1.0
 40
1.0
 40
2.0
 40
2.0
 40
2.0
 40
3.0
 40
3.0
 40
3.0
 40
4.0
 40
4.0
 40
4.0
 40
5.0
 40
5.0
 40
5.0
 40
6.0
 40
6.0
 40
6.0
 40
7.0
 40
7.0
 40
7.0
 40
8.0
 40
8.0
 40
8.0
 40
9.0
 40
9.0
 40
9.0
 40
10.0
 40
10.0
 40
10.0
 40
10.0
 10
126.0355454871543
 20
-145.8873914565837
 10
124.9942653767375
 20
-145.8873914565837
 10
124.2578762167654
 20
-145.2652072119476
 10
123.8260334976893
 20
-144.2494208081216
 10
123.8260334976893
 20
-144.2494208081216
 10
123.7879651925773
 20
-144.2619954066428
 10
123.7879651925773
 20
-144.2619954066428
 10
123.3562947282755
 20
-145.1763237484281
 10
122.6450547653457
 20
-145.5699259076179
 10
121.9339870571901
 20
-145.5699259076179
 10
120.626056556215
 20
-145.5699259076179
 10
119.7372219210205
 20
-144.4652560402726
 10
119.7372219210205
 20
-143.0176269173706
 10
119.7372219210205
 20
-141.4175523192463
 10
120.7404337263253
 20
-140.6176011475713
 10
121.7689669834466
 20
-140.6176011475713
 10
122.4672878383068
 20
-140.6176011475713
 10
123.2165961063486
 20
-140.9605604031279
 10
123.6990817290579
 20
-141.9763468069538
 10
123.6990817290579
 20
-141.9763468069538
 10
123.7371500341699
 20
-141.9763468069538
 10
123.7371500341699
 20
-141.9763468069538
 10
124.1434990466551
 20
-140.9478135498325
 10
124.8673136081061
 20
-140.3128824519009
 10
125.8705254134108
 20
-140.3128824519009
 10
127.3054076830174
 20
-140.3128824519009
 10
128.27055118321
 20
-141.544676342652
 10
128.27055118321
 20
-143.1192572341855
 10
128.27055118321
 20
-144.8461113461669
 10
127.2420179260888
 20
-145.8873914565837
 10
126.0355454871543
 20
-145.8873914565837
 97
        0
 97
        1
330
284
 75
     2
 76
     1
 98
        1
 10
0.0
 20
0.0
450
        0
451
        0
460
0.0
461
0.0
452
        0
462
0.0
453
        0
470

  0
SPLINE
  5
286
330
27E
100
AcDbEntity
  8
Livello 1
100
AcDbSpline
210
0.0
220
0.0
230
1.0
 70
     9
 71
     3
 72
    17
 73
    13
 74
     0
 42
0.000000001
 43
0.0000000001
 40
0.0
 40
0.0
 40
0.0
 40
0.0
 40
1.0
 40
1.0
 40
1.0
 40
2.0
 40
2.0
 40
2.0
 40
3.0
 40
3.0
 40
3.0
 40
4.0
 40
4.0
 40
4.0
 40
4.0
 10
129.6926865995212
 20
-139.6393662845346
 30
0.0
 10
128.9435505862537
 20
-139.3599690406808
 30
0.0
 10
127.5848049268711
 20
-139.0170097851242
 30
0.0
 10
126.6579019865647
 20
-138.8773111631973
 30
0.0
 10
126.6579019865647
 20
-138.8773111631973
 30
0.0
 10
126.530777963159
 20
-137.6329426739251
 30
0.0
 10
126.530777963159
 20
-137.6329426739251
 30
0.0
 10
127.610298633462
 20
-137.9249145163
 30
0.0
 10
129.0196871964777
 20
-138.4837090040075
 30
0.0
 10
129.6165499892972
 20
-138.8392428580853
 30
0.0
 10
129.6165499892972
 20
-138.8392428580853
 30
0.0
 10
129.6926865995212
 20
-139.6393662845346
 30
0.0
 10
129.6926865995212
 20
-139.6393662845346
 30
0.0
  0
HATCH
  5
287
330
27E
100
AcDbEntity
  8
Livello 1
 62
   250
420
  1907995
440
 33554687
100
AcDbHatch
 10
0.0
 20
0.0
 30
0.0
210
0.0
220
0.0
230
1.0
  2
SOLID
 70
     1
 71
     1
 91
        1
 92
        1
 93
        1
 72
     4
 94
        3
 73
     0
 74
     0
 95
       17
 96
       13
 40
0.0
 40
0.0
 40
0.0
 40
0.0
 40
1.0
 40
1.0
 40
1.0
 40
2.0
 40
2.0
 40
2.0
 40
3.0
 40
3.0
 40
3.0
 40
4.0
 40
4.0
 40
4.0
 40
4.0
 10
129.6926865995212
 20
-139.6393662845346
 10
128.9435505862537
 20
-139.3599690406808
 10
127.5848049268711
 20
-139.0170097851242
 10
126.6579019865647
 20
-138.8773111631973
 10
126.6579019865647
 20
-138.8773111631973
 10
126.530777963159
 20
-137.6329426739251
 10
126.530777963159
 20
-137.6329426739251
 10
127.610298633462
 20
-137.9249145163
 10
129.0196871964777
 20
-138.4837090040075
 10
129.6165499892972
 20
-138.8392428580853
 10
129.6165499892972
 20
-138.8392428580853
 10
129.6926865995212
 20
-139.6393662845346
 10
129.6926865995212
 20
-139.6393662845346
 97
        0
 97
        1
330
286
 75
     2
 76
     1
 98
        1
 10
0.0
 20
0.0
450
        0
451
        0
460
0.0
461
0.0
452
        0
462
0.0
453
        0
470

  0
SPLINE
  5
288
330
27E
100
AcDbEntity
  8
Livello 1
100
AcDbSpline
210
0.0
220
0.0
230
1.0
 70
    11
 71
     3
 72
    50
 73
    46
 74
     0
 42
0.000000001
 43
0.0000000001
 40
0.0
 40
0.0
 40
0.0
 40
0.0
 40
1.0
 40
1.0
 40
1.0
 40
2.0
 40
2.0
 40
2.0
 40
3.0
 40
3.0
 40
3.0
 40
4.0
 40
4.0
 40
4.0
 40
5.0
 40
5.0
 40
5.0
 40
6.0
 40
6.0
 40
6.0
 40
7.0
 40
7.0
 40
7.0
 40
8.0
 40
8.0
 40
8.0
 40
9.0
 40
9.0
 40
9.0
 40
10.0
 40
10.0
 40
10.0
 40
11.0
 40
11.0
 40
11.0
 40
12.0
 40
12.0
 40
12.0
 40
13.0
 40
13.0
 40
13.0
 40
14.0
 40
14.0
 40
14.0
 40
15.0
 40
15.0
 40
15.0
 40
15.0
 10
120.8165703365493
 20
-131.7153021589114
 30
0.0
 10
120.8165703365493
 20
-131.7153021589114
 30
0.0
 10
120.8165703365493
 20
-134.8644639419783
 30
0.0
 10
120.8165703365493
 20
-134.8644639419783
 30
0.0
 10
120.8165703365493
 20
-134.8644639419783
 30
0.0
 10
122.9371988624949
 20
-135.1819294909441
 30
0.0
 10
122.9371988624949
 20
-135.1819294909441
 30
0.0
 10
122.9118774106783
 20
-134.9914157106098
 30
0.0
 10
122.8863837040874
 20
-134.8136487835709
 30
0.0
 10
122.8863837040874
 20
-134.5089300879005
 30
0.0
 10
122.8863837040874
 20
-133.873998989969
 30
0.0
 10
123.0260823260143
 20
-133.2390678920374
 30
0.0
 10
123.3308010216846
 20
-132.7310885627372
 30
0.0
 10
123.6990817290579
 20
-132.0835828662846
 30
0.0
 10
124.4101494372134
 20
-131.5501098303937
 30
0.0
 10
125.4514295476302
 20
-131.5501098303937
 30
0.0
 10
127.0642509990499
 20
-131.5501098303937
 30
0.0
 10
128.27055118321
 20
-132.8327188795522
 30
0.0
 10
128.27055118321
 20
-134.6231350032365
 30
0.0
 10
128.27055118321
 20
-135.5247164917265
 30
0.0
 10
128.0166476459472
 20
-136.2867716130637
 30
0.0
 10
127.76257185391
 20
-136.6803737722535
 30
0.0
 10
127.76257185391
 20
-136.6803737722535
 30
0.0
 10
126.9118055238276
 20
-136.4009765283997
 30
0.0
 10
126.9118055238276
 20
-136.4009765283997
 30
0.0
 10
127.1150661574573
 20
-136.0581895276174
 30
0.0
 10
127.3689696947202
 20
-135.3850178697996
 30
0.0
 10
127.3689696947202
 20
-134.635881856532
 30
0.0
 10
127.3689696947202
 20
-133.5818548928198
 30
0.0
 10
126.6832234383813
 20
-132.6802734043299
 30
0.0
 10
125.5785535710359
 20
-132.6802734043299
 30
0.0
 10
124.5117797540283
 20
-132.6930202576253
 30
0.0
 10
123.7498968874653
 20
-133.4040879657809
 30
0.0
 10
123.7498968874653
 20
-135.0549777223126
 30
0.0
 10
123.7498968874653
 20
-135.5247164917265
 30
0.0
 10
123.8007120458727
 20
-135.8929971990997
 30
0.0
 10
123.8387803509847
 20
-136.19771589477
 30
0.0
 10
123.8387803509847
 20
-136.19771589477
 30
0.0
 10
119.8769205429474
 20
-135.6644151136533
 30
0.0
 10
119.8769205429474
 20
-135.6644151136533
 30
0.0
 10
119.8769205429474
 20
-135.6644151136533
 30
0.0
 10
119.8769205429474
 20
-131.7153021589114
 30
0.0
 10
119.8769205429474
 20
-131.7153021589114
 30
0.0
 10
119.8769205429474
 20
-131.7153021589114
 30
0.0
 10
120.8165703365493
 20
-131.7153021589114
 30
0.0
 10
120.8165703365493
 20
-131.7153021589114
 30
0.0
  0
HATCH
  5
289
330
27E
100
AcDbEntity
  8
Livello 1
 62
   250
420
  1907995
440
 33554687
100
AcDbHatch
 10
0.0
 20
0.0
 30
0.0
210
0.0
220
0.0
230
1.0
  2
SOLID
 70
     1
 71
     1
 91
        1
 92
        1
 93
        1
 72
     4
 94
        3
 73
     0
 74
     0
 95
       50
 96
       46
 40
0.0
 40
0.0
 40
0.0
 40
0.0
 40
1.0
 40
1.0
 40
1.0
 40
2.0
 40
2.0
 40
2.0
 40
3.0
 40
3.0
 40
3.0
 40
4.0
 40
4.0
 40
4.0
 40
5.0
 40
5.0
 40
5.0
 40
6.0
 40
6.0
 40
6.0
 40
7.0
 40
7.0
 40
7.0
 40
8.0
 40
8.0
 40
8.0
 40
9.0
 40
9.0
 40
9.0
 40
10.0
 40
10.0
 40
10.0
 40
11.0
 40
11.0
 40
11.0
 40
12.0
 40
12.0
 40
12.0
 40
13.0
 40
13.0
 40
13.0
 40
14.0
 40
14.0
 40
14.0
 40
15.0
 40
15.0
 40
15.0
 40
15.0
 10
120.8165703365493
 20
-131.7153021589114
 10
120.8165703365493
 20
-131.7153021589114
 10
120.8165703365493
 20
-134.8644639419783
 10
120.8165703365493
 20
-134.8644639419783
 10
120.8165703365493
 20
-134.8644639419783
 10
122.9371988624949
 20
-135.1819294909441
 10
122.9371988624949
 20
-135.1819294909441
 10
122.9118774106783
 20
-134.9914157106098
 10
122.8863837040874
 20
-134.8136487835709
 10
122.8863837040874
 20
-134.5089300879005
 10
122.8863837040874
 20
-133.873998989969
 10
123.0260823260143
 20
-133.2390678920374
 10
123.3308010216846
 20
-132.7310885627372
 10
123.6990817290579
 20
-132.0835828662846
 10
124.4101494372134
 20
-131.5501098303937
 10
125.4514295476302
 20
-131.5501098303937
 10
127.0642509990499
 20
-131.5501098303937
 10
128.27055118321
 20
-132.8327188795522
 10
128.27055118321
 20
-134.6231350032365
 10
128.27055118321
 20
-135.5247164917265
 10
128.0166476459472
 20
-136.2867716130637
 10
127.76257185391
 20
-136.6803737722535
 10
127.76257185391
 20
-136.6803737722535
 10
126.9118055238276
 20
-136.4009765283997
 10
126.9118055238276
 20
-136.4009765283997
 10
127.1150661574573
 20
-136.0581895276174
 10
127.3689696947202
 20
-135.3850178697996
 10
127.3689696947202
 20
-134.635881856532
 10
127.3689696947202
 20
-133.5818548928198
 10
126.6832234383813
 20
-132.6802734043299
 10
125.5785535710359
 20
-132.6802734043299
 10
124.5117797540283
 20
-132.6930202576253
 10
123.7498968874653
 20
-133.4040879657809
 10
123.7498968874653
 20
-135.0549777223126
 10
123.7498968874653
 20
-135.5247164917265
 10
123.8007120458727
 20
-135.8929971990997
 10
123.8387803509847
 20
-136.19771589477
 10
123.8387803509847
 20
-136.19771589477
 10
119.8769205429474
 20
-135.6644151136533
 10
119.8769205429474
 20
-135.6644151136533
 10
119.8769205429474
 20
-135.6644151136533
 10
119.8769205429474
 20
-131.7153021589114
 10
119.8769205429474
 20
-131.7153021589114
 10
119.8769205429474
 20
-131.7153021589114
 10
120.8165703365493
 20
-131.7153021589114
 10
120.8165703365493
 20
-131.7153021589114
 97
        0
 97
        1
330
288
 75
     2
 76
     1
 98
        1
 10
0.0
 20
0.0
450
        0
451
        0
460
0.0
461
0.0
452
        0
462
0.0
453
        0
470

  0
ENDBLK
  5
281
330
27E
100
AcDbEntity
  8
0
100
AcDbBlockEnd
  0
BLOCK
  5
28C
330
28A
100
AcDbEntity
  8
0
100
AcDbBlockBegin
  2
Block_4
 70
     0
 10
0.0
 20
0.0
 30
0.0
  3
Block_4
  1

  0
INSERT
  5
28F
330
28A
100
AcDbEntity
  8
Livello 1
100
AcDbBlockReference
  2
Block_5
 10
0.0
 20
0.0
 30
0.0
  0
ENDBLK
  5
28D
330
28A
100
AcDbEntity
  8
0
100
AcDbBlockEnd
  0
BLOCK
  5
290
330
28E
100
AcDbEntity
  8
0
100
AcDbBlockBegin
  2
Block_5
 70
     0
 10
0.0
 20
0.0
 30
0.0
  3
Block_5
  1

  0
SPLINE
  5
292
330
28E
100
AcDbEntity
  8
Livello 1
100
AcDbSpline
210
0.0
220
0.0
230
1.0
 70
    11
 71
     3
 72
    29
 73
    25
 74
     0
 42
0.000000001
 43
0.0000000001
 40
0.0
 40
0.0
 40
0.0
 40
0.0
 40
1.0
 40
1.0
 40
1.0
 40
2.0
 40
2.0
 40
2.0
 40
3.0
 40
3.0
 40
3.0
 40
4.0
 40
4.0
 40
4.0
 40
5.0
 40
5.0
 40
5.0
 40
6.0
 40
6.0
 40
6.0
 40
7.0
 40
7.0
 40
7.0
 40
8.0
 40
8.0
 40
8.0
 40
8.0
 10
92.22882349039766
 20
-175.4910969613355
 30
0.0
 10
92.22882349039766
 20
-175.4910969613355
 30
0.0
 10
92.2033297838068
 20
-175.4910969613355
 30
0.0
 10
92.2033297838068
 20
-175.4910969613355
 30
0.0
 10
92.2033297838068
 20
-175.4910969613355
 30
0.0
 10
90.76844751420024
 20
-176.2658989359682
 30
0.0
 10
90.76844751420024
 20
-176.2658989359682
 30
0.0
 10
90.76844751420024
 20
-176.2658989359682
 30
0.0
 10
90.55261228204935
 20
-175.4149603511114
 30
0.0
 10
90.55261228204935
 20
-175.4149603511114
 30
0.0
 10
90.55261228204935
 20
-175.4149603511114
 30
0.0
 10
92.35577525902911
 20
-174.449989105693
 30
0.0
 10
92.35577525902911
 20
-174.449989105693
 30
0.0
 10
92.35577525902911
 20
-174.449989105693
 30
0.0
 10
93.30817190592645
 20
-174.449989105693
 30
0.0
 10
93.30817190592645
 20
-174.449989105693
 30
0.0
 10
93.30817190592645
 20
-174.449989105693
 30
0.0
 10
93.30817190592645
 20
-182.7037488692546
 30
0.0
 10
93.30817190592645
 20
-182.7037488692546
 30
0.0
 10
93.30817190592645
 20
-182.7037488692546
 30
0.0
 10
92.22882349039766
 20
-182.7037488692546
 30
0.0
 10
92.22882349039766
 20
-182.7037488692546
 30
0.0
 10
92.22882349039766
 20
-182.7037488692546
 30
0.0
 10
92.22882349039766
 20
-175.4910969613355
 30
0.0
 10
92.22882349039766
 20
-175.4910969613355
 30
0.0
  0
HATCH
  5
293
330
28E
100
AcDbEntity
  8
Livello 1
 62
   250
420
  1907995
440
 33554687
100
AcDbHatch
 10
0.0
 20
0.0
 30
0.0
210
0.0
220
0.0
230
1.0
  2
SOLID
 70
     1
 71
     1
 91
        1
 92
        1
 93
        1
 72
     4
 94
        3
 73
     0
 74
     0
 95
       29
 96
       25
 40
0.0
 40
0.0
 40
0.0
 40
0.0
 40
1.0
 40
1.0
 40
1.0
 40
2.0
 40
2.0
 40
2.0
 40
3.0
 40
3.0
 40
3.0
 40
4.0
 40
4.0
 40
4.0
 40
5.0
 40
5.0
 40
5.0
 40
6.0
 40
6.0
 40
6.0
 40
7.0
 40
7.0
 40
7.0
 40
8.0
 40
8.0
 40
8.0
 40
8.0
 10
92.22882349039766
 20
-175.4910969613355
 10
92.22882349039766
 20
-175.4910969613355
 10
92.2033297838068
 20
-175.4910969613355
 10
92.2033297838068
 20
-175.4910969613355
 10
92.2033297838068
 20
-175.4910969613355
 10
90.76844751420024
 20
-176.2658989359682
 10
90.76844751420024
 20
-176.2658989359682
 10
90.76844751420024
 20
-176.2658989359682
 10
90.55261228204935
 20
-175.4149603511114
 10
90.55261228204935
 20
-175.4149603511114
 10
90.55261228204935
 20
-175.4149603511114
 10
92.35577525902911
 20
-174.449989105693
 10
92.35577525902911
 20
-174.449989105693
 10
92.35577525902911
 20
-174.449989105693
 10
93.30817190592645
 20
-174.449989105693
 10
93.30817190592645
 20
-174.449989105693
 10
93.30817190592645
 20
-174.449989105693
 10
93.30817190592645
 20
-182.7037488692546
 10
93.30817190592645
 20
-182.7037488692546
 10
93.30817190592645
 20
-182.7037488692546
 10
92.22882349039766
 20
-182.7037488692546
 10
92.22882349039766
 20
-182.7037488692546
 10
92.22882349039766
 20
-182.7037488692546
 10
92.22882349039766
 20
-175.4910969613355
 10
92.22882349039766
 20
-175.4910969613355
 97
        0
 97
        1
330
292
 75
     2
 76
     1
 98
        1
 10
0.0
 20
0.0
450
        0
451
        0
460
0.0
461
0.0
452
        0
462
0.0
453
        0
470

  0
SPLINE
  5
294
330
28E
100
AcDbEntity
  8
Livello 1
100
AcDbSpline
210
0.0
220
0.0
230
1.0
 70
     9
 71
     3
 72
    20
 73
    16
 74
     0
 42
0.000000001
 43
0.0000000001
 40
0.0
 40
0.0
 40
0.0
 40
0.0
 40
1.0
 40
1.0
 40
1.0
 40
2.0
 40
2.0
 40
2.0
 40
3.0
 40
3.0
 40
3.0
 40
4.0
 40
4.0
 40
4.0
 40
5.0
 40
5.0
 40
5.0
 40
5.0
 10
97.37217879510142
 20
-177.1674804244581
 30
0.0
 10
97.37217879510142
 20
-178.1958414268052
 30
0.0
 10
97.99436303973751
 20
-178.9196559882562
 30
0.0
 10
98.95950653993024
 20
-178.9196559882562
 30
0.0
 10
99.70864255319785
 20
-178.9196559882562
 30
0.0
 10
100.2927584927219
 20
-178.551375280883
 30
0.0
 10
100.5849025898711
 20
-178.0563150596526
 30
0.0
 10
100.6482923467997
 20
-177.9546847428377
 30
0.0
 10
100.686532906686
 20
-177.827560719432
 30
0.0
 10
100.686532906686
 20
-177.6497937923931
 30
0.0
 10
100.686532906686
 20
-176.2404052293774
 30
0.0
 10
100.1658067240905
 20
-175.1610568138486
 30
0.0
 10
98.99757484504227
 20
-175.1610568138486
 30
0.0
 10
98.04517819814495
 20
-175.1610568138486
 30
0.0
 10
97.37217879510142
 20
-175.9992485454099
 30
0.0
 10
97.37217879510142
 20
-177.1674804244581
 30
0.0
  0
SPLINE
  5
295
330
28E
100
AcDbEntity
  8
Livello 1
100
AcDbSpline
210
0.0
220
0.0
230
1.0
 70
     9
 71
     3
 72
    41
 73
    37
 74
     0
 42
0.000000001
 43
0.0000000001
 40
0.0
 40
0.0
 40
0.0
 40
0.0
 40
1.0
 40
1.0
 40
1.0
 40
2.0
 40
2.0
 40
2.0
 40
3.0
 40
3.0
 40
3.0
 40
4.0
 40
4.0
 40
4.0
 40
5.0
 40
5.0
 40
5.0
 40
6.0
 40
6.0
 40
6.0
 40
7.0
 40
7.0
 40
7.0
 40
8.0
 40
8.0
 40
8.0
 40
9.0
 40
9.0
 40
9.0
 40
10.0
 40
10.0
 40
10.0
 40
11.0
 40
11.0
 40
11.0
 40
12.0
 40
12.0
 40
12.0
 40
12.0
 10
96.9658297826162
 20
-181.916544550875
 30
0.0
 10
97.20715872135794
 20
-181.9420382574659
 30
0.0
 10
97.48638371043744
 20
-181.916544550875
 30
0.0
 10
97.86741127110607
 20
-181.8783039909886
 30
0.0
 10
98.51508922233305
 20
-181.7894205274693
 30
0.0
 10
99.12452661367376
 20
-181.522770136911
 30
0.0
 10
99.59443763786184
 20
-181.0783528193137
 30
0.0
 10
100.1404852722739
 20
-180.5832925980833
 30
0.0
 10
100.5340874314637
 20
-179.8594780366324
 30
0.0
 10
100.686532906686
 20
-178.8817599379184
 30
0.0
 10
100.686532906686
 20
-178.8817599379184
 30
0.0
 10
100.6482923467997
 20
-178.8817599379184
 30
0.0
 10
100.6482923467997
 20
-178.8817599379184
 30
0.0
 10
100.1913004306813
 20
-179.4402099160774
 30
0.0
 10
99.53087562615896
 20
-179.7705945731129
 30
0.0
 10
98.7054307478931
 20
-179.7705945731129
 30
0.0
 10
97.21973331987912
 20
-179.7705945731129
 30
0.0
 10
96.2673366729818
 20
-178.6530055976979
 30
0.0
 10
96.2673366729818
 20
-177.243617034682
 30
0.0
 10
96.2673366729818
 20
-175.6816107416699
 30
0.0
 10
97.39750024691799
 20
-174.3101182289919
 30
0.0
 10
99.08645830856173
 20
-174.3101182289919
 30
0.0
 10
100.7754163702054
 20
-174.3101182289919
 30
0.0
 10
101.8166964806222
 20
-175.6816107416699
 30
0.0
 10
101.8166964806222
 20
-177.7896646690942
 30
0.0
 10
101.8166964806222
 20
-179.6055744993694
 30
0.0
 10
101.2070868345072
 20
-180.8754366952325
 30
0.0
 10
100.3943888095368
 20
-181.6626410136121
 30
0.0
 10
99.75945771160528
 20
-182.2848252582481
 30
0.0
 10
98.88336992970623
 20
-182.6658528189168
 30
0.0
 10
97.99436303973751
 20
-182.7674831357317
 30
0.0
 10
97.58801402725232
 20
-182.8308728926603
 30
0.0
 10
97.23248017317452
 20
-182.8436197459557
 30
0.0
 10
96.9658297826162
 20
-182.8308728926603
 30
0.0
 10
96.9658297826162
 20
-182.8308728926603
 30
0.0
 10
96.9658297826162
 20
-181.916544550875
 30
0.0
 10
96.9658297826162
 20
-181.916544550875
 30
0.0
  0
HATCH
  5
296
330
28E
100
AcDbEntity
  8
Livello 1
 62
   250
420
  1907995
440
 33554687
100
AcDbHatch
 10
0.0
 20
0.0
 30
0.0
210
0.0
220
0.0
230
1.0
  2
SOLID
 70
     1
 71
     1
 91
        2
 92
        1
 93
        1
 72
     4
 94
        3
 73
     0
 74
     0
 95
       20
 96
       16
 40
0.0
 40
0.0
 40
0.0
 40
0.0
 40
1.0
 40
1.0
 40
1.0
 40
2.0
 40
2.0
 40
2.0
 40
3.0
 40
3.0
 40
3.0
 40
4.0
 40
4.0
 40
4.0
 40
5.0
 40
5.0
 40
5.0
 40
5.0
 10
97.37217879510142
 20
-177.1674804244581
 10
97.37217879510142
 20
-178.1958414268052
 10
97.99436303973751
 20
-178.9196559882562
 10
98.95950653993024
 20
-178.9196559882562
 10
99.70864255319785
 20
-178.9196559882562
 10
100.2927584927219
 20
-178.551375280883
 10
100.5849025898711
 20
-178.0563150596526
 10
100.6482923467997
 20
-177.9546847428377
 10
100.686532906686
 20
-177.827560719432
 10
100.686532906686
 20
-177.6497937923931
 10
100.686532906686
 20
-176.2404052293774
 10
100.1658067240905
 20
-175.1610568138486
 10
98.99757484504227
 20
-175.1610568138486
 10
98.04517819814495
 20
-175.1610568138486
 10
97.37217879510142
 20
-175.9992485454099
 10
97.37217879510142
 20
-177.1674804244581
 97
        0
 97
        1
330
294
 92
        1
 93
        1
 72
     4
 94
        3
 73
     0
 74
     0
 95
       41
 96
       37
 40
0.0
 40
0.0
 40
0.0
 40
0.0
 40
1.0
 40
1.0
 40
1.0
 40
2.0
 40
2.0
 40
2.0
 40
3.0
 40
3.0
 40
3.0
 40
4.0
 40
4.0
 40
4.0
 40
5.0
 40
5.0
 40
5.0
 40
6.0
 40
6.0
 40
6.0
 40
7.0
 40
7.0
 40
7.0
 40
8.0
 40
8.0
 40
8.0
 40
9.0
 40
9.0
 40
9.0
 40
10.0
 40
10.0
 40
10.0
 40
11.0
 40
11.0
 40
11.0
 40
12.0
 40
12.0
 40
12.0
 40
12.0
 10
96.9658297826162
 20
-181.916544550875
 10
97.20715872135794
 20
-181.9420382574659
 10
97.48638371043744
 20
-181.916544550875
 10
97.86741127110607
 20
-181.8783039909886
 10
98.51508922233305
 20
-181.7894205274693
 10
99.12452661367376
 20
-181.522770136911
 10
99.59443763786184
 20
-181.0783528193137
 10
100.1404852722739
 20
-180.5832925980833
 10
100.5340874314637
 20
-179.8594780366324
 10
100.686532906686
 20
-178.8817599379184
 10
100.686532906686
 20
-178.8817599379184
 10
100.6482923467997
 20
-178.8817599379184
 10
100.6482923467997
 20
-178.8817599379184
 10
100.1913004306813
 20
-179.4402099160774
 10
99.53087562615896
 20
-179.7705945731129
 10
98.7054307478931
 20
-179.7705945731129
 10
97.21973331987912
 20
-179.7705945731129
 10
96.2673366729818
 20
-178.6530055976979
 10
96.2673366729818
 20
-177.243617034682
 10
96.2673366729818
 20
-175.6816107416699
 10
97.39750024691799
 20
-174.3101182289919
 10
99.08645830856173
 20
-174.3101182289919
 10
100.7754163702054
 20
-174.3101182289919
 10
101.8166964806222
 20
-175.6816107416699
 10
101.8166964806222
 20
-177.7896646690942
 10
101.8166964806222
 20
-179.6055744993694
 10
101.2070868345072
 20
-180.8754366952325
 10
100.3943888095368
 20
-181.6626410136121
 10
99.75945771160528
 20
-182.2848252582481
 10
98.88336992970623
 20
-182.6658528189168
 10
97.99436303973751
 20
-182.7674831357317
 10
97.58801402725232
 20
-182.8308728926603
 10
97.23248017317452
 20
-182.8436197459557
 10
96.9658297826162
 20
-182.8308728926603
 10
96.9658297826162
 20
-182.8308728926603
 10
96.9658297826162
 20
-181.916544550875
 10
96.9658297826162
 20
-181.916544550875
 97
        0
 97
        1
330
295
 75
     2
 76
     1
 98
        1
 10
0.0
 20
0.0
450
        0
451
        0
460
0.0
461
0.0
452
        0
462
0.0
453
        0
470

  0
ENDBLK
  5
291
330
28E
100
AcDbEntity
  8
0
100
AcDbBlockEnd
  0
BLOCK
  5
299
330
297
100
AcDbEntity
  8
0
100
AcDbBlockBegin
  2
Block_6
 70
     0
 10
0.0
 20
0.0
 30
0.0
  3
Block_6
  1

  0
INSERT
  5
29C
330
297
100
AcDbEntity
  8
Livello 1
100
AcDbBlockReference
  2
Block_7
 10
0.0
 20
0.0
 30
0.0
  0
ENDBLK
  5
29A
330
297
100
AcDbEntity
  8
0
100
AcDbBlockEnd
  0
BLOCK
  5
29D
330
29B
100
AcDbEntity
  8
0
100
AcDbBlockBegin
  2
Block_7
 70
     0
 10
0.0
 20
0.0
 30
0.0
  3
Block_7
  1

  0
SPLINE
  5
29F
330
29B
100
AcDbEntity
  8
Livello 1
100
AcDbSpline
210
0.0
220
0.0
230
1.0
 70
    11
 71
     3
 72
    29
 73
    25
 74
     0
 42
0.000000001
 43
0.0000000001
 40
0.0
 40
0.0
 40
0.0
 40
0.0
 40
1.0
 40
1.0
 40
1.0
 40
2.0
 40
2.0
 40
2.0
 40
3.0
 40
3.0
 40
3.0
 40
4.0
 40
4.0
 40
4.0
 40
5.0
 40
5.0
 40
5.0
 40
6.0
 40
6.0
 40
6.0
 40
7.0
 40
7.0
 40
7.0
 40
8.0
 40
8.0
 40
8.0
 40
8.0
 10
202.9738294305933
 20
-174.5216470917862
 30
0.0
 10
202.9738294305933
 20
-174.5216470917862
 30
0.0
 10
202.9483357240025
 20
-174.5216470917862
 30
0.0
 10
202.9483357240025
 20
-174.5216470917862
 30
0.0
 10
202.9483357240025
 20
-174.5216470917862
 30
0.0
 10
201.5134534543959
 20
-175.2961045568704
 30
0.0
 10
201.5134534543959
 20
-175.2961045568704
 30
0.0
 10
201.5134534543959
 20
-175.2961045568704
 30
0.0
 10
201.2976182222451
 20
-174.4451659720137
 30
0.0
 10
201.2976182222451
 20
-174.4451659720137
 30
0.0
 10
201.2976182222451
 20
-174.4451659720137
 30
0.0
 10
203.1007811992248
 20
-173.4801947265952
 30
0.0
 10
203.1007811992248
 20
-173.4801947265952
 30
0.0
 10
203.1007811992248
 20
-173.4801947265952
 30
0.0
 10
204.0531778461221
 20
-173.4801947265952
 30
0.0
 10
204.0531778461221
 20
-173.4801947265952
 30
0.0
 10
204.0531778461221
 20
-173.4801947265952
 30
0.0
 10
204.0531778461221
 20
-181.7342989997053
 30
0.0
 10
204.0531778461221
 20
-181.7342989997053
 30
0.0
 10
204.0531778461221
 20
-181.7342989997053
 30
0.0
 10
202.9738294305933
 20
-181.7342989997053
 30
0.0
 10
202.9738294305933
 20
-181.7342989997053
 30
0.0
 10
202.9738294305933
 20
-181.7342989997053
 30
0.0
 10
202.9738294305933
 20
-174.5216470917862
 30
0.0
 10
202.9738294305933
 20
-174.5216470917862
 30
0.0
  0
HATCH
  5
2A0
330
29B
100
AcDbEntity
  8
Livello 1
 62
   250
420
  1907995
440
 33554687
100
AcDbHatch
 10
0.0
 20
0.0
 30
0.0
210
0.0
220
0.0
230
1.0
  2
SOLID
 70
     1
 71
     1
 91
        1
 92
        1
 93
        1
 72
     4
 94
        3
 73
     0
 74
     0
 95
       29
 96
       25
 40
0.0
 40
0.0
 40
0.0
 40
0.0
 40
1.0
 40
1.0
 40
1.0
 40
2.0
 40
2.0
 40
2.0
 40
3.0
 40
3.0
 40
3.0
 40
4.0
 40
4.0
 40
4.0
 40
5.0
 40
5.0
 40
5.0
 40
6.0
 40
6.0
 40
6.0
 40
7.0
 40
7.0
 40
7.0
 40
8.0
 40
8.0
 40
8.0
 40
8.0
 10
202.9738294305933
 20
-174.5216470917862
 10
202.9738294305933
 20
-174.5216470917862
 10
202.9483357240025
 20
-174.5216470917862
 10
202.9483357240025
 20
-174.5216470917862
 10
202.9483357240025
 20
-174.5216470917862
 10
201.5134534543959
 20
-175.2961045568704
 10
201.5134534543959
 20
-175.2961045568704
 10
201.5134534543959
 20
-175.2961045568704
 10
201.2976182222451
 20
-174.4451659720137
 10
201.2976182222451
 20
-174.4451659720137
 10
201.2976182222451
 20
-174.4451659720137
 10
203.1007811992248
 20
-173.4801947265952
 10
203.1007811992248
 20
-173.4801947265952
 10
203.1007811992248
 20
-173.4801947265952
 10
204.0531778461221
 20
-173.4801947265952
 10
204.0531778461221
 20
-173.4801947265952
 10
204.0531778461221
 20
-173.4801947265952
 10
204.0531778461221
 20
-181.7342989997053
 10
204.0531778461221
 20
-181.7342989997053
 10
204.0531778461221
 20
-181.7342989997053
 10
202.9738294305933
 20
-181.7342989997053
 10
202.9738294305933
 20
-181.7342989997053
 10
202.9738294305933
 20
-181.7342989997053
 10
202.9738294305933
 20
-174.5216470917862
 10
202.9738294305933
 20
-174.5216470917862
 97
        0
 97
        1
330
29F
 75
     2
 76
     1
 98
        1
 10
0.0
 20
0.0
450
        0
451
        0
460
0.0
461
0.0
452
        0
462
0.0
453
        0
470

  0
SPLINE
  5
2A1
330
29B
100
AcDbEntity
  8
Livello 1
100
AcDbSpline
210
0.0
220
0.0
230
1.0
 70
     9
 71
     3
 72
    59
 73
    55
 74
     0
 42
0.000000001
 43
0.0000000001
 40
0.0
 40
0.0
 40
0.0
 40
0.0
 40
1.0
 40
1.0
 40
1.0
 40
2.0
 40
2.0
 40
2.0
 40
3.0
 40
3.0
 40
3.0
 40
4.0
 40
4.0
 40
4.0
 40
5.0
 40
5.0
 40
5.0
 40
6.0
 40
6.0
 40
6.0
 40
7.0
 40
7.0
 40
7.0
 40
8.0
 40
8.0
 40
8.0
 40
9.0
 40
9.0
 40
9.0
 40
10.0
 40
10.0
 40
10.0
 40
11.0
 40
11.0
 40
11.0
 40
12.0
 40
12.0
 40
12.0
 40
13.0
 40
13.0
 40
13.0
 40
14.0
 40
14.0
 40
14.0
 40
15.0
 40
15.0
 40
15.0
 40
16.0
 40
16.0
 40
16.0
 40
17.0
 40
17.0
 40
17.0
 40
18.0
 40
18.0
 40
18.0
 40
18.0
 10
207.3298081621433
 20
-180.4516899505468
 30
0.0
 10
207.647273711109
 20
-180.6549505841765
 30
0.0
 10
208.3838351258554
 20
-180.972243878368
 30
0.0
 10
209.1584648457139
 20
-180.972243878368
 30
0.0
 10
210.5933471153204
 20
-180.972243878368
 30
0.0
 10
211.0377644329176
 20
-180.0579155365826
 30
0.0
 10
211.0251898343965
 20
-179.372341535018
 30
0.0
 10
211.0124429811011
 20
-178.2168565092652
 30
0.0
 10
209.9711628706843
 20
-177.7214517784863
 30
0.0
 10
208.8918144551555
 20
-177.7214517784863
 30
0.0
 10
208.8918144551555
 20
-177.7214517784863
 30
0.0
 10
208.2696302105194
 20
-177.7214517784863
 30
0.0
 10
208.2696302105194
 20
-177.7214517784863
 30
0.0
 10
208.2696302105194
 20
-177.7214517784863
 30
0.0
 10
208.2696302105194
 20
-176.883260046925
 30
0.0
 10
208.2696302105194
 20
-176.883260046925
 30
0.0
 10
208.2696302105194
 20
-176.883260046925
 30
0.0
 10
208.8918144551555
 20
-176.883260046925
 30
0.0
 10
208.8918144551555
 20
-176.883260046925
 30
0.0
 10
209.704512480126
 20
-176.883260046925
 30
0.0
 10
210.7330457372473
 20
-176.4643364359185
 30
0.0
 10
210.7330457372473
 20
-175.4866183372047
 30
0.0
 10
210.7330457372473
 20
-174.8261935326823
 30
0.0
 10
210.3139498714666
 20
-174.2422498479325
 30
0.0
 10
209.2854166143453
 20
-174.2422498479325
 30
0.0
 10
208.6251640645972
 20
-174.2422498479325
 30
0.0
 10
207.9902329666656
 20
-174.5340494355331
 30
0.0
 10
207.6346991125879
 20
-174.7882974823446
 30
0.0
 10
207.6346991125879
 20
-174.7882974823446
 30
0.0
 10
207.3425550154387
 20
-173.9755994573741
 30
0.0
 10
207.3425550154387
 20
-173.9755994573741
 30
0.0
 10
207.7743977345147
 20
-173.6579616536341
 30
0.0
 10
208.6124172113017
 20
-173.3406683594426
 30
0.0
 10
209.5012518464962
 20
-173.3406683594426
 30
0.0
 10
211.1266478964371
 20
-173.3406683594426
 30
0.0
 10
211.8632093111835
 20
-174.3056396048611
 30
0.0
 10
211.8632093111835
 20
-175.3088514101658
 30
0.0
 10
211.8632093111835
 20
-176.159445485474
 30
0.0
 10
211.3552299818834
 20
-176.883260046925
 30
0.0
 10
210.3394435780575
 20
-177.2515407542981
 30
0.0
 10
210.3394435780575
 20
-177.2515407542981
 30
0.0
 10
210.3394435780575
 20
-177.277034460889
 30
0.0
 10
210.3394435780575
 20
-177.277034460889
 30
0.0
 10
211.3552299818834
 20
-177.4802950945188
 30
0.0
 10
212.1806748601493
 20
-178.2420057063075
 30
0.0
 10
212.1806748601493
 20
-179.3978352416089
 30
0.0
 10
212.1806748601493
 20
-180.7183403411051
 30
0.0
 10
211.152141603028
 20
-181.8738253668579
 30
0.0
 10
209.1712116990093
 20
-181.8738253668579
 30
0.0
 10
208.2441365039286
 20
-181.8738253668579
 30
0.0
 10
207.4314384789581
 20
-181.5816812697086
 30
0.0
 10
207.0250894664729
 20
-181.3150308791504
 30
0.0
 10
207.0250894664729
 20
-181.3150308791504
 30
0.0
 10
207.3298081621433
 20
-180.4516899505468
 30
0.0
 10
207.3298081621433
 20
-180.4516899505468
 30
0.0
  0
HATCH
  5
2A2
330
29B
100
AcDbEntity
  8
Livello 1
 62
   250
420
  1907995
440
 33554687
100
AcDbHatch
 10
0.0
 20
0.0
 30
0.0
210
0.0
220
0.0
230
1.0
  2
SOLID
 70
     1
 71
     1
 91
        1
 92
        1
 93
        1
 72
     4
 94
        3
 73
     0
 74
     0
 95
       59
 96
       55
 40
0.0
 40
0.0
 40
0.0
 40
0.0
 40
1.0
 40
1.0
 40
1.0
 40
2.0
 40
2.0
 40
2.0
 40
3.0
 40
3.0
 40
3.0
 40
4.0
 40
4.0
 40
4.0
 40
5.0
 40
5.0
 40
5.0
 40
6.0
 40
6.0
 40
6.0
 40
7.0
 40
7.0
 40
7.0
 40
8.0
 40
8.0
 40
8.0
 40
9.0
 40
9.0
 40
9.0
 40
10.0
 40
10.0
 40
10.0
 40
11.0
 40
11.0
 40
11.0
 40
12.0
 40
12.0
 40
12.0
 40
13.0
 40
13.0
 40
13.0
 40
14.0
 40
14.0
 40
14.0
 40
15.0
 40
15.0
 40
15.0
 40
16.0
 40
16.0
 40
16.0
 40
17.0
 40
17.0
 40
17.0
 40
18.0
 40
18.0
 40
18.0
 40
18.0
 10
207.3298081621433
 20
-180.4516899505468
 10
207.647273711109
 20
-180.6549505841765
 10
208.3838351258554
 20
-180.972243878368
 10
209.1584648457139
 20
-180.972243878368
 10
210.5933471153204
 20
-180.972243878368
 10
211.0377644329176
 20
-180.0579155365826
 10
211.0251898343965
 20
-179.372341535018
 10
211.0124429811011
 20
-178.2168565092652
 10
209.9711628706843
 20
-177.7214517784863
 10
208.8918144551555
 20
-177.7214517784863
 10
208.8918144551555
 20
-177.7214517784863
 10
208.2696302105194
 20
-177.7214517784863
 10
208.2696302105194
 20
-177.7214517784863
 10
208.2696302105194
 20
-177.7214517784863
 10
208.2696302105194
 20
-176.883260046925
 10
208.2696302105194
 20
-176.883260046925
 10
208.2696302105194
 20
-176.883260046925
 10
208.8918144551555
 20
-176.883260046925
 10
208.8918144551555
 20
-176.883260046925
 10
209.704512480126
 20
-176.883260046925
 10
210.7330457372473
 20
-176.4643364359185
 10
210.7330457372473
 20
-175.4866183372047
 10
210.7330457372473
 20
-174.8261935326823
 10
210.3139498714666
 20
-174.2422498479325
 10
209.2854166143453
 20
-174.2422498479325
 10
208.6251640645972
 20
-174.2422498479325
 10
207.9902329666656
 20
-174.5340494355331
 10
207.6346991125879
 20
-174.7882974823446
 10
207.6346991125879
 20
-174.7882974823446
 10
207.3425550154387
 20
-173.9755994573741
 10
207.3425550154387
 20
-173.9755994573741
 10
207.7743977345147
 20
-173.6579616536341
 10
208.6124172113017
 20
-173.3406683594426
 10
209.5012518464962
 20
-173.3406683594426
 10
211.1266478964371
 20
-173.3406683594426
 10
211.8632093111835
 20
-174.3056396048611
 10
211.8632093111835
 20
-175.3088514101658
 10
211.8632093111835
 20
-176.159445485474
 10
211.3552299818834
 20
-176.883260046925
 10
210.3394435780575
 20
-177.2515407542981
 10
210.3394435780575
 20
-177.2515407542981
 10
210.3394435780575
 20
-177.277034460889
 10
210.3394435780575
 20
-177.277034460889
 10
211.3552299818834
 20
-177.4802950945188
 10
212.1806748601493
 20
-178.2420057063075
 10
212.1806748601493
 20
-179.3978352416089
 10
212.1806748601493
 20
-180.7183403411051
 10
211.152141603028
 20
-181.8738253668579
 10
209.1712116990093
 20
-181.8738253668579
 10
208.2441365039286
 20
-181.8738253668579
 10
207.4314384789581
 20
-181.5816812697086
 10
207.0250894664729
 20
-181.3150308791504
 10
207.0250894664729
 20
-181.3150308791504
 10
207.3298081621433
 20
-180.4516899505468
 10
207.3298081621433
 20
-180.4516899505468
 97
        0
 97
        1
330
2A1
 75
     2
 76
     1
 98
        1
 10
0.0
 20
0.0
450
        0
451
        0
460
0.0
461
0.0
452
        0
462
0.0
453
        0
470

  0
ENDBLK
  5
29E
330
29B
100
AcDbEntity
  8
0
100
AcDbBlockEnd
  0
BLOCK
  5
2A5
330
2A3
100
AcDbEntity
  8
0
100
AcDbBlockBegin
  2
Block_8
 70
     0
 10
0.0
 20
0.0
 30
0.0
  3
Block_8
  1

  0
INSERT
  5
2A8
330
2A3
100
AcDbEntity
  8
Livello 1
100
AcDbBlockReference
  2
Block_9
 10
0.0
 20
0.0
 30
0.0
  0
ENDBLK
  5
2A6
330
2A3
100
AcDbEntity
  8
0
100
AcDbBlockEnd
  0
BLOCK
  5
2A9
330
2A7
100
AcDbEntity
  8
0
100
AcDbBlockBegin
  2
Block_9
 70
     0
 10
0.0
 20
0.0
 30
0.0
  3
Block_9
  1

  0
SPLINE
  5
2AB
330
2A7
100
AcDbEntity
  8
Livello 1
100
AcDbSpline
210
0.0
220
0.0
230
1.0
 70
     9
 71
     3
 72
    17
 73
    13
 74
     0
 42
0.000000001
 43
0.0000000001
 40
0.0
 40
0.0
 40
0.0
 40
0.0
 40
1.0
 40
1.0
 40
1.0
 40
2.0
 40
2.0
 40
2.0
 40
3.0
 40
3.0
 40
3.0
 40
4.0
 40
4.0
 40
4.0
 40
4.0
 10
267.2472533511569
 20
-138.1547023851662
 30
0.0
 10
266.2440415458522
 20
-138.1547023851662
 30
0.0
 10
265.7613836683687
 20
-138.8530232400263
 30
0.0
 10
265.4439181194029
 20
-139.9706122154414
 30
0.0
 10
265.7233153632567
 20
-140.9355834608598
 30
0.0
 10
266.3582464611882
 20
-141.4563096434553
 30
0.0
 10
267.1456230343421
 20
-141.4563096434553
 30
0.0
 10
267.9836425111291
 20
-141.4943779485674
 30
0.0
 10
268.7202039258755
 20
-140.8594468506358
 30
0.0
 10
268.7202039258755
 20
-139.8054198869236
 30
0.0
 10
268.7202039258755
 20
-138.8022080816189
 30
0.0
 10
268.0980196812394
 20
-138.1547023851662
 30
0.0
 10
267.2472533511569
 20
-138.1547023851662
 30
0.0
  0
SPLINE
  5
2AC
330
2A7
100
AcDbEntity
  8
Livello 1
100
AcDbSpline
210
0.0
220
0.0
230
1.0
 70
     9
 71
     3
 72
    17
 73
    13
 74
     0
 42
0.000000001
 43
0.0000000001
 40
0.0
 40
0.0
 40
0.0
 40
0.0
 40
1.0
 40
1.0
 40
1.0
 40
2.0
 40
2.0
 40
2.0
 40
3.0
 40
3.0
 40
3.0
 40
4.0
 40
4.0
 40
4.0
 40
4.0
 10
263.1202012146019
 20
-141.227727558009
 30
0.0
 10
263.9456460928678
 20
-141.227727558009
 30
0.0
 10
264.390063410465
 20
-140.6055433133729
 30
0.0
 10
264.6439669477279
 20
-139.6531466664756
 30
0.0
 10
264.4028102637605
 20
-138.9419067035458
 30
0.0
 10
263.8948309344603
 20
-138.3960313239079
 30
0.0
 10
263.1455226664185
 20
-138.3960313239079
 30
0.0
 10
262.4852701166703
 20
-138.3960313239079
 30
0.0
 10
261.7995238603314
 20
-138.7896334830977
 30
0.0
 10
261.7995238603314
 20
-139.7928452884025
 30
0.0
 10
261.7995238603314
 20
-140.7197482287089
 30
0.0
 10
262.4091335064463
 20
-141.227727558009
 30
0.0
 10
263.1202012146019
 20
-141.227727558009
 30
0.0
  0
SPLINE
  5
2AD
330
2A7
100
AcDbEntity
  8
Livello 1
100
AcDbSpline
210
0.0
220
0.0
230
1.0
 70
     9
 71
     3
 72
    35
 73
    31
 74
     0
 42
0.000000001
 43
0.0000000001
 40
0.0
 40
0.0
 40
0.0
 40
0.0
 40
1.0
 40
1.0
 40
1.0
 40
2.0
 40
2.0
 40
2.0
 40
3.0
 40
3.0
 40
3.0
 40
4.0
 40
4.0
 40
4.0
 40
5.0
 40
5.0
 40
5.0
 40
6.0
 40
6.0
 40
6.0
 40
7.0
 40
7.0
 40
7.0
 40
8.0
 40
8.0
 40
8.0
 40
9.0
 40
9.0
 40
9.0
 40
10.0
 40
10.0
 40
10.0
 40
10.0
 10
267.2978962547901
 20
-142.5990478159127
 30
0.0
 10
266.2566161443734
 20
-142.5990478159127
 30
0.0
 10
265.5202269844012
 20
-141.9768635712766
 30
0.0
 10
265.0883842653251
 20
-140.9610771674507
 30
0.0
 10
265.0883842653251
 20
-140.9610771674507
 30
0.0
 10
265.0503159602132
 20
-140.9736517659719
 30
0.0
 10
265.0503159602132
 20
-140.9736517659719
 30
0.0
 10
264.6186454959113
 20
-141.8879801077572
 30
0.0
 10
263.9074055329815
 20
-142.281582266947
 30
0.0
 10
263.196337824826
 20
-142.281582266947
 30
0.0
 10
261.8884073238508
 20
-142.281582266947
 30
0.0
 10
260.9995726886564
 20
-141.1769123996016
 30
0.0
 10
260.9995726886564
 20
-139.7292832766996
 30
0.0
 10
260.9995726886564
 20
-138.1292086785753
 30
0.0
 10
262.0027844939611
 20
-137.3292575069003
 30
0.0
 10
263.0313177510824
 20
-137.3292575069003
 30
0.0
 10
263.7296386059426
 20
-137.3292575069003
 30
0.0
 10
264.4789468739844
 20
-137.6722167624569
 30
0.0
 10
264.9614324966937
 20
-138.6880031662828
 30
0.0
 10
264.9614324966937
 20
-138.6880031662828
 30
0.0
 10
264.9995008018057
 20
-138.6880031662828
 30
0.0
 10
264.9995008018057
 20
-138.6880031662828
 30
0.0
 10
265.405849814291
 20
-137.6594699091615
 30
0.0
 10
266.1296643757419
 20
-137.02453881123
 30
0.0
 10
267.1328761810467
 20
-137.02453881123
 30
0.0
 10
268.5677584506532
 20
-137.02453881123
 30
0.0
 10
269.5329019508459
 20
-138.256332701981
 30
0.0
 10
269.5329019508459
 20
-139.8309135935145
 30
0.0
 10
269.5329019508459
 20
-141.557767705496
 30
0.0
 10
268.5043686937246
 20
-142.5990478159127
 30
0.0
 10
267.2978962547901
 20
-142.5990478159127
 30
0.0
  0
HATCH
  5
2AE
330
2A7
100
AcDbEntity
  8
Livello 1
 62
   250
420
  1907995
440
 33554687
100
AcDbHatch
 10
0.0
 20
0.0
 30
0.0
210
0.0
220
0.0
230
1.0
  2
SOLID
 70
     1
 71
     1
 91
        3
 92
        1
 93
        1
 72
     4
 94
        3
 73
     0
 74
     0
 95
       17
 96
       13
 40
0.0
 40
0.0
 40
0.0
 40
0.0
 40
1.0
 40
1.0
 40
1.0
 40
2.0
 40
2.0
 40
2.0
 40
3.0
 40
3.0
 40
3.0
 40
4.0
 40
4.0
 40
4.0
 40
4.0
 10
267.2472533511569
 20
-138.1547023851662
 10
266.2440415458522
 20
-138.1547023851662
 10
265.7613836683687
 20
-138.8530232400263
 10
265.4439181194029
 20
-139.9706122154414
 10
265.7233153632567
 20
-140.9355834608598
 10
266.3582464611882
 20
-141.4563096434553
 10
267.1456230343421
 20
-141.4563096434553
 10
267.9836425111291
 20
-141.4943779485674
 10
268.7202039258755
 20
-140.8594468506358
 10
268.7202039258755
 20
-139.8054198869236
 10
268.7202039258755
 20
-138.8022080816189
 10
268.0980196812394
 20
-138.1547023851662
 10
267.2472533511569
 20
-138.1547023851662
 97
        0
 97
        1
330
2AB
 92
        1
 93
        1
 72
     4
 94
        3
 73
     0
 74
     0
 95
       17
 96
       13
 40
0.0
 40
0.0
 40
0.0
 40
0.0
 40
1.0
 40
1.0
 40
1.0
 40
2.0
 40
2.0
 40
2.0
 40
3.0
 40
3.0
 40
3.0
 40
4.0
 40
4.0
 40
4.0
 40
4.0
 10
263.1202012146019
 20
-141.227727558009
 10
263.9456460928678
 20
-141.227727558009
 10
264.390063410465
 20
-140.6055433133729
 10
264.6439669477279
 20
-139.6531466664756
 10
264.4028102637605
 20
-138.9419067035458
 10
263.8948309344603
 20
-138.3960313239079
 10
263.1455226664185
 20
-138.3960313239079
 10
262.4852701166703
 20
-138.3960313239079
 10
261.7995238603314
 20
-138.7896334830977
 10
261.7995238603314
 20
-139.7928452884025
 10
261.7995238603314
 20
-140.7197482287089
 10
262.4091335064463
 20
-141.227727558009
 10
263.1202012146019
 20
-141.227727558009
 97
        0
 97
        1
330
2AC
 92
        1
 93
        1
 72
     4
 94
        3
 73
     0
 74
     0
 95
       35
 96
       31
 40
0.0
 40
0.0
 40
0.0
 40
0.0
 40
1.0
 40
1.0
 40
1.0
 40
2.0
 40
2.0
 40
2.0
 40
3.0
 40
3.0
 40
3.0
 40
4.0
 40
4.0
 40
4.0
 40
5.0
 40
5.0
 40
5.0
 40
6.0
 40
6.0
 40
6.0
 40
7.0
 40
7.0
 40
7.0
 40
8.0
 40
8.0
 40
8.0
 40
9.0
 40
9.0
 40
9.0
 40
10.0
 40
10.0
 40
10.0
 40
10.0
 10
267.2978962547901
 20
-142.5990478159127
 10
266.2566161443734
 20
-142.5990478159127
 10
265.5202269844012
 20
-141.9768635712766
 10
265.0883842653251
 20
-140.9610771674507
 10
265.0883842653251
 20
-140.9610771674507
 10
265.0503159602132
 20
-140.9736517659719
 10
265.0503159602132
 20
-140.9736517659719
 10
264.6186454959113
 20
-141.8879801077572
 10
263.9074055329815
 20
-142.281582266947
 10
263.196337824826
 20
-142.281582266947
 10
261.8884073238508
 20
-142.281582266947
 10
260.9995726886564
 20
-141.1769123996016
 10
260.9995726886564
 20
-139.7292832766996
 10
260.9995726886564
 20
-138.1292086785753
 10
262.0027844939611
 20
-137.3292575069003
 10
263.0313177510824
 20
-137.3292575069003
 10
263.7296386059426
 20
-137.3292575069003
 10
264.4789468739844
 20
-137.6722167624569
 10
264.9614324966937
 20
-138.6880031662828
 10
264.9614324966937
 20
-138.6880031662828
 10
264.9995008018057
 20
-138.6880031662828
 10
264.9995008018057
 20
-138.6880031662828
 10
265.405849814291
 20
-137.6594699091615
 10
266.1296643757419
 20
-137.02453881123
 10
267.1328761810467
 20
-137.02453881123
 10
268.5677584506532
 20
-137.02453881123
 10
269.5329019508459
 20
-138.256332701981
 10
269.5329019508459
 20
-139.8309135935145
 10
269.5329019508459
 20
-141.557767705496
 10
268.5043686937246
 20
-142.5990478159127
 10
267.2978962547901
 20
-142.5990478159127
 97
        0
 97
        1
330
2AD
 75
     2
 76
     1
 98
        1
 10
0.0
 20
0.0
450
        0
451
        0
460
0.0
461
0.0
452
        0
462
0.0
453
        0
470

  0
SPLINE
  5
2AF
330
2A7
100
AcDbEntity
  8
Livello 1
100
AcDbSpline
210
0.0
220
0.0
230
1.0
 70
     9
 71
     3
 72
    17
 73
    13
 74
     0
 42
0.000000001
 43
0.0000000001
 40
0.0
 40
0.0
 40
0.0
 40
0.0
 40
1.0
 40
1.0
 40
1.0
 40
2.0
 40
2.0
 40
2.0
 40
3.0
 40
3.0
 40
3.0
 40
4.0
 40
4.0
 40
4.0
 40
4.0
 10
270.9550373671571
 20
-136.3510226438636
 30
0.0
 10
270.2059013538895
 20
-136.0716254000098
 30
0.0
 10
268.847155694507
 20
-135.7286661444532
 30
0.0
 10
267.9202527542005
 20
-135.5889675225264
 30
0.0
 10
267.9202527542005
 20
-135.5889675225264
 30
0.0
 10
267.7931287307948
 20
-134.3445990332541
 30
0.0
 10
267.7931287307948
 20
-134.3445990332541
 30
0.0
 10
268.8726494010978
 20
-134.636570875629
 30
0.0
 10
270.2820379641135
 20
-135.1953653633366
 30
0.0
 10
270.8789007569331
 20
-135.5508992174143
 30
0.0
 10
270.8789007569331
 20
-135.5508992174143
 30
0.0
 10
270.9550373671571
 20
-136.3510226438636
 30
0.0
 10
270.9550373671571
 20
-136.3510226438636
 30
0.0
  0
HATCH
  5
2B0
330
2A7
100
AcDbEntity
  8
Livello 1
 62
   250
420
  1907995
440
 33554687
100
AcDbHatch
 10
0.0
 20
0.0
 30
0.0
210
0.0
220
0.0
230
1.0
  2
SOLID
 70
     1
 71
     1
 91
        1
 92
        1
 93
        1
 72
     4
 94
        3
 73
     0
 74
     0
 95
       17
 96
       13
 40
0.0
 40
0.0
 40
0.0
 40
0.0
 40
1.0
 40
1.0
 40
1.0
 40
2.0
 40
2.0
 40
2.0
 40
3.0
 40
3.0
 40
3.0
 40
4.0
 40
4.0
 40
4.0
 40
4.0
 10
270.9550373671571
 20
-136.3510226438636
 10
270.2059013538895
 20
-136.0716254000098
 10
268.847155694507
 20
-135.7286661444532
 10
267.9202527542005
 20
-135.5889675225264
 10
267.9202527542005
 20
-135.5889675225264
 10
267.7931287307948
 20
-134.3445990332541
 10
267.7931287307948
 20
-134.3445990332541
 10
268.8726494010978
 20
-134.636570875629
 10
270.2820379641135
 20
-135.1953653633366
 10
270.8789007569331
 20
-135.5508992174143
 10
270.8789007569331
 20
-135.5508992174143
 10
270.9550373671571
 20
-136.3510226438636
 10
270.9550373671571
 20
-136.3510226438636
 97
        0
 97
        1
330
2AF
 75
     2
 76
     1
 98
        1
 10
0.0
 20
0.0
450
        0
451
        0
460
0.0
461
0.0
452
        0
462
0.0
453
        0
470

  0
SPLINE
  5
2B1
330
2A7
100
AcDbEntity
  8
Livello 1
100
AcDbSpline
210
0.0
220
0.0
230
1.0
 70
    11
 71
     3
 72
    50
 73
    46
 74
     0
 42
0.000000001
 43
0.0000000001
 40
0.0
 40
0.0
 40
0.0
 40
0.0
 40
1.0
 40
1.0
 40
1.0
 40
2.0
 40
2.0
 40
2.0
 40
3.0
 40
3.0
 40
3.0
 40
4.0
 40
4.0
 40
4.0
 40
5.0
 40
5.0
 40
5.0
 40
6.0
 40
6.0
 40
6.0
 40
7.0
 40
7.0
 40
7.0
 40
8.0
 40
8.0
 40
8.0
 40
9.0
 40
9.0
 40
9.0
 40
10.0
 40
10.0
 40
10.0
 40
11.0
 40
11.0
 40
11.0
 40
12.0
 40
12.0
 40
12.0
 40
13.0
 40
13.0
 40
13.0
 40
14.0
 40
14.0
 40
14.0
 40
15.0
 40
15.0
 40
15.0
 40
15.0
 10
262.0789211041852
 20
-128.4269585182405
 30
0.0
 10
262.0789211041852
 20
-128.4269585182405
 30
0.0
 10
262.0789211041852
 20
-131.5761203013073
 30
0.0
 10
262.0789211041852
 20
-131.5761203013073
 30
0.0
 10
262.0789211041852
 20
-131.5761203013073
 30
0.0
 10
264.1995496301307
 20
-131.8935858502731
 30
0.0
 10
264.1995496301307
 20
-131.8935858502731
 30
0.0
 10
264.1742281783141
 20
-131.7030720699388
 30
0.0
 10
264.1487344717232
 20
-131.5253051428999
 30
0.0
 10
264.1487344717232
 20
-131.2205864472296
 30
0.0
 10
264.1487344717232
 20
-130.585655349298
 30
0.0
 10
264.2884330936501
 20
-129.9507242513665
 30
0.0
 10
264.5931517893205
 20
-129.4427449220664
 30
0.0
 10
264.9614324966937
 20
-128.7952392256137
 30
0.0
 10
265.6725002048493
 20
-128.2617661897227
 30
0.0
 10
266.713780315266
 20
-128.2617661897227
 30
0.0
 10
268.3266017666857
 20
-128.2617661897227
 30
0.0
 10
269.5329019508459
 20
-129.5443752388813
 30
0.0
 10
269.5329019508459
 20
-131.3347913625656
 30
0.0
 10
269.5329019508459
 20
-132.2363728510555
 30
0.0
 10
269.278998413583
 20
-132.9984279723927
 30
0.0
 10
269.0249226215458
 20
-133.3920301315825
 30
0.0
 10
269.0249226215458
 20
-133.3920301315825
 30
0.0
 10
268.1741562914634
 20
-133.1126328877288
 30
0.0
 10
268.1741562914634
 20
-133.1126328877288
 30
0.0
 10
268.3774169250932
 20
-132.7698458869464
 30
0.0
 10
268.6313204623561
 20
-132.0966742291286
 30
0.0
 10
268.6313204623561
 20
-131.347538215861
 30
0.0
 10
268.6313204623561
 20
-130.2935112521488
 30
0.0
 10
267.9455742060171
 20
-129.3919297636589
 30
0.0
 10
266.8409043386717
 20
-129.3919297636589
 30
0.0
 10
265.774130521664
 20
-129.4046766169544
 30
0.0
 10
265.0122476551011
 20
-130.1157443251099
 30
0.0
 10
265.0122476551011
 20
-131.7666340816417
 30
0.0
 10
265.0122476551011
 20
-132.2363728510555
 30
0.0
 10
265.0630628135086
 20
-132.6046535584287
 30
0.0
 10
265.1011311186206
 20
-132.909372254099
 30
0.0
 10
265.1011311186206
 20
-132.909372254099
 30
0.0
 10
261.1392713105832
 20
-132.3760714729824
 30
0.0
 10
261.1392713105832
 20
-132.3760714729824
 30
0.0
 10
261.1392713105832
 20
-132.3760714729824
 30
0.0
 10
261.1392713105832
 20
-128.4269585182405
 30
0.0
 10
261.1392713105832
 20
-128.4269585182405
 30
0.0
 10
261.1392713105832
 20
-128.4269585182405
 30
0.0
 10
262.0789211041852
 20
-128.4269585182405
 30
0.0
 10
262.0789211041852
 20
-128.4269585182405
 30
0.0
  0
HATCH
  5
2B2
330
2A7
100
AcDbEntity
  8
Livello 1
 62
   250
420
  1907995
440
 33554687
100
AcDbHatch
 10
0.0
 20
0.0
 30
0.0
210
0.0
220
0.0
230
1.0
  2
SOLID
 70
     1
 71
     1
 91
        1
 92
        1
 93
        1
 72
     4
 94
        3
 73
     0
 74
     0
 95
       50
 96
       46
 40
0.0
 40
0.0
 40
0.0
 40
0.0
 40
1.0
 40
1.0
 40
1.0
 40
2.0
 40
2.0
 40
2.0
 40
3.0
 40
3.0
 40
3.0
 40
4.0
 40
4.0
 40
4.0
 40
5.0
 40
5.0
 40
5.0
 40
6.0
 40
6.0
 40
6.0
 40
7.0
 40
7.0
 40
7.0
 40
8.0
 40
8.0
 40
8.0
 40
9.0
 40
9.0
 40
9.0
 40
10.0
 40
10.0
 40
10.0
 40
11.0
 40
11.0
 40
11.0
 40
12.0
 40
12.0
 40
12.0
 40
13.0
 40
13.0
 40
13.0
 40
14.0
 40
14.0
 40
14.0
 40
15.0
 40
15.0
 40
15.0
 40
15.0
 10
262.0789211041852
 20
-128.4269585182405
 10
262.0789211041852
 20
-128.4269585182405
 10
262.0789211041852
 20
-131.5761203013073
 10
262.0789211041852
 20
-131.5761203013073
 10
262.0789211041852
 20
-131.5761203013073
 10
264.1995496301307
 20
-131.8935858502731
 10
264.1995496301307
 20
-131.8935858502731
 10
264.1742281783141
 20
-131.7030720699388
 10
264.1487344717232
 20
-131.5253051428999
 10
264.1487344717232
 20
-131.2205864472296
 10
264.1487344717232
 20
-130.585655349298
 10
264.2884330936501
 20
-129.9507242513665
 10
264.5931517893205
 20
-129.4427449220664
 10
264.9614324966937
 20
-128.7952392256137
 10
265.6725002048493
 20
-128.2617661897227
 10
266.713780315266
 20
-128.2617661897227
 10
268.3266017666857
 20
-128.2617661897227
 10
269.5329019508459
 20
-129.5443752388813
 10
269.5329019508459
 20
-131.3347913625656
 10
269.5329019508459
 20
-132.2363728510555
 10
269.278998413583
 20
-132.9984279723927
 10
269.0249226215458
 20
-133.3920301315825
 10
269.0249226215458
 20
-133.3920301315825
 10
268.1741562914634
 20
-133.1126328877288
 10
268.1741562914634
 20
-133.1126328877288
 10
268.3774169250932
 20
-132.7698458869464
 10
268.6313204623561
 20
-132.0966742291286
 10
268.6313204623561
 20
-131.347538215861
 10
268.6313204623561
 20
-130.2935112521488
 10
267.9455742060171
 20
-129.3919297636589
 10
266.8409043386717
 20
-129.3919297636589
 10
265.774130521664
 20
-129.4046766169544
 10
265.0122476551011
 20
-130.1157443251099
 10
265.0122476551011
 20
-131.7666340816417
 10
265.0122476551011
 20
-132.2363728510555
 10
265.0630628135086
 20
-132.6046535584287
 10
265.1011311186206
 20
-132.909372254099
 10
265.1011311186206
 20
-132.909372254099
 10
261.1392713105832
 20
-132.3760714729824
 10
261.1392713105832
 20
-132.3760714729824
 10
261.1392713105832
 20
-132.3760714729824
 10
261.1392713105832
 20
-128.4269585182405
 10
261.1392713105832
 20
-128.4269585182405
 10
261.1392713105832
 20
-128.4269585182405
 10
262.0789211041852
 20
-128.4269585182405
 10
262.0789211041852
 20
-128.4269585182405
 97
        0
 97
        1
330
2B1
 75
     2
 76
     1
 98
        1
 10
0.0
 20
0.0
450
        0
451
        0
460
0.0
461
0.0
452
        0
462
0.0
453
        0
470

  0
ENDBLK
  5
2AA
330
2A7
100
AcDbEntity
  8
0
100
AcDbBlockEnd
  0
BLOCK
  5
2B5
330
2B3
100
AcDbEntity
  8
0
100
AcDbBlockBegin
  2
Block_10
 70
     0
 10
0.0
 20
0.0
 30
0.0
  3
Block_10
  1

  0
INSERT
  5
2B8
330
2B3
100
AcDbEntity
  8
Livello 1
100
AcDbBlockReference
  2
Block_11
 10
0.0
 20
0.0
 30
0.0
  0
ENDBLK
  5
2B6
330
2B3
100
AcDbEntity
  8
0
100
AcDbBlockEnd
  0
BLOCK
  5
2B9
330
2B7
100
AcDbEntity
  8
0
100
AcDbBlockBegin
  2
Block_11
 70
     0
 10
0.0
 20
0.0
 30
0.0
  3
Block_11
  1

  0
SPLINE
  5
2BB
330
2B7
100
AcDbEntity
  8
Livello 1
100
AcDbSpline
210
0.0
220
0.0
230
1.0
 70
    11
 71
     3
 72
    29
 73
    25
 74
     0
 42
0.000000001
 43
0.0000000001
 40
0.0
 40
0.0
 40
0.0
 40
0.0
 40
1.0
 40
1.0
 40
1.0
 40
2.0
 40
2.0
 40
2.0
 40
3.0
 40
3.0
 40
3.0
 40
4.0
 40
4.0
 40
4.0
 40
5.0
 40
5.0
 40
5.0
 40
6.0
 40
6.0
 40
6.0
 40
7.0
 40
7.0
 40
7.0
 40
8.0
 40
8.0
 40
8.0
 40
8.0
 10
229.1045341766649
 20
-175.4910969613355
 30
0.0
 10
229.1045341766649
 20
-175.4910969613355
 30
0.0
 10
229.079040470074
 20
-175.4910969613355
 30
0.0
 10
229.079040470074
 20
-175.4910969613355
 30
0.0
 10
229.079040470074
 20
-175.4910969613355
 30
0.0
 10
227.6441582004674
 20
-176.2658989359682
 30
0.0
 10
227.6441582004674
 20
-176.2658989359682
 30
0.0
 10
227.6441582004674
 20
-176.2658989359682
 30
0.0
 10
227.4283229683165
 20
-175.4149603511114
 30
0.0
 10
227.4283229683165
 20
-175.4149603511114
 30
0.0
 10
227.4283229683165
 20
-175.4149603511114
 30
0.0
 10
229.2314859452963
 20
-174.449989105693
 30
0.0
 10
229.2314859452963
 20
-174.449989105693
 30
0.0
 10
229.2314859452963
 20
-174.449989105693
 30
0.0
 10
230.1838825921936
 20
-174.449989105693
 30
0.0
 10
230.1838825921936
 20
-174.449989105693
 30
0.0
 10
230.1838825921936
 20
-174.449989105693
 30
0.0
 10
230.1838825921936
 20
-182.7037488692546
 30
0.0
 10
230.1838825921936
 20
-182.7037488692546
 30
0.0
 10
230.1838825921936
 20
-182.7037488692546
 30
0.0
 10
229.1045341766649
 20
-182.7037488692546
 30
0.0
 10
229.1045341766649
 20
-182.7037488692546
 30
0.0
 10
229.1045341766649
 20
-182.7037488692546
 30
0.0
 10
229.1045341766649
 20
-175.4910969613355
 30
0.0
 10
229.1045341766649
 20
-175.4910969613355
 30
0.0
  0
HATCH
  5
2BC
330
2B7
100
AcDbEntity
  8
Livello 1
 62
   250
420
  1907995
440
 33554687
100
AcDbHatch
 10
0.0
 20
0.0
 30
0.0
210
0.0
220
0.0
230
1.0
  2
SOLID
 70
     1
 71
     1
 91
        1
 92
        1
 93
        1
 72
     4
 94
        3
 73
     0
 74
     0
 95
       29
 96
       25
 40
0.0
 40
0.0
 40
0.0
 40
0.0
 40
1.0
 40
1.0
 40
1.0
 40
2.0
 40
2.0
 40
2.0
 40
3.0
 40
3.0
 40
3.0
 40
4.0
 40
4.0
 40
4.0
 40
5.0
 40
5.0
 40
5.0
 40
6.0
 40
6.0
 40
6.0
 40
7.0
 40
7.0
 40
7.0
 40
8.0
 40
8.0
 40
8.0
 40
8.0
 10
229.1045341766649
 20
-175.4910969613355
 10
229.1045341766649
 20
-175.4910969613355
 10
229.079040470074
 20
-175.4910969613355
 10
229.079040470074
 20
-175.4910969613355
 10
229.079040470074
 20
-175.4910969613355
 10
227.6441582004674
 20
-176.2658989359682
 10
227.6441582004674
 20
-176.2658989359682
 10
227.6441582004674
 20
-176.2658989359682
 10
227.4283229683165
 20
-175.4149603511114
 10
227.4283229683165
 20
-175.4149603511114
 10
227.4283229683165
 20
-175.4149603511114
 10
229.2314859452963
 20
-174.449989105693
 10
229.2314859452963
 20
-174.449989105693
 10
229.2314859452963
 20
-174.449989105693
 10
230.1838825921936
 20
-174.449989105693
 10
230.1838825921936
 20
-174.449989105693
 10
230.1838825921936
 20
-174.449989105693
 10
230.1838825921936
 20
-182.7037488692546
 10
230.1838825921936
 20
-182.7037488692546
 10
230.1838825921936
 20
-182.7037488692546
 10
229.1045341766649
 20
-182.7037488692546
 10
229.1045341766649
 20
-182.7037488692546
 10
229.1045341766649
 20
-182.7037488692546
 10
229.1045341766649
 20
-175.4910969613355
 10
229.1045341766649
 20
-175.4910969613355
 97
        0
 97
        1
330
2BB
 75
     2
 76
     1
 98
        1
 10
0.0
 20
0.0
450
        0
451
        0
460
0.0
461
0.0
452
        0
462
0.0
453
        0
470

  0
SPLINE
  5
2BD
330
2B7
100
AcDbEntity
  8
Livello 1
100
AcDbSpline
210
0.0
220
0.0
230
1.0
 70
    11
 71
     3
 72
    29
 73
    25
 74
     0
 42
0.000000001
 43
0.0000000001
 40
0.0
 40
0.0
 40
0.0
 40
0.0
 40
1.0
 40
1.0
 40
1.0
 40
2.0
 40
2.0
 40
2.0
 40
3.0
 40
3.0
 40
3.0
 40
4.0
 40
4.0
 40
4.0
 40
5.0
 40
5.0
 40
5.0
 40
6.0
 40
6.0
 40
6.0
 40
7.0
 40
7.0
 40
7.0
 40
8.0
 40
8.0
 40
8.0
 40
8.0
 10
238.5527085449625
 20
-174.449989105693
 30
0.0
 10
238.5527085449625
 20
-174.449989105693
 30
0.0
 10
238.5527085449625
 20
-175.1865505204395
 30
0.0
 10
238.5527085449625
 20
-175.1865505204395
 30
0.0
 10
238.5527085449625
 20
-175.1865505204395
 30
0.0
 10
234.9589571895242
 20
-182.7037488692546
 30
0.0
 10
234.9589571895242
 20
-182.7037488692546
 30
0.0
 10
234.9589571895242
 20
-182.7037488692546
 30
0.0
 10
233.8034721637714
 20
-182.7037488692546
 30
0.0
 10
233.8034721637714
 20
-182.7037488692546
 30
0.0
 10
233.8034721637714
 20
-182.7037488692546
 30
0.0
 10
237.3844766659143
 20
-175.4022134978161
 30
0.0
 10
237.3844766659143
 20
-175.4022134978161
 30
0.0
 10
237.3844766659143
 20
-175.4022134978161
 30
0.0
 10
237.3844766659143
 20
-175.3767197912252
 30
0.0
 10
237.3844766659143
 20
-175.3767197912252
 30
0.0
 10
237.3844766659143
 20
-175.3767197912252
 30
0.0
 10
233.3463079928787
 20
-175.3767197912252
 30
0.0
 10
233.3463079928787
 20
-175.3767197912252
 30
0.0
 10
233.3463079928787
 20
-175.3767197912252
 30
0.0
 10
233.3463079928787
 20
-174.449989105693
 30
0.0
 10
233.3463079928787
 20
-174.449989105693
 30
0.0
 10
233.3463079928787
 20
-174.449989105693
 30
0.0
 10
238.5527085449625
 20
-174.449989105693
 30
0.0
 10
238.5527085449625
 20
-174.449989105693
 30
0.0
  0
HATCH
  5
2BE
330
2B7
100
AcDbEntity
  8
Livello 1
 62
   250
420
  1907995
440
 33554687
100
AcDbHatch
 10
0.0
 20
0.0
 30
0.0
210
0.0
220
0.0
230
1.0
  2
SOLID
 70
     1
 71
     1
 91
        1
 92
        1
 93
        1
 72
     4
 94
        3
 73
     0
 74
     0
 95
       29
 96
       25
 40
0.0
 40
0.0
 40
0.0
 40
0.0
 40
1.0
 40
1.0
 40
1.0
 40
2.0
 40
2.0
 40
2.0
 40
3.0
 40
3.0
 40
3.0
 40
4.0
 40
4.0
 40
4.0
 40
5.0
 40
5.0
 40
5.0
 40
6.0
 40
6.0
 40
6.0
 40
7.0
 40
7.0
 40
7.0
 40
8.0
 40
8.0
 40
8.0
 40
8.0
 10
238.5527085449625
 20
-174.449989105693
 10
238.5527085449625
 20
-174.449989105693
 10
238.5527085449625
 20
-175.1865505204395
 10
238.5527085449625
 20
-175.1865505204395
 10
238.5527085449625
 20
-175.1865505204395
 10
234.9589571895242
 20
-182.7037488692546
 10
234.9589571895242
 20
-182.7037488692546
 10
234.9589571895242
 20
-182.7037488692546
 10
233.8034721637714
 20
-182.7037488692546
 10
233.8034721637714
 20
-182.7037488692546
 10
233.8034721637714
 20
-182.7037488692546
 10
237.3844766659143
 20
-175.4022134978161
 10
237.3844766659143
 20
-175.4022134978161
 10
237.3844766659143
 20
-175.4022134978161
 10
237.3844766659143
 20
-175.3767197912252
 10
237.3844766659143
 20
-175.3767197912252
 10
237.3844766659143
 20
-175.3767197912252
 10
233.3463079928787
 20
-175.3767197912252
 10
233.3463079928787
 20
-175.3767197912252
 10
233.3463079928787
 20
-175.3767197912252
 10
233.3463079928787
 20
-174.449989105693
 10
233.3463079928787
 20
-174.449989105693
 10
233.3463079928787
 20
-174.449989105693
 10
238.5527085449625
 20
-174.449989105693
 10
238.5527085449625
 20
-174.449989105693
 97
        0
 97
        1
330
2BD
 75
     2
 76
     1
 98
        1
 10
0.0
 20
0.0
450
        0
451
        0
460
0.0
461
0.0
452
        0
462
0.0
453
        0
470

  0
SPLINE
  5
2BF
330
2B7
100
AcDbEntity
  8
Livello 1
100
AcDbSpline
210
0.0
220
0.0
230
1.0
 70
     9
 71
     3
 72
    17
 73
    13
 74
     0
 42
0.000000001
 43
0.0000000001
 40
0.0
 40
0.0
 40
0.0
 40
0.0
 40
1.0
 40
1.0
 40
1.0
 40
2.0
 40
2.0
 40
2.0
 40
3.0
 40
3.0
 40
3.0
 40
4.0
 40
4.0
 40
4.0
 40
4.0
 10
239.3404296276649
 20
-184.2657551622669
 30
0.0
 10
239.6198268715187
 20
-183.516446894225
 30
0.0
 10
239.9627861270753
 20
-182.1577012348424
 30
0.0
 10
240.1024847490022
 20
-181.2309705493103
 30
0.0
 10
240.1024847490022
 20
-181.2309705493103
 30
0.0
 10
241.3468532382744
 20
-181.1038465259045
 30
0.0
 10
241.3468532382744
 20
-181.1038465259045
 30
0.0
 10
241.0548813958995
 20
-182.1831949414334
 30
0.0
 10
240.496086908192
 20
-183.5925835044491
 30
0.0
 10
240.1405530541142
 20
-184.1896185520429
 30
0.0
 10
240.1405530541142
 20
-184.1896185520429
 30
0.0
 10
239.3404296276649
 20
-184.2657551622669
 30
0.0
 10
239.3404296276649
 20
-184.2657551622669
 30
0.0
  0
HATCH
  5
2C0
330
2B7
100
AcDbEntity
  8
Livello 1
 62
   250
420
  1907995
440
 33554687
100
AcDbHatch
 10
0.0
 20
0.0
 30
0.0
210
0.0
220
0.0
230
1.0
  2
SOLID
 70
     1
 71
     1
 91
        1
 92
        1
 93
        1
 72
     4
 94
        3
 73
     0
 74
     0
 95
       17
 96
       13
 40
0.0
 40
0.0
 40
0.0
 40
0.0
 40
1.0
 40
1.0
 40
1.0
 40
2.0
 40
2.0
 40
2.0
 40
3.0
 40
3.0
 40
3.0
 40
4.0
 40
4.0
 40
4.0
 40
4.0
 10
239.3404296276649
 20
-184.2657551622669
 10
239.6198268715187
 20
-183.516446894225
 10
239.9627861270753
 20
-182.1577012348424
 10
240.1024847490022
 20
-181.2309705493103
 10
240.1024847490022
 20
-181.2309705493103
 10
241.3468532382744
 20
-181.1038465259045
 10
241.3468532382744
 20
-181.1038465259045
 10
241.0548813958995
 20
-182.1831949414334
 10
240.496086908192
 20
-183.5925835044491
 10
240.1405530541142
 20
-184.1896185520429
 10
240.1405530541142
 20
-184.1896185520429
 10
239.3404296276649
 20
-184.2657551622669
 10
239.3404296276649
 20
-184.2657551622669
 97
        0
 97
        1
330
2BF
 75
     2
 76
     1
 98
        1
 10
0.0
 20
0.0
450
        0
451
        0
460
0.0
461
0.0
452
        0
462
0.0
453
        0
470

  0
SPLINE
  5
2C1
330
2B7
100
AcDbEntity
  8
Livello 1
100
AcDbSpline
210
0.0
220
0.0
230
1.0
 70
    11
 71
     3
 72
    50
 73
    46
 74
     0
 42
0.000000001
 43
0.0000000001
 40
0.0
 40
0.0
 40
0.0
 40
0.0
 40
1.0
 40
1.0
 40
1.0
 40
2.0
 40
2.0
 40
2.0
 40
3.0
 40
3.0
 40
3.0
 40
4.0
 40
4.0
 40
4.0
 40
5.0
 40
5.0
 40
5.0
 40
6.0
 40
6.0
 40
6.0
 40
7.0
 40
7.0
 40
7.0
 40
8.0
 40
8.0
 40
8.0
 40
9.0
 40
9.0
 40
9.0
 40
10.0
 40
10.0
 40
10.0
 40
11.0
 40
11.0
 40
11.0
 40
12.0
 40
12.0
 40
12.0
 40
13.0
 40
13.0
 40
13.0
 40
14.0
 40
14.0
 40
14.0
 40
15.0
 40
15.0
 40
15.0
 40
15.0
 10
247.264493753288
 20
-175.3894666445207
 30
0.0
 10
247.264493753288
 20
-175.3894666445207
 30
0.0
 10
244.1153319702212
 20
-175.3894666445207
 30
0.0
 10
244.1153319702212
 20
-175.3894666445207
 30
0.0
 10
244.1153319702212
 20
-175.3894666445207
 30
0.0
 10
243.7978664212554
 20
-177.5102674252405
 30
0.0
 10
243.7978664212554
 20
-177.5102674252405
 30
0.0
 10
243.9883802015897
 20
-177.4847737186496
 30
0.0
 10
244.1661471286286
 20
-177.4592800120588
 30
0.0
 10
244.470865824299
 20
-177.4592800120588
 30
0.0
 10
245.1057969222305
 20
-177.4592800120588
 30
0.0
 10
245.740728020162
 20
-177.5991508887599
 30
0.0
 10
246.2487073494621
 20
-177.903697329656
 30
0.0
 10
246.8962130459148
 20
-178.2719780370292
 30
0.0
 10
247.4296860818058
 20
-178.9830457451848
 30
0.0
 10
247.4296860818058
 20
-180.0244981103758
 30
0.0
 10
247.4296860818058
 20
-181.6371473070211
 30
0.0
 10
246.1470770326473
 20
-182.8436197459557
 30
0.0
 10
244.3566609089629
 20
-182.8436197459557
 30
0.0
 10
243.4550794204731
 20
-182.8436197459557
 30
0.0
 10
242.6930242991358
 20
-182.5897162086928
 30
0.0
 10
242.299422139946
 20
-182.3354681618814
 30
0.0
 10
242.299422139946
 20
-182.3354681618814
 30
0.0
 10
242.5788193837997
 20
-181.4848740865731
 30
0.0
 10
242.5788193837997
 20
-181.4848740865731
 30
0.0
 10
242.9216063845821
 20
-181.688134720203
 30
0.0
 10
243.5947780423999
 20
-181.9420382574659
 30
0.0
 10
244.3439140556675
 20
-181.9420382574659
 30
0.0
 10
245.3979410193797
 20
-181.9420382574659
 30
0.0
 10
246.2995225078696
 20
-181.2561197463525
 30
0.0
 10
246.2995225078696
 20
-180.1516221337815
 30
0.0
 10
246.2867756545741
 20
-179.0846760619996
 30
0.0
 10
245.5757079464186
 20
-178.3229654502109
 30
0.0
 10
243.9248181898868
 20
-178.3229654502109
 30
0.0
 10
243.4550794204731
 20
-178.3229654502109
 30
0.0
 10
243.0867987130998
 20
-178.3736083538441
 30
0.0
 10
242.7820800174295
 20
-178.4118489137304
 30
0.0
 10
242.7820800174295
 20
-178.4118489137304
 30
0.0
 10
243.3153807985461
 20
-174.449989105693
 30
0.0
 10
243.3153807985461
 20
-174.449989105693
 30
0.0
 10
243.3153807985461
 20
-174.449989105693
 30
0.0
 10
247.264493753288
 20
-174.449989105693
 30
0.0
 10
247.264493753288
 20
-174.449989105693
 30
0.0
 10
247.264493753288
 20
-174.449989105693
 30
0.0
 10
247.264493753288
 20
-175.3894666445207
 30
0.0
 10
247.264493753288
 20
-175.3894666445207
 30
0.0
  0
HATCH
  5
2C2
330
2B7
100
AcDbEntity
  8
Livello 1
 62
   250
420
  1907995
440
 33554687
100
AcDbHatch
 10
0.0
 20
0.0
 30
0.0
210
0.0
220
0.0
230
1.0
  2
SOLID
 70
     1
 71
     1
 91
        1
 92
        1
 93
        1
 72
     4
 94
        3
 73
     0
 74
     0
 95
       50
 96
       46
 40
0.0
 40
0.0
 40
0.0
 40
0.0
 40
1.0
 40
1.0
 40
1.0
 40
2.0
 40
2.0
 40
2.0
 40
3.0
 40
3.0
 40
3.0
 40
4.0
 40
4.0
 40
4.0
 40
5.0
 40
5.0
 40
5.0
 40
6.0
 40
6.0
 40
6.0
 40
7.0
 40
7.0
 40
7.0
 40
8.0
 40
8.0
 40
8.0
 40
9.0
 40
9.0
 40
9.0
 40
10.0
 40
10.0
 40
10.0
 40
11.0
 40
11.0
 40
11.0
 40
12.0
 40
12.0
 40
12.0
 40
13.0
 40
13.0
 40
13.0
 40
14.0
 40
14.0
 40
14.0
 40
15.0
 40
15.0
 40
15.0
 40
15.0
 10
247.264493753288
 20
-175.3894666445207
 10
247.264493753288
 20
-175.3894666445207
 10
244.1153319702212
 20
-175.3894666445207
 10
244.1153319702212
 20
-175.3894666445207
 10
244.1153319702212
 20
-175.3894666445207
 10
243.7978664212554
 20
-177.5102674252405
 10
243.7978664212554
 20
-177.5102674252405
 10
243.9883802015897
 20
-177.4847737186496
 10
244.1661471286286
 20
-177.4592800120588
 10
244.470865824299
 20
-177.4592800120588
 10
245.1057969222305
 20
-177.4592800120588
 10
245.740728020162
 20
-177.5991508887599
 10
246.2487073494621
 20
-177.903697329656
 10
246.8962130459148
 20
-178.2719780370292
 10
247.4296860818058
 20
-178.9830457451848
 10
247.4296860818058
 20
-180.0244981103758
 10
247.4296860818058
 20
-181.6371473070211
 10
246.1470770326473
 20
-182.8436197459557
 10
244.3566609089629
 20
-182.8436197459557
 10
243.4550794204731
 20
-182.8436197459557
 10
242.6930242991358
 20
-182.5897162086928
 10
242.299422139946
 20
-182.3354681618814
 10
242.299422139946
 20
-182.3354681618814
 10
242.5788193837997
 20
-181.4848740865731
 10
242.5788193837997
 20
-181.4848740865731
 10
242.9216063845821
 20
-181.688134720203
 10
243.5947780423999
 20
-181.9420382574659
 10
244.3439140556675
 20
-181.9420382574659
 10
245.3979410193797
 20
-181.9420382574659
 10
246.2995225078696
 20
-181.2561197463525
 10
246.2995225078696
 20
-180.1516221337815
 10
246.2867756545741
 20
-179.0846760619996
 10
245.5757079464186
 20
-178.3229654502109
 10
243.9248181898868
 20
-178.3229654502109
 10
243.4550794204731
 20
-178.3229654502109
 10
243.0867987130998
 20
-178.3736083538441
 10
242.7820800174295
 20
-178.4118489137304
 10
242.7820800174295
 20
-178.4118489137304
 10
243.3153807985461
 20
-174.449989105693
 10
243.3153807985461
 20
-174.449989105693
 10
243.3153807985461
 20
-174.449989105693
 10
247.264493753288
 20
-174.449989105693
 10
247.264493753288
 20
-174.449989105693
 10
247.264493753288
 20
-174.449989105693
 10
247.264493753288
 20
-175.3894666445207
 10
247.264493753288
 20
-175.3894666445207
 97
        0
 97
        1
330
2C1
 75
     2
 76
     1
 98
        1
 10
0.0
 20
0.0
450
        0
451
        0
460
0.0
461
0.0
452
        0
462
0.0
453
        0
470

  0
ENDBLK
  5
2BA
330
2B7
100
AcDbEntity
  8
0
100
AcDbBlockEnd
  0
BLOCK
  5
2C5
330
2C3
100
AcDbEntity
  8
0
100
AcDbBlockBegin
  2
Block_12
 70
     0
 10
0.0
 20
0.0
 30
0.0
  3
Block_12
  1

  0
INSERT
  5
2C8
330
2C3
100
AcDbEntity
  8
Livello 1
100
AcDbBlockReference
  2
Block_13
 10
0.0
 20
0.0
 30
0.0
  0
ENDBLK
  5
2C6
330
2C3
100
AcDbEntity
  8
0
100
AcDbBlockEnd
  0
BLOCK
  5
2C9
330
2C7
100
AcDbEntity
  8
0
100
AcDbBlockBegin
  2
Block_13
 70
     0
 10
0.0
 20
0.0
 30
0.0
  3
Block_13
  1

  0
SPLINE
  5
2CB
330
2C7
100
AcDbEntity
  8
Livello 1
100
AcDbSpline
210
0.0
220
0.0
230
1.0
 70
    11
 71
     3
 72
    29
 73
    25
 74
     0
 42
0.000000001
 43
0.0000000001
 40
0.0
 40
0.0
 40
0.0
 40
0.0
 40
1.0
 40
1.0
 40
1.0
 40
2.0
 40
2.0
 40
2.0
 40
3.0
 40
3.0
 40
3.0
 40
4.0
 40
4.0
 40
4.0
 40
5.0
 40
5.0
 40
5.0
 40
6.0
 40
6.0
 40
6.0
 40
7.0
 40
7.0
 40
7.0
 40
8.0
 40
8.0
 40
8.0
 40
8.0
 10
392.2537488168671
 20
-176.2124999559469
 30
0.0
 10
392.2537488168671
 20
-176.2124999559469
 30
0.0
 10
392.2282551102764
 20
-176.2124999559469
 30
0.0
 10
392.2282551102764
 20
-176.2124999559469
 30
0.0
 10
392.2282551102764
 20
-176.2124999559469
 30
0.0
 10
390.7933728406698
 20
-176.9873019305796
 30
0.0
 10
390.7933728406698
 20
-176.9873019305796
 30
0.0
 10
390.7933728406698
 20
-176.9873019305796
 30
0.0
 10
390.5773653537445
 20
-176.1363633457228
 30
0.0
 10
390.5773653537445
 20
-176.1363633457228
 30
0.0
 10
390.5773653537445
 20
-176.1363633457228
 30
0.0
 10
392.3805283307244
 20
-175.1713921003044
 30
0.0
 10
392.3805283307244
 20
-175.1713921003044
 30
0.0
 10
392.3805283307244
 20
-175.1713921003044
 30
0.0
 10
393.3330972323958
 20
-175.1713921003044
 30
0.0
 10
393.3330972323958
 20
-175.1713921003044
 30
0.0
 10
393.3330972323958
 20
-175.1713921003044
 30
0.0
 10
393.3330972323958
 20
-183.4251518638659
 30
0.0
 10
393.3330972323958
 20
-183.4251518638659
 30
0.0
 10
393.3330972323958
 20
-183.4251518638659
 30
0.0
 10
392.2537488168671
 20
-183.4251518638659
 30
0.0
 10
392.2537488168671
 20
-183.4251518638659
 30
0.0
 10
392.2537488168671
 20
-183.4251518638659
 30
0.0
 10
392.2537488168671
 20
-176.2124999559469
 30
0.0
 10
392.2537488168671
 20
-176.2124999559469
 30
0.0
  0
HATCH
  5
2CC
330
2C7
100
AcDbEntity
  8
Livello 1
 62
   250
420
  1907995
440
 33554687
100
AcDbHatch
 10
0.0
 20
0.0
 30
0.0
210
0.0
220
0.0
230
1.0
  2
SOLID
 70
     1
 71
     1
 91
        1
 92
        1
 93
        1
 72
     4
 94
        3
 73
     0
 74
     0
 95
       29
 96
       25
 40
0.0
 40
0.0
 40
0.0
 40
0.0
 40
1.0
 40
1.0
 40
1.0
 40
2.0
 40
2.0
 40
2.0
 40
3.0
 40
3.0
 40
3.0
 40
4.0
 40
4.0
 40
4.0
 40
5.0
 40
5.0
 40
5.0
 40
6.0
 40
6.0
 40
6.0
 40
7.0
 40
7.0
 40
7.0
 40
8.0
 40
8.0
 40
8.0
 40
8.0
 10
392.2537488168671
 20
-176.2124999559469
 10
392.2537488168671
 20
-176.2124999559469
 10
392.2282551102764
 20
-176.2124999559469
 10
392.2282551102764
 20
-176.2124999559469
 10
392.2282551102764
 20
-176.2124999559469
 10
390.7933728406698
 20
-176.9873019305796
 10
390.7933728406698
 20
-176.9873019305796
 10
390.7933728406698
 20
-176.9873019305796
 10
390.5773653537445
 20
-176.1363633457228
 10
390.5773653537445
 20
-176.1363633457228
 10
390.5773653537445
 20
-176.1363633457228
 10
392.3805283307244
 20
-175.1713921003044
 10
392.3805283307244
 20
-175.1713921003044
 10
392.3805283307244
 20
-175.1713921003044
 10
393.3330972323958
 20
-175.1713921003044
 10
393.3330972323958
 20
-175.1713921003044
 10
393.3330972323958
 20
-175.1713921003044
 10
393.3330972323958
 20
-183.4251518638659
 10
393.3330972323958
 20
-183.4251518638659
 10
393.3330972323958
 20
-183.4251518638659
 10
392.2537488168671
 20
-183.4251518638659
 10
392.2537488168671
 20
-183.4251518638659
 10
392.2537488168671
 20
-183.4251518638659
 10
392.2537488168671
 20
-176.2124999559469
 10
392.2537488168671
 20
-176.2124999559469
 97
        0
 97
        1
330
2CB
 75
     2
 76
     1
 98
        1
 10
0.0
 20
0.0
450
        0
451
        0
460
0.0
461
0.0
452
        0
462
0.0
453
        0
470

  0
SPLINE
  5
2CD
330
2C7
100
AcDbEntity
  8
Livello 1
100
AcDbSpline
210
0.0
220
0.0
230
1.0
 70
    11
 71
     3
 72
    26
 73
    22
 74
     0
 42
0.000000001
 43
0.0000000001
 40
0.0
 40
0.0
 40
0.0
 40
0.0
 40
1.0
 40
1.0
 40
1.0
 40
2.0
 40
2.0
 40
2.0
 40
3.0
 40
3.0
 40
3.0
 40
4.0
 40
4.0
 40
4.0
 40
5.0
 40
5.0
 40
5.0
 40
6.0
 40
6.0
 40
6.0
 40
7.0
 40
7.0
 40
7.0
 40
7.0
 10
399.7971298913702
 20
-180.3014837873899
 30
0.0
 10
399.7971298913702
 20
-180.3014837873899
 30
0.0
 10
399.7971298913702
 20
-177.5457519087385
 30
0.0
 10
399.7971298913702
 20
-177.5457519087385
 30
0.0
 10
399.7971298913702
 20
-177.1140814444368
 30
0.0
 10
399.8098767446656
 20
-176.6824109801349
 30
0.0
 10
399.835025941708
 20
-176.2507405158331
 30
0.0
 10
399.835025941708
 20
-176.2507405158331
 30
0.0
 10
399.7971298913702
 20
-176.2507405158331
 30
0.0
 10
399.7971298913702
 20
-176.2507405158331
 30
0.0
 10
399.5428818445587
 20
-176.7330538837681
 30
0.0
 10
399.3399657204776
 20
-177.0885877378459
 30
0.0
 10
399.1112113802569
 20
-177.4696152985145
 30
0.0
 10
399.1112113802569
 20
-177.4696152985145
 30
0.0
 10
397.0923854259007
 20
-180.2759900807989
 30
0.0
 10
397.0923854259007
 20
-180.2759900807989
 30
0.0
 10
397.0923854259007
 20
-180.2759900807989
 30
0.0
 10
397.0923854259007
 20
-180.3014837873899
 30
0.0
 10
397.0923854259007
 20
-180.3014837873899
 30
0.0
 10
397.0923854259007
 20
-180.3014837873899
 30
0.0
 10
399.7971298913702
 20
-180.3014837873899
 30
0.0
 10
399.7971298913702
 20
-180.3014837873899
 30
0.0
  0
SPLINE
  5
2CE
330
2C7
100
AcDbEntity
  8
Livello 1
100
AcDbSpline
210
0.0
220
0.0
230
1.0
 70
    11
 71
     3
 72
    38
 73
    34
 74
     0
 42
0.000000001
 43
0.0000000001
 40
0.0
 40
0.0
 40
0.0
 40
0.0
 40
1.0
 40
1.0
 40
1.0
 40
2.0
 40
2.0
 40
2.0
 40
3.0
 40
3.0
 40
3.0
 40
4.0
 40
4.0
 40
4.0
 40
5.0
 40
5.0
 40
5.0
 40
6.0
 40
6.0
 40
6.0
 40
7.0
 40
7.0
 40
7.0
 40
8.0
 40
8.0
 40
8.0
 40
9.0
 40
9.0
 40
9.0
 40
10.0
 40
10.0
 40
10.0
 40
11.0
 40
11.0
 40
11.0
 40
11.0
 10
399.7971298913702
 20
-183.4251518638659
 30
0.0
 10
399.7971298913702
 20
-183.4251518638659
 30
0.0
 10
399.7971298913702
 20
-181.1775715692889
 30
0.0
 10
399.7971298913702
 20
-181.1775715692889
 30
0.0
 10
399.7971298913702
 20
-181.1775715692889
 30
0.0
 10
395.9620495971901
 20
-181.1775715692889
 30
0.0
 10
395.9620495971901
 20
-181.1775715692889
 30
0.0
 10
395.9620495971901
 20
-181.1775715692889
 30
0.0
 10
395.9620495971901
 20
-180.4410101545425
 30
0.0
 10
395.9620495971901
 20
-180.4410101545425
 30
0.0
 10
395.9620495971901
 20
-180.4410101545425
 30
0.0
 10
399.6445121613736
 20
-175.1713921003044
 30
0.0
 10
399.6445121613736
 20
-175.1713921003044
 30
0.0
 10
399.6445121613736
 20
-175.1713921003044
 30
0.0
 10
400.8509846003081
 20
-175.1713921003044
 30
0.0
 10
400.8509846003081
 20
-175.1713921003044
 30
0.0
 10
400.8509846003081
 20
-175.1713921003044
 30
0.0
 10
400.8509846003081
 20
-180.3014837873899
 30
0.0
 10
400.8509846003081
 20
-180.3014837873899
 30
0.0
 10
400.8509846003081
 20
-180.3014837873899
 30
0.0
 10
402.0064696260607
 20
-180.3014837873899
 30
0.0
 10
402.0064696260607
 20
-180.3014837873899
 30
0.0
 10
402.0064696260607
 20
-180.3014837873899
 30
0.0
 10
402.0064696260607
 20
-181.1775715692889
 30
0.0
 10
402.0064696260607
 20
-181.1775715692889
 30
0.0
 10
402.0064696260607
 20
-181.1775715692889
 30
0.0
 10
400.8509846003081
 20
-181.1775715692889
 30
0.0
 10
400.8509846003081
 20
-181.1775715692889
 30
0.0
 10
400.8509846003081
 20
-181.1775715692889
 30
0.0
 10
400.8509846003081
 20
-183.4251518638659
 30
0.0
 10
400.8509846003081
 20
-183.4251518638659
 30
0.0
 10
400.8509846003081
 20
-183.4251518638659
 30
0.0
 10
399.7971298913702
 20
-183.4251518638659
 30
0.0
 10
399.7971298913702
 20
-183.4251518638659
 30
0.0
  0
HATCH
  5
2CF
330
2C7
100
AcDbEntity
  8
Livello 1
 62
   250
420
  1907995
440
 33554687
100
AcDbHatch
 10
0.0
 20
0.0
 30
0.0
210
0.0
220
0.0
230
1.0
  2
SOLID
 70
     1
 71
     1
 91
        2
 92
        1
 93
        1
 72
     4
 94
        3
 73
     0
 74
     0
 95
       26
 96
       22
 40
0.0
 40
0.0
 40
0.0
 40
0.0
 40
1.0
 40
1.0
 40
1.0
 40
2.0
 40
2.0
 40
2.0
 40
3.0
 40
3.0
 40
3.0
 40
4.0
 40
4.0
 40
4.0
 40
5.0
 40
5.0
 40
5.0
 40
6.0
 40
6.0
 40
6.0
 40
7.0
 40
7.0
 40
7.0
 40
7.0
 10
399.7971298913702
 20
-180.3014837873899
 10
399.7971298913702
 20
-180.3014837873899
 10
399.7971298913702
 20
-177.5457519087385
 10
399.7971298913702
 20
-177.5457519087385
 10
399.7971298913702
 20
-177.1140814444368
 10
399.8098767446656
 20
-176.6824109801349
 10
399.835025941708
 20
-176.2507405158331
 10
399.835025941708
 20
-176.2507405158331
 10
399.7971298913702
 20
-176.2507405158331
 10
399.7971298913702
 20
-176.2507405158331
 10
399.5428818445587
 20
-176.7330538837681
 10
399.3399657204776
 20
-177.0885877378459
 10
399.1112113802569
 20
-177.4696152985145
 10
399.1112113802569
 20
-177.4696152985145
 10
397.0923854259007
 20
-180.2759900807989
 10
397.0923854259007
 20
-180.2759900807989
 10
397.0923854259007
 20
-180.2759900807989
 10
397.0923854259007
 20
-180.3014837873899
 10
397.0923854259007
 20
-180.3014837873899
 10
397.0923854259007
 20
-180.3014837873899
 10
399.7971298913702
 20
-180.3014837873899
 10
399.7971298913702
 20
-180.3014837873899
 97
        0
 97
        1
330
2CD
 92
        1
 93
        1
 72
     4
 94
        3
 73
     0
 74
     0
 95
       38
 96
       34
 40
0.0
 40
0.0
 40
0.0
 40
0.0
 40
1.0
 40
1.0
 40
1.0
 40
2.0
 40
2.0
 40
2.0
 40
3.0
 40
3.0
 40
3.0
 40
4.0
 40
4.0
 40
4.0
 40
5.0
 40
5.0
 40
5.0
 40
6.0
 40
6.0
 40
6.0
 40
7.0
 40
7.0
 40
7.0
 40
8.0
 40
8.0
 40
8.0
 40
9.0
 40
9.0
 40
9.0
 40
10.0
 40
10.0
 40
10.0
 40
11.0
 40
11.0
 40
11.0
 40
11.0
 10
399.7971298913702
 20
-183.4251518638659
 10
399.7971298913702
 20
-183.4251518638659
 10
399.7971298913702
 20
-181.1775715692889
 10
399.7971298913702
 20
-181.1775715692889
 10
399.7971298913702
 20
-181.1775715692889
 10
395.9620495971901
 20
-181.1775715692889
 10
395.9620495971901
 20
-181.1775715692889
 10
395.9620495971901
 20
-181.1775715692889
 10
395.9620495971901
 20
-180.4410101545425
 10
395.9620495971901
 20
-180.4410101545425
 10
395.9620495971901
 20
-180.4410101545425
 10
399.6445121613736
 20
-175.1713921003044
 10
399.6445121613736
 20
-175.1713921003044
 10
399.6445121613736
 20
-175.1713921003044
 10
400.8509846003081
 20
-175.1713921003044
 10
400.8509846003081
 20
-175.1713921003044
 10
400.8509846003081
 20
-175.1713921003044
 10
400.8509846003081
 20
-180.3014837873899
 10
400.8509846003081
 20
-180.3014837873899
 10
400.8509846003081
 20
-180.3014837873899
 10
402.0064696260607
 20
-180.3014837873899
 10
402.0064696260607
 20
-180.3014837873899
 10
402.0064696260607
 20
-180.3014837873899
 10
402.0064696260607
 20
-181.1775715692889
 10
402.0064696260607
 20
-181.1775715692889
 10
402.0064696260607
 20
-181.1775715692889
 10
400.8509846003081
 20
-181.1775715692889
 10
400.8509846003081
 20
-181.1775715692889
 10
400.8509846003081
 20
-181.1775715692889
 10
400.8509846003081
 20
-183.4251518638659
 10
400.8509846003081
 20
-183.4251518638659
 10
400.8509846003081
 20
-183.4251518638659
 10
399.7971298913702
 20
-183.4251518638659
 10
399.7971298913702
 20
-183.4251518638659
 97
        0
 97
        1
330
2CE
 75
     2
 76
     1
 98
        1
 10
0.0
 20
0.0
450
        0
451
        0
460
0.0
461
0.0
452
        0
462
0.0
453
        0
470

  0
SPLINE
  5
2D0
330
2C7
100
AcDbEntity
  8
Livello 1
100
AcDbSpline
210
0.0
220
0.0
230
1.0
 70
     9
 71
     3
 72
    17
 73
    13
 74
     0
 42
0.000000001
 43
0.0000000001
 40
0.0
 40
0.0
 40
0.0
 40
0.0
 40
1.0
 40
1.0
 40
1.0
 40
2.0
 40
2.0
 40
2.0
 40
3.0
 40
3.0
 40
3.0
 40
4.0
 40
4.0
 40
4.0
 40
4.0
 10
402.4894720130928
 20
-184.9871581568782
 30
0.0
 10
402.7688692569467
 20
-184.2378498888363
 30
0.0
 10
403.1120007672775
 20
-182.8791042294538
 30
0.0
 10
403.2515271344301
 20
-181.9523735439216
 30
0.0
 10
403.2515271344301
 20
-181.9523735439216
 30
0.0
 10
404.4958956237024
 20
-181.8252495205159
 30
0.0
 10
404.4958956237024
 20
-181.8252495205159
 30
0.0
 10
404.2040960361017
 20
-182.9045979360447
 30
0.0
 10
403.6453015483941
 20
-184.3139864990604
 30
0.0
 10
403.2897676943163
 20
-184.9110215466542
 30
0.0
 10
403.2897676943163
 20
-184.9110215466542
 30
0.0
 10
402.4894720130928
 20
-184.9871581568782
 30
0.0
 10
402.4894720130928
 20
-184.9871581568782
 30
0.0
  0
HATCH
  5
2D1
330
2C7
100
AcDbEntity
  8
Livello 1
 62
   250
420
  1907995
440
 33554687
100
AcDbHatch
 10
0.0
 20
0.0
 30
0.0
210
0.0
220
0.0
230
1.0
  2
SOLID
 70
     1
 71
     1
 91
        1
 92
        1
 93
        1
 72
     4
 94
        3
 73
     0
 74
     0
 95
       17
 96
       13
 40
0.0
 40
0.0
 40
0.0
 40
0.0
 40
1.0
 40
1.0
 40
1.0
 40
2.0
 40
2.0
 40
2.0
 40
3.0
 40
3.0
 40
3.0
 40
4.0
 40
4.0
 40
4.0
 40
4.0
 10
402.4894720130928
 20
-184.9871581568782
 10
402.7688692569467
 20
-184.2378498888363
 10
403.1120007672775
 20
-182.8791042294538
 10
403.2515271344301
 20
-181.9523735439216
 10
403.2515271344301
 20
-181.9523735439216
 10
404.4958956237024
 20
-181.8252495205159
 10
404.4958956237024
 20
-181.8252495205159
 10
404.2040960361017
 20
-182.9045979360447
 10
403.6453015483941
 20
-184.3139864990604
 10
403.2897676943163
 20
-184.9110215466542
 10
403.2897676943163
 20
-184.9110215466542
 10
402.4894720130928
 20
-184.9871581568782
 10
402.4894720130928
 20
-184.9871581568782
 97
        0
 97
        1
330
2D0
 75
     2
 76
     1
 98
        1
 10
0.0
 20
0.0
450
        0
451
        0
460
0.0
461
0.0
452
        0
462
0.0
453
        0
470

  0
SPLINE
  5
2D2
330
2C7
100
AcDbEntity
  8
Livello 1
100
AcDbSpline
210
0.0
220
0.0
230
1.0
 70
    11
 71
     3
 72
    50
 73
    46
 74
     0
 42
0.000000001
 43
0.0000000001
 40
0.0
 40
0.0
 40
0.0
 40
0.0
 40
1.0
 40
1.0
 40
1.0
 40
2.0
 40
2.0
 40
2.0
 40
3.0
 40
3.0
 40
3.0
 40
4.0
 40
4.0
 40
4.0
 40
5.0
 40
5.0
 40
5.0
 40
6.0
 40
6.0
 40
6.0
 40
7.0
 40
7.0
 40
7.0
 40
8.0
 40
8.0
 40
8.0
 40
9.0
 40
9.0
 40
9.0
 40
10.0
 40
10.0
 40
10.0
 40
11.0
 40
11.0
 40
11.0
 40
12.0
 40
12.0
 40
12.0
 40
13.0
 40
13.0
 40
13.0
 40
14.0
 40
14.0
 40
14.0
 40
15.0
 40
15.0
 40
15.0
 40
15.0
 10
410.4135361387161
 20
-176.110869639132
 30
0.0
 10
410.4135361387161
 20
-176.110869639132
 30
0.0
 10
407.2643743556492
 20
-176.110869639132
 30
0.0
 10
407.2643743556492
 20
-176.110869639132
 30
0.0
 10
407.2643743556492
 20
-176.110869639132
 30
0.0
 10
406.9470810614576
 20
-178.2316704198518
 30
0.0
 10
406.9470810614576
 20
-178.2316704198518
 30
0.0
 10
407.1375948417918
 20
-178.2061767132609
 30
0.0
 10
407.3153617688308
 20
-178.1806830066701
 30
0.0
 10
407.619908209727
 20
-178.1806830066701
 30
0.0
 10
408.2548393076584
 20
-178.1806830066701
 30
0.0
 10
408.88977040559
 20
-178.3205538833712
 30
0.0
 10
409.3979219896644
 20
-178.6251003242673
 30
0.0
 10
410.0452554313428
 20
-178.9933810316405
 30
0.0
 10
410.5789007220081
 20
-179.7044487397961
 30
0.0
 10
410.5789007220081
 20
-180.7459011049871
 30
0.0
 10
410.5789007220081
 20
-182.3585503016326
 30
0.0
 10
409.2962916728494
 20
-183.5650227405671
 30
0.0
 10
407.5058755491651
 20
-183.5650227405671
 30
0.0
 10
406.6042940606752
 20
-183.5650227405671
 30
0.0
 10
405.8422389393379
 20
-183.3111192033042
 30
0.0
 10
405.4484645253737
 20
-183.0568711564927
 30
0.0
 10
405.4484645253737
 20
-183.0568711564927
 30
0.0
 10
405.7278617692277
 20
-182.2062770811845
 30
0.0
 10
405.7278617692277
 20
-182.2062770811845
 30
0.0
 10
406.0706487700101
 20
-182.4095377148143
 30
0.0
 10
406.7438204278279
 20
-182.6634412520771
 30
0.0
 10
407.4931286958697
 20
-182.6634412520771
 30
0.0
 10
408.5469834048076
 20
-182.6634412520771
 30
0.0
 10
409.4485648932976
 20
-181.9775227409639
 30
0.0
 10
409.4485648932976
 20
-180.8730251283929
 30
0.0
 10
409.435818040002
 20
-179.806079056611
 30
0.0
 10
408.7247503318466
 20
-179.0443684448222
 30
0.0
 10
407.0738605753147
 20
-179.0443684448222
 30
0.0
 10
406.6042940606752
 20
-179.0443684448222
 30
0.0
 10
406.2360133533021
 20
-179.0950113484553
 30
0.0
 10
405.9311224028575
 20
-179.1332519083416
 30
0.0
 10
405.9311224028575
 20
-179.1332519083416
 30
0.0
 10
406.4644231839741
 20
-175.1713921003044
 30
0.0
 10
406.4644231839741
 20
-175.1713921003044
 30
0.0
 10
406.4644231839741
 20
-175.1713921003044
 30
0.0
 10
410.4135361387161
 20
-175.1713921003044
 30
0.0
 10
410.4135361387161
 20
-175.1713921003044
 30
0.0
 10
410.4135361387161
 20
-175.1713921003044
 30
0.0
 10
410.4135361387161
 20
-176.110869639132
 30
0.0
 10
410.4135361387161
 20
-176.110869639132
 30
0.0
  0
HATCH
  5
2D3
330
2C7
100
AcDbEntity
  8
Livello 1
 62
   250
420
  1907995
440
 33554687
100
AcDbHatch
 10
0.0
 20
0.0
 30
0.0
210
0.0
220
0.0
230
1.0
  2
SOLID
 70
     1
 71
     1
 91
        1
 92
        1
 93
        1
 72
     4
 94
        3
 73
     0
 74
     0
 95
       50
 96
       46
 40
0.0
 40
0.0
 40
0.0
 40
0.0
 40
1.0
 40
1.0
 40
1.0
 40
2.0
 40
2.0
 40
2.0
 40
3.0
 40
3.0
 40
3.0
 40
4.0
 40
4.0
 40
4.0
 40
5.0
 40
5.0
 40
5.0
 40
6.0
 40
6.0
 40
6.0
 40
7.0
 40
7.0
 40
7.0
 40
8.0
 40
8.0
 40
8.0
 40
9.0
 40
9.0
 40
9.0
 40
10.0
 40
10.0
 40
10.0
 40
11.0
 40
11.0
 40
11.0
 40
12.0
 40
12.0
 40
12.0
 40
13.0
 40
13.0
 40
13.0
 40
14.0
 40
14.0
 40
14.0
 40
15.0
 40
15.0
 40
15.0
 40
15.0
 10
410.4135361387161
 20
-176.110869639132
 10
410.4135361387161
 20
-176.110869639132
 10
407.2643743556492
 20
-176.110869639132
 10
407.2643743556492
 20
-176.110869639132
 10
407.2643743556492
 20
-176.110869639132
 10
406.9470810614576
 20
-178.2316704198518
 10
406.9470810614576
 20
-178.2316704198518
 10
407.1375948417918
 20
-178.2061767132609
 10
407.3153617688308
 20
-178.1806830066701
 10
407.619908209727
 20
-178.1806830066701
 10
408.2548393076584
 20
-178.1806830066701
 10
408.88977040559
 20
-178.3205538833712
 10
409.3979219896644
 20
-178.6251003242673
 10
410.0452554313428
 20
-178.9933810316405
 10
410.5789007220081
 20
-179.7044487397961
 10
410.5789007220081
 20
-180.7459011049871
 10
410.5789007220081
 20
-182.3585503016326
 10
409.2962916728494
 20
-183.5650227405671
 10
407.5058755491651
 20
-183.5650227405671
 10
406.6042940606752
 20
-183.5650227405671
 10
405.8422389393379
 20
-183.3111192033042
 10
405.4484645253737
 20
-183.0568711564927
 10
405.4484645253737
 20
-183.0568711564927
 10
405.7278617692277
 20
-182.2062770811845
 10
405.7278617692277
 20
-182.2062770811845
 10
406.0706487700101
 20
-182.4095377148143
 10
406.7438204278279
 20
-182.6634412520771
 10
407.4931286958697
 20
-182.6634412520771
 10
408.5469834048076
 20
-182.6634412520771
 10
409.4485648932976
 20
-181.9775227409639
 10
409.4485648932976
 20
-180.8730251283929
 10
409.435818040002
 20
-179.806079056611
 10
408.7247503318466
 20
-179.0443684448222
 10
407.0738605753147
 20
-179.0443684448222
 10
406.6042940606752
 20
-179.0443684448222
 10
406.2360133533021
 20
-179.0950113484553
 10
405.9311224028575
 20
-179.1332519083416
 10
405.9311224028575
 20
-179.1332519083416
 10
406.4644231839741
 20
-175.1713921003044
 10
406.4644231839741
 20
-175.1713921003044
 10
406.4644231839741
 20
-175.1713921003044
 10
410.4135361387161
 20
-175.1713921003044
 10
410.4135361387161
 20
-175.1713921003044
 10
410.4135361387161
 20
-175.1713921003044
 10
410.4135361387161
 20
-176.110869639132
 10
410.4135361387161
 20
-176.110869639132
 97
        0
 97
        1
330
2D2
 75
     2
 76
     1
 98
        1
 10
0.0
 20
0.0
450
        0
451
        0
460
0.0
461
0.0
452
        0
462
0.0
453
        0
470

  0
ENDBLK
  5
2CA
330
2C7
100
AcDbEntity
  8
0
100
AcDbBlockEnd
  0
BLOCK
  5
2D6
330
2D4
100
AcDbEntity
  8
0
100
AcDbBlockBegin
  2
Block_14
 70
     0
 10
0.0
 20
0.0
 30
0.0
  3
Block_14
  1

  0
INSERT
  5
2D9
330
2D4
100
AcDbEntity
  8
Livello 1
100
AcDbBlockReference
  2
Block_15
 10
0.0
 20
0.0
 30
0.0
  0
ENDBLK
  5
2D7
330
2D4
100
AcDbEntity
  8
0
100
AcDbBlockEnd
  0
BLOCK
  5
2DA
330
2D8
100
AcDbEntity
  8
0
100
AcDbBlockBegin
  2
Block_15
 70
     0
 10
0.0
 20
0.0
 30
0.0
  3
Block_15
  1

  0
SPLINE
  5
2DC
330
2D8
100
AcDbEntity
  8
Livello 1
100
AcDbSpline
210
0.0
220
0.0
230
1.0
 70
    11
 71
     3
 72
    29
 73
    25
 74
     0
 42
0.000000001
 43
0.0000000001
 40
0.0
 40
0.0
 40
0.0
 40
0.0
 40
1.0
 40
1.0
 40
1.0
 40
2.0
 40
2.0
 40
2.0
 40
3.0
 40
3.0
 40
3.0
 40
4.0
 40
4.0
 40
4.0
 40
5.0
 40
5.0
 40
5.0
 40
6.0
 40
6.0
 40
6.0
 40
7.0
 40
7.0
 40
7.0
 40
8.0
 40
8.0
 40
8.0
 40
8.0
 10
471.0441160931765
 20
-143.6518689962051
 30
0.0
 10
471.0441160931765
 20
-143.6518689962051
 30
0.0
 10
471.0441160931765
 20
-143.6773627027959
 30
0.0
 10
471.0441160931765
 20
-143.6773627027959
 30
0.0
 10
471.0441160931765
 20
-143.6773627027959
 30
0.0
 10
471.8185735582606
 20
-145.1122449724025
 30
0.0
 10
471.8185735582606
 20
-145.1122449724025
 30
0.0
 10
471.8185735582606
 20
-145.1122449724025
 30
0.0
 10
470.9676349734038
 20
-145.3280802045534
 30
0.0
 10
470.9676349734038
 20
-145.3280802045534
 30
0.0
 10
470.9676349734038
 20
-145.3280802045534
 30
0.0
 10
470.0026637279854
 20
-143.5249172275736
 30
0.0
 10
470.0026637279854
 20
-143.5249172275736
 30
0.0
 10
470.0026637279854
 20
-143.5249172275736
 30
0.0
 10
470.0026637279854
 20
-142.5725205806763
 30
0.0
 10
470.0026637279854
 20
-142.5725205806763
 30
0.0
 10
470.0026637279854
 20
-142.5725205806763
 30
0.0
 10
478.2567680010955
 20
-142.5725205806763
 30
0.0
 10
478.2567680010955
 20
-142.5725205806763
 30
0.0
 10
478.2567680010955
 20
-142.5725205806763
 30
0.0
 10
478.2567680010955
 20
-143.6518689962051
 30
0.0
 10
478.2567680010955
 20
-143.6518689962051
 30
0.0
 10
478.2567680010955
 20
-143.6518689962051
 30
0.0
 10
471.0441160931765
 20
-143.6518689962051
 30
0.0
 10
471.0441160931765
 20
-143.6518689962051
 30
0.0
  0
HATCH
  5
2DD
330
2D8
100
AcDbEntity
  8
Livello 1
 62
   250
420
  1907995
440
 33554687
100
AcDbHatch
 10
0.0
 20
0.0
 30
0.0
210
0.0
220
0.0
230
1.0
  2
SOLID
 70
     1
 71
     1
 91
        1
 92
        1
 93
        1
 72
     4
 94
        3
 73
     0
 74
     0
 95
       29
 96
       25
 40
0.0
 40
0.0
 40
0.0
 40
0.0
 40
1.0
 40
1.0
 40
1.0
 40
2.0
 40
2.0
 40
2.0
 40
3.0
 40
3.0
 40
3.0
 40
4.0
 40
4.0
 40
4.0
 40
5.0
 40
5.0
 40
5.0
 40
6.0
 40
6.0
 40
6.0
 40
7.0
 40
7.0
 40
7.0
 40
8.0
 40
8.0
 40
8.0
 40
8.0
 10
471.0441160931765
 20
-143.6518689962051
 10
471.0441160931765
 20
-143.6518689962051
 10
471.0441160931765
 20
-143.6773627027959
 10
471.0441160931765
 20
-143.6773627027959
 10
471.0441160931765
 20
-143.6773627027959
 10
471.8185735582606
 20
-145.1122449724025
 10
471.8185735582606
 20
-145.1122449724025
 10
471.8185735582606
 20
-145.1122449724025
 10
470.9676349734038
 20
-145.3280802045534
 10
470.9676349734038
 20
-145.3280802045534
 10
470.9676349734038
 20
-145.3280802045534
 10
470.0026637279854
 20
-143.5249172275736
 10
470.0026637279854
 20
-143.5249172275736
 10
470.0026637279854
 20
-143.5249172275736
 10
470.0026637279854
 20
-142.5725205806763
 10
470.0026637279854
 20
-142.5725205806763
 10
470.0026637279854
 20
-142.5725205806763
 10
478.2567680010955
 20
-142.5725205806763
 10
478.2567680010955
 20
-142.5725205806763
 10
478.2567680010955
 20
-142.5725205806763
 10
478.2567680010955
 20
-143.6518689962051
 10
478.2567680010955
 20
-143.6518689962051
 10
478.2567680010955
 20
-143.6518689962051
 10
471.0441160931765
 20
-143.6518689962051
 10
471.0441160931765
 20
-143.6518689962051
 97
        0
 97
        1
330
2DC
 75
     2
 76
     1
 98
        1
 10
0.0
 20
0.0
450
        0
451
        0
460
0.0
461
0.0
452
        0
462
0.0
453
        0
470

  0
SPLINE
  5
2DE
330
2D8
100
AcDbEntity
  8
Livello 1
100
AcDbSpline
210
0.0
220
0.0
230
1.0
 70
     9
 71
     3
 72
    17
 73
    13
 74
     0
 42
0.000000001
 43
0.0000000001
 40
0.0
 40
0.0
 40
0.0
 40
0.0
 40
1.0
 40
1.0
 40
1.0
 40
2.0
 40
2.0
 40
2.0
 40
3.0
 40
3.0
 40
3.0
 40
4.0
 40
4.0
 40
4.0
 40
4.0
 10
474.1677841696525
 20
-138.5593288499088
 30
0.0
 10
476.3137341474147
 20
-138.5593288499088
 30
0.0
 10
477.5329534396446
 20
-137.8989040453864
 30
0.0
 10
477.5329534396446
 20
-136.8831176415605
 30
0.0
 10
477.5329534396446
 20
-135.7402072143288
 30
0.0
 10
476.1997014868527
 20
-135.1941595799167
 30
0.0
 10
474.0916475594285
 20
-135.1941595799167
 30
0.0
 10
472.0597302422281
 20
-135.1941595799167
 30
0.0
 10
470.7264782894363
 20
-135.7148857625122
 30
0.0
 10
470.7264782894363
 20
-136.870370788265
 30
0.0
 10
470.7264782894363
 20
-137.8482611417532
 30
0.0
 10
471.9202038750755
 20
-138.5593288499088
 30
0.0
 10
474.1677841696525
 20
-138.5593288499088
 30
0.0
  0
SPLINE
  5
2DF
330
2D8
100
AcDbEntity
  8
Livello 1
100
AcDbSpline
210
0.0
220
0.0
230
1.0
 70
     9
 71
     3
 72
    17
 73
    13
 74
     0
 42
0.000000001
 43
0.0000000001
 40
0.0
 40
0.0
 40
0.0
 40
0.0
 40
1.0
 40
1.0
 40
1.0
 40
2.0
 40
2.0
 40
2.0
 40
3.0
 40
3.0
 40
3.0
 40
4.0
 40
4.0
 40
4.0
 40
4.0
 10
474.0406601462468
 20
-134.0767428592759
 30
0.0
 10
476.8470349285313
 20
-134.0767428592759
 30
0.0
 10
478.3962943682481
 20
-135.1180229696927
 30
0.0
 10
478.3962943682481
 20
-136.9466796532633
 30
0.0
 10
478.3962943682481
 20
-138.5593288499088
 30
0.0
 10
476.8852754884175
 20
-139.651424118733
 30
0.0
 10
474.1550373163571
 20
-139.6767455705495
 30
0.0
 10
471.3869030939588
 20
-139.6767455705495
 30
0.0
 10
469.8631373608328
 20
-138.4831922396847
 30
0.0
 10
469.8631373608328
 20
-136.8069810313364
 30
0.0
 10
469.8631373608328
 20
-135.0672078112853
 30
0.0
 10
471.4123968005496
 20
-134.0767428592759
 30
0.0
 10
474.0406601462468
 20
-134.0767428592759
 30
0.0
  0
HATCH
  5
2E0
330
2D8
100
AcDbEntity
  8
Livello 1
 62
   250
420
  1907995
440
 33554687
100
AcDbHatch
 10
0.0
 20
0.0
 30
0.0
210
0.0
220
0.0
230
1.0
  2
SOLID
 70
     1
 71
     1
 91
        2
 92
        1
 93
        1
 72
     4
 94
        3
 73
     0
 74
     0
 95
       17
 96
       13
 40
0.0
 40
0.0
 40
0.0
 40
0.0
 40
1.0
 40
1.0
 40
1.0
 40
2.0
 40
2.0
 40
2.0
 40
3.0
 40
3.0
 40
3.0
 40
4.0
 40
4.0
 40
4.0
 40
4.0
 10
474.1677841696525
 20
-138.5593288499088
 10
476.3137341474147
 20
-138.5593288499088
 10
477.5329534396446
 20
-137.8989040453864
 10
477.5329534396446
 20
-136.8831176415605
 10
477.5329534396446
 20
-135.7402072143288
 10
476.1997014868527
 20
-135.1941595799167
 10
474.0916475594285
 20
-135.1941595799167
 10
472.0597302422281
 20
-135.1941595799167
 10
470.7264782894363
 20
-135.7148857625122
 10
470.7264782894363
 20
-136.870370788265
 10
470.7264782894363
 20
-137.8482611417532
 10
471.9202038750755
 20
-138.5593288499088
 10
474.1677841696525
 20
-138.5593288499088
 97
        0
 97
        1
330
2DE
 92
        1
 93
        1
 72
     4
 94
        3
 73
     0
 74
     0
 95
       17
 96
       13
 40
0.0
 40
0.0
 40
0.0
 40
0.0
 40
1.0
 40
1.0
 40
1.0
 40
2.0
 40
2.0
 40
2.0
 40
3.0
 40
3.0
 40
3.0
 40
4.0
 40
4.0
 40
4.0
 40
4.0
 10
474.0406601462468
 20
-134.0767428592759
 10
476.8470349285313
 20
-134.0767428592759
 10
478.3962943682481
 20
-135.1180229696927
 10
478.3962943682481
 20
-136.9466796532633
 10
478.3962943682481
 20
-138.5593288499088
 10
476.8852754884175
 20
-139.651424118733
 10
474.1550373163571
 20
-139.6767455705495
 10
471.3869030939588
 20
-139.6767455705495
 10
469.8631373608328
 20
-138.4831922396847
 10
469.8631373608328
 20
-136.8069810313364
 10
469.8631373608328
 20
-135.0672078112853
 10
471.4123968005496
 20
-134.0767428592759
 10
474.0406601462468
 20
-134.0767428592759
 97
        0
 97
        1
330
2DF
 75
     2
 76
     1
 98
        1
 10
0.0
 20
0.0
450
        0
451
        0
460
0.0
461
0.0
452
        0
462
0.0
453
        0
470

  0
SPLINE
  5
2E1
330
2D8
100
AcDbEntity
  8
Livello 1
100
AcDbSpline
210
0.0
220
0.0
230
1.0
 70
     9
 71
     3
 72
    17
 73
    13
 74
     0
 42
0.000000001
 43
0.0000000001
 40
0.0
 40
0.0
 40
0.0
 40
0.0
 40
1.0
 40
1.0
 40
1.0
 40
2.0
 40
2.0
 40
2.0
 40
3.0
 40
3.0
 40
3.0
 40
4.0
 40
4.0
 40
4.0
 40
4.0
 10
479.8184297845593
 20
-133.4158012904308
 30
0.0
 10
479.0694660260659
 20
-133.1365763013513
 30
0.0
 10
477.7107203666833
 20
-132.7936170457946
 30
0.0
 10
476.7836451716027
 20
-132.6539184238678
 30
0.0
 10
476.7836451716027
 20
-132.6539184238678
 30
0.0
 10
476.6565211481968
 20
-131.4095499345955
 30
0.0
 10
476.6565211481968
 20
-131.4095499345955
 30
0.0
 10
477.7362140732741
 20
-131.7015217769704
 30
0.0
 10
479.14560263629
 20
-132.260316264678
 30
0.0
 10
479.7422931743351
 20
-132.6158501187557
 30
0.0
 10
479.7422931743351
 20
-132.6158501187557
 30
0.0
 10
479.8184297845593
 20
-133.4158012904308
 30
0.0
 10
479.8184297845593
 20
-133.4158012904308
 30
0.0
  0
HATCH
  5
2E2
330
2D8
100
AcDbEntity
  8
Livello 1
 62
   250
420
  1907995
440
 33554687
100
AcDbHatch
 10
0.0
 20
0.0
 30
0.0
210
0.0
220
0.0
230
1.0
  2
SOLID
 70
     1
 71
     1
 91
        1
 92
        1
 93
        1
 72
     4
 94
        3
 73
     0
 74
     0
 95
       17
 96
       13
 40
0.0
 40
0.0
 40
0.0
 40
0.0
 40
1.0
 40
1.0
 40
1.0
 40
2.0
 40
2.0
 40
2.0
 40
3.0
 40
3.0
 40
3.0
 40
4.0
 40
4.0
 40
4.0
 40
4.0
 10
479.8184297845593
 20
-133.4158012904308
 10
479.0694660260659
 20
-133.1365763013513
 10
477.7107203666833
 20
-132.7936170457946
 10
476.7836451716027
 20
-132.6539184238678
 10
476.7836451716027
 20
-132.6539184238678
 10
476.6565211481968
 20
-131.4095499345955
 10
476.6565211481968
 20
-131.4095499345955
 10
477.7362140732741
 20
-131.7015217769704
 10
479.14560263629
 20
-132.260316264678
 10
479.7422931743351
 20
-132.6158501187557
 10
479.7422931743351
 20
-132.6158501187557
 10
479.8184297845593
 20
-133.4158012904308
 10
479.8184297845593
 20
-133.4158012904308
 97
        0
 97
        1
330
2E1
 75
     2
 76
     1
 98
        1
 10
0.0
 20
0.0
450
        0
451
        0
460
0.0
461
0.0
452
        0
462
0.0
453
        0
470

  0
SPLINE
  5
2E3
330
2D8
100
AcDbEntity
  8
Livello 1
100
AcDbSpline
210
0.0
220
0.0
230
1.0
 70
    11
 71
     3
 72
    50
 73
    46
 74
     0
 42
0.000000001
 43
0.0000000001
 40
0.0
 40
0.0
 40
0.0
 40
0.0
 40
1.0
 40
1.0
 40
1.0
 40
2.0
 40
2.0
 40
2.0
 40
3.0
 40
3.0
 40
3.0
 40
4.0
 40
4.0
 40
4.0
 40
5.0
 40
5.0
 40
5.0
 40
6.0
 40
6.0
 40
6.0
 40
7.0
 40
7.0
 40
7.0
 40
8.0
 40
8.0
 40
8.0
 40
9.0
 40
9.0
 40
9.0
 40
10.0
 40
10.0
 40
10.0
 40
11.0
 40
11.0
 40
11.0
 40
12.0
 40
12.0
 40
12.0
 40
13.0
 40
13.0
 40
13.0
 40
14.0
 40
14.0
 40
14.0
 40
15.0
 40
15.0
 40
15.0
 40
15.0
 10
470.9424857763615
 20
-125.4919094195819
 30
0.0
 10
470.9424857763615
 20
-125.4919094195819
 30
0.0
 10
470.9424857763615
 20
-128.6410712026487
 30
0.0
 10
470.9424857763615
 20
-128.6410712026487
 30
0.0
 10
470.9424857763615
 20
-128.6410712026487
 30
0.0
 10
473.0629420475328
 20
-128.9585367516145
 30
0.0
 10
473.0629420475328
 20
-128.9585367516145
 30
0.0
 10
473.0377928504905
 20
-128.7680229712802
 30
0.0
 10
473.0122991438996
 20
-128.5902560442413
 30
0.0
 10
473.0122991438996
 20
-128.2855373485709
 30
0.0
 10
473.0122991438996
 20
-127.6506062506394
 30
0.0
 10
473.1518255110523
 20
-127.0156751527079
 30
0.0
 10
473.4567164614968
 20
-126.5076958234078
 30
0.0
 10
473.8249971688701
 20
-125.8601901269551
 30
0.0
 10
474.5360648770256
 20
-125.3267170910641
 30
0.0
 10
475.5771727326681
 20
-125.3267170910641
 30
0.0
 10
477.1901664388621
 20
-125.3267170910641
 30
0.0
 10
478.3962943682481
 20
-126.6093261402227
 30
0.0
 10
478.3962943682481
 20
-128.399742263907
 30
0.0
 10
478.3962943682481
 20
-129.3013237523969
 30
0.0
 10
478.1423908309853
 20
-130.0633788737341
 30
0.0
 10
477.8884872937222
 20
-130.4569810329239
 30
0.0
 10
477.8884872937222
 20
-130.4569810329239
 30
0.0
 10
477.0375487088656
 20
-130.1775837890702
 30
0.0
 10
477.0375487088656
 20
-130.1775837890702
 30
0.0
 10
477.2408093424953
 20
-129.8347967882878
 30
0.0
 10
477.4947128797583
 20
-129.1617973852443
 30
0.0
 10
477.4947128797583
 20
-128.4124891172024
 30
0.0
 10
477.4947128797583
 20
-127.3584621534902
 30
0.0
 10
476.8091388781934
 20
-126.4568806650004
 30
0.0
 10
475.704296756074
 20
-126.4568806650004
 30
0.0
 10
474.6376951938406
 20
-126.4696275182958
 30
0.0
 10
473.8756400725034
 20
-127.1806952264513
 30
0.0
 10
473.8756400725034
 20
-128.8315849829831
 30
0.0
 10
473.8756400725034
 20
-129.3013237523969
 30
0.0
 10
473.9266274856849
 20
-129.6696044597701
 30
0.0
 10
473.9645235360227
 20
-129.9744954102147
 30
0.0
 10
473.9645235360227
 20
-129.9744954102147
 30
0.0
 10
470.0026637279854
 20
-129.4410223743238
 30
0.0
 10
470.0026637279854
 20
-129.4410223743238
 30
0.0
 10
470.0026637279854
 20
-129.4410223743238
 30
0.0
 10
470.0026637279854
 20
-125.4919094195819
 30
0.0
 10
470.0026637279854
 20
-125.4919094195819
 30
0.0
 10
470.0026637279854
 20
-125.4919094195819
 30
0.0
 10
470.9424857763615
 20
-125.4919094195819
 30
0.0
 10
470.9424857763615
 20
-125.4919094195819
 30
0.0
  0
HATCH
  5
2E4
330
2D8
100
AcDbEntity
  8
Livello 1
 62
   250
420
  1907995
440
 33554687
100
AcDbHatch
 10
0.0
 20
0.0
 30
0.0
210
0.0
220
0.0
230
1.0
  2
SOLID
 70
     1
 71
     1
 91
        1
 92
        1
 93
        1
 72
     4
 94
        3
 73
     0
 74
     0
 95
       50
 96
       46
 40
0.0
 40
0.0
 40
0.0
 40
0.0
 40
1.0
 40
1.0
 40
1.0
 40
2.0
 40
2.0
 40
2.0
 40
3.0
 40
3.0
 40
3.0
 40
4.0
 40
4.0
 40
4.0
 40
5.0
 40
5.0
 40
5.0
 40
6.0
 40
6.0
 40
6.0
 40
7.0
 40
7.0
 40
7.0
 40
8.0
 40
8.0
 40
8.0
 40
9.0
 40
9.0
 40
9.0
 40
10.0
 40
10.0
 40
10.0
 40
11.0
 40
11.0
 40
11.0
 40
12.0
 40
12.0
 40
12.0
 40
13.0
 40
13.0
 40
13.0
 40
14.0
 40
14.0
 40
14.0
 40
15.0
 40
15.0
 40
15.0
 40
15.0
 10
470.9424857763615
 20
-125.4919094195819
 10
470.9424857763615
 20
-125.4919094195819
 10
470.9424857763615
 20
-128.6410712026487
 10
470.9424857763615
 20
-128.6410712026487
 10
470.9424857763615
 20
-128.6410712026487
 10
473.0629420475328
 20
-128.9585367516145
 10
473.0629420475328
 20
-128.9585367516145
 10
473.0377928504905
 20
-128.7680229712802
 10
473.0122991438996
 20
-128.5902560442413
 10
473.0122991438996
 20
-128.2855373485709
 10
473.0122991438996
 20
-127.6506062506394
 10
473.1518255110523
 20
-127.0156751527079
 10
473.4567164614968
 20
-126.5076958234078
 10
473.8249971688701
 20
-125.8601901269551
 10
474.5360648770256
 20
-125.3267170910641
 10
475.5771727326681
 20
-125.3267170910641
 10
477.1901664388621
 20
-125.3267170910641
 10
478.3962943682481
 20
-126.6093261402227
 10
478.3962943682481
 20
-128.399742263907
 10
478.3962943682481
 20
-129.3013237523969
 10
478.1423908309853
 20
-130.0633788737341
 10
477.8884872937222
 20
-130.4569810329239
 10
477.8884872937222
 20
-130.4569810329239
 10
477.0375487088656
 20
-130.1775837890702
 10
477.0375487088656
 20
-130.1775837890702
 10
477.2408093424953
 20
-129.8347967882878
 10
477.4947128797583
 20
-129.1617973852443
 10
477.4947128797583
 20
-128.4124891172024
 10
477.4947128797583
 20
-127.3584621534902
 10
476.8091388781934
 20
-126.4568806650004
 10
475.704296756074
 20
-126.4568806650004
 10
474.6376951938406
 20
-126.4696275182958
 10
473.8756400725034
 20
-127.1806952264513
 10
473.8756400725034
 20
-128.8315849829831
 10
473.8756400725034
 20
-129.3013237523969
 10
473.9266274856849
 20
-129.6696044597701
 10
473.9645235360227
 20
-129.9744954102147
 10
473.9645235360227
 20
-129.9744954102147
 10
470.0026637279854
 20
-129.4410223743238
 10
470.0026637279854
 20
-129.4410223743238
 10
470.0026637279854
 20
-129.4410223743238
 10
470.0026637279854
 20
-125.4919094195819
 10
470.0026637279854
 20
-125.4919094195819
 10
470.0026637279854
 20
-125.4919094195819
 10
470.9424857763615
 20
-125.4919094195819
 10
470.9424857763615
 20
-125.4919094195819
 97
        0
 97
        1
330
2E3
 75
     2
 76
     1
 98
        1
 10
0.0
 20
0.0
450
        0
451
        0
460
0.0
461
0.0
452
        0
462
0.0
453
        0
470

  0
ENDBLK
  5
2DB
330
2D8
100
AcDbEntity
  8
0
100
AcDbBlockEnd
  0
BLOCK
  5
2E7
330
2E5
100
AcDbEntity
  8
0
100
AcDbBlockBegin
  2
Block_16
 70
     0
 10
0.0
 20
0.0
 30
0.0
  3
Block_16
  1

  0
INSERT
  5
2EA
330
2E5
100
AcDbEntity
  8
Livello 1
100
AcDbBlockReference
  2
Block_17
 10
0.0
 20
0.0
 30
0.0
  0
ENDBLK
  5
2E8
330
2E5
100
AcDbEntity
  8
0
100
AcDbBlockEnd
  0
BLOCK
  5
2EB
330
2E9
100
AcDbEntity
  8
0
100
AcDbBlockBegin
  2
Block_17
 70
     0
 10
0.0
 20
0.0
 30
0.0
  3
Block_17
  1

  0
SPLINE
  5
2ED
330
2E9
100
AcDbEntity
  8
Livello 1
100
AcDbSpline
210
0.0
220
0.0
230
1.0
 70
    11
 71
     3
 72
    29
 73
    25
 74
     0
 42
0.000000001
 43
0.0000000001
 40
0.0
 40
0.0
 40
0.0
 40
0.0
 40
1.0
 40
1.0
 40
1.0
 40
2.0
 40
2.0
 40
2.0
 40
3.0
 40
3.0
 40
3.0
 40
4.0
 40
4.0
 40
4.0
 40
5.0
 40
5.0
 40
5.0
 40
6.0
 40
6.0
 40
6.0
 40
7.0
 40
7.0
 40
7.0
 40
8.0
 40
8.0
 40
8.0
 40
8.0
 10
442.3547389302099
 20
-175.7822075298392
 30
0.0
 10
442.3547389302099
 20
-175.7822075298392
 30
0.0
 10
442.3292452236191
 20
-175.7822075298392
 30
0.0
 10
442.3292452236191
 20
-175.7822075298392
 30
0.0
 10
442.3292452236191
 20
-175.7822075298392
 30
0.0
 10
440.8943629540125
 20
-176.5570095044718
 30
0.0
 10
440.8943629540125
 20
-176.5570095044718
 30
0.0
 10
440.8943629540125
 20
-176.5570095044718
 30
0.0
 10
440.6783554670873
 20
-175.7060709196151
 30
0.0
 10
440.6783554670873
 20
-175.7060709196151
 30
0.0
 10
440.6783554670873
 20
-175.7060709196151
 30
0.0
 10
442.4815184440671
 20
-174.7410996741967
 30
0.0
 10
442.4815184440671
 20
-174.7410996741967
 30
0.0
 10
442.4815184440671
 20
-174.7410996741967
 30
0.0
 10
443.4340873457387
 20
-174.7410996741967
 30
0.0
 10
443.4340873457387
 20
-174.7410996741967
 30
0.0
 10
443.4340873457387
 20
-174.7410996741967
 30
0.0
 10
443.4340873457387
 20
-182.9948594377581
 30
0.0
 10
443.4340873457387
 20
-182.9948594377581
 30
0.0
 10
443.4340873457387
 20
-182.9948594377581
 30
0.0
 10
442.3547389302099
 20
-182.9948594377581
 30
0.0
 10
442.3547389302099
 20
-182.9948594377581
 30
0.0
 10
442.3547389302099
 20
-182.9948594377581
 30
0.0
 10
442.3547389302099
 20
-175.7822075298392
 30
0.0
 10
442.3547389302099
 20
-175.7822075298392
 30
0.0
  0
HATCH
  5
2EE
330
2E9
100
AcDbEntity
  8
Livello 1
 62
   250
420
  1907995
440
 33554687
100
AcDbHatch
 10
0.0
 20
0.0
 30
0.0
210
0.0
220
0.0
230
1.0
  2
SOLID
 70
     1
 71
     1
 91
        1
 92
        1
 93
        1
 72
     4
 94
        3
 73
     0
 74
     0
 95
       29
 96
       25
 40
0.0
 40
0.0
 40
0.0
 40
0.0
 40
1.0
 40
1.0
 40
1.0
 40
2.0
 40
2.0
 40
2.0
 40
3.0
 40
3.0
 40
3.0
 40
4.0
 40
4.0
 40
4.0
 40
5.0
 40
5.0
 40
5.0
 40
6.0
 40
6.0
 40
6.0
 40
7.0
 40
7.0
 40
7.0
 40
8.0
 40
8.0
 40
8.0
 40
8.0
 10
442.3547389302099
 20
-175.7822075298392
 10
442.3547389302099
 20
-175.7822075298392
 10
442.3292452236191
 20
-175.7822075298392
 10
442.3292452236191
 20
-175.7822075298392
 10
442.3292452236191
 20
-175.7822075298392
 10
440.8943629540125
 20
-176.5570095044718
 10
440.8943629540125
 20
-176.5570095044718
 10
440.8943629540125
 20
-176.5570095044718
 10
440.6783554670873
 20
-175.7060709196151
 10
440.6783554670873
 20
-175.7060709196151
 10
440.6783554670873
 20
-175.7060709196151
 10
442.4815184440671
 20
-174.7410996741967
 10
442.4815184440671
 20
-174.7410996741967
 10
442.4815184440671
 20
-174.7410996741967
 10
443.4340873457387
 20
-174.7410996741967
 10
443.4340873457387
 20
-174.7410996741967
 10
443.4340873457387
 20
-174.7410996741967
 10
443.4340873457387
 20
-182.9948594377581
 10
443.4340873457387
 20
-182.9948594377581
 10
443.4340873457387
 20
-182.9948594377581
 10
442.3547389302099
 20
-182.9948594377581
 10
442.3547389302099
 20
-182.9948594377581
 10
442.3547389302099
 20
-182.9948594377581
 10
442.3547389302099
 20
-175.7822075298392
 10
442.3547389302099
 20
-175.7822075298392
 97
        0
 97
        1
330
2ED
 75
     2
 76
     1
 98
        1
 10
0.0
 20
0.0
450
        0
451
        0
460
0.0
461
0.0
452
        0
462
0.0
453
        0
470

  0
SPLINE
  5
2EF
330
2E9
100
AcDbEntity
  8
Livello 1
100
AcDbSpline
210
0.0
220
0.0
230
1.0
 70
     9
 71
     3
 72
    20
 73
    16
 74
     0
 42
0.000000001
 43
0.0000000001
 40
0.0
 40
0.0
 40
0.0
 40
0.0
 40
1.0
 40
1.0
 40
1.0
 40
2.0
 40
2.0
 40
2.0
 40
3.0
 40
3.0
 40
3.0
 40
4.0
 40
4.0
 40
4.0
 40
5.0
 40
5.0
 40
5.0
 40
5.0
 10
447.4979219801394
 20
-177.4585909929617
 30
0.0
 10
447.4979219801394
 20
-178.4869519953088
 30
0.0
 10
448.1201062247754
 20
-179.2107665567598
 30
0.0
 10
449.0854219797425
 20
-179.2107665567598
 30
0.0
 10
449.8343857382359
 20
-179.2107665567598
 30
0.0
 10
450.4186739325342
 20
-178.8424858493866
 30
0.0
 10
450.7108180296834
 20
-178.3474256281562
 30
0.0
 10
450.774207786612
 20
-178.2457953113413
 30
0.0
 10
450.8124483464983
 20
-178.1186712879356
 30
0.0
 10
450.8124483464983
 20
-177.9409043608967
 30
0.0
 10
450.8124483464983
 20
-176.531515797881
 30
0.0
 10
450.2915499091285
 20
-175.4521673823522
 30
0.0
 10
449.1233180300802
 20
-175.4521673823522
 30
0.0
 10
448.1710936379571
 20
-175.4521673823522
 30
0.0
 10
447.4979219801394
 20
-176.2903591139135
 30
0.0
 10
447.4979219801394
 20
-177.4585909929617
 30
0.0
  0
SPLINE
  5
2F0
330
2E9
100
AcDbEntity
  8
Livello 1
100
AcDbSpline
210
0.0
220
0.0
230
1.0
 70
     9
 71
     3
 72
    41
 73
    37
 74
     0
 42
0.000000001
 43
0.0000000001
 40
0.0
 40
0.0
 40
0.0
 40
0.0
 40
1.0
 40
1.0
 40
1.0
 40
2.0
 40
2.0
 40
2.0
 40
3.0
 40
3.0
 40
3.0
 40
4.0
 40
4.0
 40
4.0
 40
5.0
 40
5.0
 40
5.0
 40
6.0
 40
6.0
 40
6.0
 40
7.0
 40
7.0
 40
7.0
 40
8.0
 40
8.0
 40
8.0
 40
9.0
 40
9.0
 40
9.0
 40
10.0
 40
10.0
 40
10.0
 40
11.0
 40
11.0
 40
11.0
 40
12.0
 40
12.0
 40
12.0
 40
12.0
 10
447.0917452224283
 20
-182.2076551193786
 30
0.0
 10
447.3329019063958
 20
-182.2331488259695
 30
0.0
 10
447.6122991502497
 20
-182.2076551193786
 30
0.0
 10
447.9933267109183
 20
-182.1694145594923
 30
0.0
 10
448.6410046621452
 20
-182.0805310959729
 30
0.0
 10
449.250442053486
 20
-181.8138807054146
 30
0.0
 10
449.720353077674
 20
-181.3694633878174
 30
0.0
 10
450.2664007120862
 20
-180.874403166587
 30
0.0
 10
450.6598306165017
 20
-180.1505886051359
 30
0.0
 10
450.8124483464983
 20
-179.1728705064221
 30
0.0
 10
450.8124483464983
 20
-179.1728705064221
 30
0.0
 10
450.774207786612
 20
-179.1728705064221
 30
0.0
 10
450.774207786612
 20
-179.1728705064221
 30
0.0
 10
450.3170436157192
 20
-179.731320484581
 30
0.0
 10
449.6566188111969
 20
-180.0617051416165
 30
0.0
 10
448.8311739329311
 20
-180.0617051416165
 30
0.0
 10
447.3456487596914
 20
-180.0617051416165
 30
0.0
 10
446.3930798580197
 20
-178.9441161662014
 30
0.0
 10
446.3930798580197
 20
-177.5347276031857
 30
0.0
 10
446.3930798580197
 20
-175.9727213101735
 30
0.0
 10
447.5234156867301
 20
-174.6012287974955
 30
0.0
 10
449.2122014935997
 20
-174.6012287974955
 30
0.0
 10
450.9013318100177
 20
-174.6012287974955
 30
0.0
 10
451.9424396656601
 20
-175.9727213101735
 30
0.0
 10
451.9424396656601
 20
-178.0807752375978
 30
0.0
 10
451.9424396656601
 20
-179.896685067873
 30
0.0
 10
451.3330022743195
 20
-181.1665472637361
 30
0.0
 10
450.5203042493491
 20
-181.9537515821157
 30
0.0
 10
449.8853731514175
 20
-182.5759358267518
 30
0.0
 10
449.0092853695185
 20
-182.9569633874205
 30
0.0
 10
448.1201062247754
 20
-183.0585937042353
 30
0.0
 10
447.7139294670646
 20
-183.1219834611639
 30
0.0
 10
447.3583956129868
 20
-183.1347303144593
 30
0.0
 10
447.0917452224283
 20
-183.1219834611639
 30
0.0
 10
447.0917452224283
 20
-183.1219834611639
 30
0.0
 10
447.0917452224283
 20
-182.2076551193786
 30
0.0
 10
447.0917452224283
 20
-182.2076551193786
 30
0.0
  0
HATCH
  5
2F1
330
2E9
100
AcDbEntity
  8
Livello 1
 62
   250
420
  1907995
440
 33554687
100
AcDbHatch
 10
0.0
 20
0.0
 30
0.0
210
0.0
220
0.0
230
1.0
  2
SOLID
 70
     1
 71
     1
 91
        2
 92
        1
 93
        1
 72
     4
 94
        3
 73
     0
 74
     0
 95
       20
 96
       16
 40
0.0
 40
0.0
 40
0.0
 40
0.0
 40
1.0
 40
1.0
 40
1.0
 40
2.0
 40
2.0
 40
2.0
 40
3.0
 40
3.0
 40
3.0
 40
4.0
 40
4.0
 40
4.0
 40
5.0
 40
5.0
 40
5.0
 40
5.0
 10
447.4979219801394
 20
-177.4585909929617
 10
447.4979219801394
 20
-178.4869519953088
 10
448.1201062247754
 20
-179.2107665567598
 10
449.0854219797425
 20
-179.2107665567598
 10
449.8343857382359
 20
-179.2107665567598
 10
450.4186739325342
 20
-178.8424858493866
 10
450.7108180296834
 20
-178.3474256281562
 10
450.774207786612
 20
-178.2457953113413
 10
450.8124483464983
 20
-178.1186712879356
 10
450.8124483464983
 20
-177.9409043608967
 10
450.8124483464983
 20
-176.531515797881
 10
450.2915499091285
 20
-175.4521673823522
 10
449.1233180300802
 20
-175.4521673823522
 10
448.1710936379571
 20
-175.4521673823522
 10
447.4979219801394
 20
-176.2903591139135
 10
447.4979219801394
 20
-177.4585909929617
 97
        0
 97
        1
330
2EF
 92
        1
 93
        1
 72
     4
 94
        3
 73
     0
 74
     0
 95
       41
 96
       37
 40
0.0
 40
0.0
 40
0.0
 40
0.0
 40
1.0
 40
1.0
 40
1.0
 40
2.0
 40
2.0
 40
2.0
 40
3.0
 40
3.0
 40
3.0
 40
4.0
 40
4.0
 40
4.0
 40
5.0
 40
5.0
 40
5.0
 40
6.0
 40
6.0
 40
6.0
 40
7.0
 40
7.0
 40
7.0
 40
8.0
 40
8.0
 40
8.0
 40
9.0
 40
9.0
 40
9.0
 40
10.0
 40
10.0
 40
10.0
 40
11.0
 40
11.0
 40
11.0
 40
12.0
 40
12.0
 40
12.0
 40
12.0
 10
447.0917452224283
 20
-182.2076551193786
 10
447.3329019063958
 20
-182.2331488259695
 10
447.6122991502497
 20
-182.2076551193786
 10
447.9933267109183
 20
-182.1694145594923
 10
448.6410046621452
 20
-182.0805310959729
 10
449.250442053486
 20
-181.8138807054146
 10
449.720353077674
 20
-181.3694633878174
 10
450.2664007120862
 20
-180.874403166587
 10
450.6598306165017
 20
-180.1505886051359
 10
450.8124483464983
 20
-179.1728705064221
 10
450.8124483464983
 20
-179.1728705064221
 10
450.774207786612
 20
-179.1728705064221
 10
450.774207786612
 20
-179.1728705064221
 10
450.3170436157192
 20
-179.731320484581
 10
449.6566188111969
 20
-180.0617051416165
 10
448.8311739329311
 20
-180.0617051416165
 10
447.3456487596914
 20
-180.0617051416165
 10
446.3930798580197
 20
-178.9441161662014
 10
446.3930798580197
 20
-177.5347276031857
 10
446.3930798580197
 20
-175.9727213101735
 10
447.5234156867301
 20
-174.6012287974955
 10
449.2122014935997
 20
-174.6012287974955
 10
450.9013318100177
 20
-174.6012287974955
 10
451.9424396656601
 20
-175.9727213101735
 10
451.9424396656601
 20
-178.0807752375978
 10
451.9424396656601
 20
-179.896685067873
 10
451.3330022743195
 20
-181.1665472637361
 10
450.5203042493491
 20
-181.9537515821157
 10
449.8853731514175
 20
-182.5759358267518
 10
449.0092853695185
 20
-182.9569633874205
 10
448.1201062247754
 20
-183.0585937042353
 10
447.7139294670646
 20
-183.1219834611639
 10
447.3583956129868
 20
-183.1347303144593
 10
447.0917452224283
 20
-183.1219834611639
 10
447.0917452224283
 20
-183.1219834611639
 10
447.0917452224283
 20
-182.2076551193786
 10
447.0917452224283
 20
-182.2076551193786
 97
        0
 97
        1
330
2F0
 75
     2
 76
     1
 98
        1
 10
0.0
 20
0.0
450
        0
451
        0
460
0.0
461
0.0
452
        0
462
0.0
453
        0
470

  0
ENDBLK
  5
2EC
330
2E9
100
AcDbEntity
  8
0
100
AcDbBlockEnd
  0
BLOCK
  5
2F4
330
2F2
100
AcDbEntity
  8
0
100
AcDbBlockBegin
  2
Block_18
 70
     0
 10
0.0
 20
0.0
 30
0.0
  3
Block_18
  1

  0
INSERT
  5
2F7
330
2F2
100
AcDbEntity
  8
Livello 1
100
AcDbBlockReference
  2
Block_19
 10
0.0
 20
0.0
 30
0.0
  0
ENDBLK
  5
2F5
330
2F2
100
AcDbEntity
  8
0
100
AcDbBlockEnd
  0
BLOCK
  5
2F8
330
2F6
100
AcDbEntity
  8
0
100
AcDbBlockBegin
  2
Block_19
 70
     0
 10
0.0
 20
0.0
 30
0.0
  3
Block_19
  1

  0
SPLINE
  5
2FA
330
2F6
100
AcDbEntity
  8
Livello 1
100
AcDbSpline
210
0.0
220
0.0
230
1.0
 70
    11
 71
     3
 72
    29
 73
    25
 74
     0
 42
0.000000001
 43
0.0000000001
 40
0.0
 40
0.0
 40
0.0
 40
0.0
 40
1.0
 40
1.0
 40
1.0
 40
2.0
 40
2.0
 40
2.0
 40
3.0
 40
3.0
 40
3.0
 40
4.0
 40
4.0
 40
4.0
 40
5.0
 40
5.0
 40
5.0
 40
6.0
 40
6.0
 40
6.0
 40
7.0
 40
7.0
 40
7.0
 40
8.0
 40
8.0
 40
8.0
 40
8.0
 10
535.2624184859761
 20
-174.2095214408226
 30
0.0
 10
535.2624184859761
 20
-174.2095214408226
 30
0.0
 10
535.2369247793852
 20
-174.2095214408226
 30
0.0
 10
535.2369247793852
 20
-174.2095214408226
 30
0.0
 10
535.2369247793852
 20
-174.2095214408226
 30
0.0
 10
533.8020425097786
 20
-174.9839789059068
 30
0.0
 10
533.8020425097786
 20
-174.9839789059068
 30
0.0
 10
533.8020425097786
 20
-174.9839789059068
 30
0.0
 10
533.5860350228535
 20
-174.1330403210501
 30
0.0
 10
533.5860350228535
 20
-174.1330403210501
 30
0.0
 10
533.5860350228535
 20
-174.1330403210501
 30
0.0
 10
535.3891979998333
 20
-173.1684135851801
 30
0.0
 10
535.3891979998333
 20
-173.1684135851801
 30
0.0
 10
535.3891979998333
 20
-173.1684135851801
 30
0.0
 10
536.3417669015047
 20
-173.1684135851801
 30
0.0
 10
536.3417669015047
 20
-173.1684135851801
 30
0.0
 10
536.3417669015047
 20
-173.1684135851801
 30
0.0
 10
536.3417669015047
 20
-181.4221733487417
 30
0.0
 10
536.3417669015047
 20
-181.4221733487417
 30
0.0
 10
536.3417669015047
 20
-181.4221733487417
 30
0.0
 10
535.2624184859761
 20
-181.4221733487417
 30
0.0
 10
535.2624184859761
 20
-181.4221733487417
 30
0.0
 10
535.2624184859761
 20
-181.4221733487417
 30
0.0
 10
535.2624184859761
 20
-174.2095214408226
 30
0.0
 10
535.2624184859761
 20
-174.2095214408226
 30
0.0
  0
HATCH
  5
2FB
330
2F6
100
AcDbEntity
  8
Livello 1
 62
   250
420
  1907995
440
 33554687
100
AcDbHatch
 10
0.0
 20
0.0
 30
0.0
210
0.0
220
0.0
230
1.0
  2
SOLID
 70
     1
 71
     1
 91
        1
 92
        1
 93
        1
 72
     4
 94
        3
 73
     0
 74
     0
 95
       29
 96
       25
 40
0.0
 40
0.0
 40
0.0
 40
0.0
 40
1.0
 40
1.0
 40
1.0
 40
2.0
 40
2.0
 40
2.0
 40
3.0
 40
3.0
 40
3.0
 40
4.0
 40
4.0
 40
4.0
 40
5.0
 40
5.0
 40
5.0
 40
6.0
 40
6.0
 40
6.0
 40
7.0
 40
7.0
 40
7.0
 40
8.0
 40
8.0
 40
8.0
 40
8.0
 10
535.2624184859761
 20
-174.2095214408226
 10
535.2624184859761
 20
-174.2095214408226
 10
535.2369247793852
 20
-174.2095214408226
 10
535.2369247793852
 20
-174.2095214408226
 10
535.2369247793852
 20
-174.2095214408226
 10
533.8020425097786
 20
-174.9839789059068
 10
533.8020425097786
 20
-174.9839789059068
 10
533.8020425097786
 20
-174.9839789059068
 10
533.5860350228535
 20
-174.1330403210501
 10
533.5860350228535
 20
-174.1330403210501
 10
533.5860350228535
 20
-174.1330403210501
 10
535.3891979998333
 20
-173.1684135851801
 10
535.3891979998333
 20
-173.1684135851801
 10
535.3891979998333
 20
-173.1684135851801
 10
536.3417669015047
 20
-173.1684135851801
 10
536.3417669015047
 20
-173.1684135851801
 10
536.3417669015047
 20
-173.1684135851801
 10
536.3417669015047
 20
-181.4221733487417
 10
536.3417669015047
 20
-181.4221733487417
 10
536.3417669015047
 20
-181.4221733487417
 10
535.2624184859761
 20
-181.4221733487417
 10
535.2624184859761
 20
-181.4221733487417
 10
535.2624184859761
 20
-181.4221733487417
 10
535.2624184859761
 20
-174.2095214408226
 10
535.2624184859761
 20
-174.2095214408226
 97
        0
 97
        1
330
2FA
 75
     2
 76
     1
 98
        1
 10
0.0
 20
0.0
450
        0
451
        0
460
0.0
461
0.0
452
        0
462
0.0
453
        0
470

  0
SPLINE
  5
2FC
330
2F6
100
AcDbEntity
  8
Livello 1
100
AcDbSpline
210
0.0
220
0.0
230
1.0
 70
     9
 71
     3
 72
    59
 73
    55
 74
     0
 42
0.000000001
 43
0.0000000001
 40
0.0
 40
0.0
 40
0.0
 40
0.0
 40
1.0
 40
1.0
 40
1.0
 40
2.0
 40
2.0
 40
2.0
 40
3.0
 40
3.0
 40
3.0
 40
4.0
 40
4.0
 40
4.0
 40
5.0
 40
5.0
 40
5.0
 40
6.0
 40
6.0
 40
6.0
 40
7.0
 40
7.0
 40
7.0
 40
8.0
 40
8.0
 40
8.0
 40
9.0
 40
9.0
 40
9.0
 40
10.0
 40
10.0
 40
10.0
 40
11.0
 40
11.0
 40
11.0
 40
12.0
 40
12.0
 40
12.0
 40
13.0
 40
13.0
 40
13.0
 40
14.0
 40
14.0
 40
14.0
 40
15.0
 40
15.0
 40
15.0
 40
16.0
 40
16.0
 40
16.0
 40
17.0
 40
17.0
 40
17.0
 40
18.0
 40
18.0
 40
18.0
 40
18.0
 10
539.618397217526
 20
-180.1395642995832
 30
0.0
 10
539.9360350212658
 20
-180.3428249332128
 30
0.0
 10
540.6725964360123
 20
-180.6601182274044
 30
0.0
 10
541.4470539010966
 20
-180.6601182274044
 30
0.0
 10
542.8819361707032
 20
-180.6601182274044
 30
0.0
 10
543.3263534883003
 20
-179.7457898856191
 30
0.0
 10
543.3136066350049
 20
-179.0602158840544
 30
0.0
 10
543.301204291258
 20
-177.9047308583016
 30
0.0
 10
542.2597519260668
 20
-177.4093261275227
 30
0.0
 10
541.1804035105382
 20
-177.4093261275227
 30
0.0
 10
541.1804035105382
 20
-177.4093261275227
 30
0.0
 10
540.5582192659021
 20
-177.4093261275227
 30
0.0
 10
540.5582192659021
 20
-177.4093261275227
 30
0.0
 10
540.5582192659021
 20
-177.4093261275227
 30
0.0
 10
540.5582192659021
 20
-176.5714789055099
 30
0.0
 10
540.5582192659021
 20
-176.5714789055099
 30
0.0
 10
540.5582192659021
 20
-176.5714789055099
 30
0.0
 10
541.1804035105382
 20
-176.5714789055099
 30
0.0
 10
541.1804035105382
 20
-176.5714789055099
 30
0.0
 10
541.9931015355087
 20
-176.5714789055099
 30
0.0
 10
543.0214625378559
 20
-176.1525552945035
 30
0.0
 10
543.0214625378559
 20
-175.1744926862411
 30
0.0
 10
543.0214625378559
 20
-174.5140678817186
 30
0.0
 10
542.6025389268493
 20
-173.9301241969688
 30
0.0
 10
541.5738334149538
 20
-173.9301241969688
 30
0.0
 10
540.9137531199799
 20
-173.9301241969688
 30
0.0
 10
540.2788220220482
 20
-174.2219237845695
 30
0.0
 10
539.9232881679705
 20
-174.4761718313809
 30
0.0
 10
539.9232881679705
 20
-174.4761718313809
 30
0.0
 10
539.6311440708212
 20
-173.6634738064104
 30
0.0
 10
539.6311440708212
 20
-173.6634738064104
 30
0.0
 10
540.0628145351232
 20
-173.346180512219
 30
0.0
 10
540.9010062666843
 20
-173.028542708479
 30
0.0
 10
541.7898409018788
 20
-173.028542708479
 30
0.0
 10
543.4152369518198
 20
-173.028542708479
 30
0.0
 10
544.1517983665661
 20
-173.9938584634459
 30
0.0
 10
544.1517983665661
 20
-174.9967257592022
 30
0.0
 10
544.1517983665661
 20
-175.8473198345104
 30
0.0
 10
543.6436467824919
 20
-176.5714789055099
 30
0.0
 10
542.6280326334403
 20
-176.9394151033345
 30
0.0
 10
542.6280326334403
 20
-176.9394151033345
 30
0.0
 10
542.6280326334403
 20
-176.9649088099254
 30
0.0
 10
542.6280326334403
 20
-176.9649088099254
 30
0.0
 10
543.6436467824919
 20
-177.1681694435551
 30
0.0
 10
544.4690916607576
 20
-177.9302245648924
 30
0.0
 10
544.4690916607576
 20
-179.0857095906451
 30
0.0
 10
544.4690916607576
 20
-180.4065591996899
 30
0.0
 10
543.4407306584106
 20
-181.5620442254428
 30
0.0
 10
541.459800754392
 20
-181.5620442254428
 30
0.0
 10
540.5327255593113
 20
-181.5620442254428
 30
0.0
 10
539.7200275343408
 20
-181.2699001282936
 30
0.0
 10
539.3138507766299
 20
-181.0032497377353
 30
0.0
 10
539.3138507766299
 20
-181.0032497377353
 30
0.0
 10
539.618397217526
 20
-180.1395642995832
 30
0.0
 10
539.618397217526
 20
-180.1395642995832
 30
0.0
  0
HATCH
  5
2FD
330
2F6
100
AcDbEntity
  8
Livello 1
 62
   250
420
  1907995
440
 33554687
100
AcDbHatch
 10
0.0
 20
0.0
 30
0.0
210
0.0
220
0.0
230
1.0
  2
SOLID
 70
     1
 71
     1
 91
        1
 92
        1
 93
        1
 72
     4
 94
        3
 73
     0
 74
     0
 95
       59
 96
       55
 40
0.0
 40
0.0
 40
0.0
 40
0.0
 40
1.0
 40
1.0
 40
1.0
 40
2.0
 40
2.0
 40
2.0
 40
3.0
 40
3.0
 40
3.0
 40
4.0
 40
4.0
 40
4.0
 40
5.0
 40
5.0
 40
5.0
 40
6.0
 40
6.0
 40
6.0
 40
7.0
 40
7.0
 40
7.0
 40
8.0
 40
8.0
 40
8.0
 40
9.0
 40
9.0
 40
9.0
 40
10.0
 40
10.0
 40
10.0
 40
11.0
 40
11.0
 40
11.0
 40
12.0
 40
12.0
 40
12.0
 40
13.0
 40
13.0
 40
13.0
 40
14.0
 40
14.0
 40
14.0
 40
15.0
 40
15.0
 40
15.0
 40
16.0
 40
16.0
 40
16.0
 40
17.0
 40
17.0
 40
17.0
 40
18.0
 40
18.0
 40
18.0
 40
18.0
 10
539.618397217526
 20
-180.1395642995832
 10
539.9360350212658
 20
-180.3428249332128
 10
540.6725964360123
 20
-180.6601182274044
 10
541.4470539010966
 20
-180.6601182274044
 10
542.8819361707032
 20
-180.6601182274044
 10
543.3263534883003
 20
-179.7457898856191
 10
543.3136066350049
 20
-179.0602158840544
 10
543.301204291258
 20
-177.9047308583016
 10
542.2597519260668
 20
-177.4093261275227
 10
541.1804035105382
 20
-177.4093261275227
 10
541.1804035105382
 20
-177.4093261275227
 10
540.5582192659021
 20
-177.4093261275227
 10
540.5582192659021
 20
-177.4093261275227
 10
540.5582192659021
 20
-177.4093261275227
 10
540.5582192659021
 20
-176.5714789055099
 10
540.5582192659021
 20
-176.5714789055099
 10
540.5582192659021
 20
-176.5714789055099
 10
541.1804035105382
 20
-176.5714789055099
 10
541.1804035105382
 20
-176.5714789055099
 10
541.9931015355087
 20
-176.5714789055099
 10
543.0214625378559
 20
-176.1525552945035
 10
543.0214625378559
 20
-175.1744926862411
 10
543.0214625378559
 20
-174.5140678817186
 10
542.6025389268493
 20
-173.9301241969688
 10
541.5738334149538
 20
-173.9301241969688
 10
540.9137531199799
 20
-173.9301241969688
 10
540.2788220220482
 20
-174.2219237845695
 10
539.9232881679705
 20
-174.4761718313809
 10
539.9232881679705
 20
-174.4761718313809
 10
539.6311440708212
 20
-173.6634738064104
 10
539.6311440708212
 20
-173.6634738064104
 10
540.0628145351232
 20
-173.346180512219
 10
540.9010062666843
 20
-173.028542708479
 10
541.7898409018788
 20
-173.028542708479
 10
543.4152369518198
 20
-173.028542708479
 10
544.1517983665661
 20
-173.9938584634459
 10
544.1517983665661
 20
-174.9967257592022
 10
544.1517983665661
 20
-175.8473198345104
 10
543.6436467824919
 20
-176.5714789055099
 10
542.6280326334403
 20
-176.9394151033345
 10
542.6280326334403
 20
-176.9394151033345
 10
542.6280326334403
 20
-176.9649088099254
 10
542.6280326334403
 20
-176.9649088099254
 10
543.6436467824919
 20
-177.1681694435551
 10
544.4690916607576
 20
-177.9302245648924
 10
544.4690916607576
 20
-179.0857095906451
 10
544.4690916607576
 20
-180.4065591996899
 10
543.4407306584106
 20
-181.5620442254428
 10
541.459800754392
 20
-181.5620442254428
 10
540.5327255593113
 20
-181.5620442254428
 10
539.7200275343408
 20
-181.2699001282936
 10
539.3138507766299
 20
-181.0032497377353
 10
539.3138507766299
 20
-181.0032497377353
 10
539.618397217526
 20
-180.1395642995832
 10
539.618397217526
 20
-180.1395642995832
 97
        0
 97
        1
330
2FC
 75
     2
 76
     1
 98
        1
 10
0.0
 20
0.0
450
        0
451
        0
460
0.0
461
0.0
452
        0
462
0.0
453
        0
470

  0
ENDBLK
  5
2F9
330
2F6
100
AcDbEntity
  8
0
100
AcDbBlockEnd
  0
BLOCK
  5
300
330
2FE
100
AcDbEntity
  8
0
100
AcDbBlockBegin
  2
Block_20
 70
     0
 10
0.0
 20
0.0
 30
0.0
  3
Block_20
  1

  0
INSERT
  5
303
330
2FE
100
AcDbEntity
  8
Livello 1
100
AcDbBlockReference
  2
Block_21
 10
0.0
 20
0.0
 30
0.0
  0
ENDBLK
  5
301
330
2FE
100
AcDbEntity
  8
0
100
AcDbBlockEnd
  0
BLOCK
  5
304
330
302
100
AcDbEntity
  8
0
100
AcDbBlockBegin
  2
Block_21
 70
     0
 10
0.0
 20
0.0
 30
0.0
  3
Block_21
  1

  0
SPLINE
  5
306
330
302
100
AcDbEntity
  8
Livello 1
100
AcDbSpline
210
0.0
220
0.0
230
1.0
 70
    11
 71
     3
 72
    29
 73
    25
 74
     0
 42
0.000000001
 43
0.0000000001
 40
0.0
 40
0.0
 40
0.0
 40
0.0
 40
1.0
 40
1.0
 40
1.0
 40
2.0
 40
2.0
 40
2.0
 40
3.0
 40
3.0
 40
3.0
 40
4.0
 40
4.0
 40
4.0
 40
5.0
 40
5.0
 40
5.0
 40
6.0
 40
6.0
 40
6.0
 40
7.0
 40
7.0
 40
7.0
 40
8.0
 40
8.0
 40
8.0
 40
8.0
 10
594.4691404763828
 20
-145.7468315607855
 30
0.0
 10
594.4691404763828
 20
-145.7468315607855
 30
0.0
 10
594.4691404763828
 20
-145.7723252673764
 30
0.0
 10
594.4691404763828
 20
-145.7723252673764
 30
0.0
 10
594.4691404763828
 20
-145.7723252673764
 30
0.0
 10
595.2439424510154
 20
-147.2072075369829
 30
0.0
 10
595.2439424510154
 20
-147.2072075369829
 30
0.0
 10
595.2439424510154
 20
-147.2072075369829
 30
0.0
 10
594.3930038661585
 20
-147.4230427691338
 30
0.0
 10
594.3930038661585
 20
-147.4230427691338
 30
0.0
 10
594.3930038661585
 20
-147.4230427691338
 30
0.0
 10
593.4280326207402
 20
-145.619879792154
 30
0.0
 10
593.4280326207402
 20
-145.619879792154
 30
0.0
 10
593.4280326207402
 20
-145.619879792154
 30
0.0
 10
593.4280326207402
 20
-144.6674831452567
 30
0.0
 10
593.4280326207402
 20
-144.6674831452567
 30
0.0
 10
593.4280326207402
 20
-144.6674831452567
 30
0.0
 10
601.6817923843017
 20
-144.6674831452567
 30
0.0
 10
601.6817923843017
 20
-144.6674831452567
 30
0.0
 10
601.6817923843017
 20
-144.6674831452567
 30
0.0
 10
601.6817923843017
 20
-145.7468315607855
 30
0.0
 10
601.6817923843017
 20
-145.7468315607855
 30
0.0
 10
601.6817923843017
 20
-145.7468315607855
 30
0.0
 10
594.4691404763828
 20
-145.7468315607855
 30
0.0
 10
594.4691404763828
 20
-145.7468315607855
 30
0.0
  0
HATCH
  5
307
330
302
100
AcDbEntity
  8
Livello 1
 62
   250
420
  1907995
440
 33554687
100
AcDbHatch
 10
0.0
 20
0.0
 30
0.0
210
0.0
220
0.0
230
1.0
  2
SOLID
 70
     1
 71
     1
 91
        1
 92
        1
 93
        1
 72
     4
 94
        3
 73
     0
 74
     0
 95
       29
 96
       25
 40
0.0
 40
0.0
 40
0.0
 40
0.0
 40
1.0
 40
1.0
 40
1.0
 40
2.0
 40
2.0
 40
2.0
 40
3.0
 40
3.0
 40
3.0
 40
4.0
 40
4.0
 40
4.0
 40
5.0
 40
5.0
 40
5.0
 40
6.0
 40
6.0
 40
6.0
 40
7.0
 40
7.0
 40
7.0
 40
8.0
 40
8.0
 40
8.0
 40
8.0
 10
594.4691404763828
 20
-145.7468315607855
 10
594.4691404763828
 20
-145.7468315607855
 10
594.4691404763828
 20
-145.7723252673764
 10
594.4691404763828
 20
-145.7723252673764
 10
594.4691404763828
 20
-145.7723252673764
 10
595.2439424510154
 20
-147.2072075369829
 10
595.2439424510154
 20
-147.2072075369829
 10
595.2439424510154
 20
-147.2072075369829
 10
594.3930038661585
 20
-147.4230427691338
 10
594.3930038661585
 20
-147.4230427691338
 10
594.3930038661585
 20
-147.4230427691338
 10
593.4280326207402
 20
-145.619879792154
 10
593.4280326207402
 20
-145.619879792154
 10
593.4280326207402
 20
-145.619879792154
 10
593.4280326207402
 20
-144.6674831452567
 10
593.4280326207402
 20
-144.6674831452567
 10
593.4280326207402
 20
-144.6674831452567
 10
601.6817923843017
 20
-144.6674831452567
 10
601.6817923843017
 20
-144.6674831452567
 10
601.6817923843017
 20
-144.6674831452567
 10
601.6817923843017
 20
-145.7468315607855
 10
601.6817923843017
 20
-145.7468315607855
 10
601.6817923843017
 20
-145.7468315607855
 10
594.4691404763828
 20
-145.7468315607855
 10
594.4691404763828
 20
-145.7468315607855
 97
        0
 97
        1
330
306
 75
     2
 76
     1
 98
        1
 10
0.0
 20
0.0
450
        0
451
        0
460
0.0
461
0.0
452
        0
462
0.0
453
        0
470

  0
SPLINE
  5
308
330
302
100
AcDbEntity
  8
Livello 1
100
AcDbSpline
210
0.0
220
0.0
230
1.0
 70
     9
 71
     3
 72
    17
 73
    13
 74
     0
 42
0.000000001
 43
0.0000000001
 40
0.0
 40
0.0
 40
0.0
 40
0.0
 40
1.0
 40
1.0
 40
1.0
 40
2.0
 40
2.0
 40
2.0
 40
3.0
 40
3.0
 40
3.0
 40
4.0
 40
4.0
 40
4.0
 40
4.0
 10
597.5931530624072
 20
-140.6542914144892
 30
0.0
 10
599.7391030401692
 20
-140.6542914144892
 30
0.0
 10
600.9579778228506
 20
-139.9938666099668
 30
0.0
 10
600.9579778228506
 20
-138.9780802061409
 30
0.0
 10
600.9579778228506
 20
-137.8351697789092
 30
0.0
 10
599.6247258700591
 20
-137.2891221444971
 30
0.0
 10
597.5166719426347
 20
-137.2891221444971
 30
0.0
 10
595.4850991349827
 20
-137.2891221444971
 30
0.0
 10
594.1518471821912
 20
-137.8098483270927
 30
0.0
 10
594.1518471821912
 20
-138.9653333528455
 30
0.0
 10
594.1518471821912
 20
-139.9432237063336
 30
0.0
 10
595.3452282582817
 20
-140.6542914144892
 30
0.0
 10
597.5931530624072
 20
-140.6542914144892
 30
0.0
  0
SPLINE
  5
309
330
302
100
AcDbEntity
  8
Livello 1
100
AcDbSpline
210
0.0
220
0.0
230
1.0
 70
     9
 71
     3
 72
    17
 73
    13
 74
     0
 42
0.000000001
 43
0.0000000001
 40
0.0
 40
0.0
 40
0.0
 40
0.0
 40
1.0
 40
1.0
 40
1.0
 40
2.0
 40
2.0
 40
2.0
 40
3.0
 40
3.0
 40
3.0
 40
4.0
 40
4.0
 40
4.0
 40
4.0
 10
597.4660290390016
 20
-136.1717054238564
 30
0.0
 10
600.2724038212861
 20
-136.1717054238564
 30
0.0
 10
601.8216632610029
 20
-137.2129855342731
 30
0.0
 10
601.8216632610029
 20
-139.0416422178437
 30
0.0
 10
601.8216632610029
 20
-140.6542914144892
 30
0.0
 10
600.3102998716237
 20
-141.7463866833134
 30
0.0
 10
597.5804062091119
 20
-141.77170813513
 30
0.0
 10
594.811927477165
 20
-141.77170813513
 30
0.0
 10
593.2881617440391
 20
-140.5781548042652
 30
0.0
 10
593.2881617440391
 20
-138.9019435959169
 30
0.0
 10
593.2881617440391
 20
-137.1621703758657
 30
0.0
 10
594.8374211837558
 20
-136.1717054238564
 30
0.0
 10
597.4660290390016
 20
-136.1717054238564
 30
0.0
  0
HATCH
  5
30A
330
302
100
AcDbEntity
  8
Livello 1
 62
   250
420
  1907995
440
 33554687
100
AcDbHatch
 10
0.0
 20
0.0
 30
0.0
210
0.0
220
0.0
230
1.0
  2
SOLID
 70
     1
 71
     1
 91
        2
 92
        1
 93
        1
 72
     4
 94
        3
 73
     0
 74
     0
 95
       17
 96
       13
 40
0.0
 40
0.0
 40
0.0
 40
0.0
 40
1.0
 40
1.0
 40
1.0
 40
2.0
 40
2.0
 40
2.0
 40
3.0
 40
3.0
 40
3.0
 40
4.0
 40
4.0
 40
4.0
 40
4.0
 10
597.5931530624072
 20
-140.6542914144892
 10
599.7391030401692
 20
-140.6542914144892
 10
600.9579778228506
 20
-139.9938666099668
 10
600.9579778228506
 20
-138.9780802061409
 10
600.9579778228506
 20
-137.8351697789092
 10
599.6247258700591
 20
-137.2891221444971
 10
597.5166719426347
 20
-137.2891221444971
 10
595.4850991349827
 20
-137.2891221444971
 10
594.1518471821912
 20
-137.8098483270927
 10
594.1518471821912
 20
-138.9653333528455
 10
594.1518471821912
 20
-139.9432237063336
 10
595.3452282582817
 20
-140.6542914144892
 10
597.5931530624072
 20
-140.6542914144892
 97
        0
 97
        1
330
308
 92
        1
 93
        1
 72
     4
 94
        3
 73
     0
 74
     0
 95
       17
 96
       13
 40
0.0
 40
0.0
 40
0.0
 40
0.0
 40
1.0
 40
1.0
 40
1.0
 40
2.0
 40
2.0
 40
2.0
 40
3.0
 40
3.0
 40
3.0
 40
4.0
 40
4.0
 40
4.0
 40
4.0
 10
597.4660290390016
 20
-136.1717054238564
 10
600.2724038212861
 20
-136.1717054238564
 10
601.8216632610029
 20
-137.2129855342731
 10
601.8216632610029
 20
-139.0416422178437
 10
601.8216632610029
 20
-140.6542914144892
 10
600.3102998716237
 20
-141.7463866833134
 10
597.5804062091119
 20
-141.77170813513
 10
594.811927477165
 20
-141.77170813513
 10
593.2881617440391
 20
-140.5781548042652
 10
593.2881617440391
 20
-138.9019435959169
 10
593.2881617440391
 20
-137.1621703758657
 10
594.8374211837558
 20
-136.1717054238564
 10
597.4660290390016
 20
-136.1717054238564
 97
        0
 97
        1
330
309
 75
     2
 76
     1
 98
        1
 10
0.0
 20
0.0
450
        0
451
        0
460
0.0
461
0.0
452
        0
462
0.0
453
        0
470

  0
SPLINE
  5
30B
330
302
100
AcDbEntity
  8
Livello 1
100
AcDbSpline
210
0.0
220
0.0
230
1.0
 70
     9
 71
     3
 72
    17
 73
    13
 74
     0
 42
0.000000001
 43
0.0000000001
 40
0.0
 40
0.0
 40
0.0
 40
0.0
 40
1.0
 40
1.0
 40
1.0
 40
2.0
 40
2.0
 40
2.0
 40
3.0
 40
3.0
 40
3.0
 40
4.0
 40
4.0
 40
4.0
 40
4.0
 10
603.2437986773142
 20
-135.5107638550112
 30
0.0
 10
602.4944904092722
 20
-135.2315388659317
 30
0.0
 10
601.1357447498896
 20
-134.8885796103751
 30
0.0
 10
600.2090140643574
 20
-134.7488809884482
 30
0.0
 10
600.2090140643574
 20
-134.7488809884482
 30
0.0
 10
600.0818900409517
 20
-133.504512499176
 30
0.0
 10
600.0818900409517
 20
-133.504512499176
 30
0.0
 10
601.1612384564805
 20
-133.7964843415509
 30
0.0
 10
602.5706270194961
 20
-134.3552788292584
 30
0.0
 10
603.16766206709
 20
-134.7108126833362
 30
0.0
 10
603.16766206709
 20
-134.7108126833362
 30
0.0
 10
603.2437986773142
 20
-135.5107638550112
 30
0.0
 10
603.2437986773142
 20
-135.5107638550112
 30
0.0
  0
HATCH
  5
30C
330
302
100
AcDbEntity
  8
Livello 1
 62
   250
420
  1907995
440
 33554687
100
AcDbHatch
 10
0.0
 20
0.0
 30
0.0
210
0.0
220
0.0
230
1.0
  2
SOLID
 70
     1
 71
     1
 91
        1
 92
        1
 93
        1
 72
     4
 94
        3
 73
     0
 74
     0
 95
       17
 96
       13
 40
0.0
 40
0.0
 40
0.0
 40
0.0
 40
1.0
 40
1.0
 40
1.0
 40
2.0
 40
2.0
 40
2.0
 40
3.0
 40
3.0
 40
3.0
 40
4.0
 40
4.0
 40
4.0
 40
4.0
 10
603.2437986773142
 20
-135.5107638550112
 10
602.4944904092722
 20
-135.2315388659317
 10
601.1357447498896
 20
-134.8885796103751
 10
600.2090140643574
 20
-134.7488809884482
 10
600.2090140643574
 20
-134.7488809884482
 10
600.0818900409517
 20
-133.504512499176
 10
600.0818900409517
 20
-133.504512499176
 10
601.1612384564805
 20
-133.7964843415509
 10
602.5706270194961
 20
-134.3552788292584
 10
603.16766206709
 20
-134.7108126833362
 10
603.16766206709
 20
-134.7108126833362
 10
603.2437986773142
 20
-135.5107638550112
 10
603.2437986773142
 20
-135.5107638550112
 97
        0
 97
        1
330
30B
 75
     2
 76
     1
 98
        1
 10
0.0
 20
0.0
450
        0
451
        0
460
0.0
461
0.0
452
        0
462
0.0
453
        0
470

  0
SPLINE
  5
30D
330
302
100
AcDbEntity
  8
Livello 1
100
AcDbSpline
210
0.0
220
0.0
230
1.0
 70
    11
 71
     3
 72
    50
 73
    46
 74
     0
 42
0.000000001
 43
0.0000000001
 40
0.0
 40
0.0
 40
0.0
 40
0.0
 40
1.0
 40
1.0
 40
1.0
 40
2.0
 40
2.0
 40
2.0
 40
3.0
 40
3.0
 40
3.0
 40
4.0
 40
4.0
 40
4.0
 40
5.0
 40
5.0
 40
5.0
 40
6.0
 40
6.0
 40
6.0
 40
7.0
 40
7.0
 40
7.0
 40
8.0
 40
8.0
 40
8.0
 40
9.0
 40
9.0
 40
9.0
 40
10.0
 40
10.0
 40
10.0
 40
11.0
 40
11.0
 40
11.0
 40
12.0
 40
12.0
 40
12.0
 40
13.0
 40
13.0
 40
13.0
 40
14.0
 40
14.0
 40
14.0
 40
15.0
 40
15.0
 40
15.0
 40
15.0
 10
594.3675101595678
 20
-127.5868719841623
 30
0.0
 10
594.3675101595678
 20
-127.5868719841623
 30
0.0
 10
594.3675101595678
 20
-130.7360337672292
 30
0.0
 10
594.3675101595678
 20
-130.7360337672292
 30
0.0
 10
594.3675101595678
 20
-130.7360337672292
 30
0.0
 10
596.4883109402876
 20
-131.0534993161949
 30
0.0
 10
596.4883109402876
 20
-131.0534993161949
 30
0.0
 10
596.4628172336968
 20
-130.8629855358606
 30
0.0
 10
596.4373235271058
 20
-130.6852186088217
 30
0.0
 10
596.4373235271058
 20
-130.3804999131514
 30
0.0
 10
596.4373235271058
 20
-129.7455688152198
 30
0.0
 10
596.577194403807
 20
-129.1106377172883
 30
0.0
 10
596.8817408447032
 20
-128.6026583879882
 30
0.0
 10
597.2500215520763
 20
-127.9551526915355
 30
0.0
 10
597.961089260232
 20
-127.4216796556446
 30
0.0
 10
599.0025416254228
 20
-127.4216796556446
 30
0.0
 10
600.6151908220685
 20
-127.4216796556446
 30
0.0
 10
601.8216632610029
 20
-128.7042887048031
 30
0.0
 10
601.8216632610029
 20
-130.4947048284874
 30
0.0
 10
601.8216632610029
 20
-131.3962863169773
 30
0.0
 10
601.56775972374
 20
-132.1583414383145
 30
0.0
 10
601.3135116769284
 20
-132.5519435975044
 30
0.0
 10
601.3135116769284
 20
-132.5519435975044
 30
0.0
 10
600.4629176016204
 20
-132.2725463536506
 30
0.0
 10
600.4629176016204
 20
-132.2725463536506
 30
0.0
 10
600.6661782352503
 20
-131.9297593528683
 30
0.0
 10
600.9200817725131
 20
-131.2567599498247
 30
0.0
 10
600.9200817725131
 20
-130.5074516817828
 30
0.0
 10
600.9200817725131
 20
-129.4534247180706
 30
0.0
 10
600.2341632613998
 20
-128.5518432295807
 30
0.0
 10
599.1296656488287
 20
-128.5518432295807
 30
0.0
 10
598.0627195770469
 20
-128.5645900828762
 30
0.0
 10
597.3010089652581
 20
-129.2756577910318
 30
0.0
 10
597.3010089652581
 20
-130.9265475475635
 30
0.0
 10
597.3010089652581
 20
-131.3962863169773
 30
0.0
 10
597.3516518688911
 20
-131.7645670243505
 30
0.0
 10
597.3898924287774
 20
-132.0694579747951
 30
0.0
 10
597.3898924287774
 20
-132.0694579747951
 30
0.0
 10
593.4280326207402
 20
-131.5359849389042
 30
0.0
 10
593.4280326207402
 20
-131.5359849389042
 30
0.0
 10
593.4280326207402
 20
-131.5359849389042
 30
0.0
 10
593.4280326207402
 20
-127.5868719841623
 30
0.0
 10
593.4280326207402
 20
-127.5868719841623
 30
0.0
 10
593.4280326207402
 20
-127.5868719841623
 30
0.0
 10
594.3675101595678
 20
-127.5868719841623
 30
0.0
 10
594.3675101595678
 20
-127.5868719841623
 30
0.0
  0
HATCH
  5
30E
330
302
100
AcDbEntity
  8
Livello 1
 62
   250
420
  1907995
440
 33554687
100
AcDbHatch
 10
0.0
 20
0.0
 30
0.0
210
0.0
220
0.0
230
1.0
  2
SOLID
 70
     1
 71
     1
 91
        1
 92
        1
 93
        1
 72
     4
 94
        3
 73
     0
 74
     0
 95
       50
 96
       46
 40
0.0
 40
0.0
 40
0.0
 40
0.0
 40
1.0
 40
1.0
 40
1.0
 40
2.0
 40
2.0
 40
2.0
 40
3.0
 40
3.0
 40
3.0
 40
4.0
 40
4.0
 40
4.0
 40
5.0
 40
5.0
 40
5.0
 40
6.0
 40
6.0
 40
6.0
 40
7.0
 40
7.0
 40
7.0
 40
8.0
 40
8.0
 40
8.0
 40
9.0
 40
9.0
 40
9.0
 40
10.0
 40
10.0
 40
10.0
 40
11.0
 40
11.0
 40
11.0
 40
12.0
 40
12.0
 40
12.0
 40
13.0
 40
13.0
 40
13.0
 40
14.0
 40
14.0
 40
14.0
 40
15.0
 40
15.0
 40
15.0
 40
15.0
 10
594.3675101595678
 20
-127.5868719841623
 10
594.3675101595678
 20
-127.5868719841623
 10
594.3675101595678
 20
-130.7360337672292
 10
594.3675101595678
 20
-130.7360337672292
 10
594.3675101595678
 20
-130.7360337672292
 10
596.4883109402876
 20
-131.0534993161949
 10
596.4883109402876
 20
-131.0534993161949
 10
596.4628172336968
 20
-130.8629855358606
 10
596.4373235271058
 20
-130.6852186088217
 10
596.4373235271058
 20
-130.3804999131514
 10
596.4373235271058
 20
-129.7455688152198
 10
596.577194403807
 20
-129.1106377172883
 10
596.8817408447032
 20
-128.6026583879882
 10
597.2500215520763
 20
-127.9551526915355
 10
597.961089260232
 20
-127.4216796556446
 10
599.0025416254228
 20
-127.4216796556446
 10
600.6151908220685
 20
-127.4216796556446
 10
601.8216632610029
 20
-128.7042887048031
 10
601.8216632610029
 20
-130.4947048284874
 10
601.8216632610029
 20
-131.3962863169773
 10
601.56775972374
 20
-132.1583414383145
 10
601.3135116769284
 20
-132.5519435975044
 10
601.3135116769284
 20
-132.5519435975044
 10
600.4629176016204
 20
-132.2725463536506
 10
600.4629176016204
 20
-132.2725463536506
 10
600.6661782352503
 20
-131.9297593528683
 10
600.9200817725131
 20
-131.2567599498247
 10
600.9200817725131
 20
-130.5074516817828
 10
600.9200817725131
 20
-129.4534247180706
 10
600.2341632613998
 20
-128.5518432295807
 10
599.1296656488287
 20
-128.5518432295807
 10
598.0627195770469
 20
-128.5645900828762
 10
597.3010089652581
 20
-129.2756577910318
 10
597.3010089652581
 20
-130.9265475475635
 10
597.3010089652581
 20
-131.3962863169773
 10
597.3516518688911
 20
-131.7645670243505
 10
597.3898924287774
 20
-132.0694579747951
 10
597.3898924287774
 20
-132.0694579747951
 10
593.4280326207402
 20
-131.5359849389042
 10
593.4280326207402
 20
-131.5359849389042
 10
593.4280326207402
 20
-131.5359849389042
 10
593.4280326207402
 20
-127.5868719841623
 10
593.4280326207402
 20
-127.5868719841623
 10
593.4280326207402
 20
-127.5868719841623
 10
594.3675101595678
 20
-127.5868719841623
 10
594.3675101595678
 20
-127.5868719841623
 97
        0
 97
        1
330
30D
 75
     2
 76
     1
 98
        1
 10
0.0
 20
0.0
450
        0
451
        0
460
0.0
461
0.0
452
        0
462
0.0
453
        0
470

  0
ENDBLK
  5
305
330
302
100
AcDbEntity
  8
0
100
AcDbBlockEnd
  0
BLOCK
  5
311
330
30F
100
AcDbEntity
  8
0
100
AcDbBlockBegin
  2
Block_22
 70
     0
 10
0.0
 20
0.0
 30
0.0
  3
Block_22
  1

  0
INSERT
  5
314
330
30F
100
AcDbEntity
  8
Livello 1
100
AcDbBlockReference
  2
Block_23
 10
0.0
 20
0.0
 30
0.0
  0
ENDBLK
  5
312
330
30F
100
AcDbEntity
  8
0
100
AcDbBlockEnd
  0
BLOCK
  5
315
330
313
100
AcDbEntity
  8
0
100
AcDbBlockBegin
  2
Block_23
 70
     0
 10
0.0
 20
0.0
 30
0.0
  3
Block_23
  1

  0
SPLINE
  5
317
330
313
100
AcDbEntity
  8
Livello 1
100
AcDbSpline
210
0.0
220
0.0
230
1.0
 70
    11
 71
     3
 72
    29
 73
    25
 74
     0
 42
0.000000001
 43
0.0000000001
 40
0.0
 40
0.0
 40
0.0
 40
0.0
 40
1.0
 40
1.0
 40
1.0
 40
2.0
 40
2.0
 40
2.0
 40
3.0
 40
3.0
 40
3.0
 40
4.0
 40
4.0
 40
4.0
 40
5.0
 40
5.0
 40
5.0
 40
6.0
 40
6.0
 40
6.0
 40
7.0
 40
7.0
 40
7.0
 40
8.0
 40
8.0
 40
8.0
 40
8.0
 10
561.3931232320476
 20
-175.1789713103719
 30
0.0
 10
561.3931232320476
 20
-175.1789713103719
 30
0.0
 10
561.3676295254569
 20
-175.1789713103719
 30
0.0
 10
561.3676295254569
 20
-175.1789713103719
 30
0.0
 10
561.3676295254569
 20
-175.1789713103719
 30
0.0
 10
559.9327472558501
 20
-175.9537732850046
 30
0.0
 10
559.9327472558501
 20
-175.9537732850046
 30
0.0
 10
559.9327472558501
 20
-175.9537732850046
 30
0.0
 10
559.7170842784735
 20
-175.1028347001479
 30
0.0
 10
559.7170842784735
 20
-175.1028347001479
 30
0.0
 10
559.7170842784735
 20
-175.1028347001479
 30
0.0
 10
561.5202472554533
 20
-174.1378634547294
 30
0.0
 10
561.5202472554533
 20
-174.1378634547294
 30
0.0
 10
561.5202472554533
 20
-174.1378634547294
 30
0.0
 10
562.4724716475761
 20
-174.1378634547294
 30
0.0
 10
562.4724716475761
 20
-174.1378634547294
 30
0.0
 10
562.4724716475761
 20
-174.1378634547294
 30
0.0
 10
562.4724716475761
 20
-182.391623218291
 30
0.0
 10
562.4724716475761
 20
-182.391623218291
 30
0.0
 10
562.4724716475761
 20
-182.391623218291
 30
0.0
 10
561.3931232320476
 20
-182.391623218291
 30
0.0
 10
561.3931232320476
 20
-182.391623218291
 30
0.0
 10
561.3931232320476
 20
-182.391623218291
 30
0.0
 10
561.3931232320476
 20
-175.1789713103719
 30
0.0
 10
561.3931232320476
 20
-175.1789713103719
 30
0.0
  0
HATCH
  5
318
330
313
100
AcDbEntity
  8
Livello 1
 62
   250
420
  1907995
440
 33554687
100
AcDbHatch
 10
0.0
 20
0.0
 30
0.0
210
0.0
220
0.0
230
1.0
  2
SOLID
 70
     1
 71
     1
 91
        1
 92
        1
 93
        1
 72
     4
 94
        3
 73
     0
 74
     0
 95
       29
 96
       25
 40
0.0
 40
0.0
 40
0.0
 40
0.0
 40
1.0
 40
1.0
 40
1.0
 40
2.0
 40
2.0
 40
2.0
 40
3.0
 40
3.0
 40
3.0
 40
4.0
 40
4.0
 40
4.0
 40
5.0
 40
5.0
 40
5.0
 40
6.0
 40
6.0
 40
6.0
 40
7.0
 40
7.0
 40
7.0
 40
8.0
 40
8.0
 40
8.0
 40
8.0
 10
561.3931232320476
 20
-175.1789713103719
 10
561.3931232320476
 20
-175.1789713103719
 10
561.3676295254569
 20
-175.1789713103719
 10
561.3676295254569
 20
-175.1789713103719
 10
561.3676295254569
 20
-175.1789713103719
 10
559.9327472558501
 20
-175.9537732850046
 10
559.9327472558501
 20
-175.9537732850046
 10
559.9327472558501
 20
-175.9537732850046
 10
559.7170842784735
 20
-175.1028347001479
 10
559.7170842784735
 20
-175.1028347001479
 10
559.7170842784735
 20
-175.1028347001479
 10
561.5202472554533
 20
-174.1378634547294
 10
561.5202472554533
 20
-174.1378634547294
 10
561.5202472554533
 20
-174.1378634547294
 10
562.4724716475761
 20
-174.1378634547294
 10
562.4724716475761
 20
-174.1378634547294
 10
562.4724716475761
 20
-174.1378634547294
 10
562.4724716475761
 20
-182.391623218291
 10
562.4724716475761
 20
-182.391623218291
 10
562.4724716475761
 20
-182.391623218291
 10
561.3931232320476
 20
-182.391623218291
 10
561.3931232320476
 20
-182.391623218291
 10
561.3931232320476
 20
-182.391623218291
 10
561.3931232320476
 20
-175.1789713103719
 10
561.3931232320476
 20
-175.1789713103719
 97
        0
 97
        1
330
317
 75
     2
 76
     1
 98
        1
 10
0.0
 20
0.0
450
        0
451
        0
460
0.0
461
0.0
452
        0
462
0.0
453
        0
470

  0
SPLINE
  5
319
330
313
100
AcDbEntity
  8
Livello 1
100
AcDbSpline
210
0.0
220
0.0
230
1.0
 70
    11
 71
     3
 72
    29
 73
    25
 74
     0
 42
0.000000001
 43
0.0000000001
 40
0.0
 40
0.0
 40
0.0
 40
0.0
 40
1.0
 40
1.0
 40
1.0
 40
2.0
 40
2.0
 40
2.0
 40
3.0
 40
3.0
 40
3.0
 40
4.0
 40
4.0
 40
4.0
 40
5.0
 40
5.0
 40
5.0
 40
6.0
 40
6.0
 40
6.0
 40
7.0
 40
7.0
 40
7.0
 40
8.0
 40
8.0
 40
8.0
 40
8.0
 10
570.8412976003452
 20
-174.1378634547294
 30
0.0
 10
570.8412976003452
 20
-174.1378634547294
 30
0.0
 10
570.8412976003452
 20
-174.8744248694758
 30
0.0
 10
570.8412976003452
 20
-174.8744248694758
 30
0.0
 10
570.8412976003452
 20
-174.8744248694758
 30
0.0
 10
567.2477184996811
 20
-182.391623218291
 30
0.0
 10
567.2477184996811
 20
-182.391623218291
 30
0.0
 10
567.2477184996811
 20
-182.391623218291
 30
0.0
 10
566.0922334739281
 20
-182.391623218291
 30
0.0
 10
566.0922334739281
 20
-182.391623218291
 30
0.0
 10
566.0922334739281
 20
-182.391623218291
 30
0.0
 10
569.6730657212969
 20
-175.0900878468525
 30
0.0
 10
569.6730657212969
 20
-175.0900878468525
 30
0.0
 10
569.6730657212969
 20
-175.0900878468525
 30
0.0
 10
569.6730657212969
 20
-175.0645941402616
 30
0.0
 10
569.6730657212969
 20
-175.0645941402616
 30
0.0
 10
569.6730657212969
 20
-175.0645941402616
 30
0.0
 10
565.6350693030357
 20
-175.0645941402616
 30
0.0
 10
565.6350693030357
 20
-175.0645941402616
 30
0.0
 10
565.6350693030357
 20
-175.0645941402616
 30
0.0
 10
565.6350693030357
 20
-174.1378634547294
 30
0.0
 10
565.6350693030357
 20
-174.1378634547294
 30
0.0
 10
565.6350693030357
 20
-174.1378634547294
 30
0.0
 10
570.8412976003452
 20
-174.1378634547294
 30
0.0
 10
570.8412976003452
 20
-174.1378634547294
 30
0.0
  0
HATCH
  5
31A
330
313
100
AcDbEntity
  8
Livello 1
 62
   250
420
  1907995
440
 33554687
100
AcDbHatch
 10
0.0
 20
0.0
 30
0.0
210
0.0
220
0.0
230
1.0
  2
SOLID
 70
     1
 71
     1
 91
        1
 92
        1
 93
        1
 72
     4
 94
        3
 73
     0
 74
     0
 95
       29
 96
       25
 40
0.0
 40
0.0
 40
0.0
 40
0.0
 40
1.0
 40
1.0
 40
1.0
 40
2.0
 40
2.0
 40
2.0
 40
3.0
 40
3.0
 40
3.0
 40
4.0
 40
4.0
 40
4.0
 40
5.0
 40
5.0
 40
5.0
 40
6.0
 40
6.0
 40
6.0
 40
7.0
 40
7.0
 40
7.0
 40
8.0
 40
8.0
 40
8.0
 40
8.0
 10
570.8412976003452
 20
-174.1378634547294
 10
570.8412976003452
 20
-174.1378634547294
 10
570.8412976003452
 20
-174.8744248694758
 10
570.8412976003452
 20
-174.8744248694758
 10
570.8412976003452
 20
-174.8744248694758
 10
567.2477184996811
 20
-182.391623218291
 10
567.2477184996811
 20
-182.391623218291
 10
567.2477184996811
 20
-182.391623218291
 10
566.0922334739281
 20
-182.391623218291
 10
566.0922334739281
 20
-182.391623218291
 10
566.0922334739281
 20
-182.391623218291
 10
569.6730657212969
 20
-175.0900878468525
 10
569.6730657212969
 20
-175.0900878468525
 10
569.6730657212969
 20
-175.0900878468525
 10
569.6730657212969
 20
-175.0645941402616
 10
569.6730657212969
 20
-175.0645941402616
 10
569.6730657212969
 20
-175.0645941402616
 10
565.6350693030357
 20
-175.0645941402616
 10
565.6350693030357
 20
-175.0645941402616
 10
565.6350693030357
 20
-175.0645941402616
 10
565.6350693030357
 20
-174.1378634547294
 10
565.6350693030357
 20
-174.1378634547294
 10
565.6350693030357
 20
-174.1378634547294
 10
570.8412976003452
 20
-174.1378634547294
 10
570.8412976003452
 20
-174.1378634547294
 97
        0
 97
        1
330
319
 75
     2
 76
     1
 98
        1
 10
0.0
 20
0.0
450
        0
451
        0
460
0.0
461
0.0
452
        0
462
0.0
453
        0
470

  0
SPLINE
  5
31B
330
313
100
AcDbEntity
  8
Livello 1
100
AcDbSpline
210
0.0
220
0.0
230
1.0
 70
     9
 71
     3
 72
    17
 73
    13
 74
     0
 42
0.000000001
 43
0.0000000001
 40
0.0
 40
0.0
 40
0.0
 40
0.0
 40
1.0
 40
1.0
 40
1.0
 40
2.0
 40
2.0
 40
2.0
 40
3.0
 40
3.0
 40
3.0
 40
4.0
 40
4.0
 40
4.0
 40
4.0
 10
571.6291909378219
 20
-183.9536295113033
 30
0.0
 10
571.9085881816757
 20
-183.2043212432614
 30
0.0
 10
572.2513751824578
 20
-181.8455755838789
 30
0.0
 10
572.391246059159
 20
-180.9188448983466
 30
0.0
 10
572.391246059159
 20
-180.9188448983466
 30
0.0
 10
573.6356145484314
 20
-180.791720874941
 30
0.0
 10
573.6356145484314
 20
-180.791720874941
 30
0.0
 10
573.3434704512823
 20
-181.8710692904697
 30
0.0
 10
572.7846759635747
 20
-183.2804578534854
 30
0.0
 10
572.4291421094967
 20
-183.8774929010791
 30
0.0
 10
572.4291421094967
 20
-183.8774929010791
 30
0.0
 10
571.6291909378219
 20
-183.9536295113033
 30
0.0
 10
571.6291909378219
 20
-183.9536295113033
 30
0.0
  0
HATCH
  5
31C
330
313
100
AcDbEntity
  8
Livello 1
 62
   250
420
  1907995
440
 33554687
100
AcDbHatch
 10
0.0
 20
0.0
 30
0.0
210
0.0
220
0.0
230
1.0
  2
SOLID
 70
     1
 71
     1
 91
        1
 92
        1
 93
        1
 72
     4
 94
        3
 73
     0
 74
     0
 95
       17
 96
       13
 40
0.0
 40
0.0
 40
0.0
 40
0.0
 40
1.0
 40
1.0
 40
1.0
 40
2.0
 40
2.0
 40
2.0
 40
3.0
 40
3.0
 40
3.0
 40
4.0
 40
4.0
 40
4.0
 40
4.0
 10
571.6291909378219
 20
-183.9536295113033
 10
571.9085881816757
 20
-183.2043212432614
 10
572.2513751824578
 20
-181.8455755838789
 10
572.391246059159
 20
-180.9188448983466
 10
572.391246059159
 20
-180.9188448983466
 10
573.6356145484314
 20
-180.791720874941
 10
573.6356145484314
 20
-180.791720874941
 10
573.3434704512823
 20
-181.8710692904697
 10
572.7846759635747
 20
-183.2804578534854
 10
572.4291421094967
 20
-183.8774929010791
 10
572.4291421094967
 20
-183.8774929010791
 10
571.6291909378219
 20
-183.9536295113033
 10
571.6291909378219
 20
-183.9536295113033
 97
        0
 97
        1
330
31B
 75
     2
 76
     1
 98
        1
 10
0.0
 20
0.0
450
        0
451
        0
460
0.0
461
0.0
452
        0
462
0.0
453
        0
470

  0
SPLINE
  5
31D
330
313
100
AcDbEntity
  8
Livello 1
100
AcDbSpline
210
0.0
220
0.0
230
1.0
 70
    11
 71
     3
 72
    50
 73
    46
 74
     0
 42
0.000000001
 43
0.0000000001
 40
0.0
 40
0.0
 40
0.0
 40
0.0
 40
1.0
 40
1.0
 40
1.0
 40
2.0
 40
2.0
 40
2.0
 40
3.0
 40
3.0
 40
3.0
 40
4.0
 40
4.0
 40
4.0
 40
5.0
 40
5.0
 40
5.0
 40
6.0
 40
6.0
 40
6.0
 40
7.0
 40
7.0
 40
7.0
 40
8.0
 40
8.0
 40
8.0
 40
9.0
 40
9.0
 40
9.0
 40
10.0
 40
10.0
 40
10.0
 40
11.0
 40
11.0
 40
11.0
 40
12.0
 40
12.0
 40
12.0
 40
13.0
 40
13.0
 40
13.0
 40
14.0
 40
14.0
 40
14.0
 40
15.0
 40
15.0
 40
15.0
 40
15.0
 10
579.553255063445
 20
-175.077340993557
 30
0.0
 10
579.553255063445
 20
-175.077340993557
 30
0.0
 10
576.4040932803782
 20
-175.077340993557
 30
0.0
 10
576.4040932803782
 20
-175.077340993557
 30
0.0
 10
576.4040932803782
 20
-175.077340993557
 30
0.0
 10
576.0864554766381
 20
-177.1981417742768
 30
0.0
 10
576.0864554766381
 20
-177.1981417742768
 30
0.0
 10
576.2769692569725
 20
-177.172648067686
 30
0.0
 10
576.4547361840112
 20
-177.1471543610952
 30
0.0
 10
576.7596271344558
 20
-177.1471543610952
 30
0.0
 10
577.3945582323873
 20
-177.1471543610952
 30
0.0
 10
578.0294893303191
 20
-177.2870252377963
 30
0.0
 10
578.5372964048447
 20
-177.5915716786924
 30
0.0
 10
579.1849743560717
 20
-177.9598523860656
 30
0.0
 10
579.7182751371884
 20
-178.6709200942212
 30
0.0
 10
579.7182751371884
 20
-179.7123724594122
 30
0.0
 10
579.7182751371884
 20
-181.3250216560576
 30
0.0
 10
578.4356660880298
 20
-182.5314940949921
 30
0.0
 10
576.6452499643456
 20
-182.5314940949921
 30
0.0
 10
575.7436684758556
 20
-182.5314940949921
 30
0.0
 10
574.9816133545183
 20
-182.2775905577292
 30
0.0
 10
574.5881834501028
 20
-182.0233425109178
 30
0.0
 10
574.5881834501028
 20
-182.0233425109178
 30
0.0
 10
574.8675806939567
 20
-181.1727484356095
 30
0.0
 10
574.8675806939567
 20
-181.1727484356095
 30
0.0
 10
575.2103676947391
 20
-181.3760090692393
 30
0.0
 10
575.8835393525568
 20
-181.6299126065022
 30
0.0
 10
576.6325031110502
 20
-181.6299126065022
 30
0.0
 10
577.6867023295367
 20
-181.6299126065022
 30
0.0
 10
578.5882838180265
 20
-180.9439940953889
 30
0.0
 10
578.5882838180265
 20
-179.8394964828179
 30
0.0
 10
578.575536964731
 20
-178.772550411036
 30
0.0
 10
577.8644692565754
 20
-178.0108397992473
 30
0.0
 10
576.2135795000436
 20
-178.0108397992473
 30
0.0
 10
575.7436684758556
 20
-178.0108397992473
 30
0.0
 10
575.3753877684824
 20
-178.0614827028805
 30
0.0
 10
575.0708413275863
 20
-178.0997232627667
 30
0.0
 10
575.0708413275863
 20
-178.0997232627667
 30
0.0
 10
575.6041421087031
 20
-174.1378634547294
 30
0.0
 10
575.6041421087031
 20
-174.1378634547294
 30
0.0
 10
575.6041421087031
 20
-174.1378634547294
 30
0.0
 10
579.553255063445
 20
-174.1378634547294
 30
0.0
 10
579.553255063445
 20
-174.1378634547294
 30
0.0
 10
579.553255063445
 20
-174.1378634547294
 30
0.0
 10
579.553255063445
 20
-175.077340993557
 30
0.0
 10
579.553255063445
 20
-175.077340993557
 30
0.0
  0
HATCH
  5
31E
330
313
100
AcDbEntity
  8
Livello 1
 62
   250
420
  1907995
440
 33554687
100
AcDbHatch
 10
0.0
 20
0.0
 30
0.0
210
0.0
220
0.0
230
1.0
  2
SOLID
 70
     1
 71
     1
 91
        1
 92
        1
 93
        1
 72
     4
 94
        3
 73
     0
 74
     0
 95
       50
 96
       46
 40
0.0
 40
0.0
 40
0.0
 40
0.0
 40
1.0
 40
1.0
 40
1.0
 40
2.0
 40
2.0
 40
2.0
 40
3.0
 40
3.0
 40
3.0
 40
4.0
 40
4.0
 40
4.0
 40
5.0
 40
5.0
 40
5.0
 40
6.0
 40
6.0
 40
6.0
 40
7.0
 40
7.0
 40
7.0
 40
8.0
 40
8.0
 40
8.0
 40
9.0
 40
9.0
 40
9.0
 40
10.0
 40
10.0
 40
10.0
 40
11.0
 40
11.0
 40
11.0
 40
12.0
 40
12.0
 40
12.0
 40
13.0
 40
13.0
 40
13.0
 40
14.0
 40
14.0
 40
14.0
 40
15.0
 40
15.0
 40
15.0
 40
15.0
 10
579.553255063445
 20
-175.077340993557
 10
579.553255063445
 20
-175.077340993557
 10
576.4040932803782
 20
-175.077340993557
 10
576.4040932803782
 20
-175.077340993557
 10
576.4040932803782
 20
-175.077340993557
 10
576.0864554766381
 20
-177.1981417742768
 10
576.0864554766381
 20
-177.1981417742768
 10
576.2769692569725
 20
-177.172648067686
 10
576.4547361840112
 20
-177.1471543610952
 10
576.7596271344558
 20
-177.1471543610952
 10
577.3945582323873
 20
-177.1471543610952
 10
578.0294893303191
 20
-177.2870252377963
 10
578.5372964048447
 20
-177.5915716786924
 10
579.1849743560717
 20
-177.9598523860656
 10
579.7182751371884
 20
-178.6709200942212
 10
579.7182751371884
 20
-179.7123724594122
 10
579.7182751371884
 20
-181.3250216560576
 10
578.4356660880298
 20
-182.5314940949921
 10
576.6452499643456
 20
-182.5314940949921
 10
575.7436684758556
 20
-182.5314940949921
 10
574.9816133545183
 20
-182.2775905577292
 10
574.5881834501028
 20
-182.0233425109178
 10
574.5881834501028
 20
-182.0233425109178
 10
574.8675806939567
 20
-181.1727484356095
 10
574.8675806939567
 20
-181.1727484356095
 10
575.2103676947391
 20
-181.3760090692393
 10
575.8835393525568
 20
-181.6299126065022
 10
576.6325031110502
 20
-181.6299126065022
 10
577.6867023295367
 20
-181.6299126065022
 10
578.5882838180265
 20
-180.9439940953889
 10
578.5882838180265
 20
-179.8394964828179
 10
578.575536964731
 20
-178.772550411036
 10
577.8644692565754
 20
-178.0108397992473
 10
576.2135795000436
 20
-178.0108397992473
 10
575.7436684758556
 20
-178.0108397992473
 10
575.3753877684824
 20
-178.0614827028805
 10
575.0708413275863
 20
-178.0997232627667
 10
575.0708413275863
 20
-178.0997232627667
 10
575.6041421087031
 20
-174.1378634547294
 10
575.6041421087031
 20
-174.1378634547294
 10
575.6041421087031
 20
-174.1378634547294
 10
579.553255063445
 20
-174.1378634547294
 10
579.553255063445
 20
-174.1378634547294
 10
579.553255063445
 20
-174.1378634547294
 10
579.553255063445
 20
-175.077340993557
 10
579.553255063445
 20
-175.077340993557
 97
        0
 97
        1
330
31D
 75
     2
 76
     1
 98
        1
 10
0.0
 20
0.0
450
        0
451
        0
460
0.0
461
0.0
452
        0
462
0.0
453
        0
470

  0
ENDBLK
  5
316
330
313
100
AcDbEntity
  8
0
100
AcDbBlockEnd
  0
ENDSEC
  0
SECTION
  2
ENTITIES
  0
HATCH
  5
A13
330
70
100
AcDbEntity
  8
Livello 3
440
 33554687
100
AcDbHatch
 10
0.0
 20
0.0
 30
0.0
210
0.0
220
0.0
230
1.0
  2
SOLID
 70
     1
 71
     0
 91
        1
 92
        1
 93
        1
 72
     4
 94
        3
 73
     0
 74
     0
 95
       29
 96
       25
 40
0.0
 40
0.0
 40
0.0
 40
0.0
 40
1.0
 40
1.0
 40
1.0
 40
2.0
 40
2.0
 40
2.0
 40
3.0
 40
3.0
 40
3.0
 40
4.0
 40
4.0
 40
4.0
 40
5.0
 40
5.0
 40
5.0
 40
6.0
 40
6.0
 40
6.0
 40
7.0
 40
7.0
 40
7.0
 40
8.0
 40
8.0
 40
8.0
 40
8.0
 10
264.6253135762829
 20
-106.2787348238072
 10
264.6253135762829
 20
-106.2787348238072
 10
264.6227642056238
 20
-106.2787348238072
 10
264.6227642056238
 20
-106.2787348238072
 10
264.6227642056238
 20
-106.2787348238072
 10
264.4792759786632
 20
-106.3561805703156
 10
264.4792759786632
 20
-106.3561805703156
 10
264.4792759786632
 20
-106.3561805703156
 10
264.4576924554481
 20
-106.27108671183
 10
264.4576924554481
 20
-106.27108671183
 10
264.4576924554481
 20
-106.27108671183
 10
264.638008753146
 20
-106.1745895872881
 10
264.638008753146
 20
-106.1745895872881
 10
264.638008753146
 20
-106.1745895872881
 10
264.7332484178358
 20
-106.1745895872881
 10
264.7332484178358
 20
-106.1745895872881
 10
264.7332484178358
 20
-106.1745895872881
 10
264.7332484178358
 20
-107.0000000145991
 10
264.7332484178358
 20
-107.0000000145991
 10
264.7332484178358
 20
-107.0000000145991
 10
264.6253135762829
 20
-107.0000000145991
 10
264.6253135762829
 20
-107.0000000145991
 10
264.6253135762829
 20
-107.0000000145991
 10
264.6253135762829
 20
-106.2787348238072
 10
264.6253135762829
 20
-106.2787348238072
 97
        0
 97
        0
 75
     2
 76
     1
 98
        1
 10
260.4689092261935
 20
-88.40854222844839
450
        0
451
        0
460
0.0
461
0.0
452
        0
462
0.0
453
        0
470

  0
HATCH
  5
A18
330
70
100
AcDbEntity
  8
Livello 3
440
 33554687
100
AcDbHatch
 10
0.0
 20
0.0
 30
0.0
210
0.0
220
0.0
230
1.0
  2
SOLID
 70
     1
 71
     0
 91
        1
 92
        1
 93
        1
 72
     4
 94
        3
 73
     0
 74
     0
 95
       29
 96
       25
 40
0.0
 40
0.0
 40
0.0
 40
0.0
 40
1.0
 40
1.0
 40
1.0
 40
2.0
 40
2.0
 40
2.0
 40
3.0
 40
3.0
 40
3.0
 40
4.0
 40
4.0
 40
4.0
 40
5.0
 40
5.0
 40
5.0
 40
6.0
 40
6.0
 40
6.0
 40
7.0
 40
7.0
 40
7.0
 40
8.0
 40
8.0
 40
8.0
 40
8.0
 10
269.6279711813691
 20
-103.3375534551849
 10
269.6279711813691
 20
-103.3375534551849
 10
269.6279711813691
 20
-103.340102825844
 10
269.6279711813691
 20
-103.340102825844
 10
269.6279711813691
 20
-103.340102825844
 10
269.7054513788323
 20
-103.4835910528046
 10
269.7054513788323
 20
-103.4835910528046
 10
269.7054513788323
 20
-103.4835910528046
 10
269.6203575203467
 20
-103.5051573505423
 10
269.6203575203467
 20
-103.5051573505423
 10
269.6203575203467
 20
-103.5051573505423
 10
269.5238603958048
 20
-103.3248410528443
 10
269.5238603958048
 20
-103.3248410528443
 10
269.5238603958048
 20
-103.3248410528443
 10
269.5238603958048
 20
-103.229618613632
 10
269.5238603958048
 20
-103.229618613632
 10
269.5238603958048
 20
-103.229618613632
 10
270.3492363721609
 20
-103.229618613632
 10
270.3492363721609
 20
-103.229618613632
 10
270.3492363721609
 20
-103.229618613632
 10
270.3492363721609
 20
-103.3375534551849
 10
270.3492363721609
 20
-103.3375534551849
 10
270.3492363721609
 20
-103.3375534551849
 10
269.6279711813691
 20
-103.3375534551849
 10
269.6279711813691
 20
-103.3375534551849
 97
        0
 97
        0
 75
     2
 76
     1
 98
        1
 10
260.4689092261935
 20
-88.40854222844839
450
        0
451
        0
460
0.0
461
0.0
452
        0
462
0.0
453
        0
470

  0
HATCH
  5
A1A
330
70
100
AcDbEntity
  8
Livello 3
440
 33554687
100
AcDbHatch
 10
0.0
 20
0.0
 30
0.0
210
0.0
220
0.0
230
1.0
  2
SOLID
 70
     1
 71
     0
 91
        1
 92
        1
 93
        1
 72
     4
 94
        3
 73
     0
 74
     0
 95
       29
 96
       25
 40
0.0
 40
0.0
 40
0.0
 40
0.0
 40
1.0
 40
1.0
 40
1.0
 40
2.0
 40
2.0
 40
2.0
 40
3.0
 40
3.0
 40
3.0
 40
4.0
 40
4.0
 40
4.0
 40
5.0
 40
5.0
 40
5.0
 40
6.0
 40
6.0
 40
6.0
 40
7.0
 40
7.0
 40
7.0
 40
8.0
 40
8.0
 40
8.0
 40
8.0
 10
269.6279711813691
 20
-102.6860514479693
 10
269.6279711813691
 20
-102.6860514479693
 10
269.6279711813691
 20
-102.6886008186284
 10
269.6279711813691
 20
-102.6886008186284
 10
269.6279711813691
 20
-102.6886008186284
 10
269.7054513788323
 20
-102.8321234965439
 10
269.7054513788323
 20
-102.8321234965439
 10
269.7054513788323
 20
-102.8321234965439
 10
269.6203575203467
 20
-102.8536897942815
 10
269.6203575203467
 20
-102.8536897942815
 10
269.6203575203467
 20
-102.8536897942815
 10
269.5238603958048
 20
-102.6733734965836
 10
269.5238603958048
 20
-102.6733734965836
 10
269.5238603958048
 20
-102.6733734965836
 10
269.5238603958048
 20
-102.5781510573712
 10
269.5238603958048
 20
-102.5781510573712
 10
269.5238603958048
 20
-102.5781510573712
 10
270.3492363721609
 20
-102.5781510573712
 10
270.3492363721609
 20
-102.5781510573712
 10
270.3492363721609
 20
-102.5781510573712
 10
270.3492363721609
 20
-102.6860514479693
 10
270.3492363721609
 20
-102.6860514479693
 10
270.3492363721609
 20
-102.6860514479693
 10
269.6279711813691
 20
-102.6860514479693
 10
269.6279711813691
 20
-102.6860514479693
 97
        0
 97
        0
 75
     2
 76
     1
 98
        1
 10
260.4689092261935
 20
-88.40854222844839
450
        0
451
        0
460
0.0
461
0.0
452
        0
462
0.0
453
        0
470

  0
HATCH
  5
A1C
330
70
100
AcDbEntity
  8
Livello 3
440
 33554687
100
AcDbHatch
 10
0.0
 20
0.0
 30
0.0
210
0.0
220
0.0
230
1.0
  2
SOLID
 70
     1
 71
     0
 91
        1
 92
        1
 93
        1
 72
     4
 94
        3
 73
     0
 74
     0
 95
       29
 96
       25
 40
0.0
 40
0.0
 40
0.0
 40
0.0
 40
1.0
 40
1.0
 40
1.0
 40
2.0
 40
2.0
 40
2.0
 40
3.0
 40
3.0
 40
3.0
 40
4.0
 40
4.0
 40
4.0
 40
5.0
 40
5.0
 40
5.0
 40
6.0
 40
6.0
 40
6.0
 40
7.0
 40
7.0
 40
7.0
 40
8.0
 40
8.0
 40
8.0
 40
8.0
 10
269.5975165372794
 20
-96.50475777546949
 10
269.5975165372794
 20
-96.50475777546949
 10
269.5975165372794
 20
-96.50730714612857
 10
269.5975165372794
 20
-96.50730714612857
 10
269.5975165372794
 20
-96.50730714612857
 10
269.6749795092653
 20
-96.65079537308923
 10
269.6749795092653
 20
-96.65079537308923
 10
269.6749795092653
 20
-96.65079537308923
 10
269.5898856507796
 20
-96.67237889630431
 10
269.5898856507796
 20
-96.67237889630431
 10
269.5898856507796
 20
-96.67237889630431
 10
269.4933885262378
 20
-96.49206259860633
 10
269.4933885262378
 20
-96.49206259860633
 10
269.4933885262378
 20
-96.49206259860633
 10
269.4933885262378
 20
-96.39682293391661
 10
269.4933885262378
 20
-96.39682293391661
 10
269.4933885262378
 20
-96.39682293391661
 10
270.3187817280713
 20
-96.39682293391661
 10
270.3187817280713
 20
-96.39682293391661
 10
270.3187817280713
 20
-96.39682293391661
 10
270.3187817280713
 20
-96.50475777546949
 10
270.3187817280713
 20
-96.50475777546949
 10
270.3187817280713
 20
-96.50475777546949
 10
269.5975165372794
 20
-96.50475777546949
 10
269.5975165372794
 20
-96.50475777546949
 97
        0
 97
        0
 75
     2
 76
     1
 98
        1
 10
260.4689092261935
 20
-88.40854222844839
450
        0
451
        0
460
0.0
461
0.0
452
        0
462
0.0
453
        0
470

  0
LINE
  5
C70
330
70
100
AcDbEntity
  8
Livello 3
100
AcDbLine
 10
276.6800074123034
 20
-95.83803297832124
 30
0.0
 11
276.8632084354074
 21
-95.83803297832124
 31
0.0
  0
LINE
  5
C71
330
70
100
AcDbEntity
  8
Livello 3
100
AcDbLine
 10
278.8017258026183
 20
-95.83803297832124
 30
0.0
 11
278.9849272369609
 21
-95.83803297832124
 31
0.0
  0
LINE
  5
C72
330
70
100
AcDbEntity
  8
Livello 3
100
AcDbLine
 10
280.9234477207109
 20
-95.83803297832124
 30
0.0
 11
281.1066487438149
 21
-95.83803297832124
 31
0.0
  0
LINE
  5
C73
330
70
100
AcDbEntity
  8
Livello 3
100
AcDbLine
 10
276.0000000407631
 20
-95.81396295054954
 30
0.0
 11
281.7866530695938
 21
-95.81396295054954
 31
0.0
  0
LINE
  5
C74
330
70
100
AcDbEntity
  8
Livello 3
100
AcDbLine
 10
276.0000000407631
 20
-95.76572411722823
 30
0.0
 11
281.7866530695938
 21
-95.76572411722823
 31
0.0
  0
LINE
  5
C75
330
70
100
AcDbEntity
  8
Livello 3
100
AcDbLine
 10
276.1447200648487
 20
-95.62109581170881
 30
0.0
 11
281.641932563492
 21
-95.62109581170881
 31
0.0
  0
LINE
  5
C76
330
70
100
AcDbEntity
  8
Livello 3
100
AcDbLine
 10
276.8514044912641
 20
-95.8419347005425
 30
0.0
 11
276.8580966855378
 21
-95.83803297832124
 31
0.0
  0
LINE
  5
C77
330
70
100
AcDbEntity
  8
Livello 3
100
AcDbLine
 10
276.8508471023894
 20
-95.84222045054245
 30
0.0
 11
276.8514044912641
 21
-95.8419347005425
 31
0.0
  0
LINE
  5
C78
330
70
100
AcDbEntity
  8
Livello 3
100
AcDbLine
 10
276.6922770231015
 20
-95.85365045053961
 30
0.0
 11
276.6801947375371
 21
-95.8606248672045
 31
0.0
  0
LINE
  5
C79
330
70
100
AcDbEntity
  8
Livello 3
100
AcDbLine
 10
276.8508471023894
 20
-95.86638220053643
 30
0.0
 11
276.8629297409701
 21
-95.85931958942705
 31
0.0
  0
LINE
  5
C7A
330
70
100
AcDbEntity
  8
Livello 3
100
AcDbLine
 10
278.8098149968565
 20
-95.83803297832124
 30
0.0
 11
278.8019127748358
 21
-95.84257675609791
 31
0.0
  0
LINE
  5
C7B
330
70
100
AcDbEntity
  8
Livello 3
100
AcDbLine
 10
278.8139954134165
 20
-95.85969353387138
 30
0.0
 11
278.8019127748358
 21
-95.86666442275857
 31
0.0
  0
LINE
  5
C7C
330
70
100
AcDbEntity
  8
Livello 3
100
AcDbLine
 10
278.9726572149242
 20
-95.84826353387427
 30
0.0
 11
278.9847398535048
 21
-95.84128911720934
 31
0.0
  0
LINE
  5
C7D
330
70
100
AcDbEntity
  8
Livello 3
100
AcDbLine
 10
280.9358090537289
 20
-95.84156781165374
 30
0.0
 11
280.9237264151483
 21
-95.84863042276305
 31
0.0
  0
LINE
  5
C7E
330
70
100
AcDbEntity
  8
Livello 3
100
AcDbLine
 10
281.0943791330168
 20
-95.85429956165054
 30
0.0
 11
281.1064622364305
 21
-95.84733220054117
 31
0.0
  0
LINE
  5
C7F
330
70
100
AcDbEntity
  8
Livello 3
100
AcDbLine
 10
276.1447200648487
 20
-95.62109581170881
 30
0.0
 11
276.0000000407631
 21
-95.76572411722823
 31
0.0
  0
LINE
  5
C80
330
70
100
AcDbEntity
  8
Livello 3
100
AcDbLine
 10
276.6801947375371
 20
-95.8606248672045
 30
0.0
 11
276.6800074123034
 21
-95.86090003387107
 31
0.0
  0
LINE
  5
C81
330
70
100
AcDbEntity
  8
Livello 3
100
AcDbLine
 10
276.8629297409701
 20
-95.85931958942705
 30
0.0
 11
276.8632084354074
 21
-95.85904089498271
 31
0.0
  0
LINE
  5
C82
330
70
100
AcDbEntity
  8
Livello 3
100
AcDbLine
 10
276.6801947375371
 20
-95.84733220054117
 30
0.0
 11
276.6917196342269
 21
-95.85402086720614
 31
0.0
  0
LINE
  5
C83
330
70
100
AcDbEntity
  8
Livello 3
100
AcDbLine
 10
276.8629297409701
 20
-95.84863042276305
 30
0.0
 11
276.8514044912641
 21
-95.8419347005425
 31
0.0
  0
LINE
  5
C84
330
70
100
AcDbEntity
  8
Livello 3
100
AcDbLine
 10
278.8019127748358
 20
-95.85327650609523
 30
0.0
 11
278.8134380245418
 21
-95.85997222831577
 31
0.0
  0
LINE
  5
C85
330
70
100
AcDbEntity
  8
Livello 3
100
AcDbLine
 10
276.8801241294203
 20
-95.81396295054954
 30
0.0
 11
276.8632084354074
 21
-95.83803297832124
 31
0.0
  0
LINE
  5
C86
330
70
100
AcDbEntity
  8
Livello 3
100
AcDbLine
 10
278.8019127748358
 20
-95.84257675609791
 30
0.0
 11
278.8017258026183
 21
-95.84286603387562
 31
0.0
  0
LINE
  5
C87
330
70
100
AcDbEntity
  8
Livello 3
100
AcDbLine
 10
278.8019127748358
 20
-95.86666442275857
 30
0.0
 11
278.8017258026183
 21
-95.86694311720291
 31
0.0
  0
LINE
  5
C88
330
70
100
AcDbEntity
  8
Livello 3
100
AcDbLine
 10
278.9849272369609
 20
-95.84101042276495
 30
0.0
 11
278.9847398535048
 21
-95.84128911720934
 31
0.0
  0
LINE
  5
C89
330
70
100
AcDbEntity
  8
Livello 3
100
AcDbLine
 10
278.9847398535048
 20
-95.86535914498112
 30
0.0
 11
278.9849272369609
 21
-95.86508397831453
 31
0.0
  0
LINE
  5
C8A
330
70
100
AcDbEntity
  8
Livello 3
100
AcDbLine
 10
278.9847398535048
 20
-95.85467350609487
 30
0.0
 11
278.973122881579
 21
-95.8479777838743
 31
0.0
  0
LINE
  5
C8B
330
70
100
AcDbEntity
  8
Livello 3
100
AcDbLine
 10
280.9237264151483
 20
-95.85931958942705
 30
0.0
 11
280.9352516648543
 21
-95.86601178386983
 31
0.0
  0
LINE
  5
C8C
330
70
100
AcDbEntity
  8
Livello 3
100
AcDbLine
 10
280.9285594705805
 20
-95.83803297832124
 30
0.0
 11
280.9352516648543
 21
-95.8419347005425
 31
0.0
  0
LINE
  5
C8D
330
70
100
AcDbEntity
  8
Livello 3
100
AcDbLine
 10
281.1064622364305
 20
-95.8606248672045
 30
0.0
 11
281.0949365218915
 21
-95.85402086720614
 31
0.0
  0
LINE
  5
C8E
330
70
100
AcDbEntity
  8
Livello 3
100
AcDbLine
 10
278.9849272369609
 20
-95.83803297832124
 30
0.0
 11
279.0018425197352
 21
-95.81396295054954
 31
0.0
  0
LINE
  5
C8F
330
70
100
AcDbEntity
  8
Livello 3
100
AcDbLine
 10
280.9237264151483
 20
-95.84863042276305
 30
0.0
 11
280.9234477207109
 21
-95.84890911720744
 31
0.0
  0
LINE
  5
C90
330
70
100
AcDbEntity
  8
Livello 3
100
AcDbLine
 10
281.1066487438149
 20
-95.84705350609677
 30
0.0
 11
281.1064622364305
 21
-95.84733220054117
 31
0.0
  0
LINE
  5
C91
330
70
100
AcDbEntity
  8
Livello 3
100
AcDbLine
 10
276.6800074123034
 20
-95.84705350609677
 30
0.0
 11
276.6801947375371
 21
-95.84733220054117
 31
0.0
  0
LINE
  5
C92
330
70
100
AcDbEntity
  8
Livello 3
100
AcDbLine
 10
276.8629297409701
 20
-95.84863042276305
 30
0.0
 11
276.8632084354074
 21
-95.84890911720744
 31
0.0
  0
LINE
  5
C93
330
70
100
AcDbEntity
  8
Livello 3
100
AcDbLine
 10
276.0000000407631
 20
-95.81396295054954
 30
0.0
 11
276.0000000407631
 21
-95.76572411722823
 31
0.0
  0
LINE
  5
C94
330
70
100
AcDbEntity
  8
Livello 3
100
AcDbLine
 10
281.1235644378278
 20
-95.81396295054954
 30
0.0
 11
281.1066487438149
 21
-95.83803297832124
 31
0.0
  0
LINE
  5
C95
330
70
100
AcDbEntity
  8
Livello 3
100
AcDbLine
 10
278.8017258026183
 20
-95.85299781165089
 30
0.0
 11
278.8019127748358
 21
-95.85327650609523
 31
0.0
  0
LINE
  5
C96
330
70
100
AcDbEntity
  8
Livello 3
100
AcDbLine
 10
278.9847398535048
 20
-95.85467350609487
 30
0.0
 11
278.9849272369609
 21
-95.85495220053926
 31
0.0
  0
LINE
  5
C97
330
70
100
AcDbEntity
  8
Livello 3
100
AcDbLine
 10
276.6800074123034
 20
-95.83803297832124
 30
0.0
 11
276.6630917182906
 21
-95.81396295054954
 31
0.0
  0
LINE
  5
C98
330
70
100
AcDbEntity
  8
Livello 3
100
AcDbLine
 10
276.6800074123034
 20
-95.84705350609677
 30
0.0
 11
276.6800074123034
 21
-95.83803297832124
 31
0.0
  0
LINE
  5
C99
330
70
100
AcDbEntity
  8
Livello 3
100
AcDbLine
 10
276.8632084354074
 20
-95.85904089498271
 30
0.0
 11
276.8632084354074
 21
-95.84890911720744
 31
0.0
  0
LINE
  5
C9A
330
70
100
AcDbEntity
  8
Livello 3
100
AcDbLine
 10
276.8632084354074
 20
-95.85904089498271
 30
0.0
 11
276.8632084354074
 21
-95.84890911720744
 31
0.0
  0
LINE
  5
C9B
330
70
100
AcDbEntity
  8
Livello 3
100
AcDbLine
 10
281.641932563492
 20
-95.62109581170881
 30
0.0
 11
281.7866530695938
 21
-95.76572411722823
 31
0.0
  0
LINE
  5
C9C
330
70
100
AcDbEntity
  8
Livello 3
100
AcDbLine
 10
280.9237264151483
 20
-95.85931958942705
 30
0.0
 11
280.9234477207109
 21
-95.85904089498271
 31
0.0
  0
LINE
  5
C9D
330
70
100
AcDbEntity
  8
Livello 3
100
AcDbLine
 10
281.1064622364305
 20
-95.8606248672045
 30
0.0
 11
281.1066487438149
 21
-95.86090003387107
 31
0.0
  0
LINE
  5
C9E
330
70
100
AcDbEntity
  8
Livello 3
100
AcDbLine
 10
278.8017258026183
 20
-95.83803297832124
 30
0.0
 11
278.7848101086055
 21
-95.81396295054954
 31
0.0
  0
LINE
  5
C9F
330
70
100
AcDbEntity
  8
Livello 3
100
AcDbLine
 10
280.9234477207109
 20
-95.83803297832124
 30
0.0
 11
280.9065320266981
 21
-95.81396295054954
 31
0.0
  0
LINE
  5
CA0
330
70
100
AcDbEntity
  8
Livello 3
100
AcDbLine
 10
278.8017258026183
 20
-95.85299781165089
 30
0.0
 11
278.8017258026183
 21
-95.84286603387562
 31
0.0
  0
LINE
  5
CA1
330
70
100
AcDbEntity
  8
Livello 3
100
AcDbLine
 10
278.9849272369609
 20
-95.86508397831453
 30
0.0
 11
278.9849272369609
 21
-95.85495220053926
 31
0.0
  0
LINE
  5
CA2
330
70
100
AcDbEntity
  8
Livello 3
100
AcDbLine
 10
278.9849272369609
 20
-95.84101042276495
 30
0.0
 11
278.9849272369609
 21
-95.83803297832124
 31
0.0
  0
LINE
  5
CA3
330
70
100
AcDbEntity
  8
Livello 3
100
AcDbLine
 10
280.9234477207109
 20
-95.85904089498271
 30
0.0
 11
280.9234477207109
 21
-95.84890911720744
 31
0.0
  0
LINE
  5
CA4
330
70
100
AcDbEntity
  8
Livello 3
100
AcDbLine
 10
280.9234477207109
 20
-95.85904089498271
 30
0.0
 11
280.9234477207109
 21
-95.84890911720744
 31
0.0
  0
LINE
  5
CA5
330
70
100
AcDbEntity
  8
Livello 3
100
AcDbLine
 10
281.1066487438149
 20
-95.84705350609677
 30
0.0
 11
281.1066487438149
 21
-95.83803297832124
 31
0.0
  0
LINE
  5
CA6
330
70
100
AcDbEntity
  8
Livello 3
100
AcDbLine
 10
281.7866530695938
 20
-95.81396295054954
 30
0.0
 11
281.7866530695938
 21
-95.76572411722823
 31
0.0
  0
LINE
  5
CA7
330
70
100
AcDbEntity
  8
Livello 3
100
AcDbLine
 10
280.9358090537289
 20
-95.86573661720326
 30
0.0
 11
280.9555152198928
 21
-95.86322131164829
 31
0.0
  0
LINE
  5
CA8
330
70
100
AcDbEntity
  8
Livello 3
100
AcDbLine
 10
280.9555152198928
 20
-95.86322131164829
 30
0.0
 11
280.9753131082766
 21
-95.86201481164859
 31
0.0
  0
LINE
  5
CA9
330
70
100
AcDbEntity
  8
Livello 3
100
AcDbLine
 10
280.9753131082766
 20
-95.86201481164859
 30
0.0
 11
281.0150927920089
 21
-95.85997222831577
 31
0.0
  0
LINE
  5
CAA
330
70
100
AcDbEntity
  8
Livello 3
100
AcDbLine
 10
281.0150927920089
 20
-95.85997222831577
 30
0.0
 11
281.0547833562491
 21
-95.85802136720515
 31
0.0
  0
LINE
  5
CAB
330
70
100
AcDbEntity
  8
Livello 3
100
AcDbLine
 10
281.0547833562491
 20
-95.85802136720515
 30
0.0
 11
281.0746729668529
 21
-95.85671608942769
 31
0.0
  0
LINE
  5
CAC
330
70
100
AcDbEntity
  8
Livello 3
100
AcDbLine
 10
281.0746729668529
 20
-95.85671608942769
 30
0.0
 11
281.0943791330168
 21
-95.85429956165054
 31
0.0
  0
LINE
  5
CAD
330
70
100
AcDbEntity
  8
Livello 3
100
AcDbLine
 10
281.1066487438149
 20
-95.86090003387107
 30
0.0
 11
281.1066487438149
 21
-95.86098822831552
 31
0.0
  0
LINE
  5
CAE
330
70
100
AcDbEntity
  8
Livello 3
100
AcDbLine
 10
281.1020908550423
 20
-95.83803297832124
 30
0.0
 11
281.0128627739853
 21
-95.84296481165338
 31
0.0
  0
LINE
  5
CAF
330
70
100
AcDbEntity
  8
Livello 3
100
AcDbLine
 10
281.0128627739853
 20
-95.84296481165338
 30
0.0
 11
280.9681552473481
 21
-95.84491567276401
 31
0.0
  0
LINE
  5
CB0
330
70
100
AcDbEntity
  8
Livello 3
100
AcDbLine
 10
280.9681552473481
 20
-95.84491567276401
 30
0.0
 11
280.9458455812507
 21
-95.84612217276371
 31
0.0
  0
LINE
  5
CB1
330
70
100
AcDbEntity
  8
Livello 3
100
AcDbLine
 10
280.9458455812507
 20
-95.84612217276371
 30
0.0
 11
280.9237264151483
 21
-95.84863042276305
 31
0.0
  0
LINE
  5
CB2
330
70
100
AcDbEntity
  8
Livello 3
100
AcDbLine
 10
280.9234477207109
 20
-95.85904089498271
 30
0.0
 11
280.9234477207109
 21
-95.85904089498271
 31
0.0
  0
LINE
  5
CB3
330
70
100
AcDbEntity
  8
Livello 3
100
AcDbLine
 10
280.9358090537289
 20
-95.84156781165374
 30
0.0
 11
280.9542134699261
 21
-95.83924300609877
 31
0.0
  0
LINE
  5
CB4
330
70
100
AcDbEntity
  8
Livello 3
100
AcDbLine
 10
280.9542134699261
 20
-95.83924300609877
 30
0.0
 11
280.972801330563
 21
-95.83803297832124
 31
0.0
  0
LINE
  5
CB5
330
70
100
AcDbEntity
  8
Livello 3
100
AcDbLine
 10
276.8351379083457
 20
-95.83803297832124
 30
0.0
 11
276.7574315492171
 21
-95.84156781165374
 31
0.0
  0
LINE
  5
CB6
330
70
100
AcDbEntity
  8
Livello 3
100
AcDbLine
 10
276.7574315492171
 20
-95.84156781165374
 30
0.0
 11
276.7185801335416
 21
-95.84332464498658
 31
0.0
  0
LINE
  5
CB7
330
70
100
AcDbEntity
  8
Livello 3
100
AcDbLine
 10
276.7185801335416
 20
-95.84332464498658
 30
0.0
 11
276.6991561895927
 21
-95.84445000609747
 31
0.0
  0
SPLINE
  5
CB8
330
70
100
AcDbEntity
  8
Livello 3
100
AcDbSpline
210
0.0
220
0.0
230
1.0
 70
     8
 71
     3
 72
     8
 73
     4
 74
     0
 42
0.000000001
 43
0.0000000001
 40
0.0
 40
0.0
 40
0.0
 40
0.0
 40
1.0
 40
1.0
 40
1.0
 40
1.0
 10
279.2376991526069
 20
-99.21826850525402
 30
0.0
 10
279.2376991526069
 20
-98.95197419976501
 30
0.0
 10
279.0218732414464
 20
-98.73605656093006
 30
0.0
 10
278.755483692687
 20
-98.73605656093006
 30
0.0
  0
SPLINE
  5
CB9
330
70
100
AcDbEntity
  8
Livello 3
100
AcDbSpline
210
0.0
220
0.0
230
1.0
 70
     8
 71
     3
 72
     8
 73
     4
 74
     0
 42
0.000000001
 43
0.0000000001
 40
0.0
 40
0.0
 40
0.0
 40
0.0
 40
1.0
 40
1.0
 40
1.0
 40
1.0
 10
278.755483692687
 20
-98.73605656093006
 30
0.0
 10
278.4891893939252
 20
-98.73605656093006
 30
0.0
 10
278.2732717605448
 20
-98.95197419976501
 30
0.0
 10
278.2732717605448
 20
-99.21826850525402
 30
0.0
  0
SPLINE
  5
CBA
330
70
100
AcDbEntity
  8
Livello 3
100
AcDbSpline
210
0.0
220
0.0
230
1.0
 70
     8
 71
     3
 72
     8
 73
     4
 74
     0
 42
0.000000001
 43
0.0000000001
 40
0.0
 40
0.0
 40
0.0
 40
0.0
 40
1.0
 40
1.0
 40
1.0
 40
1.0
 10
278.1286469864567
 20
-99.94158994951764
 30
0.0
 10
278.2085793733064
 20
-99.94158994951764
 30
0.0
 10
278.2732717605448
 20
-99.87680583842273
 30
0.0
 10
278.2732717605448
 20
-99.79696517177599
 30
0.0
  0
SPLINE
  5
CBB
330
70
100
AcDbEntity
  8
Livello 3
100
AcDbSpline
210
0.0
220
0.0
230
1.0
 70
     8
 71
     3
 72
     8
 73
     4
 74
     0
 42
0.000000001
 43
0.0000000001
 40
0.0
 40
0.0
 40
0.0
 40
0.0
 40
1.0
 40
1.0
 40
1.0
 40
1.0
 10
279.2376991526069
 20
-99.79696517177599
 30
0.0
 10
279.2376991526069
 20
-99.87680583842273
 30
0.0
 10
279.3024832620652
 20
-99.94158994951764
 30
0.0
 10
279.3824156489149
 20
-99.94158994951764
 30
0.0
  0
SPLINE
  5
CBC
330
70
100
AcDbEntity
  8
Livello 3
100
AcDbSpline
210
0.0
220
0.0
230
1.0
 70
     8
 71
     3
 72
     8
 73
     4
 74
     0
 42
0.000000001
 43
0.0000000001
 40
0.0
 40
0.0
 40
0.0
 40
0.0
 40
1.0
 40
1.0
 40
1.0
 40
1.0
 10
276.1950508691202
 20
-97.72339383896106
 30
0.0
 10
276.1819451750101
 20
-97.72339383896106
 30
0.0
 10
276.1712560086161
 20
-97.7338007834029
 30
0.0
 10
276.1709773141788
 20
-97.74690647784403
 30
0.0
  0
SPLINE
  5
CBD
330
70
100
AcDbEntity
  8
Livello 3
100
AcDbSpline
210
0.0
220
0.0
230
1.0
 70
     8
 71
     3
 72
     8
 73
     4
 74
     0
 42
0.000000001
 43
0.0000000001
 40
0.0
 40
0.0
 40
0.0
 40
0.0
 40
1.0
 40
1.0
 40
1.0
 40
1.0
 10
281.6014548423025
 20
-97.74690647784403
 30
0.0
 10
281.6010808978675
 20
-97.7338007834029
 30
0.0
 10
281.5903917314736
 20
-97.72339383896106
 30
0.0
 10
281.5773812873611
 20
-97.72339383896106
 30
0.0
  0
LINE
  5
CBE
330
70
100
AcDbEntity
  8
Livello 3
100
AcDbLine
 10
276.6991561895927
 20
-95.84445000609747
 30
0.0
 11
276.6800074123034
 21
-95.84705350609677
 31
0.0
  0
LINE
  5
CBF
330
70
100
AcDbEntity
  8
Livello 3
100
AcDbLine
 10
276.8632084354074
 20
-95.84890911720744
 30
0.0
 11
276.8632084354074
 21
-95.84890911720744
 31
0.0
  0
LINE
  5
CC0
330
70
100
AcDbEntity
  8
Livello 3
100
AcDbLine
 10
276.8632084354074
 20
-95.84890911720744
 30
0.0
 11
276.8519622374942
 21
-95.85076825609588
 31
0.0
  0
LINE
  5
CC1
330
70
100
AcDbEntity
  8
Livello 3
100
AcDbLine
 10
276.8519622374942
 20
-95.85076825609588
 30
0.0
 11
276.8405283526527
 21
-95.85160433942899
 31
0.0
  0
LINE
  5
CC2
330
70
100
AcDbEntity
  8
Livello 3
100
AcDbLine
 10
276.8405283526527
 20
-95.85160433942899
 30
0.0
 11
276.8175695754607
 21
-95.85290961720644
 31
0.0
  0
LINE
  5
CC3
330
70
100
AcDbEntity
  8
Livello 3
100
AcDbLine
 10
276.8175695754607
 20
-95.85290961720644
 30
0.0
 11
276.7717472710741
 21
-95.85486047831707
 31
0.0
  0
LINE
  5
CC4
330
70
100
AcDbEntity
  8
Livello 3
100
AcDbLine
 10
276.7717472710741
 20
-95.85486047831707
 30
0.0
 11
276.7259214389099
 21
-95.85690306164989
 31
0.0
  0
LINE
  5
CC5
330
70
100
AcDbEntity
  8
Livello 3
100
AcDbLine
 10
276.7259214389099
 20
-95.85690306164989
 30
0.0
 11
276.7029661894955
 21
-95.8581095616496
 31
0.0
  0
LINE
  5
CC6
330
70
100
AcDbEntity
  8
Livello 3
100
AcDbLine
 10
276.7029661894955
 20
-95.8581095616496
 30
0.0
 11
276.6801947375371
 21
-95.8606248672045
 31
0.0
  0
LINE
  5
CC7
330
70
100
AcDbEntity
  8
Livello 3
100
AcDbLine
 10
276.6922770231015
 20
-95.85365045053961
 30
0.0
 11
276.7119831892655
 21
-95.85123392276241
 31
0.0
  0
LINE
  5
CC8
330
70
100
AcDbEntity
  8
Livello 3
100
AcDbLine
 10
276.7119831892655
 20
-95.85123392276241
 30
0.0
 11
276.7318727998691
 21
-95.84992864498493
 31
0.0
  0
LINE
  5
CC9
330
70
100
AcDbEntity
  8
Livello 3
100
AcDbLine
 10
276.7318727998691
 20
-95.84992864498493
 30
0.0
 11
276.7715602988566
 21
-95.8479777838743
 31
0.0
  0
LINE
  5
CCA
330
70
100
AcDbEntity
  8
Livello 3
100
AcDbLine
 10
276.7715602988566
 20
-95.8479777838743
 30
0.0
 11
276.8113430478417
 21
-95.8459352005415
 31
0.0
  0
LINE
  5
CCB
330
70
100
AcDbEntity
  8
Livello 3
100
AcDbLine
 10
276.8113430478417
 20
-95.8459352005415
 30
0.0
 11
276.8311409362255
 21
-95.84472870054179
 31
0.0
  0
LINE
  5
CCC
330
70
100
AcDbEntity
  8
Livello 3
100
AcDbLine
 10
276.8311409362255
 20
-95.84472870054179
 30
0.0
 11
276.8508471023894
 21
-95.84222045054245
 31
0.0
  0
LINE
  5
CCD
330
70
100
AcDbEntity
  8
Livello 3
100
AcDbLine
 10
278.8932822169492
 20
-95.86090003387107
 30
0.0
 11
278.8475516347826
 21
-95.86294261720395
 31
0.0
  0
LINE
  5
CCE
330
70
100
AcDbEntity
  8
Livello 3
100
AcDbLine
 10
278.8475516347826
 20
-95.86294261720395
 30
0.0
 11
278.8246845798104
 21
-95.86415264498141
 31
0.0
  0
LINE
  5
CCF
330
70
100
AcDbEntity
  8
Livello 3
100
AcDbLine
 10
278.8246845798104
 20
-95.86415264498141
 30
0.0
 11
278.8019127748358
 21
-95.86666442275857
 31
0.0
  0
LINE
  5
CD0
330
70
100
AcDbEntity
  8
Livello 3
100
AcDbLine
 10
278.8647460232328
 20
-95.83803297832124
 30
0.0
 11
278.8332359129256
 21
-95.83960636720979
 31
0.0
  0
LINE
  5
CD1
330
70
100
AcDbEntity
  8
Livello 3
100
AcDbLine
 10
278.8332359129256
 20
-95.83960636720979
 30
0.0
 11
278.8019127748358
 21
-95.84257675609791
 31
0.0
  0
LINE
  5
CD2
330
70
100
AcDbEntity
  8
Livello 3
100
AcDbLine
 10
278.8139954134165
 20
-95.85969353387138
 30
0.0
 11
278.8337015795804
 21
-95.85718175609427
 31
0.0
  0
ELLIPSE
  5
CD3
330
70
100
AcDbEntity
  8
Livello 3
100
AcDbEllipse
 10
278.9340167044696
 20
-90.62193043101419
 30
0.0
 11
-2.01711926593741
 21
2.017119265937411
 31
0.0
210
0.0
220
0.0
230
1.0
 40
0.99999969083165
 41
0.0
 42
6.283185307179585
  0
ELLIPSE
  5
CD4
330
70
100
AcDbEntity
  8
Livello 3
100
AcDbEllipse
 10
278.9340165839655
 20
-90.62193043101419
 30
0.0
 11
-1.615553438107354
 21
0.3896666804095717
 31
0.0
210
0.0
220
0.0
230
1.0
 40
0.9999988358803967
 41
0.0
 42
6.283185307179585
  0
ELLIPSE
  5
CD5
330
70
100
AcDbEntity
  8
Livello 3
100
AcDbEllipse
 10
279.4244367728428
 20
-91.31950350722869
 30
0.0
 11
-0.0354312955981959
 21
0.3136659383019822
 31
0.0
210
0.0
220
0.0
230
1.0
 40
0.999992461512153
 41
0.0
 42
6.283185307179585
  0
ELLIPSE
  5
CD6
330
70
100
AcDbEntity
  8
Livello 3
100
AcDbEllipse
 10
278.1211241979857
 20
-90.3721487713544
 30
0.0
 11
-0.0881373036797377
 21
0.303104442076891
 31
0.0
210
0.0
220
0.0
230
1.0
 40
0.9999977899884743
 41
0.0
 42
6.283185307179585
  0
ELLIPSE
  5
CD7
330
70
100
AcDbEntity
  8
Livello 3
100
AcDbEllipse
 10
278.9340157020212
 20
-89.74976234095445
 30
0.0
 11
-0.0354312972333119
 21
0.3136659381172828
 31
0.0
210
0.0
220
0.0
230
1.0
 40
0.999992461512128
 41
0.0
 42
6.283185307179585
  0
LINE
  5
CD8
330
70
100
AcDbEntity
  8
Livello 3
100
AcDbLine
 10
278.8337015795804
 20
-95.85718175609427
 30
0.0
 11
278.853591190184
 21
-95.85597172831676
 31
0.0
  0
LINE
  5
CD9
330
70
100
AcDbEntity
  8
Livello 3
100
AcDbLine
 10
278.853591190184
 20
-95.85597172831676
 30
0.0
 11
278.8932822169492
 21
-95.85402086720614
 31
0.0
  0
LINE
  5
CDA
330
70
100
AcDbEntity
  8
Livello 3
100
AcDbLine
 10
278.8932822169492
 20
-95.85402086720614
 30
0.0
 11
278.9330614381566
 21
-95.85197828387334
 31
0.0
  0
LINE
  5
CDB
330
70
100
AcDbEntity
  8
Livello 3
100
AcDbLine
 10
278.9330614381566
 20
-95.85197828387334
 30
0.0
 11
278.952954576538
 21
-95.85076825609588
 31
0.0
  0
LINE
  5
CDC
330
70
100
AcDbEntity
  8
Livello 3
100
AcDbLine
 10
278.952954576538
 20
-95.85076825609588
 30
0.0
 11
278.9726572149242
 21
-95.84826353387427
 31
0.0
  0
LINE
  5
CDD
330
70
100
AcDbEntity
  8
Livello 3
100
AcDbLine
 10
276.1709773141788
 20
-97.74690647784403
 30
0.0
 11
276.1134427878689
 21
-99.94158994951764
 31
0.0
  0
LINE
  5
CDE
330
70
100
AcDbEntity
  8
Livello 3
100
AcDbLine
 10
276.1134427878689
 20
-99.94158994951764
 30
0.0
 11
276.1709773141788
 21
-97.74690647784403
 31
0.0
  0
LINE
  5
CDF
330
70
100
AcDbEntity
  8
Livello 3
100
AcDbLine
 10
276.4303042520073
 20
-95.86694311720291
 30
0.0
 11
276.4124536969071
 21
-96.37843561707509
 31
0.0
  0
LINE
  5
CE0
330
70
100
AcDbEntity
  8
Livello 3
100
AcDbLine
 10
276.4671095566238
 20
-96.03564497827186
 30
0.0
 11
276.4088306692217
 21
-97.72339383896106
 31
0.0
  0
LINE
  5
CE1
330
70
100
AcDbEntity
  8
Livello 3
100
AcDbLine
 10
276.7265282166722
 20
-96.03564497827186
 30
0.0
 11
276.6739184680144
 21
-97.72339383896106
 31
0.0
  0
LINE
  5
CE2
330
70
100
AcDbEntity
  8
Livello 3
100
AcDbLine
 10
281.6588941186148
 20
-99.94158994951764
 30
0.0
 11
279.3824156489149
 21
-99.94158994951764
 31
0.0
  0
LINE
  5
CE3
330
70
100
AcDbEntity
  8
Livello 3
100
AcDbLine
 10
278.1286469864567
 20
-99.94158994951764
 30
0.0
 11
276.1134427878689
 21
-99.94158994951764
 31
0.0
  0
LINE
  5
CE4
330
70
100
AcDbEntity
  8
Livello 3
100
AcDbLine
 10
277.1973066213283
 20
-96.03564497827186
 30
0.0
 11
277.1556647335018
 21
-97.72339383896106
 31
0.0
  0
LINE
  5
CE5
330
70
100
AcDbEntity
  8
Livello 3
100
AcDbLine
 10
277.8335342717634
 20
-96.03564497827186
 30
0.0
 11
277.8067654946686
 21
-97.72339383896106
 31
0.0
  0
LINE
  5
CE6
330
70
100
AcDbEntity
  8
Livello 3
100
AcDbLine
 10
278.2732717605448
 20
-99.79696517177599
 30
0.0
 11
278.2732717605448
 21
-99.21826850525402
 31
0.0
  0
LINE
  5
CE7
330
70
100
AcDbEntity
  8
Livello 3
100
AcDbLine
 10
278.5726566140179
 20
-96.03564497827186
 30
0.0
 11
278.5634526420305
 21
-97.72339383896106
 31
0.0
  0
LINE
  5
CE8
330
70
100
AcDbEntity
  8
Livello 3
100
AcDbLine
 10
281.6014548423025
 20
-97.74690647784403
 30
0.0
 11
276.1709773141788
 21
-97.74690647784403
 31
0.0
  0
LINE
  5
CE9
330
70
100
AcDbEntity
  8
Livello 3
100
AcDbLine
 10
281.5773812873611
 20
-97.72339383896106
 30
0.0
 11
276.1950508691202
 21
-97.72339383896106
 31
0.0
  0
LINE
  5
CEA
330
70
100
AcDbEntity
  8
Livello 3
100
AcDbLine
 10
279.2089764035716
 20
-97.72339383896106
 30
0.0
 11
279.1996802924657
 21
-96.03564497827186
 31
0.0
  0
LINE
  5
CEB
330
70
100
AcDbEntity
  8
Livello 3
100
AcDbLine
 10
279.2376991526069
 20
-99.21826850525402
 30
0.0
 11
279.2376991526069
 21
-99.79696517177599
 31
0.0
  0
LINE
  5
CEC
330
70
100
AcDbEntity
  8
Livello 3
100
AcDbLine
 10
279.9656666618126
 20
-97.72339383896106
 30
0.0
 11
279.9388943569401
 21
-96.03564497827186
 31
0.0
  0
LINE
  5
CED
330
70
100
AcDbEntity
  8
Livello 3
100
AcDbLine
 10
280.6167638952018
 20
-97.72339383896106
 30
0.0
 11
280.575033812933
 21
-96.03564497827186
 31
0.0
  0
LINE
  5
CEE
330
70
100
AcDbEntity
  8
Livello 3
100
AcDbLine
 10
281.3280026826121
 20
-96.03564497827186
 30
0.0
 11
281.3053230697141
 21
-96.03564497827186
 31
0.0
  0
LINE
  5
CEF
330
70
100
AcDbEntity
  8
Livello 3
100
AcDbLine
 10
281.111619382577
 20
-96.03564497827186
 30
0.0
 11
281.0459039398091
 21
-96.03564497827186
 31
0.0
  0
LINE
  5
CF0
330
70
100
AcDbEntity
  8
Livello 3
100
AcDbLine
 10
280.6773675881001
 20
-96.03564497827186
 30
0.0
 11
280.575033812933
 21
-96.03564497827186
 31
0.0
  0
LINE
  5
CF1
330
70
100
AcDbEntity
  8
Livello 3
100
AcDbLine
 10
280.0678169925399
 20
-96.03564497827186
 30
0.0
 11
279.9388943569401
 21
-96.03564497827186
 31
0.0
  0
LINE
  5
CF2
330
70
100
AcDbEntity
  8
Livello 3
100
AcDbLine
 10
279.3426364277075
 20
-96.03564497827186
 30
0.0
 11
279.1996802924657
 21
-96.03564497827186
 31
0.0
  0
LINE
  5
CF3
330
70
100
AcDbEntity
  8
Livello 3
100
AcDbLine
 10
278.5726566140179
 20
-96.03564497827186
 30
0.0
 11
278.4297961259885
 21
-96.03564497827186
 31
0.0
  0
LINE
  5
CF4
330
70
100
AcDbEntity
  8
Livello 3
100
AcDbLine
 10
277.8335342717634
 20
-96.03564497827186
 30
0.0
 11
277.7046151639413
 21
-96.03564497827186
 31
0.0
  0
LINE
  5
CF5
330
70
100
AcDbEntity
  8
Livello 3
100
AcDbLine
 10
277.1973066213283
 20
-96.03564497827186
 30
0.0
 11
277.0950680961588
 21
-96.03564497827186
 31
0.0
  0
LINE
  5
CF6
330
70
100
AcDbEntity
  8
Livello 3
100
AcDbLine
 10
276.7265282166722
 20
-96.03564497827186
 30
0.0
 11
276.6608127739043
 21
-96.03564497827186
 31
0.0
  0
LINE
  5
CF7
330
70
100
AcDbEntity
  8
Livello 3
100
AcDbLine
 10
276.4671095566238
 20
-96.03564497827186
 30
0.0
 11
276.4444333487071
 21
-96.03564497827186
 31
0.0
  0
LINE
  5
CF8
330
70
100
AcDbEntity
  8
Livello 3
100
AcDbLine
 10
276.4303042520073
 20
-95.86694311720291
 30
0.0
 11
281.3421314322517
 21
-95.86694311720291
 31
0.0
  0
LINE
  5
CF9
330
70
100
AcDbEntity
  8
Livello 3
100
AcDbLine
 10
281.098421966247
 20
-97.72339383896106
 30
0.0
 11
281.0459039398091
 21
-96.03564497827186
 31
0.0
  0
LINE
  5
CFA
330
70
100
AcDbEntity
  8
Livello 3
100
AcDbLine
 10
281.3421314322517
 20
-95.86694311720291
 30
0.0
 11
281.3599749317964
 21
-96.37843561707509
 31
0.0
  0
LINE
  5
CFB
330
70
100
AcDbEntity
  8
Livello 3
100
AcDbLine
 10
281.3636019585885
 20
-97.72339383896106
 30
0.0
 11
281.3053230697141
 21
-96.03564497827186
 31
0.0
  0
LINE
  5
CFC
330
70
100
AcDbEntity
  8
Livello 3
100
AcDbLine
 10
281.6014548423025
 20
-97.74690647784403
 30
0.0
 11
281.6588941186148
 21
-99.94158994951764
 31
0.0
  0
LINE
  5
CFD
330
70
100
AcDbEntity
  8
Livello 3
100
AcDbLine
 10
281.6588941186148
 20
-99.94158994951764
 30
0.0
 11
281.6014548423025
 21
-97.74690647784403
 31
0.0
  0
LINE
  5
CFE
330
70
100
AcDbEntity
  8
Livello 3
100
AcDbLine
 10
276.4444333487071
 20
-96.03564497827186
 30
0.0
 11
276.2867907278908
 21
-97.72339383896106
 31
0.0
  0
LINE
  5
CFF
330
70
100
AcDbEntity
  8
Livello 3
100
AcDbLine
 10
276.6608127739043
 20
-96.03564497827186
 30
0.0
 11
276.5186009997546
 21
-97.72339383896106
 31
0.0
  0
LINE
  5
D00
330
70
100
AcDbEntity
  8
Livello 3
100
AcDbLine
 10
277.0950680961588
 20
-96.03564497827186
 30
0.0
 11
276.9822250712599
 21
-97.72339383896106
 31
0.0
  0
LINE
  5
D01
330
70
100
AcDbEntity
  8
Livello 3
100
AcDbLine
 10
277.7046151639413
 20
-96.03564497827186
 30
0.0
 11
277.6321158046798
 21
-97.72339383896106
 31
0.0
  0
LINE
  5
D02
330
70
100
AcDbEntity
  8
Livello 3
100
AcDbLine
 10
278.4297961259885
 20
-96.03564497827186
 30
0.0
 11
278.4048860905203
 21
-97.72339383896106
 31
0.0
  0
LINE
  5
D03
330
70
100
AcDbEntity
  8
Livello 3
100
AcDbLine
 10
279.3675460659609
 20
-97.72339383896106
 30
0.0
 11
279.3426364277075
 21
-96.03564497827186
 31
0.0
  0
LINE
  5
D04
330
70
100
AcDbEntity
  8
Livello 3
100
AcDbLine
 10
280.1402211018038
 20
-97.72339383896106
 30
0.0
 11
280.0678169925399
 21
-96.03564497827186
 31
0.0
  0
LINE
  5
D05
330
70
100
AcDbEntity
  8
Livello 3
100
AcDbLine
 10
280.7902035574437
 20
-97.72339383896106
 30
0.0
 11
280.6773675881001
 21
-96.03564497827186
 31
0.0
  0
LINE
  5
D06
330
70
100
AcDbEntity
  8
Livello 3
100
AcDbLine
 10
281.2538276289489
 20
-97.72339383896106
 30
0.0
 11
281.111619382577
 21
-96.03564497827186
 31
0.0
  0
LINE
  5
D07
330
70
100
AcDbEntity
  8
Livello 3
100
AcDbLine
 10
281.4856414285904
 20
-97.72339383896106
 30
0.0
 11
281.3280026826121
 21
-96.03564497827186
 31
0.0
  0
LINE
  5
D08
330
70
100
AcDbEntity
  8
Livello 3
100
AcDbLine
 10
276.5843164425226
 20
-97.72339383896106
 30
0.0
 11
276.7265282166722
 21
-96.03564497827186
 31
0.0
  0
LINE
  5
D09
330
70
100
AcDbEntity
  8
Livello 3
100
AcDbLine
 10
277.0844706519848
 20
-97.72339383896106
 30
0.0
 11
277.1973066213283
 21
-96.03564497827186
 31
0.0
  0
LINE
  5
D0A
330
70
100
AcDbEntity
  8
Livello 3
100
AcDbLine
 10
277.7610352928224
 20
-97.72339383896106
 30
0.0
 11
277.8335342717634
 21
-96.03564497827186
 31
0.0
  0
LINE
  5
D0B
330
70
100
AcDbEntity
  8
Livello 3
100
AcDbLine
 10
278.5477469757646
 20
-97.72339383896106
 30
0.0
 11
278.5726566140179
 21
-96.03564497827186
 31
0.0
  0
LINE
  5
D0C
330
70
100
AcDbEntity
  8
Livello 3
100
AcDbLine
 10
279.1996802924657
 20
-96.03564497827186
 30
0.0
 11
279.2246851807167
 21
-97.72339383896106
 31
0.0
  0
LINE
  5
D0D
330
70
100
AcDbEntity
  8
Livello 3
100
AcDbLine
 10
279.9388943569401
 20
-96.03564497827186
 30
0.0
 11
280.0113937162016
 21
-97.72339383896106
 31
0.0
  0
LINE
  5
D0E
330
70
100
AcDbEntity
  8
Livello 3
100
AcDbLine
 10
280.575033812933
 20
-96.03564497827186
 30
0.0
 11
280.6879650322742
 21
-97.72339383896106
 31
0.0
  0
LINE
  5
D0F
330
70
100
AcDbEntity
  8
Livello 3
100
AcDbLine
 10
281.0459039398091
 20
-96.03564497827186
 30
0.0
 11
281.1881157139587
 21
-97.72339383896106
 31
0.0
  0
LINE
  5
D10
330
70
100
AcDbEntity
  8
Livello 3
100
AcDbLine
 10
281.3053230697141
 20
-96.03564497827186
 30
0.0
 11
281.4629613458357
 21
-97.72339383896106
 31
0.0
  0
LINE
  5
D11
330
70
100
AcDbEntity
  8
Livello 3
100
AcDbLine
 10
276.3094672828678
 20
-97.72339383896106
 30
0.0
 11
276.4671095566238
 21
-96.03564497827186
 31
0.0
  0
SPLINE
  5
D12
330
70
100
AcDbEntity
  8
Livello 3
100
AcDbSpline
210
0.0
220
0.0
230
1.0
 70
     8
 71
     3
 72
     8
 73
     4
 74
     0
 42
0.000000001
 43
0.0000000001
 40
0.0
 40
0.0
 40
0.0
 40
0.0
 40
1.0
 40
1.0
 40
1.0
 40
1.0
 10
280.0713306591169
 20
-90.53635800742446
 30
0.0
 10
279.9806425144898
 20
-90.68524786849835
 30
0.0
 10
279.7864238052744
 20
-90.73242484070879
 30
0.0
 10
279.6375374757395
 20
-90.64173272962033
 30
0.0
  0
SPLINE
  5
D13
330
70
100
AcDbEntity
  8
Livello 3
100
AcDbSpline
210
0.0
220
0.0
230
1.0
 70
     8
 71
     3
 72
     8
 73
     4
 74
     0
 42
0.000000001
 43
0.0000000001
 40
1.0
 40
1.0
 40
1.0
 40
1.0
 40
2.0
 40
2.0
 40
2.0
 40
2.0
 10
279.6375374757395
 20
-90.64173272962033
 30
0.0
 10
279.4886476184268
 20
-90.55104414630969
 30
0.0
 10
279.4414706474082
 20
-90.35682586858047
 30
0.0
 10
279.5321592284279
 20
-90.20793953528436
 30
0.0
  0
SPLINE
  5
D14
330
70
100
AcDbEntity
  8
Livello 3
100
AcDbSpline
210
0.0
220
0.0
230
1.0
 70
     8
 71
     3
 72
     8
 73
     4
 74
     0
 42
0.000000001
 43
0.0000000001
 40
2.0
 40
2.0
 40
2.0
 40
2.0
 40
3.0
 40
3.0
 40
3.0
 40
3.0
 10
279.5321592284279
 20
-90.20793953528436
 30
0.0
 10
279.6228513372252
 20
-90.05904967421045
 30
0.0
 10
279.8170696100481
 20
-90.01187270200002
 30
0.0
 10
279.9659559395831
 20
-90.10256481308848
 30
0.0
  0
SPLINE
  5
D15
330
70
100
AcDbEntity
  8
Livello 3
100
AcDbSpline
210
0.0
220
0.0
230
1.0
 70
     8
 71
     3
 72
     8
 73
     4
 74
     0
 42
0.000000001
 43
0.0000000001
 40
3.0
 40
3.0
 40
3.0
 40
3.0
 40
4.0
 40
4.0
 40
4.0
 40
4.0
 10
279.9659559395831
 20
-90.10256481308848
 30
0.0
 10
280.1148457968957
 20
-90.19325339639914
 30
0.0
 10
280.1620227679143
 20
-90.38747167412836
 30
0.0
 10
280.0713306591169
 20
-90.53635800742446
 30
0.0
  0
SPLINE
  5
D16
330
70
100
AcDbEntity
  8
Livello 3
100
AcDbSpline
210
0.0
220
0.0
230
1.0
 70
     8
 71
     3
 72
     8
 73
     4
 74
     0
 42
0.000000001
 43
0.0000000001
 40
0.0
 40
0.0
 40
0.0
 40
0.0
 40
1.0
 40
1.0
 40
1.0
 40
1.0
 10
278.688865138831
 20
-91.48371450718761
 30
0.0
 10
278.5981730300337
 20
-91.63260084048372
 30
0.0
 10
278.4039582849885
 20
-91.67978134047194
 30
0.0
 10
278.2550684276758
 20
-91.58908922938351
 30
0.0
  0
SPLINE
  5
D17
330
70
100
AcDbEntity
  8
Livello 3
100
AcDbSpline
210
0.0
220
0.0
230
1.0
 70
     8
 71
     3
 72
     8
 73
     4
 74
     0
 42
0.000000001
 43
0.0000000001
 40
1.0
 40
1.0
 40
1.0
 40
1.0
 40
2.0
 40
2.0
 40
2.0
 40
2.0
 10
278.2550684276758
 20
-91.58908922938351
 30
0.0
 10
278.106182098141
 20
-91.4983971182951
 30
0.0
 10
278.0590051271223
 20
-91.30418236834364
 30
0.0
 10
278.149693708142
 20
-91.15529250726977
 30
0.0
  0
SPLINE
  5
D18
330
70
100
AcDbEntity
  8
Livello 3
100
AcDbSpline
210
0.0
220
0.0
230
1.0
 70
     8
 71
     3
 72
     8
 73
     4
 74
     0
 42
0.000000001
 43
0.0000000001
 40
2.0
 40
2.0
 40
2.0
 40
2.0
 40
3.0
 40
3.0
 40
3.0
 40
3.0
 10
278.149693708142
 20
-91.15529250726977
 30
0.0
 10
278.2403858169394
 20
-91.00640617397365
 30
0.0
 10
278.4346005619845
 20
-90.95922567398543
 30
0.0
 10
278.5834904192971
 20
-91.04991778507384
 30
0.0
  0
SPLINE
  5
D19
330
70
100
AcDbEntity
  8
Livello 3
100
AcDbSpline
210
0.0
220
0.0
230
1.0
 70
     8
 71
     3
 72
     8
 73
     4
 74
     0
 42
0.000000001
 43
0.0000000001
 40
3.0
 40
3.0
 40
3.0
 40
3.0
 40
4.0
 40
4.0
 40
4.0
 40
4.0
 10
278.5834904192971
 20
-91.04991778507384
 30
0.0
 10
278.7323767488321
 20
-91.14060989616225
 30
0.0
 10
278.7795572476284
 20
-91.33482464611374
 30
0.0
 10
278.688865138831
 20
-91.48371450718761
 30
0.0
  0
SPLINE
  5
D1A
330
70
100
AcDbEntity
  8
Livello 3
100
AcDbSpline
210
0.0
220
0.0
230
1.0
 70
     8
 71
     3
 72
     8
 73
     4
 74
     0
 42
0.000000001
 43
0.0000000001
 40
0.0
 40
0.0
 40
0.0
 40
0.0
 40
1.0
 40
1.0
 40
1.0
 40
1.0
 10
279.213382181005
 20
-90.79592131291514
 30
0.0
 10
279.1226900722076
 20
-90.94480764621124
 30
0.0
 10
278.9284753271625
 20
-90.99198814619947
 30
0.0
 10
278.7795854698499
 20
-90.90129603511099
 30
0.0
  0
SPLINE
  5
D1B
330
70
100
AcDbEntity
  8
Livello 3
100
AcDbSpline
210
0.0
220
0.0
230
1.0
 70
     8
 71
     3
 72
     8
 73
     4
 74
     0
 42
0.000000001
 43
0.0000000001
 40
1.0
 40
1.0
 40
1.0
 40
1.0
 40
2.0
 40
2.0
 40
2.0
 40
2.0
 10
278.7795854698499
 20
-90.90129603511099
 30
0.0
 10
278.6306991403149
 20
-90.81060392402255
 30
0.0
 10
278.5835186415186
 20
-90.61638917407114
 30
0.0
 10
278.674210750316
 20
-90.46749931299721
 30
0.0
  0
SPLINE
  5
D1C
330
70
100
AcDbEntity
  8
Livello 3
100
AcDbSpline
210
0.0
220
0.0
230
1.0
 70
     8
 71
     3
 72
     8
 73
     4
 74
     0
 42
0.000000001
 43
0.0000000001
 40
2.0
 40
2.0
 40
2.0
 40
2.0
 40
3.0
 40
3.0
 40
3.0
 40
3.0
 10
278.674210750316
 20
-90.46749931299721
 30
0.0
 10
278.7649028591133
 20
-90.31861297970115
 30
0.0
 10
278.9591176041585
 20
-90.27143247971293
 30
0.0
 10
279.1080074614711
 20
-90.36212459080138
 30
0.0
  0
SPLINE
  5
D1D
330
70
100
AcDbEntity
  8
Livello 3
100
AcDbSpline
210
0.0
220
0.0
230
1.0
 70
     8
 71
     3
 72
     8
 73
     4
 74
     0
 42
0.000000001
 43
0.0000000001
 40
3.0
 40
3.0
 40
3.0
 40
3.0
 40
4.0
 40
4.0
 40
4.0
 40
4.0
 10
279.1080074614711
 20
-90.36212459080138
 30
0.0
 10
279.2568937910061
 20
-90.45281670188979
 30
0.0
 10
279.3040707620247
 20
-90.64703145184124
 30
0.0
 10
279.213382181005
 20
-90.79592131291514
 30
0.0
  0
HATCH
  5
D1E
330
70
100
AcDbEntity
  8
Livello 3
440
 33554687
100
AcDbHatch
 10
0.0
 20
0.0
 30
0.0
210
0.0
220
0.0
230
1.0
  2
SOLID
 70
     1
 71
     0
 91
        2
 92
        1
 93
        1
 72
     4
 94
        3
 73
     0
 74
     0
 95
       20
 96
       16
 40
0.0
 40
0.0
 40
0.0
 40
0.0
 40
1.0
 40
1.0
 40
1.0
 40
2.0
 40
2.0
 40
2.0
 40
3.0
 40
3.0
 40
3.0
 40
4.0
 40
4.0
 40
4.0
 40
5.0
 40
5.0
 40
5.0
 40
5.0
 10
282.8134125463279
 20
-98.31133625982101
 10
282.9162486465626
 20
-98.31133625982101
 10
282.9886301027078
 20
-98.24911783535739
 10
282.9886301027078
 20
-98.1525862598607
 10
282.9886301027078
 20
-98.07768988401136
 10
282.9518020319704
 20
-98.01926106458152
 10
282.9022960098474
 20
-97.99004665486661
 10
282.8921329781659
 20
-97.98370767917374
 10
282.8794205758253
 20
-97.97991807413996
 10
282.8616438831214
 20
-97.97991807413996
 10
282.7207050268199
 20
-97.97991807413996
 10
282.612770185267
 20
-98.03197346692209
 10
282.612770185267
 20
-98.14879665482692
 10
282.612770185267
 20
-98.24401909403922
 10
282.6965893584231
 20
-98.31133625982101
 10
282.8134125463279
 20
-98.31133625982101
 97
        0
 97
        0
 92
        1
 93
        1
 72
     4
 94
        3
 73
     0
 74
     0
 95
       41
 96
       37
 40
0.0
 40
0.0
 40
0.0
 40
0.0
 40
1.0
 40
1.0
 40
1.0
 40
2.0
 40
2.0
 40
2.0
 40
3.0
 40
3.0
 40
3.0
 40
4.0
 40
4.0
 40
4.0
 40
5.0
 40
5.0
 40
5.0
 40
6.0
 40
6.0
 40
6.0
 40
7.0
 40
7.0
 40
7.0
 40
8.0
 40
8.0
 40
8.0
 40
9.0
 40
9.0
 40
9.0
 40
10.0
 40
10.0
 40
10.0
 40
11.0
 40
11.0
 40
11.0
 40
12.0
 40
12.0
 40
12.0
 40
12.0
 10
283.2883189589696
 20
-98.35198838654696
 10
283.2908683296287
 20
-98.32783826719534
 10
283.2883189589696
 20
-98.29989854280997
 10
283.284494902981
 20
-98.26179578674311
 10
283.275606556629
 20
-98.19702799162042
 10
283.2489415175732
 20
-98.13611870344118
 10
283.2044997858135
 20
-98.08912760102238
 10
283.1549937636905
 20
-98.03448838662632
 10
283.0826123075453
 20
-97.99514539618478
 10
282.984840497674
 20
-97.97991807413996
 10
282.984840497674
 20
-97.97991807413996
 10
282.984840497674
 20
-97.98370767917374
 10
282.984840497674
 20
-97.98370767917374
 10
283.0406854954899
 20
-98.029424096263
 10
283.0737239611934
 20
-98.09546657671525
 10
283.0737239611934
 20
-98.17801106454183
 10
283.0737239611934
 20
-98.3265635818658
 10
282.9619650636519
 20
-98.42182047203296
 10
282.8210262073503
 20
-98.42182047203296
 10
282.6648255780491
 20
-98.42182047203296
 10
282.5276763267813
 20
-98.30878688916191
 10
282.5276763267813
 20
-98.13990830847497
 10
282.5276763267813
 20
-97.97102972778802
 10
282.6648255780491
 20
-97.86688449126891
 10
282.8756309707915
 20
-97.86688449126891
 10
283.0572219538191
 20
-97.86688449126891
 10
283.1842081734054
 20
-97.92782823040299
 10
283.2629286052434
 20
-98.00913248385489
 10
283.3251470297069
 20
-98.07259114269319
 10
283.3632497857738
 20
-98.16023437183794
 10
283.3734128174553
 20
-98.24911783535739
 10
283.3797517931482
 20
-98.28976996208332
 10
283.3810264784777
 20
-98.3253233474911
 10
283.3797517931482
 20
-98.35198838654696
 10
283.3797517931482
 20
-98.35198838654696
 10
283.2883189589696
 20
-98.35198838654696
 10
283.2883189589696
 20
-98.35198838654696
 97
        0
 97
        0
 75
     2
 76
     1
 98
        1
 10
263.1820526879545
 20
-83.41288303003867
450
        0
451
        0
460
0.0
461
0.0
452
        0
462
0.0
453
        0
470

  0
LINE
  5
D1F
330
70
100
AcDbEntity
  8
Livello 3
100
AcDbLine
 10
276.0000000407631
 20
-100.8283459886477
 30
0.0
 11
281.6014548423025
 21
-100.8283459886477
 31
0.0
  0
LINE
  5
D20
330
70
100
AcDbEntity
  8
Livello 3
100
AcDbLine
 10
282.2555712017047
 20
-95.62109581170881
 30
0.0
 11
282.2555712017047
 21
-99.98926963006125
 31
0.0
  0
LINE
  5
D21
330
70
100
AcDbEntity
  8
Livello 3
100
AcDbLine
 10
282.2555712017047
 20
-87.49443460540723
 30
0.0
 11
282.2555712017047
 21
-93.34945710162861
 31
0.0
  0
HATCH
  5
D22
330
70
100
AcDbEntity
  8
Livello 3
440
 33554687
100
AcDbHatch
 10
0.0
 20
0.0
 30
0.0
210
0.0
220
0.0
230
1.0
  2
SOLID
 70
     1
 71
     0
 91
        1
 92
        1
 93
        1
 72
     4
 94
        3
 73
     0
 74
     0
 95
       29
 96
       25
 40
0.0
 40
0.0
 40
0.0
 40
0.0
 40
1.0
 40
1.0
 40
1.0
 40
2.0
 40
2.0
 40
2.0
 40
3.0
 40
3.0
 40
3.0
 40
4.0
 40
4.0
 40
4.0
 40
5.0
 40
5.0
 40
5.0
 40
6.0
 40
6.0
 40
6.0
 40
7.0
 40
7.0
 40
7.0
 40
8.0
 40
8.0
 40
8.0
 40
8.0
 10
278.1580205661549
 20
-101.2787348050861
 10
278.1580205661549
 20
-101.2787348050861
 10
278.1554711954959
 20
-101.2787348050861
 10
278.1554711954959
 20
-101.2787348050861
 10
278.1554711954959
 20
-101.2787348050861
 10
278.0119829685352
 20
-101.3561805515945
 10
278.0119829685352
 20
-101.3561805515945
 10
278.0119829685352
 20
-101.3561805515945
 10
277.9903994453201
 20
-101.2710866931088
 10
277.9903994453201
 20
-101.2710866931088
 10
277.9903994453201
 20
-101.2710866931088
 10
278.1706985175407
 20
-101.174589568567
 10
278.1706985175407
 20
-101.174589568567
 10
278.1706985175407
 20
-101.174589568567
 10
278.2659554077079
 20
-101.174589568567
 10
278.2659554077079
 20
-101.174589568567
 10
278.2659554077079
 20
-101.174589568567
 10
278.2659554077079
 20
-101.999999995878
 10
278.2659554077079
 20
-101.999999995878
 10
278.2659554077079
 20
-101.999999995878
 10
278.1580205661549
 20
-101.999999995878
 10
278.1580205661549
 20
-101.999999995878
 10
278.1580205661549
 20
-101.999999995878
 10
278.1580205661549
 20
-101.2787348050861
 10
278.1580205661549
 20
-101.2787348050861
 97
        0
 97
        0
 75
     2
 76
     1
 98
        1
 10
263.1820526879545
 20
-83.41288303003867
450
        0
451
        0
460
0.0
461
0.0
452
        0
462
0.0
453
        0
470

  0
HATCH
  5
D23
330
70
100
AcDbEntity
  8
Livello 3
440
 33554687
100
AcDbHatch
 10
0.0
 20
0.0
 30
0.0
210
0.0
220
0.0
230
1.0
  2
SOLID
 70
     1
 71
     0
 91
        1
 92
        1
 93
        1
 72
     4
 94
        3
 73
     0
 74
     0
 95
       47
 96
       43
 40
0.0
 40
0.0
 40
0.0
 40
0.0
 40
1.0
 40
1.0
 40
1.0
 40
2.0
 40
2.0
 40
2.0
 40
3.0
 40
3.0
 40
3.0
 40
4.0
 40
4.0
 40
4.0
 40
5.0
 40
5.0
 40
5.0
 40
6.0
 40
6.0
 40
6.0
 40
7.0
 40
7.0
 40
7.0
 40
8.0
 40
8.0
 40
8.0
 40
9.0
 40
9.0
 40
9.0
 40
10.0
 40
10.0
 40
10.0
 40
11.0
 40
11.0
 40
11.0
 40
12.0
 40
12.0
 40
12.0
 40
13.0
 40
13.0
 40
13.0
 40
14.0
 40
14.0
 40
14.0
 40
14.0
 10
278.5669534002541
 20
-101.999999995878
 10
278.5669534002541
 20
-101.999999995878
 10
278.5669534002541
 20
-101.9314081447667
 10
278.5669534002541
 20
-101.9314081447667
 10
278.5669534002541
 20
-101.9314081447667
 10
278.6545621784441
 20
-101.8463487372358
 10
278.6545621784441
 20
-101.8463487372358
 10
278.8653675711865
 20
-101.6457063761749
 10
278.9605900103988
 20
-101.5390462199516
 10
278.9618646957283
 20
-101.4146093710243
 10
278.9618646957283
 20
-101.3307901978682
 10
278.9212470199572
 20
-101.2533100004049
 10
278.7980504054047
 20
-101.2533100004049
 10
278.7231540295554
 20
-101.2533100004049
 10
278.6609356050917
 20
-101.2914127564718
 10
278.6228328490249
 20
-101.3231765368458
 10
278.6228328490249
 20
-101.3231765368458
 10
278.5872794636171
 20
-101.244421654053
 10
278.5872794636171
 20
-101.244421654053
 10
278.6443991467626
 20
-101.1961903172595
 10
278.7256689492596
 20
-101.1606369318517
 10
278.8209258394267
 20
-101.1606369318517
 10
278.9986927664656
 20
-101.1606369318517
 10
279.0736235932698
 20
-101.2825244101198
 10
279.0736235932698
 20
-101.4006222833542
 10
279.0736235932698
 20
-101.5529988566668
 10
278.9631393810579
 20
-101.6761954712193
 10
278.7891620590527
 20
-101.8437993665767
 10
278.7891620590527
 20
-101.8437993665767
 10
278.7231540295554
 20
-101.9047431057108
 10
278.7231540295554
 20
-101.9047431057108
 10
278.7231540295554
 20
-101.9047431057108
 10
278.7231540295554
 20
-101.9072924763699
 10
278.7231540295554
 20
-101.9072924763699
 10
278.7231540295554
 20
-101.9072924763699
 10
279.0939496566328
 20
-101.9072924763699
 10
279.0939496566328
 20
-101.9072924763699
 10
279.0939496566328
 20
-101.9072924763699
 10
279.0939496566328
 20
-101.999999995878
 10
279.0939496566328
 20
-101.999999995878
 10
279.0939496566328
 20
-101.999999995878
 10
278.5669534002541
 20
-101.999999995878
 10
278.5669534002541
 20
-101.999999995878
 97
        0
 97
        0
 75
     2
 76
     1
 98
        1
 10
263.1820526879545
 20
-83.41288303003867
450
        0
451
        0
460
0.0
461
0.0
452
        0
462
0.0
453
        0
470

  0
SPLINE
  5
D24
330
70
100
AcDbEntity
  8
Livello 3
100
AcDbSpline
210
0.0
220
0.0
230
1.0
 70
     8
 71
     3
 72
    11
 73
     7
 74
     0
 42
0.000000001
 43
0.0000000001
 40
0.0
 40
0.0
 40
0.0
 40
0.0
 40
1.0
 40
1.0
 40
1.0
 40
2.0
 40
2.0
 40
2.0
 40
2.0
 10
282.8134125463279
 20
-98.31133625982101
 30
0.0
 10
282.9162486465626
 20
-98.31133625982101
 30
0.0
 10
282.9886301027078
 20
-98.24911783535739
 30
0.0
 10
282.9886301027078
 20
-98.1525862598607
 30
0.0
 10
282.9886301027078
 20
-98.07768988401136
 30
0.0
 10
282.9518020319704
 20
-98.01926106458152
 30
0.0
 10
282.9022960098474
 20
-97.99004665486661
 30
0.0
  0
SPLINE
  5
D25
330
70
100
AcDbEntity
  8
Livello 3
100
AcDbSpline
210
0.0
220
0.0
230
1.0
 70
     8
 71
     3
 72
    14
 73
    10
 74
     0
 42
0.000000001
 43
0.0000000001
 40
2.0
 40
2.0
 40
2.0
 40
2.0
 40
3.0
 40
3.0
 40
3.0
 40
4.0
 40
4.0
 40
4.0
 40
5.0
 40
5.0
 40
5.0
 40
5.0
 10
282.9022960098474
 20
-97.99004665486661
 30
0.0
 10
282.8921329781659
 20
-97.98370767917374
 30
0.0
 10
282.8794205758253
 20
-97.97991807413996
 30
0.0
 10
282.8616438831214
 20
-97.97991807413996
 30
0.0
 10
282.7207050268199
 20
-97.97991807413996
 30
0.0
 10
282.612770185267
 20
-98.03197346692209
 30
0.0
 10
282.612770185267
 20
-98.14879665482692
 30
0.0
 10
282.612770185267
 20
-98.24401909403922
 30
0.0
 10
282.6965893584231
 20
-98.31133625982101
 30
0.0
 10
282.8134125463279
 20
-98.31133625982101
 30
0.0
  0
SPLINE
  5
D26
330
70
100
AcDbEntity
  8
Livello 3
100
AcDbSpline
210
0.0
220
0.0
230
1.0
 70
     8
 71
     3
 72
     8
 73
     4
 74
     0
 42
0.000000001
 43
0.0000000001
 40
0.0
 40
0.0
 40
0.0
 40
0.0
 40
1.0
 40
1.0
 40
1.0
 40
1.0
 10
283.2883189589696
 20
-98.35198838654696
 30
0.0
 10
283.2908683296287
 20
-98.32783826719534
 30
0.0
 10
283.2883189589696
 20
-98.29989854280997
 30
0.0
 10
283.284494902981
 20
-98.26179578674311
 30
0.0
  0
SPLINE
  5
D27
330
70
100
AcDbEntity
  8
Livello 3
100
AcDbSpline
210
0.0
220
0.0
230
1.0
 70
     8
 71
     3
 72
     8
 73
     4
 74
     0
 42
0.000000001
 43
0.0000000001
 40
1.0
 40
1.0
 40
1.0
 40
1.0
 40
2.0
 40
2.0
 40
2.0
 40
2.0
 10
283.284494902981
 20
-98.26179578674311
 30
0.0
 10
283.275606556629
 20
-98.19702799162042
 30
0.0
 10
283.2489415175732
 20
-98.13611870344118
 30
0.0
 10
283.2044997858135
 20
-98.08912760102238
 30
0.0
  0
SPLINE
  5
D28
330
70
100
AcDbEntity
  8
Livello 3
100
AcDbSpline
210
0.0
220
0.0
230
1.0
 70
     8
 71
     3
 72
     8
 73
     4
 74
     0
 42
0.000000001
 43
0.0000000001
 40
2.0
 40
2.0
 40
2.0
 40
2.0
 40
3.0
 40
3.0
 40
3.0
 40
3.0
 10
283.2044997858135
 20
-98.08912760102238
 30
0.0
 10
283.1549937636905
 20
-98.03448838662632
 30
0.0
 10
283.0826123075453
 20
-97.99514539618478
 30
0.0
 10
282.984840497674
 20
-97.97991807413996
 30
0.0
  0
SPLINE
  5
D29
330
70
100
AcDbEntity
  8
Livello 3
100
AcDbSpline
210
0.0
220
0.0
230
1.0
 70
    24
 71
     3
 72
     8
 73
     4
 74
     0
 42
0.000000001
 43
0.0000000001
 40
3.0
 40
3.0
 40
3.0
 40
3.0
 40
4.0
 40
4.0
 40
4.0
 40
4.0
 10
282.984840497674
 20
-97.97991807413996
 30
0.0
 10
282.984840497674
 20
-97.97991807413996
 30
0.0
 10
282.984840497674
 20
-97.98370767917374
 30
0.0
 10
282.984840497674
 20
-97.98370767917374
 30
0.0
  0
SPLINE
  5
D2A
330
70
100
AcDbEntity
  8
Livello 3
100
AcDbSpline
210
0.0
220
0.0
230
1.0
 70
     8
 71
     3
 72
    20
 73
    16
 74
     0
 42
0.000000001
 43
0.0000000001
 40
4.0
 40
4.0
 40
4.0
 40
4.0
 40
5.0
 40
5.0
 40
5.0
 40
6.0
 40
6.0
 40
6.0
 40
7.0
 40
7.0
 40
7.0
 40
8.0
 40
8.0
 40
8.0
 40
9.0
 40
9.0
 40
9.0
 40
9.0
 10
282.984840497674
 20
-97.98370767917374
 30
0.0
 10
283.0406854954899
 20
-98.029424096263
 30
0.0
 10
283.0737239611934
 20
-98.09546657671525
 30
0.0
 10
283.0737239611934
 20
-98.17801106454183
 30
0.0
 10
283.0737239611934
 20
-98.3265635818658
 30
0.0
 10
282.9619650636519
 20
-98.42182047203296
 30
0.0
 10
282.8210262073503
 20
-98.42182047203296
 30
0.0
 10
282.6648255780491
 20
-98.42182047203296
 30
0.0
 10
282.5276763267813
 20
-98.30878688916191
 30
0.0
 10
282.5276763267813
 20
-98.13990830847497
 30
0.0
 10
282.5276763267813
 20
-97.97102972778802
 30
0.0
 10
282.6648255780491
 20
-97.86688449126891
 30
0.0
 10
282.8756309707915
 20
-97.86688449126891
 30
0.0
 10
283.0572219538191
 20
-97.86688449126891
 30
0.0
 10
283.1842081734054
 20
-97.92782823040299
 30
0.0
 10
283.2629286052434
 20
-98.00913248385489
 30
0.0
  0
SPLINE
  5
D2B
330
70
100
AcDbEntity
  8
Livello 3
100
AcDbSpline
210
0.0
220
0.0
230
1.0
 70
     8
 71
     3
 72
     8
 73
     4
 74
     0
 42
0.000000001
 43
0.0000000001
 40
9.0
 40
9.0
 40
9.0
 40
9.0
 40
10.0
 40
10.0
 40
10.0
 40
10.0
 10
283.2629286052434
 20
-98.00913248385489
 30
0.0
 10
283.3251470297069
 20
-98.07259114269319
 30
0.0
 10
283.3632497857738
 20
-98.16023437183794
 30
0.0
 10
283.3734128174553
 20
-98.24911783535739
 30
0.0
  0
SPLINE
  5
D2C
330
70
100
AcDbEntity
  8
Livello 3
100
AcDbSpline
210
0.0
220
0.0
230
1.0
 70
     8
 71
     3
 72
     8
 73
     4
 74
     0
 42
0.000000001
 43
0.0000000001
 40
10.0
 40
10.0
 40
10.0
 40
10.0
 40
11.0
 40
11.0
 40
11.0
 40
11.0
 10
283.3734128174553
 20
-98.24911783535739
 30
0.0
 10
283.3797517931482
 20
-98.28976996208332
 30
0.0
 10
283.3810264784777
 20
-98.3253233474911
 30
0.0
 10
283.3797517931482
 20
-98.35198838654696
 30
0.0
  0
SPLINE
  5
D2D
330
70
100
AcDbEntity
  8
Livello 3
100
AcDbSpline
210
0.0
220
0.0
230
1.0
 70
    24
 71
     3
 72
     8
 73
     4
 74
     0
 42
0.000000001
 43
0.0000000001
 40
11.0
 40
11.0
 40
11.0
 40
11.0
 40
12.0
 40
12.0
 40
12.0
 40
12.0
 10
283.3797517931482
 20
-98.35198838654696
 30
0.0
 10
283.3797517931482
 20
-98.35198838654696
 30
0.0
 10
283.2883189589696
 20
-98.35198838654696
 30
0.0
 10
283.2883189589696
 20
-98.35198838654696
 30
0.0
  0
HATCH
  5
D2E
330
70
100
AcDbEntity
  8
Livello 3
440
 33554687
100
AcDbHatch
 10
0.0
 20
0.0
 30
0.0
210
0.0
220
0.0
230
1.0
  2
SOLID
 70
     1
 71
     0
 91
        1
 92
        1
 93
        1
 72
     4
 94
        3
 73
     0
 74
     0
 95
       29
 96
       25
 40
0.0
 40
0.0
 40
0.0
 40
0.0
 40
1.0
 40
1.0
 40
1.0
 40
2.0
 40
2.0
 40
2.0
 40
3.0
 40
3.0
 40
3.0
 40
4.0
 40
4.0
 40
4.0
 40
5.0
 40
5.0
 40
5.0
 40
6.0
 40
6.0
 40
6.0
 40
7.0
 40
7.0
 40
7.0
 40
8.0
 40
8.0
 40
8.0
 40
8.0
 10
282.6457742000157
 20
-91.04445854896411
 10
282.6457742000157
 20
-91.04445854896411
 10
282.6457742000157
 20
-91.0470079196232
 10
282.6457742000157
 20
-91.0470079196232
 10
282.6457742000157
 20
-91.0470079196232
 10
282.723254397479
 20
-91.19049614658385
 10
282.723254397479
 20
-91.19049614658385
 10
282.723254397479
 20
-91.19049614658385
 10
282.6381605389932
 20
-91.21207966979893
 10
282.6381605389932
 20
-91.21207966979893
 10
282.6381605389932
 20
-91.21207966979893
 10
282.5416634144514
 20
-91.03176337210097
 10
282.5416634144514
 20
-91.03176337210097
 10
282.5416634144514
 20
-91.03176337210097
 10
282.5416634144514
 20
-90.93652370741123
 10
282.5416634144514
 20
-90.93652370741123
 10
282.5416634144514
 20
-90.93652370741123
 10
283.3670393908075
 20
-90.93652370741123
 10
283.3670393908075
 20
-90.93652370741123
 10
283.3670393908075
 20
-90.93652370741123
 10
283.3670393908075
 20
-91.04445854896411
 10
283.3670393908075
 20
-91.04445854896411
 10
283.3670393908075
 20
-91.04445854896411
 10
282.6457742000157
 20
-91.04445854896411
 10
282.6457742000157
 20
-91.04445854896411
 97
        0
 97
        0
 75
     2
 76
     1
 98
        1
 10
263.1820526879545
 20
-83.41288303003867
450
        0
451
        0
460
0.0
461
0.0
452
        0
462
0.0
453
        0
470

  0
HATCH
  5
D2F
330
70
100
AcDbEntity
  8
Livello 3
440
 33554687
100
AcDbHatch
 10
0.0
 20
0.0
 30
0.0
210
0.0
220
0.0
230
1.0
  2
SOLID
 70
     1
 71
     0
 91
        1
 92
        1
 93
        1
 72
     4
 94
        3
 73
     0
 74
     0
 95
       47
 96
       43
 40
0.0
 40
0.0
 40
0.0
 40
0.0
 40
1.0
 40
1.0
 40
1.0
 40
2.0
 40
2.0
 40
2.0
 40
3.0
 40
3.0
 40
3.0
 40
4.0
 40
4.0
 40
4.0
 40
5.0
 40
5.0
 40
5.0
 40
6.0
 40
6.0
 40
6.0
 40
7.0
 40
7.0
 40
7.0
 40
8.0
 40
8.0
 40
8.0
 40
9.0
 40
9.0
 40
9.0
 40
10.0
 40
10.0
 40
10.0
 40
11.0
 40
11.0
 40
11.0
 40
12.0
 40
12.0
 40
12.0
 40
13.0
 40
13.0
 40
13.0
 40
14.0
 40
14.0
 40
14.0
 40
14.0
 10
283.3670393908075
 20
-90.63552571486495
 10
283.3670393908075
 20
-90.63552571486495
 10
283.2984819906511
 20
-90.63552571486495
 10
283.2984819906511
 20
-90.63552571486495
 10
283.2984819906511
 20
-90.63552571486495
 10
283.2133881321654
 20
-90.54789971119763
 10
283.2133881321654
 20
-90.54789971119763
 10
283.0127457711045
 20
-90.33711154393262
 10
282.9060856148812
 20
-90.24187187924288
 10
282.7816487659539
 20
-90.24059719391335
 10
282.6978295927978
 20
-90.24059719391335
 10
282.6203838462894
 20
-90.28123209516186
 10
282.6203838462894
 20
-90.40441148423697
 10
282.6203838462894
 20
-90.47932508556373
 10
282.6584866023562
 20
-90.54154351002734
 10
282.6902159317754
 20
-90.5796462660942
 10
282.6902159317754
 20
-90.5796462660942
 10
282.6114954999374
 20
-90.61519965150198
 10
282.6114954999374
 20
-90.61519965150198
 10
282.5632297121891
 20
-90.55806274287911
 10
282.5276763267813
 20
-90.47679294038207
 10
282.5276763267813
 20
-90.38155327569233
 10
282.5276763267813
 20
-90.20376912317601
 10
282.6495982560043
 20
-90.12885552184926
 10
282.7676961292387
 20
-90.12885552184926
 10
282.9200727025512
 20
-90.12885552184926
 10
283.0432348661489
 20
-90.23932250858379
 10
283.2108732124612
 20
-90.41329983058892
 10
283.2108732124612
 20
-90.41329983058892
 10
283.2718169515953
 20
-90.47932508556373
 10
283.2718169515953
 20
-90.47932508556373
 10
283.2718169515953
 20
-90.47932508556373
 10
283.2743663222544
 20
-90.47932508556373
 10
283.2743663222544
 20
-90.47932508556373
 10
283.2743663222544
 20
-90.47932508556373
 10
283.2743663222544
 20
-90.10852945848629
 10
283.2743663222544
 20
-90.10852945848629
 10
283.2743663222544
 20
-90.10852945848629
 10
283.3670393908075
 20
-90.10852945848629
 10
283.3670393908075
 20
-90.10852945848629
 10
283.3670393908075
 20
-90.10852945848629
 10
283.3670393908075
 20
-90.63552571486495
 10
283.3670393908075
 20
-90.63552571486495
 97
        0
 97
        0
 75
     2
 76
     1
 98
        1
 10
263.1820526879545
 20
-83.41288303003867
450
        0
451
        0
460
0.0
461
0.0
452
        0
462
0.0
453
        0
470

  0
SPLINE
  5
D30
330
70
100
AcDbEntity
  8
Livello 3
100
AcDbSpline
210
0.0
220
0.0
230
1.0
 70
    24
 71
     3
 72
     8
 73
     4
 74
     0
 42
0.000000001
 43
0.0000000001
 40
0.0
 40
0.0
 40
0.0
 40
0.0
 40
1.0
 40
1.0
 40
1.0
 40
1.0
 10
278.1580205661549
 20
-101.2787348050861
 30
0.0
 10
278.1580205661549
 20
-101.2787348050861
 30
0.0
 10
278.1554711954959
 20
-101.2787348050861
 30
0.0
 10
278.1554711954959
 20
-101.2787348050861
 30
0.0
  0
SPLINE
  5
D31
330
70
100
AcDbEntity
  8
Livello 3
100
AcDbSpline
210
0.0
220
0.0
230
1.0
 70
    24
 71
     3
 72
     8
 73
     4
 74
     0
 42
0.000000001
 43
0.0000000001
 40
1.0
 40
1.0
 40
1.0
 40
1.0
 40
2.0
 40
2.0
 40
2.0
 40
2.0
 10
278.1554711954959
 20
-101.2787348050861
 30
0.0
 10
278.1554711954959
 20
-101.2787348050861
 30
0.0
 10
278.0119829685352
 20
-101.3561805515945
 30
0.0
 10
278.0119829685352
 20
-101.3561805515945
 30
0.0
  0
SPLINE
  5
D32
330
70
100
AcDbEntity
  8
Livello 3
100
AcDbSpline
210
0.0
220
0.0
230
1.0
 70
    24
 71
     3
 72
     8
 73
     4
 74
     0
 42
0.000000001
 43
0.0000000001
 40
2.0
 40
2.0
 40
2.0
 40
2.0
 40
3.0
 40
3.0
 40
3.0
 40
3.0
 10
278.0119829685352
 20
-101.3561805515945
 30
0.0
 10
278.0119829685352
 20
-101.3561805515945
 30
0.0
 10
277.9903994453201
 20
-101.2710866931088
 30
0.0
 10
277.9903994453201
 20
-101.2710866931088
 30
0.0
  0
SPLINE
  5
D33
330
70
100
AcDbEntity
  8
Livello 3
100
AcDbSpline
210
0.0
220
0.0
230
1.0
 70
    24
 71
     3
 72
     8
 73
     4
 74
     0
 42
0.000000001
 43
0.0000000001
 40
3.0
 40
3.0
 40
3.0
 40
3.0
 40
4.0
 40
4.0
 40
4.0
 40
4.0
 10
277.9903994453201
 20
-101.2710866931088
 30
0.0
 10
277.9903994453201
 20
-101.2710866931088
 30
0.0
 10
278.1706985175407
 20
-101.174589568567
 30
0.0
 10
278.1706985175407
 20
-101.174589568567
 30
0.0
  0
SPLINE
  5
D34
330
70
100
AcDbEntity
  8
Livello 3
100
AcDbSpline
210
0.0
220
0.0
230
1.0
 70
    24
 71
     3
 72
     8
 73
     4
 74
     0
 42
0.000000001
 43
0.0000000001
 40
4.0
 40
4.0
 40
4.0
 40
4.0
 40
5.0
 40
5.0
 40
5.0
 40
5.0
 10
278.1706985175407
 20
-101.174589568567
 30
0.0
 10
278.1706985175407
 20
-101.174589568567
 30
0.0
 10
278.2659554077079
 20
-101.174589568567
 30
0.0
 10
278.2659554077079
 20
-101.174589568567
 30
0.0
  0
SPLINE
  5
D35
330
70
100
AcDbEntity
  8
Livello 3
100
AcDbSpline
210
0.0
220
0.0
230
1.0
 70
    24
 71
     3
 72
     8
 73
     4
 74
     0
 42
0.000000001
 43
0.0000000001
 40
5.0
 40
5.0
 40
5.0
 40
5.0
 40
6.0
 40
6.0
 40
6.0
 40
6.0
 10
278.2659554077079
 20
-101.174589568567
 30
0.0
 10
278.2659554077079
 20
-101.174589568567
 30
0.0
 10
278.2659554077079
 20
-101.999999995878
 30
0.0
 10
278.2659554077079
 20
-101.999999995878
 30
0.0
  0
SPLINE
  5
D36
330
70
100
AcDbEntity
  8
Livello 3
100
AcDbSpline
210
0.0
220
0.0
230
1.0
 70
    24
 71
     3
 72
     8
 73
     4
 74
     0
 42
0.000000001
 43
0.0000000001
 40
6.0
 40
6.0
 40
6.0
 40
6.0
 40
7.0
 40
7.0
 40
7.0
 40
7.0
 10
278.2659554077079
 20
-101.999999995878
 30
0.0
 10
278.2659554077079
 20
-101.999999995878
 30
0.0
 10
278.1580205661549
 20
-101.999999995878
 30
0.0
 10
278.1580205661549
 20
-101.999999995878
 30
0.0
  0
SPLINE
  5
D37
330
70
100
AcDbEntity
  8
Livello 3
100
AcDbSpline
210
0.0
220
0.0
230
1.0
 70
    24
 71
     3
 72
     8
 73
     4
 74
     0
 42
0.000000001
 43
0.0000000001
 40
7.0
 40
7.0
 40
7.0
 40
7.0
 40
8.0
 40
8.0
 40
8.0
 40
8.0
 10
278.1580205661549
 20
-101.999999995878
 30
0.0
 10
278.1580205661549
 20
-101.999999995878
 30
0.0
 10
278.1580205661549
 20
-101.2787348050861
 30
0.0
 10
278.1580205661549
 20
-101.2787348050861
 30
0.0
  0
SPLINE
  5
D38
330
70
100
AcDbEntity
  8
Livello 3
100
AcDbSpline
210
0.0
220
0.0
230
1.0
 70
    24
 71
     3
 72
     8
 73
     4
 74
     0
 42
0.000000001
 43
0.0000000001
 40
0.0
 40
0.0
 40
0.0
 40
0.0
 40
1.0
 40
1.0
 40
1.0
 40
1.0
 10
278.5669534002541
 20
-101.999999995878
 30
0.0
 10
278.5669534002541
 20
-101.999999995878
 30
0.0
 10
278.5669534002541
 20
-101.9314081447667
 30
0.0
 10
278.5669534002541
 20
-101.9314081447667
 30
0.0
  0
SPLINE
  5
D39
330
70
100
AcDbEntity
  8
Livello 3
100
AcDbSpline
210
0.0
220
0.0
230
1.0
 70
    24
 71
     3
 72
     8
 73
     4
 74
     0
 42
0.000000001
 43
0.0000000001
 40
1.0
 40
1.0
 40
1.0
 40
1.0
 40
2.0
 40
2.0
 40
2.0
 40
2.0
 10
278.5669534002541
 20
-101.9314081447667
 30
0.0
 10
278.5669534002541
 20
-101.9314081447667
 30
0.0
 10
278.6545621784441
 20
-101.8463487372358
 30
0.0
 10
278.6545621784441
 20
-101.8463487372358
 30
0.0
  0
SPLINE
  5
D3A
330
70
100
AcDbEntity
  8
Livello 3
100
AcDbSpline
210
0.0
220
0.0
230
1.0
 70
     8
 71
     3
 72
     8
 73
     4
 74
     0
 42
0.000000001
 43
0.0000000001
 40
2.0
 40
2.0
 40
2.0
 40
2.0
 40
3.0
 40
3.0
 40
3.0
 40
3.0
 10
278.6545621784441
 20
-101.8463487372358
 30
0.0
 10
278.8653675711865
 20
-101.6457063761749
 30
0.0
 10
278.9605900103988
 20
-101.5390462199516
 30
0.0
 10
278.9618646957283
 20
-101.4146093710243
 30
0.0
  0
SPLINE
  5
D3B
330
70
100
AcDbEntity
  8
Livello 3
100
AcDbSpline
210
0.0
220
0.0
230
1.0
 70
     8
 71
     3
 72
    11
 73
     7
 74
     0
 42
0.000000001
 43
0.0000000001
 40
3.0
 40
3.0
 40
3.0
 40
3.0
 40
4.0
 40
4.0
 40
4.0
 40
5.0
 40
5.0
 40
5.0
 40
5.0
 10
278.9618646957283
 20
-101.4146093710243
 30
0.0
 10
278.9618646957283
 20
-101.3307901978682
 30
0.0
 10
278.9212470199572
 20
-101.2533100004049
 30
0.0
 10
278.7980504054047
 20
-101.2533100004049
 30
0.0
 10
278.7231540295554
 20
-101.2533100004049
 30
0.0
 10
278.6609356050917
 20
-101.2914127564718
 30
0.0
 10
278.6228328490249
 20
-101.3231765368458
 30
0.0
  0
SPLINE
  5
D3C
330
70
100
AcDbEntity
  8
Livello 3
100
AcDbSpline
210
0.0
220
0.0
230
1.0
 70
    24
 71
     3
 72
     8
 73
     4
 74
     0
 42
0.000000001
 43
0.0000000001
 40
5.0
 40
5.0
 40
5.0
 40
5.0
 40
6.0
 40
6.0
 40
6.0
 40
6.0
 10
278.6228328490249
 20
-101.3231765368458
 30
0.0
 10
278.6228328490249
 20
-101.3231765368458
 30
0.0
 10
278.5872794636171
 20
-101.244421654053
 30
0.0
 10
278.5872794636171
 20
-101.244421654053
 30
0.0
  0
SPLINE
  5
D3D
330
70
100
AcDbEntity
  8
Livello 3
100
AcDbSpline
210
0.0
220
0.0
230
1.0
 70
     8
 71
     3
 72
    14
 73
    10
 74
     0
 42
0.000000001
 43
0.0000000001
 40
6.0
 40
6.0
 40
6.0
 40
6.0
 40
7.0
 40
7.0
 40
7.0
 40
8.0
 40
8.0
 40
8.0
 40
9.0
 40
9.0
 40
9.0
 40
9.0
 10
278.5872794636171
 20
-101.244421654053
 30
0.0
 10
278.6443991467626
 20
-101.1961903172595
 30
0.0
 10
278.7256689492596
 20
-101.1606369318517
 30
0.0
 10
278.8209258394267
 20
-101.1606369318517
 30
0.0
 10
278.9986927664656
 20
-101.1606369318517
 30
0.0
 10
279.0736235932698
 20
-101.2825244101198
 30
0.0
 10
279.0736235932698
 20
-101.4006222833542
 30
0.0
 10
279.0736235932698
 20
-101.5529988566668
 30
0.0
 10
278.9631393810579
 20
-101.6761954712193
 30
0.0
 10
278.7891620590527
 20
-101.8437993665767
 30
0.0
  0
SPLINE
  5
D3E
330
70
100
AcDbEntity
  8
Livello 3
100
AcDbSpline
210
0.0
220
0.0
230
1.0
 70
    24
 71
     3
 72
     8
 73
     4
 74
     0
 42
0.000000001
 43
0.0000000001
 40
9.0
 40
9.0
 40
9.0
 40
9.0
 40
10.0
 40
10.0
 40
10.0
 40
10.0
 10
278.7891620590527
 20
-101.8437993665767
 30
0.0
 10
278.7891620590527
 20
-101.8437993665767
 30
0.0
 10
278.7231540295554
 20
-101.9047431057108
 30
0.0
 10
278.7231540295554
 20
-101.9047431057108
 30
0.0
  0
SPLINE
  5
D3F
330
70
100
AcDbEntity
  8
Livello 3
100
AcDbSpline
210
0.0
220
0.0
230
1.0
 70
    24
 71
     3
 72
     8
 73
     4
 74
     0
 42
0.000000001
 43
0.0000000001
 40
10.0
 40
10.0
 40
10.0
 40
10.0
 40
11.0
 40
11.0
 40
11.0
 40
11.0
 10
278.7231540295554
 20
-101.9047431057108
 30
0.0
 10
278.7231540295554
 20
-101.9047431057108
 30
0.0
 10
278.7231540295554
 20
-101.9072924763699
 30
0.0
 10
278.7231540295554
 20
-101.9072924763699
 30
0.0
  0
SPLINE
  5
D40
330
70
100
AcDbEntity
  8
Livello 3
100
AcDbSpline
210
0.0
220
0.0
230
1.0
 70
    24
 71
     3
 72
     8
 73
     4
 74
     0
 42
0.000000001
 43
0.0000000001
 40
11.0
 40
11.0
 40
11.0
 40
11.0
 40
12.0
 40
12.0
 40
12.0
 40
12.0
 10
278.7231540295554
 20
-101.9072924763699
 30
0.0
 10
278.7231540295554
 20
-101.9072924763699
 30
0.0
 10
279.0939496566328
 20
-101.9072924763699
 30
0.0
 10
279.0939496566328
 20
-101.9072924763699
 30
0.0
  0
SPLINE
  5
D41
330
70
100
AcDbEntity
  8
Livello 3
100
AcDbSpline
210
0.0
220
0.0
230
1.0
 70
    24
 71
     3
 72
     8
 73
     4
 74
     0
 42
0.000000001
 43
0.0000000001
 40
12.0
 40
12.0
 40
12.0
 40
12.0
 40
13.0
 40
13.0
 40
13.0
 40
13.0
 10
279.0939496566328
 20
-101.9072924763699
 30
0.0
 10
279.0939496566328
 20
-101.9072924763699
 30
0.0
 10
279.0939496566328
 20
-101.999999995878
 30
0.0
 10
279.0939496566328
 20
-101.999999995878
 30
0.0
  0
SPLINE
  5
D42
330
70
100
AcDbEntity
  8
Livello 3
100
AcDbSpline
210
0.0
220
0.0
230
1.0
 70
    24
 71
     3
 72
     8
 73
     4
 74
     0
 42
0.000000001
 43
0.0000000001
 40
13.0
 40
13.0
 40
13.0
 40
13.0
 40
14.0
 40
14.0
 40
14.0
 40
14.0
 10
279.0939496566328
 20
-101.999999995878
 30
0.0
 10
279.0939496566328
 20
-101.999999995878
 30
0.0
 10
278.5669534002541
 20
-101.999999995878
 30
0.0
 10
278.5669534002541
 20
-101.999999995878
 30
0.0
  0
SPLINE
  5
D43
330
70
100
AcDbEntity
  8
Livello 3
100
AcDbSpline
210
0.0
220
0.0
230
1.0
 70
    24
 71
     3
 72
     8
 73
     4
 74
     0
 42
0.000000001
 43
0.0000000001
 40
0.0
 40
0.0
 40
0.0
 40
0.0
 40
1.0
 40
1.0
 40
1.0
 40
1.0
 10
282.6457742000157
 20
-91.04445854896411
 30
0.0
 10
282.6457742000157
 20
-91.04445854896411
 30
0.0
 10
282.6457742000157
 20
-91.0470079196232
 30
0.0
 10
282.6457742000157
 20
-91.0470079196232
 30
0.0
  0
SPLINE
  5
D44
330
70
100
AcDbEntity
  8
Livello 3
100
AcDbSpline
210
0.0
220
0.0
230
1.0
 70
    24
 71
     3
 72
     8
 73
     4
 74
     0
 42
0.000000001
 43
0.0000000001
 40
1.0
 40
1.0
 40
1.0
 40
1.0
 40
2.0
 40
2.0
 40
2.0
 40
2.0
 10
282.6457742000157
 20
-91.0470079196232
 30
0.0
 10
282.6457742000157
 20
-91.0470079196232
 30
0.0
 10
282.723254397479
 20
-91.19049614658385
 30
0.0
 10
282.723254397479
 20
-91.19049614658385
 30
0.0
  0
SPLINE
  5
D45
330
70
100
AcDbEntity
  8
Livello 3
100
AcDbSpline
210
0.0
220
0.0
230
1.0
 70
    24
 71
     3
 72
     8
 73
     4
 74
     0
 42
0.000000001
 43
0.0000000001
 40
2.0
 40
2.0
 40
2.0
 40
2.0
 40
3.0
 40
3.0
 40
3.0
 40
3.0
 10
282.723254397479
 20
-91.19049614658385
 30
0.0
 10
282.723254397479
 20
-91.19049614658385
 30
0.0
 10
282.6381605389932
 20
-91.21207966979893
 30
0.0
 10
282.6381605389932
 20
-91.21207966979893
 30
0.0
  0
SPLINE
  5
D46
330
70
100
AcDbEntity
  8
Livello 3
100
AcDbSpline
210
0.0
220
0.0
230
1.0
 70
    24
 71
     3
 72
     8
 73
     4
 74
     0
 42
0.000000001
 43
0.0000000001
 40
3.0
 40
3.0
 40
3.0
 40
3.0
 40
4.0
 40
4.0
 40
4.0
 40
4.0
 10
282.6381605389932
 20
-91.21207966979893
 30
0.0
 10
282.6381605389932
 20
-91.21207966979893
 30
0.0
 10
282.5416634144514
 20
-91.03176337210097
 30
0.0
 10
282.5416634144514
 20
-91.03176337210097
 30
0.0
  0
SPLINE
  5
D47
330
70
100
AcDbEntity
  8
Livello 3
100
AcDbSpline
210
0.0
220
0.0
230
1.0
 70
    24
 71
     3
 72
     8
 73
     4
 74
     0
 42
0.000000001
 43
0.0000000001
 40
4.0
 40
4.0
 40
4.0
 40
4.0
 40
5.0
 40
5.0
 40
5.0
 40
5.0
 10
282.5416634144514
 20
-91.03176337210097
 30
0.0
 10
282.5416634144514
 20
-91.03176337210097
 30
0.0
 10
282.5416634144514
 20
-90.93652370741123
 30
0.0
 10
282.5416634144514
 20
-90.93652370741123
 30
0.0
  0
SPLINE
  5
D48
330
70
100
AcDbEntity
  8
Livello 3
100
AcDbSpline
210
0.0
220
0.0
230
1.0
 70
    24
 71
     3
 72
     8
 73
     4
 74
     0
 42
0.000000001
 43
0.0000000001
 40
5.0
 40
5.0
 40
5.0
 40
5.0
 40
6.0
 40
6.0
 40
6.0
 40
6.0
 10
282.5416634144514
 20
-90.93652370741123
 30
0.0
 10
282.5416634144514
 20
-90.93652370741123
 30
0.0
 10
283.3670393908075
 20
-90.93652370741123
 30
0.0
 10
283.3670393908075
 20
-90.93652370741123
 30
0.0
  0
SPLINE
  5
D49
330
70
100
AcDbEntity
  8
Livello 3
100
AcDbSpline
210
0.0
220
0.0
230
1.0
 70
    24
 71
     3
 72
     8
 73
     4
 74
     0
 42
0.000000001
 43
0.0000000001
 40
6.0
 40
6.0
 40
6.0
 40
6.0
 40
7.0
 40
7.0
 40
7.0
 40
7.0
 10
283.3670393908075
 20
-90.93652370741123
 30
0.0
 10
283.3670393908075
 20
-90.93652370741123
 30
0.0
 10
283.3670393908075
 20
-91.04445854896411
 30
0.0
 10
283.3670393908075
 20
-91.04445854896411
 30
0.0
  0
SPLINE
  5
D4A
330
70
100
AcDbEntity
  8
Livello 3
100
AcDbSpline
210
0.0
220
0.0
230
1.0
 70
    24
 71
     3
 72
     8
 73
     4
 74
     0
 42
0.000000001
 43
0.0000000001
 40
7.0
 40
7.0
 40
7.0
 40
7.0
 40
8.0
 40
8.0
 40
8.0
 40
8.0
 10
283.3670393908075
 20
-91.04445854896411
 30
0.0
 10
283.3670393908075
 20
-91.04445854896411
 30
0.0
 10
282.6457742000157
 20
-91.04445854896411
 30
0.0
 10
282.6457742000157
 20
-91.04445854896411
 30
0.0
  0
SPLINE
  5
D4B
330
70
100
AcDbEntity
  8
Livello 3
100
AcDbSpline
210
0.0
220
0.0
230
1.0
 70
    24
 71
     3
 72
     8
 73
     4
 74
     0
 42
0.000000001
 43
0.0000000001
 40
0.0
 40
0.0
 40
0.0
 40
0.0
 40
1.0
 40
1.0
 40
1.0
 40
1.0
 10
283.3670393908075
 20
-90.63552571486495
 30
0.0
 10
283.3670393908075
 20
-90.63552571486495
 30
0.0
 10
283.2984819906511
 20
-90.63552571486495
 30
0.0
 10
283.2984819906511
 20
-90.63552571486495
 30
0.0
  0
SPLINE
  5
D4C
330
70
100
AcDbEntity
  8
Livello 3
100
AcDbSpline
210
0.0
220
0.0
230
1.0
 70
    24
 71
     3
 72
     8
 73
     4
 74
     0
 42
0.000000001
 43
0.0000000001
 40
1.0
 40
1.0
 40
1.0
 40
1.0
 40
2.0
 40
2.0
 40
2.0
 40
2.0
 10
283.2984819906511
 20
-90.63552571486495
 30
0.0
 10
283.2984819906511
 20
-90.63552571486495
 30
0.0
 10
283.2133881321654
 20
-90.54789971119763
 30
0.0
 10
283.2133881321654
 20
-90.54789971119763
 30
0.0
  0
SPLINE
  5
D4D
330
70
100
AcDbEntity
  8
Livello 3
100
AcDbSpline
210
0.0
220
0.0
230
1.0
 70
     8
 71
     3
 72
     8
 73
     4
 74
     0
 42
0.000000001
 43
0.0000000001
 40
2.0
 40
2.0
 40
2.0
 40
2.0
 40
3.0
 40
3.0
 40
3.0
 40
3.0
 10
283.2133881321654
 20
-90.54789971119763
 30
0.0
 10
283.0127457711045
 20
-90.33711154393262
 30
0.0
 10
282.9060856148812
 20
-90.24187187924288
 30
0.0
 10
282.7816487659539
 20
-90.24059719391335
 30
0.0
  0
SPLINE
  5
D4E
330
70
100
AcDbEntity
  8
Livello 3
100
AcDbSpline
210
0.0
220
0.0
230
1.0
 70
     8
 71
     3
 72
    11
 73
     7
 74
     0
 42
0.000000001
 43
0.0000000001
 40
3.0
 40
3.0
 40
3.0
 40
3.0
 40
4.0
 40
4.0
 40
4.0
 40
5.0
 40
5.0
 40
5.0
 40
5.0
 10
282.7816487659539
 20
-90.24059719391335
 30
0.0
 10
282.6978295927978
 20
-90.24059719391335
 30
0.0
 10
282.6203838462894
 20
-90.28123209516186
 30
0.0
 10
282.6203838462894
 20
-90.40441148423697
 30
0.0
 10
282.6203838462894
 20
-90.47932508556373
 30
0.0
 10
282.6584866023562
 20
-90.54154351002734
 30
0.0
 10
282.6902159317754
 20
-90.5796462660942
 30
0.0
  0
SPLINE
  5
D4F
330
70
100
AcDbEntity
  8
Livello 3
100
AcDbSpline
210
0.0
220
0.0
230
1.0
 70
    24
 71
     3
 72
     8
 73
     4
 74
     0
 42
0.000000001
 43
0.0000000001
 40
5.0
 40
5.0
 40
5.0
 40
5.0
 40
6.0
 40
6.0
 40
6.0
 40
6.0
 10
282.6902159317754
 20
-90.5796462660942
 30
0.0
 10
282.6902159317754
 20
-90.5796462660942
 30
0.0
 10
282.6114954999374
 20
-90.61519965150198
 30
0.0
 10
282.6114954999374
 20
-90.61519965150198
 30
0.0
  0
SPLINE
  5
D50
330
70
100
AcDbEntity
  8
Livello 3
100
AcDbSpline
210
0.0
220
0.0
230
1.0
 70
     8
 71
     3
 72
    14
 73
    10
 74
     0
 42
0.000000001
 43
0.0000000001
 40
6.0
 40
6.0
 40
6.0
 40
6.0
 40
7.0
 40
7.0
 40
7.0
 40
8.0
 40
8.0
 40
8.0
 40
9.0
 40
9.0
 40
9.0
 40
9.0
 10
282.6114954999374
 20
-90.61519965150198
 30
0.0
 10
282.5632297121891
 20
-90.55806274287911
 30
0.0
 10
282.5276763267813
 20
-90.47679294038207
 30
0.0
 10
282.5276763267813
 20
-90.38155327569233
 30
0.0
 10
282.5276763267813
 20
-90.20376912317601
 30
0.0
 10
282.6495982560043
 20
-90.12885552184926
 30
0.0
 10
282.7676961292387
 20
-90.12885552184926
 30
0.0
 10
282.9200727025512
 20
-90.12885552184926
 30
0.0
 10
283.0432348661489
 20
-90.23932250858379
 30
0.0
 10
283.2108732124612
 20
-90.41329983058892
 30
0.0
  0
SPLINE
  5
D51
330
70
100
AcDbEntity
  8
Livello 3
100
AcDbSpline
210
0.0
220
0.0
230
1.0
 70
    24
 71
     3
 72
     8
 73
     4
 74
     0
 42
0.000000001
 43
0.0000000001
 40
9.0
 40
9.0
 40
9.0
 40
9.0
 40
10.0
 40
10.0
 40
10.0
 40
10.0
 10
283.2108732124612
 20
-90.41329983058892
 30
0.0
 10
283.2108732124612
 20
-90.41329983058892
 30
0.0
 10
283.2718169515953
 20
-90.47932508556373
 30
0.0
 10
283.2718169515953
 20
-90.47932508556373
 30
0.0
  0
SPLINE
  5
D52
330
70
100
AcDbEntity
  8
Livello 3
100
AcDbSpline
210
0.0
220
0.0
230
1.0
 70
    24
 71
     3
 72
     8
 73
     4
 74
     0
 42
0.000000001
 43
0.0000000001
 40
10.0
 40
10.0
 40
10.0
 40
10.0
 40
11.0
 40
11.0
 40
11.0
 40
11.0
 10
283.2718169515953
 20
-90.47932508556373
 30
0.0
 10
283.2718169515953
 20
-90.47932508556373
 30
0.0
 10
283.2743663222544
 20
-90.47932508556373
 30
0.0
 10
283.2743663222544
 20
-90.47932508556373
 30
0.0
  0
SPLINE
  5
D53
330
70
100
AcDbEntity
  8
Livello 3
100
AcDbSpline
210
0.0
220
0.0
230
1.0
 70
    24
 71
     3
 72
     8
 73
     4
 74
     0
 42
0.000000001
 43
0.0000000001
 40
11.0
 40
11.0
 40
11.0
 40
11.0
 40
12.0
 40
12.0
 40
12.0
 40
12.0
 10
283.2743663222544
 20
-90.47932508556373
 30
0.0
 10
283.2743663222544
 20
-90.47932508556373
 30
0.0
 10
283.2743663222544
 20
-90.10852945848629
 30
0.0
 10
283.2743663222544
 20
-90.10852945848629
 30
0.0
  0
SPLINE
  5
D54
330
70
100
AcDbEntity
  8
Livello 3
100
AcDbSpline
210
0.0
220
0.0
230
1.0
 70
    24
 71
     3
 72
     8
 73
     4
 74
     0
 42
0.000000001
 43
0.0000000001
 40
12.0
 40
12.0
 40
12.0
 40
12.0
 40
13.0
 40
13.0
 40
13.0
 40
13.0
 10
283.2743663222544
 20
-90.10852945848629
 30
0.0
 10
283.2743663222544
 20
-90.10852945848629
 30
0.0
 10
283.3670393908075
 20
-90.10852945848629
 30
0.0
 10
283.3670393908075
 20
-90.10852945848629
 30
0.0
  0
SPLINE
  5
D55
330
70
100
AcDbEntity
  8
Livello 3
100
AcDbSpline
210
0.0
220
0.0
230
1.0
 70
    24
 71
     3
 72
     8
 73
     4
 74
     0
 42
0.000000001
 43
0.0000000001
 40
13.0
 40
13.0
 40
13.0
 40
13.0
 40
14.0
 40
14.0
 40
14.0
 40
14.0
 10
283.3670393908075
 20
-90.10852945848629
 30
0.0
 10
283.3670393908075
 20
-90.10852945848629
 30
0.0
 10
283.3670393908075
 20
-90.63552571486495
 30
0.0
 10
283.3670393908075
 20
-90.63552571486495
 30
0.0
  0
ENDSEC
  0
SECTION
  2
OBJECTS
  0
DICTIONARY
  5
C
330
0
100
AcDbDictionary
281
     1
  3
ACAD_CIP_PREVIOUS_PRODUCT_INFO
350
362
  3
ACAD_COLOR
350
63
  3
ACAD_DETAILVIEWSTYLE
350
6A
  3
ACAD_GROUP
350
D
  3
ACAD_LAYOUT
350
62
  3
ACAD_MATERIAL
350
10
  3
ACAD_MLEADERSTYLE
350
66
  3
ACAD_MLINESTYLE
350
5F
  3
ACAD_PLOTSETTINGS
350
61
  3
ACAD_PLOTSTYLENAME
350
E
  3
ACAD_SCALELIST
350
42
  3
ACAD_SECTIONVIEWSTYLE
350
68
  3
ACAD_TABLESTYLE
350
64
  3
ACAD_VISUALSTYLE
350
29
  3
ACDB_RECOMPOSE_DATA
350
D57
  3
AcDbVariableDictionary
350
31F
  0
DICTIONARY
  5
363
330
70
100
AcDbDictionary
280
     1
281
     1
  3
ACAD_SORTENTS
360
364
  0
XRECORD
  5
362
102
{ACAD_REACTORS
330
C
102
}
330
C
100
AcDbXrecord
280
     1
300
ACD
300
2019
300
ACD_F_S
  0
DICTIONARY
  5
63
102
{ACAD_REACTORS
330
C
102
}
330
C
100
AcDbDictionary
281
     1
  0
DICTIONARY
  5
6A
102
{ACAD_REACTORS
330
C
102
}
330
C
100
AcDbDictionary
281
     1
  3
Imperial24
350
6B
  0
DICTIONARY
  5
D
102
{ACAD_REACTORS
330
C
102
}
330
C
100
AcDbDictionary
281
     1
  0
DICTIONARY
  5
62
102
{ACAD_REACTORS
330
C
102
}
330
C
100
AcDbDictionary
281
     1
  3
Layout1
350
6F
  3
Layout2
350
77
  3
Model
350
73
  0
DICTIONARY
  5
10
102
{ACAD_REACTORS
330
C
102
}
330
C
100
AcDbDictionary
281
     1
  3
ByBlock
350
19
  3
ByLayer
350
11
  3
Global
350
21
  0
DICTIONARY
  5
66
102
{ACAD_REACTORS
330
C
102
}
330
C
100
AcDbDictionary
281
     1
  3
Standard
350
67
  0
DICTIONARY
  5
5F
102
{ACAD_REACTORS
330
C
102
}
330
C
100
AcDbDictionary
281
     1
  3
Standard
350
60
  0
DICTIONARY
  5
61
102
{ACAD_REACTORS
330
C
102
}
330
C
100
AcDbDictionary
281
     1
  0
ACDBDICTIONARYWDFLT
  5
E
102
{ACAD_REACTORS
330
C
102
}
330
C
100
AcDbDictionary
281
     1
  3
Normal
350
F
100
AcDbDictionaryWithDefault
340
F
  0
DICTIONARY
  5
42
102
{ACAD_REACTORS
330
C
102
}
330
C
100
AcDbDictionary
281
     1
  3
A0
350
43
  3
A1
350
44
  3
A2
350
45
  3
A3
350
46
  3
A4
350
47
  3
A5
350
48
  3
A6
350
49
  3
A7
350
4A
  3
A8
350
4B
  3
A9
350
4C
  3
B0
350
4D
  3
B1
350
4E
  3
B2
350
4F
  3
B3
350
50
  3
B4
350
51
  3
B5
350
52
  3
B6
350
53
  0
DICTIONARY
  5
68
102
{ACAD_REACTORS
330
C
102
}
330
C
100
AcDbDictionary
281
     1
  3
Imperial24
350
69
  0
DICTIONARY
  5
64
102
{ACAD_REACTORS
330
C
102
}
330
C
100
AcDbDictionary
281
     1
  3
Standard
350
65
  0
DICTIONARY
  5
29
102
{ACAD_REACTORS
330
C
102
}
330
C
100
AcDbDictionary
281
     1
  3
2dWireframe
350
2F
  3
Basic
350
2E
  3
Brighten
350
35
  3
ColorChange
350
39
  3
Conceptual
350
32
  3
Dim
350
34
  3
EdgeColorOff
350
41
  3
Facepattern
350
38
  3
Flat
350
2A
  3
FlatWithEdges
350
2B
  3
Gouraud
350
2C
  3
GouraudWithEdges
350
2D
  3
Hidden
350
31
  3
JitterOff
350
3F
  3
Linepattern
350
37
  3
OverhangOff
350
40
  3
Realistic
350
33
  3
Shaded
350
3E
  3
Shaded with edges
350
3D
  3
Shades of Gray
350
3A
  3
Sketchy
350
3B
  3
Thicken
350
36
  3
Wireframe
350
30
  3
X-Ray
350
3C
  0
XRECORD
  5
D57
102
{ACAD_REACTORS
330
C
102
}
330
C
100
AcDbXrecord
280
     1
 90
        1
330
65
  0
DICTIONARY
  5
31F
102
{ACAD_REACTORS
330
C
102
}
330
C
100
AcDbDictionary
281
     1
  3
CANNOSCALE
350
324
  3
CMLEADERSTYLE
350
321
  3
CTABLESTYLE
350
320
  3
CVIEWDETAILSTYLE
350
322
  3
CVIEWSECTIONSTYLE
350
323
  0
SORTENTSTABLE
  5
364
102
{ACAD_REACTORS
330
363
102
}
330
363
100
AcDbSortentsTable
330
70
  0
ACDBDETAILVIEWSTYLE
  5
6B
102
{ACAD_XDICTIONARY
360
D5A
102
}
102
{ACAD_REACTORS
330
6A
102
}
330
6A
100
AcDbModelDocViewStyle
 70
     0
  3
Imperial24
290
     0
100
AcDbDetailViewStyle
 70
     0
 71
     0
 90
        3
 71
     1
340
55
 62
   256
 40
0.24
340
0
 62
   256
 40
0.24
300

 40
0.36
280
     3
 71
     2
340
5D
 90
       25
 62
   256
 71
     3
340
55
 62
   256
 40
0.24
 90
        1
 40
0.75
 90
        1
300
%<\AcVar ViewType \f "%tc1">% %<\AcVar ViewDetailId>%\PSCALE %<\AcVar ViewScale \f "%sn">%
 71
     4
340
5D
 90
       25
 62
   256
340
5D
 90
       25
 62
   256
280
     0
  0
LAYOUT
  5
6F
102
{ACAD_REACTORS
330
62
102
}
330
62
100
AcDbPlotSettings
  1

  2

  4

  6

 40
0.0
 41
0.0
 42
0.0
 43
0.0
 44
0.0
 45
0.0
 46
0.0
 47
0.0
 48
0.0
 49
0.0
140
0.0
141
0.0
142
1.0
143
1.0
 70
   688
 72
     0
 73
     0
 74
     5
  7

 75
    16
147
1.0
 76
     0
 77
     2
 78
   300
148
0.0
149
0.0
100
AcDbLayout
  1
Layout1
 70
     1
 71
     1
 10
0.0
 20
0.0
 11
12.0
 21
9.0
 12
0.0
 22
0.0
 32
0.0
 14
1.000000000000000E+20
 24
1.000000000000000E+20
 34
1.000000000000000E+20
 15
-1.000000000000000E+20
 25
-1.000000000000000E+20
 35
-1.000000000000000E+20
146
0.0
 13
0.0
 23
0.0
 33
0.0
 16
1.0
 26
0.0
 36
0.0
 17
0.0
 27
1.0
 37
0.0
 76
     0
330
6C
  0
LAYOUT
  5
77
102
{ACAD_REACTORS
330
62
102
}
330
62
100
AcDbPlotSettings
  1

  2

  4

  6

 40
0.0
 41
0.0
 42
0.0
 43
0.0
 44
0.0
 45
0.0
 46
0.0
 47
0.0
 48
0.0
 49
0.0
140
0.0
141
0.0
142
1.0
143
1.0
 70
   688
 72
     0
 73
     0
 74
     5
  7

 75
    16
147
1.0
 76
     0
 77
     2
 78
   300
148
0.0
149
0.0
100
AcDbLayout
  1
Layout2
 70
     1
 71
     2
 10
0.0
 20
0.0
 11
12.0
 21
9.0
 12
0.0
 22
0.0
 32
0.0
 14
0.0
 24
0.0
 34
0.0
 15
0.0
 25
0.0
 35
0.0
146
0.0
 13
0.0
 23
0.0
 33
0.0
 16
1.0
 26
0.0
 36
0.0
 17
0.0
 27
1.0
 37
0.0
 76
     0
330
74
  0
LAYOUT
  5
73
102
{ACAD_REACTORS
330
62
102
}
330
62
100
AcDbPlotSettings
  1

  2

  4

  6

 40
0.0
 41
0.0
 42
0.0
 43
0.0
 44
0.0
 45
0.0
 46
0.0
 47
0.0
 48
0.0
 49
0.0
140
0.0
141
0.0
142
1.0
143
1.0
 70
  1712
 72
     0
 73
     0
 74
     0
  7

 75
     0
147
1.0
 76
     0
 77
     2
 78
   300
148
0.0
149
0.0
100
AcDbLayout
  1
Model
 70
     1
 71
     0
 10
0.0
 20
0.0
 11
12.0
 21
9.0
 12
0.0
 22
0.0
 32
0.0
 14
0.0
 24
0.0
 34
0.0
 15
0.0
 25
0.0
 35
0.0
146
0.0
 13
0.0
 23
0.0
 33
0.0
 16
1.0
 26
0.0
 36
0.0
 17
0.0
 27
1.0
 37
0.0
 76
     0
330
70
331
57
  0
MATERIAL
  5
19
102
{ACAD_XDICTIONARY
360
1A
102
}
102
{ACAD_REACTORS
330
10
102
}
330
10
100
AcDbMaterial
  1
ByBlock
 72
     0
 43
0.0208333333333333
 43
0.0
 43
0.0
 43
0.0
 43
0.0
 43
0.0208333333333333
 43
0.0
 43
0.0
 43
0.0
 43
0.0
 43
1.0
 43
0.0
 43
0.0
 43
0.0
 43
0.0
 43
1.0
 77
     0
 47
0.0208333333333333
 47
0.0
 47
0.0
 47
0.0
 47
0.0
 47
0.0208333333333333
 47
0.0
 47
0.0
 47
0.0
 47
0.0
 47
1.0
 47
0.0
 47
0.0
 47
0.0
 47
0.0
 47
1.0
171
     0
 49
0.0208333333333333
 49
0.0
 49
0.0
 49
0.0
 49
0.0
 49
0.0208333333333333
 49
0.0
 49
0.0
 49
0.0
 49
0.0
 49
1.0
 49
0.0
 49
0.0
 49
0.0
 49
0.0
 49
1.0
175
     0
142
0.0208333333333333
142
0.0
142
0.0
142
0.0
142
0.0
142
0.0208333333333333
142
0.0
142
0.0
142
0.0
142
0.0
142
1.0
142
0.0
142
0.0
142
0.0
142
0.0
142
1.0
179
     0
144
0.0208333333333333
144
0.0
144
0.0
144
0.0
144
0.0
144
0.0208333333333333
144
0.0
144
0.0
144
0.0
144
0.0
144
1.0
144
0.0
144
0.0
144
0.0
144
0.0
144
1.0
147
0.0208333333333333
147
0.0
147
0.0
147
0.0
147
0.0
147
0.0208333333333333
147
0.0
147
0.0
147
0.0
147
0.0
147
1.0
147
0.0
147
0.0
147
0.0
147
0.0
147
1.0
  0
MATERIAL
  5
11
102
{ACAD_XDICTIONARY
360
12
102
}
102
{ACAD_REACTORS
330
10
102
}
330
10
100
AcDbMaterial
  1
ByLayer
 72
     0
 43
0.0208333333333333
 43
0.0
 43
0.0
 43
0.0
 43
0.0
 43
0.0208333333333333
 43
0.0
 43
0.0
 43
0.0
 43
0.0
 43
1.0
 43
0.0
 43
0.0
 43
0.0
 43
0.0
 43
1.0
 77
     0
 47
0.0208333333333333
 47
0.0
 47
0.0
 47
0.0
 47
0.0
 47
0.0208333333333333
 47
0.0
 47
0.0
 47
0.0
 47
0.0
 47
1.0
 47
0.0
 47
0.0
 47
0.0
 47
0.0
 47
1.0
171
     0
 49
0.0208333333333333
 49
0.0
 49
0.0
 49
0.0
 49
0.0
 49
0.0208333333333333
 49
0.0
 49
0.0
 49
0.0
 49
0.0
 49
1.0
 49
0.0
 49
0.0
 49
0.0
 49
0.0
 49
1.0
175
     0
142
0.0208333333333333
142
0.0
142
0.0
142
0.0
142
0.0
142
0.0208333333333333
142
0.0
142
0.0
142
0.0
142
0.0
142
1.0
142
0.0
142
0.0
142
0.0
142
0.0
142
1.0
179
     0
144
0.0208333333333333
144
0.0
144
0.0
144
0.0
144
0.0
144
0.0208333333333333
144
0.0
144
0.0
144
0.0
144
0.0
144
1.0
144
0.0
144
0.0
144
0.0
144
0.0
144
1.0
147
0.0208333333333333
147
0.0
147
0.0
147
0.0
147
0.0
147
0.0208333333333333
147
0.0
147
0.0
147
0.0
147
0.0
147
1.0
147
0.0
147
0.0
147
0.0
147
0.0
147
1.0
  0
MATERIAL
  5
21
102
{ACAD_XDICTIONARY
360
22
102
}
102
{ACAD_REACTORS
330
10
102
}
330
10
100
AcDbMaterial
  1
Global
 72
     0
 43
0.0208333333333333
 43
0.0
 43
0.0
 43
0.0
 43
0.0
 43
0.0208333333333333
 43
0.0
 43
0.0
 43
0.0
 43
0.0
 43
1.0
 43
0.0
 43
0.0
 43
0.0
 43
0.0
 43
1.0
 77
     0
 47
0.0208333333333333
 47
0.0
 47
0.0
 47
0.0
 47
0.0
 47
0.0208333333333333
 47
0.0
 47
0.0
 47
0.0
 47
0.0
 47
1.0
 47
0.0
 47
0.0
 47
0.0
 47
0.0
 47
1.0
171
     0
 49
0.0208333333333333
 49
0.0
 49
0.0
 49
0.0
 49
0.0
 49
0.0208333333333333
 49
0.0
 49
0.0
 49
0.0
 49
0.0
 49
1.0
 49
0.0
 49
0.0
 49
0.0
 49
0.0
 49
1.0
175
     0
142
0.0208333333333333
142
0.0
142
0.0
142
0.0
142
0.0
142
0.0208333333333333
142
0.0
142
0.0
142
0.0
142
0.0
142
1.0
142
0.0
142
0.0
142
0.0
142
0.0
142
1.0
179
     0
144
0.0208333333333333
144
0.0
144
0.0
144
0.0
144
0.0
144
0.0208333333333333
144
0.0
144
0.0
144
0.0
144
0.0
144
1.0
144
0.0
144
0.0
144
0.0
144
0.0
144
1.0
147
0.0208333333333333
147
0.0
147
0.0
147
0.0
147
0.0
147
0.0208333333333333
147
0.0
147
0.0
147
0.0
147
0.0
147
1.0
147
0.0
147
0.0
147
0.0
147
0.0
147
1.0
  0
MLEADERSTYLE
  5
67
102
{ACAD_REACTORS
330
66
102
}
330
66
100
AcDbMLeaderStyle
179
     2
170
     2
171
     1
172
     0
 90
        2
 40
0.0
 41
0.0
173
     1
 91
-1056964608
340
5B
 92
       -2
290
     1
 42
0.09
291
     1
 43
0.36
  3
Standard
 44
0.18
300

342
55
174
     1
178
     6
175
     1
176
     0
 93
-1056964608
 45
0.18
292
     0
297
     0
 46
0.18
 94
-1056964608
 47
1.0
 49
1.0
140
1.0
293
     1
141
0.0
294
     1
177
     0
142
1.0
295
     0
296
     0
143
0.125
271
     0
272
     9
273
     9
298
     1
  0
MLINESTYLE
  5
60
102
{ACAD_REACTORS
330
5F
102
}
330
5F
100
AcDbMlineStyle
  2
STANDARD
 70
     0
  3

 62
   256
 51
90.0
 52
90.0
 71
     2
 49
0.5
 62
   256
  6
BYLAYER
 49
-0.5
 62
   256
  6
BYLAYER
  0
ACDBPLACEHOLDER
  5
F
102
{ACAD_REACTORS
330
E
102
}
330
E
  0
SCALE
  5
43
102
{ACAD_REACTORS
330
42
102
}
330
42
100
AcDbScale
 70
     0
300
1:1
140
1.0
141
1.0
290
     1
  0
SCALE
  5
44
102
{ACAD_REACTORS
330
42
102
}
330
42
100
AcDbScale
 70
     0
300
1/128" = 1'-0"
140
0.0078125
141
12.0
290
     0
  0
SCALE
  5
45
102
{ACAD_REACTORS
330
42
102
}
330
42
100
AcDbScale
 70
     0
300
1/64" = 1'-0"
140
0.015625
141
12.0
290
     0
  0
SCALE
  5
46
102
{ACAD_REACTORS
330
42
102
}
330
42
100
AcDbScale
 70
     0
300
1/32" = 1'-0"
140
0.03125
141
12.0
290
     0
  0
SCALE
  5
47
102
{ACAD_REACTORS
330
42
102
}
330
42
100
AcDbScale
 70
     0
300
1/16" = 1'-0"
140
0.0625
141
12.0
290
     0
  0
SCALE
  5
48
102
{ACAD_REACTORS
330
42
102
}
330
42
100
AcDbScale
 70
     0
300
3/32" = 1'-0"
140
0.09375
141
12.0
290
     0
  0
SCALE
  5
49
102
{ACAD_REACTORS
330
42
102
}
330
42
100
AcDbScale
 70
     0
300
1/8" = 1'-0"
140
0.125
141
12.0
290
     0
  0
SCALE
  5
4A
102
{ACAD_REACTORS
330
42
102
}
330
42
100
AcDbScale
 70
     0
300
3/16" = 1'-0"
140
0.1875
141
12.0
290
     0
  0
SCALE
  5
4B
102
{ACAD_REACTORS
330
42
102
}
330
42
100
AcDbScale
 70
     0
300
1/4" = 1'-0"
140
0.25
141
12.0
290
     0
  0
SCALE
  5
4C
102
{ACAD_REACTORS
330
42
102
}
330
42
100
AcDbScale
 70
     0
300
3/8" = 1'-0"
140
0.375
141
12.0
290
     0
  0
SCALE
  5
4D
102
{ACAD_REACTORS
330
42
102
}
330
42
100
AcDbScale
 70
     0
300
1/2" = 1'-0"
140
0.5
141
12.0
290
     0
  0
SCALE
  5
4E
102
{ACAD_REACTORS
330
42
102
}
330
42
100
AcDbScale
 70
     0
300
3/4" = 1'-0"
140
0.75
141
12.0
290
     0
  0
SCALE
  5
4F
102
{ACAD_REACTORS
330
42
102
}
330
42
100
AcDbScale
 70
     0
300
1" = 1'-0"
140
1.0
141
12.0
290
     0
  0
SCALE
  5
50
102
{ACAD_REACTORS
330
42
102
}
330
42
100
AcDbScale
 70
     0
300
1-1/2" = 1'-0"
140
1.5
141
12.0
290
     0
  0
SCALE
  5
51
102
{ACAD_REACTORS
330
42
102
}
330
42
100
AcDbScale
 70
     0
300
3" = 1'-0"
140
3.0
141
12.0
290
     0
  0
SCALE
  5
52
102
{ACAD_REACTORS
330
42
102
}
330
42
100
AcDbScale
 70
     0
300
6" = 1'-0"
140
6.0
141
12.0
290
     0
  0
SCALE
  5
53
102
{ACAD_REACTORS
330
42
102
}
330
42
100
AcDbScale
 70
     0
300
1'-0" = 1'-0"
140
12.0
141
12.0
290
     0
  0
ACDBSECTIONVIEWSTYLE
  5
69
102
{ACAD_XDICTIONARY
360
D58
102
}
102
{ACAD_REACTORS
330
68
102
}
330
68
100
AcDbModelDocViewStyle
 70
     0
  3
Imperial24
290
     0
100
AcDbSectionViewStyle
 70
     0
 71
     0
 90
       78
 71
     1
340
55
 62
   256
 40
0.24
340
0
340
0
 62
   256
 40
0.24
300
I, O, Q, S, X, Z
 40
0.48
 90
        3
 40
0.18
 90
        1
 71
     2
340
5D
 90
       25
 62
   256
340
5D
 90
       50
 62
   256
 40
0.24
 40
0.0
 40
0.24
 71
     3
340
55
 62
   256
 40
0.24
 90
        1
 40
0.75
 90
        1
300
%<\AcVar ViewType \f "%tc1">% %<\AcVar ViewSectionStartId>%-%<\AcVar ViewSectionEndId>%\PSCALE %<\AcVar ViewScale \f "%sn">%
 71
     4
 62
   256
 62
   257
300
ANSI31
 40
1.0
 90
        0
290
     0
290
     0
 90
        6
 40
0.0
 40
1.570796326794896
 40
0.2617993877991494
 40
1.308996938995747
 40
-0.2617993877991494
 40
1.832595714594045
  0
TABLESTYLE
  5
65
102
{ACAD_XDICTIONARY
360
325
102
}
102
{ACAD_REACTORS
330
64
102
}
330
64
100
AcDbTableStyle
280
     0
  3
Standard
 70
     0
 71
     0
 40
0.06
 41
0.06
280
     0
281
     0
  7
Standard
140
0.18
170
     2
 62
     0
 63
     7
283
     0
 90
      512
 91
        0
  1

274
    -2
284
     1
 64
     0
275
    -2
285
     1
 65
     0
276
    -2
286
     1
 66
     0
277
    -2
287
     1
 67
     0
278
    -2
288
     1
 68
     0
279
    -2
289
     1
 69
     0
  7
Standard
140
0.25
170
     5
 62
     0
 63
     7
283
     0
 90
      512
 91
        0
  1

274
    -2
284
     1
 64
     0
275
    -2
285
     1
 65
     0
276
    -2
286
     1
 66
     0
277
    -2
287
     1
 67
     0
278
    -2
288
     1
 68
     0
279
    -2
289
     1
 69
     0
  7
Standard
140
0.18
170
     5
 62
     0
 63
     7
283
     0
 90
      512
 91
        0
  1

274
    -2
284
     1
 64
     0
275
    -2
285
     1
 65
     0
276
    -2
286
     1
 66
     0
277
    -2
287
     1
 67
     0
278
    -2
288
     1
 68
     0
279
    -2
289
     1
 69
     0
  0
VISUALSTYLE
  5
2F
102
{ACAD_REACTORS
330
29
102
}
330
29
100
AcDbVisualStyle
  2
2dWireframe
 70
     4
177
     3
291
     0
 70
    58
 90
        0
176
     1
 90
        2
176
     1
 90
        0
176
     1
 90
        0
176
     1
 40
0.6
176
     1
 40
30.0
176
     1
 62
     7
420
 16777215
176
     1
 90
        1
176
     1
 90
        4
176
     1
 62
     7
176
     1
 62
   257
176
     1
 90
        1
176
     1
 90
        1
176
     1
 40
1.0
176
     1
 90
        0
176
     1
 62
   257
176
     1
 40
1.0
176
     1
 90
        1
176
     1
 90
        6
176
     1
 90
        2
176
     1
 62
     7
176
     1
 90
        5
176
     1
 90
        0
176
     1
 90
        0
176
     1
290
     0
176
     1
 90
        1
176
     1
 40
0.0
176
     1
 90
        0
176
     1
290
     1
176
     1
290
     1
176
     1
290
     0
176
     1
290
     0
176
     1
290
     0
176
     1
290
     0
176
     1
290
     0
176
     1
290
     0
176
     1
290
     0
176
     1
 90
       50
176
     1
 40
0.0
176
     1
 40
1.0
176
     1
 90
        0
176
     1
 62
    18
420
        0
176
     1
 90
       50
176
     1
 90
        3
176
     1
 62
     5
420
      255
176
     1
290
     0
176
     1
 90
       50
176
     1
 90
       50
176
     1
 90
       50
176
     1
290
     0
176
     1
 90
       50
176
     1
 62
   256
176
     0
 40
1.0
176
     0
 90
        2
176
     1
  1
strokes_ogs.tif
176
     1
290
     0
176
     1
 40
1.0
176
     1
 40
1.0
176
     1
1001
ACAD
1000
AcDbSavedByObjectVersion
1070
     0
  0
VISUALSTYLE
  5
2E
102
{ACAD_REACTORS
330
29
102
}
330
29
100
AcDbVisualStyle
  2
Basic
 70
     7
177
     3
291
     1
 70
    58
 90
        1
176
     1
 90
        0
176
     1
 90
        1
176
     1
 90
        0
176
     1
 40
0.6
176
     1
 40
30.0
176
     1
 62
     7
420
 16777215
176
     1
 90
        0
176
     1
 90
        4
176
     1
 62
     7
176
     1
 62
   257
176
     1
 90
        1
176
     1
 90
        1
176
     1
 40
1.0
176
     1
 90
        8
176
     1
 62
     7
176
     1
 40
1.0
176
     1
 90
        1
176
     1
 90
        6
176
     1
 90
        2
176
     1
 62
     7
176
     1
 90
        5
176
     1
 90
        0
176
     1
 90
        0
176
     1
290
     0
176
     1
 90
        1
176
     1
 40
0.0
176
     1
 90
        0
176
     1
290
     0
176
     1
290
     1
176
     1
290
     1
176
     1
290
     0
176
     1
290
     0
176
     1
290
     0
176
     1
290
     0
176
     1
290
     0
176
     1
290
     0
176
     1
 90
       50
176
     1
 40
0.0
176
     1
 40
1.0
176
     1
 90
        0
176
     1
 62
    18
420
        0
176
     1
 90
       50
176
     1
 90
        3
176
     1
 62
     5
420
      255
176
     1
290
     0
176
     1
 90
       50
176
     1
 90
       50
176
     1
 90
       50
176
     1
290
     0
176
     1
 90
       50
176
     1
 62
   256
176
     0
 40
1.0
176
     0
 90
        2
176
     1
  1
strokes_ogs.tif
176
     1
290
     0
176
     1
 40
1.0
176
     1
 40
1.0
176
     1
1001
ACAD
1000
AcDbSavedByObjectVersion
1070
     0
  0
VISUALSTYLE
  5
35
102
{ACAD_REACTORS
330
29
102
}
330
29
100
AcDbVisualStyle
  2
Brighten
 70
    12
177
     3
291
     1
 70
    58
 90
        2
176
     1
 90
        2
176
     1
 90
        0
176
     1
 90
        0
176
     1
 40
0.6
176
     1
 40
30.0
176
     1
 62
     7
420
 16777215
176
     1
 90
        1
176
     1
 90
        4
176
     1
 62
     7
176
     1
 62
   257
176
     1
 90
        1
176
     1
 90
        1
176
     1
 40
1.0
176
     1
 90
        8
176
     1
 62
     7
176
     1
 40
1.0
176
     1
 90
        1
176
     1
 90
        6
176
     1
 90
        2
176
     1
 62
     7
176
     1
 90
        5
176
     1
 90
        0
176
     1
 90
        0
176
     1
290
     0
176
     1
 90
        1
176
     1
 40
50.0
176
     1
 90
        0
176
     1
290
     0
176
     1
290
     1
176
     1
290
     1
176
     1
290
     0
176
     1
290
     0
176
     1
290
     0
176
     1
290
     0
176
     1
290
     0
176
     1
290
     0
176
     1
 90
       50
176
     1
 40
0.0
176
     1
 40
1.0
176
     1
 90
        0
176
     1
 62
    18
420
        0
176
     1
 90
       50
176
     1
 90
        3
176
     1
 62
     5
420
      255
176
     1
290
     0
176
     1
 90
       50
176
     1
 90
       50
176
     1
 90
       50
176
     1
290
     0
176
     1
 90
       50
176
     1
 62
   256
176
     0
 40
1.0
176
     0
 90
        2
176
     1
  1
strokes_ogs.tif
176
     1
290
     0
176
     1
 40
1.0
176
     1
 40
1.0
176
     1
1001
ACAD
1000
AcDbSavedByObjectVersion
1070
     0
  0
VISUALSTYLE
  5
39
102
{ACAD_REACTORS
330
29
102
}
330
29
100
AcDbVisualStyle
  2
ColorChange
 70
    16
177
     3
291
     1
 70
    58
 90
        2
176
     1
 90
        2
176
     1
 90
        3
176
     1
 90
        0
176
     1
 40
0.6
176
     1
 40
30.0
176
     1
 62
     8
420
  8421504
176
     1
 90
        1
176
     1
 90
        4
176
     1
 62
     7
176
     1
 62
   257
176
     1
 90
        1
176
     1
 90
        1
176
     1
 40
1.0
176
     1
 90
        8
176
     1
 62
     8
420
  8421504
176
     1
 40
1.0
176
     1
 90
        1
176
     1
 90
        6
176
     1
 90
        2
176
     1
 62
     7
176
     1
 90
        5
176
     1
 90
        0
176
     1
 90
        0
176
     1
290
     0
176
     1
 90
        1
176
     1
 40
0.0
176
     1
 90
        0
176
     1
290
     0
176
     1
290
     1
176
     1
290
     1
176
     1
290
     0
176
     1
290
     0
176
     1
290
     0
176
     1
290
     0
176
     1
290
     0
176
     1
290
     0
176
     1
 90
       50
176
     1
 40
0.0
176
     1
 40
1.0
176
     1
 90
        0
176
     1
 62
    18
420
        0
176
     1
 90
       50
176
     1
 90
        3
176
     1
 62
     5
420
      255
176
     1
290
     0
176
     1
 90
       50
176
     1
 90
       50
176
     1
 90
       50
176
     1
290
     0
176
     1
 90
       50
176
     1
 62
   256
176
     0
 40
1.0
176
     0
 90
        2
176
     1
  1
strokes_ogs.tif
176
     1
290
     0
176
     1
 40
1.0
176
     1
 40
1.0
176
     1
1001
ACAD
1000
AcDbSavedByObjectVersion
1070
     0
  0
VISUALSTYLE
  5
32
102
{ACAD_REACTORS
330
29
102
}
330
29
100
AcDbVisualStyle
  2
Conceptual
 70
     9
177
     3
291
     0
 70
    58
 90
        3
176
     1
 90
        2
176
     1
 90
        0
176
     1
 90
        0
176
     1
 40
0.6
176
     1
 40
30.0
176
     1
 62
     7
420
 16777215
176
     1
 90
        2
176
     1
 90
        2
176
     1
 62
     7
176
     1
 62
   257
176
     1
 90
        1
176
     1
 90
        1
176
     1
 40
179.0
176
     1
 90
        8
176
     1
 62
     7
176
     1
 40
1.0
176
     1
 90
        1
176
     1
 90
        6
176
     1
 90
        2
176
     1
 62
     7
176
     1
 90
        3
176
     1
 90
        0
176
     1
 90
        0
176
     1
290
     0
176
     1
 90
        1
176
     1
 40
0.0
176
     1
 90
        0
176
     1
290
     0
176
     1
290
     1
176
     1
290
     1
176
     1
290
     0
176
     1
290
     0
176
     1
290
     0
176
     1
290
     0
176
     1
290
     0
176
     1
290
     0
176
     1
 90
       50
176
     1
 40
0.0
176
     1
 40
1.0
176
     1
 90
        0
176
     1
 62
    18
420
        0
176
     1
 90
       50
176
     1
 90
        3
176
     1
 62
     5
420
      255
176
     1
290
     0
176
     1
 90
       50
176
     1
 90
       50
176
     1
 90
       50
176
     1
290
     0
176
     1
 90
       50
176
     1
 62
   256
176
     0
 40
1.0
176
     0
 90
        2
176
     1
  1
strokes_ogs.tif
176
     1
290
     0
176
     1
 40
1.0
176
     1
 40
1.0
176
     1
1001
ACAD
1000
AcDbSavedByObjectVersion
1070
     0
  0
VISUALSTYLE
  5
34
102
{ACAD_REACTORS
330
29
102
}
330
29
100
AcDbVisualStyle
  2
Dim
 70
    11
177
     3
291
     1
 70
    58
 90
        2
176
     1
 90
        2
176
     1
 90
        0
176
     1
 90
        0
176
     1
 40
0.6
176
     1
 40
30.0
176
     1
 62
     7
420
 16777215
176
     1
 90
        1
176
     1
 90
        4
176
     1
 62
     7
176
     1
 62
   257
176
     1
 90
        1
176
     1
 90
        1
176
     1
 40
1.0
176
     1
 90
        8
176
     1
 62
     7
176
     1
 40
1.0
176
     1
 90
        1
176
     1
 90
        6
176
     1
 90
        2
176
     1
 62
     7
176
     1
 90
        5
176
     1
 90
        0
176
     1
 90
        0
176
     1
290
     0
176
     1
 90
        1
176
     1
 40
-50.0
176
     1
 90
        0
176
     1
290
     0
176
     1
290
     1
176
     1
290
     1
176
     1
290
     0
176
     1
290
     0
176
     1
290
     0
176
     1
290
     0
176
     1
290
     0
176
     1
290
     0
176
     1
 90
       50
176
     1
 40
0.0
176
     1
 40
1.0
176
     1
 90
        0
176
     1
 62
    18
420
        0
176
     1
 90
       50
176
     1
 90
        3
176
     1
 62
     5
420
      255
176
     1
290
     0
176
     1
 90
       50
176
     1
 90
       50
176
     1
 90
       50
176
     1
290
     0
176
     1
 90
       50
176
     1
 62
   256
176
     0
 40
1.0
176
     0
 90
        2
176
     1
  1
strokes_ogs.tif
176
     1
290
     0
176
     1
 40
1.0
176
     1
 40
1.0
176
     1
1001
ACAD
1000
AcDbSavedByObjectVersion
1070
     0
  0
VISUALSTYLE
  5
41
102
{ACAD_REACTORS
330
29
102
}
330
29
100
AcDbVisualStyle
  2
EdgeColorOff
 70
    22
177
     3
291
     1
 70
    58
 90
        2
176
     0
 90
        2
176
     0
 90
        0
176
     0
 90
        0
176
     0
 40
0.6
176
     0
 40
30.0
176
     0
 62
     7
420
 16777215
176
     0
 90
        1
176
     0
 90
        4
176
     0
 62
     7
176
     0
 62
   257
176
     0
 90
        1
176
     0
 90
        1
176
     0
 40
1.0
176
     0
 90
        8
176
     2
 62
     7
176
     0
 40
1.0
176
     0
 90
        1
176
     0
 90
        6
176
     0
 90
        2
176
     0
 62
     7
176
     0
 90
        5
176
     0
 90
        0
176
     0
 90
        0
176
     0
290
     0
176
     0
 90
        1
176
     0
 40
0.0
176
     0
 90
        0
176
     0
290
     0
176
     0
290
     1
176
     0
290
     1
176
     0
290
     0
176
     0
290
     0
176
     0
290
     0
176
     0
290
     0
176
     0
290
     0
176
     0
290
     0
176
     0
 90
       50
176
     0
 40
0.0
176
     0
 40
1.0
176
     0
 90
        0
176
     0
 62
    18
420
        0
176
     0
 90
       50
176
     0
 90
        3
176
     0
 62
     5
420
      255
176
     0
290
     0
176
     0
 90
       50
176
     0
 90
       50
176
     0
 90
       50
176
     0
290
     0
176
     0
 90
       50
176
     0
 62
   256
176
     0
 40
1.0
176
     0
 90
        2
176
     0
  1
strokes_ogs.tif
176
     0
290
     0
176
     0
 40
1.0
176
     0
 40
1.0
176
     0
1001
ACAD
1000
AcDbSavedByObjectVersion
1070
     0
  0
VISUALSTYLE
  5
38
102
{ACAD_REACTORS
330
29
102
}
330
29
100
AcDbVisualStyle
  2
Facepattern
 70
    15
177
     3
291
     1
 70
    58
 90
        2
176
     1
 90
        2
176
     1
 90
        0
176
     1
 90
        0
176
     1
 40
0.6
176
     1
 40
30.0
176
     1
 62
     7
420
 16777215
176
     1
 90
        1
176
     1
 90
        4
176
     1
 62
     7
176
     1
 62
   257
176
     1
 90
        1
176
     1
 90
        1
176
     1
 40
1.0
176
     1
 90
        8
176
     1
 62
     7
176
     1
 40
1.0
176
     1
 90
        1
176
     1
 90
        6
176
     1
 90
        2
176
     1
 62
     7
176
     1
 90
        5
176
     1
 90
        0
176
     1
 90
        0
176
     1
290
     0
176
     1
 90
        1
176
     1
 40
0.0
176
     1
 90
        0
176
     1
290
     0
176
     1
290
     1
176
     1
290
     1
176
     1
290
     0
176
     1
290
     0
176
     1
290
     0
176
     1
290
     0
176
     1
290
     0
176
     1
290
     0
176
     1
 90
       50
176
     1
 40
0.0
176
     1
 40
1.0
176
     1
 90
        0
176
     1
 62
    18
420
        0
176
     1
 90
       50
176
     1
 90
        3
176
     1
 62
     5
420
      255
176
     1
290
     0
176
     1
 90
       50
176
     1
 90
       50
176
     1
 90
       50
176
     1
290
     0
176
     1
 90
       50
176
     1
 62
   256
176
     0
 40
1.0
176
     0
 90
        2
176
     1
  1
strokes_ogs.tif
176
     1
290
     0
176
     1
 40
1.0
176
     1
 40
1.0
176
     1
1001
ACAD
1000
AcDbSavedByObjectVersion
1070
     0
  0
VISUALSTYLE
  5
2A
102
{ACAD_REACTORS
330
29
102
}
330
29
100
AcDbVisualStyle
  2
Flat
 70
     0
177
     3
291
     1
 70
    58
 90
        2
176
     1
 90
        1
176
     1
 90
        1
176
     1
 90
        2
176
     1
 40
0.6
176
     1
 40
30.0
176
     1
 62
     7
420
 16777215
176
     1
 90
        0
176
     1
 90
        0
176
     1
 62
     7
176
     1
 62
   257
176
     1
 90
        1
176
     1
 90
        1
176
     1
 40
1.0
176
     1
 90
        8
176
     1
 62
     7
176
     1
 40
1.0
176
     1
 90
        1
176
     1
 90
        6
176
     1
 90
        2
176
     1
 62
     7
176
     1
 90
        5
176
     1
 90
        0
176
     1
 90
        0
176
     1
290
     0
176
     1
 90
       13
176
     1
 40
0.0
176
     1
 90
        0
176
     1
290
     0
176
     1
290
     1
176
     1
290
     1
176
     1
290
     0
176
     1
290
     0
176
     1
290
     0
176
     1
290
     0
176
     1
290
     0
176
     1
290
     0
176
     1
 90
       50
176
     1
 40
0.0
176
     1
 40
1.0
176
     1
 90
        0
176
     1
 62
    18
420
        0
176
     1
 90
       50
176
     1
 90
        3
176
     1
 62
     5
420
      255
176
     1
290
     0
176
     1
 90
       50
176
     1
 90
       50
176
     1
 90
       50
176
     1
290
     0
176
     1
 90
       50
176
     1
 62
   256
176
     0
 40
1.0
176
     0
 90
        2
176
     1
  1
strokes_ogs.tif
176
     1
290
     0
176
     1
 40
1.0
176
     1
 40
1.0
176
     1
1001
ACAD
1000
AcDbSavedByObjectVersion
1070
     0
  0
VISUALSTYLE
  5
2B
102
{ACAD_REACTORS
330
29
102
}
330
29
100
AcDbVisualStyle
  2
FlatWithEdges
 70
     1
177
     3
291
     1
 70
    58
 90
        2
176
     1
 90
        1
176
     1
 90
        1
176
     1
 90
        2
176
     1
 40
0.6
176
     1
 40
30.0
176
     1
 62
     7
420
 16777215
176
     1
 90
        1
176
     1
 90
        0
176
     1
 62
     7
176
     1
 62
   257
176
     1
 90
        1
176
     1
 90
        1
176
     1
 40
1.0
176
     1
 90
        0
176
     1
 62
   257
176
     1
 40
1.0
176
     1
 90
        1
176
     1
 90
        6
176
     1
 90
        2
176
     1
 62
     7
176
     1
 90
        5
176
     1
 90
        0
176
     1
 90
        0
176
     1
290
     0
176
     1
 90
       13
176
     1
 40
0.0
176
     1
 90
        0
176
     1
290
     0
176
     1
290
     1
176
     1
290
     1
176
     1
290
     0
176
     1
290
     0
176
     1
290
     0
176
     1
290
     0
176
     1
290
     0
176
     1
290
     0
176
     1
 90
       50
176
     1
 40
0.0
176
     1
 40
1.0
176
     1
 90
        0
176
     1
 62
    18
420
        0
176
     1
 90
       50
176
     1
 90
        3
176
     1
 62
     5
420
      255
176
     1
290
     0
176
     1
 90
       50
176
     1
 90
       50
176
     1
 90
       50
176
     1
290
     0
176
     1
 90
       50
176
     1
 62
   256
176
     0
 40
1.0
176
     0
 90
        2
176
     1
  1
strokes_ogs.tif
176
     1
290
     0
176
     1
 40
1.0
176
     1
 40
1.0
176
     1
1001
ACAD
1000
AcDbSavedByObjectVersion
1070
     0
  0
VISUALSTYLE
  5
2C
102
{ACAD_REACTORS
330
29
102
}
330
29
100
AcDbVisualStyle
  2
Gouraud
 70
     2
177
     3
291
     1
 70
    58
 90
        2
176
     1
 90
        2
176
     1
 90
        1
176
     1
 90
        2
176
     1
 40
0.6
176
     1
 40
30.0
176
     1
 62
     7
420
 16777215
176
     1
 90
        0
176
     1
 90
        0
176
     1
 62
     7
176
     1
 62
   257
176
     1
 90
        1
176
     1
 90
        1
176
     1
 40
1.0
176
     1
 90
        0
176
     1
 62
     7
176
     1
 40
1.0
176
     1
 90
        1
176
     1
 90
        6
176
     1
 90
        2
176
     1
 62
     7
176
     1
 90
        5
176
     1
 90
        0
176
     1
 90
        0
176
     1
290
     0
176
     1
 90
       13
176
     1
 40
0.0
176
     1
 90
        0
176
     1
290
     0
176
     1
290
     1
176
     1
290
     1
176
     1
290
     0
176
     1
290
     0
176
     1
290
     0
176
     1
290
     0
176
     1
290
     0
176
     1
290
     0
176
     1
 90
       50
176
     1
 40
0.0
176
     1
 40
1.0
176
     1
 90
        0
176
     1
 62
    18
420
        0
176
     1
 90
       50
176
     1
 90
        3
176
     1
 62
     5
420
      255
176
     1
290
     0
176
     1
 90
       50
176
     1
 90
       50
176
     1
 90
       50
176
     1
290
     0
176
     1
 90
       50
176
     1
 62
   256
176
     0
 40
1.0
176
     0
 90
        2
176
     1
  1
strokes_ogs.tif
176
     1
290
     0
176
     1
 40
1.0
176
     1
 40
1.0
176
     1
1001
ACAD
1000
AcDbSavedByObjectVersion
1070
     0
  0
VISUALSTYLE
  5
2D
102
{ACAD_REACTORS
330
29
102
}
330
29
100
AcDbVisualStyle
  2
GouraudWithEdges
 70
     3
177
     3
291
     1
 70
    58
 90
        2
176
     1
 90
        2
176
     1
 90
        1
176
     1
 90
        2
176
     1
 40
0.6
176
     1
 40
30.0
176
     1
 62
     7
420
 16777215
176
     1
 90
        1
176
     1
 90
        0
176
     1
 62
     7
176
     1
 62
   257
176
     1
 90
        1
176
     1
 90
        1
176
     1
 40
1.0
176
     1
 90
        0
176
     1
 62
   257
176
     1
 40
1.0
176
     1
 90
        1
176
     1
 90
        6
176
     1
 90
        2
176
     1
 62
     7
176
     1
 90
        5
176
     1
 90
        0
176
     1
 90
        0
176
     1
290
     0
176
     1
 90
       13
176
     1
 40
0.0
176
     1
 90
        0
176
     1
290
     0
176
     1
290
     1
176
     1
290
     1
176
     1
290
     0
176
     1
290
     0
176
     1
290
     0
176
     1
290
     0
176
     1
290
     0
176
     1
290
     0
176
     1
 90
       50
176
     1
 40
0.0
176
     1
 40
1.0
176
     1
 90
        0
176
     1
 62
    18
420
        0
176
     1
 90
       50
176
     1
 90
        3
176
     1
 62
     5
420
      255
176
     1
290
     0
176
     1
 90
       50
176
     1
 90
       50
176
     1
 90
       50
176
     1
290
     0
176
     1
 90
       50
176
     1
 62
   256
176
     0
 40
1.0
176
     0
 90
        2
176
     1
  1
strokes_ogs.tif
176
     1
290
     0
176
     1
 40
1.0
176
     1
 40
1.0
176
     1
1001
ACAD
1000
AcDbSavedByObjectVersion
1070
     0
  0
VISUALSTYLE
  5
31
102
{ACAD_REACTORS
330
29
102
}
330
29
100
AcDbVisualStyle
  2
Hidden
 70
     6
177
     3
291
     0
 70
    58
 90
        1
176
     1
 90
        2
176
     1
 90
        2
176
     1
 90
        0
176
     1
 40
0.6
176
     1
 40
30.0
176
     1
 62
     7
420
 16777215
176
     1
 90
        2
176
     1
 90
        2
176
     1
 62
     7
176
     1
 62
   257
176
     1
 90
        2
176
     1
 90
        1
176
     1
 40
40.0
176
     1
 90
        0
176
     1
 62
   257
176
     1
 40
1.0
176
     1
 90
        1
176
     1
 90
        6
176
     1
 90
        2
176
     1
 62
     7
176
     1
 90
        3
176
     1
 90
        0
176
     1
 90
        0
176
     1
290
     0
176
     1
 90
        1
176
     1
 40
0.0
176
     1
 90
        0
176
     1
290
     0
176
     1
290
     1
176
     1
290
     1
176
     1
290
     0
176
     1
290
     0
176
     1
290
     0
176
     1
290
     0
176
     1
290
     0
176
     1
290
     0
176
     1
 90
       50
176
     1
 40
0.0
176
     1
 40
1.0
176
     1
 90
        0
176
     1
 62
    18
420
        0
176
     1
 90
       50
176
     1
 90
        3
176
     1
 62
     5
420
      255
176
     1
290
     0
176
     1
 90
       50
176
     1
 90
       50
176
     1
 90
       50
176
     1
290
     0
176
     1
 90
       50
176
     1
 62
   256
176
     0
 40
1.0
176
     0
 90
        2
176
     1
  1
strokes_ogs.tif
176
     1
290
     0
176
     1
 40
1.0
176
     1
 40
1.0
176
     1
1001
ACAD
1000
AcDbSavedByObjectVersion
1070
     0
  0
VISUALSTYLE
  5
3F
102
{ACAD_REACTORS
330
29
102
}
330
29
100
AcDbVisualStyle
  2
JitterOff
 70
    20
177
     3
291
     1
 70
    58
 90
        2
176
     0
 90
        2
176
     0
 90
        0
176
     0
 90
        0
176
     0
 40
0.6
176
     0
 40
30.0
176
     0
 62
     7
420
 16777215
176
     0
 90
        1
176
     0
 90
        4
176
     0
 62
     7
176
     0
 62
   257
176
     0
 90
        1
176
     0
 90
        1
176
     0
 40
1.0
176
     0
 90
       10
176
     2
 62
     7
176
     0
 40
1.0
176
     0
 90
        1
176
     0
 90
        6
176
     0
 90
        2
176
     0
 62
     7
176
     0
 90
        5
176
     0
 90
        0
176
     0
 90
        0
176
     0
290
     0
176
     0
 90
        1
176
     0
 40
0.0
176
     0
 90
        0
176
     0
290
     0
176
     0
290
     1
176
     0
290
     1
176
     0
290
     0
176
     0
290
     0
176
     0
290
     0
176
     0
290
     0
176
     0
290
     0
176
     0
290
     0
176
     0
 90
       50
176
     0
 40
0.0
176
     0
 40
1.0
176
     0
 90
        0
176
     0
 62
    18
420
        0
176
     0
 90
       50
176
     0
 90
        3
176
     0
 62
     5
420
      255
176
     0
290
     0
176
     0
 90
       50
176
     0
 90
       50
176
     0
 90
       50
176
     0
290
     0
176
     0
 90
       50
176
     0
 62
   256
176
     0
 40
1.0
176
     0
 90
        2
176
     0
  1
strokes_ogs.tif
176
     0
290
     0
176
     0
 40
1.0
176
     0
 40
1.0
176
     0
1001
ACAD
1000
AcDbSavedByObjectVersion
1070
     0
  0
VISUALSTYLE
  5
37
102
{ACAD_REACTORS
330
29
102
}
330
29
100
AcDbVisualStyle
  2
Linepattern
 70
    14
177
     3
291
     1
 70
    58
 90
        2
176
     1
 90
        2
176
     1
 90
        0
176
     1
 90
        0
176
     1
 40
0.6
176
     1
 40
30.0
176
     1
 62
     7
420
 16777215
176
     1
 90
        1
176
     1
 90
        4
176
     1
 62
     7
176
     1
 62
   257
176
     1
 90
        7
176
     1
 90
        7
176
     1
 40
1.0
176
     1
 90
        8
176
     1
 62
     7
176
     1
 40
1.0
176
     1
 90
        1
176
     1
 90
        6
176
     1
 90
        2
176
     1
 62
     7
176
     1
 90
        5
176
     1
 90
        0
176
     1
 90
        0
176
     1
290
     0
176
     1
 90
        1
176
     1
 40
0.0
176
     1
 90
        0
176
     1
290
     0
176
     1
290
     1
176
     1
290
     1
176
     1
290
     0
176
     1
290
     0
176
     1
290
     0
176
     1
290
     0
176
     1
290
     0
176
     1
290
     0
176
     1
 90
       50
176
     1
 40
0.0
176
     1
 40
1.0
176
     1
 90
        0
176
     1
 62
    18
420
        0
176
     1
 90
       50
176
     1
 90
        3
176
     1
 62
     5
420
      255
176
     1
290
     0
176
     1
 90
       50
176
     1
 90
       50
176
     1
 90
       50
176
     1
290
     0
176
     1
 90
       50
176
     1
 62
   256
176
     0
 40
1.0
176
     0
 90
        2
176
     1
  1
strokes_ogs.tif
176
     1
290
     0
176
     1
 40
1.0
176
     1
 40
1.0
176
     1
1001
ACAD
1000
AcDbSavedByObjectVersion
1070
     0
  0
VISUALSTYLE
  5
40
102
{ACAD_REACTORS
330
29
102
}
330
29
100
AcDbVisualStyle
  2
OverhangOff
 70
    21
177
     3
291
     1
 70
    58
 90
        2
176
     0
 90
        2
176
     0
 90
        0
176
     0
 90
        0
176
     0
 40
0.6
176
     0
 40
30.0
176
     0
 62
     7
420
 16777215
176
     0
 90
        1
176
     0
 90
        4
176
     0
 62
     7
176
     0
 62
   257
176
     0
 90
        1
176
     0
 90
        1
176
     0
 40
1.0
176
     0
 90
        9
176
     2
 62
     7
176
     0
 40
1.0
176
     0
 90
        1
176
     0
 90
        6
176
     0
 90
        2
176
     0
 62
     7
176
     0
 90
        5
176
     0
 90
        0
176
     0
 90
        0
176
     0
290
     0
176
     0
 90
        1
176
     0
 40
0.0
176
     0
 90
        0
176
     0
290
     0
176
     0
290
     1
176
     0
290
     1
176
     0
290
     0
176
     0
290
     0
176
     0
290
     0
176
     0
290
     0
176
     0
290
     0
176
     0
290
     0
176
     0
 90
       50
176
     0
 40
0.0
176
     0
 40
1.0
176
     0
 90
        0
176
     0
 62
    18
420
        0
176
     0
 90
       50
176
     0
 90
        3
176
     0
 62
     5
420
      255
176
     0
290
     0
176
     0
 90
       50
176
     0
 90
       50
176
     0
 90
       50
176
     0
290
     0
176
     0
 90
       50
176
     0
 62
   256
176
     0
 40
1.0
176
     0
 90
        2
176
     0
  1
strokes_ogs.tif
176
     0
290
     0
176
     0
 40
1.0
176
     0
 40
1.0
176
     0
1001
ACAD
1000
AcDbSavedByObjectVersion
1070
     0
  0
VISUALSTYLE
  5
33
102
{ACAD_REACTORS
330
29
102
}
330
29
100
AcDbVisualStyle
  2
Realistic
 70
     8
177
     3
291
     0
 70
    58
 90
        2
176
     1
 90
        3
176
     1
 90
        0
176
     1
 90
        2
176
     1
 40
0.6
176
     1
 40
30.0
176
     1
 62
     7
420
 16777215
176
     1
 90
        0
176
     1
 90
        0
176
     1
 62
     7
176
     1
 62
   257
176
     1
 90
        1
176
     1
 90
        1
176
     1
 40
1.0
176
     1
 90
        8
176
     1
 62
   257
176
     1
 40
1.0
176
     1
 90
        1
176
     1
 90
        6
176
     1
 90
        2
176
     1
 62
     7
176
     1
 90
        3
176
     1
 90
        0
176
     1
 90
        0
176
     1
290
     0
176
     1
 90
       13
176
     1
 40
0.0
176
     1
 90
        0
176
     1
290
     0
176
     1
290
     1
176
     1
290
     1
176
     1
290
     0
176
     1
290
     0
176
     1
290
     0
176
     1
290
     0
176
     1
290
     0
176
     1
290
     0
176
     1
 90
       50
176
     1
 40
0.0
176
     1
 40
1.0
176
     1
 90
        0
176
     1
 62
    18
420
        0
176
     1
 90
       50
176
     1
 90
        3
176
     1
 62
     5
420
      255
176
     1
290
     0
176
     1
 90
       50
176
     1
 90
       50
176
     1
 90
       50
176
     1
290
     0
176
     1
 90
       50
176
     1
 62
   256
176
     0
 40
1.0
176
     0
 90
        2
176
     1
  1
strokes_ogs.tif
176
     1
290
     0
176
     1
 40
1.0
176
     1
 40
1.0
176
     1
1001
ACAD
1000
AcDbSavedByObjectVersion
1070
     0
  0
VISUALSTYLE
  5
3E
102
{ACAD_REACTORS
330
29
102
}
330
29
100
AcDbVisualStyle
  2
Shaded
 70
    27
177
     3
291
     0
 70
    58
 90
        2
176
     1
 90
        2
176
     1
 90
        1
176
     1
 90
        2
176
     1
 40
0.6
176
     1
 40
30.0
176
     1
 62
     7
420
 16777215
176
     1
 90
        0
176
     1
 90
        4
176
     1
 62
     7
176
     1
 62
   257
176
     1
 90
        1
176
     1
 90
        1
176
     1
 40
1.0
176
     1
 90
        8
176
     1
 62
   257
176
     1
 40
1.0
176
     1
 90
        1
176
     1
 90
        6
176
     1
 90
        2
176
     1
 62
     8
420
  7895160
176
     1
 90
        3
176
     1
 90
        0
176
     1
 90
        0
176
     1
290
     0
176
     1
 90
        5
176
     1
 40
0.0
176
     1
 90
        0
176
     1
290
     0
176
     1
290
     1
176
     1
290
     1
176
     1
290
     0
176
     1
290
     0
176
     1
290
     0
176
     1
290
     0
176
     1
290
     0
176
     1
290
     0
176
     1
 90
       50
176
     1
 40
0.0
176
     1
 40
1.0
176
     1
 90
        0
176
     1
 62
    18
420
        0
176
     1
 90
       50
176
     1
 90
        3
176
     1
 62
     5
420
      255
176
     1
290
     0
176
     1
 90
       50
176
     1
 90
       50
176
     1
 90
       50
176
     1
290
     0
176
     1
 90
       50
176
     1
 62
   256
176
     0
 40
1.0
176
     0
 90
        2
176
     1
  1
strokes_ogs.tif
176
     1
290
     0
176
     1
 40
1.0
176
     1
 40
1.0
176
     1
1001
ACAD
1000
AcDbSavedByObjectVersion
1070
     0
  0
VISUALSTYLE
  5
3D
102
{ACAD_REACTORS
330
29
102
}
330
29
100
AcDbVisualStyle
  2
Shaded with edges
 70
    26
177
     3
291
     0
 70
    58
 90
        2
176
     1
 90
        2
176
     1
 90
        1
176
     1
 90
        2
176
     1
 40
0.6
176
     1
 40
30.0
176
     1
 62
     7
420
 16777215
176
     1
 90
        1
176
     1
 90
        2
176
     1
 62
     7
176
     1
 62
   257
176
     1
 90
        2
176
     1
 90
        1
176
     1
 40
1.0
176
     1
 90
        8
176
     1
 62
   257
176
     1
 40
1.0
176
     1
 90
        1
176
     1
 90
        6
176
     1
 90
        2
176
     1
 62
     7
176
     1
 90
        3
176
     1
 90
        0
176
     1
 90
        0
176
     1
290
     0
176
     1
 90
        5
176
     1
 40
0.0
176
     1
 90
        0
176
     1
290
     0
176
     1
290
     1
176
     1
290
     1
176
     1
290
     0
176
     1
290
     0
176
     1
290
     0
176
     1
290
     0
176
     1
290
     0
176
     1
290
     0
176
     1
 90
       50
176
     1
 40
0.0
176
     1
 40
1.0
176
     1
 90
        0
176
     1
 62
    18
420
        0
176
     1
 90
       50
176
     1
 90
        3
176
     1
 62
     5
420
      255
176
     1
290
     0
176
     1
 90
       50
176
     1
 90
       50
176
     1
 90
       50
176
     1
290
     0
176
     1
 90
       50
176
     1
 62
   256
176
     0
 40
1.0
176
     0
 90
        2
176
     1
  1
strokes_ogs.tif
176
     1
290
     0
176
     1
 40
1.0
176
     1
 40
1.0
176
     1
1001
ACAD
1000
AcDbSavedByObjectVersion
1070
     0
  0
VISUALSTYLE
  5
3A
102
{ACAD_REACTORS
330
29
102
}
330
29
100
AcDbVisualStyle
  2
Shades of Gray
 70
    23
177
     3
291
     0
 70
    58
 90
        2
176
     1
 90
        2
176
     1
 90
        3
176
     1
 90
        0
176
     1
 40
0.6
176
     1
 40
30.0
176
     1
 62
     7
420
 16777215
176
     1
 90
        2
176
     1
 90
        2
176
     1
 62
     7
176
     1
 62
     7
176
     1
 90
        1
176
     1
 90
        1
176
     1
 40
40.0
176
     1
 90
        8
176
     1
 62
     7
176
     1
 40
1.0
176
     1
 90
        1
176
     1
 90
        6
176
     1
 90
        2
176
     1
 62
     7
176
     1
 90
        3
176
     1
 90
        0
176
     1
 90
        0
176
     1
290
     0
176
     1
 90
        1
176
     1
 40
0.0
176
     1
 90
        0
176
     1
290
     0
176
     1
290
     1
176
     1
290
     1
176
     1
290
     0
176
     1
290
     0
176
     1
290
     0
176
     1
290
     0
176
     1
290
     0
176
     1
290
     0
176
     1
 90
       50
176
     1
 40
0.0
176
     1
 40
1.0
176
     1
 90
        0
176
     1
 62
    18
420
        0
176
     1
 90
       50
176
     1
 90
        3
176
     1
 62
     5
420
      255
176
     1
290
     0
176
     1
 90
       50
176
     1
 90
       50
176
     1
 90
       50
176
     1
290
     0
176
     1
 90
       50
176
     1
 62
   256
176
     0
 40
1.0
176
     0
 90
        2
176
     1
  1
strokes_ogs.tif
176
     1
290
     0
176
     1
 40
1.0
176
     1
 40
1.0
176
     1
1001
ACAD
1000
AcDbSavedByObjectVersion
1070
     0
  0
VISUALSTYLE
  5
3B
102
{ACAD_REACTORS
330
29
102
}
330
29
100
AcDbVisualStyle
  2
Sketchy
 70
    24
177
     3
291
     0
 70
    58
 90
        1
176
     1
 90
        2
176
     1
 90
        2
176
     1
 90
        0
176
     1
 40
0.6
176
     1
 40
30.0
176
     1
 62
     7
420
 16777215
176
     1
 90
        2
176
     1
 90
        2
176
     1
 62
     7
176
     1
 62
     7
176
     1
 90
        1
176
     1
 90
        1
176
     1
 40
40.0
176
     1
 90
       11
176
     1
 62
     7
176
     1
 40
1.0
176
     1
 90
        1
176
     1
 90
        6
176
     1
 90
        2
176
     1
 62
     7
176
     1
 90
        6
176
     1
 90
        0
176
     1
 90
        0
176
     1
290
     0
176
     1
 90
        1
176
     1
 40
0.0
176
     1
 90
        0
176
     1
290
     0
176
     1
290
     1
176
     1
290
     1
176
     1
290
     0
176
     1
290
     0
176
     1
290
     0
176
     1
290
     0
176
     1
290
     0
176
     1
290
     0
176
     1
 90
       50
176
     1
 40
0.0
176
     1
 40
1.0
176
     1
 90
        0
176
     1
 62
    18
420
        0
176
     1
 90
       50
176
     1
 90
        3
176
     1
 62
     5
420
      255
176
     1
290
     0
176
     1
 90
       50
176
     1
 90
       50
176
     1
 90
       50
176
     1
290
     0
176
     1
 90
       50
176
     1
 62
   256
176
     0
 40
1.0
176
     0
 90
        2
176
     1
  1
strokes_ogs.tif
176
     1
290
     0
176
     1
 40
1.0
176
     1
 40
1.0
176
     1
1001
ACAD
1000
AcDbSavedByObjectVersion
1070
     0
  0
VISUALSTYLE
  5
36
102
{ACAD_REACTORS
330
29
102
}
330
29
100
AcDbVisualStyle
  2
Thicken
 70
    13
177
     3
291
     1
 70
    58
 90
        2
176
     1
 90
        2
176
     1
 90
        0
176
     1
 90
        0
176
     1
 40
0.6
176
     1
 40
30.0
176
     1
 62
     7
420
 16777215
176
     1
 90
        1
176
     1
 90
        4
176
     1
 62
     7
176
     1
 62
   257
176
     1
 90
        1
176
     1
 90
        1
176
     1
 40
1.0
176
     1
 90
       12
176
     1
 62
     7
176
     1
 40
1.0
176
     1
 90
        1
176
     1
 90
        6
176
     1
 90
        2
176
     1
 62
     7
176
     1
 90
        5
176
     1
 90
        0
176
     1
 90
        0
176
     1
290
     0
176
     1
 90
        1
176
     1
 40
0.0
176
     1
 90
        0
176
     1
290
     0
176
     1
290
     1
176
     1
290
     1
176
     1
290
     0
176
     1
290
     0
176
     1
290
     0
176
     1
290
     0
176
     1
290
     0
176
     1
290
     0
176
     1
 90
       50
176
     1
 40
0.0
176
     1
 40
1.0
176
     1
 90
        0
176
     1
 62
    18
420
        0
176
     1
 90
       50
176
     1
 90
        3
176
     1
 62
     5
420
      255
176
     1
290
     0
176
     1
 90
       50
176
     1
 90
       50
176
     1
 90
       50
176
     1
290
     0
176
     1
 90
       50
176
     1
 62
   256
176
     0
 40
1.0
176
     0
 90
        2
176
     1
  1
strokes_ogs.tif
176
     1
290
     0
176
     1
 40
1.0
176
     1
 40
1.0
176
     1
1001
ACAD
1000
AcDbSavedByObjectVersion
1070
     0
  0
VISUALSTYLE
  5
30
102
{ACAD_REACTORS
330
29
102
}
330
29
100
AcDbVisualStyle
  2
Wireframe
 70
     5
177
     3
291
     0
 70
    58
 90
        0
176
     1
 90
        2
176
     1
 90
        0
176
     1
 90
        0
176
     1
 40
0.6
176
     1
 40
30.0
176
     1
 62
     7
420
 16777215
176
     1
 90
        1
176
     1
 90
        4
176
     1
 62
     7
176
     1
 62
   257
176
     1
 90
        1
176
     1
 90
        1
176
     1
 40
1.0
176
     1
 90
        0
176
     1
 62
   257
176
     1
 40
1.0
176
     1
 90
        1
176
     1
 90
        6
176
     1
 90
        2
176
     1
 62
     7
176
     1
 90
        3
176
     1
 90
        0
176
     1
 90
        0
176
     1
290
     0
176
     1
 90
        1
176
     1
 40
0.0
176
     1
 90
        0
176
     1
290
     0
176
     1
290
     1
176
     1
290
     1
176
     1
290
     0
176
     1
290
     0
176
     1
290
     0
176
     1
290
     0
176
     1
290
     0
176
     1
290
     0
176
     1
 90
       50
176
     1
 40
0.0
176
     1
 40
1.0
176
     1
 90
        0
176
     1
 62
    18
420
        0
176
     1
 90
       50
176
     1
 90
        3
176
     1
 62
     5
420
      255
176
     1
290
     0
176
     1
 90
       50
176
     1
 90
       50
176
     1
 90
       50
176
     1
290
     0
176
     1
 90
       50
176
     1
 62
   256
176
     0
 40
1.0
176
     0
 90
        2
176
     1
  1
strokes_ogs.tif
176
     1
290
     0
176
     1
 40
1.0
176
     1
 40
1.0
176
     1
1001
ACAD
1000
AcDbSavedByObjectVersion
1070
     0
  0
VISUALSTYLE
  5
3C
102
{ACAD_REACTORS
330
29
102
}
330
29
100
AcDbVisualStyle
  2
X-Ray
 70
    25
177
     3
291
     0
 70
    58
 90
        2
176
     1
 90
        2
176
     1
 90
        1
176
     1
 90
        1
176
     1
 40
0.5
176
     1
 40
30.0
176
     1
 62
     7
420
 16777215
176
     1
 90
        1
176
     1
 90
        0
176
     1
 62
     7
176
     1
 62
   257
176
     1
 90
        1
176
     1
 90
        1
176
     1
 40
1.0
176
     1
 90
        8
176
     1
 62
     7
176
     1
 40
1.0
176
     1
 90
        1
176
     1
 90
        6
176
     1
 90
        2
176
     1
 62
     7
176
     1
 90
        3
176
     1
 90
        0
176
     1
 90
        0
176
     1
290
     0
176
     1
 90
       13
176
     1
 40
0.0
176
     1
 90
        0
176
     1
290
     0
176
     1
290
     1
176
     1
290
     1
176
     1
290
     0
176
     1
290
     0
176
     1
290
     0
176
     1
290
     0
176
     1
290
     0
176
     1
290
     0
176
     1
 90
       50
176
     1
 40
0.0
176
     1
 40
1.0
176
     1
 90
        0
176
     1
 62
    18
420
        0
176
     1
 90
       50
176
     1
 90
        3
176
     1
 62
     5
420
      255
176
     1
290
     0
176
     1
 90
       50
176
     1
 90
       50
176
     1
 90
       50
176
     1
290
     0
176
     1
 90
       50
176
     1
 62
   256
176
     0
 40
1.0
176
     0
 90
        2
176
     1
  1
strokes_ogs.tif
176
     1
290
     0
176
     1
 40
1.0
176
     1
 40
1.0
176
     1
1001
ACAD
1000
AcDbSavedByObjectVersion
1070
     0
  0
DICTIONARYVAR
  5
324
102
{ACAD_REACTORS
330
31F
102
}
330
31F
100
DictionaryVariables
280
     0
  1
1:1
  0
DICTIONARYVAR
  5
321
102
{ACAD_REACTORS
330
31F
102
}
330
31F
100
DictionaryVariables
280
     0
  1
STANDARD
  0
DICTIONARYVAR
  5
320
102
{ACAD_REACTORS
330
31F
102
}
330
31F
100
DictionaryVariables
280
     0
  1
STANDARD
  0
DICTIONARYVAR
  5
322
102
{ACAD_REACTORS
330
31F
102
}
330
31F
100
DictionaryVariables
280
     0
  1
Imperial24
  0
DICTIONARYVAR
  5
323
102
{ACAD_REACTORS
330
31F
102
}
330
31F
100
DictionaryVariables
280
     0
  1
Imperial24
  0
DICTIONARY
  5
D5A
330
6B
100
AcDbDictionary
280
     1
281
     1
  3
ACAD_XREC_ROUNDTRIP
360
D5B
  0
DICTIONARY
  5
1A
330
19
100
AcDbDictionary
280
     1
281
     1
  3
BUMPTILE
360
1C
  3
DIFFUSETILE
360
1B
  3
OPACITYTILE
360
1F
  3
REFLECTIONTILE
360
1E
  3
REFRACTIONTILE
360
20
  3
SPECULARTILE
360
1D
  0
DICTIONARY
  5
12
330
11
100
AcDbDictionary
280
     1
281
     1
  3
BUMPTILE
360
14
  3
DIFFUSETILE
360
13
  3
OPACITYTILE
360
17
  3
REFLECTIONTILE
360
16
  3
REFRACTIONTILE
360
18
  3
SPECULARTILE
360
15
  0
DICTIONARY
  5
22
330
21
100
AcDbDictionary
280
     1
281
     1
  3
BUMPTILE
360
24
  3
DIFFUSETILE
360
23
  3
OPACITYTILE
360
27
  3
REFLECTIONTILE
360
26
  3
REFRACTIONTILE
360
28
  3
SPECULARTILE
360
25
  0
DICTIONARY
  5
D58
330
69
100
AcDbDictionary
280
     1
281
     1
  3
ACAD_XREC_ROUNDTRIP
360
D59
  0
DICTIONARY
  5
325
330
65
100
AcDbDictionary
280
     1
281
     1
  3
ACAD_ROUNDTRIP_2008_TABLESTYLE_CELLSTYLEMAP
360
D56
  0
XRECORD
  5
D5B
102
{ACAD_REACTORS
330
D5A
102
}
330
D5A
100
AcDbXrecord
280
     1
102
DISPLAYNAME
  1
Imperial24
102
FLAGS
 90
        0
  0
XRECORD
  5
1C
102
{ACAD_REACTORS
330
1A
102
}
330
1A
100
AcDbXrecord
280
     1
270
     1
271
     1
  0
XRECORD
  5
1B
102
{ACAD_REACTORS
330
1A
102
}
330
1A
100
AcDbXrecord
280
     1
270
     1
271
     1
  0
XRECORD
  5
1F
102
{ACAD_REACTORS
330
1A
102
}
330
1A
100
AcDbXrecord
280
     1
270
     1
271
     1
  0
XRECORD
  5
1E
102
{ACAD_REACTORS
330
1A
102
}
330
1A
100
AcDbXrecord
280
     1
270
     1
271
     1
  0
XRECORD
  5
20
102
{ACAD_REACTORS
330
1A
102
}
330
1A
100
AcDbXrecord
280
     1
270
     1
271
     1
  0
XRECORD
  5
1D
102
{ACAD_REACTORS
330
1A
102
}
330
1A
100
AcDbXrecord
280
     1
270
     1
271
     1
  0
XRECORD
  5
14
102
{ACAD_REACTORS
330
12
102
}
330
12
100
AcDbXrecord
280
     1
270
     1
271
     1
  0
XRECORD
  5
13
102
{ACAD_REACTORS
330
12
102
}
330
12
100
AcDbXrecord
280
     1
270
     1
271
     1
  0
XRECORD
  5
17
102
{ACAD_REACTORS
330
12
102
}
330
12
100
AcDbXrecord
280
     1
270
     1
271
     1
  0
XRECORD
  5
16
102
{ACAD_REACTORS
330
12
102
}
330
12
100
AcDbXrecord
280
     1
270
     1
271
     1
  0
XRECORD
  5
18
102
{ACAD_REACTORS
330
12
102
}
330
12
100
AcDbXrecord
280
     1
270
     1
271
     1
  0
XRECORD
  5
15
102
{ACAD_REACTORS
330
12
102
}
330
12
100
AcDbXrecord
280
     1
270
     1
271
     1
  0
XRECORD
  5
24
102
{ACAD_REACTORS
330
22
102
}
330
22
100
AcDbXrecord
280
     1
270
     1
271
     1
  0
XRECORD
  5
23
102
{ACAD_REACTORS
330
22
102
}
330
22
100
AcDbXrecord
280
     1
270
     1
271
     1
  0
XRECORD
  5
27
102
{ACAD_REACTORS
330
22
102
}
330
22
100
AcDbXrecord
280
     1
270
     1
271
     1
  0
XRECORD
  5
26
102
{ACAD_REACTORS
330
22
102
}
330
22
100
AcDbXrecord
280
     1
270
     1
271
     1
  0
XRECORD
  5
28
102
{ACAD_REACTORS
330
22
102
}
330
22
100
AcDbXrecord
280
     1
270
     1
271
     1
  0
XRECORD
  5
25
102
{ACAD_REACTORS
330
22
102
}
330
22
100
AcDbXrecord
280
     1
270
     1
271
     1
  0
XRECORD
  5
D59
102
{ACAD_REACTORS
330
D58
102
}
330
D58
100
AcDbXrecord
280
     1
102
DISPLAYNAME
  1
Imperial24
102
FLAGS
 90
        0
  0
CELLSTYLEMAP
  5
D56
102
{ACAD_REACTORS
330
325
102
}
330
325
100
AcDbCellStyleMap
 90
        3
300
CELLSTYLE
  1
TABLEFORMAT_BEGIN
 90
        5
170
     1
 91
        0
 92
    32768
 62
   257
 93
        1
300
CONTENTFORMAT
  1
CONTENTFORMAT_BEGIN
 90
        0
 91
        0
 92
      512
 93
        0
300

 40
0.0
140
1.0
 94
        5
 62
     0
340
55
144
0.25
309
CONTENTFORMAT_END
171
     1
301
MARGIN
  1
CELLMARGIN_BEGIN
 40
0.06
 40
0.06
 40
0.06
 40
0.06
 40
0.18
 40
0.18
309
CELLMARGIN_END
 94
        6
 95
        1
302
GRIDFORMAT
  1
GRIDFORMAT_BEGIN
 90
        0
 91
        1
 62
     0
 92
       -2
340
0
 93
        0
 40
0.045
309
GRIDFORMAT_END
 95
        2
302
GRIDFORMAT
  1
GRIDFORMAT_BEGIN
 90
        0
 91
        1
 62
     0
 92
       -2
340
0
 93
        0
 40
0.045
309
GRIDFORMAT_END
 95
        4
302
GRIDFORMAT
  1
GRIDFORMAT_BEGIN
 90
        0
 91
        1
 62
     0
 92
       -2
340
0
 93
        0
 40
0.045
309
GRIDFORMAT_END
 95
        8
302
GRIDFORMAT
  1
GRIDFORMAT_BEGIN
 90
        0
 91
        1
 62
     0
 92
       -2
340
0
 93
        0
 40
0.045
309
GRIDFORMAT_END
 95
       16
302
GRIDFORMAT
  1
GRIDFORMAT_BEGIN
 90
        0
 91
        1
 62
     0
 92
       -2
340
0
 93
        0
 40
0.045
309
GRIDFORMAT_END
 95
       32
302
GRIDFORMAT
  1
GRIDFORMAT_BEGIN
 90
        0
 91
        1
 62
     0
 92
       -2
340
0
 93
        0
 40
0.045
309
GRIDFORMAT_END
309
TABLEFORMAT_END
  1
CELLSTYLE_BEGIN
 90
        1
 91
        1
300
_TITLE
309
CELLSTYLE_END
300
CELLSTYLE
  1
TABLEFORMAT_BEGIN
 90
        5
170
     1
 91
        0
 92
        0
 62
   257
 93
        1
300
CONTENTFORMAT
  1
CONTENTFORMAT_BEGIN
 90
        0
 91
        0
 92
      512
 93
        0
300

 40
0.0
140
1.0
 94
        5
 62
     0
340
55
144
0.18
309
CONTENTFORMAT_END
171
     1
301
MARGIN
  1
CELLMARGIN_BEGIN
 40
0.06
 40
0.06
 40
0.06
 40
0.06
 40
0.18
 40
0.18
309
CELLMARGIN_END
 94
        6
 95
        1
302
GRIDFORMAT
  1
GRIDFORMAT_BEGIN
 90
        0
 91
        1
 62
     0
 92
       -2
340
0
 93
        0
 40
0.045
309
GRIDFORMAT_END
 95
        2
302
GRIDFORMAT
  1
GRIDFORMAT_BEGIN
 90
        0
 91
        1
 62
     0
 92
       -2
340
0
 93
        0
 40
0.045
309
GRIDFORMAT_END
 95
        4
302
GRIDFORMAT
  1
GRIDFORMAT_BEGIN
 90
        0
 91
        1
 62
     0
 92
       -2
340
0
 93
        0
 40
0.045
309
GRIDFORMAT_END
 95
        8
302
GRIDFORMAT
  1
GRIDFORMAT_BEGIN
 90
        0
 91
        1
 62
     0
 92
       -2
340
0
 93
        0
 40
0.045
309
GRIDFORMAT_END
 95
       16
302
GRIDFORMAT
  1
GRIDFORMAT_BEGIN
 90
        0
 91
        1
 62
     0
 92
       -2
340
0
 93
        0
 40
0.045
309
GRIDFORMAT_END
 95
       32
302
GRIDFORMAT
  1
GRIDFORMAT_BEGIN
 90
        0
 91
        1
 62
     0
 92
       -2
340
0
 93
        0
 40
0.045
309
GRIDFORMAT_END
309
TABLEFORMAT_END
  1
CELLSTYLE_BEGIN
 90
        2
 91
        1
300
_HEADER
309
CELLSTYLE_END
300
CELLSTYLE
  1
TABLEFORMAT_BEGIN
 90
        5
170
     1
 91
        0
 92
        0
 62
   257
 93
        1
300
CONTENTFORMAT
  1
CONTENTFORMAT_BEGIN
 90
        0
 91
        0
 92
      512
 93
        0
300

 40
0.0
140
1.0
 94
        2
 62
     0
340
55
144
0.18
309
CONTENTFORMAT_END
171
     1
301
MARGIN
  1
CELLMARGIN_BEGIN
 40
0.06
 40
0.06
 40
0.06
 40
0.06
 40
0.18
 40
0.18
309
CELLMARGIN_END
 94
        6
 95
        1
302
GRIDFORMAT
  1
GRIDFORMAT_BEGIN
 90
        0
 91
        1
 62
     0
 92
       -2
340
0
 93
        0
 40
0.045
309
GRIDFORMAT_END
 95
        2
302
GRIDFORMAT
  1
GRIDFORMAT_BEGIN
 90
        0
 91
        1
 62
     0
 92
       -2
340
0
 93
        0
 40
0.045
309
GRIDFORMAT_END
 95
        4
302
GRIDFORMAT
  1
GRIDFORMAT_BEGIN
 90
        0
 91
        1
 62
     0
 92
       -2
340
0
 93
        0
 40
0.045
309
GRIDFORMAT_END
 95
        8
302
GRIDFORMAT
  1
GRIDFORMAT_BEGIN
 90
        0
 91
        1
 62
     0
 92
       -2
340
0
 93
        0
 40
0.045
309
GRIDFORMAT_END
 95
       16
302
GRIDFORMAT
  1
GRIDFORMAT_BEGIN
 90
        0
 91
        1
 62
     0
 92
       -2
340
0
 93
        0
 40
0.045
309
GRIDFORMAT_END
 95
       32
302
GRIDFORMAT
  1
GRIDFORMAT_BEGIN
 90
        0
 91
        1
 62
     0
 92
       -2
340
0
 93
        0
 40
0.045
309
GRIDFORMAT_END
309
TABLEFORMAT_END
  1
CELLSTYLE_BEGIN
 90
        3
 91
        2
300
_DATA
309
CELLSTYLE_END
  0
ENDSEC
  0
EOF
