  0
SECTION
  2
HEADER
  9
$ACADVER
  1
AC1027
  9
$ACADMAINTVER
 70
   125
  9
$DWGCODEPAGE
  3
ANSI_1252
  9
$LASTSAVEDBY
  1
ufficio.tecnico
  9
$REQUIREDVERSIONS
160
                 0
  9
$INSBASE
 10
0.0
 20
0.0
 30
0.0
  9
$EXTMIN
 10
10.38462258931832
 20
-14.81027080185298
 30
0.0
  9
$EXTMAX
 10
20.88489230163642
 20
-6.026038036214159
 30
0.0
  9
$LIMMIN
 10
0.0
 20
0.0
  9
$LIMMAX
 10
12.0
 20
9.0
  9
$ORTHOMODE
 70
     0
  9
$REGENMODE
 70
     1
  9
$FILLMODE
 70
     1
  9
$QTEXTMODE
 70
     0
  9
$MIRRTEXT
 70
     1
  9
$LTSCALE
 40
1.0
  9
$ATTMODE
 70
     1
  9
$TEXTSIZE
 40
0.2
  9
$TRACEWID
 40
0.05
  9
$TEXTSTYLE
  7
Standard
  9
$CLAYER
  8
0
  9
$CELTYPE
  6
ByLayer
  9
$CECOLOR
 62
   256
  9
$CELTSCALE
 40
1.0
  9
$DISPSILH
 70
     0
  9
$DIMSCALE
 40
1.0
  9
$DIMASZ
 40
0.18
  9
$DIMEXO
 40
0.0625
  9
$DIMDLI
 40
0.38
  9
$DIMRND
 40
0.0
  9
$DIMDLE
 40
0.0
  9
$DIMEXE
 40
0.18
  9
$DIMTP
 40
0.0
  9
$DIMTM
 40
0.0
  9
$DIMTXT
 40
0.18
  9
$DIMCEN
 40
0.09
  9
$DIMTSZ
 40
0.0
  9
$DIMTOL
 70
     0
  9
$DIMLIM
 70
     0
  9
$DIMTIH
 70
     1
  9
$DIMTOH
 70
     1
  9
$DIMSE1
 70
     0
  9
$DIMSE2
 70
     0
  9
$DIMTAD
 70
     0
  9
$DIMZIN
 70
     0
  9
$DIMBLK
  1

  9
$DIMASO
 70
     1
  9
$DIMSHO
 70
     1
  9
$DIMPOST
  1

  9
$DIMAPOST
  1

  9
$DIMALT
 70
     0
  9
$DIMALTD
 70
     2
  9
$DIMALTF
 40
25.4
  9
$DIMLFAC
 40
1.0
  9
$DIMTOFL
 70
     0
  9
$DIMTVP
 40
0.0
  9
$DIMTIX
 70
     0
  9
$DIMSOXD
 70
     0
  9
$DIMSAH
 70
     0
  9
$DIMBLK1
  1

  9
$DIMBLK2
  1

  9
$DIMSTYLE
  2
Standard
  9
$DIMCLRD
 70
     0
  9
$DIMCLRE
 70
     0
  9
$DIMCLRT
 70
     0
  9
$DIMTFAC
 40
1.0
  9
$DIMGAP
 40
0.09
  9
$DIMJUST
 70
     0
  9
$DIMSD1
 70
     0
  9
$DIMSD2
 70
     0
  9
$DIMTOLJ
 70
     1
  9
$DIMTZIN
 70
     0
  9
$DIMALTZ
 70
     0
  9
$DIMALTTZ
 70
     0
  9
$DIMUPT
 70
     0
  9
$DIMDEC
 70
     4
  9
$DIMTDEC
 70
     4
  9
$DIMALTU
 70
     2
  9
$DIMALTTD
 70
     2
  9
$DIMTXSTY
  7
Standard
  9
$DIMAUNIT
 70
     0
  9
$DIMADEC
 70
     0
  9
$DIMALTRND
 40
0.0
  9
$DIMAZIN
 70
     0
  9
$DIMDSEP
 70
    46
  9
$DIMATFIT
 70
     3
  9
$DIMFRAC
 70
     0
  9
$DIMLDRBLK
  1

  9
$DIMLUNIT
 70
     2
  9
$DIMLWD
 70
    -2
  9
$DIMLWE
 70
    -2
  9
$DIMTMOVE
 70
     0
  9
$DIMFXL
 40
1.0
  9
$DIMFXLON
 70
     0
  9
$DIMJOGANG
 40
0.7853981633974483
  9
$DIMTFILL
 70
     0
  9
$DIMTFILLCLR
 70
     0
  9
$DIMARCSYM
 70
     0
  9
$DIMLTYPE
  6

  9
$DIMLTEX1
  6

  9
$DIMLTEX2
  6

  9
$DIMTXTDIRECTION
 70
     0
  9
$LUNITS
 70
     2
  9
$LUPREC
 70
     4
  9
$SKETCHINC
 40
0.1
  9
$FILLETRAD
 40
0.5
  9
$AUNITS
 70
     0
  9
$AUPREC
 70
     0
  9
$MENU
  1
.
  9
$ELEVATION
 40
0.0
  9
$PELEVATION
 40
0.0
  9
$THICKNESS
 40
0.0
  9
$LIMCHECK
 70
     0
  9
$CHAMFERA
 40
0.5
  9
$CHAMFERB
 40
0.5
  9
$CHAMFERC
 40
1.0
  9
$CHAMFERD
 40
0.0
  9
$SKPOLY
 70
     0
  9
$TDCREATE
 40
2459319.429745371
  9
$TDUCREATE
 40
2459319.346414502
  9
$TDUPDATE
 40
2459319.697523148
  9
$TDUUPDATE
 40
2459319.614189815
  9
$TDINDWG
 40
0.0010995486
  9
$TDUSRTIMER
 40
0.0010995486
  9
$USRTIMER
 70
     1
  9
$ANGBASE
 50
0.0
  9
$ANGDIR
 70
     0
  9
$PDMODE
 70
     0
  9
$PDSIZE
 40
0.0
  9
$PLINEWID
 40
0.0
  9
$SPLFRAME
 70
     0
  9
$SPLINETYPE
 70
     6
  9
$SPLINESEGS
 70
     8
  9
$HANDSEED
  5
39F
  9
$SURFTAB1
 70
     6
  9
$SURFTAB2
 70
     6
  9
$SURFTYPE
 70
     6
  9
$SURFU
 70
     6
  9
$SURFV
 70
     6
  9
$UCSBASE
  2

  9
$UCSNAME
  2

  9
$UCSORG
 10
0.0
 20
0.0
 30
0.0
  9
$UCSXDIR
 10
1.0
 20
0.0
 30
0.0
  9
$UCSYDIR
 10
0.0
 20
1.0
 30
0.0
  9
$UCSORTHOREF
  2

  9
$UCSORTHOVIEW
 70
     0
  9
$UCSORGTOP
 10
0.0
 20
0.0
 30
0.0
  9
$UCSORGBOTTOM
 10
0.0
 20
0.0
 30
0.0
  9
$UCSORGLEFT
 10
0.0
 20
0.0
 30
0.0
  9
$UCSORGRIGHT
 10
0.0
 20
0.0
 30
0.0
  9
$UCSORGFRONT
 10
0.0
 20
0.0
 30
0.0
  9
$UCSORGBACK
 10
0.0
 20
0.0
 30
0.0
  9
$PUCSBASE
  2

  9
$PUCSNAME
  2

  9
$PUCSORG
 10
0.0
 20
0.0
 30
0.0
  9
$PUCSXDIR
 10
1.0
 20
0.0
 30
0.0
  9
$PUCSYDIR
 10
0.0
 20
1.0
 30
0.0
  9
$PUCSORTHOREF
  2

  9
$PUCSORTHOVIEW
 70
     0
  9
$PUCSORGTOP
 10
0.0
 20
0.0
 30
0.0
  9
$PUCSORGBOTTOM
 10
0.0
 20
0.0
 30
0.0
  9
$PUCSORGLEFT
 10
0.0
 20
0.0
 30
0.0
  9
$PUCSORGRIGHT
 10
0.0
 20
0.0
 30
0.0
  9
$PUCSORGFRONT
 10
0.0
 20
0.0
 30
0.0
  9
$PUCSORGBACK
 10
0.0
 20
0.0
 30
0.0
  9
$USERI1
 70
     0
  9
$USERI2
 70
     0
  9
$USERI3
 70
     0
  9
$USERI4
 70
     0
  9
$USERI5
 70
     0
  9
$USERR1
 40
0.0
  9
$USERR2
 40
0.0
  9
$USERR3
 40
0.0
  9
$USERR4
 40
0.0
  9
$USERR5
 40
0.0
  9
$WORLDVIEW
 70
     1
  9
$SHADEDGE
 70
     3
  9
$SHADEDIF
 70
    70
  9
$TILEMODE
 70
     1
  9
$MAXACTVP
 70
    64
  9
$PINSBASE
 10
0.0
 20
0.0
 30
0.0
  9
$PLIMCHECK
 70
     0
  9
$PEXTMIN
 10
1.000000000000000E+20
 20
1.000000000000000E+20
 30
1.000000000000000E+20
  9
$PEXTMAX
 10
-1.000000000000000E+20
 20
-1.000000000000000E+20
 30
-1.000000000000000E+20
  9
$PLIMMIN
 10
0.0
 20
0.0
  9
$PLIMMAX
 10
12.0
 20
9.0
  9
$UNITMODE
 70
     0
  9
$VISRETAIN
 70
     1
  9
$PLINEGEN
 70
     0
  9
$PSLTSCALE
 70
     1
  9
$TREEDEPTH
 70
  3020
  9
$CMLSTYLE
  2
Standard
  9
$CMLJUST
 70
     0
  9
$CMLSCALE
 40
1.0
  9
$PROXYGRAPHICS
 70
     1
  9
$MEASUREMENT
 70
     0
  9
$CELWEIGHT
370
    -1
  9
$ENDCAPS
280
     0
  9
$JOINSTYLE
280
     0
  9
$LWDISPLAY
290
     1
  9
$INSUNITS
 70
     5
  9
$HYPERLINKBASE
  1

  9
$STYLESHEET
  1

  9
$XEDIT
290
     1
  9
$CEPSNTYPE
380
     0
  9
$PSTYLEMODE
290
     1
  9
$FINGERPRINTGUID
  2
{849A2E4B-92B3-4C81-B060-928A97064E41}
  9
$VERSIONGUID
  2
{CEC466EC-9086-E041-92EB-C72F26FCEF9E}
  9
$EXTNAMES
290
     1
  9
$PSVPSCALE
 40
0.0
  9
$OLESTARTUP
290
     0
  9
$SORTENTS
280
   127
  9
$INDEXCTL
280
     0
  9
$HIDETEXT
280
     1
  9
$XCLIPFRAME
280
     2
  9
$HALOGAP
280
     0
  9
$OBSCOLOR
 70
   257
  9
$OBSLTYPE
280
     0
  9
$INTERSECTIONDISPLAY
280
     0
  9
$INTERSECTIONCOLOR
 70
   257
  9
$DIMASSOC
280
     2
  9
$PROJECTNAME
  1

  9
$CAMERADISPLAY
290
     0
  9
$LENSLENGTH
 40
50.0
  9
$CAMERAHEIGHT
 40
0.0
  9
$STEPSPERSEC
 40
2.0
  9
$STEPSIZE
 40
6.0
  9
$3DDWFPREC
 40
2.0
  9
$PSOLWIDTH
 40
0.25
  9
$PSOLHEIGHT
 40
4.0
  9
$LOFTANG1
 40
1.570796326794897
  9
$LOFTANG2
 40
1.570796326794897
  9
$LOFTMAG1
 40
0.0
  9
$LOFTMAG2
 40
0.0
  9
$LOFTPARAM
 70
     7
  9
$LOFTNORMALS
280
     1
  9
$LATITUDE
 40
37.795
  9
$LONGITUDE
 40
-122.394
  9
$NORTHDIRECTION
 40
0.0
  9
$TIMEZONE
 70
 -8000
  9
$LIGHTGLYPHDISPLAY
280
     1
  9
$TILEMODELIGHTSYNCH
280
     1
  9
$CMATERIAL
347
3C
  9
$SOLIDHIST
280
     1
  9
$SHOWHIST
280
     1
  9
$DWFFRAME
280
     2
  9
$DGNFRAME
280
     2
  9
$REALWORLDSCALE
290
     1
  9
$INTERFERECOLOR
 62
   256
  9
$INTERFEREOBJVS
345
33
  9
$INTERFEREVPVS
346
288
  9
$CSHADOW
280
     0
  9
$SHADOWPLANELOCATION
 40
0.0
  0
ENDSEC
  0
SECTION
  2
CLASSES
  0
CLASS
  1
ACDBDICTIONARYWDFLT
  2
AcDbDictionaryWithDefault
  3
ObjectDBX Classes
 90
        0
 91
        1
280
     0
281
     0
  0
CLASS
  1
VISUALSTYLE
  2
AcDbVisualStyle
  3
ObjectDBX Classes
 90
     4095
 91
       26
280
     0
281
     0
  0
CLASS
  1
MATERIAL
  2
AcDbMaterial
  3
ObjectDBX Classes
 90
     1153
 91
        3
280
     0
281
     0
  0
CLASS
  1
SUN
  2
AcDbSun
  3
SCENEOE
 90
     1153
 91
        1
280
     0
281
     0
  0
CLASS
  1
TABLESTYLE
  2
AcDbTableStyle
  3
ObjectDBX Classes
 90
     4095
 91
        1
280
     0
281
     0
  0
CLASS
  1
SCALE
  2
AcDbScale
  3
ObjectDBX Classes
 90
     1153
 91
       21
280
     0
281
     0
  0
CLASS
  1
MLEADERSTYLE
  2
AcDbMLeaderStyle
  3
ACDB_MLEADERSTYLE_CLASS
 90
     4095
 91
        1
280
     0
281
     0
  0
CLASS
  1
ACDBSECTIONVIEWSTYLE
  2
AcDbSectionViewStyle
  3
ObjectDBX Classes
 90
     1025
 91
        1
280
     0
281
     0
  0
CLASS
  1
ACDBDETAILVIEWSTYLE
  2
AcDbDetailViewStyle
  3
ObjectDBX Classes
 90
     1025
 91
        1
280
     0
281
     0
  0
CLASS
  1
SORTENTSTABLE
  2
AcDbSortentsTable
  3
ObjectDBX Classes
 90
        0
 91
        1
280
     0
281
     0
  0
CLASS
  1
DICTIONARYVAR
  2
AcDbDictionaryVar
  3
ObjectDBX Classes
 90
        0
 91
        5
280
     0
281
     0
  0
CLASS
  1
CELLSTYLEMAP
  2
AcDbCellStyleMap
  3
ObjectDBX Classes
 90
     1152
 91
        2
280
     0
281
     0
  0
ENDSEC
  0
SECTION
  2
TABLES
  0
TABLE
  2
VPORT
  5
8
330
0
100
AcDbSymbolTable
 70
     1
1001
ACAD
1000
DbSaveVer
1071
      105
  0
VPORT
  5
29
330
8
100
AcDbSymbolTableRecord
100
AcDbViewportTableRecord
  2
*Active
 70
     0
 10
0.0
 20
0.0
 11
1.0
 21
1.0
 12
6.827594115371082
 22
0.0
 13
0.0
 23
0.0
 14
0.5
 24
0.5
 15
0.5
 25
0.5
 16
0.0
 26
0.0
 36
1.0
 17
14.84999673225613
 27
-10.50008306681943
 37
0.0
 40
20.18271000226231
 41
2.113286713286713
 42
50.0
 43
0.0
 44
0.0
 50
0.0
 51
0.0
 71
     0
 72
   100
 73
     1
 74
     3
 75
     0
 76
     0
 77
     0
 78
     0
281
     0
 65
     1
110
0.0
120
0.0
130
0.0
111
1.0
121
0.0
131
0.0
112
0.0
122
1.0
132
0.0
 79
     0
146
0.0
348
2F
 60
     3
 61
     5
292
     1
282
     1
141
0.0
142
0.0
 63
   250
361
3F
1001
ACAD_NAV_VCDISPLAY
1070
     3
  0
ENDTAB
  0
TABLE
  2
LTYPE
  5
5
330
0
100
AcDbSymbolTable
 70
     1
  0
LTYPE
  5
14
330
5
100
AcDbSymbolTableRecord
100
AcDbLinetypeTableRecord
  2
ByBlock
 70
     0
  3

 72
    65
 73
     0
 40
0.0
  0
LTYPE
  5
15
330
5
100
AcDbSymbolTableRecord
100
AcDbLinetypeTableRecord
  2
ByLayer
 70
     0
  3

 72
    65
 73
     0
 40
0.0
  0
LTYPE
  5
16
330
5
100
AcDbSymbolTableRecord
100
AcDbLinetypeTableRecord
  2
Continuous
 70
     0
  3
Solid line
 72
    65
 73
     0
 40
0.0
  0
ENDTAB
  0
TABLE
  2
LAYER
  5
2
330
0
100
AcDbSymbolTable
 70
     2
  0
LAYER
  5
10
330
2
100
AcDbSymbolTableRecord
100
AcDbLayerTableRecord
  2
0
 70
     0
 62
     7
  6
Continuous
370
    -3
390
F
347
3E
348
0
  0
LAYER
  5
40
330
2
100
AcDbSymbolTableRecord
100
AcDbLayerTableRecord
  2
Livello 1
 70
     0
 62
     7
  6
Continuous
370
    -3
390
F
347
3E
348
0
  0
ENDTAB
  0
TABLE
  2
STYLE
  5
3
330
0
100
AcDbSymbolTable
 70
     1
  0
STYLE
  5
11
330
3
100
AcDbSymbolTableRecord
100
AcDbTextStyleTableRecord
  2
Standard
 70
     0
 40
0.0
 41
1.0
 50
0.0
 71
     0
 42
0.2
  3
txt
  4

  0
ENDTAB
  0
TABLE
  2
VIEW
  5
6
330
0
100
AcDbSymbolTable
 70
     0
  0
ENDTAB
  0
TABLE
  2
UCS
  5
7
330
0
100
AcDbSymbolTable
 70
     0
  0
ENDTAB
  0
TABLE
  2
APPID
  5
9
330
0
100
AcDbSymbolTable
 70
     2
  0
APPID
  5
12
330
9
100
AcDbSymbolTableRecord
100
AcDbRegAppTableRecord
  2
ACAD
 70
     0
  0
APPID
  5
390
330
9
100
AcDbSymbolTableRecord
100
AcDbRegAppTableRecord
  2
ACAD_NAV_VCDISPLAY
 70
     0
  0
ENDTAB
  0
TABLE
  2
DIMSTYLE
  5
A
330
0
100
AcDbSymbolTable
 70
     1
100
AcDbDimStyleTable
 71
     0
  0
DIMSTYLE
105
27
330
A
100
AcDbSymbolTableRecord
100
AcDbDimStyleTableRecord
  2
Standard
 70
     0
340
11
  0
ENDTAB
  0
TABLE
  2
BLOCK_RECORD
  5
1
330
0
100
AcDbSymbolTable
 70
    81
  0
BLOCK_RECORD
  5
1F
102
{ACAD_XDICTIONARY
360
2B2
102
}
330
1
100
AcDbSymbolTableRecord
100
AcDbBlockTableRecord
  2
*Model_Space
340
22
 70
     0
280
     1
281
     0
  0
BLOCK_RECORD
  5
1B
330
1
100
AcDbSymbolTableRecord
100
AcDbBlockTableRecord
  2
*Paper_Space
340
1E
 70
     0
280
     1
281
     0
  0
BLOCK_RECORD
  5
23
330
1
100
AcDbSymbolTableRecord
100
AcDbBlockTableRecord
  2
*Paper_Space0
340
26
 70
     0
280
     1
281
     0
  0
BLOCK_RECORD
  5
41
330
1
100
AcDbSymbolTableRecord
100
AcDbBlockTableRecord
  2
block 2
340
0
 70
     0
280
     1
281
     0
  0
BLOCK_RECORD
  5
46
330
1
100
AcDbSymbolTableRecord
100
AcDbBlockTableRecord
  2
block 3
340
0
 70
     0
280
     1
281
     0
  0
BLOCK_RECORD
  5
4B
330
1
100
AcDbSymbolTableRecord
100
AcDbBlockTableRecord
  2
block 4
340
0
 70
     0
280
     1
281
     0
  0
BLOCK_RECORD
  5
50
330
1
100
AcDbSymbolTableRecord
100
AcDbBlockTableRecord
  2
block 5
340
0
 70
     0
280
     1
281
     0
  0
BLOCK_RECORD
  5
55
330
1
100
AcDbSymbolTableRecord
100
AcDbBlockTableRecord
  2
block 6
340
0
 70
     0
280
     1
281
     0
  0
BLOCK_RECORD
  5
5A
330
1
100
AcDbSymbolTableRecord
100
AcDbBlockTableRecord
  2
block 7
340
0
 70
     0
280
     1
281
     0
  0
BLOCK_RECORD
  5
5F
330
1
100
AcDbSymbolTableRecord
100
AcDbBlockTableRecord
  2
block 8
340
0
 70
     0
280
     1
281
     0
  0
BLOCK_RECORD
  5
64
330
1
100
AcDbSymbolTableRecord
100
AcDbBlockTableRecord
  2
block 9
340
0
 70
     0
280
     1
281
     0
  0
BLOCK_RECORD
  5
69
330
1
100
AcDbSymbolTableRecord
100
AcDbBlockTableRecord
  2
block 10
340
0
 70
     0
280
     1
281
     0
  0
BLOCK_RECORD
  5
6E
330
1
100
AcDbSymbolTableRecord
100
AcDbBlockTableRecord
  2
block 11
340
0
 70
     0
280
     1
281
     0
  0
BLOCK_RECORD
  5
73
330
1
100
AcDbSymbolTableRecord
100
AcDbBlockTableRecord
  2
block 12
340
0
 70
     0
280
     1
281
     0
  0
BLOCK_RECORD
  5
78
330
1
100
AcDbSymbolTableRecord
100
AcDbBlockTableRecord
  2
block 13
340
0
 70
     0
280
     1
281
     0
  0
BLOCK_RECORD
  5
7D
330
1
100
AcDbSymbolTableRecord
100
AcDbBlockTableRecord
  2
block 14
340
0
 70
     0
280
     1
281
     0
  0
BLOCK_RECORD
  5
82
330
1
100
AcDbSymbolTableRecord
100
AcDbBlockTableRecord
  2
block 15
340
0
 70
     0
280
     1
281
     0
  0
BLOCK_RECORD
  5
87
330
1
100
AcDbSymbolTableRecord
100
AcDbBlockTableRecord
  2
block 16
340
0
 70
     0
280
     1
281
     0
  0
BLOCK_RECORD
  5
8F
330
1
100
AcDbSymbolTableRecord
100
AcDbBlockTableRecord
  2
block 17
340
0
 70
     0
280
     1
281
     0
  0
BLOCK_RECORD
  5
97
330
1
100
AcDbSymbolTableRecord
100
AcDbBlockTableRecord
  2
block 18
340
0
 70
     0
280
     1
281
     0
  0
BLOCK_RECORD
  5
9F
330
1
100
AcDbSymbolTableRecord
100
AcDbBlockTableRecord
  2
block 19
340
0
 70
     0
280
     1
281
     0
  0
BLOCK_RECORD
  5
A7
330
1
100
AcDbSymbolTableRecord
100
AcDbBlockTableRecord
  2
block 20
340
0
 70
     0
280
     1
281
     0
  0
BLOCK_RECORD
  5
AF
330
1
100
AcDbSymbolTableRecord
100
AcDbBlockTableRecord
  2
block 21
340
0
 70
     0
280
     1
281
     0
  0
BLOCK_RECORD
  5
B7
330
1
100
AcDbSymbolTableRecord
100
AcDbBlockTableRecord
  2
block 22
340
0
 70
     0
280
     1
281
     0
  0
BLOCK_RECORD
  5
BF
330
1
100
AcDbSymbolTableRecord
100
AcDbBlockTableRecord
  2
block 23
340
0
 70
     0
280
     1
281
     0
  0
BLOCK_RECORD
  5
C7
330
1
100
AcDbSymbolTableRecord
100
AcDbBlockTableRecord
  2
block 24
340
0
 70
     0
280
     1
281
     0
  0
BLOCK_RECORD
  5
CF
330
1
100
AcDbSymbolTableRecord
100
AcDbBlockTableRecord
  2
block 25
340
0
 70
     0
280
     1
281
     0
  0
BLOCK_RECORD
  5
D7
330
1
100
AcDbSymbolTableRecord
100
AcDbBlockTableRecord
  2
block 26
340
0
 70
     0
280
     1
281
     0
  0
BLOCK_RECORD
  5
DF
330
1
100
AcDbSymbolTableRecord
100
AcDbBlockTableRecord
  2
block 27
340
0
 70
     0
280
     1
281
     0
  0
BLOCK_RECORD
  5
E7
330
1
100
AcDbSymbolTableRecord
100
AcDbBlockTableRecord
  2
block 28
340
0
 70
     0
280
     1
281
     0
  0
BLOCK_RECORD
  5
EF
330
1
100
AcDbSymbolTableRecord
100
AcDbBlockTableRecord
  2
block 29
340
0
 70
     0
280
     1
281
     0
  0
BLOCK_RECORD
  5
F7
330
1
100
AcDbSymbolTableRecord
100
AcDbBlockTableRecord
  2
block 30
340
0
 70
     0
280
     1
281
     0
  0
BLOCK_RECORD
  5
FF
330
1
100
AcDbSymbolTableRecord
100
AcDbBlockTableRecord
  2
block 31
340
0
 70
     0
280
     1
281
     0
  0
BLOCK_RECORD
  5
107
330
1
100
AcDbSymbolTableRecord
100
AcDbBlockTableRecord
  2
block 32
340
0
 70
     0
280
     1
281
     0
  0
BLOCK_RECORD
  5
10F
330
1
100
AcDbSymbolTableRecord
100
AcDbBlockTableRecord
  2
block 33
340
0
 70
     0
280
     1
281
     0
  0
BLOCK_RECORD
  5
117
330
1
100
AcDbSymbolTableRecord
100
AcDbBlockTableRecord
  2
block 34
340
0
 70
     0
280
     1
281
     0
  0
BLOCK_RECORD
  5
11F
330
1
100
AcDbSymbolTableRecord
100
AcDbBlockTableRecord
  2
block 35
340
0
 70
     0
280
     1
281
     0
  0
BLOCK_RECORD
  5
128
330
1
100
AcDbSymbolTableRecord
100
AcDbBlockTableRecord
  2
block 36
340
0
 70
     0
280
     1
281
     0
  0
BLOCK_RECORD
  5
130
330
1
100
AcDbSymbolTableRecord
100
AcDbBlockTableRecord
  2
block 37
340
0
 70
     0
280
     1
281
     0
  0
BLOCK_RECORD
  5
138
330
1
100
AcDbSymbolTableRecord
100
AcDbBlockTableRecord
  2
block 38
340
0
 70
     0
280
     1
281
     0
  0
BLOCK_RECORD
  5
140
330
1
100
AcDbSymbolTableRecord
100
AcDbBlockTableRecord
  2
block 39
340
0
 70
     0
280
     1
281
     0
  0
BLOCK_RECORD
  5
148
330
1
100
AcDbSymbolTableRecord
100
AcDbBlockTableRecord
  2
block 40
340
0
 70
     0
280
     1
281
     0
  0
BLOCK_RECORD
  5
150
330
1
100
AcDbSymbolTableRecord
100
AcDbBlockTableRecord
  2
block 41
340
0
 70
     0
280
     1
281
     0
  0
BLOCK_RECORD
  5
158
330
1
100
AcDbSymbolTableRecord
100
AcDbBlockTableRecord
  2
block 42
340
0
 70
     0
280
     1
281
     0
  0
BLOCK_RECORD
  5
160
330
1
100
AcDbSymbolTableRecord
100
AcDbBlockTableRecord
  2
block 43
340
0
 70
     0
280
     1
281
     0
  0
BLOCK_RECORD
  5
168
330
1
100
AcDbSymbolTableRecord
100
AcDbBlockTableRecord
  2
block 44
340
0
 70
     0
280
     1
281
     0
  0
BLOCK_RECORD
  5
170
330
1
100
AcDbSymbolTableRecord
100
AcDbBlockTableRecord
  2
block 45
340
0
 70
     0
280
     1
281
     0
  0
BLOCK_RECORD
  5
178
330
1
100
AcDbSymbolTableRecord
100
AcDbBlockTableRecord
  2
block 46
340
0
 70
     0
280
     1
281
     0
  0
BLOCK_RECORD
  5
180
330
1
100
AcDbSymbolTableRecord
100
AcDbBlockTableRecord
  2
block 47
340
0
 70
     0
280
     1
281
     0
  0
BLOCK_RECORD
  5
188
330
1
100
AcDbSymbolTableRecord
100
AcDbBlockTableRecord
  2
block 48
340
0
 70
     0
280
     1
281
     0
  0
BLOCK_RECORD
  5
18D
330
1
100
AcDbSymbolTableRecord
100
AcDbBlockTableRecord
  2
block 49
340
0
 70
     0
280
     1
281
     0
  0
BLOCK_RECORD
  5
192
330
1
100
AcDbSymbolTableRecord
100
AcDbBlockTableRecord
  2
block 50
340
0
 70
     0
280
     1
281
     0
  0
BLOCK_RECORD
  5
197
330
1
100
AcDbSymbolTableRecord
100
AcDbBlockTableRecord
  2
block 51
340
0
 70
     0
280
     1
281
     0
  0
BLOCK_RECORD
  5
19C
330
1
100
AcDbSymbolTableRecord
100
AcDbBlockTableRecord
  2
block 52
340
0
 70
     0
280
     1
281
     0
  0
BLOCK_RECORD
  5
1A1
330
1
100
AcDbSymbolTableRecord
100
AcDbBlockTableRecord
  2
block 53
340
0
 70
     0
280
     1
281
     0
  0
BLOCK_RECORD
  5
1A6
330
1
100
AcDbSymbolTableRecord
100
AcDbBlockTableRecord
  2
block 54
340
0
 70
     0
280
     1
281
     0
  0
BLOCK_RECORD
  5
1AB
330
1
100
AcDbSymbolTableRecord
100
AcDbBlockTableRecord
  2
block 55
340
0
 70
     0
280
     1
281
     0
  0
BLOCK_RECORD
  5
1B3
330
1
100
AcDbSymbolTableRecord
100
AcDbBlockTableRecord
  2
block 56
340
0
 70
     0
280
     1
281
     0
  0
BLOCK_RECORD
  5
1B8
330
1
100
AcDbSymbolTableRecord
100
AcDbBlockTableRecord
  2
block 57
340
0
 70
     0
280
     1
281
     0
  0
BLOCK_RECORD
  5
1BD
330
1
100
AcDbSymbolTableRecord
100
AcDbBlockTableRecord
  2
block 58
340
0
 70
     0
280
     1
281
     0
  0
BLOCK_RECORD
  5
1C2
330
1
100
AcDbSymbolTableRecord
100
AcDbBlockTableRecord
  2
block 59
340
0
 70
     0
280
     1
281
     0
  0
BLOCK_RECORD
  5
1CA
330
1
100
AcDbSymbolTableRecord
100
AcDbBlockTableRecord
  2
block 60
340
0
 70
     0
280
     1
281
     0
  0
BLOCK_RECORD
  5
1CE
330
1
100
AcDbSymbolTableRecord
100
AcDbBlockTableRecord
  2
block 61
340
0
102
{BLKREFS
331
1CF
331
355
102
}
 70
     0
280
     1
281
     0
  0
BLOCK_RECORD
  5
1D6
330
1
100
AcDbSymbolTableRecord
100
AcDbBlockTableRecord
  2
block 62
340
0
102
{BLKREFS
331
1D7
331
356
102
}
 70
     0
280
     1
281
     0
  0
BLOCK_RECORD
  5
1DE
330
1
100
AcDbSymbolTableRecord
100
AcDbBlockTableRecord
  2
block 63
340
0
102
{BLKREFS
331
1DF
331
357
102
}
 70
     0
280
     1
281
     0
  0
BLOCK_RECORD
  5
1E3
330
1
100
AcDbSymbolTableRecord
100
AcDbBlockTableRecord
  2
block 64
340
0
102
{BLKREFS
331
1E4
331
358
102
}
 70
     0
280
     1
281
     0
  0
BLOCK_RECORD
  5
1EB
330
1
100
AcDbSymbolTableRecord
100
AcDbBlockTableRecord
  2
block 65
340
0
102
{BLKREFS
331
1EC
331
359
102
}
 70
     0
280
     1
281
     0
  0
BLOCK_RECORD
  5
1F3
330
1
100
AcDbSymbolTableRecord
100
AcDbBlockTableRecord
  2
block 66
340
0
102
{BLKREFS
331
1F4
331
35A
102
}
 70
     0
280
     1
281
     0
  0
BLOCK_RECORD
  5
1FB
330
1
100
AcDbSymbolTableRecord
100
AcDbBlockTableRecord
  2
block 67
340
0
102
{BLKREFS
331
1FC
331
35B
102
}
 70
     0
280
     1
281
     0
  0
BLOCK_RECORD
  5
203
330
1
100
AcDbSymbolTableRecord
100
AcDbBlockTableRecord
  2
block 68
340
0
102
{BLKREFS
331
204
331
35C
102
}
 70
     0
280
     1
281
     0
  0
BLOCK_RECORD
  5
208
330
1
100
AcDbSymbolTableRecord
100
AcDbBlockTableRecord
  2
block 69
340
0
102
{BLKREFS
331
209
331
35D
102
}
 70
     0
280
     1
281
     0
  0
BLOCK_RECORD
  5
20D
330
1
100
AcDbSymbolTableRecord
100
AcDbBlockTableRecord
  2
block 70
340
0
 70
     0
280
     1
281
     0
  0
BLOCK_RECORD
  5
211
330
1
100
AcDbSymbolTableRecord
100
AcDbBlockTableRecord
  2
block 71
340
0
102
{BLKREFS
331
212
331
35E
102
}
 70
     0
280
     1
281
     0
  0
BLOCK_RECORD
  5
219
330
1
100
AcDbSymbolTableRecord
100
AcDbBlockTableRecord
  2
block 72
340
0
102
{BLKREFS
331
21A
331
35F
102
}
 70
     0
280
     1
281
     0
  0
BLOCK_RECORD
  5
221
330
1
100
AcDbSymbolTableRecord
100
AcDbBlockTableRecord
  2
block 73
340
0
102
{BLKREFS
331
222
331
360
102
}
 70
     0
280
     1
281
     0
  0
BLOCK_RECORD
  5
226
330
1
100
AcDbSymbolTableRecord
100
AcDbBlockTableRecord
  2
block 74
340
0
102
{BLKREFS
331
227
331
361
102
}
 70
     0
280
     1
281
     0
  0
BLOCK_RECORD
  5
22E
330
1
100
AcDbSymbolTableRecord
100
AcDbBlockTableRecord
  2
block 75
340
0
102
{BLKREFS
331
22F
331
362
102
}
 70
     0
280
     1
281
     0
  0
BLOCK_RECORD
  5
236
330
1
100
AcDbSymbolTableRecord
100
AcDbBlockTableRecord
  2
block 76
340
0
102
{BLKREFS
331
237
331
363
102
}
 70
     0
280
     1
281
     0
  0
BLOCK_RECORD
  5
23E
330
1
100
AcDbSymbolTableRecord
100
AcDbBlockTableRecord
  2
block 77
340
0
102
{BLKREFS
331
23F
331
364
102
}
 70
     0
280
     1
281
     0
  0
BLOCK_RECORD
  5
246
330
1
100
AcDbSymbolTableRecord
100
AcDbBlockTableRecord
  2
block 78
340
0
102
{BLKREFS
331
247
331
365
102
}
 70
     0
280
     1
281
     0
  0
BLOCK_RECORD
  5
24B
330
1
100
AcDbSymbolTableRecord
100
AcDbBlockTableRecord
  2
block 79
340
0
102
{BLKREFS
331
24C
331
366
102
}
 70
     0
280
     1
281
     0
  0
BLOCK_RECORD
  5
25F
330
1
100
AcDbSymbolTableRecord
100
AcDbBlockTableRecord
  2
block 80
340
0
 70
     0
280
     1
281
     0
  0
BLOCK_RECORD
  5
26D
330
1
100
AcDbSymbolTableRecord
100
AcDbBlockTableRecord
  2
block 81
340
0
 70
     0
280
     1
281
     0
  0
ENDTAB
  0
ENDSEC
  0
SECTION
  2
BLOCKS
  0
BLOCK
  5
20
330
1F
100
AcDbEntity
  8
0
100
AcDbBlockBegin
  2
*Model_Space
 70
     0
 10
0.0
 20
0.0
 30
0.0
  3
*Model_Space
  1

  0
ENDBLK
  5
21
330
1F
100
AcDbEntity
  8
0
100
AcDbBlockEnd
  0
BLOCK
  5
1C
330
1B
100
AcDbEntity
 67
     1
  8
0
100
AcDbBlockBegin
  2
*Paper_Space
 70
     0
 10
0.0
 20
0.0
 30
0.0
  3
*Paper_Space
  1

  0
ENDBLK
  5
1D
330
1B
100
AcDbEntity
 67
     1
  8
0
100
AcDbBlockEnd
  0
BLOCK
  5
24
330
23
100
AcDbEntity
 67
     1
  8
0
100
AcDbBlockBegin
  2
*Paper_Space0
 70
     0
 10
0.0
 20
0.0
 30
0.0
  3
*Paper_Space0
  1

  0
ENDBLK
  5
25
330
23
100
AcDbEntity
 67
     1
  8
0
100
AcDbBlockEnd
  0
BLOCK
  5
43
330
41
100
AcDbEntity
  8
0
100
AcDbBlockBegin
  2
block 2
 70
     0
 10
0.0
 20
0.0
 30
0.0
  3
block 2
  1

  0
SPLINE
  5
45
330
41
100
AcDbEntity
  8
Livello 1
 62
   250
420
  1842203
370
    35
100
AcDbSpline
210
0.0
220
0.0
230
1.0
 70
     9
 71
     3
 72
    20
 73
    16
 74
     0
 42
0.000000001
 43
0.0000000001
 40
0.0
 40
0.0
 40
0.0
 40
0.0
 40
1.0
 40
1.0
 40
1.0
 40
2.0
 40
2.0
 40
2.0
 40
3.0
 40
3.0
 40
3.0
 40
4.0
 40
4.0
 40
4.0
 40
5.0
 40
5.0
 40
5.0
 40
5.0
 10
12.40365447770245
 20
-7.91848174802038
 30
0.0
 10
12.40365447770245
 20
-6.87297188717066
 30
0.0
 10
13.25121004645017
 20
-6.025419748493633
 30
0.0
 10
14.29671988088811
 20
-6.025419748493633
 30
0.0
 10
15.34222971532604
 20
-6.025419748493633
 30
0.0
 10
16.18978183259207
 20
-6.87297188717066
 30
0.0
 10
16.18978183259207
 20
-7.91848174802038
 30
0.0
 10
16.18978183259207
 20
-8.963995136647884
 30
0.0
 10
15.34222971532604
 20
-9.81154727532488
 30
0.0
 10
14.29671988088811
 20
-9.81154727532488
 30
0.0
 10
13.25121004645017
 20
-9.81154727532488
 30
0.0
 10
12.40365447770245
 20
-8.963995136647884
 30
0.0
 10
12.40365447770245
 20
-7.91848174802038
 30
0.0
 10
12.40365447770245
 20
-7.91848174802038
 30
0.0
 10
12.40365447770245
 20
-7.91848174802038
 30
0.0
 10
12.40365447770245
 20
-7.91848174802038
 30
0.0
  0
ENDBLK
  5
44
330
41
100
AcDbEntity
  8
0
100
AcDbBlockEnd
  0
BLOCK
  5
48
330
46
100
AcDbEntity
  8
0
100
AcDbBlockBegin
  2
block 3
 70
     0
 10
0.0
 20
0.0
 30
0.0
  3
block 3
  1

  0
SPLINE
  5
4A
330
46
100
AcDbEntity
  8
Livello 1
 62
   250
420
  1842203
370
    35
100
AcDbSpline
210
0.0
220
0.0
230
1.0
 70
     9
 71
     3
 72
    20
 73
    16
 74
     0
 42
0.000000001
 43
0.0000000001
 40
0.0
 40
0.0
 40
0.0
 40
0.0
 40
1.0
 40
1.0
 40
1.0
 40
2.0
 40
2.0
 40
2.0
 40
3.0
 40
3.0
 40
3.0
 40
4.0
 40
4.0
 40
4.0
 40
5.0
 40
5.0
 40
5.0
 40
5.0
 10
12.69274881096348
 20
-7.91848174802038
 30
0.0
 10
12.69274881096348
 20
-7.032769637130713
 30
0.0
 10
13.41076084793525
 20
-6.314753970643532
 30
0.0
 10
14.29647658834033
 20
-6.314753970643532
 30
0.0
 10
15.18219208052005
 20
-6.314753970643532
 30
0.0
 10
15.90020436571721
 20
-7.032769637130713
 30
0.0
 10
15.90020436571721
 20
-7.91848174802038
 30
0.0
 10
15.90020436571721
 20
-8.804197386687832
 30
0.0
 10
15.18219208052005
 20
-9.522213053175011
 30
0.0
 10
14.29647658834033
 20
-9.522213053175011
 30
0.0
 10
13.41076084793525
 20
-9.522213053175011
 30
0.0
 10
12.69274881096348
 20
-8.804197386687832
 30
0.0
 10
12.69274881096348
 20
-7.91848174802038
 30
0.0
 10
12.69274881096348
 20
-7.91848174802038
 30
0.0
 10
12.69274881096348
 20
-7.91848174802038
 30
0.0
 10
12.69274881096348
 20
-7.91848174802038
 30
0.0
  0
ENDBLK
  5
49
330
46
100
AcDbEntity
  8
0
100
AcDbBlockEnd
  0
BLOCK
  5
4D
330
4B
100
AcDbEntity
  8
0
100
AcDbBlockBegin
  2
block 4
 70
     0
 10
0.0
 20
0.0
 30
0.0
  3
block 4
  1

  0
SPLINE
  5
4F
330
4B
100
AcDbEntity
  8
Livello 1
 62
   250
420
  1842203
370
    35
100
AcDbSpline
210
0.0
220
0.0
230
1.0
 70
     8
 71
     3
 72
     8
 73
     4
 74
     0
 42
0.000000001
 43
0.0000000001
 40
0.0
 40
0.0
 40
0.0
 40
0.0
 40
1.0
 40
1.0
 40
1.0
 40
1.0
 10
12.60224367209723
 20
-10.99168419169654
 30
0.0
 10
12.69197269985257
 20
-10.88509944172317
 30
0.0
 10
12.85934458869963
 20
-10.89612021949822
 30
0.0
 10
12.9339922767653
 20
-11.01381041391319
 30
0.0
  0
ENDBLK
  5
4E
330
4B
100
AcDbEntity
  8
0
100
AcDbBlockEnd
  0
BLOCK
  5
52
330
50
100
AcDbEntity
  8
0
100
AcDbBlockBegin
  2
block 5
 70
     0
 10
0.0
 20
0.0
 30
0.0
  3
block 5
  1

  0
SPLINE
  5
54
330
50
100
AcDbEntity
  8
Livello 1
 62
   250
420
  1842203
370
    35
100
AcDbSpline
210
0.0
220
0.0
230
1.0
 70
     8
 71
     3
 72
     8
 73
     4
 74
     0
 42
0.000000001
 43
0.0000000001
 40
0.0
 40
0.0
 40
0.0
 40
0.0
 40
1.0
 40
1.0
 40
1.0
 40
1.0
 10
12.73509272761958
 20
-11.2592343860741
 30
0.0
 10
12.74741525539427
 20
-11.26142513607352
 30
0.0
 10
12.75940969983572
 20
-11.26198958051781
 30
0.0
 10
12.77189097761037
 20
-11.26086069162923
 30
0.0
  0
ENDBLK
  5
53
330
50
100
AcDbEntity
  8
0
100
AcDbBlockEnd
  0
BLOCK
  5
57
330
55
100
AcDbEntity
  8
0
100
AcDbBlockBegin
  2
block 6
 70
     0
 10
0.0
 20
0.0
 30
0.0
  3
block 6
  1

  0
SPLINE
  5
59
330
55
100
AcDbEntity
  8
Livello 1
 62
   250
420
  1842203
370
    35
100
AcDbSpline
210
0.0
220
0.0
230
1.0
 70
     8
 71
     3
 72
     8
 73
     4
 74
     0
 42
0.000000001
 43
0.0000000001
 40
0.0
 40
0.0
 40
0.0
 40
0.0
 40
1.0
 40
1.0
 40
1.0
 40
1.0
 10
12.84175861648178
 20
-11.01381041391319
 30
0.0
 10
12.78356086649634
 20
-10.97061277503509
 30
0.0
 10
12.70153297762798
 20
-10.980338858366
 30
0.0
 10
12.65484989430631
 20
-11.03585549724104
 30
0.0
  0
ENDBLK
  5
58
330
55
100
AcDbEntity
  8
0
100
AcDbBlockEnd
  0
BLOCK
  5
5C
330
5A
100
AcDbEntity
  8
0
100
AcDbBlockBegin
  2
block 7
 70
     0
 10
0.0
 20
0.0
 30
0.0
  3
block 7
  1

  0
SPLINE
  5
5E
330
5A
100
AcDbEntity
  8
Livello 1
 62
   250
420
  1842203
370
    35
100
AcDbSpline
210
0.0
220
0.0
230
1.0
 70
     8
 71
     3
 72
    11
 73
     7
 74
     0
 42
0.000000001
 43
0.0000000001
 40
0.0
 40
0.0
 40
0.0
 40
0.0
 40
1.0
 40
1.0
 40
1.0
 40
2.0
 40
2.0
 40
2.0
 40
2.0
 10
12.60224367209723
 20
-10.99168419169654
 30
0.0
 10
12.53765006100226
 20
-11.06868146945507
 30
0.0
 10
12.53797461655775
 20
-11.18118230276029
 30
0.0
 10
12.60329847765254
 20
-11.25753399718559
 30
0.0
 10
12.60329847765254
 20
-11.25753399718559
 30
0.0
 10
12.65963708874956
 20
-11.3233482193914
 30
0.0
 10
12.65963708874956
 20
-11.3233482193914
 30
0.0
  0
ENDBLK
  5
5D
330
5A
100
AcDbEntity
  8
0
100
AcDbBlockEnd
  0
BLOCK
  5
61
330
5F
100
AcDbEntity
  8
0
100
AcDbBlockBegin
  2
block 8
 70
     0
 10
0.0
 20
0.0
 30
0.0
  3
block 8
  1

  0
SPLINE
  5
63
330
5F
100
AcDbEntity
  8
Livello 1
 62
   250
420
  1842203
370
    35
100
AcDbSpline
210
0.0
220
0.0
230
1.0
 70
     8
 71
     3
 72
    11
 73
     7
 74
     0
 42
0.000000001
 43
0.0000000001
 40
0.0
 40
0.0
 40
0.0
 40
0.0
 40
1.0
 40
1.0
 40
1.0
 40
2.0
 40
2.0
 40
2.0
 40
2.0
 10
12.65484989430631
 20
-11.03585549724104
 30
0.0
 10
12.61464381098301
 20
-11.08376271945129
 30
0.0
 10
12.61197328320592
 20
-11.15305533054509
 30
0.0
 10
12.64836583875235
 20
-11.20371774719906
 30
0.0
 10
12.64836583875235
 20
-11.20371774719906
 30
0.0
 10
12.70088739429478
 20
-11.24805485829912
 30
0.0
 10
12.70088739429478
 20
-11.24805485829912
 30
0.0
  0
ENDBLK
  5
62
330
5F
100
AcDbEntity
  8
0
100
AcDbBlockEnd
  0
BLOCK
  5
66
330
64
100
AcDbEntity
  8
0
100
AcDbBlockBegin
  2
block 9
 70
     0
 10
0.0
 20
0.0
 30
0.0
  3
block 9
  1

  0
SPLINE
  5
68
330
64
100
AcDbEntity
  8
Livello 1
 62
   250
420
  1842203
370
    35
100
AcDbSpline
210
0.0
220
0.0
230
1.0
 70
     8
 71
     3
 72
     8
 73
     4
 74
     0
 42
0.000000001
 43
0.0000000001
 40
0.0
 40
0.0
 40
0.0
 40
0.0
 40
1.0
 40
1.0
 40
1.0
 40
1.0
 10
15.64639823534383
 20
-11.01381041391319
 30
0.0
 10
15.70288501168051
 20
-10.86775335839416
 30
0.0
 10
15.89530764566029
 20
-10.83549888617999
 30
0.0
 10
15.99621619864145
 20
-10.95545744170557
 30
0.0
  0
ENDBLK
  5
67
330
64
100
AcDbEntity
  8
0
100
AcDbBlockEnd
  0
BLOCK
  5
6B
330
69
100
AcDbEntity
  8
0
100
AcDbBlockBegin
  2
block 10
 70
     0
 10
0.0
 20
0.0
 30
0.0
  3
block 10
  1

  0
SPLINE
  5
6D
330
69
100
AcDbEntity
  8
Livello 1
 62
   250
420
  1842203
370
    35
100
AcDbSpline
210
0.0
220
0.0
230
1.0
 70
     8
 71
     3
 72
     8
 73
     4
 74
     0
 42
0.000000001
 43
0.0000000001
 40
0.0
 40
0.0
 40
0.0
 40
0.0
 40
1.0
 40
1.0
 40
1.0
 40
1.0
 10
15.94352883887451
 20
-10.99962874725007
 30
0.0
 10
15.88411769905456
 20
-10.92879096949001
 30
0.0
 10
15.77283731545143
 20
-10.93584299726601
 30
0.0
 10
15.7228310667272
 20
-11.01381041391319
 30
0.0
  0
ENDBLK
  5
6C
330
69
100
AcDbEntity
  8
0
100
AcDbBlockEnd
  0
BLOCK
  5
70
330
6E
100
AcDbEntity
  8
0
100
AcDbBlockBegin
  2
block 11
 70
     0
 10
0.0
 20
0.0
 30
0.0
  3
block 11
  1

  0
SPLINE
  5
72
330
6E
100
AcDbEntity
  8
Livello 1
 62
   250
420
  1842203
370
    35
100
AcDbSpline
210
0.0
220
0.0
230
1.0
 70
     8
 71
     3
 72
     8
 73
     4
 74
     0
 42
0.000000001
 43
0.0000000001
 40
0.0
 40
0.0
 40
0.0
 40
0.0
 40
1.0
 40
1.0
 40
1.0
 40
1.0
 10
15.83840459155645
 20
-11.22535360830479
 30
0.0
 10
15.85137623011441
 20
-11.22535360830479
 30
0.0
 10
15.86377636868694
 20
-11.22349446941636
 30
0.0
 10
15.87617650725948
 20
-11.21992788608392
 30
0.0
  0
ENDBLK
  5
71
330
6E
100
AcDbEntity
  8
0
100
AcDbBlockEnd
  0
BLOCK
  5
75
330
73
100
AcDbEntity
  8
0
100
AcDbBlockBegin
  2
block 12
 70
     0
 10
0.0
 20
0.0
 30
0.0
  3
block 12
  1

  0
SPLINE
  5
77
330
73
100
AcDbEntity
  8
Livello 1
 62
   250
420
  1842203
370
    35
100
AcDbSpline
210
0.0
220
0.0
230
1.0
 70
     8
 71
     3
 72
     8
 73
     4
 74
     0
 42
0.000000001
 43
0.0000000001
 40
0.0
 40
0.0
 40
0.0
 40
0.0
 40
1.0
 40
1.0
 40
1.0
 40
1.0
 10
15.886068395896
 20
-11.21668233052916
 30
0.0
 10
15.97506011584786
 20
-11.18369760831519
 30
0.0
 10
16.00472167064667
 20
-11.07241738612075
 30
0.0
 10
15.94352883887451
 20
-10.99962874725007
 30
0.0
  0
ENDBLK
  5
76
330
73
100
AcDbEntity
  8
0
100
AcDbBlockEnd
  0
BLOCK
  5
7A
330
78
100
AcDbEntity
  8
0
100
AcDbBlockBegin
  2
block 13
 70
     0
 10
0.0
 20
0.0
 30
0.0
  3
block 13
  1

  0
SPLINE
  5
7C
330
78
100
AcDbEntity
  8
Livello 1
 62
   250
420
  1842203
370
    35
100
AcDbSpline
210
0.0
220
0.0
230
1.0
 70
     8
 71
     3
 72
    11
 73
     7
 74
     0
 42
0.000000001
 43
0.0000000001
 40
0.0
 40
0.0
 40
0.0
 40
0.0
 40
1.0
 40
1.0
 40
1.0
 40
2.0
 40
2.0
 40
2.0
 40
2.0
 10
15.99621619864145
 20
-10.95545744170557
 30
0.0
 10
16.06324397470921
 20
-11.03545685835225
 30
0.0
 10
16.06000547479183
 20
-11.15305533054509
 30
0.0
 10
15.98851153217135
 20
-11.22900838608167
 30
0.0
 10
15.98851153217135
 20
-11.22900838608167
 30
0.0
 10
15.94691550545478
 20
-11.26493174718379
 30
0.0
 10
15.90965158973879
 20
-11.28396763606792
 30
0.0
  0
ENDBLK
  5
7B
330
78
100
AcDbEntity
  8
0
100
AcDbBlockEnd
  0
BLOCK
  5
7F
330
7D
100
AcDbEntity
  8
0
100
AcDbBlockBegin
  2
block 14
 70
     0
 10
0.0
 20
0.0
 30
0.0
  3
block 14
  1

  0
SPLINE
  5
81
330
7D
100
AcDbEntity
  8
Livello 1
 62
   250
420
  1842203
370
    35
100
AcDbSpline
210
0.0
220
0.0
230
1.0
 70
     8
 71
     3
 72
     8
 73
     4
 74
     0
 42
0.000000001
 43
0.0000000001
 40
0.0
 40
0.0
 40
0.0
 40
0.0
 40
1.0
 40
1.0
 40
1.0
 40
1.0
 10
15.99621619864145
 20
-10.95545744170557
 30
0.0
 10
15.99726747639241
 20
-10.95683327503858
 30
0.0
 10
15.99840694858556
 20
-10.95812796948272
 30
0.0
 10
15.9993770874497
 20
-10.9594226639268
 30
0.0
  0
ENDBLK
  5
80
330
7D
100
AcDbEntity
  8
0
100
AcDbBlockEnd
  0
BLOCK
  5
84
330
82
100
AcDbEntity
  8
0
100
AcDbBlockBegin
  2
block 15
 70
     0
 10
0.0
 20
0.0
 30
0.0
  3
block 15
  1

  0
SPLINE
  5
86
330
82
100
AcDbEntity
  8
Livello 1
 62
   250
420
  1842203
370
    35
100
AcDbSpline
210
0.0
220
0.0
230
1.0
 70
     8
 71
     3
 72
     8
 73
     4
 74
     0
 42
0.000000001
 43
0.0000000001
 40
0.0
 40
0.0
 40
0.0
 40
0.0
 40
1.0
 40
1.0
 40
1.0
 40
1.0
 10
15.9929706431687
 20
-10.95172858059539
 30
0.0
 10
15.99402192091966
 20
-10.95285746948403
 30
0.0
 10
15.9950767264483
 20
-10.9542368305948
 30
0.0
 10
15.99621619864145
 20
-10.95545744170557
 30
0.0
  0
ENDBLK
  5
85
330
82
100
AcDbEntity
  8
0
100
AcDbBlockEnd
  0
BLOCK
  5
89
330
87
100
AcDbEntity
  8
0
100
AcDbBlockBegin
  2
block 16
 70
     0
 10
0.0
 20
0.0
 30
0.0
  3
block 16
  1

  0
POLYLINE
  5
8B
330
87
100
AcDbEntity
  8
Livello 1
 62
   250
420
  1842203
370
    35
100
AcDb2dPolyline
 66
     1
 10
0.0
 20
0.0
 30
0.0
  0
VERTEX
  5
8C
330
8B
100
AcDbEntity
  8
Livello 1
 62
   250
420
  1842203
370
    35
100
AcDbVertex
100
AcDb2dVertex
 10
15.88541575702376
 20
-11.21733849719564
 30
0.0
  0
VERTEX
  5
8D
330
8B
100
AcDbEntity
  8
Livello 1
 62
   250
420
  1842203
370
    35
100
AcDbVertex
100
AcDb2dVertex
 10
15.87650106280675
 20
-11.21992788608392
 30
0.0
  0
SEQEND
  5
8E
330
8B
100
AcDbEntity
  8
Livello 1
 62
   250
420
  1842203
370
    35
  0
ENDBLK
  5
8A
330
87
100
AcDbEntity
  8
0
100
AcDbBlockEnd
  0
BLOCK
  5
91
330
8F
100
AcDbEntity
  8
0
100
AcDbBlockBegin
  2
block 17
 70
     0
 10
0.0
 20
0.0
 30
0.0
  3
block 17
  1

  0
POLYLINE
  5
93
330
8F
100
AcDbEntity
  8
Livello 1
 62
   250
420
  1842203
370
    35
100
AcDb2dPolyline
 66
     1
 10
0.0
 20
0.0
 30
0.0
  0
VERTEX
  5
94
330
93
100
AcDbEntity
  8
Livello 1
 62
   250
420
  1842203
370
    35
100
AcDbVertex
100
AcDb2dVertex
 10
15.8974983956044
 20
-11.21190219164145
 30
0.0
  0
VERTEX
  5
95
330
93
100
AcDbEntity
  8
Livello 1
 62
   250
420
  1842203
370
    35
100
AcDbVertex
100
AcDb2dVertex
 10
15.88768764585469
 20
-11.19999241386669
 30
0.0
  0
SEQEND
  5
96
330
93
100
AcDbEntity
  8
Livello 1
 62
   250
420
  1842203
370
    35
  0
ENDBLK
  5
92
330
8F
100
AcDbEntity
  8
0
100
AcDbBlockEnd
  0
BLOCK
  5
99
330
97
100
AcDbEntity
  8
0
100
AcDbBlockBegin
  2
block 18
 70
     0
 10
0.0
 20
0.0
 30
0.0
  3
block 18
  1

  0
POLYLINE
  5
9B
330
97
100
AcDbEntity
  8
Livello 1
 62
   250
420
  1842203
370
    35
100
AcDb2dPolyline
 66
     1
 10
0.0
 20
0.0
 30
0.0
  0
VERTEX
  5
9C
330
9B
100
AcDbEntity
  8
Livello 1
 62
   250
420
  1842203
370
    35
100
AcDbVertex
100
AcDb2dVertex
 10
15.91119322858835
 20
-12.79986785791117
 30
0.0
  0
VERTEX
  5
9D
330
9B
100
AcDbEntity
  8
Livello 1
 62
   250
420
  1842203
370
    35
100
AcDbVertex
100
AcDb2dVertex
 10
15.91119322858835
 20
-14.70475849632378
 30
0.0
  0
SEQEND
  5
9E
330
9B
100
AcDbEntity
  8
Livello 1
 62
   250
420
  1842203
370
    35
  0
ENDBLK
  5
9A
330
97
100
AcDbEntity
  8
0
100
AcDbBlockEnd
  0
BLOCK
  5
A1
330
9F
100
AcDbEntity
  8
0
100
AcDbBlockBegin
  2
block 19
 70
     0
 10
0.0
 20
0.0
 30
0.0
  3
block 19
  1

  0
POLYLINE
  5
A3
330
9F
100
AcDbEntity
  8
Livello 1
 62
   250
420
  1842203
370
    35
100
AcDb2dPolyline
 66
     1
 10
0.0
 20
0.0
 30
0.0
  0
VERTEX
  5
A4
330
A3
100
AcDbEntity
  8
Livello 1
 62
   250
420
  1842203
370
    35
100
AcDbVertex
100
AcDb2dVertex
 10
12.68281106096598
 20
-14.70475849632378
 30
0.0
  0
VERTEX
  5
A5
330
A3
100
AcDbEntity
  8
Livello 1
 62
   250
420
  1842203
370
    35
100
AcDbVertex
100
AcDb2dVertex
 10
12.68281106096598
 20
-12.79986785791117
 30
0.0
  0
SEQEND
  5
A6
330
A3
100
AcDbEntity
  8
Livello 1
 62
   250
420
  1842203
370
    35
  0
ENDBLK
  5
A2
330
9F
100
AcDbEntity
  8
0
100
AcDbBlockEnd
  0
BLOCK
  5
A9
330
A7
100
AcDbEntity
  8
0
100
AcDbBlockBegin
  2
block 20
 70
     0
 10
0.0
 20
0.0
 30
0.0
  3
block 20
  1

  0
POLYLINE
  5
AB
330
A7
100
AcDbEntity
  8
Livello 1
 62
   250
420
  1842203
370
    35
100
AcDb2dPolyline
 66
     1
 10
0.0
 20
0.0
 30
0.0
  0
VERTEX
  5
AC
330
AB
100
AcDbEntity
  8
Livello 1
 62
   250
420
  1842203
370
    35
100
AcDbVertex
100
AcDb2dVertex
 10
15.90965158973879
 20
-12.79986785791117
 30
0.0
  0
VERTEX
  5
AD
330
AB
100
AcDbEntity
  8
Livello 1
 62
   250
420
  1842203
370
    35
100
AcDbVertex
100
AcDb2dVertex
 10
15.79780339814783
 20
-12.79986785791117
 30
0.0
  0
SEQEND
  5
AE
330
AB
100
AcDbEntity
  8
Livello 1
 62
   250
420
  1842203
370
    35
  0
ENDBLK
  5
AA
330
A7
100
AcDbEntity
  8
0
100
AcDbBlockEnd
  0
BLOCK
  5
B1
330
AF
100
AcDbEntity
  8
0
100
AcDbBlockBegin
  2
block 21
 70
     0
 10
0.0
 20
0.0
 30
0.0
  3
block 21
  1

  0
POLYLINE
  5
B3
330
AF
100
AcDbEntity
  8
Livello 1
 62
   250
420
  1842203
370
    35
100
AcDb2dPolyline
 66
     1
 10
0.0
 20
0.0
 30
0.0
  0
VERTEX
  5
B4
330
B3
100
AcDbEntity
  8
Livello 1
 62
   250
420
  1842203
370
    35
100
AcDbVertex
100
AcDb2dVertex
 10
15.78985884279496
 20
-12.79986785791117
 30
0.0
  0
VERTEX
  5
B5
330
B3
100
AcDbEntity
  8
Livello 1
 62
   250
420
  1842203
370
    35
100
AcDbVertex
100
AcDb2dVertex
 10
15.76643792672581
 20
-12.79986785791117
 30
0.0
  0
SEQEND
  5
B6
330
B3
100
AcDbEntity
  8
Livello 1
 62
   250
420
  1842203
370
    35
  0
ENDBLK
  5
B2
330
AF
100
AcDbEntity
  8
0
100
AcDbBlockEnd
  0
BLOCK
  5
B9
330
B7
100
AcDbEntity
  8
0
100
AcDbBlockBegin
  2
block 22
 70
     0
 10
0.0
 20
0.0
 30
0.0
  3
block 22
  1

  0
POLYLINE
  5
BB
330
B7
100
AcDbEntity
  8
Livello 1
 62
   250
420
  1842203
370
    35
100
AcDb2dPolyline
 66
     1
 10
0.0
 20
0.0
 30
0.0
  0
VERTEX
  5
BC
330
BB
100
AcDbEntity
  8
Livello 1
 62
   250
420
  1842203
370
    35
100
AcDbVertex
100
AcDb2dVertex
 10
15.75589692699473
 20
-12.79986785791117
 30
0.0
  0
VERTEX
  5
BD
330
BB
100
AcDbEntity
  8
Livello 1
 62
   250
420
  1842203
370
    35
100
AcDbVertex
100
AcDb2dVertex
 10
15.66560345707609
 20
-12.79986785791117
 30
0.0
  0
SEQEND
  5
BE
330
BB
100
AcDbEntity
  8
Livello 1
 62
   250
420
  1842203
370
    35
  0
ENDBLK
  5
BA
330
B7
100
AcDbEntity
  8
0
100
AcDbBlockEnd
  0
BLOCK
  5
C1
330
BF
100
AcDbEntity
  8
0
100
AcDbBlockBegin
  2
block 23
 70
     0
 10
0.0
 20
0.0
 30
0.0
  3
block 23
  1

  0
POLYLINE
  5
C3
330
BF
100
AcDbEntity
  8
Livello 1
 62
   250
420
  1842203
370
    35
100
AcDb2dPolyline
 66
     1
 10
0.0
 20
0.0
 30
0.0
  0
VERTEX
  5
C4
330
C3
100
AcDbEntity
  8
Livello 1
 62
   250
420
  1842203
370
    35
100
AcDbVertex
100
AcDb2dVertex
 10
15.65068801301217
 20
-12.79986785791117
 30
0.0
  0
VERTEX
  5
C5
330
C3
100
AcDbEntity
  8
Livello 1
 62
   250
420
  1842203
370
    35
100
AcDbVertex
100
AcDb2dVertex
 10
15.62500242134158
 20
-12.79986785791117
 30
0.0
  0
SEQEND
  5
C6
330
C3
100
AcDbEntity
  8
Livello 1
 62
   250
420
  1842203
370
    35
  0
ENDBLK
  5
C2
330
BF
100
AcDbEntity
  8
0
100
AcDbBlockEnd
  0
BLOCK
  5
C9
330
C7
100
AcDbEntity
  8
0
100
AcDbBlockBegin
  2
block 24
 70
     0
 10
0.0
 20
0.0
 30
0.0
  3
block 24
  1

  0
POLYLINE
  5
CB
330
C7
100
AcDbEntity
  8
Livello 1
 62
   250
420
  1842203
370
    35
100
AcDb2dPolyline
 66
     1
 10
0.0
 20
0.0
 30
0.0
  0
VERTEX
  5
CC
330
CB
100
AcDbEntity
  8
Livello 1
 62
   250
420
  1842203
370
    35
100
AcDbVertex
100
AcDb2dVertex
 10
15.61835240272601
 20
-12.79986785791117
 30
0.0
  0
VERTEX
  5
CD
330
CB
100
AcDbEntity
  8
Livello 1
 62
   250
420
  1842203
370
    35
100
AcDbVertex
100
AcDb2dVertex
 10
15.57604023713881
 20
-12.79986785791117
 30
0.0
  0
SEQEND
  5
CE
330
CB
100
AcDbEntity
  8
Livello 1
 62
   250
420
  1842203
370
    35
  0
ENDBLK
  5
CA
330
C7
100
AcDbEntity
  8
0
100
AcDbBlockEnd
  0
BLOCK
  5
D1
330
CF
100
AcDbEntity
  8
0
100
AcDbBlockBegin
  2
block 25
 70
     0
 10
0.0
 20
0.0
 30
0.0
  3
block 25
  1

  0
POLYLINE
  5
D3
330
CF
100
AcDbEntity
  8
Livello 1
 62
   250
420
  1842203
370
    35
100
AcDb2dPolyline
 66
     1
 10
0.0
 20
0.0
 30
0.0
  0
VERTEX
  5
D4
330
D3
100
AcDbEntity
  8
Livello 1
 62
   250
420
  1842203
370
    35
100
AcDbVertex
100
AcDb2dVertex
 10
15.55763934871937
 20
-12.79986785791117
 30
0.0
  0
VERTEX
  5
D5
330
D3
100
AcDbEntity
  8
Livello 1
 62
   250
420
  1842203
370
    35
100
AcDbVertex
100
AcDb2dVertex
 10
15.51987801634941
 20
-12.79986785791117
 30
0.0
  0
SEQEND
  5
D6
330
D3
100
AcDbEntity
  8
Livello 1
 62
   250
420
  1842203
370
    35
  0
ENDBLK
  5
D2
330
CF
100
AcDbEntity
  8
0
100
AcDbBlockEnd
  0
BLOCK
  5
D9
330
D7
100
AcDbEntity
  8
0
100
AcDbBlockBegin
  2
block 26
 70
     0
 10
0.0
 20
0.0
 30
0.0
  3
block 26
  1

  0
POLYLINE
  5
DB
330
D7
100
AcDbEntity
  8
Livello 1
 62
   250
420
  1842203
370
    35
100
AcDb2dPolyline
 66
     1
 10
0.0
 20
0.0
 30
0.0
  0
VERTEX
  5
DC
330
DB
100
AcDbEntity
  8
Livello 1
 62
   250
420
  1842203
370
    35
100
AcDbVertex
100
AcDb2dVertex
 10
15.48680157274882
 20
-12.79986785791117
 30
0.0
  0
VERTEX
  5
DD
330
DB
100
AcDbEntity
  8
Livello 1
 62
   250
420
  1842203
370
    35
100
AcDbVertex
100
AcDb2dVertex
 10
15.43720454623636
 20
-12.79986785791117
 30
0.0
  0
SEQEND
  5
DE
330
DB
100
AcDbEntity
  8
Livello 1
 62
   250
420
  1842203
370
    35
  0
ENDBLK
  5
DA
330
D7
100
AcDbEntity
  8
0
100
AcDbBlockEnd
  0
BLOCK
  5
E1
330
DF
100
AcDbEntity
  8
0
100
AcDbBlockBegin
  2
block 27
 70
     0
 10
0.0
 20
0.0
 30
0.0
  3
block 27
  1

  0
POLYLINE
  5
E3
330
DF
100
AcDbEntity
  8
Livello 1
 62
   250
420
  1842203
370
    35
100
AcDb2dPolyline
 66
     1
 10
0.0
 20
0.0
 30
0.0
  0
VERTEX
  5
E4
330
E3
100
AcDbEntity
  8
Livello 1
 62
   250
420
  1842203
370
    35
100
AcDbVertex
100
AcDb2dVertex
 10
15.40851313030167
 20
-12.79986785791117
 30
0.0
  0
VERTEX
  5
E5
330
E3
100
AcDbEntity
  8
Livello 1
 62
   250
420
  1842203
370
    35
100
AcDbVertex
100
AcDb2dVertex
 10
15.27525853254011
 20
-12.79986785791117
 30
0.0
  0
SEQEND
  5
E6
330
E3
100
AcDbEntity
  8
Livello 1
 62
   250
420
  1842203
370
    35
  0
ENDBLK
  5
E2
330
DF
100
AcDbEntity
  8
0
100
AcDbBlockEnd
  0
BLOCK
  5
E9
330
E7
100
AcDbEntity
  8
0
100
AcDbBlockBegin
  2
block 28
 70
     0
 10
0.0
 20
0.0
 30
0.0
  3
block 28
  1

  0
POLYLINE
  5
EB
330
E7
100
AcDbEntity
  8
Livello 1
 62
   250
420
  1842203
370
    35
100
AcDb2dPolyline
 66
     1
 10
0.0
 20
0.0
 30
0.0
  0
VERTEX
  5
EC
330
EB
100
AcDbEntity
  8
Livello 1
 62
   250
420
  1842203
370
    35
100
AcDbVertex
100
AcDb2dVertex
 10
15.26634721726196
 20
-12.79986785791117
 30
0.0
  0
VERTEX
  5
ED
330
EB
100
AcDbEntity
  8
Livello 1
 62
   250
420
  1842203
370
    35
100
AcDbVertex
100
AcDb2dVertex
 10
12.81136681093383
 20
-12.79986785791117
 30
0.0
  0
SEQEND
  5
EE
330
EB
100
AcDbEntity
  8
Livello 1
 62
   250
420
  1842203
370
    35
  0
ENDBLK
  5
EA
330
E7
100
AcDbEntity
  8
0
100
AcDbBlockEnd
  0
BLOCK
  5
F1
330
EF
100
AcDbEntity
  8
0
100
AcDbBlockBegin
  2
block 29
 70
     0
 10
0.0
 20
0.0
 30
0.0
  3
block 29
  1

  0
POLYLINE
  5
F3
330
EF
100
AcDbEntity
  8
Livello 1
 62
   250
420
  1842203
370
    35
100
AcDb2dPolyline
 66
     1
 10
0.0
 20
0.0
 30
0.0
  0
VERTEX
  5
F4
330
F3
100
AcDbEntity
  8
Livello 1
 62
   250
420
  1842203
370
    35
100
AcDbVertex
100
AcDb2dVertex
 10
12.80414544982455
 20
-12.79986785791117
 30
0.0
  0
VERTEX
  5
F5
330
F3
100
AcDbEntity
  8
Livello 1
 62
   250
420
  1842203
370
    35
100
AcDbVertex
100
AcDb2dVertex
 10
12.68281106096598
 20
-12.79986785791117
 30
0.0
  0
SEQEND
  5
F6
330
F3
100
AcDbEntity
  8
Livello 1
 62
   250
420
  1842203
370
    35
  0
ENDBLK
  5
F2
330
EF
100
AcDbEntity
  8
0
100
AcDbBlockEnd
  0
BLOCK
  5
F9
330
F7
100
AcDbEntity
  8
0
100
AcDbBlockBegin
  2
block 30
 70
     0
 10
0.0
 20
0.0
 30
0.0
  3
block 30
  1

  0
POLYLINE
  5
FB
330
F7
100
AcDbEntity
  8
Livello 1
 62
   250
420
  1842203
370
    35
100
AcDb2dPolyline
 66
     1
 10
0.0
 20
0.0
 30
0.0
  0
VERTEX
  5
FC
330
FB
100
AcDbEntity
  8
Livello 1
 62
   250
420
  1842203
370
    35
100
AcDbVertex
100
AcDb2dVertex
 10
15.91119322858835
 20
-11.42604183047684
 30
0.0
  0
VERTEX
  5
FD
330
FB
100
AcDbEntity
  8
Livello 1
 62
   250
420
  1842203
370
    35
100
AcDbVertex
100
AcDb2dVertex
 10
15.91119322858835
 20
-12.79986785791117
 30
0.0
  0
SEQEND
  5
FE
330
FB
100
AcDbEntity
  8
Livello 1
 62
   250
420
  1842203
370
    35
  0
ENDBLK
  5
FA
330
F7
100
AcDbEntity
  8
0
100
AcDbBlockEnd
  0
BLOCK
  5
101
330
FF
100
AcDbEntity
  8
0
100
AcDbBlockBegin
  2
block 31
 70
     0
 10
0.0
 20
0.0
 30
0.0
  3
block 31
  1

  0
POLYLINE
  5
103
330
FF
100
AcDbEntity
  8
Livello 1
 62
   250
420
  1842203
370
    35
100
AcDb2dPolyline
 66
     1
 10
0.0
 20
0.0
 30
0.0
  0
VERTEX
  5
104
330
103
100
AcDbEntity
  8
Livello 1
 62
   250
420
  1842203
370
    35
100
AcDbVertex
100
AcDb2dVertex
 10
12.68281106096598
 20
-12.79986785791117
 30
0.0
  0
VERTEX
  5
105
330
103
100
AcDbEntity
  8
Livello 1
 62
   250
420
  1842203
370
    35
100
AcDbVertex
100
AcDb2dVertex
 10
12.68281106096598
 20
-11.42604183047684
 30
0.0
  0
SEQEND
  5
106
330
103
100
AcDbEntity
  8
Livello 1
 62
   250
420
  1842203
370
    35
  0
ENDBLK
  5
102
330
FF
100
AcDbEntity
  8
0
100
AcDbBlockEnd
  0
BLOCK
  5
109
330
107
100
AcDbEntity
  8
0
100
AcDbBlockBegin
  2
block 32
 70
     0
 10
0.0
 20
0.0
 30
0.0
  3
block 32
  1

  0
POLYLINE
  5
10B
330
107
100
AcDbEntity
  8
Livello 1
 62
   250
420
  1842203
370
    35
100
AcDb2dPolyline
 66
     1
 10
0.0
 20
0.0
 30
0.0
  0
VERTEX
  5
10C
330
10B
100
AcDbEntity
  8
Livello 1
 62
   250
420
  1842203
370
    35
100
AcDbVertex
100
AcDb2dVertex
 10
15.84829648019298
 20
-11.21992788608392
 30
0.0
  0
VERTEX
  5
10D
330
10B
100
AcDbEntity
  8
Livello 1
 62
   250
420
  1842203
370
    35
100
AcDbVertex
100
AcDb2dVertex
 10
15.8763423128108
 20
-11.21992788608392
 30
0.0
  0
SEQEND
  5
10E
330
10B
100
AcDbEntity
  8
Livello 1
 62
   250
420
  1842203
370
    35
  0
ENDBLK
  5
10A
330
107
100
AcDbEntity
  8
0
100
AcDbBlockEnd
  0
BLOCK
  5
111
330
10F
100
AcDbEntity
  8
0
100
AcDbBlockBegin
  2
block 33
 70
     0
 10
0.0
 20
0.0
 30
0.0
  3
block 33
  1

  0
POLYLINE
  5
113
330
10F
100
AcDbEntity
  8
Livello 1
 62
   250
420
  1842203
370
    35
100
AcDb2dPolyline
 66
     1
 10
0.0
 20
0.0
 30
0.0
  0
VERTEX
  5
114
330
113
100
AcDbEntity
  8
Livello 1
 62
   250
420
  1842203
370
    35
100
AcDbVertex
100
AcDb2dVertex
 10
15.88768764585469
 20
-11.21603321941818
 30
0.0
  0
VERTEX
  5
115
330
113
100
AcDbEntity
  8
Livello 1
 62
   250
420
  1842203
370
    35
100
AcDbVertex
100
AcDb2dVertex
 10
15.88768764585469
 20
-11.03447966390803
 30
0.0
  0
SEQEND
  5
116
330
113
100
AcDbEntity
  8
Livello 1
 62
   250
420
  1842203
370
    35
  0
ENDBLK
  5
112
330
10F
100
AcDbEntity
  8
0
100
AcDbBlockEnd
  0
BLOCK
  5
119
330
117
100
AcDbEntity
  8
0
100
AcDbBlockBegin
  2
block 34
 70
     0
 10
0.0
 20
0.0
 30
0.0
  3
block 34
  1

  0
POLYLINE
  5
11B
330
117
100
AcDbEntity
  8
Livello 1
 62
   250
420
  1842203
370
    35
100
AcDb2dPolyline
 66
     1
 10
0.0
 20
0.0
 30
0.0
  0
VERTEX
  5
11C
330
11B
100
AcDbEntity
  8
Livello 1
 62
   250
420
  1842203
370
    35
100
AcDbVertex
100
AcDb2dVertex
 10
15.88768764585469
 20
-11.03447966390803
 30
0.0
  0
VERTEX
  5
11D
330
11B
100
AcDbEntity
  8
Livello 1
 62
   250
420
  1842203
370
    35
100
AcDbVertex
100
AcDb2dVertex
 10
12.70639778318231
 20
-11.03447966390803
 30
0.0
  0
SEQEND
  5
11E
330
11B
100
AcDbEntity
  8
Livello 1
 62
   250
420
  1842203
370
    35
  0
ENDBLK
  5
11A
330
117
100
AcDbEntity
  8
0
100
AcDbBlockEnd
  0
BLOCK
  5
121
330
11F
100
AcDbEntity
  8
0
100
AcDbBlockBegin
  2
block 35
 70
     0
 10
0.0
 20
0.0
 30
0.0
  3
block 35
  1

  0
POLYLINE
  5
123
330
11F
100
AcDbEntity
  8
Livello 1
 62
   250
420
  1842203
370
    35
100
AcDb2dPolyline
 66
     1
 10
0.0
 20
0.0
 30
0.0
  0
VERTEX
  5
124
330
123
100
AcDbEntity
  8
Livello 1
 62
   250
420
  1842203
370
    35
100
AcDbVertex
100
AcDb2dVertex
 10
12.70639778318231
 20
-11.03447966390803
 30
0.0
  0
VERTEX
  5
125
330
123
100
AcDbEntity
  8
Livello 1
 62
   250
420
  1842203
370
    35
100
AcDbVertex
100
AcDb2dVertex
 10
12.70639778318231
 20
-11.13473910832742
 30
0.0
  0
VERTEX
  5
126
330
123
100
AcDbEntity
  8
Livello 1
 62
   250
420
  1842203
370
    35
100
AcDbVertex
100
AcDb2dVertex
 10
12.70088739429478
 20
-11.24805485829912
 30
0.0
  0
SEQEND
  5
127
330
123
100
AcDbEntity
  8
Livello 1
 62
   250
420
  1842203
370
    35
  0
ENDBLK
  5
122
330
11F
100
AcDbEntity
  8
0
100
AcDbBlockEnd
  0
BLOCK
  5
12A
330
128
100
AcDbEntity
  8
0
100
AcDbBlockBegin
  2
block 36
 70
     0
 10
0.0
 20
0.0
 30
0.0
  3
block 36
  1

  0
POLYLINE
  5
12C
330
128
100
AcDbEntity
  8
Livello 1
 62
   250
420
  1842203
370
    35
100
AcDb2dPolyline
 66
     1
 10
0.0
 20
0.0
 30
0.0
  0
VERTEX
  5
12D
330
12C
100
AcDbEntity
  8
Livello 1
 62
   250
420
  1842203
370
    35
100
AcDbVertex
100
AcDb2dVertex
 10
12.74578894983914
 20
-11.42604183047684
 30
0.0
  0
VERTEX
  5
12E
330
12C
100
AcDbEntity
  8
Livello 1
 62
   250
420
  1842203
370
    35
100
AcDbVertex
100
AcDb2dVertex
 10
12.68281106096598
 20
-11.42604183047684
 30
0.0
  0
SEQEND
  5
12F
330
12C
100
AcDbEntity
  8
Livello 1
 62
   250
420
  1842203
370
    35
  0
ENDBLK
  5
12B
330
128
100
AcDbEntity
  8
0
100
AcDbBlockEnd
  0
BLOCK
  5
132
330
130
100
AcDbEntity
  8
0
100
AcDbBlockBegin
  2
block 37
 70
     0
 10
0.0
 20
0.0
 30
0.0
  3
block 37
  1

  0
POLYLINE
  5
134
330
130
100
AcDbEntity
  8
Livello 1
 62
   250
420
  1842203
370
    35
100
AcDb2dPolyline
 66
     1
 10
0.0
 20
0.0
 30
0.0
  0
VERTEX
  5
135
330
134
100
AcDbEntity
  8
Livello 1
 62
   250
420
  1842203
370
    35
100
AcDbVertex
100
AcDb2dVertex
 10
12.80414544982455
 20
-12.79986785791117
 30
0.0
  0
VERTEX
  5
136
330
134
100
AcDbEntity
  8
Livello 1
 62
   250
420
  1842203
370
    35
100
AcDbVertex
100
AcDb2dVertex
 10
12.81136681093383
 20
-12.79986785791117
 30
0.0
  0
SEQEND
  5
137
330
134
100
AcDbEntity
  8
Livello 1
 62
   250
420
  1842203
370
    35
  0
ENDBLK
  5
133
330
130
100
AcDbEntity
  8
0
100
AcDbBlockEnd
  0
BLOCK
  5
13A
330
138
100
AcDbEntity
  8
0
100
AcDbBlockBegin
  2
block 38
 70
     0
 10
0.0
 20
0.0
 30
0.0
  3
block 38
  1

  0
POLYLINE
  5
13C
330
138
100
AcDbEntity
  8
Livello 1
 62
   250
420
  1842203
370
    35
100
AcDb2dPolyline
 66
     1
 10
0.0
 20
0.0
 30
0.0
  0
VERTEX
  5
13D
330
13C
100
AcDbEntity
  8
Livello 1
 62
   250
420
  1842203
370
    35
100
AcDbVertex
100
AcDb2dVertex
 10
15.26634721726196
 20
-12.79986785791117
 30
0.0
  0
VERTEX
  5
13E
330
13C
100
AcDbEntity
  8
Livello 1
 62
   250
420
  1842203
370
    35
100
AcDbVertex
100
AcDb2dVertex
 10
15.27525853254011
 20
-12.79986785791117
 30
0.0
  0
SEQEND
  5
13F
330
13C
100
AcDbEntity
  8
Livello 1
 62
   250
420
  1842203
370
    35
  0
ENDBLK
  5
13B
330
138
100
AcDbEntity
  8
0
100
AcDbBlockEnd
  0
BLOCK
  5
142
330
140
100
AcDbEntity
  8
0
100
AcDbBlockBegin
  2
block 39
 70
     0
 10
0.0
 20
0.0
 30
0.0
  3
block 39
  1

  0
POLYLINE
  5
144
330
140
100
AcDbEntity
  8
Livello 1
 62
   250
420
  1842203
370
    35
100
AcDb2dPolyline
 66
     1
 10
0.0
 20
0.0
 30
0.0
  0
VERTEX
  5
145
330
144
100
AcDbEntity
  8
Livello 1
 62
   250
420
  1842203
370
    35
100
AcDbVertex
100
AcDb2dVertex
 10
15.40851313030167
 20
-12.79986785791117
 30
0.0
  0
VERTEX
  5
146
330
144
100
AcDbEntity
  8
Livello 1
 62
   250
420
  1842203
370
    35
100
AcDbVertex
100
AcDb2dVertex
 10
15.43720454623636
 20
-12.79986785791117
 30
0.0
  0
SEQEND
  5
147
330
144
100
AcDbEntity
  8
Livello 1
 62
   250
420
  1842203
370
    35
  0
ENDBLK
  5
143
330
140
100
AcDbEntity
  8
0
100
AcDbBlockEnd
  0
BLOCK
  5
14A
330
148
100
AcDbEntity
  8
0
100
AcDbBlockBegin
  2
block 40
 70
     0
 10
0.0
 20
0.0
 30
0.0
  3
block 40
  1

  0
POLYLINE
  5
14C
330
148
100
AcDbEntity
  8
Livello 1
 62
   250
420
  1842203
370
    35
100
AcDb2dPolyline
 66
     1
 10
0.0
 20
0.0
 30
0.0
  0
VERTEX
  5
14D
330
14C
100
AcDbEntity
  8
Livello 1
 62
   250
420
  1842203
370
    35
100
AcDbVertex
100
AcDb2dVertex
 10
15.48680157274882
 20
-12.79986785791117
 30
0.0
  0
VERTEX
  5
14E
330
14C
100
AcDbEntity
  8
Livello 1
 62
   250
420
  1842203
370
    35
100
AcDbVertex
100
AcDb2dVertex
 10
15.51987801634941
 20
-12.79986785791117
 30
0.0
  0
SEQEND
  5
14F
330
14C
100
AcDbEntity
  8
Livello 1
 62
   250
420
  1842203
370
    35
  0
ENDBLK
  5
14B
330
148
100
AcDbEntity
  8
0
100
AcDbBlockEnd
  0
BLOCK
  5
152
330
150
100
AcDbEntity
  8
0
100
AcDbBlockBegin
  2
block 41
 70
     0
 10
0.0
 20
0.0
 30
0.0
  3
block 41
  1

  0
POLYLINE
  5
154
330
150
100
AcDbEntity
  8
Livello 1
 62
   250
420
  1842203
370
    35
100
AcDb2dPolyline
 66
     1
 10
0.0
 20
0.0
 30
0.0
  0
VERTEX
  5
155
330
154
100
AcDbEntity
  8
Livello 1
 62
   250
420
  1842203
370
    35
100
AcDbVertex
100
AcDb2dVertex
 10
15.55763934871937
 20
-12.79986785791117
 30
0.0
  0
VERTEX
  5
156
330
154
100
AcDbEntity
  8
Livello 1
 62
   250
420
  1842203
370
    35
100
AcDbVertex
100
AcDb2dVertex
 10
15.57604023713881
 20
-12.79986785791117
 30
0.0
  0
SEQEND
  5
157
330
154
100
AcDbEntity
  8
Livello 1
 62
   250
420
  1842203
370
    35
  0
ENDBLK
  5
153
330
150
100
AcDbEntity
  8
0
100
AcDbBlockEnd
  0
BLOCK
  5
15A
330
158
100
AcDbEntity
  8
0
100
AcDbBlockBegin
  2
block 42
 70
     0
 10
0.0
 20
0.0
 30
0.0
  3
block 42
  1

  0
POLYLINE
  5
15C
330
158
100
AcDbEntity
  8
Livello 1
 62
   250
420
  1842203
370
    35
100
AcDb2dPolyline
 66
     1
 10
0.0
 20
0.0
 30
0.0
  0
VERTEX
  5
15D
330
15C
100
AcDbEntity
  8
Livello 1
 62
   250
420
  1842203
370
    35
100
AcDbVertex
100
AcDb2dVertex
 10
15.61835240272601
 20
-12.79986785791117
 30
0.0
  0
VERTEX
  5
15E
330
15C
100
AcDbEntity
  8
Livello 1
 62
   250
420
  1842203
370
    35
100
AcDbVertex
100
AcDb2dVertex
 10
15.62500242134158
 20
-12.79986785791117
 30
0.0
  0
SEQEND
  5
15F
330
15C
100
AcDbEntity
  8
Livello 1
 62
   250
420
  1842203
370
    35
  0
ENDBLK
  5
15B
330
158
100
AcDbEntity
  8
0
100
AcDbBlockEnd
  0
BLOCK
  5
162
330
160
100
AcDbEntity
  8
0
100
AcDbBlockBegin
  2
block 43
 70
     0
 10
0.0
 20
0.0
 30
0.0
  3
block 43
  1

  0
POLYLINE
  5
164
330
160
100
AcDbEntity
  8
Livello 1
 62
   250
420
  1842203
370
    35
100
AcDb2dPolyline
 66
     1
 10
0.0
 20
0.0
 30
0.0
  0
VERTEX
  5
165
330
164
100
AcDbEntity
  8
Livello 1
 62
   250
420
  1842203
370
    35
100
AcDbVertex
100
AcDb2dVertex
 10
15.65068801301217
 20
-12.79986785791117
 30
0.0
  0
VERTEX
  5
166
330
164
100
AcDbEntity
  8
Livello 1
 62
   250
420
  1842203
370
    35
100
AcDbVertex
100
AcDb2dVertex
 10
15.66560345707609
 20
-12.79986785791117
 30
0.0
  0
SEQEND
  5
167
330
164
100
AcDbEntity
  8
Livello 1
 62
   250
420
  1842203
370
    35
  0
ENDBLK
  5
163
330
160
100
AcDbEntity
  8
0
100
AcDbBlockEnd
  0
BLOCK
  5
16A
330
168
100
AcDbEntity
  8
0
100
AcDbBlockBegin
  2
block 44
 70
     0
 10
0.0
 20
0.0
 30
0.0
  3
block 44
  1

  0
POLYLINE
  5
16C
330
168
100
AcDbEntity
  8
Livello 1
 62
   250
420
  1842203
370
    35
100
AcDb2dPolyline
 66
     1
 10
0.0
 20
0.0
 30
0.0
  0
VERTEX
  5
16D
330
16C
100
AcDbEntity
  8
Livello 1
 62
   250
420
  1842203
370
    35
100
AcDbVertex
100
AcDb2dVertex
 10
15.75589692699473
 20
-12.79986785791117
 30
0.0
  0
VERTEX
  5
16E
330
16C
100
AcDbEntity
  8
Livello 1
 62
   250
420
  1842203
370
    35
100
AcDbVertex
100
AcDb2dVertex
 10
15.76643792672581
 20
-12.79986785791117
 30
0.0
  0
SEQEND
  5
16F
330
16C
100
AcDbEntity
  8
Livello 1
 62
   250
420
  1842203
370
    35
  0
ENDBLK
  5
16B
330
168
100
AcDbEntity
  8
0
100
AcDbBlockEnd
  0
BLOCK
  5
172
330
170
100
AcDbEntity
  8
0
100
AcDbBlockBegin
  2
block 45
 70
     0
 10
0.0
 20
0.0
 30
0.0
  3
block 45
  1

  0
POLYLINE
  5
174
330
170
100
AcDbEntity
  8
Livello 1
 62
   250
420
  1842203
370
    35
100
AcDb2dPolyline
 66
     1
 10
0.0
 20
0.0
 30
0.0
  0
VERTEX
  5
175
330
174
100
AcDbEntity
  8
Livello 1
 62
   250
420
  1842203
370
    35
100
AcDbVertex
100
AcDb2dVertex
 10
15.78985884279496
 20
-12.79986785791117
 30
0.0
  0
VERTEX
  5
176
330
174
100
AcDbEntity
  8
Livello 1
 62
   250
420
  1842203
370
    35
100
AcDbVertex
100
AcDb2dVertex
 10
15.79780339814783
 20
-12.79986785791117
 30
0.0
  0
SEQEND
  5
177
330
174
100
AcDbEntity
  8
Livello 1
 62
   250
420
  1842203
370
    35
  0
ENDBLK
  5
173
330
170
100
AcDbEntity
  8
0
100
AcDbBlockEnd
  0
BLOCK
  5
17A
330
178
100
AcDbEntity
  8
0
100
AcDbBlockBegin
  2
block 46
 70
     0
 10
0.0
 20
0.0
 30
0.0
  3
block 46
  1

  0
POLYLINE
  5
17C
330
178
100
AcDbEntity
  8
Livello 1
 62
   250
420
  1842203
370
    35
100
AcDb2dPolyline
 66
     1
 10
0.0
 20
0.0
 30
0.0
  0
VERTEX
  5
17D
330
17C
100
AcDbEntity
  8
Livello 1
 62
   250
420
  1842203
370
    35
100
AcDbVertex
100
AcDb2dVertex
 10
15.90965158973879
 20
-12.79986785791117
 30
0.0
  0
VERTEX
  5
17E
330
17C
100
AcDbEntity
  8
Livello 1
 62
   250
420
  1842203
370
    35
100
AcDbVertex
100
AcDb2dVertex
 10
15.91119322858835
 20
-12.79986785791117
 30
0.0
  0
SEQEND
  5
17F
330
17C
100
AcDbEntity
  8
Livello 1
 62
   250
420
  1842203
370
    35
  0
ENDBLK
  5
17B
330
178
100
AcDbEntity
  8
0
100
AcDbBlockEnd
  0
BLOCK
  5
182
330
180
100
AcDbEntity
  8
0
100
AcDbBlockBegin
  2
block 47
 70
     0
 10
0.0
 20
0.0
 30
0.0
  3
block 47
  1

  0
POLYLINE
  5
184
330
180
100
AcDbEntity
  8
Livello 1
 62
   250
420
  1842203
370
    35
100
AcDb2dPolyline
 66
     1
 10
0.0
 20
0.0
 30
0.0
  0
VERTEX
  5
185
330
184
100
AcDbEntity
  8
Livello 1
 62
   250
420
  1842203
370
    35
100
AcDbVertex
100
AcDb2dVertex
 10
15.91119322858835
 20
-11.42604183047684
 30
0.0
  0
VERTEX
  5
186
330
184
100
AcDbEntity
  8
Livello 1
 62
   250
420
  1842203
370
    35
100
AcDbVertex
100
AcDb2dVertex
 10
15.84829648019298
 20
-11.42604183047684
 30
0.0
  0
SEQEND
  5
187
330
184
100
AcDbEntity
  8
Livello 1
 62
   250
420
  1842203
370
    35
  0
ENDBLK
  5
183
330
180
100
AcDbEntity
  8
0
100
AcDbBlockEnd
  0
BLOCK
  5
18A
330
188
100
AcDbEntity
  8
0
100
AcDbBlockBegin
  2
block 48
 70
     0
 10
0.0
 20
0.0
 30
0.0
  3
block 48
  1

  0
SPLINE
  5
18C
330
188
100
AcDbEntity
  8
Livello 1
 62
   250
420
  1842203
370
    35
100
AcDbSpline
210
0.0
220
0.0
230
1.0
 70
     8
 71
     3
 72
     8
 73
     4
 74
     0
 42
0.000000001
 43
0.0000000001
 40
0.0
 40
0.0
 40
0.0
 40
0.0
 40
1.0
 40
1.0
 40
1.0
 40
1.0
 10
12.77189097761037
 20
-11.26086069162923
 30
0.0
 10
12.78210036649673
 20
-11.30357149717409
 30
0.0
 10
12.78210036649673
 20
-11.34304380271976
 30
0.0
 10
12.77172517205488
 20
-11.38583927493132
 30
0.0
  0
ENDBLK
  5
18B
330
188
100
AcDbEntity
  8
0
100
AcDbBlockEnd
  0
BLOCK
  5
18F
330
18D
100
AcDbEntity
  8
0
100
AcDbBlockBegin
  2
block 49
 70
     0
 10
0.0
 20
0.0
 30
0.0
  3
block 49
  1

  0
SPLINE
  5
191
330
18D
100
AcDbEntity
  8
Livello 1
 62
   250
420
  1842203
370
    35
100
AcDbSpline
210
0.0
220
0.0
230
1.0
 70
     8
 71
     3
 72
    11
 73
     7
 74
     0
 42
0.000000001
 43
0.0000000001
 40
0.0
 40
0.0
 40
0.0
 40
0.0
 40
1.0
 40
1.0
 40
1.0
 40
2.0
 40
2.0
 40
2.0
 40
2.0
 10
12.74854414428288
 20
-11.42556205269917
 30
0.0
 10
12.74757400539423
 20
-11.42580194158797
 30
0.0
 10
12.74675908872779
 20
-11.42604183047684
 30
0.0
 10
12.74578894983914
 20
-11.42604183047684
 30
0.0
 10
12.74578894983914
 20
-11.42604183047684
 30
0.0
 10
12.77172517205488
 20
-11.38583927493132
 30
0.0
 10
12.77172517205488
 20
-11.38583927493132
 30
0.0
  0
ENDBLK
  5
190
330
18D
100
AcDbEntity
  8
0
100
AcDbBlockEnd
  0
BLOCK
  5
194
330
192
100
AcDbEntity
  8
0
100
AcDbBlockBegin
  2
block 50
 70
     0
 10
0.0
 20
0.0
 30
0.0
  3
block 50
  1

  0
SPLINE
  5
196
330
192
100
AcDbEntity
  8
Livello 1
 62
   250
420
  1842203
370
    35
100
AcDbSpline
210
0.0
220
0.0
230
1.0
 70
     8
 71
     3
 72
     8
 73
     4
 74
     0
 42
0.000000001
 43
0.0000000001
 40
0.0
 40
0.0
 40
0.0
 40
0.0
 40
1.0
 40
1.0
 40
1.0
 40
1.0
 10
15.84829648019298
 20
-11.42604183047684
 30
0.0
 10
15.84732634132884
 20
-11.42604183047684
 30
0.0
 10
15.84643028579614
 20
-11.42580194158797
 30
0.0
 10
15.8453754802675
 20
-11.42556205269917
 30
0.0
  0
ENDBLK
  5
195
330
192
100
AcDbEntity
  8
0
100
AcDbBlockEnd
  0
BLOCK
  5
199
330
197
100
AcDbEntity
  8
0
100
AcDbBlockBegin
  2
block 51
 70
     0
 10
0.0
 20
0.0
 30
0.0
  3
block 51
  1

  0
SPLINE
  5
19B
330
197
100
AcDbEntity
  8
Livello 1
 62
   250
420
  1842203
370
    35
100
AcDbSpline
210
0.0
220
0.0
230
1.0
 70
     8
 71
     3
 72
    11
 73
     7
 74
     0
 42
0.000000001
 43
0.0000000001
 40
0.0
 40
0.0
 40
0.0
 40
0.0
 40
1.0
 40
1.0
 40
1.0
 40
2.0
 40
2.0
 40
2.0
 40
2.0
 10
15.83135609173628
 20
-11.23589460830211
 30
0.0
 10
15.8111736755845
 20
-11.27464019162581
 30
0.0
 10
15.81166050890542
 20
-11.34190785827561
 30
0.0
 10
15.8213901197683
 20
-11.38195519159896
 30
0.0
 10
15.8213901197683
 20
-11.38195519159896
 30
0.0
 10
15.84829648019298
 20
-11.42604183047684
 30
0.0
 10
15.84829648019298
 20
-11.42604183047684
 30
0.0
  0
ENDBLK
  5
19A
330
197
100
AcDbEntity
  8
0
100
AcDbBlockEnd
  0
BLOCK
  5
19E
330
19C
100
AcDbEntity
  8
0
100
AcDbBlockBegin
  2
block 52
 70
     0
 10
0.0
 20
0.0
 30
0.0
  3
block 52
  1

  0
SPLINE
  5
1A0
330
19C
100
AcDbEntity
  8
Livello 1
 62
   250
420
  1842203
370
    35
100
AcDbSpline
210
0.0
220
0.0
230
1.0
 70
     8
 71
     3
 72
     8
 73
     4
 74
     0
 42
0.000000001
 43
0.0000000001
 40
0.0
 40
0.0
 40
0.0
 40
0.0
 40
1.0
 40
1.0
 40
1.0
 40
1.0
 10
15.8453754802675
 20
-11.22033358052822
 30
0.0
 10
15.84643028579614
 20
-11.22009369163942
 30
0.0
 10
15.84732634132884
 20
-11.21992788608392
 30
0.0
 10
15.84829648019298
 20
-11.21992788608392
 30
0.0
  0
ENDBLK
  5
19F
330
19C
100
AcDbEntity
  8
0
100
AcDbBlockEnd
  0
BLOCK
  5
1A3
330
1A1
100
AcDbEntity
  8
0
100
AcDbBlockBegin
  2
block 53
 70
     0
 10
0.0
 20
0.0
 30
0.0
  3
block 53
  1

  0
SPLINE
  5
1A5
330
1A1
100
AcDbEntity
  8
Livello 1
 62
   250
420
  1842203
370
    35
100
AcDbSpline
210
0.0
220
0.0
230
1.0
 70
     8
 71
     3
 72
     8
 73
     4
 74
     0
 42
0.000000001
 43
0.0000000001
 40
0.0
 40
0.0
 40
0.0
 40
0.0
 40
1.0
 40
1.0
 40
1.0
 40
1.0
 10
15.88768764585469
 20
-11.03447966390803
 30
0.0
 10
15.88071675714365
 20
-11.02758991390976
 30
0.0
 10
15.87374234065491
 20
-11.02086596946701
 30
0.0
 10
15.86677145194387
 20
-11.01381041391319
 30
0.0
  0
ENDBLK
  5
1A4
330
1A1
100
AcDbEntity
  8
0
100
AcDbBlockEnd
  0
BLOCK
  5
1A8
330
1A6
100
AcDbEntity
  8
0
100
AcDbBlockBegin
  2
block 54
 70
     0
 10
0.0
 20
0.0
 30
0.0
  3
block 54
  1

  0
SPLINE
  5
1AA
330
1A6
100
AcDbEntity
  8
Livello 1
 62
   250
420
  1842203
370
    35
100
AcDbSpline
210
0.0
220
0.0
230
1.0
 70
     8
 71
     3
 72
     8
 73
     4
 74
     0
 42
0.000000001
 43
0.0000000001
 40
0.0
 40
0.0
 40
0.0
 40
0.0
 40
1.0
 40
1.0
 40
1.0
 40
1.0
 10
12.72731397762151
 20
-11.01381041391319
 30
0.0
 10
12.72034308873438
 20
-11.02086596946701
 30
0.0
 10
12.71336867206947
 20
-11.02758991390976
 30
0.0
 10
12.70639778318231
 20
-11.03447966390803
 30
0.0
  0
ENDBLK
  5
1A9
330
1A6
100
AcDbEntity
  8
0
100
AcDbBlockEnd
  0
BLOCK
  5
1AD
330
1AB
100
AcDbEntity
  8
0
100
AcDbBlockBegin
  2
block 55
 70
     0
 10
0.0
 20
0.0
 30
0.0
  3
block 55
  1

  0
POLYLINE
  5
1AF
330
1AB
100
AcDbEntity
  8
Livello 1
 62
   250
420
  1842203
370
    35
100
AcDb2dPolyline
 66
     1
 10
0.0
 20
0.0
 30
0.0
  0
VERTEX
  5
1B0
330
1AF
100
AcDbEntity
  8
Livello 1
 62
   250
420
  1842203
370
    35
100
AcDbVertex
100
AcDb2dVertex
 10
15.86677145194387
 20
-11.01381041391319
 30
0.0
  0
VERTEX
  5
1B1
330
1AF
100
AcDbEntity
  8
Livello 1
 62
   250
420
  1842203
370
    35
100
AcDbVertex
100
AcDb2dVertex
 10
12.72731397762151
 20
-11.01381041391319
 30
0.0
  0
SEQEND
  5
1B2
330
1AF
100
AcDbEntity
  8
Livello 1
 62
   250
420
  1842203
370
    35
  0
ENDBLK
  5
1AE
330
1AB
100
AcDbEntity
  8
0
100
AcDbBlockEnd
  0
BLOCK
  5
1B5
330
1B3
100
AcDbEntity
  8
0
100
AcDbBlockBegin
  2
block 56
 70
     0
 10
0.0
 20
0.0
 30
0.0
  3
block 56
  1

  0
SPLINE
  5
1B7
330
1B3
100
AcDbEntity
  8
Livello 1
 62
   250
420
  1842203
370
    35
100
AcDbSpline
210
0.0
220
0.0
230
1.0
 70
     8
 71
     3
 72
     8
 73
     4
 74
     0
 42
0.000000001
 43
0.0000000001
 40
0.0
 40
0.0
 40
0.0
 40
0.0
 40
1.0
 40
1.0
 40
1.0
 40
1.0
 10
12.70088739429478
 20
-11.24805485829912
 30
0.0
 10
12.71069814429235
 20
-11.25283499718676
 30
0.0
 10
12.72082286651205
 20
-11.25632044163039
 30
0.0
 10
12.73144853317605
 20
-11.25843005274094
 30
0.0
  0
ENDBLK
  5
1B6
330
1B3
100
AcDbEntity
  8
0
100
AcDbBlockEnd
  0
BLOCK
  5
1BA
330
1B8
100
AcDbEntity
  8
0
100
AcDbBlockBegin
  2
block 57
 70
     0
 10
0.0
 20
0.0
 30
0.0
  3
block 57
  1

  0
SPLINE
  5
1BC
330
1B8
100
AcDbEntity
  8
Livello 1
 62
   250
420
  1842203
370
    35
100
AcDbSpline
210
0.0
220
0.0
230
1.0
 70
     8
 71
     3
 72
     8
 73
     4
 74
     0
 42
0.000000001
 43
0.0000000001
 40
0.0
 40
0.0
 40
0.0
 40
0.0
 40
1.0
 40
1.0
 40
1.0
 40
1.0
 10
12.73185422762038
 20
-11.25866994162981
 30
0.0
 10
12.74748933872757
 20
-11.26198958051781
 30
0.0
 10
12.76151578316851
 20
-11.26775044162749
 30
0.0
 10
12.77512947760957
 20
-11.27601602495876
 30
0.0
  0
ENDBLK
  5
1BB
330
1B8
100
AcDbEntity
  8
0
100
AcDbBlockEnd
  0
BLOCK
  5
1BF
330
1BD
100
AcDbEntity
  8
0
100
AcDbBlockBegin
  2
block 58
 70
     0
 10
0.0
 20
0.0
 30
0.0
  3
block 58
  1

  0
SPLINE
  5
1C1
330
1BD
100
AcDbEntity
  8
Livello 1
 62
   250
420
  1842203
370
    35
100
AcDbSpline
210
0.0
220
0.0
230
1.0
 70
     8
 71
     3
 72
     8
 73
     4
 74
     0
 42
0.000000001
 43
0.0000000001
 40
0.0
 40
0.0
 40
0.0
 40
0.0
 40
1.0
 40
1.0
 40
1.0
 40
1.0
 10
12.77067036649957
 20
-11.38032535826601
 30
0.0
 10
12.77140061649939
 20
-11.37959510826622
 30
0.0
 10
12.77237428316582
 20
-11.37911533048856
 30
0.0
 10
12.7733550053878
 20
-11.37879077493307
 30
0.0
  0
ENDBLK
  5
1C0
330
1BD
100
AcDbEntity
  8
0
100
AcDbBlockEnd
  0
BLOCK
  5
1C4
330
1C2
100
AcDbEntity
  8
0
100
AcDbBlockBegin
  2
block 59
 70
     0
 10
0.0
 20
0.0
 30
0.0
  3
block 59
  1

  0
POLYLINE
  5
1C6
330
1C2
100
AcDbEntity
  8
Livello 1
 62
   250
420
  1842203
370
    35
100
AcDb2dPolyline
 66
     1
 10
0.0
 20
0.0
 30
0.0
  0
VERTEX
  5
1C7
330
1C6
100
AcDbEntity
  8
Livello 1
 62
   250
420
  1842203
370
    35
100
AcDbVertex
100
AcDb2dVertex
 10
12.77172517205488
 20
-11.38583927493132
 30
0.0
  0
VERTEX
  5
1C8
330
1C6
100
AcDbEntity
  8
Livello 1
 62
   250
420
  1842203
370
    35
100
AcDbVertex
100
AcDb2dVertex
 10
12.77067036649957
 20
-11.38032535826601
 30
0.0
  0
SEQEND
  5
1C9
330
1C6
100
AcDbEntity
  8
Livello 1
 62
   250
420
  1842203
370
    35
  0
ENDBLK
  5
1C5
330
1C2
100
AcDbEntity
  8
0
100
AcDbBlockEnd
  0
BLOCK
  5
1CC
330
1CA
100
AcDbEntity
  8
0
100
AcDbBlockBegin
  2
block 60
 70
     0
 10
0.0
 20
0.0
 30
0.0
  3
block 60
  1

  0
INSERT
  5
1CF
330
1CA
100
AcDbEntity
  8
Livello 1
100
AcDbBlockReference
  2
block 61
 10
0.0
 20
0.0
 30
0.0
  0
INSERT
  5
1D7
330
1CA
100
AcDbEntity
  8
Livello 1
100
AcDbBlockReference
  2
block 62
 10
0.0
 20
0.0
 30
0.0
  0
INSERT
  5
1DF
330
1CA
100
AcDbEntity
  8
Livello 1
100
AcDbBlockReference
  2
block 63
 10
0.0
 20
0.0
 30
0.0
  0
INSERT
  5
1E4
330
1CA
100
AcDbEntity
  8
Livello 1
100
AcDbBlockReference
  2
block 64
 10
0.0
 20
0.0
 30
0.0
  0
INSERT
  5
1EC
330
1CA
100
AcDbEntity
  8
Livello 1
100
AcDbBlockReference
  2
block 65
 10
0.0
 20
0.0
 30
0.0
  0
INSERT
  5
1F4
330
1CA
100
AcDbEntity
  8
Livello 1
100
AcDbBlockReference
  2
block 66
 10
0.0
 20
0.0
 30
0.0
  0
INSERT
  5
1FC
330
1CA
100
AcDbEntity
  8
Livello 1
100
AcDbBlockReference
  2
block 67
 10
0.0
 20
0.0
 30
0.0
  0
INSERT
  5
204
330
1CA
100
AcDbEntity
  8
Livello 1
100
AcDbBlockReference
  2
block 68
 10
0.0
 20
0.0
 30
0.0
  0
INSERT
  5
209
330
1CA
100
AcDbEntity
  8
Livello 1
100
AcDbBlockReference
  2
block 69
 10
0.0
 20
0.0
 30
0.0
  0
ENDBLK
  5
1CD
330
1CA
100
AcDbEntity
  8
0
100
AcDbBlockEnd
  0
BLOCK
  5
1D0
330
1CE
100
AcDbEntity
  8
0
100
AcDbBlockBegin
  2
block 61
 70
     0
 10
0.0
 20
0.0
 30
0.0
  3
block 61
  1

  0
POLYLINE
  5
1D2
330
1CE
100
AcDbEntity
  8
Livello 1
 62
   250
420
  1842203
370
    35
100
AcDb2dPolyline
 66
     1
 10
0.0
 20
0.0
 30
0.0
  0
VERTEX
  5
1D3
330
1D2
100
AcDbEntity
  8
Livello 1
 62
   250
420
  1842203
370
    35
100
AcDbVertex
100
AcDb2dVertex
 10
15.8213054531038
 20
-11.28396763606792
 30
0.0
  0
VERTEX
  5
1D4
330
1D2
100
AcDbEntity
  8
Livello 1
 62
   250
420
  1842203
370
    35
100
AcDbVertex
100
AcDb2dVertex
 10
17.80671051356301
 20
-13.56024860772106
 30
0.0
  0
SEQEND
  5
1D5
330
1D2
100
AcDbEntity
  8
Livello 1
 62
   250
420
  1842203
370
    35
  0
ENDBLK
  5
1D1
330
1CE
100
AcDbEntity
  8
0
100
AcDbBlockEnd
  0
BLOCK
  5
1D8
330
1D6
100
AcDbEntity
  8
0
100
AcDbBlockBegin
  2
block 62
 70
     0
 10
0.0
 20
0.0
 30
0.0
  3
block 62
  1

  0
POLYLINE
  5
1DA
330
1D6
100
AcDbEntity
  8
Livello 1
 62
   250
420
  1842203
370
    35
100
AcDb2dPolyline
 66
     1
 10
0.0
 20
0.0
 30
0.0
  0
VERTEX
  5
1DB
330
1DA
100
AcDbEntity
  8
Livello 1
 62
   250
420
  1842203
370
    35
100
AcDbVertex
100
AcDb2dVertex
 10
17.85193309574262
 20
-13.52365496884132
 30
0.0
  0
VERTEX
  5
1DC
330
1DA
100
AcDbEntity
  8
Livello 1
 62
   250
420
  1842203
370
    35
100
AcDbVertex
100
AcDb2dVertex
 10
15.86666561861323
 20
-11.24744808052148
 30
0.0
  0
SEQEND
  5
1DD
330
1DA
100
AcDbEntity
  8
Livello 1
 62
   250
420
  1842203
370
    35
  0
ENDBLK
  5
1D9
330
1D6
100
AcDbEntity
  8
0
100
AcDbBlockEnd
  0
BLOCK
  5
1E0
330
1DE
100
AcDbEntity
  8
0
100
AcDbBlockBegin
  2
block 63
 70
     0
 10
0.0
 20
0.0
 30
0.0
  3
block 63
  1

  0
SPLINE
  5
1E2
330
1DE
100
AcDbEntity
  8
Livello 1
 62
   250
420
  1842203
370
    35
100
AcDbSpline
210
0.0
220
0.0
230
1.0
 70
     8
 71
     3
 72
     8
 73
     4
 74
     0
 42
0.000000001
 43
0.0000000001
 40
0.0
 40
0.0
 40
0.0
 40
0.0
 40
1.0
 40
1.0
 40
1.0
 40
1.0
 10
17.85862881779402
 20
-13.65416863547535
 30
0.0
 10
17.84802431806456
 20
-13.61858746881754
 30
0.0
 10
17.83134519856769
 20
-13.58858019104728
 30
0.0
 10
17.80671051356301
 20
-13.56024860772106
 30
0.0
  0
ENDBLK
  5
1E1
330
1DE
100
AcDbEntity
  8
0
100
AcDbBlockEnd
  0
BLOCK
  5
1E5
330
1E3
100
AcDbEntity
  8
0
100
AcDbBlockBegin
  2
block 64
 70
     0
 10
0.0
 20
0.0
 30
0.0
  3
block 64
  1

  0
POLYLINE
  5
1E7
330
1E3
100
AcDbEntity
  8
Livello 1
 62
   250
420
  1842203
370
    35
100
AcDb2dPolyline
 66
     1
 10
0.0
 20
0.0
 30
0.0
  0
VERTEX
  5
1E8
330
1E7
100
AcDbEntity
  8
Livello 1
 62
   250
420
  1842203
370
    35
100
AcDbVertex
100
AcDb2dVertex
 10
17.85862881779402
 20
-13.65416863547535
 30
0.0
  0
VERTEX
  5
1E9
330
1E7
100
AcDbEntity
  8
Livello 1
 62
   250
420
  1842203
370
    35
100
AcDbVertex
100
AcDb2dVertex
 10
18.12421403324059
 20
-14.54532057969702
 30
0.0
  0
SEQEND
  5
1EA
330
1E7
100
AcDbEntity
  8
Livello 1
 62
   250
420
  1842203
370
    35
  0
ENDBLK
  5
1E6
330
1E3
100
AcDbEntity
  8
0
100
AcDbBlockEnd
  0
BLOCK
  5
1ED
330
1EB
100
AcDbEntity
  8
0
100
AcDbBlockBegin
  2
block 65
 70
     0
 10
0.0
 20
0.0
 30
0.0
  3
block 65
  1

  0
POLYLINE
  5
1EF
330
1EB
100
AcDbEntity
  8
Livello 1
 62
   250
420
  1842203
370
    35
100
AcDb2dPolyline
 66
     1
 10
0.0
 20
0.0
 30
0.0
  0
VERTEX
  5
1F0
330
1EF
100
AcDbEntity
  8
Livello 1
 62
   250
420
  1842203
370
    35
100
AcDbVertex
100
AcDb2dVertex
 10
18.18115964292472
 20
-14.52967488525645
 30
0.0
  0
VERTEX
  5
1F1
330
1EF
100
AcDbEntity
  8
Livello 1
 62
   250
420
  1842203
370
    35
100
AcDbVertex
100
AcDb2dVertex
 10
17.91542956634491
 20
-13.63859349659033
 30
0.0
  0
SEQEND
  5
1F2
330
1EF
100
AcDbEntity
  8
Livello 1
 62
   250
420
  1842203
370
    35
  0
ENDBLK
  5
1EE
330
1EB
100
AcDbEntity
  8
0
100
AcDbBlockEnd
  0
BLOCK
  5
1F5
330
1F3
100
AcDbEntity
  8
0
100
AcDbBlockBegin
  2
block 66
 70
     0
 10
0.0
 20
0.0
 30
0.0
  3
block 66
  1

  0
POLYLINE
  5
1F7
330
1F3
100
AcDbEntity
  8
Livello 1
 62
   250
420
  1842203
370
    35
100
AcDb2dPolyline
 66
     1
 10
0.0
 20
0.0
 30
0.0
  0
VERTEX
  5
1F8
330
1F7
100
AcDbEntity
  8
Livello 1
 62
   250
420
  1842203
370
    35
100
AcDbVertex
100
AcDb2dVertex
 10
18.18115964292472
 20
-14.52967488525645
 30
0.0
  0
VERTEX
  5
1F9
330
1F7
100
AcDbEntity
  8
Livello 1
 62
   250
420
  1842203
370
    35
100
AcDbVertex
100
AcDb2dVertex
 10
18.20788233666159
 20
-14.61950269078955
 30
0.0
  0
SEQEND
  5
1FA
330
1F7
100
AcDbEntity
  8
Livello 1
 62
   250
420
  1842203
370
    35
  0
ENDBLK
  5
1F6
330
1F3
100
AcDbEntity
  8
0
100
AcDbBlockEnd
  0
BLOCK
  5
1FD
330
1FB
100
AcDbEntity
  8
0
100
AcDbBlockBegin
  2
block 67
 70
     0
 10
0.0
 20
0.0
 30
0.0
  3
block 67
  1

  0
POLYLINE
  5
1FF
330
1FB
100
AcDbEntity
  8
Livello 1
 62
   250
420
  1842203
370
    35
100
AcDb2dPolyline
 66
     1
 10
0.0
 20
0.0
 30
0.0
  0
VERTEX
  5
200
330
1FF
100
AcDbEntity
  8
Livello 1
 62
   250
420
  1842203
370
    35
100
AcDbVertex
100
AcDb2dVertex
 10
18.15101103255695
 20
-14.63527891300784
 30
0.0
  0
VERTEX
  5
201
330
1FF
100
AcDbEntity
  8
Livello 1
 62
   250
420
  1842203
370
    35
100
AcDbVertex
100
AcDb2dVertex
 10
18.12421403324059
 20
-14.54532057969702
 30
0.0
  0
SEQEND
  5
202
330
1FF
100
AcDbEntity
  8
Livello 1
 62
   250
420
  1842203
370
    35
  0
ENDBLK
  5
1FE
330
1FB
100
AcDbEntity
  8
0
100
AcDbBlockEnd
  0
BLOCK
  5
205
330
203
100
AcDbEntity
  8
0
100
AcDbBlockBegin
  2
block 68
 70
     0
 10
0.0
 20
0.0
 30
0.0
  3
block 68
  1

  0
SPLINE
  5
207
330
203
100
AcDbEntity
  8
Livello 1
 62
   250
420
  1842203
370
    35
100
AcDbSpline
210
0.0
220
0.0
230
1.0
 70
     8
 71
     3
 72
    11
 73
     7
 74
     0
 42
0.000000001
 43
0.0000000001
 40
0.0
 40
0.0
 40
0.0
 40
0.0
 40
1.0
 40
1.0
 40
1.0
 40
2.0
 40
2.0
 40
2.0
 40
2.0
 10
18.20788233666159
 20
-14.61950269078955
 30
0.0
 10
18.21234850321432
 20
-14.63460863523022
 30
0.0
 10
18.20320825403032
 20
-14.65038485744852
 30
0.0
 10
18.18757292051306
 20
-14.65474871855854
 30
0.0
 10
18.17187430980246
 20
-14.65904555189077
 30
0.0
 10
18.15547742070895
 20
-14.65038485744852
 30
0.0
 10
18.15101103255695
 20
-14.63527891300784
 30
0.0
  0
ENDBLK
  5
206
330
203
100
AcDbEntity
  8
0
100
AcDbBlockEnd
  0
BLOCK
  5
20A
330
208
100
AcDbEntity
  8
0
100
AcDbBlockBegin
  2
block 69
 70
     0
 10
0.0
 20
0.0
 30
0.0
  3
block 69
  1

  0
SPLINE
  5
20C
330
208
100
AcDbEntity
  8
Livello 1
 62
   250
420
  1842203
370
    35
100
AcDbSpline
210
0.0
220
0.0
230
1.0
 70
     8
 71
     3
 72
     8
 73
     4
 74
     0
 42
0.000000001
 43
0.0000000001
 40
0.0
 40
0.0
 40
0.0
 40
0.0
 40
1.0
 40
1.0
 40
1.0
 40
1.0
 10
17.85193309574262
 20
-13.52365496884132
 30
0.0
 10
17.88214519855507
 20
-13.55836477438817
 30
0.0
 10
17.90245087223158
 20
-13.59515949660118
 30
0.0
 10
17.91542956634491
 20
-13.63859349659033
 30
0.0
  0
ENDBLK
  5
20B
330
208
100
AcDbEntity
  8
0
100
AcDbBlockEnd
  0
BLOCK
  5
20F
330
20D
100
AcDbEntity
  8
0
100
AcDbBlockBegin
  2
block 70
 70
     0
 10
0.0
 20
0.0
 30
0.0
  3
block 70
  1

  0
INSERT
  5
212
330
20D
100
AcDbEntity
  8
Livello 1
100
AcDbBlockReference
  2
block 71
 10
0.0
 20
0.0
 30
0.0
  0
INSERT
  5
21A
330
20D
100
AcDbEntity
  8
Livello 1
100
AcDbBlockReference
  2
block 72
 10
0.0
 20
0.0
 30
0.0
  0
INSERT
  5
222
330
20D
100
AcDbEntity
  8
Livello 1
100
AcDbBlockReference
  2
block 73
 10
0.0
 20
0.0
 30
0.0
  0
INSERT
  5
227
330
20D
100
AcDbEntity
  8
Livello 1
100
AcDbBlockReference
  2
block 74
 10
0.0
 20
0.0
 30
0.0
  0
INSERT
  5
22F
330
20D
100
AcDbEntity
  8
Livello 1
100
AcDbBlockReference
  2
block 75
 10
0.0
 20
0.0
 30
0.0
  0
INSERT
  5
237
330
20D
100
AcDbEntity
  8
Livello 1
100
AcDbBlockReference
  2
block 76
 10
0.0
 20
0.0
 30
0.0
  0
INSERT
  5
23F
330
20D
100
AcDbEntity
  8
Livello 1
100
AcDbBlockReference
  2
block 77
 10
0.0
 20
0.0
 30
0.0
  0
INSERT
  5
247
330
20D
100
AcDbEntity
  8
Livello 1
100
AcDbBlockReference
  2
block 78
 10
0.0
 20
0.0
 30
0.0
  0
INSERT
  5
24C
330
20D
100
AcDbEntity
  8
Livello 1
100
AcDbBlockReference
  2
block 79
 10
0.0
 20
0.0
 30
0.0
  0
ENDBLK
  5
210
330
20D
100
AcDbEntity
  8
0
100
AcDbBlockEnd
  0
BLOCK
  5
213
330
211
100
AcDbEntity
  8
0
100
AcDbBlockBegin
  2
block 71
 70
     0
 10
0.0
 20
0.0
 30
0.0
  3
block 71
  1

  0
POLYLINE
  5
215
330
211
100
AcDbEntity
  8
Livello 1
 62
   250
420
  1842203
370
    35
100
AcDb2dPolyline
 66
     1
 10
0.0
 20
0.0
 30
0.0
  0
VERTEX
  5
216
330
215
100
AcDbEntity
  8
Livello 1
 62
   250
420
  1842203
370
    35
100
AcDbVertex
100
AcDb2dVertex
 10
12.77119953316612
 20
-11.28396763606792
 30
0.0
  0
VERTEX
  5
217
330
215
100
AcDbEntity
  8
Livello 1
 62
   250
420
  1842203
370
    35
100
AcDbVertex
100
AcDb2dVertex
 10
10.78579442255136
 20
-13.56024860772106
 30
0.0
  0
SEQEND
  5
218
330
215
100
AcDbEntity
  8
Livello 1
 62
   250
420
  1842203
370
    35
  0
ENDBLK
  5
214
330
211
100
AcDbEntity
  8
0
100
AcDbBlockEnd
  0
BLOCK
  5
21B
330
219
100
AcDbEntity
  8
0
100
AcDbBlockBegin
  2
block 72
 70
     0
 10
0.0
 20
0.0
 30
0.0
  3
block 72
  1

  0
POLYLINE
  5
21D
330
219
100
AcDbEntity
  8
Livello 1
 62
   250
420
  1842203
370
    35
100
AcDb2dPolyline
 66
     1
 10
0.0
 20
0.0
 30
0.0
  0
VERTEX
  5
21E
330
21D
100
AcDbEntity
  8
Livello 1
 62
   250
420
  1842203
370
    35
100
AcDbVertex
100
AcDb2dVertex
 10
10.74057183922933
 20
-13.52365496884132
 30
0.0
  0
VERTEX
  5
21F
330
21D
100
AcDbEntity
  8
Livello 1
 62
   250
420
  1842203
370
    35
100
AcDbVertex
100
AcDb2dVertex
 10
12.72583936651077
 20
-11.24744808052148
 30
0.0
  0
SEQEND
  5
220
330
21D
100
AcDbEntity
  8
Livello 1
 62
   250
420
  1842203
370
    35
  0
ENDBLK
  5
21C
330
219
100
AcDbEntity
  8
0
100
AcDbBlockEnd
  0
BLOCK
  5
223
330
221
100
AcDbEntity
  8
0
100
AcDbBlockBegin
  2
block 73
 70
     0
 10
0.0
 20
0.0
 30
0.0
  3
block 73
  1

  0
SPLINE
  5
225
330
221
100
AcDbEntity
  8
Livello 1
 62
   250
420
  1842203
370
    35
100
AcDbSpline
210
0.0
220
0.0
230
1.0
 70
     8
 71
     3
 72
     8
 73
     4
 74
     0
 42
0.000000001
 43
0.0000000001
 40
0.0
 40
0.0
 40
0.0
 40
0.0
 40
1.0
 40
1.0
 40
1.0
 40
1.0
 10
10.73387611700878
 20
-13.65416863547535
 30
0.0
 10
10.74448061700611
 20
-13.61858746881754
 30
0.0
 10
10.76115995033529
 20
-13.58858019104728
 30
0.0
 10
10.78579442255136
 20
-13.56024860772106
 30
0.0
  0
ENDBLK
  5
224
330
221
100
AcDbEntity
  8
0
100
AcDbBlockEnd
  0
BLOCK
  5
228
330
226
100
AcDbEntity
  8
0
100
AcDbBlockBegin
  2
block 74
 70
     0
 10
0.0
 20
0.0
 30
0.0
  3
block 74
  1

  0
POLYLINE
  5
22A
330
226
100
AcDbEntity
  8
Livello 1
 62
   250
420
  1842203
370
    35
100
AcDb2dPolyline
 66
     1
 10
0.0
 20
0.0
 30
0.0
  0
VERTEX
  5
22B
330
22A
100
AcDbEntity
  8
Livello 1
 62
   250
420
  1842203
370
    35
100
AcDbVertex
100
AcDb2dVertex
 10
10.73387611700878
 20
-13.65416863547535
 30
0.0
  0
VERTEX
  5
22C
330
22A
100
AcDbEntity
  8
Livello 1
 62
   250
420
  1842203
370
    35
100
AcDbVertex
100
AcDb2dVertex
 10
10.46829089485295
 20
-14.54532057969702
 30
0.0
  0
SEQEND
  5
22D
330
22A
100
AcDbEntity
  8
Livello 1
 62
   250
420
  1842203
370
    35
  0
ENDBLK
  5
229
330
226
100
AcDbEntity
  8
0
100
AcDbBlockEnd
  0
BLOCK
  5
230
330
22E
100
AcDbEntity
  8
0
100
AcDbBlockBegin
  2
block 75
 70
     0
 10
0.0
 20
0.0
 30
0.0
  3
block 75
  1

  0
POLYLINE
  5
232
330
22E
100
AcDbEntity
  8
Livello 1
 62
   250
420
  1842203
370
    35
100
AcDb2dPolyline
 66
     1
 10
0.0
 20
0.0
 30
0.0
  0
VERTEX
  5
233
330
232
100
AcDbEntity
  8
Livello 1
 62
   250
420
  1842203
370
    35
100
AcDbVertex
100
AcDb2dVertex
 10
10.41134903375608
 20
-14.52967488525645
 30
0.0
  0
VERTEX
  5
234
330
232
100
AcDbEntity
  8
Livello 1
 62
   250
420
  1842203
370
    35
100
AcDbVertex
100
AcDb2dVertex
 10
10.67707536702298
 20
-13.63859349659033
 30
0.0
  0
SEQEND
  5
235
330
232
100
AcDbEntity
  8
Livello 1
 62
   250
420
  1842203
370
    35
  0
ENDBLK
  5
231
330
22E
100
AcDbEntity
  8
0
100
AcDbBlockEnd
  0
BLOCK
  5
238
330
236
100
AcDbEntity
  8
0
100
AcDbBlockBegin
  2
block 76
 70
     0
 10
0.0
 20
0.0
 30
0.0
  3
block 76
  1

  0
POLYLINE
  5
23A
330
236
100
AcDbEntity
  8
Livello 1
 62
   250
420
  1842203
370
    35
100
AcDb2dPolyline
 66
     1
 10
0.0
 20
0.0
 30
0.0
  0
VERTEX
  5
23B
330
23A
100
AcDbEntity
  8
Livello 1
 62
   250
420
  1842203
370
    35
100
AcDbVertex
100
AcDb2dVertex
 10
10.41134903375608
 20
-14.52967488525645
 30
0.0
  0
VERTEX
  5
23C
330
23A
100
AcDbEntity
  8
Livello 1
 62
   250
420
  1842203
370
    35
100
AcDbVertex
100
AcDb2dVertex
 10
10.38462258931832
 20
-14.61950269078955
 30
0.0
  0
SEQEND
  5
23D
330
23A
100
AcDbEntity
  8
Livello 1
 62
   250
420
  1842203
370
    35
  0
ENDBLK
  5
239
330
236
100
AcDbEntity
  8
0
100
AcDbBlockEnd
  0
BLOCK
  5
240
330
23E
100
AcDbEntity
  8
0
100
AcDbBlockBegin
  2
block 77
 70
     0
 10
0.0
 20
0.0
 30
0.0
  3
block 77
  1

  0
POLYLINE
  5
242
330
23E
100
AcDbEntity
  8
Livello 1
 62
   250
420
  1842203
370
    35
100
AcDb2dPolyline
 66
     1
 10
0.0
 20
0.0
 30
0.0
  0
VERTEX
  5
243
330
242
100
AcDbEntity
  8
Livello 1
 62
   250
420
  1842203
370
    35
100
AcDbVertex
100
AcDb2dVertex
 10
10.44149389485964
 20
-14.63527891300784
 30
0.0
  0
VERTEX
  5
244
330
242
100
AcDbEntity
  8
Livello 1
 62
   250
420
  1842203
370
    35
100
AcDbVertex
100
AcDb2dVertex
 10
10.46829089485295
 20
-14.54532057969702
 30
0.0
  0
SEQEND
  5
245
330
242
100
AcDbEntity
  8
Livello 1
 62
   250
420
  1842203
370
    35
  0
ENDBLK
  5
241
330
23E
100
AcDbEntity
  8
0
100
AcDbBlockEnd
  0
BLOCK
  5
248
330
246
100
AcDbEntity
  8
0
100
AcDbBlockBegin
  2
block 78
 70
     0
 10
0.0
 20
0.0
 30
0.0
  3
block 78
  1

  0
SPLINE
  5
24A
330
246
100
AcDbEntity
  8
Livello 1
 62
   250
420
  1842203
370
    35
100
AcDbSpline
210
0.0
220
0.0
230
1.0
 70
     8
 71
     3
 72
    11
 73
     7
 74
     0
 42
0.000000001
 43
0.0000000001
 40
0.0
 40
0.0
 40
0.0
 40
0.0
 40
1.0
 40
1.0
 40
1.0
 40
2.0
 40
2.0
 40
2.0
 40
2.0
 10
10.38462258931832
 20
-14.61950269078955
 30
0.0
 10
10.38015642265275
 20
-14.63460863523022
 30
0.0
 10
10.3892968948727
 20
-14.65038485744852
 30
0.0
 10
10.40493200597989
 20
-14.65474871855854
 30
0.0
 10
10.4206306170871
 20
-14.65904555189077
 30
0.0
 10
10.4370277281941
 20
-14.65038485744852
 30
0.0
 10
10.44149389485964
 20
-14.63527891300784
 30
0.0
  0
ENDBLK
  5
249
330
246
100
AcDbEntity
  8
0
100
AcDbBlockEnd
  0
BLOCK
  5
24D
330
24B
100
AcDbEntity
  8
0
100
AcDbBlockBegin
  2
block 79
 70
     0
 10
0.0
 20
0.0
 30
0.0
  3
block 79
  1

  0
SPLINE
  5
24F
330
24B
100
AcDbEntity
  8
Livello 1
 62
   250
420
  1842203
370
    35
100
AcDbSpline
210
0.0
220
0.0
230
1.0
 70
     8
 71
     3
 72
     8
 73
     4
 74
     0
 42
0.000000001
 43
0.0000000001
 40
0.0
 40
0.0
 40
0.0
 40
0.0
 40
1.0
 40
1.0
 40
1.0
 40
1.0
 10
10.74057183922933
 20
-13.52365496884132
 30
0.0
 10
10.71035995034797
 20
-13.55836477438817
 30
0.0
 10
10.69005406146416
 20
-13.59515949660118
 30
0.0
 10
10.67707536702298
 20
-13.63859349659033
 30
0.0
  0
ENDBLK
  5
24E
330
24B
100
AcDbEntity
  8
0
100
AcDbBlockEnd
  0
BLOCK
  5
261
330
25F
100
AcDbEntity
  8
0
100
AcDbBlockBegin
  2
block 80
 70
     0
 10
0.0
 20
0.0
 30
0.0
  3
block 80
  1

  0
SPLINE
  5
263
330
25F
100
AcDbEntity
  8
Livello 1
370
     0
100
AcDbSpline
210
0.0
220
0.0
230
1.0
 70
     9
 71
     3
 72
    38
 73
    34
 74
     0
 42
0.000000001
 43
0.0000000001
 40
0.0
 40
0.0
 40
0.0
 40
0.0
 40
1.0
 40
1.0
 40
1.0
 40
2.0
 40
2.0
 40
2.0
 40
3.0
 40
3.0
 40
3.0
 40
4.0
 40
4.0
 40
4.0
 40
5.0
 40
5.0
 40
5.0
 40
6.0
 40
6.0
 40
6.0
 40
7.0
 40
7.0
 40
7.0
 40
8.0
 40
8.0
 40
8.0
 40
9.0
 40
9.0
 40
9.0
 40
10.0
 40
10.0
 40
10.0
 40
11.0
 40
11.0
 40
11.0
 40
11.0
 10
17.11730142801234
 20
-8.833982745187338
 30
0.0
 10
17.11654350700558
 20
-8.847315264715254
 30
0.0
 10
17.11730142801234
 20
-8.86436848736724
 30
0.0
 10
17.12026421012965
 20
-8.882868650123032
 30
0.0
 10
17.13728298182679
 20
-8.985084633170394
 30
0.0
 10
17.21211045576641
 20
-9.039172632288817
 30
0.0
 10
17.29134765192716
 20
-9.050265839751322
 30
0.0
 10
17.29134765192716
 20
-9.050265839751322
 30
0.0
 10
17.29134765192716
 20
-9.048060978640764
 30
0.0
 10
17.29134765192716
 20
-9.048060978640764
 30
0.0
 10
17.26099636070211
 20
-9.025082191754146
 30
0.0
 10
17.23581271270493
 20
-8.985084633170394
 30
0.0
 10
17.23581271270493
 20
-8.931754555058725
 30
0.0
 10
17.23581271270493
 20
-8.846591794663352
 30
0.0
 10
17.29727321616179
 20
-8.786578231310299
 30
0.0
 10
17.39135877386396
 20
-8.786578231310299
 30
0.0
 10
17.47948431637666
 20
-8.786578231310299
 30
0.0
 10
17.56096082460281
 20
-8.846591794663352
 30
0.0
 10
17.56096082460281
 20
-8.946568465645301
 30
0.0
 10
17.56096082460281
 20
-9.049507918744568
 30
0.0
 10
17.48096570743531
 20
-9.116928437390903
 30
0.0
 10
17.35580538845619
 20
-9.116928437390903
 30
0.0
 10
17.26099636070211
 20
-9.116928437390903
 30
0.0
 10
17.18616888676248
 20
-9.082856443041787
 30
0.0
 10
17.13876437288545
 20
-9.035451929164748
 30
0.0
 10
17.09952473530845
 20
-8.995454370580997
 30
0.0
 10
17.07506455736317
 20
-8.94212429246933
 30
0.0
 10
17.06765760206989
 20
-8.881387259064375
 30
0.0
 10
17.06469481995257
 20
-8.862129175301827
 30
0.0
 10
17.06397134990067
 20
-8.845833873656596
 30
0.0
 10
17.06397134990067
 20
-8.833982745187338
 30
0.0
 10
17.06397134990067
 20
-8.833982745187338
 30
0.0
 10
17.11730142801234
 20
-8.833982745187338
 30
0.0
 10
17.11730142801234
 20
-8.833982745187338
 30
0.0
  0
SPLINE
  5
264
330
25F
100
AcDbEntity
  8
Livello 1
370
     0
100
AcDbSpline
210
0.0
220
0.0
230
1.0
 70
     9
 71
     3
 72
    20
 73
    16
 74
     0
 42
0.000000001
 43
0.0000000001
 40
0.0
 40
0.0
 40
0.0
 40
0.0
 40
1.0
 40
1.0
 40
1.0
 40
2.0
 40
2.0
 40
2.0
 40
3.0
 40
3.0
 40
3.0
 40
4.0
 40
4.0
 40
4.0
 40
5.0
 40
5.0
 40
5.0
 40
5.0
 10
17.39504502603318
 20
-8.85251735889798
 30
0.0
 10
17.32617756728304
 20
-8.85251735889798
 30
0.0
 10
17.28469861764063
 20
-8.891756996474976
 30
0.0
 10
17.28469861764063
 20
-8.951736108873175
 30
0.0
 10
17.28469861764063
 20
-8.991010197405026
 30
0.0
 10
17.30912434463105
 20
-9.027321503819555
 30
0.0
 10
17.34395425998693
 20
-9.045098196523447
 30
0.0
 10
17.35136121528021
 20
-9.049507918744568
 30
0.0
 10
17.36097303168406
 20
-9.052470700861883
 30
0.0
 10
17.37282416015332
 20
-9.052470700861883
 30
0.0
 10
17.45209580726892
 20
-9.051023760758075
 30
0.0
 10
17.51059352860846
 20
-9.014712454343543
 30
0.0
 10
17.51059352860846
 20
-8.946568465645301
 30
0.0
 10
17.51059352860846
 20
-8.890275605416318
 30
0.0
 10
17.46394693573818
 20
-8.85251735889798
 30
0.0
 10
17.39504502603318
 20
-8.85251735889798
 30
0.0
  0
HATCH
  5
265
330
25F
100
AcDbEntity
  8
Livello 1
 62
   250
420
  1842203
100
AcDbHatch
 10
0.0
 20
0.0
 30
0.0
210
0.0
220
0.0
230
1.0
  2
SOLID
 70
     1
 71
     0
 91
        2
 92
        1
 93
        1
 72
     4
 94
        3
 73
     0
 74
     0
 95
       38
 96
       34
 40
0.0
 40
0.0
 40
0.0
 40
0.0
 40
1.0
 40
1.0
 40
1.0
 40
2.0
 40
2.0
 40
2.0
 40
3.0
 40
3.0
 40
3.0
 40
4.0
 40
4.0
 40
4.0
 40
5.0
 40
5.0
 40
5.0
 40
6.0
 40
6.0
 40
6.0
 40
7.0
 40
7.0
 40
7.0
 40
8.0
 40
8.0
 40
8.0
 40
9.0
 40
9.0
 40
9.0
 40
10.0
 40
10.0
 40
10.0
 40
11.0
 40
11.0
 40
11.0
 40
11.0
 10
17.11730142801234
 20
-8.833982745187338
 10
17.11654350700558
 20
-8.847315264715254
 10
17.11730142801234
 20
-8.86436848736724
 10
17.12026421012965
 20
-8.882868650123032
 10
17.13728298182679
 20
-8.985084633170394
 10
17.21211045576641
 20
-9.039172632288817
 10
17.29134765192716
 20
-9.050265839751322
 10
17.29134765192716
 20
-9.050265839751322
 10
17.29134765192716
 20
-9.048060978640764
 10
17.29134765192716
 20
-9.048060978640764
 10
17.26099636070211
 20
-9.025082191754146
 10
17.23581271270493
 20
-8.985084633170394
 10
17.23581271270493
 20
-8.931754555058725
 10
17.23581271270493
 20
-8.846591794663352
 10
17.29727321616179
 20
-8.786578231310299
 10
17.39135877386396
 20
-8.786578231310299
 10
17.47948431637666
 20
-8.786578231310299
 10
17.56096082460281
 20
-8.846591794663352
 10
17.56096082460281
 20
-8.946568465645301
 10
17.56096082460281
 20
-9.049507918744568
 10
17.48096570743531
 20
-9.116928437390903
 10
17.35580538845619
 20
-9.116928437390903
 10
17.26099636070211
 20
-9.116928437390903
 10
17.18616888676248
 20
-9.082856443041787
 10
17.13876437288545
 20
-9.035451929164748
 10
17.09952473530845
 20
-8.995454370580997
 10
17.07506455736317
 20
-8.94212429246933
 10
17.06765760206989
 20
-8.881387259064375
 10
17.06469481995257
 20
-8.862129175301827
 10
17.06397134990067
 20
-8.845833873656596
 10
17.06397134990067
 20
-8.833982745187338
 10
17.06397134990067
 20
-8.833982745187338
 10
17.11730142801234
 20
-8.833982745187338
 10
17.11730142801234
 20
-8.833982745187338
 97
        0
 97
        0
 92
        1
 93
        1
 72
     4
 94
        3
 73
     0
 74
     0
 95
       20
 96
       16
 40
0.0
 40
0.0
 40
0.0
 40
0.0
 40
1.0
 40
1.0
 40
1.0
 40
2.0
 40
2.0
 40
2.0
 40
3.0
 40
3.0
 40
3.0
 40
4.0
 40
4.0
 40
4.0
 40
5.0
 40
5.0
 40
5.0
 40
5.0
 10
17.39504502603318
 20
-8.85251735889798
 10
17.32617756728304
 20
-8.85251735889798
 10
17.28469861764063
 20
-8.891756996474976
 10
17.28469861764063
 20
-8.951736108873175
 10
17.28469861764063
 20
-8.991010197405026
 10
17.30912434463105
 20
-9.027321503819555
 10
17.34395425998693
 20
-9.045098196523447
 10
17.35136121528021
 20
-9.049507918744568
 10
17.36097303168406
 20
-9.052470700861883
 10
17.37282416015332
 20
-9.052470700861883
 10
17.45209580726892
 20
-9.051023760758075
 10
17.51059352860846
 20
-9.014712454343543
 10
17.51059352860846
 20
-8.946568465645301
 10
17.51059352860846
 20
-8.890275605416318
 10
17.46394693573818
 20
-8.85251735889798
 10
17.39504502603318
 20
-8.85251735889798
 97
        0
 97
        0
 75
     2
 76
     1
 98
        0
450
        0
451
        0
460
0.0
461
0.0
452
        0
462
0.0
453
        0
470

  0
SPLINE
  5
266
330
25F
100
AcDbEntity
  8
Livello 1
370
     0
100
AcDbSpline
210
0.0
220
0.0
230
1.0
 70
     9
 71
     3
 72
    17
 73
    13
 74
     0
 42
0.000000001
 43
0.0000000001
 40
0.0
 40
0.0
 40
0.0
 40
0.0
 40
1.0
 40
1.0
 40
1.0
 40
2.0
 40
2.0
 40
2.0
 40
3.0
 40
3.0
 40
3.0
 40
4.0
 40
4.0
 40
4.0
 40
4.0
 10
17.30691948352049
 20
-8.408789060397802
 30
0.0
 10
17.47059597002471
 20
-8.408789060397802
 30
0.0
 10
17.56096082460281
 20
-8.469491642847902
 30
0.0
 10
17.56096082460281
 20
-8.576151799071238
 30
0.0
 10
17.56096082460281
 20
-8.670237356773412
 30
0.0
 10
17.47283528209012
 20
-8.73393717229568
 30
0.0
 10
17.31356851780702
 20
-8.735418563354338
 30
0.0
 10
17.15209689241335
 20
-8.735418563354338
 30
0.0
 10
17.06321342889392
 20
-8.66579318359744
 30
0.0
 10
17.06321342889392
 20
-8.568021373726049
 30
0.0
 10
17.06321342889392
 20
-8.466528860730589
 30
0.0
 10
17.15357828347202
 20
-8.408789060397802
 30
0.0
 10
17.30691948352049
 20
-8.408789060397802
 30
0.0
  0
SPLINE
  5
267
330
25F
100
AcDbEntity
  8
Livello 1
370
     0
100
AcDbSpline
210
0.0
220
0.0
230
1.0
 70
     9
 71
     3
 72
    17
 73
    13
 74
     0
 42
0.000000001
 43
0.0000000001
 40
0.0
 40
0.0
 40
0.0
 40
0.0
 40
1.0
 40
1.0
 40
1.0
 40
2.0
 40
2.0
 40
2.0
 40
3.0
 40
3.0
 40
3.0
 40
4.0
 40
4.0
 40
4.0
 40
4.0
 10
17.31432643881378
 20
-8.670237356773412
 30
0.0
 10
17.43948675779291
 20
-8.670237356773412
 30
0.0
 10
17.51059352860846
 20
-8.631721189248318
 30
0.0
 10
17.51059352860846
 20
-8.572465546902021
 30
0.0
 10
17.51059352860846
 20
-8.505802949262438
 30
0.0
 10
17.43283772350637
 20
-8.473970266978728
 30
0.0
 10
17.30988226563781
 20
-8.473970266978728
 30
0.0
 10
17.19137098094521
 20
-8.473970266978728
 30
0.0
 10
17.11358072488827
 20
-8.50432155820378
 30
0.0
 10
17.11358072488827
 20
-8.571742076850119
 30
0.0
 10
17.11358072488827
 20
-8.628758407131003
 30
0.0
 10
17.18320610464517
 20
-8.670237356773412
 30
0.0
 10
17.31432643881378
 20
-8.670237356773412
 30
0.0
  0
HATCH
  5
268
330
25F
100
AcDbEntity
  8
Livello 1
 62
   250
420
  1842203
100
AcDbHatch
 10
0.0
 20
0.0
 30
0.0
210
0.0
220
0.0
230
1.0
  2
SOLID
 70
     1
 71
     0
 91
        2
 92
        1
 93
        1
 72
     4
 94
        3
 73
     0
 74
     0
 95
       17
 96
       13
 40
0.0
 40
0.0
 40
0.0
 40
0.0
 40
1.0
 40
1.0
 40
1.0
 40
2.0
 40
2.0
 40
2.0
 40
3.0
 40
3.0
 40
3.0
 40
4.0
 40
4.0
 40
4.0
 40
4.0
 10
17.30691948352049
 20
-8.408789060397802
 10
17.47059597002471
 20
-8.408789060397802
 10
17.56096082460281
 20
-8.469491642847902
 10
17.56096082460281
 20
-8.576151799071238
 10
17.56096082460281
 20
-8.670237356773412
 10
17.47283528209012
 20
-8.73393717229568
 10
17.31356851780702
 20
-8.735418563354338
 10
17.15209689241335
 20
-8.735418563354338
 10
17.06321342889392
 20
-8.66579318359744
 10
17.06321342889392
 20
-8.568021373726049
 10
17.06321342889392
 20
-8.466528860730589
 10
17.15357828347202
 20
-8.408789060397802
 10
17.30691948352049
 20
-8.408789060397802
 97
        0
 97
        0
 92
        1
 93
        1
 72
     4
 94
        3
 73
     0
 74
     0
 95
       17
 96
       13
 40
0.0
 40
0.0
 40
0.0
 40
0.0
 40
1.0
 40
1.0
 40
1.0
 40
2.0
 40
2.0
 40
2.0
 40
3.0
 40
3.0
 40
3.0
 40
4.0
 40
4.0
 40
4.0
 40
4.0
 10
17.31432643881378
 20
-8.670237356773412
 10
17.43948675779291
 20
-8.670237356773412
 10
17.51059352860846
 20
-8.631721189248318
 10
17.51059352860846
 20
-8.572465546902021
 10
17.51059352860846
 20
-8.505802949262438
 10
17.43283772350637
 20
-8.473970266978728
 10
17.30988226563781
 20
-8.473970266978728
 10
17.19137098094521
 20
-8.473970266978728
 10
17.11358072488827
 20
-8.50432155820378
 10
17.11358072488827
 20
-8.571742076850119
 10
17.11358072488827
 20
-8.628758407131003
 10
17.18320610464517
 20
-8.670237356773412
 10
17.31432643881378
 20
-8.670237356773412
 97
        0
 97
        0
 75
     2
 76
     1
 98
        0
450
        0
451
        0
460
0.0
461
0.0
452
        0
462
0.0
453
        0
470

  0
SPLINE
  5
269
330
25F
100
AcDbEntity
  8
Livello 1
370
     0
100
AcDbSpline
210
0.0
220
0.0
230
1.0
 70
     9
 71
     3
 72
    80
 73
    76
 74
     0
 42
0.000000001
 43
0.0000000001
 40
0.0
 40
0.0
 40
0.0
 40
0.0
 40
1.0
 40
1.0
 40
1.0
 40
2.0
 40
2.0
 40
2.0
 40
3.0
 40
3.0
 40
3.0
 40
4.0
 40
4.0
 40
4.0
 40
5.0
 40
5.0
 40
5.0
 40
6.0
 40
6.0
 40
6.0
 40
7.0
 40
7.0
 40
7.0
 40
8.0
 40
8.0
 40
8.0
 40
9.0
 40
9.0
 40
9.0
 40
10.0
 40
10.0
 40
10.0
 40
11.0
 40
11.0
 40
11.0
 40
12.0
 40
12.0
 40
12.0
 40
13.0
 40
13.0
 40
13.0
 40
14.0
 40
14.0
 40
14.0
 40
15.0
 40
15.0
 40
15.0
 40
16.0
 40
16.0
 40
16.0
 40
17.0
 40
17.0
 40
17.0
 40
18.0
 40
18.0
 40
18.0
 40
19.0
 40
19.0
 40
19.0
 40
20.0
 40
20.0
 40
20.0
 40
21.0
 40
21.0
 40
21.0
 40
22.0
 40
22.0
 40
22.0
 40
23.0
 40
23.0
 40
23.0
 40
24.0
 40
24.0
 40
24.0
 40
25.0
 40
25.0
 40
25.0
 40
25.0
 10
17.29134765192716
 20
-8.170939668096153
 30
0.0
 10
17.25431287546073
 20
-8.170939668096153
 30
0.0
 10
17.22396158423567
 20
-8.171663138148055
 30
0.0
 10
17.19433376306253
 20
-8.173902450213468
 30
0.0
 10
17.19433376306253
 20
-8.173902450213468
 30
0.0
 10
17.19433376306253
 20
-8.11685166897773
 30
0.0
 10
17.19433376306253
 20
-8.11685166897773
 30
0.0
 10
17.19433376306253
 20
-8.11685166897773
 30
0.0
 10
17.25210801435017
 20
-8.113888886860415
 30
0.0
 10
17.25210801435017
 20
-8.113888886860415
 30
0.0
 10
17.25210801435017
 20
-8.113888886860415
 30
0.0
 10
17.25210801435017
 20
-8.111684025749855
 30
0.0
 10
17.25210801435017
 20
-8.111684025749855
 30
0.0
 10
17.21803602000104
 20
-8.091668020980554
 30
0.0
 10
17.18616888676248
 20
-8.058353947638188
 30
0.0
 10
17.18616888676248
 20
-7.999098305291891
 30
0.0
 10
17.18616888676248
 20
-7.950177949401344
 30
0.0
 10
17.21579670793563
 20
-7.913177623889759
 30
0.0
 10
17.2580335785848
 20
-7.897605792296432
 30
0.0
 10
17.2580335785848
 20
-7.897605792296432
 30
0.0
 10
17.2580335785848
 20
-7.896124401237774
 30
0.0
 10
17.2580335785848
 20
-7.896124401237774
 30
0.0
 10
17.23801757381549
 20
-7.884996742820417
 30
0.0
 10
17.22248019317702
 20
-7.870940753240597
 30
0.0
 10
17.21135253475966
 20
-7.856126842654023
 30
0.0
 10
17.19505723311443
 20
-7.834629446826065
 30
0.0
 10
17.18616888676248
 20
-7.810927189887545
 30
0.0
 10
17.18616888676248
 20
-7.776889646493277
 30
0.0
 10
17.18616888676248
 20
-7.729485132616238
 30
0.0
 10
17.21727809899429
 20
-7.659101831852584
 30
0.0
 10
17.34171494792151
 20
-7.659101831852584
 30
0.0
 10
17.34171494792151
 20
-7.659101831852584
 30
0.0
 10
17.55283039925763
 20
-7.659101831852584
 30
0.0
 10
17.55283039925763
 20
-7.659101831852584
 30
0.0
 10
17.55283039925763
 20
-7.659101831852584
 30
0.0
 10
17.55283039925763
 20
-7.722801647374855
 30
0.0
 10
17.55283039925763
 20
-7.722801647374855
 30
0.0
 10
17.55283039925763
 20
-7.722801647374855
 30
0.0
 10
17.34987982422156
 20
-7.722801647374855
 30
0.0
 10
17.34987982422156
 20
-7.722801647374855
 30
0.0
 10
17.28097791451656
 20
-7.722801647374855
 30
0.0
 10
17.23949896487415
 20
-7.74798529537203
 30
0.0
 10
17.23949896487415
 20
-7.800591903431795
 30
0.0
 10
17.23949896487415
 20
-7.837592228943378
 30
0.0
 10
17.26692192493674
 20
-7.866496580064624
 30
0.0
 10
17.29875460722045
 20
-7.877624238481982
 30
0.0
 10
17.30764295357239
 20
-7.880587020599297
 30
0.0
 10
17.31949408204165
 20
-7.882791881709857
 30
0.0
 10
17.33134521051091
 20
-7.882791881709857
 30
0.0
 10
17.33134521051091
 20
-7.882791881709857
 30
0.0
 10
17.55283039925763
 20
-7.882791881709857
 30
0.0
 10
17.55283039925763
 20
-7.882791881709857
 30
0.0
 10
17.55283039925763
 20
-7.882791881709857
 30
0.0
 10
17.55283039925763
 20
-7.946491697232126
 30
0.0
 10
17.55283039925763
 20
-7.946491697232126
 30
0.0
 10
17.55283039925763
 20
-7.946491697232126
 30
0.0
 10
17.3380286957523
 20
-7.946491697232126
 30
0.0
 10
17.3380286957523
 20
-7.946491697232126
 30
0.0
 10
17.28097791451656
 20
-7.946491697232126
 30
0.0
 10
17.23949896487415
 20
-7.971675345229302
 30
0.0
 10
17.23949896487415
 20
-8.0212847202169
 30
0.0
 10
17.23949896487415
 20
-8.062040199807405
 30
0.0
 10
17.27208956816461
 20
-8.091668020980554
 30
0.0
 10
17.30468017145508
 20
-8.102037758391157
 30
0.0
 10
17.31432643881378
 20
-8.105758461515225
 30
0.0
 10
17.32541964627628
 20
-8.107205401619031
 30
0.0
 10
17.33654730469364
 20
-8.107205401619031
 30
0.0
 10
17.33654730469364
 20
-8.107205401619031
 30
0.0
 10
17.55283039925763
 20
-8.107205401619031
 30
0.0
 10
17.55283039925763
 20
-8.107205401619031
 30
0.0
 10
17.55283039925763
 20
-8.107205401619031
 30
0.0
 10
17.55283039925763
 20
-8.170939668096153
 30
0.0
 10
17.55283039925763
 20
-8.170939668096153
 30
0.0
 10
17.55283039925763
 20
-8.170939668096153
 30
0.0
 10
17.29134765192716
 20
-8.170939668096153
 30
0.0
 10
17.29134765192716
 20
-8.170939668096153
 30
0.0
  0
HATCH
  5
26A
330
25F
100
AcDbEntity
  8
Livello 1
 62
   250
420
  1842203
100
AcDbHatch
 10
0.0
 20
0.0
 30
0.0
210
0.0
220
0.0
230
1.0
  2
SOLID
 70
     1
 71
     0
 91
        1
 92
        1
 93
        1
 72
     4
 94
        3
 73
     0
 74
     0
 95
       80
 96
       76
 40
0.0
 40
0.0
 40
0.0
 40
0.0
 40
1.0
 40
1.0
 40
1.0
 40
2.0
 40
2.0
 40
2.0
 40
3.0
 40
3.0
 40
3.0
 40
4.0
 40
4.0
 40
4.0
 40
5.0
 40
5.0
 40
5.0
 40
6.0
 40
6.0
 40
6.0
 40
7.0
 40
7.0
 40
7.0
 40
8.0
 40
8.0
 40
8.0
 40
9.0
 40
9.0
 40
9.0
 40
10.0
 40
10.0
 40
10.0
 40
11.0
 40
11.0
 40
11.0
 40
12.0
 40
12.0
 40
12.0
 40
13.0
 40
13.0
 40
13.0
 40
14.0
 40
14.0
 40
14.0
 40
15.0
 40
15.0
 40
15.0
 40
16.0
 40
16.0
 40
16.0
 40
17.0
 40
17.0
 40
17.0
 40
18.0
 40
18.0
 40
18.0
 40
19.0
 40
19.0
 40
19.0
 40
20.0
 40
20.0
 40
20.0
 40
21.0
 40
21.0
 40
21.0
 40
22.0
 40
22.0
 40
22.0
 40
23.0
 40
23.0
 40
23.0
 40
24.0
 40
24.0
 40
24.0
 40
25.0
 40
25.0
 40
25.0
 40
25.0
 10
17.29134765192716
 20
-8.170939668096153
 10
17.25431287546073
 20
-8.170939668096153
 10
17.22396158423567
 20
-8.171663138148055
 10
17.19433376306253
 20
-8.173902450213468
 10
17.19433376306253
 20
-8.173902450213468
 10
17.19433376306253
 20
-8.11685166897773
 10
17.19433376306253
 20
-8.11685166897773
 10
17.19433376306253
 20
-8.11685166897773
 10
17.25210801435017
 20
-8.113888886860415
 10
17.25210801435017
 20
-8.113888886860415
 10
17.25210801435017
 20
-8.113888886860415
 10
17.25210801435017
 20
-8.111684025749855
 10
17.25210801435017
 20
-8.111684025749855
 10
17.21803602000104
 20
-8.091668020980554
 10
17.18616888676248
 20
-8.058353947638188
 10
17.18616888676248
 20
-7.999098305291891
 10
17.18616888676248
 20
-7.950177949401344
 10
17.21579670793563
 20
-7.913177623889759
 10
17.2580335785848
 20
-7.897605792296432
 10
17.2580335785848
 20
-7.897605792296432
 10
17.2580335785848
 20
-7.896124401237774
 10
17.2580335785848
 20
-7.896124401237774
 10
17.23801757381549
 20
-7.884996742820417
 10
17.22248019317702
 20
-7.870940753240597
 10
17.21135253475966
 20
-7.856126842654023
 10
17.19505723311443
 20
-7.834629446826065
 10
17.18616888676248
 20
-7.810927189887545
 10
17.18616888676248
 20
-7.776889646493277
 10
17.18616888676248
 20
-7.729485132616238
 10
17.21727809899429
 20
-7.659101831852584
 10
17.34171494792151
 20
-7.659101831852584
 10
17.34171494792151
 20
-7.659101831852584
 10
17.55283039925763
 20
-7.659101831852584
 10
17.55283039925763
 20
-7.659101831852584
 10
17.55283039925763
 20
-7.659101831852584
 10
17.55283039925763
 20
-7.722801647374855
 10
17.55283039925763
 20
-7.722801647374855
 10
17.55283039925763
 20
-7.722801647374855
 10
17.34987982422156
 20
-7.722801647374855
 10
17.34987982422156
 20
-7.722801647374855
 10
17.28097791451656
 20
-7.722801647374855
 10
17.23949896487415
 20
-7.74798529537203
 10
17.23949896487415
 20
-7.800591903431795
 10
17.23949896487415
 20
-7.837592228943378
 10
17.26692192493674
 20
-7.866496580064624
 10
17.29875460722045
 20
-7.877624238481982
 10
17.30764295357239
 20
-7.880587020599297
 10
17.31949408204165
 20
-7.882791881709857
 10
17.33134521051091
 20
-7.882791881709857
 10
17.33134521051091
 20
-7.882791881709857
 10
17.55283039925763
 20
-7.882791881709857
 10
17.55283039925763
 20
-7.882791881709857
 10
17.55283039925763
 20
-7.882791881709857
 10
17.55283039925763
 20
-7.946491697232126
 10
17.55283039925763
 20
-7.946491697232126
 10
17.55283039925763
 20
-7.946491697232126
 10
17.3380286957523
 20
-7.946491697232126
 10
17.3380286957523
 20
-7.946491697232126
 10
17.28097791451656
 20
-7.946491697232126
 10
17.23949896487415
 20
-7.971675345229302
 10
17.23949896487415
 20
-8.0212847202169
 10
17.23949896487415
 20
-8.062040199807405
 10
17.27208956816461
 20
-8.091668020980554
 10
17.30468017145508
 20
-8.102037758391157
 10
17.31432643881378
 20
-8.105758461515225
 10
17.32541964627628
 20
-8.107205401619031
 10
17.33654730469364
 20
-8.107205401619031
 10
17.33654730469364
 20
-8.107205401619031
 10
17.55283039925763
 20
-8.107205401619031
 10
17.55283039925763
 20
-8.107205401619031
 10
17.55283039925763
 20
-8.107205401619031
 10
17.55283039925763
 20
-8.170939668096153
 10
17.55283039925763
 20
-8.170939668096153
 10
17.55283039925763
 20
-8.170939668096153
 10
17.29134765192716
 20
-8.170939668096153
 10
17.29134765192716
 20
-8.170939668096153
 97
        0
 97
        0
 75
     2
 76
     1
 98
        0
450
        0
451
        0
460
0.0
461
0.0
452
        0
462
0.0
453
        0
470

  0
SPLINE
  5
26B
330
25F
100
AcDbEntity
  8
Livello 1
370
     0
100
AcDbSpline
210
0.0
220
0.0
230
1.0
 70
     9
 71
     3
 72
    80
 73
    76
 74
     0
 42
0.000000001
 43
0.0000000001
 40
0.0
 40
0.0
 40
0.0
 40
0.0
 40
1.0
 40
1.0
 40
1.0
 40
2.0
 40
2.0
 40
2.0
 40
3.0
 40
3.0
 40
3.0
 40
4.0
 40
4.0
 40
4.0
 40
5.0
 40
5.0
 40
5.0
 40
6.0
 40
6.0
 40
6.0
 40
7.0
 40
7.0
 40
7.0
 40
8.0
 40
8.0
 40
8.0
 40
9.0
 40
9.0
 40
9.0
 40
10.0
 40
10.0
 40
10.0
 40
11.0
 40
11.0
 40
11.0
 40
12.0
 40
12.0
 40
12.0
 40
13.0
 40
13.0
 40
13.0
 40
14.0
 40
14.0
 40
14.0
 40
15.0
 40
15.0
 40
15.0
 40
16.0
 40
16.0
 40
16.0
 40
17.0
 40
17.0
 40
17.0
 40
18.0
 40
18.0
 40
18.0
 40
19.0
 40
19.0
 40
19.0
 40
20.0
 40
20.0
 40
20.0
 40
21.0
 40
21.0
 40
21.0
 40
22.0
 40
22.0
 40
22.0
 40
23.0
 40
23.0
 40
23.0
 40
24.0
 40
24.0
 40
24.0
 40
25.0
 40
25.0
 40
25.0
 40
25.0
 10
17.29134765192716
 20
-7.553096243771446
 30
0.0
 10
17.25431287546073
 20
-7.553096243771446
 30
0.0
 10
17.22396158423567
 20
-7.553819713823349
 30
0.0
 10
17.19433376306253
 20
-7.556059025888762
 30
0.0
 10
17.19433376306253
 20
-7.556059025888762
 30
0.0
 10
17.19433376306253
 20
-7.499008244653025
 30
0.0
 10
17.19433376306253
 20
-7.499008244653025
 30
0.0
 10
17.19433376306253
 20
-7.499008244653025
 30
0.0
 10
17.25210801435017
 20
-7.496045462535711
 30
0.0
 10
17.25210801435017
 20
-7.496045462535711
 30
0.0
 10
17.25210801435017
 20
-7.496045462535711
 30
0.0
 10
17.25210801435017
 20
-7.493840601425151
 30
0.0
 10
17.25210801435017
 20
-7.493840601425151
 30
0.0
 10
17.21803602000104
 20
-7.473824596655849
 30
0.0
 10
17.18616888676248
 20
-7.440510523313482
 30
0.0
 10
17.18616888676248
 20
-7.381254880967186
 30
0.0
 10
17.18616888676248
 20
-7.332334525076637
 30
0.0
 10
17.21579670793563
 20
-7.295334199565053
 30
0.0
 10
17.2580335785848
 20
-7.279762367971726
 30
0.0
 10
17.2580335785848
 20
-7.279762367971726
 30
0.0
 10
17.2580335785848
 20
-7.278280976913067
 30
0.0
 10
17.2580335785848
 20
-7.278280976913067
 30
0.0
 10
17.23801757381549
 20
-7.267153318495711
 30
0.0
 10
17.22248019317702
 20
-7.253097328915893
 30
0.0
 10
17.21135253475966
 20
-7.238283418329317
 30
0.0
 10
17.19505723311443
 20
-7.216786022501358
 30
0.0
 10
17.18616888676248
 20
-7.193083765562838
 30
0.0
 10
17.18616888676248
 20
-7.159046222168571
 30
0.0
 10
17.18616888676248
 20
-7.111641708291534
 30
0.0
 10
17.21727809899429
 20
-7.041258407527879
 30
0.0
 10
17.34171494792151
 20
-7.041258407527879
 30
0.0
 10
17.34171494792151
 20
-7.041258407527879
 30
0.0
 10
17.55283039925763
 20
-7.041258407527879
 30
0.0
 10
17.55283039925763
 20
-7.041258407527879
 30
0.0
 10
17.55283039925763
 20
-7.041258407527879
 30
0.0
 10
17.55283039925763
 20
-7.104958223050148
 30
0.0
 10
17.55283039925763
 20
-7.104958223050148
 30
0.0
 10
17.55283039925763
 20
-7.104958223050148
 30
0.0
 10
17.34987982422156
 20
-7.104958223050148
 30
0.0
 10
17.34987982422156
 20
-7.104958223050148
 30
0.0
 10
17.28097791451656
 20
-7.104958223050148
 30
0.0
 10
17.23949896487415
 20
-7.130141871047324
 30
0.0
 10
17.23949896487415
 20
-7.18274847910709
 30
0.0
 10
17.23949896487415
 20
-7.219748804618673
 30
0.0
 10
17.26692192493674
 20
-7.24865315573992
 30
0.0
 10
17.29875460722045
 20
-7.259780814157277
 30
0.0
 10
17.30764295357239
 20
-7.26274359627459
 30
0.0
 10
17.31949408204165
 20
-7.264948457385151
 30
0.0
 10
17.33134521051091
 20
-7.264948457385151
 30
0.0
 10
17.33134521051091
 20
-7.264948457385151
 30
0.0
 10
17.55283039925763
 20
-7.264948457385151
 30
0.0
 10
17.55283039925763
 20
-7.264948457385151
 30
0.0
 10
17.55283039925763
 20
-7.264948457385151
 30
0.0
 10
17.55283039925763
 20
-7.32864827290742
 30
0.0
 10
17.55283039925763
 20
-7.32864827290742
 30
0.0
 10
17.55283039925763
 20
-7.32864827290742
 30
0.0
 10
17.3380286957523
 20
-7.32864827290742
 30
0.0
 10
17.3380286957523
 20
-7.32864827290742
 30
0.0
 10
17.28097791451656
 20
-7.32864827290742
 30
0.0
 10
17.23949896487415
 20
-7.353831920904598
 30
0.0
 10
17.23949896487415
 20
-7.403441295892196
 30
0.0
 10
17.23949896487415
 20
-7.4441967754827
 30
0.0
 10
17.27208956816461
 20
-7.473824596655849
 30
0.0
 10
17.30468017145508
 20
-7.48419433406645
 30
0.0
 10
17.31432643881378
 20
-7.487915037190521
 30
0.0
 10
17.32541964627628
 20
-7.489361977294326
 30
0.0
 10
17.33654730469364
 20
-7.489361977294326
 30
0.0
 10
17.33654730469364
 20
-7.489361977294326
 30
0.0
 10
17.55283039925763
 20
-7.489361977294326
 30
0.0
 10
17.55283039925763
 20
-7.489361977294326
 30
0.0
 10
17.55283039925763
 20
-7.489361977294326
 30
0.0
 10
17.55283039925763
 20
-7.553096243771446
 30
0.0
 10
17.55283039925763
 20
-7.553096243771446
 30
0.0
 10
17.55283039925763
 20
-7.553096243771446
 30
0.0
 10
17.29134765192716
 20
-7.553096243771446
 30
0.0
 10
17.29134765192716
 20
-7.553096243771446
 30
0.0
  0
HATCH
  5
26C
330
25F
100
AcDbEntity
  8
Livello 1
 62
   250
420
  1842203
100
AcDbHatch
 10
0.0
 20
0.0
 30
0.0
210
0.0
220
0.0
230
1.0
  2
SOLID
 70
     1
 71
     0
 91
        1
 92
        1
 93
        1
 72
     4
 94
        3
 73
     0
 74
     0
 95
       80
 96
       76
 40
0.0
 40
0.0
 40
0.0
 40
0.0
 40
1.0
 40
1.0
 40
1.0
 40
2.0
 40
2.0
 40
2.0
 40
3.0
 40
3.0
 40
3.0
 40
4.0
 40
4.0
 40
4.0
 40
5.0
 40
5.0
 40
5.0
 40
6.0
 40
6.0
 40
6.0
 40
7.0
 40
7.0
 40
7.0
 40
8.0
 40
8.0
 40
8.0
 40
9.0
 40
9.0
 40
9.0
 40
10.0
 40
10.0
 40
10.0
 40
11.0
 40
11.0
 40
11.0
 40
12.0
 40
12.0
 40
12.0
 40
13.0
 40
13.0
 40
13.0
 40
14.0
 40
14.0
 40
14.0
 40
15.0
 40
15.0
 40
15.0
 40
16.0
 40
16.0
 40
16.0
 40
17.0
 40
17.0
 40
17.0
 40
18.0
 40
18.0
 40
18.0
 40
19.0
 40
19.0
 40
19.0
 40
20.0
 40
20.0
 40
20.0
 40
21.0
 40
21.0
 40
21.0
 40
22.0
 40
22.0
 40
22.0
 40
23.0
 40
23.0
 40
23.0
 40
24.0
 40
24.0
 40
24.0
 40
25.0
 40
25.0
 40
25.0
 40
25.0
 10
17.29134765192716
 20
-7.553096243771446
 10
17.25431287546073
 20
-7.553096243771446
 10
17.22396158423567
 20
-7.553819713823349
 10
17.19433376306253
 20
-7.556059025888762
 10
17.19433376306253
 20
-7.556059025888762
 10
17.19433376306253
 20
-7.499008244653025
 10
17.19433376306253
 20
-7.499008244653025
 10
17.19433376306253
 20
-7.499008244653025
 10
17.25210801435017
 20
-7.496045462535711
 10
17.25210801435017
 20
-7.496045462535711
 10
17.25210801435017
 20
-7.496045462535711
 10
17.25210801435017
 20
-7.493840601425151
 10
17.25210801435017
 20
-7.493840601425151
 10
17.21803602000104
 20
-7.473824596655849
 10
17.18616888676248
 20
-7.440510523313482
 10
17.18616888676248
 20
-7.381254880967186
 10
17.18616888676248
 20
-7.332334525076637
 10
17.21579670793563
 20
-7.295334199565053
 10
17.2580335785848
 20
-7.279762367971726
 10
17.2580335785848
 20
-7.279762367971726
 10
17.2580335785848
 20
-7.278280976913067
 10
17.2580335785848
 20
-7.278280976913067
 10
17.23801757381549
 20
-7.267153318495711
 10
17.22248019317702
 20
-7.253097328915893
 10
17.21135253475966
 20
-7.238283418329317
 10
17.19505723311443
 20
-7.216786022501358
 10
17.18616888676248
 20
-7.193083765562838
 10
17.18616888676248
 20
-7.159046222168571
 10
17.18616888676248
 20
-7.111641708291534
 10
17.21727809899429
 20
-7.041258407527879
 10
17.34171494792151
 20
-7.041258407527879
 10
17.34171494792151
 20
-7.041258407527879
 10
17.55283039925763
 20
-7.041258407527879
 10
17.55283039925763
 20
-7.041258407527879
 10
17.55283039925763
 20
-7.041258407527879
 10
17.55283039925763
 20
-7.104958223050148
 10
17.55283039925763
 20
-7.104958223050148
 10
17.55283039925763
 20
-7.104958223050148
 10
17.34987982422156
 20
-7.104958223050148
 10
17.34987982422156
 20
-7.104958223050148
 10
17.28097791451656
 20
-7.104958223050148
 10
17.23949896487415
 20
-7.130141871047324
 10
17.23949896487415
 20
-7.18274847910709
 10
17.23949896487415
 20
-7.219748804618673
 10
17.26692192493674
 20
-7.24865315573992
 10
17.29875460722045
 20
-7.259780814157277
 10
17.30764295357239
 20
-7.26274359627459
 10
17.31949408204165
 20
-7.264948457385151
 10
17.33134521051091
 20
-7.264948457385151
 10
17.33134521051091
 20
-7.264948457385151
 10
17.55283039925763
 20
-7.264948457385151
 10
17.55283039925763
 20
-7.264948457385151
 10
17.55283039925763
 20
-7.264948457385151
 10
17.55283039925763
 20
-7.32864827290742
 10
17.55283039925763
 20
-7.32864827290742
 10
17.55283039925763
 20
-7.32864827290742
 10
17.3380286957523
 20
-7.32864827290742
 10
17.3380286957523
 20
-7.32864827290742
 10
17.28097791451656
 20
-7.32864827290742
 10
17.23949896487415
 20
-7.353831920904598
 10
17.23949896487415
 20
-7.403441295892196
 10
17.23949896487415
 20
-7.4441967754827
 10
17.27208956816461
 20
-7.473824596655849
 10
17.30468017145508
 20
-7.48419433406645
 10
17.31432643881378
 20
-7.487915037190521
 10
17.32541964627628
 20
-7.489361977294326
 10
17.33654730469364
 20
-7.489361977294326
 10
17.33654730469364
 20
-7.489361977294326
 10
17.55283039925763
 20
-7.489361977294326
 10
17.55283039925763
 20
-7.489361977294326
 10
17.55283039925763
 20
-7.489361977294326
 10
17.55283039925763
 20
-7.553096243771446
 10
17.55283039925763
 20
-7.553096243771446
 10
17.55283039925763
 20
-7.553096243771446
 10
17.29134765192716
 20
-7.553096243771446
 10
17.29134765192716
 20
-7.553096243771446
 97
        0
 97
        0
 75
     2
 76
     1
 98
        0
450
        0
451
        0
460
0.0
461
0.0
452
        0
462
0.0
453
        0
470

  0
ENDBLK
  5
262
330
25F
100
AcDbEntity
  8
0
100
AcDbBlockEnd
  0
BLOCK
  5
26F
330
26D
100
AcDbEntity
  8
0
100
AcDbBlockBegin
  2
block 81
 70
     0
 10
0.0
 20
0.0
 30
0.0
  3
block 81
  1

  0
SPLINE
  5
271
330
26D
100
AcDbEntity
  8
Livello 1
370
     0
100
AcDbSpline
210
0.0
220
0.0
230
1.0
 70
     9
 71
     3
 72
    38
 73
    34
 74
     0
 42
0.000000001
 43
0.0000000001
 40
0.0
 40
0.0
 40
0.0
 40
0.0
 40
1.0
 40
1.0
 40
1.0
 40
2.0
 40
2.0
 40
2.0
 40
3.0
 40
3.0
 40
3.0
 40
4.0
 40
4.0
 40
4.0
 40
5.0
 40
5.0
 40
5.0
 40
6.0
 40
6.0
 40
6.0
 40
7.0
 40
7.0
 40
7.0
 40
8.0
 40
8.0
 40
8.0
 40
9.0
 40
9.0
 40
9.0
 40
10.0
 40
10.0
 40
10.0
 40
11.0
 40
11.0
 40
11.0
 40
11.0
 10
20.44123290504594
 20
-13.44420952354867
 30
0.0
 10
20.44047498403918
 20
-13.45754204307659
 30
0.0
 10
20.44123290504594
 20
-13.47459526572857
 30
0.0
 10
20.44419568716325
 20
-13.49309542848436
 30
0.0
 10
20.46121445886039
 20
-13.59531141153173
 30
0.0
 10
20.53604193280001
 20
-13.64939941065015
 30
0.0
 10
20.61527912896076
 20
-13.66049261811265
 30
0.0
 10
20.61527912896076
 20
-13.66049261811265
 30
0.0
 10
20.61527912896076
 20
-13.65828775700209
 30
0.0
 10
20.61527912896076
 20
-13.65828775700209
 30
0.0
 10
20.58492783773571
 20
-13.63530897011548
 30
0.0
 10
20.55974418973853
 20
-13.59531141153173
 30
0.0
 10
20.55974418973853
 20
-13.54198133342006
 30
0.0
 10
20.55974418973853
 20
-13.45681857302468
 30
0.0
 10
20.62120469319539
 20
-13.39680500967163
 30
0.0
 10
20.71529025089756
 20
-13.39680500967163
 30
0.0
 10
20.80341579341026
 20
-13.39680500967163
 30
0.0
 10
20.88489230163642
 20
-13.45681857302468
 30
0.0
 10
20.88489230163642
 20
-13.55679524400663
 30
0.0
 10
20.88489230163642
 20
-13.6597346971059
 30
0.0
 10
20.80489718446891
 20
-13.72715521575224
 30
0.0
 10
20.67973686548979
 20
-13.72715521575224
 30
0.0
 10
20.58492783773571
 20
-13.72715521575224
 30
0.0
 10
20.51010036379608
 20
-13.69308322140312
 30
0.0
 10
20.46269584991905
 20
-13.64567870752608
 30
0.0
 10
20.42345621234205
 20
-13.60568114894233
 30
0.0
 10
20.39899603439678
 20
-13.55235107083066
 30
0.0
 10
20.39158907910349
 20
-13.49161403742571
 30
0.0
 10
20.38862629698617
 20
-13.47235595366316
 30
0.0
 10
20.38790282693427
 20
-13.45606065201793
 30
0.0
 10
20.38790282693427
 20
-13.44420952354867
 30
0.0
 10
20.38790282693427
 20
-13.44420952354867
 30
0.0
 10
20.44123290504594
 20
-13.44420952354867
 30
0.0
 10
20.44123290504594
 20
-13.44420952354867
 30
0.0
  0
SPLINE
  5
272
330
26D
100
AcDbEntity
  8
Livello 1
370
     0
100
AcDbSpline
210
0.0
220
0.0
230
1.0
 70
     9
 71
     3
 72
    20
 73
    16
 74
     0
 42
0.000000001
 43
0.0000000001
 40
0.0
 40
0.0
 40
0.0
 40
0.0
 40
1.0
 40
1.0
 40
1.0
 40
2.0
 40
2.0
 40
2.0
 40
3.0
 40
3.0
 40
3.0
 40
4.0
 40
4.0
 40
4.0
 40
5.0
 40
5.0
 40
5.0
 40
5.0
 10
20.71897650306678
 20
-13.46274413725931
 30
0.0
 10
20.65010904431664
 20
-13.46274413725931
 30
0.0
 10
20.60863009467423
 20
-13.50198377483631
 30
0.0
 10
20.60863009467423
 20
-13.56196288723451
 30
0.0
 10
20.60863009467423
 20
-13.60123697576636
 30
0.0
 10
20.63305582166465
 20
-13.63754828218089
 30
0.0
 10
20.66788573702053
 20
-13.65532497488478
 30
0.0
 10
20.67529269231381
 20
-13.6597346971059
 30
0.0
 10
20.68490450871766
 20
-13.66269747922321
 30
0.0
 10
20.69675563718692
 20
-13.66269747922321
 30
0.0
 10
20.77602728430252
 20
-13.66125053911941
 30
0.0
 10
20.83452500564206
 20
-13.62493923270488
 30
0.0
 10
20.83452500564206
 20
-13.55679524400663
 30
0.0
 10
20.83452500564206
 20
-13.50050238377765
 30
0.0
 10
20.78787841277178
 20
-13.46274413725931
 30
0.0
 10
20.71897650306678
 20
-13.46274413725931
 30
0.0
  0
HATCH
  5
273
330
26D
100
AcDbEntity
  8
Livello 1
 62
   250
420
  1842203
100
AcDbHatch
 10
0.0
 20
0.0
 30
0.0
210
0.0
220
0.0
230
1.0
  2
SOLID
 70
     1
 71
     0
 91
        2
 92
        1
 93
        1
 72
     4
 94
        3
 73
     0
 74
     0
 95
       38
 96
       34
 40
0.0
 40
0.0
 40
0.0
 40
0.0
 40
1.0
 40
1.0
 40
1.0
 40
2.0
 40
2.0
 40
2.0
 40
3.0
 40
3.0
 40
3.0
 40
4.0
 40
4.0
 40
4.0
 40
5.0
 40
5.0
 40
5.0
 40
6.0
 40
6.0
 40
6.0
 40
7.0
 40
7.0
 40
7.0
 40
8.0
 40
8.0
 40
8.0
 40
9.0
 40
9.0
 40
9.0
 40
10.0
 40
10.0
 40
10.0
 40
11.0
 40
11.0
 40
11.0
 40
11.0
 10
20.44123290504594
 20
-13.44420952354867
 10
20.44047498403918
 20
-13.45754204307659
 10
20.44123290504594
 20
-13.47459526572857
 10
20.44419568716325
 20
-13.49309542848436
 10
20.46121445886039
 20
-13.59531141153173
 10
20.53604193280001
 20
-13.64939941065015
 10
20.61527912896076
 20
-13.66049261811265
 10
20.61527912896076
 20
-13.66049261811265
 10
20.61527912896076
 20
-13.65828775700209
 10
20.61527912896076
 20
-13.65828775700209
 10
20.58492783773571
 20
-13.63530897011548
 10
20.55974418973853
 20
-13.59531141153173
 10
20.55974418973853
 20
-13.54198133342006
 10
20.55974418973853
 20
-13.45681857302468
 10
20.62120469319539
 20
-13.39680500967163
 10
20.71529025089756
 20
-13.39680500967163
 10
20.80341579341026
 20
-13.39680500967163
 10
20.88489230163642
 20
-13.45681857302468
 10
20.88489230163642
 20
-13.55679524400663
 10
20.88489230163642
 20
-13.6597346971059
 10
20.80489718446891
 20
-13.72715521575224
 10
20.67973686548979
 20
-13.72715521575224
 10
20.58492783773571
 20
-13.72715521575224
 10
20.51010036379608
 20
-13.69308322140312
 10
20.46269584991905
 20
-13.64567870752608
 10
20.42345621234205
 20
-13.60568114894233
 10
20.39899603439678
 20
-13.55235107083066
 10
20.39158907910349
 20
-13.49161403742571
 10
20.38862629698617
 20
-13.47235595366316
 10
20.38790282693427
 20
-13.45606065201793
 10
20.38790282693427
 20
-13.44420952354867
 10
20.38790282693427
 20
-13.44420952354867
 10
20.44123290504594
 20
-13.44420952354867
 10
20.44123290504594
 20
-13.44420952354867
 97
        0
 97
        0
 92
        1
 93
        1
 72
     4
 94
        3
 73
     0
 74
     0
 95
       20
 96
       16
 40
0.0
 40
0.0
 40
0.0
 40
0.0
 40
1.0
 40
1.0
 40
1.0
 40
2.0
 40
2.0
 40
2.0
 40
3.0
 40
3.0
 40
3.0
 40
4.0
 40
4.0
 40
4.0
 40
5.0
 40
5.0
 40
5.0
 40
5.0
 10
20.71897650306678
 20
-13.46274413725931
 10
20.65010904431664
 20
-13.46274413725931
 10
20.60863009467423
 20
-13.50198377483631
 10
20.60863009467423
 20
-13.56196288723451
 10
20.60863009467423
 20
-13.60123697576636
 10
20.63305582166465
 20
-13.63754828218089
 10
20.66788573702053
 20
-13.65532497488478
 10
20.67529269231381
 20
-13.6597346971059
 10
20.68490450871766
 20
-13.66269747922321
 10
20.69675563718692
 20
-13.66269747922321
 10
20.77602728430252
 20
-13.66125053911941
 10
20.83452500564206
 20
-13.62493923270488
 10
20.83452500564206
 20
-13.55679524400663
 10
20.83452500564206
 20
-13.50050238377765
 10
20.78787841277178
 20
-13.46274413725931
 10
20.71897650306678
 20
-13.46274413725931
 97
        0
 97
        0
 75
     2
 76
     1
 98
        0
450
        0
451
        0
460
0.0
461
0.0
452
        0
462
0.0
453
        0
470

  0
POLYLINE
  5
274
330
26D
100
AcDbEntity
  8
Livello 1
370
     0
100
AcDb2dPolyline
 66
     1
 10
0.0
 20
0.0
 30
0.0
  0
VERTEX
  5
275
330
274
100
AcDbEntity
  8
Livello 1
370
     0
100
AcDbVertex
100
AcDb2dVertex
 10
20.45604681563252
 20
-13.19750623584993
 30
0.0
  0
VERTEX
  5
276
330
274
100
AcDbEntity
  8
Livello 1
370
     0
100
AcDbVertex
100
AcDb2dVertex
 10
20.45604681563252
 20
-13.19898762690859
 30
0.0
  0
VERTEX
  5
277
330
274
100
AcDbEntity
  8
Livello 1
370
     0
100
AcDbVertex
100
AcDb2dVertex
 10
20.50121201744414
 20
-13.28270344720016
 30
0.0
  0
VERTEX
  5
278
330
274
100
AcDbEntity
  8
Livello 1
370
     0
100
AcDbVertex
100
AcDb2dVertex
 10
20.45160264245654
 20
-13.29527804572132
 30
0.0
  0
VERTEX
  5
279
330
274
100
AcDbEntity
  8
Livello 1
370
     0
100
AcDbVertex
100
AcDb2dVertex
 10
20.39530978222756
 20
-13.19009928055664
 30
0.0
  0
VERTEX
  5
27A
330
274
100
AcDbEntity
  8
Livello 1
370
     0
100
AcDbVertex
100
AcDb2dVertex
 10
20.39530978222756
 20
-13.13456434133441
 30
0.0
  0
VERTEX
  5
27B
330
274
100
AcDbEntity
  8
Livello 1
370
     0
100
AcDbVertex
100
AcDb2dVertex
 10
20.87676187629123
 20
-13.13456434133441
 30
0.0
  0
VERTEX
  5
27C
330
274
100
AcDbEntity
  8
Livello 1
370
     0
100
AcDbVertex
100
AcDb2dVertex
 10
20.87676187629123
 20
-13.19750623584993
 30
0.0
  0
VERTEX
  5
27D
330
274
100
AcDbEntity
  8
Livello 1
370
     0
100
AcDbVertex
100
AcDb2dVertex
 10
20.45604681563252
 20
-13.19750623584993
 30
0.0
  0
SEQEND
  5
27E
330
274
100
AcDbEntity
  8
Livello 1
370
     0
  0
HATCH
  5
27F
330
26D
100
AcDbEntity
  8
Livello 1
 62
   250
420
  1842203
100
AcDbHatch
 10
0.0
 20
0.0
 30
0.0
210
0.0
220
0.0
230
1.0
  2
SOLID
 70
     1
 71
     0
 91
        1
 92
        1
 93
        8
 72
     1
 10
20.45604681563252
 20
-13.19750623584993
 11
20.45604681563252
 21
-13.19898762690859
 72
     1
 10
20.45604681563252
 20
-13.19898762690859
 11
20.50121201744414
 21
-13.28270344720016
 72
     1
 10
20.50121201744414
 20
-13.28270344720016
 11
20.45160264245654
 21
-13.29527804572132
 72
     1
 10
20.45160264245654
 20
-13.29527804572132
 11
20.39530978222756
 21
-13.19009928055664
 72
     1
 10
20.39530978222756
 20
-13.19009928055664
 11
20.39530978222756
 21
-13.13456434133441
 72
     1
 10
20.39530978222756
 20
-13.13456434133441
 11
20.87676187629123
 21
-13.13456434133441
 72
     1
 10
20.87676187629123
 20
-13.13456434133441
 11
20.87676187629123
 21
-13.19750623584993
 72
     1
 10
20.87676187629123
 20
-13.19750623584993
 11
20.45604681563252
 21
-13.19750623584993
 97
        0
 75
     2
 76
     1
 98
        0
450
        0
451
        0
460
0.0
461
0.0
452
        0
462
0.0
453
        0
470

  0
SPLINE
  5
280
330
26D
100
AcDbEntity
  8
Livello 1
370
     0
100
AcDbSpline
210
0.0
220
0.0
230
1.0
 70
     9
 71
     3
 72
    80
 73
    76
 74
     0
 42
0.000000001
 43
0.0000000001
 40
0.0
 40
0.0
 40
0.0
 40
0.0
 40
1.0
 40
1.0
 40
1.0
 40
2.0
 40
2.0
 40
2.0
 40
3.0
 40
3.0
 40
3.0
 40
4.0
 40
4.0
 40
4.0
 40
5.0
 40
5.0
 40
5.0
 40
6.0
 40
6.0
 40
6.0
 40
7.0
 40
7.0
 40
7.0
 40
8.0
 40
8.0
 40
8.0
 40
9.0
 40
9.0
 40
9.0
 40
10.0
 40
10.0
 40
10.0
 40
11.0
 40
11.0
 40
11.0
 40
12.0
 40
12.0
 40
12.0
 40
13.0
 40
13.0
 40
13.0
 40
14.0
 40
14.0
 40
14.0
 40
15.0
 40
15.0
 40
15.0
 40
16.0
 40
16.0
 40
16.0
 40
17.0
 40
17.0
 40
17.0
 40
18.0
 40
18.0
 40
18.0
 40
19.0
 40
19.0
 40
19.0
 40
20.0
 40
20.0
 40
20.0
 40
21.0
 40
21.0
 40
21.0
 40
22.0
 40
22.0
 40
22.0
 40
23.0
 40
23.0
 40
23.0
 40
24.0
 40
24.0
 40
24.0
 40
25.0
 40
25.0
 40
25.0
 40
25.0
 10
20.61527912896076
 20
-12.78116644645749
 30
0.0
 10
20.57824435249433
 20
-12.78116644645749
 30
0.0
 10
20.54789306126927
 20
-12.78188991650939
 30
0.0
 10
20.51826524009613
 20
-12.7841292285748
 30
0.0
 10
20.51826524009613
 20
-12.7841292285748
 30
0.0
 10
20.51826524009613
 20
-12.72707844733906
 30
0.0
 10
20.51826524009613
 20
-12.72707844733906
 30
0.0
 10
20.51826524009613
 20
-12.72707844733906
 30
0.0
 10
20.57603949138377
 20
-12.72411566522175
 30
0.0
 10
20.57603949138377
 20
-12.72411566522175
 30
0.0
 10
20.57603949138377
 20
-12.72411566522175
 30
0.0
 10
20.57603949138377
 20
-12.72191080411119
 30
0.0
 10
20.57603949138377
 20
-12.72191080411119
 30
0.0
 10
20.54196749703464
 20
-12.70189479934189
 30
0.0
 10
20.51010036379608
 20
-12.66858072599952
 30
0.0
 10
20.51010036379608
 20
-12.60932508365322
 30
0.0
 10
20.51010036379608
 20
-12.56040472776268
 30
0.0
 10
20.53972818496923
 20
-12.52340440225109
 30
0.0
 10
20.5819650556184
 20
-12.50783257065776
 30
0.0
 10
20.5819650556184
 20
-12.50783257065776
 30
0.0
 10
20.5819650556184
 20
-12.50635117959911
 30
0.0
 10
20.5819650556184
 20
-12.50635117959911
 30
0.0
 10
20.56194905084909
 20
-12.49522352118175
 30
0.0
 10
20.54641167021062
 20
-12.48116753160193
 30
0.0
 10
20.53528401179326
 20
-12.46635362101535
 30
0.0
 10
20.51898871014803
 20
-12.4448562251874
 30
0.0
 10
20.51010036379608
 20
-12.42115396824888
 30
0.0
 10
20.51010036379608
 20
-12.38711642485461
 30
0.0
 10
20.51010036379608
 20
-12.33971191097757
 30
0.0
 10
20.54120957602789
 20
-12.26932861021392
 30
0.0
 10
20.66564642495511
 20
-12.26932861021392
 30
0.0
 10
20.66564642495511
 20
-12.26932861021392
 30
0.0
 10
20.87676187629123
 20
-12.26932861021392
 30
0.0
 10
20.87676187629123
 20
-12.26932861021392
 30
0.0
 10
20.87676187629123
 20
-12.26932861021392
 30
0.0
 10
20.87676187629123
 20
-12.33302842573619
 30
0.0
 10
20.87676187629123
 20
-12.33302842573619
 30
0.0
 10
20.87676187629123
 20
-12.33302842573619
 30
0.0
 10
20.67381130125516
 20
-12.33302842573619
 30
0.0
 10
20.67381130125516
 20
-12.33302842573619
 30
0.0
 10
20.60490939155016
 20
-12.33302842573619
 30
0.0
 10
20.56343044190775
 20
-12.35821207373336
 30
0.0
 10
20.56343044190775
 20
-12.41081868179313
 30
0.0
 10
20.56343044190775
 20
-12.44781900730471
 30
0.0
 10
20.59085340197034
 20
-12.47672335842596
 30
0.0
 10
20.62268608425405
 20
-12.48785101684331
 30
0.0
 10
20.63157443060599
 20
-12.49081379896063
 30
0.0
 10
20.64342555907525
 20
-12.49301866007119
 30
0.0
 10
20.65527668754452
 20
-12.49301866007119
 30
0.0
 10
20.65527668754452
 20
-12.49301866007119
 30
0.0
 10
20.87676187629123
 20
-12.49301866007119
 30
0.0
 10
20.87676187629123
 20
-12.49301866007119
 30
0.0
 10
20.87676187629123
 20
-12.49301866007119
 30
0.0
 10
20.87676187629123
 20
-12.55671847559346
 30
0.0
 10
20.87676187629123
 20
-12.55671847559346
 30
0.0
 10
20.87676187629123
 20
-12.55671847559346
 30
0.0
 10
20.6619601727859
 20
-12.55671847559346
 30
0.0
 10
20.6619601727859
 20
-12.55671847559346
 30
0.0
 10
20.60490939155016
 20
-12.55671847559346
 30
0.0
 10
20.56343044190775
 20
-12.58190212359063
 30
0.0
 10
20.56343044190775
 20
-12.63151149857823
 30
0.0
 10
20.56343044190775
 20
-12.67226697816874
 30
0.0
 10
20.59602104519822
 20
-12.70189479934189
 30
0.0
 10
20.62861164848868
 20
-12.71226453675249
 30
0.0
 10
20.63825791584738
 20
-12.71598523987656
 30
0.0
 10
20.64935112330988
 20
-12.71743217998036
 30
0.0
 10
20.66047878172724
 20
-12.71743217998036
 30
0.0
 10
20.66047878172724
 20
-12.71743217998036
 30
0.0
 10
20.87676187629123
 20
-12.71743217998036
 30
0.0
 10
20.87676187629123
 20
-12.71743217998036
 30
0.0
 10
20.87676187629123
 20
-12.71743217998036
 30
0.0
 10
20.87676187629123
 20
-12.78116644645749
 30
0.0
 10
20.87676187629123
 20
-12.78116644645749
 30
0.0
 10
20.87676187629123
 20
-12.78116644645749
 30
0.0
 10
20.61527912896076
 20
-12.78116644645749
 30
0.0
 10
20.61527912896076
 20
-12.78116644645749
 30
0.0
  0
HATCH
  5
281
330
26D
100
AcDbEntity
  8
Livello 1
 62
   250
420
  1842203
100
AcDbHatch
 10
0.0
 20
0.0
 30
0.0
210
0.0
220
0.0
230
1.0
  2
SOLID
 70
     1
 71
     0
 91
        1
 92
        1
 93
        1
 72
     4
 94
        3
 73
     0
 74
     0
 95
       80
 96
       76
 40
0.0
 40
0.0
 40
0.0
 40
0.0
 40
1.0
 40
1.0
 40
1.0
 40
2.0
 40
2.0
 40
2.0
 40
3.0
 40
3.0
 40
3.0
 40
4.0
 40
4.0
 40
4.0
 40
5.0
 40
5.0
 40
5.0
 40
6.0
 40
6.0
 40
6.0
 40
7.0
 40
7.0
 40
7.0
 40
8.0
 40
8.0
 40
8.0
 40
9.0
 40
9.0
 40
9.0
 40
10.0
 40
10.0
 40
10.0
 40
11.0
 40
11.0
 40
11.0
 40
12.0
 40
12.0
 40
12.0
 40
13.0
 40
13.0
 40
13.0
 40
14.0
 40
14.0
 40
14.0
 40
15.0
 40
15.0
 40
15.0
 40
16.0
 40
16.0
 40
16.0
 40
17.0
 40
17.0
 40
17.0
 40
18.0
 40
18.0
 40
18.0
 40
19.0
 40
19.0
 40
19.0
 40
20.0
 40
20.0
 40
20.0
 40
21.0
 40
21.0
 40
21.0
 40
22.0
 40
22.0
 40
22.0
 40
23.0
 40
23.0
 40
23.0
 40
24.0
 40
24.0
 40
24.0
 40
25.0
 40
25.0
 40
25.0
 40
25.0
 10
20.61527912896076
 20
-12.78116644645749
 10
20.57824435249433
 20
-12.78116644645749
 10
20.54789306126927
 20
-12.78188991650939
 10
20.51826524009613
 20
-12.7841292285748
 10
20.51826524009613
 20
-12.7841292285748
 10
20.51826524009613
 20
-12.72707844733906
 10
20.51826524009613
 20
-12.72707844733906
 10
20.51826524009613
 20
-12.72707844733906
 10
20.57603949138377
 20
-12.72411566522175
 10
20.57603949138377
 20
-12.72411566522175
 10
20.57603949138377
 20
-12.72411566522175
 10
20.57603949138377
 20
-12.72191080411119
 10
20.57603949138377
 20
-12.72191080411119
 10
20.54196749703464
 20
-12.70189479934189
 10
20.51010036379608
 20
-12.66858072599952
 10
20.51010036379608
 20
-12.60932508365322
 10
20.51010036379608
 20
-12.56040472776268
 10
20.53972818496923
 20
-12.52340440225109
 10
20.5819650556184
 20
-12.50783257065776
 10
20.5819650556184
 20
-12.50783257065776
 10
20.5819650556184
 20
-12.50635117959911
 10
20.5819650556184
 20
-12.50635117959911
 10
20.56194905084909
 20
-12.49522352118175
 10
20.54641167021062
 20
-12.48116753160193
 10
20.53528401179326
 20
-12.46635362101535
 10
20.51898871014803
 20
-12.4448562251874
 10
20.51010036379608
 20
-12.42115396824888
 10
20.51010036379608
 20
-12.38711642485461
 10
20.51010036379608
 20
-12.33971191097757
 10
20.54120957602789
 20
-12.26932861021392
 10
20.66564642495511
 20
-12.26932861021392
 10
20.66564642495511
 20
-12.26932861021392
 10
20.87676187629123
 20
-12.26932861021392
 10
20.87676187629123
 20
-12.26932861021392
 10
20.87676187629123
 20
-12.26932861021392
 10
20.87676187629123
 20
-12.33302842573619
 10
20.87676187629123
 20
-12.33302842573619
 10
20.87676187629123
 20
-12.33302842573619
 10
20.67381130125516
 20
-12.33302842573619
 10
20.67381130125516
 20
-12.33302842573619
 10
20.60490939155016
 20
-12.33302842573619
 10
20.56343044190775
 20
-12.35821207373336
 10
20.56343044190775
 20
-12.41081868179313
 10
20.56343044190775
 20
-12.44781900730471
 10
20.59085340197034
 20
-12.47672335842596
 10
20.62268608425405
 20
-12.48785101684331
 10
20.63157443060599
 20
-12.49081379896063
 10
20.64342555907525
 20
-12.49301866007119
 10
20.65527668754452
 20
-12.49301866007119
 10
20.65527668754452
 20
-12.49301866007119
 10
20.87676187629123
 20
-12.49301866007119
 10
20.87676187629123
 20
-12.49301866007119
 10
20.87676187629123
 20
-12.49301866007119
 10
20.87676187629123
 20
-12.55671847559346
 10
20.87676187629123
 20
-12.55671847559346
 10
20.87676187629123
 20
-12.55671847559346
 10
20.6619601727859
 20
-12.55671847559346
 10
20.6619601727859
 20
-12.55671847559346
 10
20.60490939155016
 20
-12.55671847559346
 10
20.56343044190775
 20
-12.58190212359063
 10
20.56343044190775
 20
-12.63151149857823
 10
20.56343044190775
 20
-12.67226697816874
 10
20.59602104519822
 20
-12.70189479934189
 10
20.62861164848868
 20
-12.71226453675249
 10
20.63825791584738
 20
-12.71598523987656
 10
20.64935112330988
 20
-12.71743217998036
 10
20.66047878172724
 20
-12.71743217998036
 10
20.66047878172724
 20
-12.71743217998036
 10
20.87676187629123
 20
-12.71743217998036
 10
20.87676187629123
 20
-12.71743217998036
 10
20.87676187629123
 20
-12.71743217998036
 10
20.87676187629123
 20
-12.78116644645749
 10
20.87676187629123
 20
-12.78116644645749
 10
20.87676187629123
 20
-12.78116644645749
 10
20.61527912896076
 20
-12.78116644645749
 10
20.61527912896076
 20
-12.78116644645749
 97
        0
 97
        0
 75
     2
 76
     1
 98
        0
450
        0
451
        0
460
0.0
461
0.0
452
        0
462
0.0
453
        0
470

  0
SPLINE
  5
282
330
26D
100
AcDbEntity
  8
Livello 1
370
     0
100
AcDbSpline
210
0.0
220
0.0
230
1.0
 70
     9
 71
     3
 72
    80
 73
    76
 74
     0
 42
0.000000001
 43
0.0000000001
 40
0.0
 40
0.0
 40
0.0
 40
0.0
 40
1.0
 40
1.0
 40
1.0
 40
2.0
 40
2.0
 40
2.0
 40
3.0
 40
3.0
 40
3.0
 40
4.0
 40
4.0
 40
4.0
 40
5.0
 40
5.0
 40
5.0
 40
6.0
 40
6.0
 40
6.0
 40
7.0
 40
7.0
 40
7.0
 40
8.0
 40
8.0
 40
8.0
 40
9.0
 40
9.0
 40
9.0
 40
10.0
 40
10.0
 40
10.0
 40
11.0
 40
11.0
 40
11.0
 40
12.0
 40
12.0
 40
12.0
 40
13.0
 40
13.0
 40
13.0
 40
14.0
 40
14.0
 40
14.0
 40
15.0
 40
15.0
 40
15.0
 40
16.0
 40
16.0
 40
16.0
 40
17.0
 40
17.0
 40
17.0
 40
18.0
 40
18.0
 40
18.0
 40
19.0
 40
19.0
 40
19.0
 40
20.0
 40
20.0
 40
20.0
 40
21.0
 40
21.0
 40
21.0
 40
22.0
 40
22.0
 40
22.0
 40
23.0
 40
23.0
 40
23.0
 40
24.0
 40
24.0
 40
24.0
 40
25.0
 40
25.0
 40
25.0
 40
25.0
 10
20.61527912896076
 20
-12.16332302213278
 30
0.0
 10
20.57824435249433
 20
-12.16332302213278
 30
0.0
 10
20.54789306126927
 20
-12.16404649218468
 30
0.0
 10
20.51826524009613
 20
-12.16628580425009
 30
0.0
 10
20.51826524009613
 20
-12.16628580425009
 30
0.0
 10
20.51826524009613
 20
-12.10923502301436
 30
0.0
 10
20.51826524009613
 20
-12.10923502301436
 30
0.0
 10
20.51826524009613
 20
-12.10923502301436
 30
0.0
 10
20.57603949138377
 20
-12.10627224089704
 30
0.0
 10
20.57603949138377
 20
-12.10627224089704
 30
0.0
 10
20.57603949138377
 20
-12.10627224089704
 30
0.0
 10
20.57603949138377
 20
-12.10406737978648
 30
0.0
 10
20.57603949138377
 20
-12.10406737978648
 30
0.0
 10
20.54196749703464
 20
-12.08405137501718
 30
0.0
 10
20.51010036379608
 20
-12.05073730167481
 30
0.0
 10
20.51010036379608
 20
-11.99148165932852
 30
0.0
 10
20.51010036379608
 20
-11.94256130343797
 30
0.0
 10
20.53972818496923
 20
-11.90556097792639
 30
0.0
 10
20.5819650556184
 20
-11.88998914633306
 30
0.0
 10
20.5819650556184
 20
-11.88998914633306
 30
0.0
 10
20.5819650556184
 20
-11.8885077552744
 30
0.0
 10
20.5819650556184
 20
-11.8885077552744
 30
0.0
 10
20.56194905084909
 20
-11.87738009685704
 30
0.0
 10
20.54641167021062
 20
-11.86332410727722
 30
0.0
 10
20.53528401179326
 20
-11.84851019669065
 30
0.0
 10
20.51898871014803
 20
-11.82701280086269
 30
0.0
 10
20.51010036379608
 20
-11.80331054392417
 30
0.0
 10
20.51010036379608
 20
-11.7692730005299
 30
0.0
 10
20.51010036379608
 20
-11.72186848665287
 30
0.0
 10
20.54120957602789
 20
-11.65148518588921
 30
0.0
 10
20.66564642495511
 20
-11.65148518588921
 30
0.0
 10
20.66564642495511
 20
-11.65148518588921
 30
0.0
 10
20.87676187629123
 20
-11.65148518588921
 30
0.0
 10
20.87676187629123
 20
-11.65148518588921
 30
0.0
 10
20.87676187629123
 20
-11.65148518588921
 30
0.0
 10
20.87676187629123
 20
-11.71518500141148
 30
0.0
 10
20.87676187629123
 20
-11.71518500141148
 30
0.0
 10
20.87676187629123
 20
-11.71518500141148
 30
0.0
 10
20.67381130125516
 20
-11.71518500141148
 30
0.0
 10
20.67381130125516
 20
-11.71518500141148
 30
0.0
 10
20.60490939155016
 20
-11.71518500141148
 30
0.0
 10
20.56343044190775
 20
-11.74036864940866
 30
0.0
 10
20.56343044190775
 20
-11.79297525746842
 30
0.0
 10
20.56343044190775
 20
-11.82997558298
 30
0.0
 10
20.59085340197034
 20
-11.85887993410125
 30
0.0
 10
20.62268608425405
 20
-11.8700075925186
 30
0.0
 10
20.63157443060599
 20
-11.87297037463592
 30
0.0
 10
20.64342555907525
 20
-11.87517523574648
 30
0.0
 10
20.65527668754452
 20
-11.87517523574648
 30
0.0
 10
20.65527668754452
 20
-11.87517523574648
 30
0.0
 10
20.87676187629123
 20
-11.87517523574648
 30
0.0
 10
20.87676187629123
 20
-11.87517523574648
 30
0.0
 10
20.87676187629123
 20
-11.87517523574648
 30
0.0
 10
20.87676187629123
 20
-11.93887505126875
 30
0.0
 10
20.87676187629123
 20
-11.93887505126875
 30
0.0
 10
20.87676187629123
 20
-11.93887505126875
 30
0.0
 10
20.6619601727859
 20
-11.93887505126875
 30
0.0
 10
20.6619601727859
 20
-11.93887505126875
 30
0.0
 10
20.60490939155016
 20
-11.93887505126875
 30
0.0
 10
20.56343044190775
 20
-11.96405869926593
 30
0.0
 10
20.56343044190775
 20
-12.01366807425353
 30
0.0
 10
20.56343044190775
 20
-12.05442355384403
 30
0.0
 10
20.59602104519822
 20
-12.08405137501718
 30
0.0
 10
20.62861164848868
 20
-12.09442111242778
 30
0.0
 10
20.63825791584738
 20
-12.09814181555185
 30
0.0
 10
20.64935112330988
 20
-12.09958875565566
 30
0.0
 10
20.66047878172724
 20
-12.09958875565566
 30
0.0
 10
20.66047878172724
 20
-12.09958875565566
 30
0.0
 10
20.87676187629123
 20
-12.09958875565566
 30
0.0
 10
20.87676187629123
 20
-12.09958875565566
 30
0.0
 10
20.87676187629123
 20
-12.09958875565566
 30
0.0
 10
20.87676187629123
 20
-12.16332302213278
 30
0.0
 10
20.87676187629123
 20
-12.16332302213278
 30
0.0
 10
20.87676187629123
 20
-12.16332302213278
 30
0.0
 10
20.61527912896076
 20
-12.16332302213278
 30
0.0
 10
20.61527912896076
 20
-12.16332302213278
 30
0.0
  0
HATCH
  5
283
330
26D
100
AcDbEntity
  8
Livello 1
 62
   250
420
  1842203
100
AcDbHatch
 10
0.0
 20
0.0
 30
0.0
210
0.0
220
0.0
230
1.0
  2
SOLID
 70
     1
 71
     0
 91
        1
 92
        1
 93
        1
 72
     4
 94
        3
 73
     0
 74
     0
 95
       80
 96
       76
 40
0.0
 40
0.0
 40
0.0
 40
0.0
 40
1.0
 40
1.0
 40
1.0
 40
2.0
 40
2.0
 40
2.0
 40
3.0
 40
3.0
 40
3.0
 40
4.0
 40
4.0
 40
4.0
 40
5.0
 40
5.0
 40
5.0
 40
6.0
 40
6.0
 40
6.0
 40
7.0
 40
7.0
 40
7.0
 40
8.0
 40
8.0
 40
8.0
 40
9.0
 40
9.0
 40
9.0
 40
10.0
 40
10.0
 40
10.0
 40
11.0
 40
11.0
 40
11.0
 40
12.0
 40
12.0
 40
12.0
 40
13.0
 40
13.0
 40
13.0
 40
14.0
 40
14.0
 40
14.0
 40
15.0
 40
15.0
 40
15.0
 40
16.0
 40
16.0
 40
16.0
 40
17.0
 40
17.0
 40
17.0
 40
18.0
 40
18.0
 40
18.0
 40
19.0
 40
19.0
 40
19.0
 40
20.0
 40
20.0
 40
20.0
 40
21.0
 40
21.0
 40
21.0
 40
22.0
 40
22.0
 40
22.0
 40
23.0
 40
23.0
 40
23.0
 40
24.0
 40
24.0
 40
24.0
 40
25.0
 40
25.0
 40
25.0
 40
25.0
 10
20.61527912896076
 20
-12.16332302213278
 10
20.57824435249433
 20
-12.16332302213278
 10
20.54789306126927
 20
-12.16404649218468
 10
20.51826524009613
 20
-12.16628580425009
 10
20.51826524009613
 20
-12.16628580425009
 10
20.51826524009613
 20
-12.10923502301436
 10
20.51826524009613
 20
-12.10923502301436
 10
20.51826524009613
 20
-12.10923502301436
 10
20.57603949138377
 20
-12.10627224089704
 10
20.57603949138377
 20
-12.10627224089704
 10
20.57603949138377
 20
-12.10627224089704
 10
20.57603949138377
 20
-12.10406737978648
 10
20.57603949138377
 20
-12.10406737978648
 10
20.54196749703464
 20
-12.08405137501718
 10
20.51010036379608
 20
-12.05073730167481
 10
20.51010036379608
 20
-11.99148165932852
 10
20.51010036379608
 20
-11.94256130343797
 10
20.53972818496923
 20
-11.90556097792639
 10
20.5819650556184
 20
-11.88998914633306
 10
20.5819650556184
 20
-11.88998914633306
 10
20.5819650556184
 20
-11.8885077552744
 10
20.5819650556184
 20
-11.8885077552744
 10
20.56194905084909
 20
-11.87738009685704
 10
20.54641167021062
 20
-11.86332410727722
 10
20.53528401179326
 20
-11.84851019669065
 10
20.51898871014803
 20
-11.82701280086269
 10
20.51010036379608
 20
-11.80331054392417
 10
20.51010036379608
 20
-11.7692730005299
 10
20.51010036379608
 20
-11.72186848665287
 10
20.54120957602789
 20
-11.65148518588921
 10
20.66564642495511
 20
-11.65148518588921
 10
20.66564642495511
 20
-11.65148518588921
 10
20.87676187629123
 20
-11.65148518588921
 10
20.87676187629123
 20
-11.65148518588921
 10
20.87676187629123
 20
-11.65148518588921
 10
20.87676187629123
 20
-11.71518500141148
 10
20.87676187629123
 20
-11.71518500141148
 10
20.87676187629123
 20
-11.71518500141148
 10
20.67381130125516
 20
-11.71518500141148
 10
20.67381130125516
 20
-11.71518500141148
 10
20.60490939155016
 20
-11.71518500141148
 10
20.56343044190775
 20
-11.74036864940866
 10
20.56343044190775
 20
-11.79297525746842
 10
20.56343044190775
 20
-11.82997558298
 10
20.59085340197034
 20
-11.85887993410125
 10
20.62268608425405
 20
-11.8700075925186
 10
20.63157443060599
 20
-11.87297037463592
 10
20.64342555907525
 20
-11.87517523574648
 10
20.65527668754452
 20
-11.87517523574648
 10
20.65527668754452
 20
-11.87517523574648
 10
20.87676187629123
 20
-11.87517523574648
 10
20.87676187629123
 20
-11.87517523574648
 10
20.87676187629123
 20
-11.87517523574648
 10
20.87676187629123
 20
-11.93887505126875
 10
20.87676187629123
 20
-11.93887505126875
 10
20.87676187629123
 20
-11.93887505126875
 10
20.6619601727859
 20
-11.93887505126875
 10
20.6619601727859
 20
-11.93887505126875
 10
20.60490939155016
 20
-11.93887505126875
 10
20.56343044190775
 20
-11.96405869926593
 10
20.56343044190775
 20
-12.01366807425353
 10
20.56343044190775
 20
-12.05442355384403
 10
20.59602104519822
 20
-12.08405137501718
 10
20.62861164848868
 20
-12.09442111242778
 10
20.63825791584738
 20
-12.09814181555185
 10
20.64935112330988
 20
-12.09958875565566
 10
20.66047878172724
 20
-12.09958875565566
 10
20.66047878172724
 20
-12.09958875565566
 10
20.87676187629123
 20
-12.09958875565566
 10
20.87676187629123
 20
-12.09958875565566
 10
20.87676187629123
 20
-12.09958875565566
 10
20.87676187629123
 20
-12.16332302213278
 10
20.87676187629123
 20
-12.16332302213278
 10
20.87676187629123
 20
-12.16332302213278
 10
20.61527912896076
 20
-12.16332302213278
 10
20.61527912896076
 20
-12.16332302213278
 97
        0
 97
        0
 75
     2
 76
     1
 98
        0
450
        0
451
        0
460
0.0
461
0.0
452
        0
462
0.0
453
        0
470

  0
ENDBLK
  5
270
330
26D
100
AcDbEntity
  8
0
100
AcDbBlockEnd
  0
ENDSEC
  0
SECTION
  2
ENTITIES
  0
SPLINE
  5
2B4
330
1F
100
AcDbEntity
  8
Livello 1
100
AcDbSpline
210
0.0
220
0.0
230
1.0
 70
     9
 71
     3
 72
    20
 73
    16
 74
     0
 42
0.000000001
 43
0.0000000001
 40
0.0
 40
0.0
 40
0.0
 40
0.0
 40
1.0
 40
1.0
 40
1.0
 40
2.0
 40
2.0
 40
2.0
 40
3.0
 40
3.0
 40
3.0
 40
4.0
 40
4.0
 40
4.0
 40
5.0
 40
5.0
 40
5.0
 40
5.0
 10
12.40365447770245
 20
-7.91848174802038
 30
0.0
 10
12.40365447770245
 20
-6.87297188717066
 30
0.0
 10
13.25121004645017
 20
-6.025419748493633
 30
0.0
 10
14.29671988088811
 20
-6.025419748493633
 30
0.0
 10
15.34222971532604
 20
-6.025419748493633
 30
0.0
 10
16.18978183259207
 20
-6.87297188717066
 30
0.0
 10
16.18978183259207
 20
-7.91848174802038
 30
0.0
 10
16.18978183259207
 20
-8.963995136647884
 30
0.0
 10
15.34222971532604
 20
-9.81154727532488
 30
0.0
 10
14.29671988088811
 20
-9.81154727532488
 30
0.0
 10
13.25121004645017
 20
-9.81154727532488
 30
0.0
 10
12.40365447770245
 20
-8.963995136647884
 30
0.0
 10
12.40365447770245
 20
-7.91848174802038
 30
0.0
 10
12.40365447770245
 20
-7.91848174802038
 30
0.0
 10
12.40365447770245
 20
-7.91848174802038
 30
0.0
 10
12.40365447770245
 20
-7.91848174802038
 30
0.0
  0
SPLINE
  5
2B5
330
1F
100
AcDbEntity
  8
Livello 1
100
AcDbSpline
210
0.0
220
0.0
230
1.0
 70
     9
 71
     3
 72
    20
 73
    16
 74
     0
 42
0.000000001
 43
0.0000000001
 40
0.0
 40
0.0
 40
0.0
 40
0.0
 40
1.0
 40
1.0
 40
1.0
 40
2.0
 40
2.0
 40
2.0
 40
3.0
 40
3.0
 40
3.0
 40
4.0
 40
4.0
 40
4.0
 40
5.0
 40
5.0
 40
5.0
 40
5.0
 10
12.69274881096348
 20
-7.91848174802038
 30
0.0
 10
12.69274881096348
 20
-7.032769637130713
 30
0.0
 10
13.41076084793525
 20
-6.314753970643532
 30
0.0
 10
14.29647658834033
 20
-6.314753970643532
 30
0.0
 10
15.18219208052005
 20
-6.314753970643532
 30
0.0
 10
15.90020436571721
 20
-7.032769637130713
 30
0.0
 10
15.90020436571721
 20
-7.91848174802038
 30
0.0
 10
15.90020436571721
 20
-8.804197386687832
 30
0.0
 10
15.18219208052005
 20
-9.522213053175011
 30
0.0
 10
14.29647658834033
 20
-9.522213053175011
 30
0.0
 10
13.41076084793525
 20
-9.522213053175011
 30
0.0
 10
12.69274881096348
 20
-8.804197386687832
 30
0.0
 10
12.69274881096348
 20
-7.91848174802038
 30
0.0
 10
12.69274881096348
 20
-7.91848174802038
 30
0.0
 10
12.69274881096348
 20
-7.91848174802038
 30
0.0
 10
12.69274881096348
 20
-7.91848174802038
 30
0.0
  0
SPLINE
  5
2B6
330
1F
100
AcDbEntity
  8
Livello 1
100
AcDbSpline
210
0.0
220
0.0
230
1.0
 70
     8
 71
     3
 72
     8
 73
     4
 74
     0
 42
0.000000001
 43
0.0000000001
 40
0.0
 40
0.0
 40
0.0
 40
0.0
 40
1.0
 40
1.0
 40
1.0
 40
1.0
 10
12.60224367209723
 20
-10.99168419169654
 30
0.0
 10
12.69197269985257
 20
-10.88509944172317
 30
0.0
 10
12.85934458869963
 20
-10.89612021949822
 30
0.0
 10
12.9339922767653
 20
-11.01381041391319
 30
0.0
  0
SPLINE
  5
2B7
330
1F
100
AcDbEntity
  8
Livello 1
100
AcDbSpline
210
0.0
220
0.0
230
1.0
 70
     8
 71
     3
 72
     8
 73
     4
 74
     0
 42
0.000000001
 43
0.0000000001
 40
0.0
 40
0.0
 40
0.0
 40
0.0
 40
1.0
 40
1.0
 40
1.0
 40
1.0
 10
12.73509272761958
 20
-11.2592343860741
 30
0.0
 10
12.74741525539427
 20
-11.26142513607352
 30
0.0
 10
12.75940969983572
 20
-11.26198958051781
 30
0.0
 10
12.77189097761037
 20
-11.26086069162923
 30
0.0
  0
SPLINE
  5
2B8
330
1F
100
AcDbEntity
  8
Livello 1
100
AcDbSpline
210
0.0
220
0.0
230
1.0
 70
     8
 71
     3
 72
     8
 73
     4
 74
     0
 42
0.000000001
 43
0.0000000001
 40
0.0
 40
0.0
 40
0.0
 40
0.0
 40
1.0
 40
1.0
 40
1.0
 40
1.0
 10
12.84175861648178
 20
-11.01381041391319
 30
0.0
 10
12.78356086649634
 20
-10.97061277503509
 30
0.0
 10
12.70153297762798
 20
-10.980338858366
 30
0.0
 10
12.65484989430631
 20
-11.03585549724104
 30
0.0
  0
SPLINE
  5
2B9
330
1F
100
AcDbEntity
  8
Livello 1
100
AcDbSpline
210
0.0
220
0.0
230
1.0
 70
     8
 71
     3
 72
    11
 73
     7
 74
     0
 42
0.000000001
 43
0.0000000001
 40
0.0
 40
0.0
 40
0.0
 40
0.0
 40
1.0
 40
1.0
 40
1.0
 40
2.0
 40
2.0
 40
2.0
 40
2.0
 10
12.60224367209723
 20
-10.99168419169654
 30
0.0
 10
12.53765006100226
 20
-11.06868146945507
 30
0.0
 10
12.53797461655775
 20
-11.18118230276029
 30
0.0
 10
12.60329847765254
 20
-11.25753399718559
 30
0.0
 10
12.60329847765254
 20
-11.25753399718559
 30
0.0
 10
12.65963708874956
 20
-11.3233482193914
 30
0.0
 10
12.65963708874956
 20
-11.3233482193914
 30
0.0
  0
SPLINE
  5
2BA
330
1F
100
AcDbEntity
  8
Livello 1
100
AcDbSpline
210
0.0
220
0.0
230
1.0
 70
     8
 71
     3
 72
    11
 73
     7
 74
     0
 42
0.000000001
 43
0.0000000001
 40
0.0
 40
0.0
 40
0.0
 40
0.0
 40
1.0
 40
1.0
 40
1.0
 40
2.0
 40
2.0
 40
2.0
 40
2.0
 10
12.65484989430631
 20
-11.03585549724104
 30
0.0
 10
12.61464381098301
 20
-11.08376271945129
 30
0.0
 10
12.61197328320592
 20
-11.15305533054509
 30
0.0
 10
12.64836583875235
 20
-11.20371774719906
 30
0.0
 10
12.64836583875235
 20
-11.20371774719906
 30
0.0
 10
12.70088739429478
 20
-11.24805485829912
 30
0.0
 10
12.70088739429478
 20
-11.24805485829912
 30
0.0
  0
SPLINE
  5
2BB
330
1F
100
AcDbEntity
  8
Livello 1
100
AcDbSpline
210
0.0
220
0.0
230
1.0
 70
     8
 71
     3
 72
     8
 73
     4
 74
     0
 42
0.000000001
 43
0.0000000001
 40
0.0
 40
0.0
 40
0.0
 40
0.0
 40
1.0
 40
1.0
 40
1.0
 40
1.0
 10
15.64639823534383
 20
-11.01381041391319
 30
0.0
 10
15.70288501168051
 20
-10.86775335839416
 30
0.0
 10
15.89530764566029
 20
-10.83549888617999
 30
0.0
 10
15.99621619864145
 20
-10.95545744170557
 30
0.0
  0
SPLINE
  5
2BC
330
1F
100
AcDbEntity
  8
Livello 1
100
AcDbSpline
210
0.0
220
0.0
230
1.0
 70
     8
 71
     3
 72
     8
 73
     4
 74
     0
 42
0.000000001
 43
0.0000000001
 40
0.0
 40
0.0
 40
0.0
 40
0.0
 40
1.0
 40
1.0
 40
1.0
 40
1.0
 10
15.94352883887451
 20
-10.99962874725007
 30
0.0
 10
15.88411769905456
 20
-10.92879096949001
 30
0.0
 10
15.77283731545143
 20
-10.93584299726601
 30
0.0
 10
15.7228310667272
 20
-11.01381041391319
 30
0.0
  0
SPLINE
  5
2BD
330
1F
100
AcDbEntity
  8
Livello 1
100
AcDbSpline
210
0.0
220
0.0
230
1.0
 70
     8
 71
     3
 72
     8
 73
     4
 74
     0
 42
0.000000001
 43
0.0000000001
 40
0.0
 40
0.0
 40
0.0
 40
0.0
 40
1.0
 40
1.0
 40
1.0
 40
1.0
 10
15.83840459155645
 20
-11.22535360830479
 30
0.0
 10
15.85137623011441
 20
-11.22535360830479
 30
0.0
 10
15.86377636868694
 20
-11.22349446941636
 30
0.0
 10
15.87617650725948
 20
-11.21992788608392
 30
0.0
  0
SPLINE
  5
2BE
330
1F
100
AcDbEntity
  8
Livello 1
100
AcDbSpline
210
0.0
220
0.0
230
1.0
 70
     8
 71
     3
 72
     8
 73
     4
 74
     0
 42
0.000000001
 43
0.0000000001
 40
0.0
 40
0.0
 40
0.0
 40
0.0
 40
1.0
 40
1.0
 40
1.0
 40
1.0
 10
15.886068395896
 20
-11.21668233052916
 30
0.0
 10
15.97506011584786
 20
-11.18369760831519
 30
0.0
 10
16.00472167064667
 20
-11.07241738612075
 30
0.0
 10
15.94352883887451
 20
-10.99962874725007
 30
0.0
  0
SPLINE
  5
2BF
330
1F
100
AcDbEntity
  8
Livello 1
100
AcDbSpline
210
0.0
220
0.0
230
1.0
 70
     8
 71
     3
 72
    11
 73
     7
 74
     0
 42
0.000000001
 43
0.0000000001
 40
0.0
 40
0.0
 40
0.0
 40
0.0
 40
1.0
 40
1.0
 40
1.0
 40
2.0
 40
2.0
 40
2.0
 40
2.0
 10
15.99621619864145
 20
-10.95545744170557
 30
0.0
 10
16.06324397470921
 20
-11.03545685835225
 30
0.0
 10
16.06000547479183
 20
-11.15305533054509
 30
0.0
 10
15.98851153217135
 20
-11.22900838608167
 30
0.0
 10
15.98851153217135
 20
-11.22900838608167
 30
0.0
 10
15.94691550545478
 20
-11.26493174718379
 30
0.0
 10
15.90965158973879
 20
-11.28396763606792
 30
0.0
  0
SPLINE
  5
2C0
330
1F
100
AcDbEntity
  8
Livello 1
100
AcDbSpline
210
0.0
220
0.0
230
1.0
 70
     8
 71
     3
 72
     8
 73
     4
 74
     0
 42
0.000000001
 43
0.0000000001
 40
0.0
 40
0.0
 40
0.0
 40
0.0
 40
1.0
 40
1.0
 40
1.0
 40
1.0
 10
15.99621619864145
 20
-10.95545744170557
 30
0.0
 10
15.99726747639241
 20
-10.95683327503858
 30
0.0
 10
15.99840694858556
 20
-10.95812796948272
 30
0.0
 10
15.9993770874497
 20
-10.9594226639268
 30
0.0
  0
SPLINE
  5
2C1
330
1F
100
AcDbEntity
  8
Livello 1
100
AcDbSpline
210
0.0
220
0.0
230
1.0
 70
     8
 71
     3
 72
     8
 73
     4
 74
     0
 42
0.000000001
 43
0.0000000001
 40
0.0
 40
0.0
 40
0.0
 40
0.0
 40
1.0
 40
1.0
 40
1.0
 40
1.0
 10
15.9929706431687
 20
-10.95172858059539
 30
0.0
 10
15.99402192091966
 20
-10.95285746948403
 30
0.0
 10
15.9950767264483
 20
-10.9542368305948
 30
0.0
 10
15.99621619864145
 20
-10.95545744170557
 30
0.0
  0
POLYLINE
  5
2C2
330
1F
100
AcDbEntity
  8
Livello 1
100
AcDb2dPolyline
 66
     1
 10
0.0
 20
0.0
 30
0.0
  0
VERTEX
  5
2C3
330
2C2
100
AcDbEntity
  8
Livello 1
100
AcDbVertex
100
AcDb2dVertex
 10
15.88541575702376
 20
-11.21733849719564
 30
0.0
  0
VERTEX
  5
2C4
330
2C2
100
AcDbEntity
  8
Livello 1
100
AcDbVertex
100
AcDb2dVertex
 10
15.87650106280675
 20
-11.21992788608392
 30
0.0
  0
SEQEND
  5
2C5
330
2C2
100
AcDbEntity
  8
Livello 1
  0
POLYLINE
  5
2C6
330
1F
100
AcDbEntity
  8
Livello 1
100
AcDb2dPolyline
 66
     1
 10
0.0
 20
0.0
 30
0.0
  0
VERTEX
  5
2C7
330
2C6
100
AcDbEntity
  8
Livello 1
100
AcDbVertex
100
AcDb2dVertex
 10
15.8974983956044
 20
-11.21190219164145
 30
0.0
  0
VERTEX
  5
2C8
330
2C6
100
AcDbEntity
  8
Livello 1
100
AcDbVertex
100
AcDb2dVertex
 10
15.88768764585469
 20
-11.19999241386669
 30
0.0
  0
SEQEND
  5
2C9
330
2C6
100
AcDbEntity
  8
Livello 1
  0
POLYLINE
  5
2CA
330
1F
100
AcDbEntity
  8
Livello 1
100
AcDb2dPolyline
 66
     1
 10
0.0
 20
0.0
 30
0.0
  0
VERTEX
  5
2CB
330
2CA
100
AcDbEntity
  8
Livello 1
100
AcDbVertex
100
AcDb2dVertex
 10
15.91119322858835
 20
-12.79986785791117
 30
0.0
  0
VERTEX
  5
2CC
330
2CA
100
AcDbEntity
  8
Livello 1
100
AcDbVertex
100
AcDb2dVertex
 10
15.91119322858835
 20
-14.70475849632378
 30
0.0
  0
SEQEND
  5
2CD
330
2CA
100
AcDbEntity
  8
Livello 1
  0
POLYLINE
  5
2CE
330
1F
100
AcDbEntity
  8
Livello 1
100
AcDb2dPolyline
 66
     1
 10
0.0
 20
0.0
 30
0.0
  0
VERTEX
  5
2CF
330
2CE
100
AcDbEntity
  8
Livello 1
100
AcDbVertex
100
AcDb2dVertex
 10
12.68281106096598
 20
-14.70475849632378
 30
0.0
  0
VERTEX
  5
2D0
330
2CE
100
AcDbEntity
  8
Livello 1
100
AcDbVertex
100
AcDb2dVertex
 10
12.68281106096598
 20
-12.79986785791117
 30
0.0
  0
SEQEND
  5
2D1
330
2CE
100
AcDbEntity
  8
Livello 1
  0
POLYLINE
  5
2D2
330
1F
100
AcDbEntity
  8
Livello 1
100
AcDb2dPolyline
 66
     1
 10
0.0
 20
0.0
 30
0.0
  0
VERTEX
  5
2D3
330
2D2
100
AcDbEntity
  8
Livello 1
100
AcDbVertex
100
AcDb2dVertex
 10
15.90965158973879
 20
-12.79986785791117
 30
0.0
  0
VERTEX
  5
2D4
330
2D2
100
AcDbEntity
  8
Livello 1
100
AcDbVertex
100
AcDb2dVertex
 10
15.79780339814783
 20
-12.79986785791117
 30
0.0
  0
SEQEND
  5
2D5
330
2D2
100
AcDbEntity
  8
Livello 1
  0
POLYLINE
  5
2D6
330
1F
100
AcDbEntity
  8
Livello 1
100
AcDb2dPolyline
 66
     1
 10
0.0
 20
0.0
 30
0.0
  0
VERTEX
  5
2D7
330
2D6
100
AcDbEntity
  8
Livello 1
100
AcDbVertex
100
AcDb2dVertex
 10
15.78985884279496
 20
-12.79986785791117
 30
0.0
  0
VERTEX
  5
2D8
330
2D6
100
AcDbEntity
  8
Livello 1
100
AcDbVertex
100
AcDb2dVertex
 10
15.76643792672581
 20
-12.79986785791117
 30
0.0
  0
SEQEND
  5
2D9
330
2D6
100
AcDbEntity
  8
Livello 1
  0
POLYLINE
  5
2DA
330
1F
100
AcDbEntity
  8
Livello 1
100
AcDb2dPolyline
 66
     1
 10
0.0
 20
0.0
 30
0.0
  0
VERTEX
  5
2DB
330
2DA
100
AcDbEntity
  8
Livello 1
100
AcDbVertex
100
AcDb2dVertex
 10
15.75589692699473
 20
-12.79986785791117
 30
0.0
  0
VERTEX
  5
2DC
330
2DA
100
AcDbEntity
  8
Livello 1
100
AcDbVertex
100
AcDb2dVertex
 10
15.66560345707609
 20
-12.79986785791117
 30
0.0
  0
SEQEND
  5
2DD
330
2DA
100
AcDbEntity
  8
Livello 1
  0
POLYLINE
  5
2DE
330
1F
100
AcDbEntity
  8
Livello 1
100
AcDb2dPolyline
 66
     1
 10
0.0
 20
0.0
 30
0.0
  0
VERTEX
  5
2DF
330
2DE
100
AcDbEntity
  8
Livello 1
100
AcDbVertex
100
AcDb2dVertex
 10
15.65068801301217
 20
-12.79986785791117
 30
0.0
  0
VERTEX
  5
2E0
330
2DE
100
AcDbEntity
  8
Livello 1
100
AcDbVertex
100
AcDb2dVertex
 10
15.62500242134158
 20
-12.79986785791117
 30
0.0
  0
SEQEND
  5
2E1
330
2DE
100
AcDbEntity
  8
Livello 1
  0
POLYLINE
  5
2E2
330
1F
100
AcDbEntity
  8
Livello 1
100
AcDb2dPolyline
 66
     1
 10
0.0
 20
0.0
 30
0.0
  0
VERTEX
  5
2E3
330
2E2
100
AcDbEntity
  8
Livello 1
100
AcDbVertex
100
AcDb2dVertex
 10
15.61835240272601
 20
-12.79986785791117
 30
0.0
  0
VERTEX
  5
2E4
330
2E2
100
AcDbEntity
  8
Livello 1
100
AcDbVertex
100
AcDb2dVertex
 10
15.57604023713881
 20
-12.79986785791117
 30
0.0
  0
SEQEND
  5
2E5
330
2E2
100
AcDbEntity
  8
Livello 1
  0
POLYLINE
  5
2E6
330
1F
100
AcDbEntity
  8
Livello 1
100
AcDb2dPolyline
 66
     1
 10
0.0
 20
0.0
 30
0.0
  0
VERTEX
  5
2E7
330
2E6
100
AcDbEntity
  8
Livello 1
100
AcDbVertex
100
AcDb2dVertex
 10
15.55763934871937
 20
-12.79986785791117
 30
0.0
  0
VERTEX
  5
2E8
330
2E6
100
AcDbEntity
  8
Livello 1
100
AcDbVertex
100
AcDb2dVertex
 10
15.51987801634941
 20
-12.79986785791117
 30
0.0
  0
SEQEND
  5
2E9
330
2E6
100
AcDbEntity
  8
Livello 1
  0
POLYLINE
  5
2EA
330
1F
100
AcDbEntity
  8
Livello 1
100
AcDb2dPolyline
 66
     1
 10
0.0
 20
0.0
 30
0.0
  0
VERTEX
  5
2EB
330
2EA
100
AcDbEntity
  8
Livello 1
100
AcDbVertex
100
AcDb2dVertex
 10
15.48680157274882
 20
-12.79986785791117
 30
0.0
  0
VERTEX
  5
2EC
330
2EA
100
AcDbEntity
  8
Livello 1
100
AcDbVertex
100
AcDb2dVertex
 10
15.43720454623636
 20
-12.79986785791117
 30
0.0
  0
SEQEND
  5
2ED
330
2EA
100
AcDbEntity
  8
Livello 1
  0
POLYLINE
  5
2EE
330
1F
100
AcDbEntity
  8
Livello 1
100
AcDb2dPolyline
 66
     1
 10
0.0
 20
0.0
 30
0.0
  0
VERTEX
  5
2EF
330
2EE
100
AcDbEntity
  8
Livello 1
100
AcDbVertex
100
AcDb2dVertex
 10
15.40851313030167
 20
-12.79986785791117
 30
0.0
  0
VERTEX
  5
2F0
330
2EE
100
AcDbEntity
  8
Livello 1
100
AcDbVertex
100
AcDb2dVertex
 10
15.27525853254011
 20
-12.79986785791117
 30
0.0
  0
SEQEND
  5
2F1
330
2EE
100
AcDbEntity
  8
Livello 1
  0
POLYLINE
  5
2F2
330
1F
100
AcDbEntity
  8
Livello 1
100
AcDb2dPolyline
 66
     1
 10
0.0
 20
0.0
 30
0.0
  0
VERTEX
  5
2F3
330
2F2
100
AcDbEntity
  8
Livello 1
100
AcDbVertex
100
AcDb2dVertex
 10
15.26634721726196
 20
-12.79986785791117
 30
0.0
  0
VERTEX
  5
2F4
330
2F2
100
AcDbEntity
  8
Livello 1
100
AcDbVertex
100
AcDb2dVertex
 10
12.81136681093383
 20
-12.79986785791117
 30
0.0
  0
SEQEND
  5
2F5
330
2F2
100
AcDbEntity
  8
Livello 1
  0
POLYLINE
  5
2F6
330
1F
100
AcDbEntity
  8
Livello 1
100
AcDb2dPolyline
 66
     1
 10
0.0
 20
0.0
 30
0.0
  0
VERTEX
  5
2F7
330
2F6
100
AcDbEntity
  8
Livello 1
100
AcDbVertex
100
AcDb2dVertex
 10
12.80414544982455
 20
-12.79986785791117
 30
0.0
  0
VERTEX
  5
2F8
330
2F6
100
AcDbEntity
  8
Livello 1
100
AcDbVertex
100
AcDb2dVertex
 10
12.68281106096598
 20
-12.79986785791117
 30
0.0
  0
SEQEND
  5
2F9
330
2F6
100
AcDbEntity
  8
Livello 1
  0
POLYLINE
  5
2FA
330
1F
100
AcDbEntity
  8
Livello 1
100
AcDb2dPolyline
 66
     1
 10
0.0
 20
0.0
 30
0.0
  0
VERTEX
  5
2FB
330
2FA
100
AcDbEntity
  8
Livello 1
100
AcDbVertex
100
AcDb2dVertex
 10
15.91119322858835
 20
-11.42604183047684
 30
0.0
  0
VERTEX
  5
2FC
330
2FA
100
AcDbEntity
  8
Livello 1
100
AcDbVertex
100
AcDb2dVertex
 10
15.91119322858835
 20
-12.79986785791117
 30
0.0
  0
SEQEND
  5
2FD
330
2FA
100
AcDbEntity
  8
Livello 1
  0
POLYLINE
  5
2FE
330
1F
100
AcDbEntity
  8
Livello 1
100
AcDb2dPolyline
 66
     1
 10
0.0
 20
0.0
 30
0.0
  0
VERTEX
  5
2FF
330
2FE
100
AcDbEntity
  8
Livello 1
100
AcDbVertex
100
AcDb2dVertex
 10
12.68281106096598
 20
-12.79986785791117
 30
0.0
  0
VERTEX
  5
300
330
2FE
100
AcDbEntity
  8
Livello 1
100
AcDbVertex
100
AcDb2dVertex
 10
12.68281106096598
 20
-11.42604183047684
 30
0.0
  0
SEQEND
  5
301
330
2FE
100
AcDbEntity
  8
Livello 1
  0
POLYLINE
  5
302
330
1F
100
AcDbEntity
  8
Livello 1
100
AcDb2dPolyline
 66
     1
 10
0.0
 20
0.0
 30
0.0
  0
VERTEX
  5
303
330
302
100
AcDbEntity
  8
Livello 1
100
AcDbVertex
100
AcDb2dVertex
 10
15.84829648019298
 20
-11.21992788608392
 30
0.0
  0
VERTEX
  5
304
330
302
100
AcDbEntity
  8
Livello 1
100
AcDbVertex
100
AcDb2dVertex
 10
15.8763423128108
 20
-11.21992788608392
 30
0.0
  0
SEQEND
  5
305
330
302
100
AcDbEntity
  8
Livello 1
  0
POLYLINE
  5
306
330
1F
100
AcDbEntity
  8
Livello 1
100
AcDb2dPolyline
 66
     1
 10
0.0
 20
0.0
 30
0.0
  0
VERTEX
  5
307
330
306
100
AcDbEntity
  8
Livello 1
100
AcDbVertex
100
AcDb2dVertex
 10
15.88768764585469
 20
-11.21603321941818
 30
0.0
  0
VERTEX
  5
308
330
306
100
AcDbEntity
  8
Livello 1
100
AcDbVertex
100
AcDb2dVertex
 10
15.88768764585469
 20
-11.03447966390803
 30
0.0
  0
SEQEND
  5
309
330
306
100
AcDbEntity
  8
Livello 1
  0
POLYLINE
  5
30A
330
1F
100
AcDbEntity
  8
Livello 1
100
AcDb2dPolyline
 66
     1
 10
0.0
 20
0.0
 30
0.0
  0
VERTEX
  5
30B
330
30A
100
AcDbEntity
  8
Livello 1
100
AcDbVertex
100
AcDb2dVertex
 10
15.88768764585469
 20
-11.03447966390803
 30
0.0
  0
VERTEX
  5
30C
330
30A
100
AcDbEntity
  8
Livello 1
100
AcDbVertex
100
AcDb2dVertex
 10
12.70639778318231
 20
-11.03447966390803
 30
0.0
  0
SEQEND
  5
30D
330
30A
100
AcDbEntity
  8
Livello 1
  0
POLYLINE
  5
30E
330
1F
100
AcDbEntity
  8
Livello 1
100
AcDb2dPolyline
 66
     1
 10
0.0
 20
0.0
 30
0.0
  0
VERTEX
  5
30F
330
30E
100
AcDbEntity
  8
Livello 1
100
AcDbVertex
100
AcDb2dVertex
 10
12.70639778318231
 20
-11.03447966390803
 30
0.0
  0
VERTEX
  5
310
330
30E
100
AcDbEntity
  8
Livello 1
100
AcDbVertex
100
AcDb2dVertex
 10
12.70639778318231
 20
-11.13473910832742
 30
0.0
  0
VERTEX
  5
311
330
30E
100
AcDbEntity
  8
Livello 1
100
AcDbVertex
100
AcDb2dVertex
 10
12.70088739429478
 20
-11.24805485829912
 30
0.0
  0
SEQEND
  5
312
330
30E
100
AcDbEntity
  8
Livello 1
  0
POLYLINE
  5
313
330
1F
100
AcDbEntity
  8
Livello 1
100
AcDb2dPolyline
 66
     1
 10
0.0
 20
0.0
 30
0.0
  0
VERTEX
  5
314
330
313
100
AcDbEntity
  8
Livello 1
100
AcDbVertex
100
AcDb2dVertex
 10
12.74578894983914
 20
-11.42604183047684
 30
0.0
  0
VERTEX
  5
315
330
313
100
AcDbEntity
  8
Livello 1
100
AcDbVertex
100
AcDb2dVertex
 10
12.68281106096598
 20
-11.42604183047684
 30
0.0
  0
SEQEND
  5
316
330
313
100
AcDbEntity
  8
Livello 1
  0
POLYLINE
  5
317
330
1F
100
AcDbEntity
  8
Livello 1
100
AcDb2dPolyline
 66
     1
 10
0.0
 20
0.0
 30
0.0
  0
VERTEX
  5
318
330
317
100
AcDbEntity
  8
Livello 1
100
AcDbVertex
100
AcDb2dVertex
 10
12.80414544982455
 20
-12.79986785791117
 30
0.0
  0
VERTEX
  5
319
330
317
100
AcDbEntity
  8
Livello 1
100
AcDbVertex
100
AcDb2dVertex
 10
12.81136681093383
 20
-12.79986785791117
 30
0.0
  0
SEQEND
  5
31A
330
317
100
AcDbEntity
  8
Livello 1
  0
POLYLINE
  5
31B
330
1F
100
AcDbEntity
  8
Livello 1
100
AcDb2dPolyline
 66
     1
 10
0.0
 20
0.0
 30
0.0
  0
VERTEX
  5
31C
330
31B
100
AcDbEntity
  8
Livello 1
100
AcDbVertex
100
AcDb2dVertex
 10
15.26634721726196
 20
-12.79986785791117
 30
0.0
  0
VERTEX
  5
31D
330
31B
100
AcDbEntity
  8
Livello 1
100
AcDbVertex
100
AcDb2dVertex
 10
15.27525853254011
 20
-12.79986785791117
 30
0.0
  0
SEQEND
  5
31E
330
31B
100
AcDbEntity
  8
Livello 1
  0
POLYLINE
  5
31F
330
1F
100
AcDbEntity
  8
Livello 1
100
AcDb2dPolyline
 66
     1
 10
0.0
 20
0.0
 30
0.0
  0
VERTEX
  5
320
330
31F
100
AcDbEntity
  8
Livello 1
100
AcDbVertex
100
AcDb2dVertex
 10
15.40851313030167
 20
-12.79986785791117
 30
0.0
  0
VERTEX
  5
321
330
31F
100
AcDbEntity
  8
Livello 1
100
AcDbVertex
100
AcDb2dVertex
 10
15.43720454623636
 20
-12.79986785791117
 30
0.0
  0
SEQEND
  5
322
330
31F
100
AcDbEntity
  8
Livello 1
  0
POLYLINE
  5
323
330
1F
100
AcDbEntity
  8
Livello 1
100
AcDb2dPolyline
 66
     1
 10
0.0
 20
0.0
 30
0.0
  0
VERTEX
  5
324
330
323
100
AcDbEntity
  8
Livello 1
100
AcDbVertex
100
AcDb2dVertex
 10
15.48680157274882
 20
-12.79986785791117
 30
0.0
  0
VERTEX
  5
325
330
323
100
AcDbEntity
  8
Livello 1
100
AcDbVertex
100
AcDb2dVertex
 10
15.51987801634941
 20
-12.79986785791117
 30
0.0
  0
SEQEND
  5
326
330
323
100
AcDbEntity
  8
Livello 1
  0
POLYLINE
  5
327
330
1F
100
AcDbEntity
  8
Livello 1
100
AcDb2dPolyline
 66
     1
 10
0.0
 20
0.0
 30
0.0
  0
VERTEX
  5
328
330
327
100
AcDbEntity
  8
Livello 1
100
AcDbVertex
100
AcDb2dVertex
 10
15.55763934871937
 20
-12.79986785791117
 30
0.0
  0
VERTEX
  5
329
330
327
100
AcDbEntity
  8
Livello 1
100
AcDbVertex
100
AcDb2dVertex
 10
15.57604023713881
 20
-12.79986785791117
 30
0.0
  0
SEQEND
  5
32A
330
327
100
AcDbEntity
  8
Livello 1
  0
POLYLINE
  5
32B
330
1F
100
AcDbEntity
  8
Livello 1
100
AcDb2dPolyline
 66
     1
 10
0.0
 20
0.0
 30
0.0
  0
VERTEX
  5
32C
330
32B
100
AcDbEntity
  8
Livello 1
100
AcDbVertex
100
AcDb2dVertex
 10
15.61835240272601
 20
-12.79986785791117
 30
0.0
  0
VERTEX
  5
32D
330
32B
100
AcDbEntity
  8
Livello 1
100
AcDbVertex
100
AcDb2dVertex
 10
15.62500242134158
 20
-12.79986785791117
 30
0.0
  0
SEQEND
  5
32E
330
32B
100
AcDbEntity
  8
Livello 1
  0
POLYLINE
  5
32F
330
1F
100
AcDbEntity
  8
Livello 1
100
AcDb2dPolyline
 66
     1
 10
0.0
 20
0.0
 30
0.0
  0
VERTEX
  5
330
330
32F
100
AcDbEntity
  8
Livello 1
100
AcDbVertex
100
AcDb2dVertex
 10
15.65068801301217
 20
-12.79986785791117
 30
0.0
  0
VERTEX
  5
331
330
32F
100
AcDbEntity
  8
Livello 1
100
AcDbVertex
100
AcDb2dVertex
 10
15.66560345707609
 20
-12.79986785791117
 30
0.0
  0
SEQEND
  5
332
330
32F
100
AcDbEntity
  8
Livello 1
  0
POLYLINE
  5
333
330
1F
100
AcDbEntity
  8
Livello 1
100
AcDb2dPolyline
 66
     1
 10
0.0
 20
0.0
 30
0.0
  0
VERTEX
  5
334
330
333
100
AcDbEntity
  8
Livello 1
100
AcDbVertex
100
AcDb2dVertex
 10
15.75589692699473
 20
-12.79986785791117
 30
0.0
  0
VERTEX
  5
335
330
333
100
AcDbEntity
  8
Livello 1
100
AcDbVertex
100
AcDb2dVertex
 10
15.76643792672581
 20
-12.79986785791117
 30
0.0
  0
SEQEND
  5
336
330
333
100
AcDbEntity
  8
Livello 1
  0
POLYLINE
  5
337
330
1F
100
AcDbEntity
  8
Livello 1
100
AcDb2dPolyline
 66
     1
 10
0.0
 20
0.0
 30
0.0
  0
VERTEX
  5
338
330
337
100
AcDbEntity
  8
Livello 1
100
AcDbVertex
100
AcDb2dVertex
 10
15.78985884279496
 20
-12.79986785791117
 30
0.0
  0
VERTEX
  5
339
330
337
100
AcDbEntity
  8
Livello 1
100
AcDbVertex
100
AcDb2dVertex
 10
15.79780339814783
 20
-12.79986785791117
 30
0.0
  0
SEQEND
  5
33A
330
337
100
AcDbEntity
  8
Livello 1
  0
POLYLINE
  5
33B
330
1F
100
AcDbEntity
  8
Livello 1
100
AcDb2dPolyline
 66
     1
 10
0.0
 20
0.0
 30
0.0
  0
VERTEX
  5
33C
330
33B
100
AcDbEntity
  8
Livello 1
100
AcDbVertex
100
AcDb2dVertex
 10
15.90965158973879
 20
-12.79986785791117
 30
0.0
  0
VERTEX
  5
33D
330
33B
100
AcDbEntity
  8
Livello 1
100
AcDbVertex
100
AcDb2dVertex
 10
15.91119322858835
 20
-12.79986785791117
 30
0.0
  0
SEQEND
  5
33E
330
33B
100
AcDbEntity
  8
Livello 1
  0
POLYLINE
  5
33F
330
1F
100
AcDbEntity
  8
Livello 1
100
AcDb2dPolyline
 66
     1
 10
0.0
 20
0.0
 30
0.0
  0
VERTEX
  5
340
330
33F
100
AcDbEntity
  8
Livello 1
100
AcDbVertex
100
AcDb2dVertex
 10
15.91119322858835
 20
-11.42604183047684
 30
0.0
  0
VERTEX
  5
341
330
33F
100
AcDbEntity
  8
Livello 1
100
AcDbVertex
100
AcDb2dVertex
 10
15.84829648019298
 20
-11.42604183047684
 30
0.0
  0
SEQEND
  5
342
330
33F
100
AcDbEntity
  8
Livello 1
  0
SPLINE
  5
343
330
1F
100
AcDbEntity
  8
Livello 1
100
AcDbSpline
210
0.0
220
0.0
230
1.0
 70
     8
 71
     3
 72
     8
 73
     4
 74
     0
 42
0.000000001
 43
0.0000000001
 40
0.0
 40
0.0
 40
0.0
 40
0.0
 40
1.0
 40
1.0
 40
1.0
 40
1.0
 10
12.77189097761037
 20
-11.26086069162923
 30
0.0
 10
12.78210036649673
 20
-11.30357149717409
 30
0.0
 10
12.78210036649673
 20
-11.34304380271976
 30
0.0
 10
12.77172517205488
 20
-11.38583927493132
 30
0.0
  0
SPLINE
  5
344
330
1F
100
AcDbEntity
  8
Livello 1
100
AcDbSpline
210
0.0
220
0.0
230
1.0
 70
     8
 71
     3
 72
    11
 73
     7
 74
     0
 42
0.000000001
 43
0.0000000001
 40
0.0
 40
0.0
 40
0.0
 40
0.0
 40
1.0
 40
1.0
 40
1.0
 40
2.0
 40
2.0
 40
2.0
 40
2.0
 10
12.74854414428288
 20
-11.42556205269917
 30
0.0
 10
12.74757400539423
 20
-11.42580194158797
 30
0.0
 10
12.74675908872779
 20
-11.42604183047684
 30
0.0
 10
12.74578894983914
 20
-11.42604183047684
 30
0.0
 10
12.74578894983914
 20
-11.42604183047684
 30
0.0
 10
12.77172517205488
 20
-11.38583927493132
 30
0.0
 10
12.77172517205488
 20
-11.38583927493132
 30
0.0
  0
SPLINE
  5
345
330
1F
100
AcDbEntity
  8
Livello 1
100
AcDbSpline
210
0.0
220
0.0
230
1.0
 70
     8
 71
     3
 72
     8
 73
     4
 74
     0
 42
0.000000001
 43
0.0000000001
 40
0.0
 40
0.0
 40
0.0
 40
0.0
 40
1.0
 40
1.0
 40
1.0
 40
1.0
 10
15.84829648019298
 20
-11.42604183047684
 30
0.0
 10
15.84732634132884
 20
-11.42604183047684
 30
0.0
 10
15.84643028579614
 20
-11.42580194158797
 30
0.0
 10
15.8453754802675
 20
-11.42556205269917
 30
0.0
  0
SPLINE
  5
346
330
1F
100
AcDbEntity
  8
Livello 1
100
AcDbSpline
210
0.0
220
0.0
230
1.0
 70
     8
 71
     3
 72
    11
 73
     7
 74
     0
 42
0.000000001
 43
0.0000000001
 40
0.0
 40
0.0
 40
0.0
 40
0.0
 40
1.0
 40
1.0
 40
1.0
 40
2.0
 40
2.0
 40
2.0
 40
2.0
 10
15.83135609173628
 20
-11.23589460830211
 30
0.0
 10
15.8111736755845
 20
-11.27464019162581
 30
0.0
 10
15.81166050890542
 20
-11.34190785827561
 30
0.0
 10
15.8213901197683
 20
-11.38195519159896
 30
0.0
 10
15.8213901197683
 20
-11.38195519159896
 30
0.0
 10
15.84829648019298
 20
-11.42604183047684
 30
0.0
 10
15.84829648019298
 20
-11.42604183047684
 30
0.0
  0
SPLINE
  5
347
330
1F
100
AcDbEntity
  8
Livello 1
100
AcDbSpline
210
0.0
220
0.0
230
1.0
 70
     8
 71
     3
 72
     8
 73
     4
 74
     0
 42
0.000000001
 43
0.0000000001
 40
0.0
 40
0.0
 40
0.0
 40
0.0
 40
1.0
 40
1.0
 40
1.0
 40
1.0
 10
15.8453754802675
 20
-11.22033358052822
 30
0.0
 10
15.84643028579614
 20
-11.22009369163942
 30
0.0
 10
15.84732634132884
 20
-11.21992788608392
 30
0.0
 10
15.84829648019298
 20
-11.21992788608392
 30
0.0
  0
SPLINE
  5
348
330
1F
100
AcDbEntity
  8
Livello 1
100
AcDbSpline
210
0.0
220
0.0
230
1.0
 70
     8
 71
     3
 72
     8
 73
     4
 74
     0
 42
0.000000001
 43
0.0000000001
 40
0.0
 40
0.0
 40
0.0
 40
0.0
 40
1.0
 40
1.0
 40
1.0
 40
1.0
 10
15.88768764585469
 20
-11.03447966390803
 30
0.0
 10
15.88071675714365
 20
-11.02758991390976
 30
0.0
 10
15.87374234065491
 20
-11.02086596946701
 30
0.0
 10
15.86677145194387
 20
-11.01381041391319
 30
0.0
  0
SPLINE
  5
349
330
1F
100
AcDbEntity
  8
Livello 1
100
AcDbSpline
210
0.0
220
0.0
230
1.0
 70
     8
 71
     3
 72
     8
 73
     4
 74
     0
 42
0.000000001
 43
0.0000000001
 40
0.0
 40
0.0
 40
0.0
 40
0.0
 40
1.0
 40
1.0
 40
1.0
 40
1.0
 10
12.72731397762151
 20
-11.01381041391319
 30
0.0
 10
12.72034308873438
 20
-11.02086596946701
 30
0.0
 10
12.71336867206947
 20
-11.02758991390976
 30
0.0
 10
12.70639778318231
 20
-11.03447966390803
 30
0.0
  0
POLYLINE
  5
34A
330
1F
100
AcDbEntity
  8
Livello 1
100
AcDb2dPolyline
 66
     1
 10
0.0
 20
0.0
 30
0.0
  0
VERTEX
  5
34B
330
34A
100
AcDbEntity
  8
Livello 1
100
AcDbVertex
100
AcDb2dVertex
 10
15.86677145194387
 20
-11.01381041391319
 30
0.0
  0
VERTEX
  5
34C
330
34A
100
AcDbEntity
  8
Livello 1
100
AcDbVertex
100
AcDb2dVertex
 10
12.72731397762151
 20
-11.01381041391319
 30
0.0
  0
SEQEND
  5
34D
330
34A
100
AcDbEntity
  8
Livello 1
  0
SPLINE
  5
34E
330
1F
100
AcDbEntity
  8
Livello 1
100
AcDbSpline
210
0.0
220
0.0
230
1.0
 70
     8
 71
     3
 72
     8
 73
     4
 74
     0
 42
0.000000001
 43
0.0000000001
 40
0.0
 40
0.0
 40
0.0
 40
0.0
 40
1.0
 40
1.0
 40
1.0
 40
1.0
 10
12.70088739429478
 20
-11.24805485829912
 30
0.0
 10
12.71069814429235
 20
-11.25283499718676
 30
0.0
 10
12.72082286651205
 20
-11.25632044163039
 30
0.0
 10
12.73144853317605
 20
-11.25843005274094
 30
0.0
  0
SPLINE
  5
34F
330
1F
100
AcDbEntity
  8
Livello 1
100
AcDbSpline
210
0.0
220
0.0
230
1.0
 70
     8
 71
     3
 72
     8
 73
     4
 74
     0
 42
0.000000001
 43
0.0000000001
 40
0.0
 40
0.0
 40
0.0
 40
0.0
 40
1.0
 40
1.0
 40
1.0
 40
1.0
 10
12.73185422762038
 20
-11.25866994162981
 30
0.0
 10
12.74748933872757
 20
-11.26198958051781
 30
0.0
 10
12.76151578316851
 20
-11.26775044162749
 30
0.0
 10
12.77512947760957
 20
-11.27601602495876
 30
0.0
  0
SPLINE
  5
350
330
1F
100
AcDbEntity
  8
Livello 1
100
AcDbSpline
210
0.0
220
0.0
230
1.0
 70
     8
 71
     3
 72
     8
 73
     4
 74
     0
 42
0.000000001
 43
0.0000000001
 40
0.0
 40
0.0
 40
0.0
 40
0.0
 40
1.0
 40
1.0
 40
1.0
 40
1.0
 10
12.77067036649957
 20
-11.38032535826601
 30
0.0
 10
12.77140061649939
 20
-11.37959510826622
 30
0.0
 10
12.77237428316582
 20
-11.37911533048856
 30
0.0
 10
12.7733550053878
 20
-11.37879077493307
 30
0.0
  0
POLYLINE
  5
351
330
1F
100
AcDbEntity
  8
Livello 1
100
AcDb2dPolyline
 66
     1
 10
0.0
 20
0.0
 30
0.0
  0
VERTEX
  5
352
330
351
100
AcDbEntity
  8
Livello 1
100
AcDbVertex
100
AcDb2dVertex
 10
12.77172517205488
 20
-11.38583927493132
 30
0.0
  0
VERTEX
  5
353
330
351
100
AcDbEntity
  8
Livello 1
100
AcDbVertex
100
AcDb2dVertex
 10
12.77067036649957
 20
-11.38032535826601
 30
0.0
  0
SEQEND
  5
354
330
351
100
AcDbEntity
  8
Livello 1
  0
INSERT
  5
355
330
1F
100
AcDbEntity
  8
Livello 1
100
AcDbBlockReference
  2
block 61
 10
0.0
 20
0.0
 30
0.0
  0
INSERT
  5
356
330
1F
100
AcDbEntity
  8
Livello 1
100
AcDbBlockReference
  2
block 62
 10
0.0
 20
0.0
 30
0.0
  0
INSERT
  5
357
330
1F
100
AcDbEntity
  8
Livello 1
100
AcDbBlockReference
  2
block 63
 10
0.0
 20
0.0
 30
0.0
  0
INSERT
  5
358
330
1F
100
AcDbEntity
  8
Livello 1
100
AcDbBlockReference
  2
block 64
 10
0.0
 20
0.0
 30
0.0
  0
INSERT
  5
359
330
1F
100
AcDbEntity
  8
Livello 1
100
AcDbBlockReference
  2
block 65
 10
0.0
 20
0.0
 30
0.0
  0
INSERT
  5
35A
330
1F
100
AcDbEntity
  8
Livello 1
100
AcDbBlockReference
  2
block 66
 10
0.0
 20
0.0
 30
0.0
  0
INSERT
  5
35B
330
1F
100
AcDbEntity
  8
Livello 1
100
AcDbBlockReference
  2
block 67
 10
0.0
 20
0.0
 30
0.0
  0
INSERT
  5
35C
330
1F
100
AcDbEntity
  8
Livello 1
100
AcDbBlockReference
  2
block 68
 10
0.0
 20
0.0
 30
0.0
  0
INSERT
  5
35D
330
1F
100
AcDbEntity
  8
Livello 1
100
AcDbBlockReference
  2
block 69
 10
0.0
 20
0.0
 30
0.0
  0
INSERT
  5
35E
330
1F
100
AcDbEntity
  8
Livello 1
100
AcDbBlockReference
  2
block 71
 10
0.0
 20
0.0
 30
0.0
  0
INSERT
  5
35F
330
1F
100
AcDbEntity
  8
Livello 1
100
AcDbBlockReference
  2
block 72
 10
0.0
 20
0.0
 30
0.0
  0
INSERT
  5
360
330
1F
100
AcDbEntity
  8
Livello 1
100
AcDbBlockReference
  2
block 73
 10
0.0
 20
0.0
 30
0.0
  0
INSERT
  5
361
330
1F
100
AcDbEntity
  8
Livello 1
100
AcDbBlockReference
  2
block 74
 10
0.0
 20
0.0
 30
0.0
  0
INSERT
  5
362
330
1F
100
AcDbEntity
  8
Livello 1
100
AcDbBlockReference
  2
block 75
 10
0.0
 20
0.0
 30
0.0
  0
INSERT
  5
363
330
1F
100
AcDbEntity
  8
Livello 1
100
AcDbBlockReference
  2
block 76
 10
0.0
 20
0.0
 30
0.0
  0
INSERT
  5
364
330
1F
100
AcDbEntity
  8
Livello 1
100
AcDbBlockReference
  2
block 77
 10
0.0
 20
0.0
 30
0.0
  0
INSERT
  5
365
330
1F
100
AcDbEntity
  8
Livello 1
100
AcDbBlockReference
  2
block 78
 10
0.0
 20
0.0
 30
0.0
  0
INSERT
  5
366
330
1F
100
AcDbEntity
  8
Livello 1
100
AcDbBlockReference
  2
block 79
 10
0.0
 20
0.0
 30
0.0
  0
LINE
  5
367
330
1F
100
AcDbEntity
  8
Livello 1
100
AcDbLine
 10
16.20314152669568
 20
-14.71029357965579
 30
0.0
 11
12.39078514437232
 21
-14.71029357965579
 31
0.0
  0
LINE
  5
368
330
1F
100
AcDbEntity
  8
Livello 1
100
AcDbLine
 10
12.39078514437232
 20
-14.71029357965579
 30
0.0
 11
12.39078514437232
 21
-14.81027080185298
 31
0.0
  0
LINE
  5
369
330
1F
100
AcDbEntity
  8
Livello 1
100
AcDbLine
 10
12.39078514437232
 20
-14.81027080185298
 30
0.0
 11
16.20314152669568
 21
-14.81027080185298
 31
0.0
  0
LINE
  5
36A
330
1F
100
AcDbEntity
  8
Livello 1
100
AcDbLine
 10
16.20314152669568
 20
-14.81027080185298
 30
0.0
 11
16.20314152669568
 21
-14.71029357965579
 31
0.0
  0
LINE
  5
36B
330
1F
100
AcDbEntity
  8
Livello 1
100
AcDbLine
 10
16.85929935717792
 20
-6.119493822544199
 30
0.0
 11
16.85929935717792
 21
-9.905621349375445
 31
0.0
  0
LINE
  5
36C
330
1F
100
AcDbEntity
  8
Livello 1
100
AcDbLine
 10
20.24944443938208
 20
-10.88200807297254
 30
0.0
 11
20.24944443938208
 21
-14.81027080185298
 31
0.0
  0
SPLINE
  5
36D
330
1F
100
AcDbEntity
  8
Livello 1
100
AcDbSpline
210
0.0
220
0.0
230
1.0
 70
     9
 71
     3
 72
    38
 73
    34
 74
     0
 42
0.000000001
 43
0.0000000001
 40
0.0
 40
0.0
 40
0.0
 40
0.0
 40
1.0
 40
1.0
 40
1.0
 40
2.0
 40
2.0
 40
2.0
 40
3.0
 40
3.0
 40
3.0
 40
4.0
 40
4.0
 40
4.0
 40
5.0
 40
5.0
 40
5.0
 40
6.0
 40
6.0
 40
6.0
 40
7.0
 40
7.0
 40
7.0
 40
8.0
 40
8.0
 40
8.0
 40
9.0
 40
9.0
 40
9.0
 40
10.0
 40
10.0
 40
10.0
 40
11.0
 40
11.0
 40
11.0
 40
11.0
 10
17.11730142801234
 20
-8.833982745187338
 30
0.0
 10
17.11654350700558
 20
-8.847315264715254
 30
0.0
 10
17.11730142801234
 20
-8.86436848736724
 30
0.0
 10
17.12026421012965
 20
-8.882868650123032
 30
0.0
 10
17.13728298182679
 20
-8.985084633170394
 30
0.0
 10
17.21211045576641
 20
-9.039172632288817
 30
0.0
 10
17.29134765192716
 20
-9.050265839751322
 30
0.0
 10
17.29134765192716
 20
-9.050265839751322
 30
0.0
 10
17.29134765192716
 20
-9.048060978640764
 30
0.0
 10
17.29134765192716
 20
-9.048060978640764
 30
0.0
 10
17.26099636070211
 20
-9.025082191754146
 30
0.0
 10
17.23581271270493
 20
-8.985084633170394
 30
0.0
 10
17.23581271270493
 20
-8.931754555058725
 30
0.0
 10
17.23581271270493
 20
-8.846591794663352
 30
0.0
 10
17.29727321616179
 20
-8.786578231310299
 30
0.0
 10
17.39135877386396
 20
-8.786578231310299
 30
0.0
 10
17.47948431637666
 20
-8.786578231310299
 30
0.0
 10
17.56096082460281
 20
-8.846591794663352
 30
0.0
 10
17.56096082460281
 20
-8.946568465645301
 30
0.0
 10
17.56096082460281
 20
-9.049507918744568
 30
0.0
 10
17.48096570743531
 20
-9.116928437390903
 30
0.0
 10
17.35580538845619
 20
-9.116928437390903
 30
0.0
 10
17.26099636070211
 20
-9.116928437390903
 30
0.0
 10
17.18616888676248
 20
-9.082856443041787
 30
0.0
 10
17.13876437288545
 20
-9.035451929164748
 30
0.0
 10
17.09952473530845
 20
-8.995454370580997
 30
0.0
 10
17.07506455736317
 20
-8.94212429246933
 30
0.0
 10
17.06765760206989
 20
-8.881387259064375
 30
0.0
 10
17.06469481995257
 20
-8.862129175301827
 30
0.0
 10
17.06397134990067
 20
-8.845833873656596
 30
0.0
 10
17.06397134990067
 20
-8.833982745187338
 30
0.0
 10
17.06397134990067
 20
-8.833982745187338
 30
0.0
 10
17.11730142801234
 20
-8.833982745187338
 30
0.0
 10
17.11730142801234
 20
-8.833982745187338
 30
0.0
  0
SPLINE
  5
36E
330
1F
100
AcDbEntity
  8
Livello 1
100
AcDbSpline
210
0.0
220
0.0
230
1.0
 70
     9
 71
     3
 72
    20
 73
    16
 74
     0
 42
0.000000001
 43
0.0000000001
 40
0.0
 40
0.0
 40
0.0
 40
0.0
 40
1.0
 40
1.0
 40
1.0
 40
2.0
 40
2.0
 40
2.0
 40
3.0
 40
3.0
 40
3.0
 40
4.0
 40
4.0
 40
4.0
 40
5.0
 40
5.0
 40
5.0
 40
5.0
 10
17.39504502603318
 20
-8.85251735889798
 30
0.0
 10
17.32617756728304
 20
-8.85251735889798
 30
0.0
 10
17.28469861764063
 20
-8.891756996474976
 30
0.0
 10
17.28469861764063
 20
-8.951736108873175
 30
0.0
 10
17.28469861764063
 20
-8.991010197405026
 30
0.0
 10
17.30912434463105
 20
-9.027321503819555
 30
0.0
 10
17.34395425998693
 20
-9.045098196523447
 30
0.0
 10
17.35136121528021
 20
-9.049507918744568
 30
0.0
 10
17.36097303168406
 20
-9.052470700861883
 30
0.0
 10
17.37282416015332
 20
-9.052470700861883
 30
0.0
 10
17.45209580726892
 20
-9.051023760758075
 30
0.0
 10
17.51059352860846
 20
-9.014712454343543
 30
0.0
 10
17.51059352860846
 20
-8.946568465645301
 30
0.0
 10
17.51059352860846
 20
-8.890275605416318
 30
0.0
 10
17.46394693573818
 20
-8.85251735889798
 30
0.0
 10
17.39504502603318
 20
-8.85251735889798
 30
0.0
  0
HATCH
  5
36F
330
1F
100
AcDbEntity
  8
Livello 1
100
AcDbHatch
 10
0.0
 20
0.0
 30
0.0
210
0.0
220
0.0
230
1.0
  2
SOLID
 70
     1
 71
     0
 91
        2
 92
        1
 93
        1
 72
     4
 94
        3
 73
     0
 74
     0
 95
       38
 96
       34
 40
0.0
 40
0.0
 40
0.0
 40
0.0
 40
1.0
 40
1.0
 40
1.0
 40
2.0
 40
2.0
 40
2.0
 40
3.0
 40
3.0
 40
3.0
 40
4.0
 40
4.0
 40
4.0
 40
5.0
 40
5.0
 40
5.0
 40
6.0
 40
6.0
 40
6.0
 40
7.0
 40
7.0
 40
7.0
 40
8.0
 40
8.0
 40
8.0
 40
9.0
 40
9.0
 40
9.0
 40
10.0
 40
10.0
 40
10.0
 40
11.0
 40
11.0
 40
11.0
 40
11.0
 10
17.11730142801234
 20
-8.833982745187338
 10
17.11654350700558
 20
-8.847315264715254
 10
17.11730142801234
 20
-8.86436848736724
 10
17.12026421012965
 20
-8.882868650123032
 10
17.13728298182679
 20
-8.985084633170394
 10
17.21211045576641
 20
-9.039172632288817
 10
17.29134765192716
 20
-9.050265839751322
 10
17.29134765192716
 20
-9.050265839751322
 10
17.29134765192716
 20
-9.048060978640764
 10
17.29134765192716
 20
-9.048060978640764
 10
17.26099636070211
 20
-9.025082191754146
 10
17.23581271270493
 20
-8.985084633170394
 10
17.23581271270493
 20
-8.931754555058725
 10
17.23581271270493
 20
-8.846591794663352
 10
17.29727321616179
 20
-8.786578231310299
 10
17.39135877386396
 20
-8.786578231310299
 10
17.47948431637666
 20
-8.786578231310299
 10
17.56096082460281
 20
-8.846591794663352
 10
17.56096082460281
 20
-8.946568465645301
 10
17.56096082460281
 20
-9.049507918744568
 10
17.48096570743531
 20
-9.116928437390903
 10
17.35580538845619
 20
-9.116928437390903
 10
17.26099636070211
 20
-9.116928437390903
 10
17.18616888676248
 20
-9.082856443041787
 10
17.13876437288545
 20
-9.035451929164748
 10
17.09952473530845
 20
-8.995454370580997
 10
17.07506455736317
 20
-8.94212429246933
 10
17.06765760206989
 20
-8.881387259064375
 10
17.06469481995257
 20
-8.862129175301827
 10
17.06397134990067
 20
-8.845833873656596
 10
17.06397134990067
 20
-8.833982745187338
 10
17.06397134990067
 20
-8.833982745187338
 10
17.11730142801234
 20
-8.833982745187338
 10
17.11730142801234
 20
-8.833982745187338
 97
        0
 97
        0
 92
        1
 93
        1
 72
     4
 94
        3
 73
     0
 74
     0
 95
       20
 96
       16
 40
0.0
 40
0.0
 40
0.0
 40
0.0
 40
1.0
 40
1.0
 40
1.0
 40
2.0
 40
2.0
 40
2.0
 40
3.0
 40
3.0
 40
3.0
 40
4.0
 40
4.0
 40
4.0
 40
5.0
 40
5.0
 40
5.0
 40
5.0
 10
17.39504502603318
 20
-8.85251735889798
 10
17.32617756728304
 20
-8.85251735889798
 10
17.28469861764063
 20
-8.891756996474976
 10
17.28469861764063
 20
-8.951736108873175
 10
17.28469861764063
 20
-8.991010197405026
 10
17.30912434463105
 20
-9.027321503819555
 10
17.34395425998693
 20
-9.045098196523447
 10
17.35136121528021
 20
-9.049507918744568
 10
17.36097303168406
 20
-9.052470700861883
 10
17.37282416015332
 20
-9.052470700861883
 10
17.45209580726892
 20
-9.051023760758075
 10
17.51059352860846
 20
-9.014712454343543
 10
17.51059352860846
 20
-8.946568465645301
 10
17.51059352860846
 20
-8.890275605416318
 10
17.46394693573818
 20
-8.85251735889798
 10
17.39504502603318
 20
-8.85251735889798
 97
        0
 97
        0
 75
     2
 76
     1
 98
        0
450
        0
451
        0
460
0.0
461
0.0
452
        0
462
0.0
453
        0
470

  0
SPLINE
  5
370
330
1F
100
AcDbEntity
  8
Livello 1
100
AcDbSpline
210
0.0
220
0.0
230
1.0
 70
     9
 71
     3
 72
    17
 73
    13
 74
     0
 42
0.000000001
 43
0.0000000001
 40
0.0
 40
0.0
 40
0.0
 40
0.0
 40
1.0
 40
1.0
 40
1.0
 40
2.0
 40
2.0
 40
2.0
 40
3.0
 40
3.0
 40
3.0
 40
4.0
 40
4.0
 40
4.0
 40
4.0
 10
17.30691948352049
 20
-8.408789060397802
 30
0.0
 10
17.47059597002471
 20
-8.408789060397802
 30
0.0
 10
17.56096082460281
 20
-8.469491642847902
 30
0.0
 10
17.56096082460281
 20
-8.576151799071238
 30
0.0
 10
17.56096082460281
 20
-8.670237356773412
 30
0.0
 10
17.47283528209012
 20
-8.73393717229568
 30
0.0
 10
17.31356851780702
 20
-8.735418563354338
 30
0.0
 10
17.15209689241335
 20
-8.735418563354338
 30
0.0
 10
17.06321342889392
 20
-8.66579318359744
 30
0.0
 10
17.06321342889392
 20
-8.568021373726049
 30
0.0
 10
17.06321342889392
 20
-8.466528860730589
 30
0.0
 10
17.15357828347202
 20
-8.408789060397802
 30
0.0
 10
17.30691948352049
 20
-8.408789060397802
 30
0.0
  0
SPLINE
  5
371
330
1F
100
AcDbEntity
  8
Livello 1
100
AcDbSpline
210
0.0
220
0.0
230
1.0
 70
     9
 71
     3
 72
    17
 73
    13
 74
     0
 42
0.000000001
 43
0.0000000001
 40
0.0
 40
0.0
 40
0.0
 40
0.0
 40
1.0
 40
1.0
 40
1.0
 40
2.0
 40
2.0
 40
2.0
 40
3.0
 40
3.0
 40
3.0
 40
4.0
 40
4.0
 40
4.0
 40
4.0
 10
17.31432643881378
 20
-8.670237356773412
 30
0.0
 10
17.43948675779291
 20
-8.670237356773412
 30
0.0
 10
17.51059352860846
 20
-8.631721189248318
 30
0.0
 10
17.51059352860846
 20
-8.572465546902021
 30
0.0
 10
17.51059352860846
 20
-8.505802949262438
 30
0.0
 10
17.43283772350637
 20
-8.473970266978728
 30
0.0
 10
17.30988226563781
 20
-8.473970266978728
 30
0.0
 10
17.19137098094521
 20
-8.473970266978728
 30
0.0
 10
17.11358072488827
 20
-8.50432155820378
 30
0.0
 10
17.11358072488827
 20
-8.571742076850119
 30
0.0
 10
17.11358072488827
 20
-8.628758407131003
 30
0.0
 10
17.18320610464517
 20
-8.670237356773412
 30
0.0
 10
17.31432643881378
 20
-8.670237356773412
 30
0.0
  0
HATCH
  5
372
330
1F
100
AcDbEntity
  8
Livello 1
100
AcDbHatch
 10
0.0
 20
0.0
 30
0.0
210
0.0
220
0.0
230
1.0
  2
SOLID
 70
     1
 71
     0
 91
        2
 92
        1
 93
        1
 72
     4
 94
        3
 73
     0
 74
     0
 95
       17
 96
       13
 40
0.0
 40
0.0
 40
0.0
 40
0.0
 40
1.0
 40
1.0
 40
1.0
 40
2.0
 40
2.0
 40
2.0
 40
3.0
 40
3.0
 40
3.0
 40
4.0
 40
4.0
 40
4.0
 40
4.0
 10
17.30691948352049
 20
-8.408789060397802
 10
17.47059597002471
 20
-8.408789060397802
 10
17.56096082460281
 20
-8.469491642847902
 10
17.56096082460281
 20
-8.576151799071238
 10
17.56096082460281
 20
-8.670237356773412
 10
17.47283528209012
 20
-8.73393717229568
 10
17.31356851780702
 20
-8.735418563354338
 10
17.15209689241335
 20
-8.735418563354338
 10
17.06321342889392
 20
-8.66579318359744
 10
17.06321342889392
 20
-8.568021373726049
 10
17.06321342889392
 20
-8.466528860730589
 10
17.15357828347202
 20
-8.408789060397802
 10
17.30691948352049
 20
-8.408789060397802
 97
        0
 97
        0
 92
        1
 93
        1
 72
     4
 94
        3
 73
     0
 74
     0
 95
       17
 96
       13
 40
0.0
 40
0.0
 40
0.0
 40
0.0
 40
1.0
 40
1.0
 40
1.0
 40
2.0
 40
2.0
 40
2.0
 40
3.0
 40
3.0
 40
3.0
 40
4.0
 40
4.0
 40
4.0
 40
4.0
 10
17.31432643881378
 20
-8.670237356773412
 10
17.43948675779291
 20
-8.670237356773412
 10
17.51059352860846
 20
-8.631721189248318
 10
17.51059352860846
 20
-8.572465546902021
 10
17.51059352860846
 20
-8.505802949262438
 10
17.43283772350637
 20
-8.473970266978728
 10
17.30988226563781
 20
-8.473970266978728
 10
17.19137098094521
 20
-8.473970266978728
 10
17.11358072488827
 20
-8.50432155820378
 10
17.11358072488827
 20
-8.571742076850119
 10
17.11358072488827
 20
-8.628758407131003
 10
17.18320610464517
 20
-8.670237356773412
 10
17.31432643881378
 20
-8.670237356773412
 97
        0
 97
        0
 75
     2
 76
     1
 98
        0
450
        0
451
        0
460
0.0
461
0.0
452
        0
462
0.0
453
        0
470

  0
SPLINE
  5
373
330
1F
100
AcDbEntity
  8
Livello 1
100
AcDbSpline
210
0.0
220
0.0
230
1.0
 70
     9
 71
     3
 72
    80
 73
    76
 74
     0
 42
0.000000001
 43
0.0000000001
 40
0.0
 40
0.0
 40
0.0
 40
0.0
 40
1.0
 40
1.0
 40
1.0
 40
2.0
 40
2.0
 40
2.0
 40
3.0
 40
3.0
 40
3.0
 40
4.0
 40
4.0
 40
4.0
 40
5.0
 40
5.0
 40
5.0
 40
6.0
 40
6.0
 40
6.0
 40
7.0
 40
7.0
 40
7.0
 40
8.0
 40
8.0
 40
8.0
 40
9.0
 40
9.0
 40
9.0
 40
10.0
 40
10.0
 40
10.0
 40
11.0
 40
11.0
 40
11.0
 40
12.0
 40
12.0
 40
12.0
 40
13.0
 40
13.0
 40
13.0
 40
14.0
 40
14.0
 40
14.0
 40
15.0
 40
15.0
 40
15.0
 40
16.0
 40
16.0
 40
16.0
 40
17.0
 40
17.0
 40
17.0
 40
18.0
 40
18.0
 40
18.0
 40
19.0
 40
19.0
 40
19.0
 40
20.0
 40
20.0
 40
20.0
 40
21.0
 40
21.0
 40
21.0
 40
22.0
 40
22.0
 40
22.0
 40
23.0
 40
23.0
 40
23.0
 40
24.0
 40
24.0
 40
24.0
 40
25.0
 40
25.0
 40
25.0
 40
25.0
 10
17.29134765192716
 20
-8.170939668096153
 30
0.0
 10
17.25431287546073
 20
-8.170939668096153
 30
0.0
 10
17.22396158423567
 20
-8.171663138148055
 30
0.0
 10
17.19433376306253
 20
-8.173902450213468
 30
0.0
 10
17.19433376306253
 20
-8.173902450213468
 30
0.0
 10
17.19433376306253
 20
-8.11685166897773
 30
0.0
 10
17.19433376306253
 20
-8.11685166897773
 30
0.0
 10
17.19433376306253
 20
-8.11685166897773
 30
0.0
 10
17.25210801435017
 20
-8.113888886860415
 30
0.0
 10
17.25210801435017
 20
-8.113888886860415
 30
0.0
 10
17.25210801435017
 20
-8.113888886860415
 30
0.0
 10
17.25210801435017
 20
-8.111684025749855
 30
0.0
 10
17.25210801435017
 20
-8.111684025749855
 30
0.0
 10
17.21803602000104
 20
-8.091668020980554
 30
0.0
 10
17.18616888676248
 20
-8.058353947638188
 30
0.0
 10
17.18616888676248
 20
-7.999098305291891
 30
0.0
 10
17.18616888676248
 20
-7.950177949401344
 30
0.0
 10
17.21579670793563
 20
-7.913177623889759
 30
0.0
 10
17.2580335785848
 20
-7.897605792296432
 30
0.0
 10
17.2580335785848
 20
-7.897605792296432
 30
0.0
 10
17.2580335785848
 20
-7.896124401237774
 30
0.0
 10
17.2580335785848
 20
-7.896124401237774
 30
0.0
 10
17.23801757381549
 20
-7.884996742820417
 30
0.0
 10
17.22248019317702
 20
-7.870940753240597
 30
0.0
 10
17.21135253475966
 20
-7.856126842654023
 30
0.0
 10
17.19505723311443
 20
-7.834629446826065
 30
0.0
 10
17.18616888676248
 20
-7.810927189887545
 30
0.0
 10
17.18616888676248
 20
-7.776889646493277
 30
0.0
 10
17.18616888676248
 20
-7.729485132616238
 30
0.0
 10
17.21727809899429
 20
-7.659101831852584
 30
0.0
 10
17.34171494792151
 20
-7.659101831852584
 30
0.0
 10
17.34171494792151
 20
-7.659101831852584
 30
0.0
 10
17.55283039925763
 20
-7.659101831852584
 30
0.0
 10
17.55283039925763
 20
-7.659101831852584
 30
0.0
 10
17.55283039925763
 20
-7.659101831852584
 30
0.0
 10
17.55283039925763
 20
-7.722801647374855
 30
0.0
 10
17.55283039925763
 20
-7.722801647374855
 30
0.0
 10
17.55283039925763
 20
-7.722801647374855
 30
0.0
 10
17.34987982422156
 20
-7.722801647374855
 30
0.0
 10
17.34987982422156
 20
-7.722801647374855
 30
0.0
 10
17.28097791451656
 20
-7.722801647374855
 30
0.0
 10
17.23949896487415
 20
-7.74798529537203
 30
0.0
 10
17.23949896487415
 20
-7.800591903431795
 30
0.0
 10
17.23949896487415
 20
-7.837592228943378
 30
0.0
 10
17.26692192493674
 20
-7.866496580064624
 30
0.0
 10
17.29875460722045
 20
-7.877624238481982
 30
0.0
 10
17.30764295357239
 20
-7.880587020599297
 30
0.0
 10
17.31949408204165
 20
-7.882791881709857
 30
0.0
 10
17.33134521051091
 20
-7.882791881709857
 30
0.0
 10
17.33134521051091
 20
-7.882791881709857
 30
0.0
 10
17.55283039925763
 20
-7.882791881709857
 30
0.0
 10
17.55283039925763
 20
-7.882791881709857
 30
0.0
 10
17.55283039925763
 20
-7.882791881709857
 30
0.0
 10
17.55283039925763
 20
-7.946491697232126
 30
0.0
 10
17.55283039925763
 20
-7.946491697232126
 30
0.0
 10
17.55283039925763
 20
-7.946491697232126
 30
0.0
 10
17.3380286957523
 20
-7.946491697232126
 30
0.0
 10
17.3380286957523
 20
-7.946491697232126
 30
0.0
 10
17.28097791451656
 20
-7.946491697232126
 30
0.0
 10
17.23949896487415
 20
-7.971675345229302
 30
0.0
 10
17.23949896487415
 20
-8.0212847202169
 30
0.0
 10
17.23949896487415
 20
-8.062040199807405
 30
0.0
 10
17.27208956816461
 20
-8.091668020980554
 30
0.0
 10
17.30468017145508
 20
-8.102037758391157
 30
0.0
 10
17.31432643881378
 20
-8.105758461515225
 30
0.0
 10
17.32541964627628
 20
-8.107205401619031
 30
0.0
 10
17.33654730469364
 20
-8.107205401619031
 30
0.0
 10
17.33654730469364
 20
-8.107205401619031
 30
0.0
 10
17.55283039925763
 20
-8.107205401619031
 30
0.0
 10
17.55283039925763
 20
-8.107205401619031
 30
0.0
 10
17.55283039925763
 20
-8.107205401619031
 30
0.0
 10
17.55283039925763
 20
-8.170939668096153
 30
0.0
 10
17.55283039925763
 20
-8.170939668096153
 30
0.0
 10
17.55283039925763
 20
-8.170939668096153
 30
0.0
 10
17.29134765192716
 20
-8.170939668096153
 30
0.0
 10
17.29134765192716
 20
-8.170939668096153
 30
0.0
  0
HATCH
  5
374
330
1F
100
AcDbEntity
  8
Livello 1
100
AcDbHatch
 10
0.0
 20
0.0
 30
0.0
210
0.0
220
0.0
230
1.0
  2
SOLID
 70
     1
 71
     0
 91
        1
 92
        1
 93
        1
 72
     4
 94
        3
 73
     0
 74
     0
 95
       80
 96
       76
 40
0.0
 40
0.0
 40
0.0
 40
0.0
 40
1.0
 40
1.0
 40
1.0
 40
2.0
 40
2.0
 40
2.0
 40
3.0
 40
3.0
 40
3.0
 40
4.0
 40
4.0
 40
4.0
 40
5.0
 40
5.0
 40
5.0
 40
6.0
 40
6.0
 40
6.0
 40
7.0
 40
7.0
 40
7.0
 40
8.0
 40
8.0
 40
8.0
 40
9.0
 40
9.0
 40
9.0
 40
10.0
 40
10.0
 40
10.0
 40
11.0
 40
11.0
 40
11.0
 40
12.0
 40
12.0
 40
12.0
 40
13.0
 40
13.0
 40
13.0
 40
14.0
 40
14.0
 40
14.0
 40
15.0
 40
15.0
 40
15.0
 40
16.0
 40
16.0
 40
16.0
 40
17.0
 40
17.0
 40
17.0
 40
18.0
 40
18.0
 40
18.0
 40
19.0
 40
19.0
 40
19.0
 40
20.0
 40
20.0
 40
20.0
 40
21.0
 40
21.0
 40
21.0
 40
22.0
 40
22.0
 40
22.0
 40
23.0
 40
23.0
 40
23.0
 40
24.0
 40
24.0
 40
24.0
 40
25.0
 40
25.0
 40
25.0
 40
25.0
 10
17.29134765192716
 20
-8.170939668096153
 10
17.25431287546073
 20
-8.170939668096153
 10
17.22396158423567
 20
-8.171663138148055
 10
17.19433376306253
 20
-8.173902450213468
 10
17.19433376306253
 20
-8.173902450213468
 10
17.19433376306253
 20
-8.11685166897773
 10
17.19433376306253
 20
-8.11685166897773
 10
17.19433376306253
 20
-8.11685166897773
 10
17.25210801435017
 20
-8.113888886860415
 10
17.25210801435017
 20
-8.113888886860415
 10
17.25210801435017
 20
-8.113888886860415
 10
17.25210801435017
 20
-8.111684025749855
 10
17.25210801435017
 20
-8.111684025749855
 10
17.21803602000104
 20
-8.091668020980554
 10
17.18616888676248
 20
-8.058353947638188
 10
17.18616888676248
 20
-7.999098305291891
 10
17.18616888676248
 20
-7.950177949401344
 10
17.21579670793563
 20
-7.913177623889759
 10
17.2580335785848
 20
-7.897605792296432
 10
17.2580335785848
 20
-7.897605792296432
 10
17.2580335785848
 20
-7.896124401237774
 10
17.2580335785848
 20
-7.896124401237774
 10
17.23801757381549
 20
-7.884996742820417
 10
17.22248019317702
 20
-7.870940753240597
 10
17.21135253475966
 20
-7.856126842654023
 10
17.19505723311443
 20
-7.834629446826065
 10
17.18616888676248
 20
-7.810927189887545
 10
17.18616888676248
 20
-7.776889646493277
 10
17.18616888676248
 20
-7.729485132616238
 10
17.21727809899429
 20
-7.659101831852584
 10
17.34171494792151
 20
-7.659101831852584
 10
17.34171494792151
 20
-7.659101831852584
 10
17.55283039925763
 20
-7.659101831852584
 10
17.55283039925763
 20
-7.659101831852584
 10
17.55283039925763
 20
-7.659101831852584
 10
17.55283039925763
 20
-7.722801647374855
 10
17.55283039925763
 20
-7.722801647374855
 10
17.55283039925763
 20
-7.722801647374855
 10
17.34987982422156
 20
-7.722801647374855
 10
17.34987982422156
 20
-7.722801647374855
 10
17.28097791451656
 20
-7.722801647374855
 10
17.23949896487415
 20
-7.74798529537203
 10
17.23949896487415
 20
-7.800591903431795
 10
17.23949896487415
 20
-7.837592228943378
 10
17.26692192493674
 20
-7.866496580064624
 10
17.29875460722045
 20
-7.877624238481982
 10
17.30764295357239
 20
-7.880587020599297
 10
17.31949408204165
 20
-7.882791881709857
 10
17.33134521051091
 20
-7.882791881709857
 10
17.33134521051091
 20
-7.882791881709857
 10
17.55283039925763
 20
-7.882791881709857
 10
17.55283039925763
 20
-7.882791881709857
 10
17.55283039925763
 20
-7.882791881709857
 10
17.55283039925763
 20
-7.946491697232126
 10
17.55283039925763
 20
-7.946491697232126
 10
17.55283039925763
 20
-7.946491697232126
 10
17.3380286957523
 20
-7.946491697232126
 10
17.3380286957523
 20
-7.946491697232126
 10
17.28097791451656
 20
-7.946491697232126
 10
17.23949896487415
 20
-7.971675345229302
 10
17.23949896487415
 20
-8.0212847202169
 10
17.23949896487415
 20
-8.062040199807405
 10
17.27208956816461
 20
-8.091668020980554
 10
17.30468017145508
 20
-8.102037758391157
 10
17.31432643881378
 20
-8.105758461515225
 10
17.32541964627628
 20
-8.107205401619031
 10
17.33654730469364
 20
-8.107205401619031
 10
17.33654730469364
 20
-8.107205401619031
 10
17.55283039925763
 20
-8.107205401619031
 10
17.55283039925763
 20
-8.107205401619031
 10
17.55283039925763
 20
-8.107205401619031
 10
17.55283039925763
 20
-8.170939668096153
 10
17.55283039925763
 20
-8.170939668096153
 10
17.55283039925763
 20
-8.170939668096153
 10
17.29134765192716
 20
-8.170939668096153
 10
17.29134765192716
 20
-8.170939668096153
 97
        0
 97
        0
 75
     2
 76
     1
 98
        0
450
        0
451
        0
460
0.0
461
0.0
452
        0
462
0.0
453
        0
470

  0
SPLINE
  5
375
330
1F
100
AcDbEntity
  8
Livello 1
100
AcDbSpline
210
0.0
220
0.0
230
1.0
 70
     9
 71
     3
 72
    80
 73
    76
 74
     0
 42
0.000000001
 43
0.0000000001
 40
0.0
 40
0.0
 40
0.0
 40
0.0
 40
1.0
 40
1.0
 40
1.0
 40
2.0
 40
2.0
 40
2.0
 40
3.0
 40
3.0
 40
3.0
 40
4.0
 40
4.0
 40
4.0
 40
5.0
 40
5.0
 40
5.0
 40
6.0
 40
6.0
 40
6.0
 40
7.0
 40
7.0
 40
7.0
 40
8.0
 40
8.0
 40
8.0
 40
9.0
 40
9.0
 40
9.0
 40
10.0
 40
10.0
 40
10.0
 40
11.0
 40
11.0
 40
11.0
 40
12.0
 40
12.0
 40
12.0
 40
13.0
 40
13.0
 40
13.0
 40
14.0
 40
14.0
 40
14.0
 40
15.0
 40
15.0
 40
15.0
 40
16.0
 40
16.0
 40
16.0
 40
17.0
 40
17.0
 40
17.0
 40
18.0
 40
18.0
 40
18.0
 40
19.0
 40
19.0
 40
19.0
 40
20.0
 40
20.0
 40
20.0
 40
21.0
 40
21.0
 40
21.0
 40
22.0
 40
22.0
 40
22.0
 40
23.0
 40
23.0
 40
23.0
 40
24.0
 40
24.0
 40
24.0
 40
25.0
 40
25.0
 40
25.0
 40
25.0
 10
17.29134765192716
 20
-7.553096243771446
 30
0.0
 10
17.25431287546073
 20
-7.553096243771446
 30
0.0
 10
17.22396158423567
 20
-7.553819713823349
 30
0.0
 10
17.19433376306253
 20
-7.556059025888762
 30
0.0
 10
17.19433376306253
 20
-7.556059025888762
 30
0.0
 10
17.19433376306253
 20
-7.499008244653025
 30
0.0
 10
17.19433376306253
 20
-7.499008244653025
 30
0.0
 10
17.19433376306253
 20
-7.499008244653025
 30
0.0
 10
17.25210801435017
 20
-7.496045462535711
 30
0.0
 10
17.25210801435017
 20
-7.496045462535711
 30
0.0
 10
17.25210801435017
 20
-7.496045462535711
 30
0.0
 10
17.25210801435017
 20
-7.493840601425151
 30
0.0
 10
17.25210801435017
 20
-7.493840601425151
 30
0.0
 10
17.21803602000104
 20
-7.473824596655849
 30
0.0
 10
17.18616888676248
 20
-7.440510523313482
 30
0.0
 10
17.18616888676248
 20
-7.381254880967186
 30
0.0
 10
17.18616888676248
 20
-7.332334525076637
 30
0.0
 10
17.21579670793563
 20
-7.295334199565053
 30
0.0
 10
17.2580335785848
 20
-7.279762367971726
 30
0.0
 10
17.2580335785848
 20
-7.279762367971726
 30
0.0
 10
17.2580335785848
 20
-7.278280976913067
 30
0.0
 10
17.2580335785848
 20
-7.278280976913067
 30
0.0
 10
17.23801757381549
 20
-7.267153318495711
 30
0.0
 10
17.22248019317702
 20
-7.253097328915893
 30
0.0
 10
17.21135253475966
 20
-7.238283418329317
 30
0.0
 10
17.19505723311443
 20
-7.216786022501358
 30
0.0
 10
17.18616888676248
 20
-7.193083765562838
 30
0.0
 10
17.18616888676248
 20
-7.159046222168571
 30
0.0
 10
17.18616888676248
 20
-7.111641708291534
 30
0.0
 10
17.21727809899429
 20
-7.041258407527879
 30
0.0
 10
17.34171494792151
 20
-7.041258407527879
 30
0.0
 10
17.34171494792151
 20
-7.041258407527879
 30
0.0
 10
17.55283039925763
 20
-7.041258407527879
 30
0.0
 10
17.55283039925763
 20
-7.041258407527879
 30
0.0
 10
17.55283039925763
 20
-7.041258407527879
 30
0.0
 10
17.55283039925763
 20
-7.104958223050148
 30
0.0
 10
17.55283039925763
 20
-7.104958223050148
 30
0.0
 10
17.55283039925763
 20
-7.104958223050148
 30
0.0
 10
17.34987982422156
 20
-7.104958223050148
 30
0.0
 10
17.34987982422156
 20
-7.104958223050148
 30
0.0
 10
17.28097791451656
 20
-7.104958223050148
 30
0.0
 10
17.23949896487415
 20
-7.130141871047324
 30
0.0
 10
17.23949896487415
 20
-7.18274847910709
 30
0.0
 10
17.23949896487415
 20
-7.219748804618673
 30
0.0
 10
17.26692192493674
 20
-7.24865315573992
 30
0.0
 10
17.29875460722045
 20
-7.259780814157277
 30
0.0
 10
17.30764295357239
 20
-7.26274359627459
 30
0.0
 10
17.31949408204165
 20
-7.264948457385151
 30
0.0
 10
17.33134521051091
 20
-7.264948457385151
 30
0.0
 10
17.33134521051091
 20
-7.264948457385151
 30
0.0
 10
17.55283039925763
 20
-7.264948457385151
 30
0.0
 10
17.55283039925763
 20
-7.264948457385151
 30
0.0
 10
17.55283039925763
 20
-7.264948457385151
 30
0.0
 10
17.55283039925763
 20
-7.32864827290742
 30
0.0
 10
17.55283039925763
 20
-7.32864827290742
 30
0.0
 10
17.55283039925763
 20
-7.32864827290742
 30
0.0
 10
17.3380286957523
 20
-7.32864827290742
 30
0.0
 10
17.3380286957523
 20
-7.32864827290742
 30
0.0
 10
17.28097791451656
 20
-7.32864827290742
 30
0.0
 10
17.23949896487415
 20
-7.353831920904598
 30
0.0
 10
17.23949896487415
 20
-7.403441295892196
 30
0.0
 10
17.23949896487415
 20
-7.4441967754827
 30
0.0
 10
17.27208956816461
 20
-7.473824596655849
 30
0.0
 10
17.30468017145508
 20
-7.48419433406645
 30
0.0
 10
17.31432643881378
 20
-7.487915037190521
 30
0.0
 10
17.32541964627628
 20
-7.489361977294326
 30
0.0
 10
17.33654730469364
 20
-7.489361977294326
 30
0.0
 10
17.33654730469364
 20
-7.489361977294326
 30
0.0
 10
17.55283039925763
 20
-7.489361977294326
 30
0.0
 10
17.55283039925763
 20
-7.489361977294326
 30
0.0
 10
17.55283039925763
 20
-7.489361977294326
 30
0.0
 10
17.55283039925763
 20
-7.553096243771446
 30
0.0
 10
17.55283039925763
 20
-7.553096243771446
 30
0.0
 10
17.55283039925763
 20
-7.553096243771446
 30
0.0
 10
17.29134765192716
 20
-7.553096243771446
 30
0.0
 10
17.29134765192716
 20
-7.553096243771446
 30
0.0
  0
HATCH
  5
376
330
1F
100
AcDbEntity
  8
Livello 1
100
AcDbHatch
 10
0.0
 20
0.0
 30
0.0
210
0.0
220
0.0
230
1.0
  2
SOLID
 70
     1
 71
     0
 91
        1
 92
        1
 93
        1
 72
     4
 94
        3
 73
     0
 74
     0
 95
       80
 96
       76
 40
0.0
 40
0.0
 40
0.0
 40
0.0
 40
1.0
 40
1.0
 40
1.0
 40
2.0
 40
2.0
 40
2.0
 40
3.0
 40
3.0
 40
3.0
 40
4.0
 40
4.0
 40
4.0
 40
5.0
 40
5.0
 40
5.0
 40
6.0
 40
6.0
 40
6.0
 40
7.0
 40
7.0
 40
7.0
 40
8.0
 40
8.0
 40
8.0
 40
9.0
 40
9.0
 40
9.0
 40
10.0
 40
10.0
 40
10.0
 40
11.0
 40
11.0
 40
11.0
 40
12.0
 40
12.0
 40
12.0
 40
13.0
 40
13.0
 40
13.0
 40
14.0
 40
14.0
 40
14.0
 40
15.0
 40
15.0
 40
15.0
 40
16.0
 40
16.0
 40
16.0
 40
17.0
 40
17.0
 40
17.0
 40
18.0
 40
18.0
 40
18.0
 40
19.0
 40
19.0
 40
19.0
 40
20.0
 40
20.0
 40
20.0
 40
21.0
 40
21.0
 40
21.0
 40
22.0
 40
22.0
 40
22.0
 40
23.0
 40
23.0
 40
23.0
 40
24.0
 40
24.0
 40
24.0
 40
25.0
 40
25.0
 40
25.0
 40
25.0
 10
17.29134765192716
 20
-7.553096243771446
 10
17.25431287546073
 20
-7.553096243771446
 10
17.22396158423567
 20
-7.553819713823349
 10
17.19433376306253
 20
-7.556059025888762
 10
17.19433376306253
 20
-7.556059025888762
 10
17.19433376306253
 20
-7.499008244653025
 10
17.19433376306253
 20
-7.499008244653025
 10
17.19433376306253
 20
-7.499008244653025
 10
17.25210801435017
 20
-7.496045462535711
 10
17.25210801435017
 20
-7.496045462535711
 10
17.25210801435017
 20
-7.496045462535711
 10
17.25210801435017
 20
-7.493840601425151
 10
17.25210801435017
 20
-7.493840601425151
 10
17.21803602000104
 20
-7.473824596655849
 10
17.18616888676248
 20
-7.440510523313482
 10
17.18616888676248
 20
-7.381254880967186
 10
17.18616888676248
 20
-7.332334525076637
 10
17.21579670793563
 20
-7.295334199565053
 10
17.2580335785848
 20
-7.279762367971726
 10
17.2580335785848
 20
-7.279762367971726
 10
17.2580335785848
 20
-7.278280976913067
 10
17.2580335785848
 20
-7.278280976913067
 10
17.23801757381549
 20
-7.267153318495711
 10
17.22248019317702
 20
-7.253097328915893
 10
17.21135253475966
 20
-7.238283418329317
 10
17.19505723311443
 20
-7.216786022501358
 10
17.18616888676248
 20
-7.193083765562838
 10
17.18616888676248
 20
-7.159046222168571
 10
17.18616888676248
 20
-7.111641708291534
 10
17.21727809899429
 20
-7.041258407527879
 10
17.34171494792151
 20
-7.041258407527879
 10
17.34171494792151
 20
-7.041258407527879
 10
17.55283039925763
 20
-7.041258407527879
 10
17.55283039925763
 20
-7.041258407527879
 10
17.55283039925763
 20
-7.041258407527879
 10
17.55283039925763
 20
-7.104958223050148
 10
17.55283039925763
 20
-7.104958223050148
 10
17.55283039925763
 20
-7.104958223050148
 10
17.34987982422156
 20
-7.104958223050148
 10
17.34987982422156
 20
-7.104958223050148
 10
17.28097791451656
 20
-7.104958223050148
 10
17.23949896487415
 20
-7.130141871047324
 10
17.23949896487415
 20
-7.18274847910709
 10
17.23949896487415
 20
-7.219748804618673
 10
17.26692192493674
 20
-7.24865315573992
 10
17.29875460722045
 20
-7.259780814157277
 10
17.30764295357239
 20
-7.26274359627459
 10
17.31949408204165
 20
-7.264948457385151
 10
17.33134521051091
 20
-7.264948457385151
 10
17.33134521051091
 20
-7.264948457385151
 10
17.55283039925763
 20
-7.264948457385151
 10
17.55283039925763
 20
-7.264948457385151
 10
17.55283039925763
 20
-7.264948457385151
 10
17.55283039925763
 20
-7.32864827290742
 10
17.55283039925763
 20
-7.32864827290742
 10
17.55283039925763
 20
-7.32864827290742
 10
17.3380286957523
 20
-7.32864827290742
 10
17.3380286957523
 20
-7.32864827290742
 10
17.28097791451656
 20
-7.32864827290742
 10
17.23949896487415
 20
-7.353831920904598
 10
17.23949896487415
 20
-7.403441295892196
 10
17.23949896487415
 20
-7.4441967754827
 10
17.27208956816461
 20
-7.473824596655849
 10
17.30468017145508
 20
-7.48419433406645
 10
17.31432643881378
 20
-7.487915037190521
 10
17.32541964627628
 20
-7.489361977294326
 10
17.33654730469364
 20
-7.489361977294326
 10
17.33654730469364
 20
-7.489361977294326
 10
17.55283039925763
 20
-7.489361977294326
 10
17.55283039925763
 20
-7.489361977294326
 10
17.55283039925763
 20
-7.489361977294326
 10
17.55283039925763
 20
-7.553096243771446
 10
17.55283039925763
 20
-7.553096243771446
 10
17.55283039925763
 20
-7.553096243771446
 10
17.29134765192716
 20
-7.553096243771446
 10
17.29134765192716
 20
-7.553096243771446
 97
        0
 97
        0
 75
     2
 76
     1
 98
        0
450
        0
451
        0
460
0.0
461
0.0
452
        0
462
0.0
453
        0
470

  0
SPLINE
  5
377
330
1F
100
AcDbEntity
  8
Livello 1
100
AcDbSpline
210
0.0
220
0.0
230
1.0
 70
     9
 71
     3
 72
    38
 73
    34
 74
     0
 42
0.000000001
 43
0.0000000001
 40
0.0
 40
0.0
 40
0.0
 40
0.0
 40
1.0
 40
1.0
 40
1.0
 40
2.0
 40
2.0
 40
2.0
 40
3.0
 40
3.0
 40
3.0
 40
4.0
 40
4.0
 40
4.0
 40
5.0
 40
5.0
 40
5.0
 40
6.0
 40
6.0
 40
6.0
 40
7.0
 40
7.0
 40
7.0
 40
8.0
 40
8.0
 40
8.0
 40
9.0
 40
9.0
 40
9.0
 40
10.0
 40
10.0
 40
10.0
 40
11.0
 40
11.0
 40
11.0
 40
11.0
 10
20.44123290504594
 20
-13.44420952354867
 30
0.0
 10
20.44047498403918
 20
-13.45754204307659
 30
0.0
 10
20.44123290504594
 20
-13.47459526572857
 30
0.0
 10
20.44419568716325
 20
-13.49309542848436
 30
0.0
 10
20.46121445886039
 20
-13.59531141153173
 30
0.0
 10
20.53604193280001
 20
-13.64939941065015
 30
0.0
 10
20.61527912896076
 20
-13.66049261811265
 30
0.0
 10
20.61527912896076
 20
-13.66049261811265
 30
0.0
 10
20.61527912896076
 20
-13.65828775700209
 30
0.0
 10
20.61527912896076
 20
-13.65828775700209
 30
0.0
 10
20.58492783773571
 20
-13.63530897011548
 30
0.0
 10
20.55974418973853
 20
-13.59531141153173
 30
0.0
 10
20.55974418973853
 20
-13.54198133342006
 30
0.0
 10
20.55974418973853
 20
-13.45681857302468
 30
0.0
 10
20.62120469319539
 20
-13.39680500967163
 30
0.0
 10
20.71529025089756
 20
-13.39680500967163
 30
0.0
 10
20.80341579341026
 20
-13.39680500967163
 30
0.0
 10
20.88489230163642
 20
-13.45681857302468
 30
0.0
 10
20.88489230163642
 20
-13.55679524400663
 30
0.0
 10
20.88489230163642
 20
-13.6597346971059
 30
0.0
 10
20.80489718446891
 20
-13.72715521575224
 30
0.0
 10
20.67973686548979
 20
-13.72715521575224
 30
0.0
 10
20.58492783773571
 20
-13.72715521575224
 30
0.0
 10
20.51010036379608
 20
-13.69308322140312
 30
0.0
 10
20.46269584991905
 20
-13.64567870752608
 30
0.0
 10
20.42345621234205
 20
-13.60568114894233
 30
0.0
 10
20.39899603439678
 20
-13.55235107083066
 30
0.0
 10
20.39158907910349
 20
-13.49161403742571
 30
0.0
 10
20.38862629698617
 20
-13.47235595366316
 30
0.0
 10
20.38790282693427
 20
-13.45606065201793
 30
0.0
 10
20.38790282693427
 20
-13.44420952354867
 30
0.0
 10
20.38790282693427
 20
-13.44420952354867
 30
0.0
 10
20.44123290504594
 20
-13.44420952354867
 30
0.0
 10
20.44123290504594
 20
-13.44420952354867
 30
0.0
  0
SPLINE
  5
378
330
1F
100
AcDbEntity
  8
Livello 1
100
AcDbSpline
210
0.0
220
0.0
230
1.0
 70
     9
 71
     3
 72
    20
 73
    16
 74
     0
 42
0.000000001
 43
0.0000000001
 40
0.0
 40
0.0
 40
0.0
 40
0.0
 40
1.0
 40
1.0
 40
1.0
 40
2.0
 40
2.0
 40
2.0
 40
3.0
 40
3.0
 40
3.0
 40
4.0
 40
4.0
 40
4.0
 40
5.0
 40
5.0
 40
5.0
 40
5.0
 10
20.71897650306678
 20
-13.46274413725931
 30
0.0
 10
20.65010904431664
 20
-13.46274413725931
 30
0.0
 10
20.60863009467423
 20
-13.50198377483631
 30
0.0
 10
20.60863009467423
 20
-13.56196288723451
 30
0.0
 10
20.60863009467423
 20
-13.60123697576636
 30
0.0
 10
20.63305582166465
 20
-13.63754828218089
 30
0.0
 10
20.66788573702053
 20
-13.65532497488478
 30
0.0
 10
20.67529269231381
 20
-13.6597346971059
 30
0.0
 10
20.68490450871766
 20
-13.66269747922321
 30
0.0
 10
20.69675563718692
 20
-13.66269747922321
 30
0.0
 10
20.77602728430252
 20
-13.66125053911941
 30
0.0
 10
20.83452500564206
 20
-13.62493923270488
 30
0.0
 10
20.83452500564206
 20
-13.55679524400663
 30
0.0
 10
20.83452500564206
 20
-13.50050238377765
 30
0.0
 10
20.78787841277178
 20
-13.46274413725931
 30
0.0
 10
20.71897650306678
 20
-13.46274413725931
 30
0.0
  0
HATCH
  5
379
330
1F
100
AcDbEntity
  8
Livello 1
100
AcDbHatch
 10
0.0
 20
0.0
 30
0.0
210
0.0
220
0.0
230
1.0
  2
SOLID
 70
     1
 71
     0
 91
        2
 92
        1
 93
        1
 72
     4
 94
        3
 73
     0
 74
     0
 95
       38
 96
       34
 40
0.0
 40
0.0
 40
0.0
 40
0.0
 40
1.0
 40
1.0
 40
1.0
 40
2.0
 40
2.0
 40
2.0
 40
3.0
 40
3.0
 40
3.0
 40
4.0
 40
4.0
 40
4.0
 40
5.0
 40
5.0
 40
5.0
 40
6.0
 40
6.0
 40
6.0
 40
7.0
 40
7.0
 40
7.0
 40
8.0
 40
8.0
 40
8.0
 40
9.0
 40
9.0
 40
9.0
 40
10.0
 40
10.0
 40
10.0
 40
11.0
 40
11.0
 40
11.0
 40
11.0
 10
20.44123290504594
 20
-13.44420952354867
 10
20.44047498403918
 20
-13.45754204307659
 10
20.44123290504594
 20
-13.47459526572857
 10
20.44419568716325
 20
-13.49309542848436
 10
20.46121445886039
 20
-13.59531141153173
 10
20.53604193280001
 20
-13.64939941065015
 10
20.61527912896076
 20
-13.66049261811265
 10
20.61527912896076
 20
-13.66049261811265
 10
20.61527912896076
 20
-13.65828775700209
 10
20.61527912896076
 20
-13.65828775700209
 10
20.58492783773571
 20
-13.63530897011548
 10
20.55974418973853
 20
-13.59531141153173
 10
20.55974418973853
 20
-13.54198133342006
 10
20.55974418973853
 20
-13.45681857302468
 10
20.62120469319539
 20
-13.39680500967163
 10
20.71529025089756
 20
-13.39680500967163
 10
20.80341579341026
 20
-13.39680500967163
 10
20.88489230163642
 20
-13.45681857302468
 10
20.88489230163642
 20
-13.55679524400663
 10
20.88489230163642
 20
-13.6597346971059
 10
20.80489718446891
 20
-13.72715521575224
 10
20.67973686548979
 20
-13.72715521575224
 10
20.58492783773571
 20
-13.72715521575224
 10
20.51010036379608
 20
-13.69308322140312
 10
20.46269584991905
 20
-13.64567870752608
 10
20.42345621234205
 20
-13.60568114894233
 10
20.39899603439678
 20
-13.55235107083066
 10
20.39158907910349
 20
-13.49161403742571
 10
20.38862629698617
 20
-13.47235595366316
 10
20.38790282693427
 20
-13.45606065201793
 10
20.38790282693427
 20
-13.44420952354867
 10
20.38790282693427
 20
-13.44420952354867
 10
20.44123290504594
 20
-13.44420952354867
 10
20.44123290504594
 20
-13.44420952354867
 97
        0
 97
        0
 92
        1
 93
        1
 72
     4
 94
        3
 73
     0
 74
     0
 95
       20
 96
       16
 40
0.0
 40
0.0
 40
0.0
 40
0.0
 40
1.0
 40
1.0
 40
1.0
 40
2.0
 40
2.0
 40
2.0
 40
3.0
 40
3.0
 40
3.0
 40
4.0
 40
4.0
 40
4.0
 40
5.0
 40
5.0
 40
5.0
 40
5.0
 10
20.71897650306678
 20
-13.46274413725931
 10
20.65010904431664
 20
-13.46274413725931
 10
20.60863009467423
 20
-13.50198377483631
 10
20.60863009467423
 20
-13.56196288723451
 10
20.60863009467423
 20
-13.60123697576636
 10
20.63305582166465
 20
-13.63754828218089
 10
20.66788573702053
 20
-13.65532497488478
 10
20.67529269231381
 20
-13.6597346971059
 10
20.68490450871766
 20
-13.66269747922321
 10
20.69675563718692
 20
-13.66269747922321
 10
20.77602728430252
 20
-13.66125053911941
 10
20.83452500564206
 20
-13.62493923270488
 10
20.83452500564206
 20
-13.55679524400663
 10
20.83452500564206
 20
-13.50050238377765
 10
20.78787841277178
 20
-13.46274413725931
 10
20.71897650306678
 20
-13.46274413725931
 97
        0
 97
        0
 75
     2
 76
     1
 98
        0
450
        0
451
        0
460
0.0
461
0.0
452
        0
462
0.0
453
        0
470

  0
POLYLINE
  5
37A
330
1F
100
AcDbEntity
  8
Livello 1
100
AcDb2dPolyline
 66
     1
 10
0.0
 20
0.0
 30
0.0
  0
VERTEX
  5
37B
330
37A
100
AcDbEntity
  8
Livello 1
100
AcDbVertex
100
AcDb2dVertex
 10
20.45604681563252
 20
-13.19750623584993
 30
0.0
  0
VERTEX
  5
37C
330
37A
100
AcDbEntity
  8
Livello 1
100
AcDbVertex
100
AcDb2dVertex
 10
20.45604681563252
 20
-13.19898762690859
 30
0.0
  0
VERTEX
  5
37D
330
37A
100
AcDbEntity
  8
Livello 1
100
AcDbVertex
100
AcDb2dVertex
 10
20.50121201744414
 20
-13.28270344720016
 30
0.0
  0
VERTEX
  5
37E
330
37A
100
AcDbEntity
  8
Livello 1
100
AcDbVertex
100
AcDb2dVertex
 10
20.45160264245654
 20
-13.29527804572132
 30
0.0
  0
VERTEX
  5
37F
330
37A
100
AcDbEntity
  8
Livello 1
100
AcDbVertex
100
AcDb2dVertex
 10
20.39530978222756
 20
-13.19009928055664
 30
0.0
  0
VERTEX
  5
380
330
37A
100
AcDbEntity
  8
Livello 1
100
AcDbVertex
100
AcDb2dVertex
 10
20.39530978222756
 20
-13.13456434133441
 30
0.0
  0
VERTEX
  5
381
330
37A
100
AcDbEntity
  8
Livello 1
100
AcDbVertex
100
AcDb2dVertex
 10
20.87676187629123
 20
-13.13456434133441
 30
0.0
  0
VERTEX
  5
382
330
37A
100
AcDbEntity
  8
Livello 1
100
AcDbVertex
100
AcDb2dVertex
 10
20.87676187629123
 20
-13.19750623584993
 30
0.0
  0
VERTEX
  5
383
330
37A
100
AcDbEntity
  8
Livello 1
100
AcDbVertex
100
AcDb2dVertex
 10
20.45604681563252
 20
-13.19750623584993
 30
0.0
  0
SEQEND
  5
384
330
37A
100
AcDbEntity
  8
Livello 1
  0
HATCH
  5
385
330
1F
100
AcDbEntity
  8
Livello 1
100
AcDbHatch
 10
0.0
 20
0.0
 30
0.0
210
0.0
220
0.0
230
1.0
  2
SOLID
 70
     1
 71
     0
 91
        1
 92
        1
 93
        8
 72
     1
 10
20.45604681563252
 20
-13.19750623584993
 11
20.45604681563252
 21
-13.19898762690859
 72
     1
 10
20.45604681563252
 20
-13.19898762690859
 11
20.50121201744414
 21
-13.28270344720016
 72
     1
 10
20.50121201744414
 20
-13.28270344720016
 11
20.45160264245654
 21
-13.29527804572132
 72
     1
 10
20.45160264245654
 20
-13.29527804572132
 11
20.39530978222756
 21
-13.19009928055664
 72
     1
 10
20.39530978222756
 20
-13.19009928055664
 11
20.39530978222756
 21
-13.13456434133441
 72
     1
 10
20.39530978222756
 20
-13.13456434133441
 11
20.87676187629123
 21
-13.13456434133441
 72
     1
 10
20.87676187629123
 20
-13.13456434133441
 11
20.87676187629123
 21
-13.19750623584993
 72
     1
 10
20.87676187629123
 20
-13.19750623584993
 11
20.45604681563252
 21
-13.19750623584993
 97
        0
 75
     2
 76
     1
 98
        0
450
        0
451
        0
460
0.0
461
0.0
452
        0
462
0.0
453
        0
470

  0
SPLINE
  5
386
330
1F
100
AcDbEntity
  8
Livello 1
100
AcDbSpline
210
0.0
220
0.0
230
1.0
 70
     9
 71
     3
 72
    80
 73
    76
 74
     0
 42
0.000000001
 43
0.0000000001
 40
0.0
 40
0.0
 40
0.0
 40
0.0
 40
1.0
 40
1.0
 40
1.0
 40
2.0
 40
2.0
 40
2.0
 40
3.0
 40
3.0
 40
3.0
 40
4.0
 40
4.0
 40
4.0
 40
5.0
 40
5.0
 40
5.0
 40
6.0
 40
6.0
 40
6.0
 40
7.0
 40
7.0
 40
7.0
 40
8.0
 40
8.0
 40
8.0
 40
9.0
 40
9.0
 40
9.0
 40
10.0
 40
10.0
 40
10.0
 40
11.0
 40
11.0
 40
11.0
 40
12.0
 40
12.0
 40
12.0
 40
13.0
 40
13.0
 40
13.0
 40
14.0
 40
14.0
 40
14.0
 40
15.0
 40
15.0
 40
15.0
 40
16.0
 40
16.0
 40
16.0
 40
17.0
 40
17.0
 40
17.0
 40
18.0
 40
18.0
 40
18.0
 40
19.0
 40
19.0
 40
19.0
 40
20.0
 40
20.0
 40
20.0
 40
21.0
 40
21.0
 40
21.0
 40
22.0
 40
22.0
 40
22.0
 40
23.0
 40
23.0
 40
23.0
 40
24.0
 40
24.0
 40
24.0
 40
25.0
 40
25.0
 40
25.0
 40
25.0
 10
20.61527912896076
 20
-12.78116644645749
 30
0.0
 10
20.57824435249433
 20
-12.78116644645749
 30
0.0
 10
20.54789306126927
 20
-12.78188991650939
 30
0.0
 10
20.51826524009613
 20
-12.7841292285748
 30
0.0
 10
20.51826524009613
 20
-12.7841292285748
 30
0.0
 10
20.51826524009613
 20
-12.72707844733906
 30
0.0
 10
20.51826524009613
 20
-12.72707844733906
 30
0.0
 10
20.51826524009613
 20
-12.72707844733906
 30
0.0
 10
20.57603949138377
 20
-12.72411566522175
 30
0.0
 10
20.57603949138377
 20
-12.72411566522175
 30
0.0
 10
20.57603949138377
 20
-12.72411566522175
 30
0.0
 10
20.57603949138377
 20
-12.72191080411119
 30
0.0
 10
20.57603949138377
 20
-12.72191080411119
 30
0.0
 10
20.54196749703464
 20
-12.70189479934189
 30
0.0
 10
20.51010036379608
 20
-12.66858072599952
 30
0.0
 10
20.51010036379608
 20
-12.60932508365322
 30
0.0
 10
20.51010036379608
 20
-12.56040472776268
 30
0.0
 10
20.53972818496923
 20
-12.52340440225109
 30
0.0
 10
20.5819650556184
 20
-12.50783257065776
 30
0.0
 10
20.5819650556184
 20
-12.50783257065776
 30
0.0
 10
20.5819650556184
 20
-12.50635117959911
 30
0.0
 10
20.5819650556184
 20
-12.50635117959911
 30
0.0
 10
20.56194905084909
 20
-12.49522352118175
 30
0.0
 10
20.54641167021062
 20
-12.48116753160193
 30
0.0
 10
20.53528401179326
 20
-12.46635362101535
 30
0.0
 10
20.51898871014803
 20
-12.4448562251874
 30
0.0
 10
20.51010036379608
 20
-12.42115396824888
 30
0.0
 10
20.51010036379608
 20
-12.38711642485461
 30
0.0
 10
20.51010036379608
 20
-12.33971191097757
 30
0.0
 10
20.54120957602789
 20
-12.26932861021392
 30
0.0
 10
20.66564642495511
 20
-12.26932861021392
 30
0.0
 10
20.66564642495511
 20
-12.26932861021392
 30
0.0
 10
20.87676187629123
 20
-12.26932861021392
 30
0.0
 10
20.87676187629123
 20
-12.26932861021392
 30
0.0
 10
20.87676187629123
 20
-12.26932861021392
 30
0.0
 10
20.87676187629123
 20
-12.33302842573619
 30
0.0
 10
20.87676187629123
 20
-12.33302842573619
 30
0.0
 10
20.87676187629123
 20
-12.33302842573619
 30
0.0
 10
20.67381130125516
 20
-12.33302842573619
 30
0.0
 10
20.67381130125516
 20
-12.33302842573619
 30
0.0
 10
20.60490939155016
 20
-12.33302842573619
 30
0.0
 10
20.56343044190775
 20
-12.35821207373336
 30
0.0
 10
20.56343044190775
 20
-12.41081868179313
 30
0.0
 10
20.56343044190775
 20
-12.44781900730471
 30
0.0
 10
20.59085340197034
 20
-12.47672335842596
 30
0.0
 10
20.62268608425405
 20
-12.48785101684331
 30
0.0
 10
20.63157443060599
 20
-12.49081379896063
 30
0.0
 10
20.64342555907525
 20
-12.49301866007119
 30
0.0
 10
20.65527668754452
 20
-12.49301866007119
 30
0.0
 10
20.65527668754452
 20
-12.49301866007119
 30
0.0
 10
20.87676187629123
 20
-12.49301866007119
 30
0.0
 10
20.87676187629123
 20
-12.49301866007119
 30
0.0
 10
20.87676187629123
 20
-12.49301866007119
 30
0.0
 10
20.87676187629123
 20
-12.55671847559346
 30
0.0
 10
20.87676187629123
 20
-12.55671847559346
 30
0.0
 10
20.87676187629123
 20
-12.55671847559346
 30
0.0
 10
20.6619601727859
 20
-12.55671847559346
 30
0.0
 10
20.6619601727859
 20
-12.55671847559346
 30
0.0
 10
20.60490939155016
 20
-12.55671847559346
 30
0.0
 10
20.56343044190775
 20
-12.58190212359063
 30
0.0
 10
20.56343044190775
 20
-12.63151149857823
 30
0.0
 10
20.56343044190775
 20
-12.67226697816874
 30
0.0
 10
20.59602104519822
 20
-12.70189479934189
 30
0.0
 10
20.62861164848868
 20
-12.71226453675249
 30
0.0
 10
20.63825791584738
 20
-12.71598523987656
 30
0.0
 10
20.64935112330988
 20
-12.71743217998036
 30
0.0
 10
20.66047878172724
 20
-12.71743217998036
 30
0.0
 10
20.66047878172724
 20
-12.71743217998036
 30
0.0
 10
20.87676187629123
 20
-12.71743217998036
 30
0.0
 10
20.87676187629123
 20
-12.71743217998036
 30
0.0
 10
20.87676187629123
 20
-12.71743217998036
 30
0.0
 10
20.87676187629123
 20
-12.78116644645749
 30
0.0
 10
20.87676187629123
 20
-12.78116644645749
 30
0.0
 10
20.87676187629123
 20
-12.78116644645749
 30
0.0
 10
20.61527912896076
 20
-12.78116644645749
 30
0.0
 10
20.61527912896076
 20
-12.78116644645749
 30
0.0
  0
HATCH
  5
387
330
1F
100
AcDbEntity
  8
Livello 1
100
AcDbHatch
 10
0.0
 20
0.0
 30
0.0
210
0.0
220
0.0
230
1.0
  2
SOLID
 70
     1
 71
     0
 91
        1
 92
        1
 93
        1
 72
     4
 94
        3
 73
     0
 74
     0
 95
       80
 96
       76
 40
0.0
 40
0.0
 40
0.0
 40
0.0
 40
1.0
 40
1.0
 40
1.0
 40
2.0
 40
2.0
 40
2.0
 40
3.0
 40
3.0
 40
3.0
 40
4.0
 40
4.0
 40
4.0
 40
5.0
 40
5.0
 40
5.0
 40
6.0
 40
6.0
 40
6.0
 40
7.0
 40
7.0
 40
7.0
 40
8.0
 40
8.0
 40
8.0
 40
9.0
 40
9.0
 40
9.0
 40
10.0
 40
10.0
 40
10.0
 40
11.0
 40
11.0
 40
11.0
 40
12.0
 40
12.0
 40
12.0
 40
13.0
 40
13.0
 40
13.0
 40
14.0
 40
14.0
 40
14.0
 40
15.0
 40
15.0
 40
15.0
 40
16.0
 40
16.0
 40
16.0
 40
17.0
 40
17.0
 40
17.0
 40
18.0
 40
18.0
 40
18.0
 40
19.0
 40
19.0
 40
19.0
 40
20.0
 40
20.0
 40
20.0
 40
21.0
 40
21.0
 40
21.0
 40
22.0
 40
22.0
 40
22.0
 40
23.0
 40
23.0
 40
23.0
 40
24.0
 40
24.0
 40
24.0
 40
25.0
 40
25.0
 40
25.0
 40
25.0
 10
20.61527912896076
 20
-12.78116644645749
 10
20.57824435249433
 20
-12.78116644645749
 10
20.54789306126927
 20
-12.78188991650939
 10
20.51826524009613
 20
-12.7841292285748
 10
20.51826524009613
 20
-12.7841292285748
 10
20.51826524009613
 20
-12.72707844733906
 10
20.51826524009613
 20
-12.72707844733906
 10
20.51826524009613
 20
-12.72707844733906
 10
20.57603949138377
 20
-12.72411566522175
 10
20.57603949138377
 20
-12.72411566522175
 10
20.57603949138377
 20
-12.72411566522175
 10
20.57603949138377
 20
-12.72191080411119
 10
20.57603949138377
 20
-12.72191080411119
 10
20.54196749703464
 20
-12.70189479934189
 10
20.51010036379608
 20
-12.66858072599952
 10
20.51010036379608
 20
-12.60932508365322
 10
20.51010036379608
 20
-12.56040472776268
 10
20.53972818496923
 20
-12.52340440225109
 10
20.5819650556184
 20
-12.50783257065776
 10
20.5819650556184
 20
-12.50783257065776
 10
20.5819650556184
 20
-12.50635117959911
 10
20.5819650556184
 20
-12.50635117959911
 10
20.56194905084909
 20
-12.49522352118175
 10
20.54641167021062
 20
-12.48116753160193
 10
20.53528401179326
 20
-12.46635362101535
 10
20.51898871014803
 20
-12.4448562251874
 10
20.51010036379608
 20
-12.42115396824888
 10
20.51010036379608
 20
-12.38711642485461
 10
20.51010036379608
 20
-12.33971191097757
 10
20.54120957602789
 20
-12.26932861021392
 10
20.66564642495511
 20
-12.26932861021392
 10
20.66564642495511
 20
-12.26932861021392
 10
20.87676187629123
 20
-12.26932861021392
 10
20.87676187629123
 20
-12.26932861021392
 10
20.87676187629123
 20
-12.26932861021392
 10
20.87676187629123
 20
-12.33302842573619
 10
20.87676187629123
 20
-12.33302842573619
 10
20.87676187629123
 20
-12.33302842573619
 10
20.67381130125516
 20
-12.33302842573619
 10
20.67381130125516
 20
-12.33302842573619
 10
20.60490939155016
 20
-12.33302842573619
 10
20.56343044190775
 20
-12.35821207373336
 10
20.56343044190775
 20
-12.41081868179313
 10
20.56343044190775
 20
-12.44781900730471
 10
20.59085340197034
 20
-12.47672335842596
 10
20.62268608425405
 20
-12.48785101684331
 10
20.63157443060599
 20
-12.49081379896063
 10
20.64342555907525
 20
-12.49301866007119
 10
20.65527668754452
 20
-12.49301866007119
 10
20.65527668754452
 20
-12.49301866007119
 10
20.87676187629123
 20
-12.49301866007119
 10
20.87676187629123
 20
-12.49301866007119
 10
20.87676187629123
 20
-12.49301866007119
 10
20.87676187629123
 20
-12.55671847559346
 10
20.87676187629123
 20
-12.55671847559346
 10
20.87676187629123
 20
-12.55671847559346
 10
20.6619601727859
 20
-12.55671847559346
 10
20.6619601727859
 20
-12.55671847559346
 10
20.60490939155016
 20
-12.55671847559346
 10
20.56343044190775
 20
-12.58190212359063
 10
20.56343044190775
 20
-12.63151149857823
 10
20.56343044190775
 20
-12.67226697816874
 10
20.59602104519822
 20
-12.70189479934189
 10
20.62861164848868
 20
-12.71226453675249
 10
20.63825791584738
 20
-12.71598523987656
 10
20.64935112330988
 20
-12.71743217998036
 10
20.66047878172724
 20
-12.71743217998036
 10
20.66047878172724
 20
-12.71743217998036
 10
20.87676187629123
 20
-12.71743217998036
 10
20.87676187629123
 20
-12.71743217998036
 10
20.87676187629123
 20
-12.71743217998036
 10
20.87676187629123
 20
-12.78116644645749
 10
20.87676187629123
 20
-12.78116644645749
 10
20.87676187629123
 20
-12.78116644645749
 10
20.61527912896076
 20
-12.78116644645749
 10
20.61527912896076
 20
-12.78116644645749
 97
        0
 97
        0
 75
     2
 76
     1
 98
        0
450
        0
451
        0
460
0.0
461
0.0
452
        0
462
0.0
453
        0
470

  0
SPLINE
  5
388
330
1F
100
AcDbEntity
  8
Livello 1
100
AcDbSpline
210
0.0
220
0.0
230
1.0
 70
     9
 71
     3
 72
    80
 73
    76
 74
     0
 42
0.000000001
 43
0.0000000001
 40
0.0
 40
0.0
 40
0.0
 40
0.0
 40
1.0
 40
1.0
 40
1.0
 40
2.0
 40
2.0
 40
2.0
 40
3.0
 40
3.0
 40
3.0
 40
4.0
 40
4.0
 40
4.0
 40
5.0
 40
5.0
 40
5.0
 40
6.0
 40
6.0
 40
6.0
 40
7.0
 40
7.0
 40
7.0
 40
8.0
 40
8.0
 40
8.0
 40
9.0
 40
9.0
 40
9.0
 40
10.0
 40
10.0
 40
10.0
 40
11.0
 40
11.0
 40
11.0
 40
12.0
 40
12.0
 40
12.0
 40
13.0
 40
13.0
 40
13.0
 40
14.0
 40
14.0
 40
14.0
 40
15.0
 40
15.0
 40
15.0
 40
16.0
 40
16.0
 40
16.0
 40
17.0
 40
17.0
 40
17.0
 40
18.0
 40
18.0
 40
18.0
 40
19.0
 40
19.0
 40
19.0
 40
20.0
 40
20.0
 40
20.0
 40
21.0
 40
21.0
 40
21.0
 40
22.0
 40
22.0
 40
22.0
 40
23.0
 40
23.0
 40
23.0
 40
24.0
 40
24.0
 40
24.0
 40
25.0
 40
25.0
 40
25.0
 40
25.0
 10
20.61527912896076
 20
-12.16332302213278
 30
0.0
 10
20.57824435249433
 20
-12.16332302213278
 30
0.0
 10
20.54789306126927
 20
-12.16404649218468
 30
0.0
 10
20.51826524009613
 20
-12.16628580425009
 30
0.0
 10
20.51826524009613
 20
-12.16628580425009
 30
0.0
 10
20.51826524009613
 20
-12.10923502301436
 30
0.0
 10
20.51826524009613
 20
-12.10923502301436
 30
0.0
 10
20.51826524009613
 20
-12.10923502301436
 30
0.0
 10
20.57603949138377
 20
-12.10627224089704
 30
0.0
 10
20.57603949138377
 20
-12.10627224089704
 30
0.0
 10
20.57603949138377
 20
-12.10627224089704
 30
0.0
 10
20.57603949138377
 20
-12.10406737978648
 30
0.0
 10
20.57603949138377
 20
-12.10406737978648
 30
0.0
 10
20.54196749703464
 20
-12.08405137501718
 30
0.0
 10
20.51010036379608
 20
-12.05073730167481
 30
0.0
 10
20.51010036379608
 20
-11.99148165932852
 30
0.0
 10
20.51010036379608
 20
-11.94256130343797
 30
0.0
 10
20.53972818496923
 20
-11.90556097792639
 30
0.0
 10
20.5819650556184
 20
-11.88998914633306
 30
0.0
 10
20.5819650556184
 20
-11.88998914633306
 30
0.0
 10
20.5819650556184
 20
-11.8885077552744
 30
0.0
 10
20.5819650556184
 20
-11.8885077552744
 30
0.0
 10
20.56194905084909
 20
-11.87738009685704
 30
0.0
 10
20.54641167021062
 20
-11.86332410727722
 30
0.0
 10
20.53528401179326
 20
-11.84851019669065
 30
0.0
 10
20.51898871014803
 20
-11.82701280086269
 30
0.0
 10
20.51010036379608
 20
-11.80331054392417
 30
0.0
 10
20.51010036379608
 20
-11.7692730005299
 30
0.0
 10
20.51010036379608
 20
-11.72186848665287
 30
0.0
 10
20.54120957602789
 20
-11.65148518588921
 30
0.0
 10
20.66564642495511
 20
-11.65148518588921
 30
0.0
 10
20.66564642495511
 20
-11.65148518588921
 30
0.0
 10
20.87676187629123
 20
-11.65148518588921
 30
0.0
 10
20.87676187629123
 20
-11.65148518588921
 30
0.0
 10
20.87676187629123
 20
-11.65148518588921
 30
0.0
 10
20.87676187629123
 20
-11.71518500141148
 30
0.0
 10
20.87676187629123
 20
-11.71518500141148
 30
0.0
 10
20.87676187629123
 20
-11.71518500141148
 30
0.0
 10
20.67381130125516
 20
-11.71518500141148
 30
0.0
 10
20.67381130125516
 20
-11.71518500141148
 30
0.0
 10
20.60490939155016
 20
-11.71518500141148
 30
0.0
 10
20.56343044190775
 20
-11.74036864940866
 30
0.0
 10
20.56343044190775
 20
-11.79297525746842
 30
0.0
 10
20.56343044190775
 20
-11.82997558298
 30
0.0
 10
20.59085340197034
 20
-11.85887993410125
 30
0.0
 10
20.62268608425405
 20
-11.8700075925186
 30
0.0
 10
20.63157443060599
 20
-11.87297037463592
 30
0.0
 10
20.64342555907525
 20
-11.87517523574648
 30
0.0
 10
20.65527668754452
 20
-11.87517523574648
 30
0.0
 10
20.65527668754452
 20
-11.87517523574648
 30
0.0
 10
20.87676187629123
 20
-11.87517523574648
 30
0.0
 10
20.87676187629123
 20
-11.87517523574648
 30
0.0
 10
20.87676187629123
 20
-11.87517523574648
 30
0.0
 10
20.87676187629123
 20
-11.93887505126875
 30
0.0
 10
20.87676187629123
 20
-11.93887505126875
 30
0.0
 10
20.87676187629123
 20
-11.93887505126875
 30
0.0
 10
20.6619601727859
 20
-11.93887505126875
 30
0.0
 10
20.6619601727859
 20
-11.93887505126875
 30
0.0
 10
20.60490939155016
 20
-11.93887505126875
 30
0.0
 10
20.56343044190775
 20
-11.96405869926593
 30
0.0
 10
20.56343044190775
 20
-12.01366807425353
 30
0.0
 10
20.56343044190775
 20
-12.05442355384403
 30
0.0
 10
20.59602104519822
 20
-12.08405137501718
 30
0.0
 10
20.62861164848868
 20
-12.09442111242778
 30
0.0
 10
20.63825791584738
 20
-12.09814181555185
 30
0.0
 10
20.64935112330988
 20
-12.09958875565566
 30
0.0
 10
20.66047878172724
 20
-12.09958875565566
 30
0.0
 10
20.66047878172724
 20
-12.09958875565566
 30
0.0
 10
20.87676187629123
 20
-12.09958875565566
 30
0.0
 10
20.87676187629123
 20
-12.09958875565566
 30
0.0
 10
20.87676187629123
 20
-12.09958875565566
 30
0.0
 10
20.87676187629123
 20
-12.16332302213278
 30
0.0
 10
20.87676187629123
 20
-12.16332302213278
 30
0.0
 10
20.87676187629123
 20
-12.16332302213278
 30
0.0
 10
20.61527912896076
 20
-12.16332302213278
 30
0.0
 10
20.61527912896076
 20
-12.16332302213278
 30
0.0
  0
HATCH
  5
389
330
1F
100
AcDbEntity
  8
Livello 1
100
AcDbHatch
 10
0.0
 20
0.0
 30
0.0
210
0.0
220
0.0
230
1.0
  2
SOLID
 70
     1
 71
     0
 91
        1
 92
        1
 93
        1
 72
     4
 94
        3
 73
     0
 74
     0
 95
       80
 96
       76
 40
0.0
 40
0.0
 40
0.0
 40
0.0
 40
1.0
 40
1.0
 40
1.0
 40
2.0
 40
2.0
 40
2.0
 40
3.0
 40
3.0
 40
3.0
 40
4.0
 40
4.0
 40
4.0
 40
5.0
 40
5.0
 40
5.0
 40
6.0
 40
6.0
 40
6.0
 40
7.0
 40
7.0
 40
7.0
 40
8.0
 40
8.0
 40
8.0
 40
9.0
 40
9.0
 40
9.0
 40
10.0
 40
10.0
 40
10.0
 40
11.0
 40
11.0
 40
11.0
 40
12.0
 40
12.0
 40
12.0
 40
13.0
 40
13.0
 40
13.0
 40
14.0
 40
14.0
 40
14.0
 40
15.0
 40
15.0
 40
15.0
 40
16.0
 40
16.0
 40
16.0
 40
17.0
 40
17.0
 40
17.0
 40
18.0
 40
18.0
 40
18.0
 40
19.0
 40
19.0
 40
19.0
 40
20.0
 40
20.0
 40
20.0
 40
21.0
 40
21.0
 40
21.0
 40
22.0
 40
22.0
 40
22.0
 40
23.0
 40
23.0
 40
23.0
 40
24.0
 40
24.0
 40
24.0
 40
25.0
 40
25.0
 40
25.0
 40
25.0
 10
20.61527912896076
 20
-12.16332302213278
 10
20.57824435249433
 20
-12.16332302213278
 10
20.54789306126927
 20
-12.16404649218468
 10
20.51826524009613
 20
-12.16628580425009
 10
20.51826524009613
 20
-12.16628580425009
 10
20.51826524009613
 20
-12.10923502301436
 10
20.51826524009613
 20
-12.10923502301436
 10
20.51826524009613
 20
-12.10923502301436
 10
20.57603949138377
 20
-12.10627224089704
 10
20.57603949138377
 20
-12.10627224089704
 10
20.57603949138377
 20
-12.10627224089704
 10
20.57603949138377
 20
-12.10406737978648
 10
20.57603949138377
 20
-12.10406737978648
 10
20.54196749703464
 20
-12.08405137501718
 10
20.51010036379608
 20
-12.05073730167481
 10
20.51010036379608
 20
-11.99148165932852
 10
20.51010036379608
 20
-11.94256130343797
 10
20.53972818496923
 20
-11.90556097792639
 10
20.5819650556184
 20
-11.88998914633306
 10
20.5819650556184
 20
-11.88998914633306
 10
20.5819650556184
 20
-11.8885077552744
 10
20.5819650556184
 20
-11.8885077552744
 10
20.56194905084909
 20
-11.87738009685704
 10
20.54641167021062
 20
-11.86332410727722
 10
20.53528401179326
 20
-11.84851019669065
 10
20.51898871014803
 20
-11.82701280086269
 10
20.51010036379608
 20
-11.80331054392417
 10
20.51010036379608
 20
-11.7692730005299
 10
20.51010036379608
 20
-11.72186848665287
 10
20.54120957602789
 20
-11.65148518588921
 10
20.66564642495511
 20
-11.65148518588921
 10
20.66564642495511
 20
-11.65148518588921
 10
20.87676187629123
 20
-11.65148518588921
 10
20.87676187629123
 20
-11.65148518588921
 10
20.87676187629123
 20
-11.65148518588921
 10
20.87676187629123
 20
-11.71518500141148
 10
20.87676187629123
 20
-11.71518500141148
 10
20.87676187629123
 20
-11.71518500141148
 10
20.67381130125516
 20
-11.71518500141148
 10
20.67381130125516
 20
-11.71518500141148
 10
20.60490939155016
 20
-11.71518500141148
 10
20.56343044190775
 20
-11.74036864940866
 10
20.56343044190775
 20
-11.79297525746842
 10
20.56343044190775
 20
-11.82997558298
 10
20.59085340197034
 20
-11.85887993410125
 10
20.62268608425405
 20
-11.8700075925186
 10
20.63157443060599
 20
-11.87297037463592
 10
20.64342555907525
 20
-11.87517523574648
 10
20.65527668754452
 20
-11.87517523574648
 10
20.65527668754452
 20
-11.87517523574648
 10
20.87676187629123
 20
-11.87517523574648
 10
20.87676187629123
 20
-11.87517523574648
 10
20.87676187629123
 20
-11.87517523574648
 10
20.87676187629123
 20
-11.93887505126875
 10
20.87676187629123
 20
-11.93887505126875
 10
20.87676187629123
 20
-11.93887505126875
 10
20.6619601727859
 20
-11.93887505126875
 10
20.6619601727859
 20
-11.93887505126875
 10
20.60490939155016
 20
-11.93887505126875
 10
20.56343044190775
 20
-11.96405869926593
 10
20.56343044190775
 20
-12.01366807425353
 10
20.56343044190775
 20
-12.05442355384403
 10
20.59602104519822
 20
-12.08405137501718
 10
20.62861164848868
 20
-12.09442111242778
 10
20.63825791584738
 20
-12.09814181555185
 10
20.64935112330988
 20
-12.09958875565566
 10
20.66047878172724
 20
-12.09958875565566
 10
20.66047878172724
 20
-12.09958875565566
 10
20.87676187629123
 20
-12.09958875565566
 10
20.87676187629123
 20
-12.09958875565566
 10
20.87676187629123
 20
-12.09958875565566
 10
20.87676187629123
 20
-12.16332302213278
 10
20.87676187629123
 20
-12.16332302213278
 10
20.87676187629123
 20
-12.16332302213278
 10
20.61527912896076
 20
-12.16332302213278
 10
20.61527912896076
 20
-12.16332302213278
 97
        0
 97
        0
 75
     2
 76
     1
 98
        0
450
        0
451
        0
460
0.0
461
0.0
452
        0
462
0.0
453
        0
470

  0
ENDSEC
  0
SECTION
  2
OBJECTS
  0
DICTIONARY
  5
C
330
0
100
AcDbDictionary
281
     1
  3
ACAD_CIP_PREVIOUS_PRODUCT_INFO
350
2B1
  3
ACAD_COLOR
350
292
  3
ACAD_DETAILVIEWSTYLE
350
2AD
  3
ACAD_GROUP
350
D
  3
ACAD_LAYOUT
350
1A
  3
ACAD_MATERIAL
350
3B
  3
ACAD_MLEADERSTYLE
350
285
  3
ACAD_MLINESTYLE
350
17
  3
ACAD_PLOTSETTINGS
350
19
  3
ACAD_PLOTSTYLENAME
350
E
  3
ACAD_SCALELIST
350
294
  3
ACAD_SECTIONVIEWSTYLE
350
2AB
  3
ACAD_TABLESTYLE
350
284
  3
ACAD_VISUALSTYLE
350
2A
  3
ACDB_RECOMPOSE_DATA
350
39A
  3
AcDbVariableDictionary
350
38A
  0
SUN
  5
3F
330
29
100
AcDbSun
 90
        1
290
     1
 63
     7
421
 16777215
 40
1.0
291
     1
 91
  2455826
 92
 54000000
292
     0
 70
     0
 71
   256
280
     1
1001
ACAD
1000
AcDbSavedByObjectVersion
1070
     0
  0
DICTIONARY
  5
2B2
330
1F
100
AcDbDictionary
280
     1
281
     1
  3
ACAD_SORTENTS
360
2B3
  0
XRECORD
  5
2B1
102
{ACAD_REACTORS
330
C
102
}
330
C
100
AcDbXrecord
280
     1
300
ACD
300
2019
300
ACD_F_S
  0
DICTIONARY
  5
292
102
{ACAD_REACTORS
330
C
102
}
330
C
100
AcDbDictionary
281
     1
  0
DICTIONARY
  5
2AD
102
{ACAD_REACTORS
330
C
102
}
330
C
100
AcDbDictionary
281
     1
  3
Imperial24
350
2AE
  0
DICTIONARY
  5
D
102
{ACAD_REACTORS
330
C
102
}
330
C
100
AcDbDictionary
281
     1
  0
DICTIONARY
  5
1A
102
{ACAD_REACTORS
330
C
102
}
330
C
100
AcDbDictionary
281
     1
  3
Layout1
350
1E
  3
Layout2
350
26
  3
Model
350
22
  0
DICTIONARY
  5
3B
102
{ACAD_REACTORS
330
C
102
}
330
C
100
AcDbDictionary
281
     1
  3
ByBlock
350
3D
  3
ByLayer
350
3C
  3
Global
350
3E
  0
DICTIONARY
  5
285
102
{ACAD_REACTORS
330
C
102
}
330
C
100
AcDbDictionary
281
     1
  3
Standard
350
2AA
  0
DICTIONARY
  5
17
102
{ACAD_REACTORS
330
C
102
}
330
C
100
AcDbDictionary
281
     1
  3
Standard
350
18
  0
DICTIONARY
  5
19
102
{ACAD_REACTORS
330
C
102
}
330
C
100
AcDbDictionary
281
     1
  0
ACDBDICTIONARYWDFLT
  5
E
102
{ACAD_REACTORS
330
C
102
}
330
C
100
AcDbDictionary
281
     1
  3
Normal
350
F
100
AcDbDictionaryWithDefault
340
F
  0
DICTIONARY
  5
294
102
{ACAD_REACTORS
330
C
102
}
330
C
100
AcDbDictionary
281
     1
  3
A0
350
295
  3
A1
350
296
  3
A2
350
297
  3
A3
350
298
  3
A4
350
299
  3
A5
350
29A
  3
A6
350
29B
  3
A7
350
29C
  3
A8
350
29D
  3
A9
350
29E
  3
B0
350
29F
  3
B1
350
2A0
  3
B2
350
2A1
  3
B3
350
2A2
  3
B4
350
2A3
  3
B5
350
2A4
  3
B6
350
2A5
  3
B7
350
2A6
  3
B8
350
2A7
  3
B9
350
2A8
  3
C0
350
2A9
  0
DICTIONARY
  5
2AB
102
{ACAD_REACTORS
330
C
102
}
330
C
100
AcDbDictionary
281
     1
  3
Imperial24
350
2AC
  0
DICTIONARY
  5
284
102
{ACAD_REACTORS
330
C
102
}
330
C
100
AcDbDictionary
281
     1
  3
Standard
350
293
  0
DICTIONARY
  5
2A
102
{ACAD_REACTORS
330
C
102
}
330
C
100
AcDbDictionary
281
     1
  3
2dWireframe
350
2F
  3
3D Hidden
350
31
  3
3dWireframe
350
30
  3
Basic
350
32
  3
Brighten
350
36
  3
ColorChange
350
3A
  3
Conceptual
350
34
  3
Dim
350
35
  3
EdgeColorOff
350
291
  3
Facepattern
350
39
  3
Flat
350
2B
  3
FlatWithEdges
350
2C
  3
Gouraud
350
2D
  3
GouraudWithEdges
350
2E
  3
Hidden
350
289
  3
JitterOff
350
28F
  3
Linepattern
350
38
  3
OverhangOff
350
290
  3
Realistic
350
33
  3
Shaded
350
28E
  3
Shaded with edges
350
28D
  3
Shades of Gray
350
28A
  3
Sketchy
350
28B
  3
Thicken
350
37
  3
Wireframe
350
288
  3
X-Ray
350
28C
  0
XRECORD
  5
39A
102
{ACAD_REACTORS
330
C
102
}
330
C
100
AcDbXrecord
280
     1
 90
        1
330
293
  0
DICTIONARY
  5
38A
102
{ACAD_REACTORS
330
C
102
}
330
C
100
AcDbDictionary
281
     1
  3
CANNOSCALE
350
38F
  3
CMLEADERSTYLE
350
38C
  3
CTABLESTYLE
350
38B
  3
CVIEWDETAILSTYLE
350
38D
  3
CVIEWSECTIONSTYLE
350
38E
  0
SORTENTSTABLE
  5
2B3
102
{ACAD_REACTORS
330
2B2
102
}
330
2B2
100
AcDbSortentsTable
330
1F
  0
ACDBDETAILVIEWSTYLE
  5
2AE
102
{ACAD_XDICTIONARY
360
39D
102
}
102
{ACAD_REACTORS
330
2AD
102
}
330
2AD
100
AcDbModelDocViewStyle
 70
     0
  3
Imperial24
290
     0
100
AcDbDetailViewStyle
 70
     0
 71
     0
 90
        3
 71
     1
340
11
 62
   256
 40
0.24
340
0
 62
   256
 40
0.24
300

 40
0.36
280
     3
 71
     2
340
16
 90
       25
 62
   256
 71
     3
340
11
 62
   256
 40
0.24
 90
        1
 40
0.75
 90
        1
300
%<\AcVar ViewType \f "%tc1">% %<\AcVar ViewDetailId>%\PSCALA %<\AcVar ViewScale \f "%sn">%
 71
     4
340
16
 90
       25
 62
   256
340
16
 90
       25
 62
   256
280
     0
  0
LAYOUT
  5
1E
102
{ACAD_REACTORS
330
1A
102
}
330
1A
100
AcDbPlotSettings
  1

  2
none_device
  4

  6

 40
0.0
 41
0.0
 42
0.0
 43
0.0
 44
0.0
 45
0.0
 46
0.0
 47
0.0
 48
0.0
 49
0.0
140
0.0
141
0.0
142
1.0
143
1.0
 70
   688
 72
     0
 73
     0
 74
     5
  7

 75
    16
147
1.0
 76
     0
 77
     2
 78
   300
148
0.0
149
0.0
100
AcDbLayout
  1
Layout1
 70
     1
 71
     1
 10
0.0
 20
0.0
 11
12.0
 21
9.0
 12
0.0
 22
0.0
 32
0.0
 14
1.000000000000000E+20
 24
1.000000000000000E+20
 34
1.000000000000000E+20
 15
-1.000000000000000E+20
 25
-1.000000000000000E+20
 35
-1.000000000000000E+20
146
0.0
 13
0.0
 23
0.0
 33
0.0
 16
1.0
 26
0.0
 36
0.0
 17
0.0
 27
1.0
 37
0.0
 76
     0
330
1B
  0
LAYOUT
  5
26
102
{ACAD_REACTORS
330
1A
102
}
330
1A
100
AcDbPlotSettings
  1

  2
none_device
  4

  6

 40
0.0
 41
0.0
 42
0.0
 43
0.0
 44
0.0
 45
0.0
 46
0.0
 47
0.0
 48
0.0
 49
0.0
140
0.0
141
0.0
142
1.0
143
1.0
 70
   688
 72
     0
 73
     0
 74
     5
  7

 75
    16
147
1.0
 76
     0
 77
     2
 78
   300
148
0.0
149
0.0
100
AcDbLayout
  1
Layout2
 70
     1
 71
     2
 10
0.0
 20
0.0
 11
0.0
 21
0.0
 12
0.0
 22
0.0
 32
0.0
 14
0.0
 24
0.0
 34
0.0
 15
0.0
 25
0.0
 35
0.0
146
0.0
 13
0.0
 23
0.0
 33
0.0
 16
1.0
 26
0.0
 36
0.0
 17
0.0
 27
1.0
 37
0.0
 76
     0
330
23
  0
LAYOUT
  5
22
102
{ACAD_REACTORS
330
1A
102
}
330
1A
100
AcDbPlotSettings
  1

  2
none_device
  4

  6

 40
0.0
 41
0.0
 42
0.0
 43
0.0
 44
0.0
 45
0.0
 46
0.0
 47
0.0
 48
0.0
 49
0.0
140
0.0
141
0.0
142
1.0
143
1.0
 70
  1712
 72
     0
 73
     0
 74
     0
  7

 75
     0
147
1.0
 76
     0
 77
     2
 78
   300
148
0.0
149
0.0
100
AcDbLayout
  1
Model
 70
     1
 71
     0
 10
0.0
 20
0.0
 11
12.0
 21
9.0
 12
0.0
 22
0.0
 32
0.0
 14
1.000000000000000E+20
 24
1.000000000000000E+20
 34
1.000000000000000E+20
 15
-1.000000000000000E+20
 25
-1.000000000000000E+20
 35
-1.000000000000000E+20
146
0.0
 13
0.0
 23
0.0
 33
0.0
 16
1.0
 26
0.0
 36
0.0
 17
0.0
 27
1.0
 37
0.0
 76
     0
330
1F
331
29
  0
MATERIAL
  5
3D
102
{ACAD_REACTORS
330
3B
102
}
330
3B
100
AcDbMaterial
  1
ByBlock
  0
MATERIAL
  5
3C
102
{ACAD_REACTORS
330
3B
102
}
330
3B
100
AcDbMaterial
  1
ByLayer
  0
MATERIAL
  5
3E
102
{ACAD_REACTORS
330
3B
102
}
330
3B
100
AcDbMaterial
  1
Global
  0
MLEADERSTYLE
  5
2AA
102
{ACAD_REACTORS
330
285
102
}
330
285
100
AcDbMLeaderStyle
179
     2
170
     2
171
     1
172
     0
 90
        2
 40
0.0
 41
0.0
173
     1
 91
-1056964608
340
14
 92
       -2
290
     1
 42
0.09
291
     1
 43
0.36
  3
Standard
 44
0.18
300

342
11
174
     1
178
     6
175
     1
176
     0
 93
-1056964608
 45
0.18
292
     0
297
     0
 46
0.18
 94
-1056964608
 47
1.0
 49
1.0
140
1.0
293
     1
141
0.0
294
     1
177
     0
142
1.0
295
     0
296
     0
143
0.125
271
     0
272
     9
273
     9
298
     0
  0
MLINESTYLE
  5
18
102
{ACAD_REACTORS
330
17
102
}
330
17
100
AcDbMlineStyle
  2
STANDARD
 70
     0
  3

 62
   256
 51
90.0
 52
90.0
 71
     2
 49
0.5
 62
   256
  6
BYLAYER
 49
-0.5
 62
   256
  6
BYLAYER
  0
ACDBPLACEHOLDER
  5
F
102
{ACAD_REACTORS
330
E
102
}
330
E
  0
SCALE
  5
295
102
{ACAD_REACTORS
330
294
102
}
330
294
100
AcDbScale
 70
     0
300
1:1
140
1.0
141
1.0
290
     1
  0
SCALE
  5
296
102
{ACAD_REACTORS
330
294
102
}
330
294
100
AcDbScale
 70
     0
300
1.10
140
1.0
141
10.0
290
     0
  0
SCALE
  5
297
102
{ACAD_REACTORS
330
294
102
}
330
294
100
AcDbScale
 70
     0
300
1.50
140
1.0
141
50.0
290
     0
  0
SCALE
  5
298
102
{ACAD_REACTORS
330
294
102
}
330
294
100
AcDbScale
 70
     0
300
1:100
140
1.0
141
100.0
290
     0
  0
SCALE
  5
299
102
{ACAD_REACTORS
330
294
102
}
330
294
100
AcDbScale
 70
     0
300
1.200
140
1.0
141
200.0
290
     0
  0
SCALE
  5
29A
102
{ACAD_REACTORS
330
294
102
}
330
294
100
AcDbScale
 70
     0
300
1/128" = 1'-0"
140
0.0078125
141
12.0
290
     0
  0
SCALE
  5
29B
102
{ACAD_REACTORS
330
294
102
}
330
294
100
AcDbScale
 70
     0
300
1/64" = 1'-0"
140
0.015625
141
12.0
290
     0
  0
SCALE
  5
29C
102
{ACAD_REACTORS
330
294
102
}
330
294
100
AcDbScale
 70
     0
300
1/32" = 1'-0"
140
0.03125
141
12.0
290
     0
  0
SCALE
  5
29D
102
{ACAD_REACTORS
330
294
102
}
330
294
100
AcDbScale
 70
     0
300
1/16" = 1'-0"
140
0.0625
141
12.0
290
     0
  0
SCALE
  5
29E
102
{ACAD_REACTORS
330
294
102
}
330
294
100
AcDbScale
 70
     0
300
3/32" = 1'-0"
140
0.09375
141
12.0
290
     0
  0
SCALE
  5
29F
102
{ACAD_REACTORS
330
294
102
}
330
294
100
AcDbScale
 70
     0
300
1/8" = 1'-0"
140
0.125
141
12.0
290
     0
  0
SCALE
  5
2A0
102
{ACAD_REACTORS
330
294
102
}
330
294
100
AcDbScale
 70
     0
300
3/16" = 1'-0"
140
0.1875
141
12.0
290
     0
  0
SCALE
  5
2A1
102
{ACAD_REACTORS
330
294
102
}
330
294
100
AcDbScale
 70
     0
300
1/4" = 1'-0"
140
0.25
141
12.0
290
     0
  0
SCALE
  5
2A2
102
{ACAD_REACTORS
330
294
102
}
330
294
100
AcDbScale
 70
     0
300
3/8" = 1'-0"
140
0.375
141
12.0
290
     0
  0
SCALE
  5
2A3
102
{ACAD_REACTORS
330
294
102
}
330
294
100
AcDbScale
 70
     0
300
1/2" = 1'-0"
140
0.5
141
12.0
290
     0
  0
SCALE
  5
2A4
102
{ACAD_REACTORS
330
294
102
}
330
294
100
AcDbScale
 70
     0
300
3/4" = 1'-0"
140
0.75
141
12.0
290
     0
  0
SCALE
  5
2A5
102
{ACAD_REACTORS
330
294
102
}
330
294
100
AcDbScale
 70
     0
300
1" = 1'-0"
140
1.0
141
12.0
290
     0
  0
SCALE
  5
2A6
102
{ACAD_REACTORS
330
294
102
}
330
294
100
AcDbScale
 70
     0
300
1-1/2" = 1'-0"
140
1.5
141
12.0
290
     0
  0
SCALE
  5
2A7
102
{ACAD_REACTORS
330
294
102
}
330
294
100
AcDbScale
 70
     0
300
3" = 1'-0"
140
3.0
141
12.0
290
     0
  0
SCALE
  5
2A8
102
{ACAD_REACTORS
330
294
102
}
330
294
100
AcDbScale
 70
     0
300
6" = 1'-0"
140
6.0
141
12.0
290
     0
  0
SCALE
  5
2A9
102
{ACAD_REACTORS
330
294
102
}
330
294
100
AcDbScale
 70
     0
300
1'-0" = 1'-0"
140
12.0
141
12.0
290
     0
  0
ACDBSECTIONVIEWSTYLE
  5
2AC
102
{ACAD_XDICTIONARY
360
39B
102
}
102
{ACAD_REACTORS
330
2AB
102
}
330
2AB
100
AcDbModelDocViewStyle
 70
     0
  3
Imperial24
290
     0
100
AcDbSectionViewStyle
 70
     0
 71
     0
 90
       78
 71
     1
340
11
 62
   256
 40
0.24
340
0
340
0
 62
   256
 40
0.24
300
I, O, Q, S, X, Z
 40
0.48
 90
        3
 40
0.18
 90
        1
 71
     2
340
16
 90
       25
 62
   256
340
16
 90
       50
 62
   256
 40
0.24
 40
0.0
 40
0.24
 71
     3
340
11
 62
   256
 40
0.24
 90
        1
 40
0.75
 90
        1
300
%<\AcVar ViewType \f "%tc1">% %<\AcVar ViewSectionStartId>%-%<\AcVar ViewSectionEndId>%\PSCALA %<\AcVar ViewScale \f "%sn">%
 71
     4
 62
   256
 62
   257
300
ANSI31
 40
1.0
 90
        0
290
     0
290
     0
 90
        6
 40
0.0
 40
1.570796326794896
 40
0.2617993877991494
 40
1.308996938995747
 40
-0.2617993877991494
 40
1.832595714594046
  0
TABLESTYLE
  5
293
102
{ACAD_XDICTIONARY
360
398
102
}
102
{ACAD_REACTORS
330
284
102
}
330
284
100
AcDbTableStyle
280
     0
  3
Standard
 70
     0
 71
     0
 40
0.06
 41
0.06
280
     0
281
     0
  7
Standard
140
0.18
170
     2
 62
     0
 63
     7
283
     0
 90
      512
 91
        0
  1

274
    -2
284
     1
 64
     0
275
    -2
285
     1
 65
     0
276
    -2
286
     1
 66
     0
277
    -2
287
     1
 67
     0
278
    -2
288
     1
 68
     0
279
    -2
289
     1
 69
     0
  7
Standard
140
0.25
170
     5
 62
     0
 63
     7
283
     0
 90
      512
 91
        0
  1

274
    -2
284
     1
 64
     0
275
    -2
285
     1
 65
     0
276
    -2
286
     1
 66
     0
277
    -2
287
     1
 67
     0
278
    -2
288
     1
 68
     0
279
    -2
289
     1
 69
     0
  7
Standard
140
0.18
170
     5
 62
     0
 63
     7
283
     0
 90
      512
 91
        0
  1

274
    -2
284
     1
 64
     0
275
    -2
285
     1
 65
     0
276
    -2
286
     1
 66
     0
277
    -2
287
     1
 67
     0
278
    -2
288
     1
 68
     0
279
    -2
289
     1
 69
     0
  0
VISUALSTYLE
  5
2F
102
{ACAD_REACTORS
330
2A
102
}
330
2A
100
AcDbVisualStyle
  2
2dWireframe
 70
     4
177
     3
291
     0
 70
    58
 90
        0
176
     1
 90
        2
176
     1
 90
        0
176
     1
 90
        0
176
     1
 40
0.6
176
     1
 40
30.0
176
     1
 62
     7
420
 16777215
176
     1
 90
        1
176
     1
 90
        4
176
     1
 62
     7
176
     1
 62
   257
176
     1
 90
        1
176
     1
 90
        1
176
     1
 40
1.0
176
     1
 90
        0
176
     1
 62
   257
176
     1
 40
1.0
176
     1
 90
        1
176
     1
 90
        6
176
     1
 90
        2
176
     1
 62
     7
176
     1
 90
        5
176
     1
 90
        0
176
     1
 90
        0
176
     1
290
     0
176
     1
 90
        1
176
     1
 40
0.0
176
     1
 90
        0
176
     1
290
     1
176
     1
290
     1
176
     1
290
     0
176
     1
290
     0
176
     1
290
     0
176
     1
290
     0
176
     1
290
     0
176
     1
290
     0
176
     1
290
     0
176
     1
 90
       50
176
     1
 40
0.0
176
     1
 40
1.0
176
     1
 90
        0
176
     1
 62
    18
420
        0
176
     1
 90
       50
176
     1
 90
        3
176
     1
 62
     5
420
      255
176
     1
290
     0
176
     1
 90
       50
176
     1
 90
       50
176
     1
 90
       50
176
     1
290
     0
176
     1
 90
       50
176
     1
 62
   256
176
     0
 40
1.0
176
     0
 90
        2
176
     1
  1
strokes_ogs.tif
176
     1
290
     0
176
     1
 40
1.0
176
     1
 40
1.0
176
     1
1001
ACAD
1000
AcDbSavedByObjectVersion
1070
     0
  0
VISUALSTYLE
  5
31
102
{ACAD_REACTORS
330
2A
102
}
330
2A
100
AcDbVisualStyle
  2
3D Hidden
 70
     6
177
     3
291
     0
 70
    58
 90
        1
176
     1
 90
        2
176
     1
 90
        2
176
     1
 90
        0
176
     1
 40
0.6
176
     1
 40
30.0
176
     1
 62
     7
420
 16777215
176
     1
 90
        2
176
     1
 90
        2
176
     1
 62
     7
176
     1
 62
   257
176
     1
 90
        2
176
     1
 90
        1
176
     1
 40
40.0
176
     1
 90
        0
176
     1
 62
   257
176
     1
 40
1.0
176
     1
 90
        1
176
     1
 90
        6
176
     1
 90
        2
176
     1
 62
     7
176
     1
 90
        3
176
     1
 90
        0
176
     1
 90
        0
176
     1
290
     0
176
     1
 90
        1
176
     1
 40
0.0
176
     1
 90
        0
176
     1
290
     0
176
     1
290
     1
176
     1
290
     1
176
     1
290
     0
176
     1
290
     0
176
     1
290
     0
176
     1
290
     0
176
     1
290
     0
176
     1
290
     0
176
     1
 90
       50
176
     1
 40
0.0
176
     1
 40
1.0
176
     1
 90
        0
176
     1
 62
    18
420
        0
176
     1
 90
       50
176
     1
 90
        3
176
     1
 62
     5
420
      255
176
     1
290
     0
176
     1
 90
       50
176
     1
 90
       50
176
     1
 90
       50
176
     1
290
     0
176
     1
 90
       50
176
     1
 62
   256
176
     0
 40
1.0
176
     0
 90
        2
176
     1
  1
strokes_ogs.tif
176
     1
290
     0
176
     1
 40
1.0
176
     1
 40
1.0
176
     1
1001
ACAD
1000
AcDbSavedByObjectVersion
1070
     0
  0
VISUALSTYLE
  5
30
102
{ACAD_REACTORS
330
2A
102
}
330
2A
100
AcDbVisualStyle
  2
3dWireframe
 70
     5
177
     3
291
     0
 70
    58
 90
        0
176
     1
 90
        2
176
     1
 90
        0
176
     1
 90
        0
176
     1
 40
0.6
176
     1
 40
30.0
176
     1
 62
     7
420
 16777215
176
     1
 90
        1
176
     1
 90
        4
176
     1
 62
     7
176
     1
 62
   257
176
     1
 90
        1
176
     1
 90
        1
176
     1
 40
1.0
176
     1
 90
        0
176
     1
 62
   257
176
     1
 40
1.0
176
     1
 90
        1
176
     1
 90
        6
176
     1
 90
        2
176
     1
 62
     7
176
     1
 90
        5
176
     1
 90
        0
176
     1
 90
        0
176
     1
290
     0
176
     1
 90
        1
176
     1
 40
0.0
176
     1
 90
        0
176
     1
290
     0
176
     1
290
     1
176
     1
290
     1
176
     1
290
     0
176
     1
290
     0
176
     1
290
     0
176
     1
290
     0
176
     1
290
     0
176
     1
290
     0
176
     1
 90
       50
176
     1
 40
0.0
176
     1
 40
1.0
176
     1
 90
        0
176
     1
 62
    18
420
        0
176
     1
 90
       50
176
     1
 90
        3
176
     1
 62
     5
420
      255
176
     1
290
     0
176
     1
 90
       50
176
     1
 90
       50
176
     1
 90
       50
176
     1
290
     0
176
     1
 90
       50
176
     1
 62
   256
176
     0
 40
1.0
176
     0
 90
        2
176
     1
  1
strokes_ogs.tif
176
     1
290
     0
176
     1
 40
1.0
176
     1
 40
1.0
176
     1
1001
ACAD
1000
AcDbSavedByObjectVersion
1070
     0
  0
VISUALSTYLE
  5
32
102
{ACAD_REACTORS
330
2A
102
}
330
2A
100
AcDbVisualStyle
  2
Basic
 70
     7
177
     3
291
     1
 70
    58
 90
        1
176
     1
 90
        0
176
     1
 90
        1
176
     1
 90
        0
176
     1
 40
0.6
176
     1
 40
30.0
176
     1
 62
     7
420
 16777215
176
     1
 90
        0
176
     1
 90
        4
176
     1
 62
     7
176
     1
 62
   257
176
     1
 90
        1
176
     1
 90
        1
176
     1
 40
1.0
176
     1
 90
        8
176
     1
 62
     7
176
     1
 40
1.0
176
     1
 90
        1
176
     1
 90
        6
176
     1
 90
        2
176
     1
 62
     7
176
     1
 90
        5
176
     1
 90
        0
176
     1
 90
        0
176
     1
290
     0
176
     1
 90
        1
176
     1
 40
0.0
176
     1
 90
        0
176
     1
290
     0
176
     1
290
     1
176
     1
290
     1
176
     1
290
     0
176
     1
290
     0
176
     1
290
     0
176
     1
290
     0
176
     1
290
     0
176
     1
290
     0
176
     1
 90
       50
176
     1
 40
0.0
176
     1
 40
1.0
176
     1
 90
        0
176
     1
 62
    18
420
        0
176
     1
 90
       50
176
     1
 90
        3
176
     1
 62
     5
420
      255
176
     1
290
     0
176
     1
 90
       50
176
     1
 90
       50
176
     1
 90
       50
176
     1
290
     0
176
     1
 90
       50
176
     1
 62
   256
176
     0
 40
1.0
176
     0
 90
        2
176
     1
  1
strokes_ogs.tif
176
     1
290
     0
176
     1
 40
1.0
176
     1
 40
1.0
176
     1
1001
ACAD
1000
AcDbSavedByObjectVersion
1070
     0
  0
VISUALSTYLE
  5
36
102
{ACAD_REACTORS
330
2A
102
}
330
2A
100
AcDbVisualStyle
  2
Brighten
 70
    12
177
     3
291
     1
 70
    58
 90
        2
176
     1
 90
        2
176
     1
 90
        0
176
     1
 90
        0
176
     1
 40
0.6
176
     1
 40
30.0
176
     1
 62
     7
420
 16777215
176
     1
 90
        1
176
     1
 90
        4
176
     1
 62
     7
176
     1
 62
   257
176
     1
 90
        1
176
     1
 90
        1
176
     1
 40
1.0
176
     1
 90
        8
176
     1
 62
     7
176
     1
 40
1.0
176
     1
 90
        1
176
     1
 90
        6
176
     1
 90
        2
176
     1
 62
     7
176
     1
 90
        5
176
     1
 90
        0
176
     1
 90
        0
176
     1
290
     0
176
     1
 90
        1
176
     1
 40
50.0
176
     1
 90
        0
176
     1
290
     0
176
     1
290
     1
176
     1
290
     1
176
     1
290
     0
176
     1
290
     0
176
     1
290
     0
176
     1
290
     0
176
     1
290
     0
176
     1
290
     0
176
     1
 90
       50
176
     1
 40
0.0
176
     1
 40
1.0
176
     1
 90
        0
176
     1
 62
    18
420
        0
176
     1
 90
       50
176
     1
 90
        3
176
     1
 62
     5
420
      255
176
     1
290
     0
176
     1
 90
       50
176
     1
 90
       50
176
     1
 90
       50
176
     1
290
     0
176
     1
 90
       50
176
     1
 62
   256
176
     0
 40
1.0
176
     0
 90
        2
176
     1
  1
strokes_ogs.tif
176
     1
290
     0
176
     1
 40
1.0
176
     1
 40
1.0
176
     1
1001
ACAD
1000
AcDbSavedByObjectVersion
1070
     0
  0
VISUALSTYLE
  5
3A
102
{ACAD_REACTORS
330
2A
102
}
330
2A
100
AcDbVisualStyle
  2
ColorChange
 70
    16
177
     3
291
     1
 70
    58
 90
        2
176
     1
 90
        2
176
     1
 90
        3
176
     1
 90
        0
176
     1
 40
0.6
176
     1
 40
30.0
176
     1
 62
     8
420
  8421504
176
     1
 90
        1
176
     1
 90
        4
176
     1
 62
     7
176
     1
 62
   257
176
     1
 90
        1
176
     1
 90
        1
176
     1
 40
1.0
176
     1
 90
        8
176
     1
 62
     8
420
  8421504
176
     1
 40
1.0
176
     1
 90
        1
176
     1
 90
        6
176
     1
 90
        2
176
     1
 62
     7
176
     1
 90
        5
176
     1
 90
        0
176
     1
 90
        0
176
     1
290
     0
176
     1
 90
        1
176
     1
 40
0.0
176
     1
 90
        0
176
     1
290
     0
176
     1
290
     1
176
     1
290
     1
176
     1
290
     0
176
     1
290
     0
176
     1
290
     0
176
     1
290
     0
176
     1
290
     0
176
     1
290
     0
176
     1
 90
       50
176
     1
 40
0.0
176
     1
 40
1.0
176
     1
 90
        0
176
     1
 62
    18
420
        0
176
     1
 90
       50
176
     1
 90
        3
176
     1
 62
     5
420
      255
176
     1
290
     0
176
     1
 90
       50
176
     1
 90
       50
176
     1
 90
       50
176
     1
290
     0
176
     1
 90
       50
176
     1
 62
   256
176
     0
 40
1.0
176
     0
 90
        2
176
     1
  1
strokes_ogs.tif
176
     1
290
     0
176
     1
 40
1.0
176
     1
 40
1.0
176
     1
1001
ACAD
1000
AcDbSavedByObjectVersion
1070
     0
  0
VISUALSTYLE
  5
34
102
{ACAD_REACTORS
330
2A
102
}
330
2A
100
AcDbVisualStyle
  2
Conceptual
 70
     9
177
     3
291
     0
 70
    58
 90
        3
176
     1
 90
        2
176
     1
 90
        0
176
     1
 90
        0
176
     1
 40
0.6
176
     1
 40
30.0
176
     1
 62
     7
420
 16777215
176
     1
 90
        2
176
     1
 90
        2
176
     1
 62
     7
176
     1
 62
   257
176
     1
 90
        1
176
     1
 90
        1
176
     1
 40
40.0
176
     1
 90
        8
176
     1
 62
     7
176
     1
 40
1.0
176
     1
 90
        1
176
     1
 90
        6
176
     1
 90
        2
176
     1
 62
     7
176
     1
 90
        3
176
     1
 90
        0
176
     1
 90
        0
176
     1
290
     0
176
     1
 90
        1
176
     1
 40
0.0
176
     1
 90
        0
176
     1
290
     0
176
     1
290
     1
176
     1
290
     1
176
     1
290
     0
176
     1
290
     0
176
     1
290
     0
176
     1
290
     0
176
     1
290
     0
176
     1
290
     0
176
     1
 90
       50
176
     1
 40
0.0
176
     1
 40
1.0
176
     1
 90
        0
176
     1
 62
    18
420
        0
176
     1
 90
       50
176
     1
 90
        3
176
     1
 62
     5
420
      255
176
     1
290
     0
176
     1
 90
       50
176
     1
 90
       50
176
     1
 90
       50
176
     1
290
     0
176
     1
 90
       50
176
     1
 62
   256
176
     0
 40
1.0
176
     0
 90
        2
176
     1
  1
strokes_ogs.tif
176
     1
290
     0
176
     1
 40
1.0
176
     1
 40
1.0
176
     1
1001
ACAD
1000
AcDbSavedByObjectVersion
1070
     0
  0
VISUALSTYLE
  5
35
102
{ACAD_REACTORS
330
2A
102
}
330
2A
100
AcDbVisualStyle
  2
Dim
 70
    11
177
     3
291
     1
 70
    58
 90
        2
176
     1
 90
        2
176
     1
 90
        0
176
     1
 90
        0
176
     1
 40
0.6
176
     1
 40
30.0
176
     1
 62
     7
420
 16777215
176
     1
 90
        1
176
     1
 90
        4
176
     1
 62
     7
176
     1
 62
   257
176
     1
 90
        1
176
     1
 90
        1
176
     1
 40
1.0
176
     1
 90
        8
176
     1
 62
     7
176
     1
 40
1.0
176
     1
 90
        1
176
     1
 90
        6
176
     1
 90
        2
176
     1
 62
     7
176
     1
 90
        5
176
     1
 90
        0
176
     1
 90
        0
176
     1
290
     0
176
     1
 90
        1
176
     1
 40
-50.0
176
     1
 90
        0
176
     1
290
     0
176
     1
290
     1
176
     1
290
     1
176
     1
290
     0
176
     1
290
     0
176
     1
290
     0
176
     1
290
     0
176
     1
290
     0
176
     1
290
     0
176
     1
 90
       50
176
     1
 40
0.0
176
     1
 40
1.0
176
     1
 90
        0
176
     1
 62
    18
420
        0
176
     1
 90
       50
176
     1
 90
        3
176
     1
 62
     5
420
      255
176
     1
290
     0
176
     1
 90
       50
176
     1
 90
       50
176
     1
 90
       50
176
     1
290
     0
176
     1
 90
       50
176
     1
 62
   256
176
     0
 40
1.0
176
     0
 90
        2
176
     1
  1
strokes_ogs.tif
176
     1
290
     0
176
     1
 40
1.0
176
     1
 40
1.0
176
     1
1001
ACAD
1000
AcDbSavedByObjectVersion
1070
     0
  0
VISUALSTYLE
  5
291
102
{ACAD_REACTORS
330
2A
102
}
330
2A
100
AcDbVisualStyle
  2
EdgeColorOff
 70
    22
177
     3
291
     1
 70
    58
 90
        2
176
     0
 90
        2
176
     0
 90
        0
176
     0
 90
        0
176
     0
 40
0.6
176
     0
 40
30.0
176
     0
 62
     7
420
 16777215
176
     0
 90
        1
176
     0
 90
        4
176
     0
 62
     7
176
     0
 62
   257
176
     0
 90
        1
176
     0
 90
        1
176
     0
 40
1.0
176
     0
 90
        8
176
     2
 62
     7
176
     0
 40
1.0
176
     0
 90
        1
176
     0
 90
        6
176
     0
 90
        2
176
     0
 62
     7
176
     0
 90
        5
176
     0
 90
        0
176
     0
 90
        0
176
     0
290
     0
176
     0
 90
        1
176
     0
 40
0.0
176
     0
 90
        0
176
     0
290
     0
176
     1
290
     1
176
     1
290
     1
176
     1
290
     0
176
     1
290
     0
176
     1
290
     0
176
     1
290
     0
176
     1
290
     0
176
     1
290
     0
176
     1
 90
       50
176
     0
 40
0.0
176
     0
 40
1.0
176
     0
 90
        0
176
     0
 62
    18
420
        0
176
     0
 90
       50
176
     0
 90
        3
176
     0
 62
     5
420
      255
176
     0
290
     0
176
     1
 90
       50
176
     0
 90
       50
176
     0
 90
       50
176
     0
290
     0
176
     1
 90
       50
176
     0
 62
   256
176
     0
 40
1.0
176
     0
 90
        2
176
     0
  1
strokes_ogs.tif
176
     0
290
     0
176
     1
 40
1.0
176
     0
 40
1.0
176
     0
1001
ACAD
1000
AcDbSavedByObjectVersion
1070
     0
  0
VISUALSTYLE
  5
39
102
{ACAD_REACTORS
330
2A
102
}
330
2A
100
AcDbVisualStyle
  2
Facepattern
 70
    15
177
     3
291
     1
 70
    58
 90
        2
176
     1
 90
        2
176
     1
 90
        0
176
     1
 90
        0
176
     1
 40
0.6
176
     1
 40
30.0
176
     1
 62
     7
420
 16777215
176
     1
 90
        1
176
     1
 90
        4
176
     1
 62
     7
176
     1
 62
   257
176
     1
 90
        1
176
     1
 90
        1
176
     1
 40
1.0
176
     1
 90
        8
176
     1
 62
     7
176
     1
 40
1.0
176
     1
 90
        1
176
     1
 90
        6
176
     1
 90
        2
176
     1
 62
     7
176
     1
 90
        5
176
     1
 90
        0
176
     1
 90
        0
176
     1
290
     0
176
     1
 90
        1
176
     1
 40
0.0
176
     1
 90
        0
176
     1
290
     0
176
     1
290
     1
176
     1
290
     1
176
     1
290
     0
176
     1
290
     0
176
     1
290
     0
176
     1
290
     0
176
     1
290
     0
176
     1
290
     0
176
     1
 90
       50
176
     1
 40
0.0
176
     1
 40
1.0
176
     1
 90
        0
176
     1
 62
    18
420
        0
176
     1
 90
       50
176
     1
 90
        3
176
     1
 62
     5
420
      255
176
     1
290
     0
176
     1
 90
       50
176
     1
 90
       50
176
     1
 90
       50
176
     1
290
     0
176
     1
 90
       50
176
     1
 62
   256
176
     0
 40
1.0
176
     0
 90
        2
176
     1
  1
strokes_ogs.tif
176
     1
290
     0
176
     1
 40
1.0
176
     1
 40
1.0
176
     1
1001
ACAD
1000
AcDbSavedByObjectVersion
1070
     0
  0
VISUALSTYLE
  5
2B
102
{ACAD_REACTORS
330
2A
102
}
330
2A
100
AcDbVisualStyle
  2
Flat
 70
     0
177
     3
291
     1
 70
    58
 90
        2
176
     1
 90
        1
176
     1
 90
        1
176
     1
 90
        2
176
     1
 40
0.6
176
     1
 40
30.0
176
     1
 62
     7
420
 16777215
176
     1
 90
        0
176
     1
 90
        4
176
     1
 62
     7
176
     1
 62
   257
176
     1
 90
        1
176
     1
 90
        1
176
     1
 40
1.0
176
     1
 90
        8
176
     1
 62
     7
176
     1
 40
1.0
176
     1
 90
        1
176
     1
 90
        6
176
     1
 90
        2
176
     1
 62
     7
176
     1
 90
        5
176
     1
 90
        0
176
     1
 90
        0
176
     1
290
     0
176
     1
 90
       13
176
     1
 40
0.0
176
     1
 90
        0
176
     1
290
     0
176
     1
290
     1
176
     1
290
     1
176
     1
290
     0
176
     1
290
     0
176
     1
290
     0
176
     1
290
     0
176
     1
290
     0
176
     1
290
     0
176
     1
 90
       50
176
     1
 40
0.0
176
     1
 40
1.0
176
     1
 90
        0
176
     1
 62
    18
420
        0
176
     1
 90
       50
176
     1
 90
        3
176
     1
 62
     5
420
      255
176
     1
290
     0
176
     1
 90
       50
176
     1
 90
       50
176
     1
 90
       50
176
     1
290
     0
176
     1
 90
       50
176
     1
 62
   256
176
     0
 40
1.0
176
     0
 90
        2
176
     1
  1
strokes_ogs.tif
176
     1
290
     0
176
     1
 40
1.0
176
     1
 40
1.0
176
     1
1001
ACAD
1000
AcDbSavedByObjectVersion
1070
     0
  0
VISUALSTYLE
  5
2C
102
{ACAD_REACTORS
330
2A
102
}
330
2A
100
AcDbVisualStyle
  2
FlatWithEdges
 70
     1
177
     3
291
     1
 70
    58
 90
        2
176
     1
 90
        1
176
     1
 90
        1
176
     1
 90
        2
176
     1
 40
0.6
176
     1
 40
30.0
176
     1
 62
     7
420
 16777215
176
     1
 90
        1
176
     1
 90
        4
176
     1
 62
     7
176
     1
 62
   257
176
     1
 90
        1
176
     1
 90
        1
176
     1
 40
1.0
176
     1
 90
        0
176
     1
 62
   257
176
     1
 40
1.0
176
     1
 90
        1
176
     1
 90
        6
176
     1
 90
        2
176
     1
 62
     7
176
     1
 90
        5
176
     1
 90
        0
176
     1
 90
        0
176
     1
290
     0
176
     1
 90
       13
176
     1
 40
0.0
176
     1
 90
        0
176
     1
290
     0
176
     1
290
     1
176
     1
290
     1
176
     1
290
     0
176
     1
290
     0
176
     1
290
     0
176
     1
290
     0
176
     1
290
     0
176
     1
290
     0
176
     1
 90
       50
176
     1
 40
0.0
176
     1
 40
1.0
176
     1
 90
        0
176
     1
 62
    18
420
        0
176
     1
 90
       50
176
     1
 90
        3
176
     1
 62
     5
420
      255
176
     1
290
     0
176
     1
 90
       50
176
     1
 90
       50
176
     1
 90
       50
176
     1
290
     0
176
     1
 90
       50
176
     1
 62
   256
176
     0
 40
1.0
176
     0
 90
        2
176
     1
  1
strokes_ogs.tif
176
     1
290
     0
176
     1
 40
1.0
176
     1
 40
1.0
176
     1
1001
ACAD
1000
AcDbSavedByObjectVersion
1070
     0
  0
VISUALSTYLE
  5
2D
102
{ACAD_REACTORS
330
2A
102
}
330
2A
100
AcDbVisualStyle
  2
Gouraud
 70
     2
177
     3
291
     1
 70
    58
 90
        2
176
     1
 90
        2
176
     1
 90
        1
176
     1
 90
        2
176
     1
 40
0.6
176
     1
 40
30.0
176
     1
 62
     7
420
 16777215
176
     1
 90
        0
176
     1
 90
        4
176
     1
 62
     7
176
     1
 62
   257
176
     1
 90
        1
176
     1
 90
        1
176
     1
 40
1.0
176
     1
 90
        0
176
     1
 62
     7
176
     1
 40
1.0
176
     1
 90
        1
176
     1
 90
        6
176
     1
 90
        2
176
     1
 62
     7
176
     1
 90
        5
176
     1
 90
        0
176
     1
 90
        0
176
     1
290
     0
176
     1
 90
       13
176
     1
 40
0.0
176
     1
 90
        0
176
     1
290
     0
176
     1
290
     1
176
     1
290
     1
176
     1
290
     0
176
     1
290
     0
176
     1
290
     0
176
     1
290
     0
176
     1
290
     0
176
     1
290
     0
176
     1
 90
       50
176
     1
 40
0.0
176
     1
 40
1.0
176
     1
 90
        0
176
     1
 62
    18
420
        0
176
     1
 90
       50
176
     1
 90
        3
176
     1
 62
     5
420
      255
176
     1
290
     0
176
     1
 90
       50
176
     1
 90
       50
176
     1
 90
       50
176
     1
290
     0
176
     1
 90
       50
176
     1
 62
   256
176
     0
 40
1.0
176
     0
 90
        2
176
     1
  1
strokes_ogs.tif
176
     1
290
     0
176
     1
 40
1.0
176
     1
 40
1.0
176
     1
1001
ACAD
1000
AcDbSavedByObjectVersion
1070
     0
  0
VISUALSTYLE
  5
2E
102
{ACAD_REACTORS
330
2A
102
}
330
2A
100
AcDbVisualStyle
  2
GouraudWithEdges
 70
     3
177
     3
291
     1
 70
    58
 90
        2
176
     1
 90
        2
176
     1
 90
        1
176
     1
 90
        2
176
     1
 40
0.6
176
     1
 40
30.0
176
     1
 62
     7
420
 16777215
176
     1
 90
        1
176
     1
 90
        4
176
     1
 62
     7
176
     1
 62
   257
176
     1
 90
        1
176
     1
 90
        1
176
     1
 40
1.0
176
     1
 90
        0
176
     1
 62
   257
176
     1
 40
1.0
176
     1
 90
        1
176
     1
 90
        6
176
     1
 90
        2
176
     1
 62
     7
176
     1
 90
        5
176
     1
 90
        0
176
     1
 90
        0
176
     1
290
     0
176
     1
 90
       13
176
     1
 40
0.0
176
     1
 90
        0
176
     1
290
     0
176
     1
290
     1
176
     1
290
     1
176
     1
290
     0
176
     1
290
     0
176
     1
290
     0
176
     1
290
     0
176
     1
290
     0
176
     1
290
     0
176
     1
 90
       50
176
     1
 40
0.0
176
     1
 40
1.0
176
     1
 90
        0
176
     1
 62
    18
420
        0
176
     1
 90
       50
176
     1
 90
        3
176
     1
 62
     5
420
      255
176
     1
290
     0
176
     1
 90
       50
176
     1
 90
       50
176
     1
 90
       50
176
     1
290
     0
176
     1
 90
       50
176
     1
 62
   256
176
     0
 40
1.0
176
     0
 90
        2
176
     1
  1
strokes_ogs.tif
176
     1
290
     0
176
     1
 40
1.0
176
     1
 40
1.0
176
     1
1001
ACAD
1000
AcDbSavedByObjectVersion
1070
     0
  0
VISUALSTYLE
  5
289
102
{ACAD_REACTORS
330
2A
102
}
330
2A
100
AcDbVisualStyle
  2
Hidden
 70
     6
177
     3
291
     0
 70
    58
 90
        1
176
     1
 90
        2
176
     1
 90
        2
176
     1
 90
        0
176
     1
 40
0.6
176
     1
 40
30.0
176
     1
 62
     7
420
 16777215
176
     1
 90
        2
176
     1
 90
        2
176
     1
 62
     7
176
     1
 62
   257
176
     1
 90
        2
176
     1
 90
        1
176
     1
 40
40.0
176
     1
 90
        0
176
     1
 62
   257
176
     1
 40
1.0
176
     1
 90
        1
176
     1
 90
        6
176
     1
 90
        2
176
     1
 62
     7
176
     1
 90
        3
176
     1
 90
        0
176
     1
 90
        0
176
     1
290
     0
176
     1
 90
        1
176
     1
 40
0.0
176
     1
 90
        0
176
     1
290
     0
176
     1
290
     1
176
     1
290
     1
176
     1
290
     0
176
     1
290
     0
176
     1
290
     0
176
     1
290
     0
176
     1
290
     0
176
     1
290
     0
176
     1
 90
       50
176
     1
 40
0.0
176
     1
 40
1.0
176
     1
 90
        0
176
     1
 62
    18
420
        0
176
     1
 90
       50
176
     1
 90
        3
176
     1
 62
     5
420
      255
176
     1
290
     0
176
     1
 90
       50
176
     1
 90
       50
176
     1
 90
       50
176
     1
290
     0
176
     1
 90
       50
176
     1
 62
   256
176
     0
 40
1.0
176
     0
 90
        2
176
     1
  1
strokes_ogs.tif
176
     1
290
     0
176
     1
 40
1.0
176
     1
 40
1.0
176
     1
1001
ACAD
1000
AcDbSavedByObjectVersion
1070
     0
  0
VISUALSTYLE
  5
28F
102
{ACAD_REACTORS
330
2A
102
}
330
2A
100
AcDbVisualStyle
  2
JitterOff
 70
    20
177
     3
291
     1
 70
    58
 90
        2
176
     0
 90
        2
176
     0
 90
        0
176
     0
 90
        0
176
     0
 40
0.6
176
     0
 40
30.0
176
     0
 62
     7
420
 16777215
176
     0
 90
        1
176
     0
 90
        4
176
     0
 62
     7
176
     0
 62
   257
176
     0
 90
        1
176
     0
 90
        1
176
     0
 40
1.0
176
     0
 90
       10
176
     2
 62
     7
176
     0
 40
1.0
176
     0
 90
        1
176
     0
 90
        6
176
     0
 90
        2
176
     0
 62
     7
176
     0
 90
        5
176
     0
 90
        0
176
     0
 90
        0
176
     0
290
     0
176
     0
 90
        1
176
     0
 40
0.0
176
     0
 90
        0
176
     0
290
     0
176
     1
290
     1
176
     1
290
     1
176
     1
290
     0
176
     1
290
     0
176
     1
290
     0
176
     1
290
     0
176
     1
290
     0
176
     1
290
     0
176
     1
 90
       50
176
     0
 40
0.0
176
     0
 40
1.0
176
     0
 90
        0
176
     0
 62
    18
420
        0
176
     0
 90
       50
176
     0
 90
        3
176
     0
 62
     5
420
      255
176
     0
290
     0
176
     1
 90
       50
176
     0
 90
       50
176
     0
 90
       50
176
     0
290
     0
176
     1
 90
       50
176
     0
 62
   256
176
     0
 40
1.0
176
     0
 90
        2
176
     0
  1
strokes_ogs.tif
176
     0
290
     0
176
     1
 40
1.0
176
     0
 40
1.0
176
     0
1001
ACAD
1000
AcDbSavedByObjectVersion
1070
     0
  0
VISUALSTYLE
  5
38
102
{ACAD_REACTORS
330
2A
102
}
330
2A
100
AcDbVisualStyle
  2
Linepattern
 70
    14
177
     3
291
     1
 70
    58
 90
        2
176
     1
 90
        2
176
     1
 90
        0
176
     1
 90
        0
176
     1
 40
0.6
176
     1
 40
30.0
176
     1
 62
     7
420
 16777215
176
     1
 90
        1
176
     1
 90
        4
176
     1
 62
     7
176
     1
 62
   257
176
     1
 90
        7
176
     1
 90
        7
176
     1
 40
1.0
176
     1
 90
        8
176
     1
 62
     7
176
     1
 40
1.0
176
     1
 90
        1
176
     1
 90
        6
176
     1
 90
        2
176
     1
 62
     7
176
     1
 90
        5
176
     1
 90
        0
176
     1
 90
        0
176
     1
290
     0
176
     1
 90
        1
176
     1
 40
0.0
176
     1
 90
        0
176
     1
290
     0
176
     1
290
     1
176
     1
290
     1
176
     1
290
     0
176
     1
290
     0
176
     1
290
     0
176
     1
290
     0
176
     1
290
     0
176
     1
290
     0
176
     1
 90
       50
176
     1
 40
0.0
176
     1
 40
1.0
176
     1
 90
        0
176
     1
 62
    18
420
        0
176
     1
 90
       50
176
     1
 90
        3
176
     1
 62
     5
420
      255
176
     1
290
     0
176
     1
 90
       50
176
     1
 90
       50
176
     1
 90
       50
176
     1
290
     0
176
     1
 90
       50
176
     1
 62
   256
176
     0
 40
1.0
176
     0
 90
        2
176
     1
  1
strokes_ogs.tif
176
     1
290
     0
176
     1
 40
1.0
176
     1
 40
1.0
176
     1
1001
ACAD
1000
AcDbSavedByObjectVersion
1070
     0
  0
VISUALSTYLE
  5
290
102
{ACAD_REACTORS
330
2A
102
}
330
2A
100
AcDbVisualStyle
  2
OverhangOff
 70
    21
177
     3
291
     1
 70
    58
 90
        2
176
     0
 90
        2
176
     0
 90
        0
176
     0
 90
        0
176
     0
 40
0.6
176
     0
 40
30.0
176
     0
 62
     7
420
 16777215
176
     0
 90
        1
176
     0
 90
        4
176
     0
 62
     7
176
     0
 62
   257
176
     0
 90
        1
176
     0
 90
        1
176
     0
 40
1.0
176
     0
 90
        9
176
     2
 62
     7
176
     0
 40
1.0
176
     0
 90
        1
176
     0
 90
        6
176
     0
 90
        2
176
     0
 62
     7
176
     0
 90
        5
176
     0
 90
        0
176
     0
 90
        0
176
     0
290
     0
176
     0
 90
        1
176
     0
 40
0.0
176
     0
 90
        0
176
     0
290
     0
176
     1
290
     1
176
     1
290
     1
176
     1
290
     0
176
     1
290
     0
176
     1
290
     0
176
     1
290
     0
176
     1
290
     0
176
     1
290
     0
176
     1
 90
       50
176
     0
 40
0.0
176
     0
 40
1.0
176
     0
 90
        0
176
     0
 62
    18
420
        0
176
     0
 90
       50
176
     0
 90
        3
176
     0
 62
     5
420
      255
176
     0
290
     0
176
     1
 90
       50
176
     0
 90
       50
176
     0
 90
       50
176
     0
290
     0
176
     1
 90
       50
176
     0
 62
   256
176
     0
 40
1.0
176
     0
 90
        2
176
     0
  1
strokes_ogs.tif
176
     0
290
     0
176
     1
 40
1.0
176
     0
 40
1.0
176
     0
1001
ACAD
1000
AcDbSavedByObjectVersion
1070
     0
  0
VISUALSTYLE
  5
33
102
{ACAD_REACTORS
330
2A
102
}
330
2A
100
AcDbVisualStyle
  2
Realistic
 70
     8
177
     3
291
     0
 70
    58
 90
        2
176
     1
 90
        2
176
     1
 90
        0
176
     1
 90
        0
176
     1
 40
0.6
176
     1
 40
30.0
176
     1
 62
     7
420
 16777215
176
     1
 90
        1
176
     1
 90
        0
176
     1
 62
     7
176
     1
 62
   257
176
     1
 90
        1
176
     1
 90
        1
176
     1
 40
1.0
176
     1
 90
        8
176
     1
 62
     8
420
  7895160
176
     1
 40
1.0
176
     1
 90
        1
176
     1
 90
        6
176
     1
 90
        2
176
     1
 62
     7
176
     1
 90
        5
176
     1
 90
        0
176
     1
 90
        0
176
     1
290
     0
176
     1
 90
       13
176
     1
 40
0.0
176
     1
 90
        0
176
     1
290
     0
176
     1
290
     1
176
     1
290
     1
176
     1
290
     0
176
     1
290
     0
176
     1
290
     0
176
     1
290
     0
176
     1
290
     0
176
     1
290
     0
176
     1
 90
       50
176
     1
 40
0.0
176
     1
 40
1.0
176
     1
 90
        0
176
     1
 62
    18
420
        0
176
     1
 90
       50
176
     1
 90
        3
176
     1
 62
     5
420
      255
176
     1
290
     0
176
     1
 90
       50
176
     1
 90
       50
176
     1
 90
       50
176
     1
290
     0
176
     1
 90
       50
176
     1
 62
   256
176
     0
 40
1.0
176
     0
 90
        2
176
     1
  1
strokes_ogs.tif
176
     1
290
     0
176
     1
 40
1.0
176
     1
 40
1.0
176
     1
1001
ACAD
1000
AcDbSavedByObjectVersion
1070
     0
  0
VISUALSTYLE
  5
28E
102
{ACAD_REACTORS
330
2A
102
}
330
2A
100
AcDbVisualStyle
  2
Shaded
 70
    27
177
     3
291
     0
 70
    58
 90
        2
176
     1
 90
        2
176
     1
 90
        1
176
     1
 90
        2
176
     1
 40
0.6
176
     1
 40
30.0
176
     1
 62
     7
420
 16777215
176
     1
 90
        0
176
     1
 90
        4
176
     1
 62
     7
176
     1
 62
   257
176
     1
 90
        1
176
     1
 90
        1
176
     1
 40
1.0
176
     1
 90
        8
176
     1
 62
   257
176
     1
 40
1.0
176
     1
 90
        1
176
     1
 90
        6
176
     1
 90
        2
176
     1
 62
     8
420
  7895160
176
     1
 90
        3
176
     1
 90
        0
176
     1
 90
        0
176
     1
290
     0
176
     1
 90
        5
176
     1
 40
0.0
176
     1
 90
        0
176
     1
290
     0
176
     1
290
     1
176
     1
290
     1
176
     1
290
     0
176
     1
290
     0
176
     1
290
     0
176
     1
290
     0
176
     1
290
     0
176
     1
290
     0
176
     1
 90
       50
176
     1
 40
0.0
176
     1
 40
1.0
176
     1
 90
        0
176
     1
 62
    18
420
        0
176
     1
 90
       50
176
     1
 90
        3
176
     1
 62
     5
420
      255
176
     1
290
     0
176
     1
 90
       50
176
     1
 90
       50
176
     1
 90
       50
176
     1
290
     0
176
     1
 90
       50
176
     1
 62
   256
176
     0
 40
1.0
176
     0
 90
        2
176
     1
  1
strokes_ogs.tif
176
     1
290
     0
176
     1
 40
1.0
176
     1
 40
1.0
176
     1
1001
ACAD
1000
AcDbSavedByObjectVersion
1070
     0
  0
VISUALSTYLE
  5
28D
102
{ACAD_REACTORS
330
2A
102
}
330
2A
100
AcDbVisualStyle
  2
Shaded with edges
 70
    26
177
     3
291
     0
 70
    58
 90
        2
176
     1
 90
        2
176
     1
 90
        1
176
     1
 90
        2
176
     1
 40
0.6
176
     1
 40
30.0
176
     1
 62
     7
420
 16777215
176
     1
 90
        1
176
     1
 90
        2
176
     1
 62
     7
176
     1
 62
   257
176
     1
 90
        2
176
     1
 90
        1
176
     1
 40
1.0
176
     1
 90
        8
176
     1
 62
   257
176
     1
 40
1.0
176
     1
 90
        1
176
     1
 90
        6
176
     1
 90
        2
176
     1
 62
     7
176
     1
 90
        3
176
     1
 90
        0
176
     1
 90
        0
176
     1
290
     0
176
     1
 90
        5
176
     1
 40
0.0
176
     1
 90
        0
176
     1
290
     0
176
     1
290
     1
176
     1
290
     1
176
     1
290
     0
176
     1
290
     0
176
     1
290
     0
176
     1
290
     0
176
     1
290
     0
176
     1
290
     0
176
     1
 90
       50
176
     1
 40
0.0
176
     1
 40
1.0
176
     1
 90
        0
176
     1
 62
    18
420
        0
176
     1
 90
       50
176
     1
 90
        3
176
     1
 62
     5
420
      255
176
     1
290
     0
176
     1
 90
       50
176
     1
 90
       50
176
     1
 90
       50
176
     1
290
     0
176
     1
 90
       50
176
     1
 62
   256
176
     0
 40
1.0
176
     0
 90
        2
176
     1
  1
strokes_ogs.tif
176
     1
290
     0
176
     1
 40
1.0
176
     1
 40
1.0
176
     1
1001
ACAD
1000
AcDbSavedByObjectVersion
1070
     0
  0
VISUALSTYLE
  5
28A
102
{ACAD_REACTORS
330
2A
102
}
330
2A
100
AcDbVisualStyle
  2
Shades of Gray
 70
    23
177
     3
291
     0
 70
    58
 90
        2
176
     1
 90
        2
176
     1
 90
        3
176
     1
 90
        0
176
     1
 40
0.6
176
     1
 40
30.0
176
     1
 62
     7
420
 16777215
176
     1
 90
        2
176
     1
 90
        2
176
     1
 62
     7
176
     1
 62
     7
176
     1
 90
        1
176
     1
 90
        1
176
     1
 40
40.0
176
     1
 90
        8
176
     1
 62
     7
176
     1
 40
1.0
176
     1
 90
        1
176
     1
 90
        6
176
     1
 90
        2
176
     1
 62
     7
176
     1
 90
        3
176
     1
 90
        0
176
     1
 90
        0
176
     1
290
     0
176
     1
 90
        1
176
     1
 40
0.0
176
     1
 90
        0
176
     1
290
     0
176
     1
290
     1
176
     1
290
     1
176
     1
290
     0
176
     1
290
     0
176
     1
290
     0
176
     1
290
     0
176
     1
290
     0
176
     1
290
     0
176
     1
 90
       50
176
     1
 40
0.0
176
     1
 40
1.0
176
     1
 90
        0
176
     1
 62
    18
420
        0
176
     1
 90
       50
176
     1
 90
        3
176
     1
 62
     5
420
      255
176
     1
290
     0
176
     1
 90
       50
176
     1
 90
       50
176
     1
 90
       50
176
     1
290
     0
176
     1
 90
       50
176
     1
 62
   256
176
     0
 40
1.0
176
     0
 90
        2
176
     1
  1
strokes_ogs.tif
176
     1
290
     0
176
     1
 40
1.0
176
     1
 40
1.0
176
     1
1001
ACAD
1000
AcDbSavedByObjectVersion
1070
     0
  0
VISUALSTYLE
  5
28B
102
{ACAD_REACTORS
330
2A
102
}
330
2A
100
AcDbVisualStyle
  2
Sketchy
 70
    24
177
     3
291
     0
 70
    58
 90
        1
176
     1
 90
        2
176
     1
 90
        2
176
     1
 90
        0
176
     1
 40
0.6
176
     1
 40
30.0
176
     1
 62
     7
420
 16777215
176
     1
 90
        2
176
     1
 90
        2
176
     1
 62
     7
176
     1
 62
     7
176
     1
 90
        1
176
     1
 90
        1
176
     1
 40
40.0
176
     1
 90
       11
176
     1
 62
     7
176
     1
 40
1.0
176
     1
 90
        1
176
     1
 90
        6
176
     1
 90
        2
176
     1
 62
     7
176
     1
 90
        6
176
     1
 90
        0
176
     1
 90
        0
176
     1
290
     0
176
     1
 90
        1
176
     1
 40
0.0
176
     1
 90
        0
176
     1
290
     0
176
     1
290
     1
176
     1
290
     1
176
     1
290
     0
176
     1
290
     0
176
     1
290
     0
176
     1
290
     0
176
     1
290
     0
176
     1
290
     0
176
     1
 90
       50
176
     1
 40
0.0
176
     1
 40
1.0
176
     1
 90
        0
176
     1
 62
    18
420
        0
176
     1
 90
       50
176
     1
 90
        3
176
     1
 62
     5
420
      255
176
     1
290
     0
176
     1
 90
       50
176
     1
 90
       50
176
     1
 90
       50
176
     1
290
     0
176
     1
 90
       50
176
     1
 62
   256
176
     0
 40
1.0
176
     0
 90
        2
176
     1
  1
strokes_ogs.tif
176
     1
290
     0
176
     1
 40
1.0
176
     1
 40
1.0
176
     1
1001
ACAD
1000
AcDbSavedByObjectVersion
1070
     0
  0
VISUALSTYLE
  5
37
102
{ACAD_REACTORS
330
2A
102
}
330
2A
100
AcDbVisualStyle
  2
Thicken
 70
    13
177
     3
291
     1
 70
    58
 90
        2
176
     1
 90
        2
176
     1
 90
        0
176
     1
 90
        0
176
     1
 40
0.6
176
     1
 40
30.0
176
     1
 62
     7
420
 16777215
176
     1
 90
        1
176
     1
 90
        4
176
     1
 62
     7
176
     1
 62
   257
176
     1
 90
        1
176
     1
 90
        1
176
     1
 40
1.0
176
     1
 90
       12
176
     1
 62
     7
176
     1
 40
1.0
176
     1
 90
        1
176
     1
 90
        6
176
     1
 90
        2
176
     1
 62
     7
176
     1
 90
        5
176
     1
 90
        0
176
     1
 90
        0
176
     1
290
     0
176
     1
 90
        1
176
     1
 40
0.0
176
     1
 90
        0
176
     1
290
     0
176
     1
290
     1
176
     1
290
     1
176
     1
290
     0
176
     1
290
     0
176
     1
290
     0
176
     1
290
     0
176
     1
290
     0
176
     1
290
     0
176
     1
 90
       50
176
     1
 40
0.0
176
     1
 40
1.0
176
     1
 90
        0
176
     1
 62
    18
420
        0
176
     1
 90
       50
176
     1
 90
        3
176
     1
 62
     5
420
      255
176
     1
290
     0
176
     1
 90
       50
176
     1
 90
       50
176
     1
 90
       50
176
     1
290
     0
176
     1
 90
       50
176
     1
 62
   256
176
     0
 40
1.0
176
     0
 90
        2
176
     1
  1
strokes_ogs.tif
176
     1
290
     0
176
     1
 40
1.0
176
     1
 40
1.0
176
     1
1001
ACAD
1000
AcDbSavedByObjectVersion
1070
     0
  0
VISUALSTYLE
  5
288
102
{ACAD_REACTORS
330
2A
102
}
330
2A
100
AcDbVisualStyle
  2
Wireframe
 70
     5
177
     3
291
     0
 70
    58
 90
        0
176
     1
 90
        2
176
     1
 90
        0
176
     1
 90
        0
176
     1
 40
0.6
176
     1
 40
30.0
176
     1
 62
     7
420
 16777215
176
     1
 90
        1
176
     1
 90
        4
176
     1
 62
     7
176
     1
 62
   257
176
     1
 90
        1
176
     1
 90
        1
176
     1
 40
1.0
176
     1
 90
        0
176
     1
 62
   257
176
     1
 40
1.0
176
     1
 90
        1
176
     1
 90
        6
176
     1
 90
        2
176
     1
 62
     7
176
     1
 90
        3
176
     1
 90
        0
176
     1
 90
        0
176
     1
290
     0
176
     1
 90
        1
176
     1
 40
0.0
176
     1
 90
        0
176
     1
290
     0
176
     1
290
     1
176
     1
290
     1
176
     1
290
     0
176
     1
290
     0
176
     1
290
     0
176
     1
290
     0
176
     1
290
     0
176
     1
290
     0
176
     1
 90
       50
176
     1
 40
0.0
176
     1
 40
1.0
176
     1
 90
        0
176
     1
 62
    18
420
        0
176
     1
 90
       50
176
     1
 90
        3
176
     1
 62
     5
420
      255
176
     1
290
     0
176
     1
 90
       50
176
     1
 90
       50
176
     1
 90
       50
176
     1
290
     0
176
     1
 90
       50
176
     1
 62
   256
176
     0
 40
1.0
176
     0
 90
        2
176
     1
  1
strokes_ogs.tif
176
     1
290
     0
176
     1
 40
1.0
176
     1
 40
1.0
176
     1
1001
ACAD
1000
AcDbSavedByObjectVersion
1070
     0
  0
VISUALSTYLE
  5
28C
102
{ACAD_REACTORS
330
2A
102
}
330
2A
100
AcDbVisualStyle
  2
X-Ray
 70
    25
177
     3
291
     0
 70
    58
 90
        2
176
     1
 90
        2
176
     1
 90
        1
176
     1
 90
        1
176
     1
 40
0.5
176
     1
 40
30.0
176
     1
 62
     7
420
 16777215
176
     1
 90
        1
176
     1
 90
        0
176
     1
 62
     7
176
     1
 62
   257
176
     1
 90
        1
176
     1
 90
        1
176
     1
 40
1.0
176
     1
 90
        8
176
     1
 62
     7
176
     1
 40
1.0
176
     1
 90
        1
176
     1
 90
        6
176
     1
 90
        2
176
     1
 62
     7
176
     1
 90
        3
176
     1
 90
        0
176
     1
 90
        0
176
     1
290
     0
176
     1
 90
       13
176
     1
 40
0.0
176
     1
 90
        0
176
     1
290
     0
176
     1
290
     1
176
     1
290
     1
176
     1
290
     0
176
     1
290
     0
176
     1
290
     0
176
     1
290
     0
176
     1
290
     0
176
     1
290
     0
176
     1
 90
       50
176
     1
 40
0.0
176
     1
 40
1.0
176
     1
 90
        0
176
     1
 62
    18
420
        0
176
     1
 90
       50
176
     1
 90
        3
176
     1
 62
     5
420
      255
176
     1
290
     0
176
     1
 90
       50
176
     1
 90
       50
176
     1
 90
       50
176
     1
290
     0
176
     1
 90
       50
176
     1
 62
   256
176
     0
 40
1.0
176
     0
 90
        2
176
     1
  1
strokes_ogs.tif
176
     1
290
     0
176
     1
 40
1.0
176
     1
 40
1.0
176
     1
1001
ACAD
1000
AcDbSavedByObjectVersion
1070
     0
  0
DICTIONARYVAR
  5
38F
102
{ACAD_REACTORS
330
38A
102
}
330
38A
100
DictionaryVariables
280
     0
  1
1:1
  0
DICTIONARYVAR
  5
38C
102
{ACAD_REACTORS
330
38A
102
}
330
38A
100
DictionaryVariables
280
     0
  1
STANDARD
  0
DICTIONARYVAR
  5
38B
102
{ACAD_REACTORS
330
38A
102
}
330
38A
100
DictionaryVariables
280
     0
  1
STANDARD
  0
DICTIONARYVAR
  5
38D
102
{ACAD_REACTORS
330
38A
102
}
330
38A
100
DictionaryVariables
280
     0
  1
Imperial24
  0
DICTIONARYVAR
  5
38E
102
{ACAD_REACTORS
330
38A
102
}
330
38A
100
DictionaryVariables
280
     0
  1
Imperial24
  0
DICTIONARY
  5
39D
330
2AE
100
AcDbDictionary
280
     1
281
     1
  3
ACAD_XREC_ROUNDTRIP
360
39E
  0
DICTIONARY
  5
39B
330
2AC
100
AcDbDictionary
280
     1
281
     1
  3
ACAD_XREC_ROUNDTRIP
360
39C
  0
DICTIONARY
  5
398
330
293
100
AcDbDictionary
280
     1
281
     1
  3
ACAD_ROUNDTRIP_2008_TABLESTYLE_CELLSTYLEMAP
360
399
  0
XRECORD
  5
39E
102
{ACAD_REACTORS
330
39D
102
}
330
39D
100
AcDbXrecord
280
     1
102
DISPLAYNAME
  1
Imperial24
102
FLAGS
 90
        0
  0
XRECORD
  5
39C
102
{ACAD_REACTORS
330
39B
102
}
330
39B
100
AcDbXrecord
280
     1
102
DISPLAYNAME
  1
Imperial24
102
FLAGS
 90
        0
  0
CELLSTYLEMAP
  5
399
102
{ACAD_REACTORS
330
398
102
}
330
398
100
AcDbCellStyleMap
 90
        3
300
CELLSTYLE
  1
TABLEFORMAT_BEGIN
 90
        5
170
     1
 91
        0
 92
    32768
 62
   257
 93
        1
300
CONTENTFORMAT
  1
CONTENTFORMAT_BEGIN
 90
        0
 91
        0
 92
      512
 93
        0
300

 40
0.0
140
1.0
 94
        5
 62
     0
340
11
144
0.25
309
CONTENTFORMAT_END
171
     0
 94
        0
309
TABLEFORMAT_END
  1
CELLSTYLE_BEGIN
 90
        1
 91
        1
300
_TITLE
309
CELLSTYLE_END
300
CELLSTYLE
  1
TABLEFORMAT_BEGIN
 90
        5
170
     1
 91
        0
 92
        0
 62
   257
 93
        1
300
CONTENTFORMAT
  1
CONTENTFORMAT_BEGIN
 90
        0
 91
        0
 92
      512
 93
        0
300

 40
0.0
140
1.0
 94
        5
 62
     0
340
11
144
0.18
309
CONTENTFORMAT_END
171
     0
 94
        0
309
TABLEFORMAT_END
  1
CELLSTYLE_BEGIN
 90
        2
 91
        1
300
_HEADER
309
CELLSTYLE_END
300
CELLSTYLE
  1
TABLEFORMAT_BEGIN
 90
        5
170
     1
 91
        0
 92
        0
 62
   257
 93
        1
300
CONTENTFORMAT
  1
CONTENTFORMAT_BEGIN
 90
        0
 91
        0
 92
      512
 93
        0
300

 40
0.0
140
1.0
 94
        2
 62
     0
340
11
144
0.18
309
CONTENTFORMAT_END
171
     0
 94
        0
309
TABLEFORMAT_END
  1
CELLSTYLE_BEGIN
 90
        3
 91
        2
300
_DATA
309
CELLSTYLE_END
  0
ENDSEC
  0
EOF
