  0
SECTION
  2
HEADER
  9
$ACADVER
  1
AC1021
  9
$ACADMAINTVER
 70
    50
  9
$DWGCODEPAGE
  3
ANSI_1252
  9
$LASTSAVEDBY
  1
ufficio.tecnico
  9
$INSBASE
 10
0.0
 20
0.0
 30
0.0
  9
$EXTMIN
 10
1.689689999495593
 20
-9.568215618765039
 30
0.0
  9
$EXTMAX
 10
10.89632978450998
 20
0.6237411345957895
 30
0.0
  9
$LIMMIN
 10
0.0
 20
0.0
  9
$LIMMAX
 10
12.0
 20
9.0
  9
$ORTHOMODE
 70
     0
  9
$REGENMODE
 70
     1
  9
$FILLMODE
 70
     1
  9
$QTEXTMODE
 70
     0
  9
$MIRRTEXT
 70
     0
  9
$LTSCALE
 40
1.0
  9
$ATTMODE
 70
     1
  9
$TEXTSIZE
 40
0.2
  9
$TRACEWID
 40
0.05
  9
$TEXTSTYLE
  7
Standard
  9
$CLAYER
  8
0
  9
$CELTYPE
  6
ByLayer
  9
$CECOLOR
 62
   256
  9
$CELTSCALE
 40
1.0
  9
$DISPSILH
 70
     0
  9
$DIMSCALE
 40
1.0
  9
$DIMASZ
 40
0.18
  9
$DIMEXO
 40
0.0625
  9
$DIMDLI
 40
0.38
  9
$DIMRND
 40
0.0
  9
$DIMDLE
 40
0.0
  9
$DIMEXE
 40
0.18
  9
$DIMTP
 40
0.0
  9
$DIMTM
 40
0.0
  9
$DIMTXT
 40
0.18
  9
$DIMCEN
 40
0.09
  9
$DIMTSZ
 40
0.0
  9
$DIMTOL
 70
     0
  9
$DIMLIM
 70
     0
  9
$DIMTIH
 70
     1
  9
$DIMTOH
 70
     1
  9
$DIMSE1
 70
     0
  9
$DIMSE2
 70
     0
  9
$DIMTAD
 70
     0
  9
$DIMZIN
 70
     0
  9
$DIMBLK
  1

  9
$DIMASO
 70
     1
  9
$DIMSHO
 70
     1
  9
$DIMPOST
  1

  9
$DIMAPOST
  1

  9
$DIMALT
 70
     0
  9
$DIMALTD
 70
     2
  9
$DIMALTF
 40
25.4
  9
$DIMLFAC
 40
1.0
  9
$DIMTOFL
 70
     0
  9
$DIMTVP
 40
0.0
  9
$DIMTIX
 70
     0
  9
$DIMSOXD
 70
     0
  9
$DIMSAH
 70
     0
  9
$DIMBLK1
  1

  9
$DIMBLK2
  1

  9
$DIMSTYLE
  2
Standard
  9
$DIMCLRD
 70
     0
  9
$DIMCLRE
 70
     0
  9
$DIMCLRT
 70
     0
  9
$DIMTFAC
 40
1.0
  9
$DIMGAP
 40
0.09
  9
$DIMJUST
 70
     0
  9
$DIMSD1
 70
     0
  9
$DIMSD2
 70
     0
  9
$DIMTOLJ
 70
     1
  9
$DIMTZIN
 70
     0
  9
$DIMALTZ
 70
     0
  9
$DIMALTTZ
 70
     0
  9
$DIMUPT
 70
     0
  9
$DIMDEC
 70
     4
  9
$DIMTDEC
 70
     4
  9
$DIMALTU
 70
     2
  9
$DIMALTTD
 70
     2
  9
$DIMTXSTY
  7
Standard
  9
$DIMAUNIT
 70
     0
  9
$DIMADEC
 70
     0
  9
$DIMALTRND
 40
0.0
  9
$DIMAZIN
 70
     0
  9
$DIMDSEP
 70
    46
  9
$DIMATFIT
 70
     3
  9
$DIMFRAC
 70
     0
  9
$DIMLDRBLK
  1

  9
$DIMLUNIT
 70
     2
  9
$DIMLWD
 70
    -2
  9
$DIMLWE
 70
    -2
  9
$DIMTMOVE
 70
     0
  9
$DIMFXL
 40
1.0
  9
$DIMFXLON
 70
     0
  9
$DIMJOGANG
 40
0.7853981633974483
  9
$DIMTFILL
 70
     0
  9
$DIMTFILLCLR
 70
     0
  9
$DIMARCSYM
 70
     0
  9
$DIMLTYPE
  6

  9
$DIMLTEX1
  6

  9
$DIMLTEX2
  6

  9
$LUNITS
 70
     2
  9
$LUPREC
 70
     4
  9
$SKETCHINC
 40
0.1
  9
$FILLETRAD
 40
0.0
  9
$AUNITS
 70
     0
  9
$AUPREC
 70
     0
  9
$MENU
  1
.
  9
$ELEVATION
 40
0.0
  9
$PELEVATION
 40
0.0
  9
$THICKNESS
 40
0.0
  9
$LIMCHECK
 70
     0
  9
$CHAMFERA
 40
0.0
  9
$CHAMFERB
 40
0.0
  9
$CHAMFERC
 40
0.0
  9
$CHAMFERD
 40
0.0
  9
$SKPOLY
 70
     0
  9
$TDCREATE
 40
2459457.411516204
  9
$TDUCREATE
 40
2459457.328182871
  9
$TDUPDATE
 40
2459457.684525463
  9
$TDUUPDATE
 40
2459457.601192130
  9
$TDINDWG
 40
0.0013657407
  9
$TDUSRTIMER
 40
0.0013657407
  9
$USRTIMER
 70
     1
  9
$ANGBASE
 50
0.0
  9
$ANGDIR
 70
     0
  9
$PDMODE
 70
     0
  9
$PDSIZE
 40
0.0
  9
$PLINEWID
 40
0.0
  9
$SPLFRAME
 70
     0
  9
$SPLINETYPE
 70
     6
  9
$SPLINESEGS
 70
     8
  9
$HANDSEED
  5
19F
  9
$SURFTAB1
 70
     6
  9
$SURFTAB2
 70
     6
  9
$SURFTYPE
 70
     6
  9
$SURFU
 70
     6
  9
$SURFV
 70
     6
  9
$UCSBASE
  2

  9
$UCSNAME
  2

  9
$UCSORG
 10
0.0
 20
0.0
 30
0.0
  9
$UCSXDIR
 10
1.0
 20
0.0
 30
0.0
  9
$UCSYDIR
 10
0.0
 20
1.0
 30
0.0
  9
$UCSORTHOREF
  2

  9
$UCSORTHOVIEW
 70
     0
  9
$UCSORGTOP
 10
0.0
 20
0.0
 30
0.0
  9
$UCSORGBOTTOM
 10
0.0
 20
0.0
 30
0.0
  9
$UCSORGLEFT
 10
0.0
 20
0.0
 30
0.0
  9
$UCSORGRIGHT
 10
0.0
 20
0.0
 30
0.0
  9
$UCSORGFRONT
 10
0.0
 20
0.0
 30
0.0
  9
$UCSORGBACK
 10
0.0
 20
0.0
 30
0.0
  9
$PUCSBASE
  2

  9
$PUCSNAME
  2

  9
$PUCSORG
 10
0.0
 20
0.0
 30
0.0
  9
$PUCSXDIR
 10
1.0
 20
0.0
 30
0.0
  9
$PUCSYDIR
 10
0.0
 20
1.0
 30
0.0
  9
$PUCSORTHOREF
  2

  9
$PUCSORTHOVIEW
 70
     0
  9
$PUCSORGTOP
 10
0.0
 20
0.0
 30
0.0
  9
$PUCSORGBOTTOM
 10
0.0
 20
0.0
 30
0.0
  9
$PUCSORGLEFT
 10
0.0
 20
0.0
 30
0.0
  9
$PUCSORGRIGHT
 10
0.0
 20
0.0
 30
0.0
  9
$PUCSORGFRONT
 10
0.0
 20
0.0
 30
0.0
  9
$PUCSORGBACK
 10
0.0
 20
0.0
 30
0.0
  9
$USERI1
 70
     0
  9
$USERI2
 70
     0
  9
$USERI3
 70
     0
  9
$USERI4
 70
     0
  9
$USERI5
 70
     0
  9
$USERR1
 40
0.0
  9
$USERR2
 40
0.0
  9
$USERR3
 40
0.0
  9
$USERR4
 40
0.0
  9
$USERR5
 40
0.0
  9
$WORLDVIEW
 70
     1
  9
$SHADEDGE
 70
     3
  9
$SHADEDIF
 70
    70
  9
$TILEMODE
 70
     1
  9
$MAXACTVP
 70
    64
  9
$PINSBASE
 10
0.0
 20
0.0
 30
0.0
  9
$PLIMCHECK
 70
     0
  9
$PEXTMIN
 10
1.000000000000000E+20
 20
1.000000000000000E+20
 30
1.000000000000000E+20
  9
$PEXTMAX
 10
-1.000000000000000E+20
 20
-1.000000000000000E+20
 30
-1.000000000000000E+20
  9
$PLIMMIN
 10
0.0
 20
0.0
  9
$PLIMMAX
 10
12.0
 20
9.0
  9
$UNITMODE
 70
     0
  9
$VISRETAIN
 70
     1
  9
$PLINEGEN
 70
     0
  9
$PSLTSCALE
 70
     1
  9
$TREEDEPTH
 70
  3020
  9
$CMLSTYLE
  2
Standard
  9
$CMLJUST
 70
     0
  9
$CMLSCALE
 40
1.0
  9
$PROXYGRAPHICS
 70
     1
  9
$MEASUREMENT
 70
     0
  9
$CELWEIGHT
370
    -1
  9
$ENDCAPS
280
     0
  9
$JOINSTYLE
280
     0
  9
$LWDISPLAY
290
     1
  9
$INSUNITS
 70
     5
  9
$HYPERLINKBASE
  1

  9
$STYLESHEET
  1

  9
$XEDIT
290
     1
  9
$CEPSNTYPE
380
     0
  9
$PSTYLEMODE
290
     1
  9
$FINGERPRINTGUID
  2
{72B5FF02-F56B-8547-8312-9AFA3B3577B0}
  9
$VERSIONGUID
  2
{AED500B3-A4E8-9E41-92B8-AD9D2C6123E4}
  9
$EXTNAMES
290
     1
  9
$PSVPSCALE
 40
0.0
  9
$OLESTARTUP
290
     0
  9
$SORTENTS
280
   127
  9
$INDEXCTL
280
     0
  9
$HIDETEXT
280
     1
  9
$XCLIPFRAME
290
     0
  9
$HALOGAP
280
     0
  9
$OBSCOLOR
 70
   257
  9
$OBSLTYPE
280
     0
  9
$INTERSECTIONDISPLAY
280
     0
  9
$INTERSECTIONCOLOR
 70
   257
  9
$DIMASSOC
280
     2
  9
$PROJECTNAME
  1

  9
$CAMERADISPLAY
290
     0
  9
$LENSLENGTH
 40
50.0
  9
$CAMERAHEIGHT
 40
0.0
  9
$STEPSPERSEC
 40
2.0
  9
$STEPSIZE
 40
6.0
  9
$3DDWFPREC
 40
2.0
  9
$PSOLWIDTH
 40
0.25
  9
$PSOLHEIGHT
 40
4.0
  9
$LOFTANG1
 40
1.570796326794896
  9
$LOFTANG2
 40
1.570796326794896
  9
$LOFTMAG1
 40
0.0
  9
$LOFTMAG2
 40
0.0
  9
$LOFTPARAM
 70
     7
  9
$LOFTNORMALS
280
     1
  9
$LATITUDE
 40
37.795
  9
$LONGITUDE
 40
-122.394
  9
$NORTHDIRECTION
 40
0.0
  9
$TIMEZONE
 70
 -8000
  9
$LIGHTGLYPHDISPLAY
280
     1
  9
$TILEMODELIGHTSYNCH
280
     1
  9
$CMATERIAL
347
11
  9
$SOLIDHIST
280
     0
  9
$SHOWHIST
280
     1
  9
$DWFFRAME
280
     2
  9
$DGNFRAME
280
     0
  9
$REALWORLDSCALE
290
     1
  9
$INTERFERECOLOR
 62
     1
  9
$INTERFEREOBJVS
345
33
  9
$INTERFEREVPVS
346
30
  9
$CSHADOW
280
     0
  9
$SHADOWPLANELOCATION
 40
0.0
  0
ENDSEC
  0
SECTION
  2
CLASSES
  0
CLASS
  1
ACDBDICTIONARYWDFLT
  2
AcDbDictionaryWithDefault
  3
ObjectDBX Classes
 90
        0
 91
        1
280
     0
281
     0
  0
CLASS
  1
MATERIAL
  2
AcDbMaterial
  3
ObjectDBX Classes
 90
     1153
 91
        3
280
     0
281
     0
  0
CLASS
  1
VISUALSTYLE
  2
AcDbVisualStyle
  3
ObjectDBX Classes
 90
     4095
 91
       24
280
     0
281
     0
  0
CLASS
  1
SCALE
  2
AcDbScale
  3
ObjectDBX Classes
 90
     1153
 91
       17
280
     0
281
     0
  0
CLASS
  1
TABLESTYLE
  2
AcDbTableStyle
  3
ObjectDBX Classes
 90
     4095
 91
        1
280
     0
281
     0
  0
CLASS
  1
MLEADERSTYLE
  2
AcDbMLeaderStyle
  3
ACDB_MLEADERSTYLE_CLASS
 90
     4095
 91
        1
280
     0
281
     0
  0
CLASS
  1
ACDBSECTIONVIEWSTYLE
  2
AcDbSectionViewStyle
  3
ObjectDBX Classes
 90
     1025
 91
        1
280
     0
281
     0
  0
CLASS
  1
ACDBDETAILVIEWSTYLE
  2
AcDbDetailViewStyle
  3
ObjectDBX Classes
 90
     1025
 91
        1
280
     0
281
     0
  0
CLASS
  1
DICTIONARYVAR
  2
AcDbDictionaryVar
  3
ObjectDBX Classes
 90
        0
 91
        6
280
     0
281
     0
  0
CLASS
  1
CELLSTYLEMAP
  2
AcDbCellStyleMap
  3
ObjectDBX Classes
 90
     1152
 91
        3
280
     0
281
     0
  0
ENDSEC
  0
SECTION
  2
TABLES
  0
TABLE
  2
VPORT
  5
8
330
0
100
AcDbSymbolTable
 70
     1
  0
VPORT
  5
57
330
8
100
AcDbSymbolTableRecord
100
AcDbViewportTableRecord
  2
*Active
 70
     0
 10
0.0
 20
0.0
 11
1.0
 21
1.0
 12
7.98371884146076
 22
-1.140995911459988
 13
0.0
 23
0.0
 14
1.0
 24
1.0
 15
0.0
 25
0.0
 16
0.0
 26
0.0
 36
1.0
 17
5.448164892254988
 27
-4.688129431451512
 37
0.0
 40
17.17481216495562
 41
2.545333333333333
 42
50.0
 43
0.0
 44
0.0
 50
0.0
 51
0.0
 71
     0
 72
   100
 73
     1
 74
     0
 75
     1
 76
     0
 77
     0
 78
     0
281
     0
 65
     1
110
0.0
120
0.0
130
0.0
111
1.0
121
0.0
131
0.0
112
0.0
122
1.0
132
0.0
 79
     0
146
0.0
348
2F
 60
     3
 61
     5
292
     1
282
     1
141
0.0
142
0.0
 63
   250
421
  3355443
1001
ACAD_NAV_VCDISPLAY
1070
     3
  0
ENDTAB
  0
TABLE
  2
LTYPE
  5
5
330
0
100
AcDbSymbolTable
 70
     2
  0
LTYPE
  5
5B
330
5
100
AcDbSymbolTableRecord
100
AcDbLinetypeTableRecord
  2
ByBlock
 70
     0
  3

 72
    65
 73
     0
 40
0.0
  0
LTYPE
  5
5C
330
5
100
AcDbSymbolTableRecord
100
AcDbLinetypeTableRecord
  2
ByLayer
 70
     0
  3

 72
    65
 73
     0
 40
0.0
  0
LTYPE
  5
5D
330
5
100
AcDbSymbolTableRecord
100
AcDbLinetypeTableRecord
  2
Continuous
 70
     0
  3
Solid line
 72
    65
 73
     0
 40
0.0
  0
ENDTAB
  0
TABLE
  2
LAYER
  5
2
330
0
100
AcDbSymbolTable
 70
     3
  0
LAYER
  5
54
330
2
100
AcDbSymbolTableRecord
100
AcDbLayerTableRecord
  2
0
 70
     0
 62
     7
  6
Continuous
370
    -3
390
F
347
21
  0
LAYER
  5
78
330
2
100
AcDbSymbolTableRecord
100
AcDbLayerTableRecord
  2
Livello 1
 70
     0
 62
     7
  6
Continuous
370
     0
390
F
347
21
  0
LAYER
  5
7D
330
2
100
AcDbSymbolTableRecord
100
AcDbLayerTableRecord
  2
Livello 2
 70
     0
 62
     7
  6
Continuous
370
     0
390
F
347
21
  0
ENDTAB
  0
TABLE
  2
STYLE
  5
3
330
0
100
AcDbSymbolTable
 70
     2
  0
STYLE
  5
55
330
3
100
AcDbSymbolTableRecord
100
AcDbTextStyleTableRecord
  2
Standard
 70
     0
 40
0.0
 41
1.0
 50
0.0
 71
     0
 42
0.2
  3
txt
  4

  0
STYLE
  5
5A
330
3
100
AcDbSymbolTableRecord
100
AcDbTextStyleTableRecord
  2
Annotative
 70
     0
 40
0.0
 41
1.0
 50
0.0
 71
     0
 42
0.2
  3
txt
  4

1001
AcadAnnotative
1000
AnnotativeData
1002
{
1070
     1
1070
     1
1002
}
  0
ENDTAB
  0
TABLE
  2
VIEW
  5
6
330
0
100
AcDbSymbolTable
 70
     0
  0
ENDTAB
  0
TABLE
  2
UCS
  5
7
330
0
100
AcDbSymbolTable
 70
     0
  0
ENDTAB
  0
TABLE
  2
APPID
  5
9
330
0
100
AcDbSymbolTable
 70
     5
  0
APPID
  5
56
330
9
100
AcDbSymbolTableRecord
100
AcDbRegAppTableRecord
  2
ACAD
 70
     0
  0
APPID
  5
5E
330
9
100
AcDbSymbolTableRecord
100
AcDbRegAppTableRecord
  2
AcadAnnotative
 70
     0
  0
APPID
  5
116
330
9
100
AcDbSymbolTableRecord
100
AcDbRegAppTableRecord
  2
ACAD_EXEMPT_FROM_CAD_STANDARDS
 70
     0
  0
APPID
  5
119
330
9
100
AcDbSymbolTableRecord
100
AcDbRegAppTableRecord
  2
ACAD_NAV_VCDISPLAY
 70
     0
  0
APPID
  5
198
330
9
100
AcDbSymbolTableRecord
100
AcDbRegAppTableRecord
  2
ACAD_MLEADERVER
 70
     0
  0
ENDTAB
  0
TABLE
  2
DIMSTYLE
  5
A
330
0
100
AcDbSymbolTable
 70
     2
100
AcDbDimStyleTable
 71
     0
  0
DIMSTYLE
105
58
330
A
100
AcDbSymbolTableRecord
100
AcDbDimStyleTableRecord
  2
Standard
 70
     0
340
55
  0
DIMSTYLE
105
59
330
A
100
AcDbSymbolTableRecord
100
AcDbDimStyleTableRecord
  2
Annotative
 70
     0
340
55
1001
AcadAnnotative
1000
AnnotativeData
1002
{
1070
     1
1070
     1
1002
}
  0
ENDTAB
  0
TABLE
  2
BLOCK_RECORD
  5
1
330
0
100
AcDbSymbolTable
 70
    12
  0
BLOCK_RECORD
  5
70
330
1
100
AcDbSymbolTableRecord
100
AcDbBlockTableRecord
  2
*Model_Space
340
73
 70
     0
280
     1
281
     0
  0
BLOCK_RECORD
  5
6C
330
1
100
AcDbSymbolTableRecord
100
AcDbBlockTableRecord
  2
*Paper_Space
340
6F
 70
     0
280
     1
281
     0
  0
BLOCK_RECORD
  5
74
330
1
100
AcDbSymbolTableRecord
100
AcDbBlockTableRecord
  2
*Paper_Space0
340
77
 70
     0
280
     1
281
     0
  0
BLOCK_RECORD
  5
80
330
1
100
AcDbSymbolTableRecord
100
AcDbBlockTableRecord
  2
Block_0
340
0
 70
     0
280
     1
281
     0
  0
BLOCK_RECORD
  5
84
330
1
100
AcDbSymbolTableRecord
100
AcDbBlockTableRecord
  2
Block_1
340
0
102
{BLKREFS
331
85
102
}
 70
     0
280
     1
281
     0
  0
BLOCK_RECORD
  5
93
330
1
100
AcDbSymbolTableRecord
100
AcDbBlockTableRecord
  2
Block_2
340
0
 70
     0
280
     1
281
     0
  0
BLOCK_RECORD
  5
97
330
1
100
AcDbSymbolTableRecord
100
AcDbBlockTableRecord
  2
Block_3
340
0
102
{BLKREFS
331
98
102
}
 70
     0
280
     1
281
     0
  0
BLOCK_RECORD
  5
A8
330
1
100
AcDbSymbolTableRecord
100
AcDbBlockTableRecord
  2
Block_4
340
0
 70
     0
280
     1
281
     0
  0
BLOCK_RECORD
  5
AC
330
1
100
AcDbSymbolTableRecord
100
AcDbBlockTableRecord
  2
Block_5
340
0
102
{BLKREFS
331
AD
102
}
 70
     0
280
     1
281
     0
  0
BLOCK_RECORD
  5
BF
330
1
100
AcDbSymbolTableRecord
100
AcDbBlockTableRecord
  2
Block_6
340
0
 70
     0
280
     1
281
     0
  0
BLOCK_RECORD
  5
C3
330
1
100
AcDbSymbolTableRecord
100
AcDbBlockTableRecord
  2
Block_7
340
0
102
{BLKREFS
331
C4
102
}
 70
     0
280
     1
281
     0
  0
ENDTAB
  0
ENDSEC
  0
SECTION
  2
BLOCKS
  0
BLOCK
  5
71
330
70
100
AcDbEntity
  8
0
100
AcDbBlockBegin
  2
*Model_Space
 70
     0
 10
0.0
 20
0.0
 30
0.0
  3
*Model_Space
  1

  0
ENDBLK
  5
72
330
70
100
AcDbEntity
  8
0
100
AcDbBlockEnd
  0
BLOCK
  5
6D
330
6C
100
AcDbEntity
 67
     1
  8
0
100
AcDbBlockBegin
  2
*Paper_Space
 70
     0
 10
0.0
 20
0.0
 30
0.0
  3
*Paper_Space
  1

  0
ENDBLK
  5
6E
330
6C
100
AcDbEntity
 67
     1
  8
0
100
AcDbBlockEnd
  0
BLOCK
  5
75
330
74
100
AcDbEntity
 67
     1
  8
0
100
AcDbBlockBegin
  2
*Paper_Space0
 70
     0
 10
0.0
 20
0.0
 30
0.0
  3
*Paper_Space0
  1

  0
ENDBLK
  5
76
330
74
100
AcDbEntity
 67
     1
  8
0
100
AcDbBlockEnd
  0
BLOCK
  5
82
330
80
100
AcDbEntity
  8
0
100
AcDbBlockBegin
  2
Block_0
 70
     0
 10
0.0
 20
0.0
 30
0.0
  3
Block_0
  1

  0
INSERT
  5
85
330
80
100
AcDbEntity
  8
Livello 2
100
AcDbBlockReference
  2
Block_1
 10
0.0
 20
0.0
 30
0.0
  0
ENDBLK
  5
83
330
80
100
AcDbEntity
  8
0
100
AcDbBlockEnd
  0
BLOCK
  5
86
330
84
100
AcDbEntity
  8
0
100
AcDbBlockBegin
  2
Block_1
 70
     0
 10
0.0
 20
0.0
 30
0.0
  3
Block_1
  1

  0
SPLINE
  5
88
330
84
100
AcDbEntity
  8
Livello 2
100
AcDbSpline
210
0.0
220
0.0
230
1.0
 70
    11
 71
     3
 72
    29
 73
    25
 74
     0
 42
0.000000001
 43
0.0000000001
 40
0.0
 40
0.0
 40
0.0
 40
0.0
 40
1.0
 40
1.0
 40
1.0
 40
2.0
 40
2.0
 40
2.0
 40
3.0
 40
3.0
 40
3.0
 40
4.0
 40
4.0
 40
4.0
 40
5.0
 40
5.0
 40
5.0
 40
6.0
 40
6.0
 40
6.0
 40
7.0
 40
7.0
 40
7.0
 40
8.0
 40
8.0
 40
8.0
 40
8.0
 10
4.74782389204221
 20
-9.087817380540542
 30
0.0
 10
4.74782389204221
 20
-9.087817380540542
 30
0.0
 10
4.747255451287143
 20
-9.087817380540542
 30
0.0
 10
4.747255451287143
 20
-9.087817380540542
 30
0.0
 10
4.747255451287143
 20
-9.087817380540542
 30
0.0
 10
4.715371092571157
 20
-9.105042857966791
 30
0.0
 10
4.715371092571157
 20
-9.105042857966791
 30
0.0
 10
4.715371092571157
 20
-9.105042857966791
 30
0.0
 10
4.710582409846659
 20
-9.086129283752773
 30
0.0
 10
4.710582409846659
 20
-9.086129283752773
 30
0.0
 10
4.710582409846659
 20
-9.086129283752773
 30
0.0
 10
4.750631644862687
 20
-9.064700789834516
 30
0.0
 10
4.750631644862687
 20
-9.064700789834516
 30
0.0
 10
4.750631644862687
 20
-9.064700789834516
 30
0.0
 10
4.771784531142122
 20
-9.064700789834516
 30
0.0
 10
4.771784531142122
 20
-9.064700789834516
 30
0.0
 10
4.771784531142122
 20
-9.064700789834516
 30
0.0
 10
4.771784531142122
 20
-9.248048771559515
 30
0.0
 10
4.771784531142122
 20
-9.248048771559515
 30
0.0
 10
4.771784531142122
 20
-9.248048771559515
 30
0.0
 10
4.74782389204221
 20
-9.248048771559515
 30
0.0
 10
4.74782389204221
 20
-9.248048771559515
 30
0.0
 10
4.74782389204221
 20
-9.248048771559515
 30
0.0
 10
4.74782389204221
 20
-9.087817380540542
 30
0.0
 10
4.74782389204221
 20
-9.087817380540542
 30
0.0
  0
HATCH
  5
89
330
84
100
AcDbEntity
  8
Livello 2
 62
   250
420
  1907995
440
 33554687
100
AcDbHatch
 10
0.0
 20
0.0
 30
0.0
210
0.0
220
0.0
230
1.0
  2
SOLID
 70
     1
 71
     1
 91
        1
 92
        1
 93
        1
 72
     4
 94
        3
 73
     0
 74
     0
 95
       29
 96
       25
 40
0.0
 40
0.0
 40
0.0
 40
0.0
 40
1.0
 40
1.0
 40
1.0
 40
2.0
 40
2.0
 40
2.0
 40
3.0
 40
3.0
 40
3.0
 40
4.0
 40
4.0
 40
4.0
 40
5.0
 40
5.0
 40
5.0
 40
6.0
 40
6.0
 40
6.0
 40
7.0
 40
7.0
 40
7.0
 40
8.0
 40
8.0
 40
8.0
 40
8.0
 10
4.74782389204221
 20
-9.087817380540542
 10
4.74782389204221
 20
-9.087817380540542
 10
4.747255451287143
 20
-9.087817380540542
 10
4.747255451287143
 20
-9.087817380540542
 10
4.747255451287143
 20
-9.087817380540542
 10
4.715371092571157
 20
-9.105042857966791
 10
4.715371092571157
 20
-9.105042857966791
 10
4.715371092571157
 20
-9.105042857966791
 10
4.710582409846659
 20
-9.086129283752773
 10
4.710582409846659
 20
-9.086129283752773
 10
4.710582409846659
 20
-9.086129283752773
 10
4.750631644862687
 20
-9.064700789834516
 10
4.750631644862687
 20
-9.064700789834516
 10
4.750631644862687
 20
-9.064700789834516
 10
4.771784531142122
 20
-9.064700789834516
 10
4.771784531142122
 20
-9.064700789834516
 10
4.771784531142122
 20
-9.064700789834516
 10
4.771784531142122
 20
-9.248048771559515
 10
4.771784531142122
 20
-9.248048771559515
 10
4.771784531142122
 20
-9.248048771559515
 10
4.74782389204221
 20
-9.248048771559515
 10
4.74782389204221
 20
-9.248048771559515
 10
4.74782389204221
 20
-9.248048771559515
 10
4.74782389204221
 20
-9.087817380540542
 10
4.74782389204221
 20
-9.087817380540542
 97
        1
330
88
 75
     2
 76
     1
 98
        1
 10
0.0
 20
0.0
450
        0
451
        0
460
0.0
461
0.0
452
        0
462
0.0
453
        0
470

  0
SPLINE
  5
8A
330
84
100
AcDbEntity
  8
Livello 2
100
AcDbSpline
210
0.0
220
0.0
230
1.0
 70
    11
 71
     3
 72
    50
 73
    46
 74
     0
 42
0.000000001
 43
0.0000000001
 40
0.0
 40
0.0
 40
0.0
 40
0.0
 40
1.0
 40
1.0
 40
1.0
 40
2.0
 40
2.0
 40
2.0
 40
3.0
 40
3.0
 40
3.0
 40
4.0
 40
4.0
 40
4.0
 40
5.0
 40
5.0
 40
5.0
 40
6.0
 40
6.0
 40
6.0
 40
7.0
 40
7.0
 40
7.0
 40
8.0
 40
8.0
 40
8.0
 40
9.0
 40
9.0
 40
9.0
 40
10.0
 40
10.0
 40
10.0
 40
11.0
 40
11.0
 40
11.0
 40
12.0
 40
12.0
 40
12.0
 40
13.0
 40
13.0
 40
13.0
 40
14.0
 40
14.0
 40
14.0
 40
15.0
 40
15.0
 40
15.0
 40
15.0
 10
4.948156194509488
 20
-9.085578068475133
 30
0.0
 10
4.948156194509488
 20
-9.085578068475133
 30
0.0
 10
4.878203530681489
 20
-9.085578068475133
 30
0.0
 10
4.878203530681489
 20
-9.085578068475133
 30
0.0
 10
4.878203530681489
 20
-9.085578068475133
 30
0.0
 10
4.871158310414153
 20
-9.132672523758495
 30
0.0
 10
4.871158310414153
 20
-9.132672523758495
 30
0.0
 10
4.875395777861011
 20
-9.132121308480858
 30
0.0
 10
4.879340412191623
 20
-9.131570093203217
 30
0.0
 10
4.886110024820139
 20
-9.131570093203217
 30
0.0
 10
4.900217690832237
 20
-9.131570093203217
 30
0.0
 10
4.914308131366907
 20
-9.134670679139942
 30
0.0
 10
4.925590819081101
 20
-9.141423066291032
 30
0.0
 10
4.939991318209446
 20
-9.149622393545927
 30
0.0
 10
4.951825221201278
 20
-9.165400930868369
 30
0.0
 10
4.951825221201278
 20
-9.188517521574395
 30
0.0
 10
4.951825221201278
 20
-9.224346514620995
 30
0.0
 10
4.923334281538262
 20
-9.25114935749624
 30
0.0
 10
4.883560654161054
 20
-9.25114935749624
 30
0.0
 10
4.863544649391752
 20
-9.25114935749624
 30
0.0
 10
4.846612005081748
 20
-9.245499400900428
 30
0.0
 10
4.83787868802664
 20
-9.239883895259472
 30
0.0
 10
4.83787868802664
 20
-9.239883895259472
 30
0.0
 10
4.84407985990009
 20
-9.220970321045452
 30
0.0
 10
4.84407985990009
 20
-9.220970321045452
 30
0.0
 10
4.851693520922491
 20
-9.225483396131126
 30
0.0
 10
4.866645235328476
 20
-9.23113335272694
 30
0.0
 10
4.883285046522233
 20
-9.23113335272694
 30
0.0
 10
4.906694470344506
 20
-9.23113335272694
 30
0.0
 10
4.926727700591233
 20
-9.215906030682132
 30
0.0
 10
4.926727700591233
 20
-9.191342499872302
 30
0.0
 10
4.926452092952414
 20
-9.167674693888637
 30
0.0
 10
4.910639104675117
 20
-9.150724824101207
 30
0.0
 10
4.873983288712058
 20
-9.150724824101207
 30
0.0
 10
4.863544649391752
 20
-9.150724824101207
 30
0.0
 10
4.855362547614284
 20
-9.15186170561134
 30
0.0
 10
4.848592934985766
 20
-9.152722979482652
 30
0.0
 10
4.848592934985766
 20
-9.152722979482652
 30
0.0
 10
4.860444063455027
 20
-9.064700789834516
 30
0.0
 10
4.860444063455027
 20
-9.064700789834516
 30
0.0
 10
4.860444063455027
 20
-9.064700789834516
 30
0.0
 10
4.948156194509488
 20
-9.064700789834516
 30
0.0
 10
4.948156194509488
 20
-9.064700789834516
 30
0.0
 10
4.948156194509488
 20
-9.064700789834516
 30
0.0
 10
4.948156194509488
 20
-9.085578068475133
 30
0.0
 10
4.948156194509488
 20
-9.085578068475133
 30
0.0
  0
HATCH
  5
8B
330
84
100
AcDbEntity
  8
Livello 2
 62
   250
420
  1907995
440
 33554687
100
AcDbHatch
 10
0.0
 20
0.0
 30
0.0
210
0.0
220
0.0
230
1.0
  2
SOLID
 70
     1
 71
     1
 91
        1
 92
        1
 93
        1
 72
     4
 94
        3
 73
     0
 74
     0
 95
       50
 96
       46
 40
0.0
 40
0.0
 40
0.0
 40
0.0
 40
1.0
 40
1.0
 40
1.0
 40
2.0
 40
2.0
 40
2.0
 40
3.0
 40
3.0
 40
3.0
 40
4.0
 40
4.0
 40
4.0
 40
5.0
 40
5.0
 40
5.0
 40
6.0
 40
6.0
 40
6.0
 40
7.0
 40
7.0
 40
7.0
 40
8.0
 40
8.0
 40
8.0
 40
9.0
 40
9.0
 40
9.0
 40
10.0
 40
10.0
 40
10.0
 40
11.0
 40
11.0
 40
11.0
 40
12.0
 40
12.0
 40
12.0
 40
13.0
 40
13.0
 40
13.0
 40
14.0
 40
14.0
 40
14.0
 40
15.0
 40
15.0
 40
15.0
 40
15.0
 10
4.948156194509488
 20
-9.085578068475133
 10
4.948156194509488
 20
-9.085578068475133
 10
4.878203530681489
 20
-9.085578068475133
 10
4.878203530681489
 20
-9.085578068475133
 10
4.878203530681489
 20
-9.085578068475133
 10
4.871158310414153
 20
-9.132672523758495
 10
4.871158310414153
 20
-9.132672523758495
 10
4.875395777861011
 20
-9.132121308480858
 10
4.879340412191623
 20
-9.131570093203217
 10
4.886110024820139
 20
-9.131570093203217
 10
4.900217690832237
 20
-9.131570093203217
 10
4.914308131366907
 20
-9.134670679139942
 10
4.925590819081101
 20
-9.141423066291032
 10
4.939991318209446
 20
-9.149622393545927
 10
4.951825221201278
 20
-9.165400930868369
 10
4.951825221201278
 20
-9.188517521574395
 10
4.951825221201278
 20
-9.224346514620995
 10
4.923334281538262
 20
-9.25114935749624
 10
4.883560654161054
 20
-9.25114935749624
 10
4.863544649391752
 20
-9.25114935749624
 10
4.846612005081748
 20
-9.245499400900428
 10
4.83787868802664
 20
-9.239883895259472
 10
4.83787868802664
 20
-9.239883895259472
 10
4.84407985990009
 20
-9.220970321045452
 10
4.84407985990009
 20
-9.220970321045452
 10
4.851693520922491
 20
-9.225483396131126
 10
4.866645235328476
 20
-9.23113335272694
 10
4.883285046522233
 20
-9.23113335272694
 10
4.906694470344506
 20
-9.23113335272694
 10
4.926727700591233
 20
-9.215906030682132
 10
4.926727700591233
 20
-9.191342499872302
 10
4.926452092952414
 20
-9.167674693888637
 10
4.910639104675117
 20
-9.150724824101207
 10
4.873983288712058
 20
-9.150724824101207
 10
4.863544649391752
 20
-9.150724824101207
 10
4.855362547614284
 20
-9.15186170561134
 10
4.848592934985766
 20
-9.152722979482652
 10
4.848592934985766
 20
-9.152722979482652
 10
4.860444063455027
 20
-9.064700789834516
 10
4.860444063455027
 20
-9.064700789834516
 10
4.860444063455027
 20
-9.064700789834516
 10
4.948156194509488
 20
-9.064700789834516
 10
4.948156194509488
 20
-9.064700789834516
 10
4.948156194509488
 20
-9.064700789834516
 10
4.948156194509488
 20
-9.085578068475133
 10
4.948156194509488
 20
-9.085578068475133
 97
        1
330
8A
 75
     2
 76
     1
 98
        1
 10
0.0
 20
0.0
450
        0
451
        0
460
0.0
461
0.0
452
        0
462
0.0
453
        0
470

  0
SPLINE
  5
8C
330
84
100
AcDbEntity
  8
Livello 2
100
AcDbSpline
210
0.0
220
0.0
230
1.0
 70
     9
 71
     3
 72
    80
 73
    76
 74
     0
 42
0.000000001
 43
0.0000000001
 40
0.0
 40
0.0
 40
0.0
 40
0.0
 40
1.0
 40
1.0
 40
1.0
 40
2.0
 40
2.0
 40
2.0
 40
3.0
 40
3.0
 40
3.0
 40
4.0
 40
4.0
 40
4.0
 40
5.0
 40
5.0
 40
5.0
 40
6.0
 40
6.0
 40
6.0
 40
7.0
 40
7.0
 40
7.0
 40
8.0
 40
8.0
 40
8.0
 40
9.0
 40
9.0
 40
9.0
 40
10.0
 40
10.0
 40
10.0
 40
11.0
 40
11.0
 40
11.0
 40
12.0
 40
12.0
 40
12.0
 40
13.0
 40
13.0
 40
13.0
 40
14.0
 40
14.0
 40
14.0
 40
15.0
 40
15.0
 40
15.0
 40
16.0
 40
16.0
 40
16.0
 40
17.0
 40
17.0
 40
17.0
 40
18.0
 40
18.0
 40
18.0
 40
19.0
 40
19.0
 40
19.0
 40
20.0
 40
20.0
 40
20.0
 40
21.0
 40
21.0
 40
21.0
 40
22.0
 40
22.0
 40
22.0
 40
23.0
 40
23.0
 40
23.0
 40
24.0
 40
24.0
 40
24.0
 40
25.0
 40
25.0
 40
25.0
 40
25.0
 10
5.051233451428163
 20
-9.148485512035792
 30
0.0
 10
5.051233451428163
 20
-9.134360620546267
 30
0.0
 10
5.050923392834491
 20
-9.122819550670683
 30
0.0
 10
5.05009656991803
 20
-9.111519637479064
 30
0.0
 10
5.05009656991803
 20
-9.111519637479064
 30
0.0
 10
5.071800671475105
 20
-9.111519637479064
 30
0.0
 10
5.071800671475105
 20
-9.111519637479064
 30
0.0
 10
5.071800671475105
 20
-9.111519637479064
 30
0.0
 10
5.072937552985237
 20
-9.13353379762981
 30
0.0
 10
5.072937552985237
 20
-9.13353379762981
 30
0.0
 10
5.072937552985237
 20
-9.13353379762981
 30
0.0
 10
5.07379882685655
 20
-9.13353379762981
 30
0.0
 10
5.07379882685655
 20
-9.13353379762981
 30
0.0
 10
5.081412487878951
 20
-9.120545787650415
 30
0.0
 10
5.09409043926467
 20
-9.108419051542339
 30
0.0
 10
5.116655814693056
 20
-9.108419051542339
 30
0.0
 10
5.135293781268258
 20
-9.108419051542339
 30
0.0
 10
5.149384221802931
 20
-9.11971896473396
 30
0.0
 10
5.155309786037561
 20
-9.135773109695222
 30
0.0
 10
5.155309786037561
 20
-9.135773109695222
 30
0.0
 10
5.155861001315201
 20
-9.135773109695222
 30
0.0
 10
5.155861001315201
 20
-9.135773109695222
 30
0.0
 10
5.160098468762059
 20
-9.128159448672819
 30
0.0
 10
5.165472817719047
 20
-9.122233884438193
 30
0.0
 10
5.171088323360004
 20
-9.118030867946183
 30
0.0
 10
5.1792876506149
 20
-9.111795245117882
 30
0.0
 10
5.188313800786254
 20
-9.108419051542339
 30
0.0
 10
5.201267359810794
 20
-9.108419051542339
 30
0.0
 10
5.219319660153503
 20
-9.108419051542339
 30
0.0
 10
5.246122503028746
 20
-9.120270180011598
 30
0.0
 10
5.246122503028746
 20
-9.167674693888637
 30
0.0
 10
5.246122503028746
 20
-9.167674693888637
 30
0.0
 10
5.246122503028746
 20
-9.248048771559515
 30
0.0
 10
5.246122503028746
 20
-9.248048771559515
 30
0.0
 10
5.246122503028746
 20
-9.248048771559515
 30
0.0
 10
5.221869030812587
 20
-9.248048771559515
 30
0.0
 10
5.221869030812587
 20
-9.248048771559515
 30
0.0
 10
5.221869030812587
 20
-9.248048771559515
 30
0.0
 10
5.221869030812587
 20
-9.17077527982536
 30
0.0
 10
5.221869030812587
 20
-9.17077527982536
 30
0.0
 10
5.221869030812587
 20
-9.144523652227755
 30
0.0
 10
5.212291665363592
 20
-9.128745114905312
 30
0.0
 10
5.192241209639438
 20
-9.128745114905312
 30
0.0
 10
5.178150769104767
 20
-9.128745114905312
 30
0.0
 10
5.16716091450682
 20
-9.139183754225618
 30
0.0
 10
5.162923447059962
 20
-9.151310490333699
 30
0.0
 10
5.161786565549831
 20
-9.154686683909243
 30
0.0
 10
5.160959742633369
 20
-9.159199758994919
 30
0.0
 10
5.160959742633369
 20
-9.163712834080596
 30
0.0
 10
5.160959742633369
 20
-9.163712834080596
 30
0.0
 10
5.160959742633369
 20
-9.248048771559515
 30
0.0
 10
5.160959742633369
 20
-9.248048771559515
 30
0.0
 10
5.160959742633369
 20
-9.248048771559515
 30
0.0
 10
5.13670627041721
 20
-9.248048771559515
 30
0.0
 10
5.13670627041721
 20
-9.248048771559515
 30
0.0
 10
5.13670627041721
 20
-9.248048771559515
 30
0.0
 10
5.13670627041721
 20
-9.166262204739684
 30
0.0
 10
5.13670627041721
 20
-9.166262204739684
 30
0.0
 10
5.13670627041721
 20
-9.144523652227755
 30
0.0
 10
5.127094454013365
 20
-9.128745114905312
 30
0.0
 10
5.108215330754195
 20
-9.128745114905312
 30
0.0
 10
5.092677950115717
 20
-9.128745114905312
 30
0.0
 10
5.081412487878951
 20
-9.141147458652213
 30
0.0
 10
5.077450628070915
 20
-9.153549802399112
 30
0.0
 10
5.076038138921961
 20
-9.157236054568327
 30
0.0
 10
5.075486923644322
 20
-9.161439071060334
 30
0.0
 10
5.075486923644322
 20
-9.165676538507193
 30
0.0
 10
5.075486923644322
 20
-9.165676538507193
 30
0.0
 10
5.075486923644322
 20
-9.248048771559515
 30
0.0
 10
5.075486923644322
 20
-9.248048771559515
 30
0.0
 10
5.075486923644322
 20
-9.248048771559515
 30
0.0
 10
5.051233451428163
 20
-9.248048771559515
 30
0.0
 10
5.051233451428163
 20
-9.248048771559515
 30
0.0
 10
5.051233451428163
 20
-9.248048771559515
 30
0.0
 10
5.051233451428163
 20
-9.148485512035792
 30
0.0
 10
5.051233451428163
 20
-9.148485512035792
 30
0.0
  0
HATCH
  5
8D
330
84
100
AcDbEntity
  8
Livello 2
 62
   250
420
  1907995
440
 33554687
100
AcDbHatch
 10
0.0
 20
0.0
 30
0.0
210
0.0
220
0.0
230
1.0
  2
SOLID
 70
     1
 71
     1
 91
        1
 92
        1
 93
        1
 72
     4
 94
        3
 73
     0
 74
     0
 95
       80
 96
       76
 40
0.0
 40
0.0
 40
0.0
 40
0.0
 40
1.0
 40
1.0
 40
1.0
 40
2.0
 40
2.0
 40
2.0
 40
3.0
 40
3.0
 40
3.0
 40
4.0
 40
4.0
 40
4.0
 40
5.0
 40
5.0
 40
5.0
 40
6.0
 40
6.0
 40
6.0
 40
7.0
 40
7.0
 40
7.0
 40
8.0
 40
8.0
 40
8.0
 40
9.0
 40
9.0
 40
9.0
 40
10.0
 40
10.0
 40
10.0
 40
11.0
 40
11.0
 40
11.0
 40
12.0
 40
12.0
 40
12.0
 40
13.0
 40
13.0
 40
13.0
 40
14.0
 40
14.0
 40
14.0
 40
15.0
 40
15.0
 40
15.0
 40
16.0
 40
16.0
 40
16.0
 40
17.0
 40
17.0
 40
17.0
 40
18.0
 40
18.0
 40
18.0
 40
19.0
 40
19.0
 40
19.0
 40
20.0
 40
20.0
 40
20.0
 40
21.0
 40
21.0
 40
21.0
 40
22.0
 40
22.0
 40
22.0
 40
23.0
 40
23.0
 40
23.0
 40
24.0
 40
24.0
 40
24.0
 40
25.0
 40
25.0
 40
25.0
 40
25.0
 10
5.051233451428163
 20
-9.148485512035792
 10
5.051233451428163
 20
-9.134360620546267
 10
5.050923392834491
 20
-9.122819550670683
 10
5.05009656991803
 20
-9.111519637479064
 10
5.05009656991803
 20
-9.111519637479064
 10
5.071800671475105
 20
-9.111519637479064
 10
5.071800671475105
 20
-9.111519637479064
 10
5.071800671475105
 20
-9.111519637479064
 10
5.072937552985237
 20
-9.13353379762981
 10
5.072937552985237
 20
-9.13353379762981
 10
5.072937552985237
 20
-9.13353379762981
 10
5.07379882685655
 20
-9.13353379762981
 10
5.07379882685655
 20
-9.13353379762981
 10
5.081412487878951
 20
-9.120545787650415
 10
5.09409043926467
 20
-9.108419051542339
 10
5.116655814693056
 20
-9.108419051542339
 10
5.135293781268258
 20
-9.108419051542339
 10
5.149384221802931
 20
-9.11971896473396
 10
5.155309786037561
 20
-9.135773109695222
 10
5.155309786037561
 20
-9.135773109695222
 10
5.155861001315201
 20
-9.135773109695222
 10
5.155861001315201
 20
-9.135773109695222
 10
5.160098468762059
 20
-9.128159448672819
 10
5.165472817719047
 20
-9.122233884438193
 10
5.171088323360004
 20
-9.118030867946183
 10
5.1792876506149
 20
-9.111795245117882
 10
5.188313800786254
 20
-9.108419051542339
 10
5.201267359810794
 20
-9.108419051542339
 10
5.219319660153503
 20
-9.108419051542339
 10
5.246122503028746
 20
-9.120270180011598
 10
5.246122503028746
 20
-9.167674693888637
 10
5.246122503028746
 20
-9.167674693888637
 10
5.246122503028746
 20
-9.248048771559515
 10
5.246122503028746
 20
-9.248048771559515
 10
5.246122503028746
 20
-9.248048771559515
 10
5.221869030812587
 20
-9.248048771559515
 10
5.221869030812587
 20
-9.248048771559515
 10
5.221869030812587
 20
-9.248048771559515
 10
5.221869030812587
 20
-9.17077527982536
 10
5.221869030812587
 20
-9.17077527982536
 10
5.221869030812587
 20
-9.144523652227755
 10
5.212291665363592
 20
-9.128745114905312
 10
5.192241209639438
 20
-9.128745114905312
 10
5.178150769104767
 20
-9.128745114905312
 10
5.16716091450682
 20
-9.139183754225618
 10
5.162923447059962
 20
-9.151310490333699
 10
5.161786565549831
 20
-9.154686683909243
 10
5.160959742633369
 20
-9.159199758994919
 10
5.160959742633369
 20
-9.163712834080596
 10
5.160959742633369
 20
-9.163712834080596
 10
5.160959742633369
 20
-9.248048771559515
 10
5.160959742633369
 20
-9.248048771559515
 10
5.160959742633369
 20
-9.248048771559515
 10
5.13670627041721
 20
-9.248048771559515
 10
5.13670627041721
 20
-9.248048771559515
 10
5.13670627041721
 20
-9.248048771559515
 10
5.13670627041721
 20
-9.166262204739684
 10
5.13670627041721
 20
-9.166262204739684
 10
5.13670627041721
 20
-9.144523652227755
 10
5.127094454013365
 20
-9.128745114905312
 10
5.108215330754195
 20
-9.128745114905312
 10
5.092677950115717
 20
-9.128745114905312
 10
5.081412487878951
 20
-9.141147458652213
 10
5.077450628070915
 20
-9.153549802399112
 10
5.076038138921961
 20
-9.157236054568327
 10
5.075486923644322
 20
-9.161439071060334
 10
5.075486923644322
 20
-9.165676538507193
 10
5.075486923644322
 20
-9.165676538507193
 10
5.075486923644322
 20
-9.248048771559515
 10
5.075486923644322
 20
-9.248048771559515
 10
5.075486923644322
 20
-9.248048771559515
 10
5.051233451428163
 20
-9.248048771559515
 10
5.051233451428163
 20
-9.248048771559515
 10
5.051233451428163
 20
-9.248048771559515
 10
5.051233451428163
 20
-9.148485512035792
 10
5.051233451428163
 20
-9.148485512035792
 97
        1
330
8C
 75
     2
 76
     1
 98
        1
 10
0.0
 20
0.0
450
        0
451
        0
460
0.0
461
0.0
452
        0
462
0.0
453
        0
470

  0
SPLINE
  5
8E
330
84
100
AcDbEntity
  8
Livello 2
100
AcDbSpline
210
0.0
220
0.0
230
1.0
 70
     9
 71
     3
 72
    80
 73
    76
 74
     0
 42
0.000000001
 43
0.0000000001
 40
0.0
 40
0.0
 40
0.0
 40
0.0
 40
1.0
 40
1.0
 40
1.0
 40
2.0
 40
2.0
 40
2.0
 40
3.0
 40
3.0
 40
3.0
 40
4.0
 40
4.0
 40
4.0
 40
5.0
 40
5.0
 40
5.0
 40
6.0
 40
6.0
 40
6.0
 40
7.0
 40
7.0
 40
7.0
 40
8.0
 40
8.0
 40
8.0
 40
9.0
 40
9.0
 40
9.0
 40
10.0
 40
10.0
 40
10.0
 40
11.0
 40
11.0
 40
11.0
 40
12.0
 40
12.0
 40
12.0
 40
13.0
 40
13.0
 40
13.0
 40
14.0
 40
14.0
 40
14.0
 40
15.0
 40
15.0
 40
15.0
 40
16.0
 40
16.0
 40
16.0
 40
17.0
 40
17.0
 40
17.0
 40
18.0
 40
18.0
 40
18.0
 40
19.0
 40
19.0
 40
19.0
 40
20.0
 40
20.0
 40
20.0
 40
21.0
 40
21.0
 40
21.0
 40
22.0
 40
22.0
 40
22.0
 40
23.0
 40
23.0
 40
23.0
 40
24.0
 40
24.0
 40
24.0
 40
25.0
 40
25.0
 40
25.0
 40
25.0
 10
5.286602374980431
 20
-9.148485512035792
 30
0.0
 10
5.286602374980431
 20
-9.134360620546267
 30
0.0
 10
5.286292316386759
 20
-9.122819550670683
 30
0.0
 10
5.285465493470298
 20
-9.111519637479064
 30
0.0
 10
5.285465493470298
 20
-9.111519637479064
 30
0.0
 10
5.307169595027374
 20
-9.111519637479064
 30
0.0
 10
5.307169595027374
 20
-9.111519637479064
 30
0.0
 10
5.307169595027374
 20
-9.111519637479064
 30
0.0
 10
5.308306476537506
 20
-9.13353379762981
 30
0.0
 10
5.308306476537506
 20
-9.13353379762981
 30
0.0
 10
5.308306476537506
 20
-9.13353379762981
 30
0.0
 10
5.309167750408818
 20
-9.13353379762981
 30
0.0
 10
5.309167750408818
 20
-9.13353379762981
 30
0.0
 10
5.316781411431222
 20
-9.120545787650415
 30
0.0
 10
5.329459362816939
 20
-9.108419051542339
 30
0.0
 10
5.352024738245326
 20
-9.108419051542339
 30
0.0
 10
5.370662704820528
 20
-9.108419051542339
 30
0.0
 10
5.384753145355199
 20
-9.11971896473396
 30
0.0
 10
5.390678709589829
 20
-9.135773109695222
 30
0.0
 10
5.390678709589829
 20
-9.135773109695222
 30
0.0
 10
5.391229924867468
 20
-9.135773109695222
 30
0.0
 10
5.391229924867468
 20
-9.135773109695222
 30
0.0
 10
5.395467392314326
 20
-9.128159448672819
 30
0.0
 10
5.400841741271316
 20
-9.122233884438193
 30
0.0
 10
5.406457246912273
 20
-9.118030867946183
 30
0.0
 10
5.414656574167167
 20
-9.111795245117882
 30
0.0
 10
5.423682724338522
 20
-9.108419051542339
 30
0.0
 10
5.436636283363061
 20
-9.108419051542339
 30
0.0
 10
5.45468858370577
 20
-9.108419051542339
 30
0.0
 10
5.481491426581014
 20
-9.120270180011598
 30
0.0
 10
5.481491426581014
 20
-9.167674693888637
 30
0.0
 10
5.481491426581014
 20
-9.167674693888637
 30
0.0
 10
5.481491426581014
 20
-9.248048771559515
 30
0.0
 10
5.481491426581014
 20
-9.248048771559515
 30
0.0
 10
5.481491426581014
 20
-9.248048771559515
 30
0.0
 10
5.457237954364856
 20
-9.248048771559515
 30
0.0
 10
5.457237954364856
 20
-9.248048771559515
 30
0.0
 10
5.457237954364856
 20
-9.248048771559515
 30
0.0
 10
5.457237954364856
 20
-9.17077527982536
 30
0.0
 10
5.457237954364856
 20
-9.17077527982536
 30
0.0
 10
5.457237954364856
 20
-9.144523652227755
 30
0.0
 10
5.447660588915861
 20
-9.128745114905312
 30
0.0
 10
5.427610133191707
 20
-9.128745114905312
 30
0.0
 10
5.413519692657035
 20
-9.128745114905312
 30
0.0
 10
5.402529838059089
 20
-9.139183754225618
 30
0.0
 10
5.398292370612231
 20
-9.151310490333699
 30
0.0
 10
5.397155489102098
 20
-9.154686683909243
 30
0.0
 10
5.396328666185638
 20
-9.159199758994919
 30
0.0
 10
5.396328666185638
 20
-9.163712834080596
 30
0.0
 10
5.396328666185638
 20
-9.163712834080596
 30
0.0
 10
5.396328666185638
 20
-9.248048771559515
 30
0.0
 10
5.396328666185638
 20
-9.248048771559515
 30
0.0
 10
5.396328666185638
 20
-9.248048771559515
 30
0.0
 10
5.372075193969481
 20
-9.248048771559515
 30
0.0
 10
5.372075193969481
 20
-9.248048771559515
 30
0.0
 10
5.372075193969481
 20
-9.248048771559515
 30
0.0
 10
5.372075193969481
 20
-9.166262204739684
 30
0.0
 10
5.372075193969481
 20
-9.166262204739684
 30
0.0
 10
5.372075193969481
 20
-9.144523652227755
 30
0.0
 10
5.362463377565632
 20
-9.128745114905312
 30
0.0
 10
5.343584254306463
 20
-9.128745114905312
 30
0.0
 10
5.328046873667988
 20
-9.128745114905312
 30
0.0
 10
5.316781411431222
 20
-9.141147458652213
 30
0.0
 10
5.312819551623183
 20
-9.153549802399112
 30
0.0
 10
5.311407062474231
 20
-9.157236054568327
 30
0.0
 10
5.310855847196591
 20
-9.161439071060334
 30
0.0
 10
5.310855847196591
 20
-9.165676538507193
 30
0.0
 10
5.310855847196591
 20
-9.165676538507193
 30
0.0
 10
5.310855847196591
 20
-9.248048771559515
 30
0.0
 10
5.310855847196591
 20
-9.248048771559515
 30
0.0
 10
5.310855847196591
 20
-9.248048771559515
 30
0.0
 10
5.286602374980431
 20
-9.248048771559515
 30
0.0
 10
5.286602374980431
 20
-9.248048771559515
 30
0.0
 10
5.286602374980431
 20
-9.248048771559515
 30
0.0
 10
5.286602374980431
 20
-9.148485512035792
 30
0.0
 10
5.286602374980431
 20
-9.148485512035792
 30
0.0
  0
HATCH
  5
8F
330
84
100
AcDbEntity
  8
Livello 2
 62
   250
420
  1907995
440
 33554687
100
AcDbHatch
 10
0.0
 20
0.0
 30
0.0
210
0.0
220
0.0
230
1.0
  2
SOLID
 70
     1
 71
     1
 91
        1
 92
        1
 93
        1
 72
     4
 94
        3
 73
     0
 74
     0
 95
       80
 96
       76
 40
0.0
 40
0.0
 40
0.0
 40
0.0
 40
1.0
 40
1.0
 40
1.0
 40
2.0
 40
2.0
 40
2.0
 40
3.0
 40
3.0
 40
3.0
 40
4.0
 40
4.0
 40
4.0
 40
5.0
 40
5.0
 40
5.0
 40
6.0
 40
6.0
 40
6.0
 40
7.0
 40
7.0
 40
7.0
 40
8.0
 40
8.0
 40
8.0
 40
9.0
 40
9.0
 40
9.0
 40
10.0
 40
10.0
 40
10.0
 40
11.0
 40
11.0
 40
11.0
 40
12.0
 40
12.0
 40
12.0
 40
13.0
 40
13.0
 40
13.0
 40
14.0
 40
14.0
 40
14.0
 40
15.0
 40
15.0
 40
15.0
 40
16.0
 40
16.0
 40
16.0
 40
17.0
 40
17.0
 40
17.0
 40
18.0
 40
18.0
 40
18.0
 40
19.0
 40
19.0
 40
19.0
 40
20.0
 40
20.0
 40
20.0
 40
21.0
 40
21.0
 40
21.0
 40
22.0
 40
22.0
 40
22.0
 40
23.0
 40
23.0
 40
23.0
 40
24.0
 40
24.0
 40
24.0
 40
25.0
 40
25.0
 40
25.0
 40
25.0
 10
5.286602374980431
 20
-9.148485512035792
 10
5.286602374980431
 20
-9.134360620546267
 10
5.286292316386759
 20
-9.122819550670683
 10
5.285465493470298
 20
-9.111519637479064
 10
5.285465493470298
 20
-9.111519637479064
 10
5.307169595027374
 20
-9.111519637479064
 10
5.307169595027374
 20
-9.111519637479064
 10
5.307169595027374
 20
-9.111519637479064
 10
5.308306476537506
 20
-9.13353379762981
 10
5.308306476537506
 20
-9.13353379762981
 10
5.308306476537506
 20
-9.13353379762981
 10
5.309167750408818
 20
-9.13353379762981
 10
5.309167750408818
 20
-9.13353379762981
 10
5.316781411431222
 20
-9.120545787650415
 10
5.329459362816939
 20
-9.108419051542339
 10
5.352024738245326
 20
-9.108419051542339
 10
5.370662704820528
 20
-9.108419051542339
 10
5.384753145355199
 20
-9.11971896473396
 10
5.390678709589829
 20
-9.135773109695222
 10
5.390678709589829
 20
-9.135773109695222
 10
5.391229924867468
 20
-9.135773109695222
 10
5.391229924867468
 20
-9.135773109695222
 10
5.395467392314326
 20
-9.128159448672819
 10
5.400841741271316
 20
-9.122233884438193
 10
5.406457246912273
 20
-9.118030867946183
 10
5.414656574167167
 20
-9.111795245117882
 10
5.423682724338522
 20
-9.108419051542339
 10
5.436636283363061
 20
-9.108419051542339
 10
5.45468858370577
 20
-9.108419051542339
 10
5.481491426581014
 20
-9.120270180011598
 10
5.481491426581014
 20
-9.167674693888637
 10
5.481491426581014
 20
-9.167674693888637
 10
5.481491426581014
 20
-9.248048771559515
 10
5.481491426581014
 20
-9.248048771559515
 10
5.481491426581014
 20
-9.248048771559515
 10
5.457237954364856
 20
-9.248048771559515
 10
5.457237954364856
 20
-9.248048771559515
 10
5.457237954364856
 20
-9.248048771559515
 10
5.457237954364856
 20
-9.17077527982536
 10
5.457237954364856
 20
-9.17077527982536
 10
5.457237954364856
 20
-9.144523652227755
 10
5.447660588915861
 20
-9.128745114905312
 10
5.427610133191707
 20
-9.128745114905312
 10
5.413519692657035
 20
-9.128745114905312
 10
5.402529838059089
 20
-9.139183754225618
 10
5.398292370612231
 20
-9.151310490333699
 10
5.397155489102098
 20
-9.154686683909243
 10
5.396328666185638
 20
-9.159199758994919
 10
5.396328666185638
 20
-9.163712834080596
 10
5.396328666185638
 20
-9.163712834080596
 10
5.396328666185638
 20
-9.248048771559515
 10
5.396328666185638
 20
-9.248048771559515
 10
5.396328666185638
 20
-9.248048771559515
 10
5.372075193969481
 20
-9.248048771559515
 10
5.372075193969481
 20
-9.248048771559515
 10
5.372075193969481
 20
-9.248048771559515
 10
5.372075193969481
 20
-9.166262204739684
 10
5.372075193969481
 20
-9.166262204739684
 10
5.372075193969481
 20
-9.144523652227755
 10
5.362463377565632
 20
-9.128745114905312
 10
5.343584254306463
 20
-9.128745114905312
 10
5.328046873667988
 20
-9.128745114905312
 10
5.316781411431222
 20
-9.141147458652213
 10
5.312819551623183
 20
-9.153549802399112
 10
5.311407062474231
 20
-9.157236054568327
 10
5.310855847196591
 20
-9.161439071060334
 10
5.310855847196591
 20
-9.165676538507193
 10
5.310855847196591
 20
-9.165676538507193
 10
5.310855847196591
 20
-9.248048771559515
 10
5.310855847196591
 20
-9.248048771559515
 10
5.310855847196591
 20
-9.248048771559515
 10
5.286602374980431
 20
-9.248048771559515
 10
5.286602374980431
 20
-9.248048771559515
 10
5.286602374980431
 20
-9.248048771559515
 10
5.286602374980431
 20
-9.148485512035792
 10
5.286602374980431
 20
-9.148485512035792
 97
        1
330
8E
 75
     2
 76
     1
 98
        1
 10
0.0
 20
0.0
450
        0
451
        0
460
0.0
461
0.0
452
        0
462
0.0
453
        0
470

  0
ENDBLK
  5
87
330
84
100
AcDbEntity
  8
0
100
AcDbBlockEnd
  0
BLOCK
  5
95
330
93
100
AcDbEntity
  8
0
100
AcDbBlockBegin
  2
Block_2
 70
     0
 10
0.0
 20
0.0
 30
0.0
  3
Block_2
  1

  0
INSERT
  5
98
330
93
100
AcDbEntity
  8
Livello 2
100
AcDbBlockReference
  2
Block_3
 10
0.0
 20
0.0
 30
0.0
  0
ENDBLK
  5
96
330
93
100
AcDbEntity
  8
0
100
AcDbBlockEnd
  0
BLOCK
  5
99
330
97
100
AcDbEntity
  8
0
100
AcDbBlockBegin
  2
Block_3
 70
     0
 10
0.0
 20
0.0
 30
0.0
  3
Block_3
  1

  0
SPLINE
  5
9B
330
97
100
AcDbEntity
  8
Livello 2
100
AcDbSpline
210
0.0
220
0.0
230
1.0
 70
    11
 71
     3
 72
    47
 73
    43
 74
     0
 42
0.000000001
 43
0.0000000001
 40
0.0
 40
0.0
 40
0.0
 40
0.0
 40
1.0
 40
1.0
 40
1.0
 40
2.0
 40
2.0
 40
2.0
 40
3.0
 40
3.0
 40
3.0
 40
4.0
 40
4.0
 40
4.0
 40
5.0
 40
5.0
 40
5.0
 40
6.0
 40
6.0
 40
6.0
 40
7.0
 40
7.0
 40
7.0
 40
8.0
 40
8.0
 40
8.0
 40
9.0
 40
9.0
 40
9.0
 40
10.0
 40
10.0
 40
10.0
 40
11.0
 40
11.0
 40
11.0
 40
12.0
 40
12.0
 40
12.0
 40
13.0
 40
13.0
 40
13.0
 40
14.0
 40
14.0
 40
14.0
 40
14.0
 10
5.648991969073861
 20
-4.999987656085072
 30
0.0
 10
5.648991969073861
 20
-4.999987656085072
 30
0.0
 10
5.648991969073861
 20
-4.984760334040267
 30
0.0
 10
5.648991969073861
 20
-4.984760334040267
 30
0.0
 10
5.648991969073861
 20
-4.984760334040267
 30
0.0
 10
5.668456758565523
 20
-4.965846759826245
 30
0.0
 10
5.668456758565523
 20
-4.965846759826245
 30
0.0
 10
5.715275606210068
 20
-4.921301675201965
 30
0.0
 10
5.736428492489502
 20
-4.897599418263445
 30
0.0
 10
5.736704100128322
 20
-4.869969752471742
 30
0.0
 10
5.736704100128322
 20
-4.85133178589654
 30
0.0
 10
5.727677949956968
 20
-4.834140759425143
 30
0.0
 10
5.700323891804084
 20
-4.834140759425143
 30
0.0
 10
5.683684080610327
 20
-4.834140759425143
 30
0.0
 10
5.669869247714476
 20
-4.842581243364007
 30
0.0
 10
5.66139431282076
 20
-4.849643689108768
 30
0.0
 10
5.66139431282076
 20
-4.849643689108768
 30
0.0
 10
5.65350504415954
 20
-4.832142604043699
 30
0.0
 10
5.65350504415954
 20
-4.832142604043699
 30
0.0
 10
5.666182995545258
 20
-4.821428357084573
 30
0.0
 10
5.684235295887967
 20
-4.813539088423349
 30
0.0
 10
5.705388182167402
 20
-4.813539088423349
 30
0.0
 10
5.744868976428366
 20
-4.813539088423349
 30
0.0
 10
5.761543238576973
 20
-4.840617538937414
 30
0.0
 10
5.761543238576973
 20
-4.866834715580164
 30
0.0
 10
5.761543238576973
 20
-4.900700004200172
 30
0.0
 10
5.736979707767142
 20
-4.928054062353054
 30
0.0
 10
5.698360187377492
 20
-4.965295544548606
 30
0.0
 10
5.698360187377492
 20
-4.965295544548606
 30
0.0
 10
5.683684080610327
 20
-4.978834769805636
 30
0.0
 10
5.683684080610327
 20
-4.978834769805636
 30
0.0
 10
5.683684080610327
 20
-4.978834769805636
 30
0.0
 10
5.683684080610327
 20
-4.979385985083276
 30
0.0
 10
5.683684080610327
 20
-4.979385985083276
 30
0.0
 10
5.683684080610327
 20
-4.979385985083276
 30
0.0
 10
5.766056313662652
 20
-4.979385985083276
 30
0.0
 10
5.766056313662652
 20
-4.979385985083276
 30
0.0
 10
5.766056313662652
 20
-4.979385985083276
 30
0.0
 10
5.766056313662652
 20
-4.999987656085072
 30
0.0
 10
5.766056313662652
 20
-4.999987656085072
 30
0.0
 10
5.766056313662652
 20
-4.999987656085072
 30
0.0
 10
5.648991969073861
 20
-4.999987656085072
 30
0.0
 10
5.648991969073861
 20
-4.999987656085072
 30
0.0
  0
HATCH
  5
9C
330
97
100
AcDbEntity
  8
Livello 2
 62
   250
420
  1907995
440
 33554687
100
AcDbHatch
 10
0.0
 20
0.0
 30
0.0
210
0.0
220
0.0
230
1.0
  2
SOLID
 70
     1
 71
     1
 91
        1
 92
        1
 93
        1
 72
     4
 94
        3
 73
     0
 74
     0
 95
       47
 96
       43
 40
0.0
 40
0.0
 40
0.0
 40
0.0
 40
1.0
 40
1.0
 40
1.0
 40
2.0
 40
2.0
 40
2.0
 40
3.0
 40
3.0
 40
3.0
 40
4.0
 40
4.0
 40
4.0
 40
5.0
 40
5.0
 40
5.0
 40
6.0
 40
6.0
 40
6.0
 40
7.0
 40
7.0
 40
7.0
 40
8.0
 40
8.0
 40
8.0
 40
9.0
 40
9.0
 40
9.0
 40
10.0
 40
10.0
 40
10.0
 40
11.0
 40
11.0
 40
11.0
 40
12.0
 40
12.0
 40
12.0
 40
13.0
 40
13.0
 40
13.0
 40
14.0
 40
14.0
 40
14.0
 40
14.0
 10
5.648991969073861
 20
-4.999987656085072
 10
5.648991969073861
 20
-4.999987656085072
 10
5.648991969073861
 20
-4.984760334040267
 10
5.648991969073861
 20
-4.984760334040267
 10
5.648991969073861
 20
-4.984760334040267
 10
5.668456758565523
 20
-4.965846759826245
 10
5.668456758565523
 20
-4.965846759826245
 10
5.715275606210068
 20
-4.921301675201965
 10
5.736428492489502
 20
-4.897599418263445
 10
5.736704100128322
 20
-4.869969752471742
 10
5.736704100128322
 20
-4.85133178589654
 10
5.727677949956968
 20
-4.834140759425143
 10
5.700323891804084
 20
-4.834140759425143
 10
5.683684080610327
 20
-4.834140759425143
 10
5.669869247714476
 20
-4.842581243364007
 10
5.66139431282076
 20
-4.849643689108768
 10
5.66139431282076
 20
-4.849643689108768
 10
5.65350504415954
 20
-4.832142604043699
 10
5.65350504415954
 20
-4.832142604043699
 10
5.666182995545258
 20
-4.821428357084573
 10
5.684235295887967
 20
-4.813539088423349
 10
5.705388182167402
 20
-4.813539088423349
 10
5.744868976428366
 20
-4.813539088423349
 10
5.761543238576973
 20
-4.840617538937414
 10
5.761543238576973
 20
-4.866834715580164
 10
5.761543238576973
 20
-4.900700004200172
 10
5.736979707767142
 20
-4.928054062353054
 10
5.698360187377492
 20
-4.965295544548606
 10
5.698360187377492
 20
-4.965295544548606
 10
5.683684080610327
 20
-4.978834769805636
 10
5.683684080610327
 20
-4.978834769805636
 10
5.683684080610327
 20
-4.978834769805636
 10
5.683684080610327
 20
-4.979385985083276
 10
5.683684080610327
 20
-4.979385985083276
 10
5.683684080610327
 20
-4.979385985083276
 10
5.766056313662652
 20
-4.979385985083276
 10
5.766056313662652
 20
-4.979385985083276
 10
5.766056313662652
 20
-4.979385985083276
 10
5.766056313662652
 20
-4.999987656085072
 10
5.766056313662652
 20
-4.999987656085072
 10
5.766056313662652
 20
-4.999987656085072
 10
5.648991969073861
 20
-4.999987656085072
 10
5.648991969073861
 20
-4.999987656085072
 97
        1
330
9B
 75
     2
 76
     1
 98
        1
 10
0.0
 20
0.0
450
        0
451
        0
460
0.0
461
0.0
452
        0
462
0.0
453
        0
470

  0
SPLINE
  5
9D
330
97
100
AcDbEntity
  8
Livello 2
100
AcDbSpline
210
0.0
220
0.0
230
1.0
 70
    11
 71
     3
 72
    47
 73
    43
 74
     0
 42
0.000000001
 43
0.0000000001
 40
0.0
 40
0.0
 40
0.0
 40
0.0
 40
1.0
 40
1.0
 40
1.0
 40
2.0
 40
2.0
 40
2.0
 40
3.0
 40
3.0
 40
3.0
 40
4.0
 40
4.0
 40
4.0
 40
5.0
 40
5.0
 40
5.0
 40
6.0
 40
6.0
 40
6.0
 40
7.0
 40
7.0
 40
7.0
 40
8.0
 40
8.0
 40
8.0
 40
9.0
 40
9.0
 40
9.0
 40
10.0
 40
10.0
 40
10.0
 40
11.0
 40
11.0
 40
11.0
 40
12.0
 40
12.0
 40
12.0
 40
13.0
 40
13.0
 40
13.0
 40
14.0
 40
14.0
 40
14.0
 40
14.0
 10
5.793754881364059
 20
-4.999987656085072
 30
0.0
 10
5.793754881364059
 20
-4.999987656085072
 30
0.0
 10
5.793754881364059
 20
-4.984760334040267
 30
0.0
 10
5.793754881364059
 20
-4.984760334040267
 30
0.0
 10
5.793754881364059
 20
-4.984760334040267
 30
0.0
 10
5.813219670855722
 20
-4.965846759826245
 30
0.0
 10
5.813219670855722
 20
-4.965846759826245
 30
0.0
 10
5.860038518500267
 20
-4.921301675201965
 30
0.0
 10
5.881191404779701
 20
-4.897599418263445
 30
0.0
 10
5.881501463373373
 20
-4.869969752471742
 30
0.0
 10
5.881501463373373
 20
-4.85133178589654
 30
0.0
 10
5.872475313202018
 20
-4.834140759425143
 30
0.0
 10
5.845086804094282
 20
-4.834140759425143
 30
0.0
 10
5.828446992900526
 20
-4.834140759425143
 30
0.0
 10
5.814632160004673
 20
-4.842581243364007
 30
0.0
 10
5.806157225110958
 20
-4.849643689108768
 30
0.0
 10
5.806157225110958
 20
-4.849643689108768
 30
0.0
 10
5.798267956449737
 20
-4.832142604043699
 30
0.0
 10
5.798267956449737
 20
-4.832142604043699
 30
0.0
 10
5.810980358790309
 20
-4.821428357084573
 30
0.0
 10
5.829032659133018
 20
-4.813539088423349
 30
0.0
 10
5.850185545412451
 20
-4.813539088423349
 30
0.0
 10
5.889666339673415
 20
-4.813539088423349
 30
0.0
 10
5.906306150867172
 20
-4.840617538937414
 30
0.0
 10
5.906306150867172
 20
-4.866834715580164
 30
0.0
 10
5.906306150867172
 20
-4.900700004200172
 30
0.0
 10
5.881777071012193
 20
-4.928054062353054
 30
0.0
 10
5.843123099667691
 20
-4.965295544548606
 30
0.0
 10
5.843123099667691
 20
-4.965295544548606
 30
0.0
 10
5.828446992900526
 20
-4.978834769805636
 30
0.0
 10
5.828446992900526
 20
-4.978834769805636
 30
0.0
 10
5.828446992900526
 20
-4.978834769805636
 30
0.0
 10
5.828446992900526
 20
-4.979385985083276
 30
0.0
 10
5.828446992900526
 20
-4.979385985083276
 30
0.0
 10
5.828446992900526
 20
-4.979385985083276
 30
0.0
 10
5.910819225952849
 20
-4.979385985083276
 30
0.0
 10
5.910819225952849
 20
-4.979385985083276
 30
0.0
 10
5.910819225952849
 20
-4.979385985083276
 30
0.0
 10
5.910819225952849
 20
-4.999987656085072
 30
0.0
 10
5.910819225952849
 20
-4.999987656085072
 30
0.0
 10
5.910819225952849
 20
-4.999987656085072
 30
0.0
 10
5.793754881364059
 20
-4.999987656085072
 30
0.0
 10
5.793754881364059
 20
-4.999987656085072
 30
0.0
  0
HATCH
  5
9E
330
97
100
AcDbEntity
  8
Livello 2
 62
   250
420
  1907995
440
 33554687
100
AcDbHatch
 10
0.0
 20
0.0
 30
0.0
210
0.0
220
0.0
230
1.0
  2
SOLID
 70
     1
 71
     1
 91
        1
 92
        1
 93
        1
 72
     4
 94
        3
 73
     0
 74
     0
 95
       47
 96
       43
 40
0.0
 40
0.0
 40
0.0
 40
0.0
 40
1.0
 40
1.0
 40
1.0
 40
2.0
 40
2.0
 40
2.0
 40
3.0
 40
3.0
 40
3.0
 40
4.0
 40
4.0
 40
4.0
 40
5.0
 40
5.0
 40
5.0
 40
6.0
 40
6.0
 40
6.0
 40
7.0
 40
7.0
 40
7.0
 40
8.0
 40
8.0
 40
8.0
 40
9.0
 40
9.0
 40
9.0
 40
10.0
 40
10.0
 40
10.0
 40
11.0
 40
11.0
 40
11.0
 40
12.0
 40
12.0
 40
12.0
 40
13.0
 40
13.0
 40
13.0
 40
14.0
 40
14.0
 40
14.0
 40
14.0
 10
5.793754881364059
 20
-4.999987656085072
 10
5.793754881364059
 20
-4.999987656085072
 10
5.793754881364059
 20
-4.984760334040267
 10
5.793754881364059
 20
-4.984760334040267
 10
5.793754881364059
 20
-4.984760334040267
 10
5.813219670855722
 20
-4.965846759826245
 10
5.813219670855722
 20
-4.965846759826245
 10
5.860038518500267
 20
-4.921301675201965
 10
5.881191404779701
 20
-4.897599418263445
 10
5.881501463373373
 20
-4.869969752471742
 10
5.881501463373373
 20
-4.85133178589654
 10
5.872475313202018
 20
-4.834140759425143
 10
5.845086804094282
 20
-4.834140759425143
 10
5.828446992900526
 20
-4.834140759425143
 10
5.814632160004673
 20
-4.842581243364007
 10
5.806157225110958
 20
-4.849643689108768
 10
5.806157225110958
 20
-4.849643689108768
 10
5.798267956449737
 20
-4.832142604043699
 10
5.798267956449737
 20
-4.832142604043699
 10
5.810980358790309
 20
-4.821428357084573
 10
5.829032659133018
 20
-4.813539088423349
 10
5.850185545412451
 20
-4.813539088423349
 10
5.889666339673415
 20
-4.813539088423349
 10
5.906306150867172
 20
-4.840617538937414
 10
5.906306150867172
 20
-4.866834715580164
 10
5.906306150867172
 20
-4.900700004200172
 10
5.881777071012193
 20
-4.928054062353054
 10
5.843123099667691
 20
-4.965295544548606
 10
5.843123099667691
 20
-4.965295544548606
 10
5.828446992900526
 20
-4.978834769805636
 10
5.828446992900526
 20
-4.978834769805636
 10
5.828446992900526
 20
-4.978834769805636
 10
5.828446992900526
 20
-4.979385985083276
 10
5.828446992900526
 20
-4.979385985083276
 10
5.828446992900526
 20
-4.979385985083276
 10
5.910819225952849
 20
-4.979385985083276
 10
5.910819225952849
 20
-4.979385985083276
 10
5.910819225952849
 20
-4.979385985083276
 10
5.910819225952849
 20
-4.999987656085072
 10
5.910819225952849
 20
-4.999987656085072
 10
5.910819225952849
 20
-4.999987656085072
 10
5.793754881364059
 20
-4.999987656085072
 10
5.793754881364059
 20
-4.999987656085072
 97
        1
330
9D
 75
     2
 76
     1
 98
        1
 10
0.0
 20
0.0
450
        0
451
        0
460
0.0
461
0.0
452
        0
462
0.0
453
        0
470

  0
SPLINE
  5
9F
330
97
100
AcDbEntity
  8
Livello 2
100
AcDbSpline
210
0.0
220
0.0
230
1.0
 70
    11
 71
     3
 72
    50
 73
    46
 74
     0
 42
0.000000001
 43
0.0000000001
 40
0.0
 40
0.0
 40
0.0
 40
0.0
 40
1.0
 40
1.0
 40
1.0
 40
2.0
 40
2.0
 40
2.0
 40
3.0
 40
3.0
 40
3.0
 40
4.0
 40
4.0
 40
4.0
 40
5.0
 40
5.0
 40
5.0
 40
6.0
 40
6.0
 40
6.0
 40
7.0
 40
7.0
 40
7.0
 40
8.0
 40
8.0
 40
8.0
 40
9.0
 40
9.0
 40
9.0
 40
10.0
 40
10.0
 40
10.0
 40
11.0
 40
11.0
 40
11.0
 40
12.0
 40
12.0
 40
12.0
 40
13.0
 40
13.0
 40
13.0
 40
14.0
 40
14.0
 40
14.0
 40
15.0
 40
15.0
 40
15.0
 40
15.0
 10
6.047968477220646
 20
-4.837516953000688
 30
0.0
 10
6.047968477220646
 20
-4.837516953000688
 30
0.0
 10
5.978033038870075
 20
-4.837516953000688
 30
0.0
 10
5.978033038870075
 20
-4.837516953000688
 30
0.0
 10
5.978033038870075
 20
-4.837516953000688
 30
0.0
 10
5.970970593125312
 20
-4.884611408284054
 30
0.0
 10
5.970970593125312
 20
-4.884611408284054
 30
0.0
 10
5.975208060572168
 20
-4.884060193006415
 30
0.0
 10
5.979135469425354
 20
-4.883508977728775
 30
0.0
 10
5.985922307531295
 20
-4.883508977728775
 30
0.0
 10
6.000012748065967
 20
-4.883508977728775
 30
0.0
 10
6.014137639555491
 20
-4.8866095636655
 30
0.0
 10
6.025403101792258
 20
-4.893361950816588
 30
0.0
 10
6.039803600920602
 20
-4.901561278071483
 30
0.0
 10
6.051654729389861
 20
-4.917339815393927
 30
0.0
 10
6.051654729389861
 20
-4.940456406099953
 30
0.0
 10
6.051654729389861
 20
-4.976285399146551
 30
0.0
 10
6.023163789726847
 20
-5.003088242021796
 30
0.0
 10
5.98337293687221
 20
-5.003088242021796
 30
0.0
 10
5.96335693210291
 20
-5.003088242021796
 30
0.0
 10
5.946441513270331
 20
-4.997438285425987
 30
0.0
 10
5.937690970737799
 20
-4.99182277978503
 30
0.0
 10
5.937690970737799
 20
-4.99182277978503
 30
0.0
 10
5.943892142611247
 20
-4.972909205571007
 30
0.0
 10
5.943892142611247
 20
-4.972909205571007
 30
0.0
 10
5.951505803633652
 20
-4.977422280656686
 30
0.0
 10
5.966457518039634
 20
-4.983072237252494
 30
0.0
 10
5.983097329233391
 20
-4.983072237252494
 30
0.0
 10
6.00652397853309
 20
-4.983072237252494
 30
0.0
 10
6.026539983302392
 20
-4.967844915207691
 30
0.0
 10
6.026539983302392
 20
-4.94328138439786
 30
0.0
 10
6.026264375663572
 20
-4.919613578414193
 30
0.0
 10
6.010451387386275
 20
-4.902663708626763
 30
0.0
 10
5.973795571423218
 20
-4.902663708626763
 30
0.0
 10
5.96335693210291
 20
-4.902663708626763
 30
0.0
 10
5.955192055802867
 20
-4.903800590136896
 30
0.0
 10
5.948405217696925
 20
-4.904661864008208
 30
0.0
 10
5.948405217696925
 20
-4.904661864008208
 30
0.0
 10
5.960256346166184
 20
-4.816639674360074
 30
0.0
 10
5.960256346166184
 20
-4.816639674360074
 30
0.0
 10
5.960256346166184
 20
-4.816639674360074
 30
0.0
 10
6.047968477220646
 20
-4.816639674360074
 30
0.0
 10
6.047968477220646
 20
-4.816639674360074
 30
0.0
 10
6.047968477220646
 20
-4.816639674360074
 30
0.0
 10
6.047968477220646
 20
-4.837516953000688
 30
0.0
 10
6.047968477220646
 20
-4.837516953000688
 30
0.0
  0
HATCH
  5
A0
330
97
100
AcDbEntity
  8
Livello 2
 62
   250
420
  1907995
440
 33554687
100
AcDbHatch
 10
0.0
 20
0.0
 30
0.0
210
0.0
220
0.0
230
1.0
  2
SOLID
 70
     1
 71
     1
 91
        1
 92
        1
 93
        1
 72
     4
 94
        3
 73
     0
 74
     0
 95
       50
 96
       46
 40
0.0
 40
0.0
 40
0.0
 40
0.0
 40
1.0
 40
1.0
 40
1.0
 40
2.0
 40
2.0
 40
2.0
 40
3.0
 40
3.0
 40
3.0
 40
4.0
 40
4.0
 40
4.0
 40
5.0
 40
5.0
 40
5.0
 40
6.0
 40
6.0
 40
6.0
 40
7.0
 40
7.0
 40
7.0
 40
8.0
 40
8.0
 40
8.0
 40
9.0
 40
9.0
 40
9.0
 40
10.0
 40
10.0
 40
10.0
 40
11.0
 40
11.0
 40
11.0
 40
12.0
 40
12.0
 40
12.0
 40
13.0
 40
13.0
 40
13.0
 40
14.0
 40
14.0
 40
14.0
 40
15.0
 40
15.0
 40
15.0
 40
15.0
 10
6.047968477220646
 20
-4.837516953000688
 10
6.047968477220646
 20
-4.837516953000688
 10
5.978033038870075
 20
-4.837516953000688
 10
5.978033038870075
 20
-4.837516953000688
 10
5.978033038870075
 20
-4.837516953000688
 10
5.970970593125312
 20
-4.884611408284054
 10
5.970970593125312
 20
-4.884611408284054
 10
5.975208060572168
 20
-4.884060193006415
 10
5.979135469425354
 20
-4.883508977728775
 10
5.985922307531295
 20
-4.883508977728775
 10
6.000012748065967
 20
-4.883508977728775
 10
6.014137639555491
 20
-4.8866095636655
 10
6.025403101792258
 20
-4.893361950816588
 10
6.039803600920602
 20
-4.901561278071483
 10
6.051654729389861
 20
-4.917339815393927
 10
6.051654729389861
 20
-4.940456406099953
 10
6.051654729389861
 20
-4.976285399146551
 10
6.023163789726847
 20
-5.003088242021796
 10
5.98337293687221
 20
-5.003088242021796
 10
5.96335693210291
 20
-5.003088242021796
 10
5.946441513270331
 20
-4.997438285425987
 10
5.937690970737799
 20
-4.99182277978503
 10
5.937690970737799
 20
-4.99182277978503
 10
5.943892142611247
 20
-4.972909205571007
 10
5.943892142611247
 20
-4.972909205571007
 10
5.951505803633652
 20
-4.977422280656686
 10
5.966457518039634
 20
-4.983072237252494
 10
5.983097329233391
 20
-4.983072237252494
 10
6.00652397853309
 20
-4.983072237252494
 10
6.026539983302392
 20
-4.967844915207691
 10
6.026539983302392
 20
-4.94328138439786
 10
6.026264375663572
 20
-4.919613578414193
 10
6.010451387386275
 20
-4.902663708626763
 10
5.973795571423218
 20
-4.902663708626763
 10
5.96335693210291
 20
-4.902663708626763
 10
5.955192055802867
 20
-4.903800590136896
 10
5.948405217696925
 20
-4.904661864008208
 10
5.948405217696925
 20
-4.904661864008208
 10
5.960256346166184
 20
-4.816639674360074
 10
5.960256346166184
 20
-4.816639674360074
 10
5.960256346166184
 20
-4.816639674360074
 10
6.047968477220646
 20
-4.816639674360074
 10
6.047968477220646
 20
-4.816639674360074
 10
6.047968477220646
 20
-4.816639674360074
 10
6.047968477220646
 20
-4.837516953000688
 10
6.047968477220646
 20
-4.837516953000688
 97
        1
330
9F
 75
     2
 76
     1
 98
        1
 10
0.0
 20
0.0
450
        0
451
        0
460
0.0
461
0.0
452
        0
462
0.0
453
        0
470

  0
SPLINE
  5
A1
330
97
100
AcDbEntity
  8
Livello 2
100
AcDbSpline
210
0.0
220
0.0
230
1.0
 70
     9
 71
     3
 72
    17
 73
    13
 74
     0
 42
0.000000001
 43
0.0000000001
 40
0.0
 40
0.0
 40
0.0
 40
0.0
 40
1.0
 40
1.0
 40
1.0
 40
2.0
 40
2.0
 40
2.0
 40
3.0
 40
3.0
 40
3.0
 40
4.0
 40
4.0
 40
4.0
 40
4.0
 10
6.105604924688875
 20
-4.909174939093886
 30
0.0
 10
6.105604924688875
 20
-4.956820609654891
 30
0.0
 10
6.120281031456039
 20
-4.983899060168955
 30
0.0
 10
6.142846406884427
 20
-4.983899060168955
 30
0.0
 10
6.168236760610717
 20
-4.983899060168955
 30
0.0
 10
6.180363496718797
 20
-4.954305689950659
 30
0.0
 10
6.180363496718797
 20
-4.907486842306113
 30
0.0
 10
6.180363496718797
 20
-4.86235609144934
 30
0.0
 10
6.168787975888356
 20
-4.832728270276191
 30
0.0
 10
6.143122014523246
 20
-4.832728270276191
 30
0.0
 10
6.121417912966172
 20
-4.832728270276191
 30
0.0
 10
6.105604924688875
 20
-4.859221054557762
 30
0.0
 10
6.105604924688875
 20
-4.909174939093886
 30
0.0
  0
SPLINE
  5
A2
330
97
100
AcDbEntity
  8
Livello 2
100
AcDbSpline
210
0.0
220
0.0
230
1.0
 70
     9
 71
     3
 72
    17
 73
    13
 74
     0
 42
0.000000001
 43
0.0000000001
 40
0.0
 40
0.0
 40
0.0
 40
0.0
 40
1.0
 40
1.0
 40
1.0
 40
2.0
 40
2.0
 40
2.0
 40
3.0
 40
3.0
 40
3.0
 40
4.0
 40
4.0
 40
4.0
 40
4.0
 10
6.205168184212596
 20
-4.906349960795981
 30
0.0
 10
6.205168184212596
 20
-4.96867173812415
 30
0.0
 10
6.182051593506568
 20
-5.003088242021796
 30
0.0
 10
6.141433917735474
 20
-5.003088242021796
 30
0.0
 10
6.105604924688875
 20
-5.003088242021796
 30
0.0
 10
6.081351452472717
 20
-4.969533011995462
 30
0.0
 10
6.080800237195076
 20
-4.908864880500214
 30
0.0
 10
6.080800237195076
 20
-4.847404377043356
 30
0.0
 10
6.107293021476647
 20
-4.813539088423349
 30
0.0
 10
6.144534503672199
 20
-4.813539088423349
 30
0.0
 10
6.183188475016702
 20
-4.813539088423349
 30
0.0
 10
6.205168184212596
 20
-4.847955592320995
 30
0.0
 10
6.205168184212596
 20
-4.906349960795981
 30
0.0
  0
HATCH
  5
A3
330
97
100
AcDbEntity
  8
Livello 2
 62
   250
420
  1907995
440
 33554687
100
AcDbHatch
 10
0.0
 20
0.0
 30
0.0
210
0.0
220
0.0
230
1.0
  2
SOLID
 70
     1
 71
     1
 91
        2
 92
        1
 93
        1
 72
     4
 94
        3
 73
     0
 74
     0
 95
       17
 96
       13
 40
0.0
 40
0.0
 40
0.0
 40
0.0
 40
1.0
 40
1.0
 40
1.0
 40
2.0
 40
2.0
 40
2.0
 40
3.0
 40
3.0
 40
3.0
 40
4.0
 40
4.0
 40
4.0
 40
4.0
 10
6.105604924688875
 20
-4.909174939093886
 10
6.105604924688875
 20
-4.956820609654891
 10
6.120281031456039
 20
-4.983899060168955
 10
6.142846406884427
 20
-4.983899060168955
 10
6.168236760610717
 20
-4.983899060168955
 10
6.180363496718797
 20
-4.954305689950659
 10
6.180363496718797
 20
-4.907486842306113
 10
6.180363496718797
 20
-4.86235609144934
 10
6.168787975888356
 20
-4.832728270276191
 10
6.143122014523246
 20
-4.832728270276191
 10
6.121417912966172
 20
-4.832728270276191
 10
6.105604924688875
 20
-4.859221054557762
 10
6.105604924688875
 20
-4.909174939093886
 97
        1
330
A1
 92
        1
 93
        1
 72
     4
 94
        3
 73
     0
 74
     0
 95
       17
 96
       13
 40
0.0
 40
0.0
 40
0.0
 40
0.0
 40
1.0
 40
1.0
 40
1.0
 40
2.0
 40
2.0
 40
2.0
 40
3.0
 40
3.0
 40
3.0
 40
4.0
 40
4.0
 40
4.0
 40
4.0
 10
6.205168184212596
 20
-4.906349960795981
 10
6.205168184212596
 20
-4.96867173812415
 10
6.182051593506568
 20
-5.003088242021796
 10
6.141433917735474
 20
-5.003088242021796
 10
6.105604924688875
 20
-5.003088242021796
 10
6.081351452472717
 20
-4.969533011995462
 10
6.080800237195076
 20
-4.908864880500214
 10
6.080800237195076
 20
-4.847404377043356
 10
6.107293021476647
 20
-4.813539088423349
 10
6.144534503672199
 20
-4.813539088423349
 10
6.183188475016702
 20
-4.813539088423349
 10
6.205168184212596
 20
-4.847955592320995
 10
6.205168184212596
 20
-4.906349960795981
 97
        1
330
A2
 75
     2
 76
     1
 98
        1
 10
0.0
 20
0.0
450
        0
451
        0
460
0.0
461
0.0
452
        0
462
0.0
453
        0
470

  0
SPLINE
  5
A4
330
97
100
AcDbEntity
  8
Livello 2
100
AcDbSpline
210
0.0
220
0.0
230
1.0
 70
     9
 71
     3
 72
    80
 73
    76
 74
     0
 42
0.000000001
 43
0.0000000001
 40
0.0
 40
0.0
 40
0.0
 40
0.0
 40
1.0
 40
1.0
 40
1.0
 40
2.0
 40
2.0
 40
2.0
 40
3.0
 40
3.0
 40
3.0
 40
4.0
 40
4.0
 40
4.0
 40
5.0
 40
5.0
 40
5.0
 40
6.0
 40
6.0
 40
6.0
 40
7.0
 40
7.0
 40
7.0
 40
8.0
 40
8.0
 40
8.0
 40
9.0
 40
9.0
 40
9.0
 40
10.0
 40
10.0
 40
10.0
 40
11.0
 40
11.0
 40
11.0
 40
12.0
 40
12.0
 40
12.0
 40
13.0
 40
13.0
 40
13.0
 40
14.0
 40
14.0
 40
14.0
 40
15.0
 40
15.0
 40
15.0
 40
16.0
 40
16.0
 40
16.0
 40
17.0
 40
17.0
 40
17.0
 40
18.0
 40
18.0
 40
18.0
 40
19.0
 40
19.0
 40
19.0
 40
20.0
 40
20.0
 40
20.0
 40
21.0
 40
21.0
 40
21.0
 40
22.0
 40
22.0
 40
22.0
 40
23.0
 40
23.0
 40
23.0
 40
24.0
 40
24.0
 40
24.0
 40
25.0
 40
25.0
 40
25.0
 40
25.0
 10
6.295843097384372
 20
-4.90042439656135
 30
0.0
 10
6.295843097384372
 20
-4.886299505071827
 30
0.0
 10
6.29556748974555
 20
-4.874758435196239
 30
0.0
 10
6.294706215874238
 20
-4.863458522004621
 30
0.0
 10
6.294706215874238
 20
-4.863458522004621
 30
0.0
 10
6.316410317431312
 20
-4.863458522004621
 30
0.0
 10
6.316410317431312
 20
-4.863458522004621
 30
0.0
 10
6.316410317431312
 20
-4.863458522004621
 30
0.0
 10
6.317547198941445
 20
-4.885472682155366
 30
0.0
 10
6.317547198941445
 20
-4.885472682155366
 30
0.0
 10
6.317547198941445
 20
-4.885472682155366
 30
0.0
 10
6.318408472812757
 20
-4.885472682155366
 30
0.0
 10
6.318408472812757
 20
-4.885472682155366
 30
0.0
 10
6.32602213383516
 20
-4.872484672175974
 30
0.0
 10
6.338700085220879
 20
-4.860357936067896
 30
0.0
 10
6.361265460649266
 20
-4.860357936067896
 30
0.0
 10
6.379903427224467
 20
-4.860357936067896
 30
0.0
 10
6.393993867759139
 20
-4.871657849259515
 30
0.0
 10
6.399919431993768
 20
-4.887711994220778
 30
0.0
 10
6.399919431993768
 20
-4.887711994220778
 30
0.0
 10
6.400470647271409
 20
-4.887711994220778
 30
0.0
 10
6.400470647271409
 20
-4.887711994220778
 30
0.0
 10
6.404708114718268
 20
-4.880098333198376
 30
0.0
 10
6.410082463675255
 20
-4.874172768963748
 30
0.0
 10
6.415697969316212
 20
-4.869969752471742
 30
0.0
 10
6.423897296571106
 20
-4.863734129643439
 30
0.0
 10
6.432923446742463
 20
-4.860357936067896
 30
0.0
 10
6.445877005767003
 20
-4.860357936067896
 30
0.0
 10
6.463929306109712
 20
-4.860357936067896
 30
0.0
 10
6.490732148984955
 20
-4.872209064537154
 30
0.0
 10
6.490732148984955
 20
-4.919613578414193
 30
0.0
 10
6.490732148984955
 20
-4.919613578414193
 30
0.0
 10
6.490732148984955
 20
-4.999987656085072
 30
0.0
 10
6.490732148984955
 20
-4.999987656085072
 30
0.0
 10
6.490732148984955
 20
-4.999987656085072
 30
0.0
 10
6.466478676768796
 20
-4.999987656085072
 30
0.0
 10
6.466478676768796
 20
-4.999987656085072
 30
0.0
 10
6.466478676768796
 20
-4.999987656085072
 30
0.0
 10
6.466478676768796
 20
-4.922714164350917
 30
0.0
 10
6.466478676768796
 20
-4.922714164350917
 30
0.0
 10
6.466478676768796
 20
-4.896462536753313
 30
0.0
 10
6.456901311319803
 20
-4.880683999430869
 30
0.0
 10
6.436850855595647
 20
-4.880683999430869
 30
0.0
 10
6.422760415060976
 20
-4.880683999430869
 30
0.0
 10
6.411770560463027
 20
-4.891122638751176
 30
0.0
 10
6.407533093016171
 20
-4.903249374859257
 30
0.0
 10
6.406396211506039
 20
-4.9066255684348
 30
0.0
 10
6.405569388589579
 20
-4.911138643520478
 30
0.0
 10
6.405569388589579
 20
-4.915651718606156
 30
0.0
 10
6.405569388589579
 20
-4.915651718606156
 30
0.0
 10
6.405569388589579
 20
-4.999987656085072
 30
0.0
 10
6.405569388589579
 20
-4.999987656085072
 30
0.0
 10
6.405569388589579
 20
-4.999987656085072
 30
0.0
 10
6.381281465418567
 20
-4.999987656085072
 30
0.0
 10
6.381281465418567
 20
-4.999987656085072
 30
0.0
 10
6.381281465418567
 20
-4.999987656085072
 30
0.0
 10
6.381281465418567
 20
-4.918201089265241
 30
0.0
 10
6.381281465418567
 20
-4.918201089265241
 30
0.0
 10
6.381281465418567
 20
-4.896462536753313
 30
0.0
 10
6.371704099969571
 20
-4.880683999430869
 30
0.0
 10
6.352824976710403
 20
-4.880683999430869
 30
0.0
 10
6.337287596071927
 20
-4.880683999430869
 30
0.0
 10
6.32602213383516
 20
-4.89308634317777
 30
0.0
 10
6.322060274027122
 20
-4.905488686924669
 30
0.0
 10
6.32064778487817
 20
-4.909174939093886
 30
0.0
 10
6.32009656960053
 20
-4.91337795558589
 30
0.0
 10
6.32009656960053
 20
-4.917615423032748
 30
0.0
 10
6.32009656960053
 20
-4.917615423032748
 30
0.0
 10
6.32009656960053
 20
-4.999987656085072
 30
0.0
 10
6.32009656960053
 20
-4.999987656085072
 30
0.0
 10
6.32009656960053
 20
-4.999987656085072
 30
0.0
 10
6.295843097384372
 20
-4.999987656085072
 30
0.0
 10
6.295843097384372
 20
-4.999987656085072
 30
0.0
 10
6.295843097384372
 20
-4.999987656085072
 30
0.0
 10
6.295843097384372
 20
-4.90042439656135
 30
0.0
 10
6.295843097384372
 20
-4.90042439656135
 30
0.0
  0
HATCH
  5
A5
330
97
100
AcDbEntity
  8
Livello 2
 62
   250
420
  1907995
440
 33554687
100
AcDbHatch
 10
0.0
 20
0.0
 30
0.0
210
0.0
220
0.0
230
1.0
  2
SOLID
 70
     1
 71
     1
 91
        1
 92
        1
 93
        1
 72
     4
 94
        3
 73
     0
 74
     0
 95
       80
 96
       76
 40
0.0
 40
0.0
 40
0.0
 40
0.0
 40
1.0
 40
1.0
 40
1.0
 40
2.0
 40
2.0
 40
2.0
 40
3.0
 40
3.0
 40
3.0
 40
4.0
 40
4.0
 40
4.0
 40
5.0
 40
5.0
 40
5.0
 40
6.0
 40
6.0
 40
6.0
 40
7.0
 40
7.0
 40
7.0
 40
8.0
 40
8.0
 40
8.0
 40
9.0
 40
9.0
 40
9.0
 40
10.0
 40
10.0
 40
10.0
 40
11.0
 40
11.0
 40
11.0
 40
12.0
 40
12.0
 40
12.0
 40
13.0
 40
13.0
 40
13.0
 40
14.0
 40
14.0
 40
14.0
 40
15.0
 40
15.0
 40
15.0
 40
16.0
 40
16.0
 40
16.0
 40
17.0
 40
17.0
 40
17.0
 40
18.0
 40
18.0
 40
18.0
 40
19.0
 40
19.0
 40
19.0
 40
20.0
 40
20.0
 40
20.0
 40
21.0
 40
21.0
 40
21.0
 40
22.0
 40
22.0
 40
22.0
 40
23.0
 40
23.0
 40
23.0
 40
24.0
 40
24.0
 40
24.0
 40
25.0
 40
25.0
 40
25.0
 40
25.0
 10
6.295843097384372
 20
-4.90042439656135
 10
6.295843097384372
 20
-4.886299505071827
 10
6.29556748974555
 20
-4.874758435196239
 10
6.294706215874238
 20
-4.863458522004621
 10
6.294706215874238
 20
-4.863458522004621
 10
6.316410317431312
 20
-4.863458522004621
 10
6.316410317431312
 20
-4.863458522004621
 10
6.316410317431312
 20
-4.863458522004621
 10
6.317547198941445
 20
-4.885472682155366
 10
6.317547198941445
 20
-4.885472682155366
 10
6.317547198941445
 20
-4.885472682155366
 10
6.318408472812757
 20
-4.885472682155366
 10
6.318408472812757
 20
-4.885472682155366
 10
6.32602213383516
 20
-4.872484672175974
 10
6.338700085220879
 20
-4.860357936067896
 10
6.361265460649266
 20
-4.860357936067896
 10
6.379903427224467
 20
-4.860357936067896
 10
6.393993867759139
 20
-4.871657849259515
 10
6.399919431993768
 20
-4.887711994220778
 10
6.399919431993768
 20
-4.887711994220778
 10
6.400470647271409
 20
-4.887711994220778
 10
6.400470647271409
 20
-4.887711994220778
 10
6.404708114718268
 20
-4.880098333198376
 10
6.410082463675255
 20
-4.874172768963748
 10
6.415697969316212
 20
-4.869969752471742
 10
6.423897296571106
 20
-4.863734129643439
 10
6.432923446742463
 20
-4.860357936067896
 10
6.445877005767003
 20
-4.860357936067896
 10
6.463929306109712
 20
-4.860357936067896
 10
6.490732148984955
 20
-4.872209064537154
 10
6.490732148984955
 20
-4.919613578414193
 10
6.490732148984955
 20
-4.919613578414193
 10
6.490732148984955
 20
-4.999987656085072
 10
6.490732148984955
 20
-4.999987656085072
 10
6.490732148984955
 20
-4.999987656085072
 10
6.466478676768796
 20
-4.999987656085072
 10
6.466478676768796
 20
-4.999987656085072
 10
6.466478676768796
 20
-4.999987656085072
 10
6.466478676768796
 20
-4.922714164350917
 10
6.466478676768796
 20
-4.922714164350917
 10
6.466478676768796
 20
-4.896462536753313
 10
6.456901311319803
 20
-4.880683999430869
 10
6.436850855595647
 20
-4.880683999430869
 10
6.422760415060976
 20
-4.880683999430869
 10
6.411770560463027
 20
-4.891122638751176
 10
6.407533093016171
 20
-4.903249374859257
 10
6.406396211506039
 20
-4.9066255684348
 10
6.405569388589579
 20
-4.911138643520478
 10
6.405569388589579
 20
-4.915651718606156
 10
6.405569388589579
 20
-4.915651718606156
 10
6.405569388589579
 20
-4.999987656085072
 10
6.405569388589579
 20
-4.999987656085072
 10
6.405569388589579
 20
-4.999987656085072
 10
6.381281465418567
 20
-4.999987656085072
 10
6.381281465418567
 20
-4.999987656085072
 10
6.381281465418567
 20
-4.999987656085072
 10
6.381281465418567
 20
-4.918201089265241
 10
6.381281465418567
 20
-4.918201089265241
 10
6.381281465418567
 20
-4.896462536753313
 10
6.371704099969571
 20
-4.880683999430869
 10
6.352824976710403
 20
-4.880683999430869
 10
6.337287596071927
 20
-4.880683999430869
 10
6.32602213383516
 20
-4.89308634317777
 10
6.322060274027122
 20
-4.905488686924669
 10
6.32064778487817
 20
-4.909174939093886
 10
6.32009656960053
 20
-4.91337795558589
 10
6.32009656960053
 20
-4.917615423032748
 10
6.32009656960053
 20
-4.917615423032748
 10
6.32009656960053
 20
-4.999987656085072
 10
6.32009656960053
 20
-4.999987656085072
 10
6.32009656960053
 20
-4.999987656085072
 10
6.295843097384372
 20
-4.999987656085072
 10
6.295843097384372
 20
-4.999987656085072
 10
6.295843097384372
 20
-4.999987656085072
 10
6.295843097384372
 20
-4.90042439656135
 10
6.295843097384372
 20
-4.90042439656135
 97
        1
330
A4
 75
     2
 76
     1
 98
        1
 10
0.0
 20
0.0
450
        0
451
        0
460
0.0
461
0.0
452
        0
462
0.0
453
        0
470

  0
SPLINE
  5
A6
330
97
100
AcDbEntity
  8
Livello 2
100
AcDbSpline
210
0.0
220
0.0
230
1.0
 70
     9
 71
     3
 72
    80
 73
    76
 74
     0
 42
0.000000001
 43
0.0000000001
 40
0.0
 40
0.0
 40
0.0
 40
0.0
 40
1.0
 40
1.0
 40
1.0
 40
2.0
 40
2.0
 40
2.0
 40
3.0
 40
3.0
 40
3.0
 40
4.0
 40
4.0
 40
4.0
 40
5.0
 40
5.0
 40
5.0
 40
6.0
 40
6.0
 40
6.0
 40
7.0
 40
7.0
 40
7.0
 40
8.0
 40
8.0
 40
8.0
 40
9.0
 40
9.0
 40
9.0
 40
10.0
 40
10.0
 40
10.0
 40
11.0
 40
11.0
 40
11.0
 40
12.0
 40
12.0
 40
12.0
 40
13.0
 40
13.0
 40
13.0
 40
14.0
 40
14.0
 40
14.0
 40
15.0
 40
15.0
 40
15.0
 40
16.0
 40
16.0
 40
16.0
 40
17.0
 40
17.0
 40
17.0
 40
18.0
 40
18.0
 40
18.0
 40
19.0
 40
19.0
 40
19.0
 40
20.0
 40
20.0
 40
20.0
 40
21.0
 40
21.0
 40
21.0
 40
22.0
 40
22.0
 40
22.0
 40
23.0
 40
23.0
 40
23.0
 40
24.0
 40
24.0
 40
24.0
 40
25.0
 40
25.0
 40
25.0
 40
25.0
 10
6.531212020936639
 20
-4.90042439656135
 30
0.0
 10
6.531212020936639
 20
-4.886299505071827
 30
0.0
 10
6.530936413297821
 20
-4.874758435196239
 30
0.0
 10
6.530075139426507
 20
-4.863458522004621
 30
0.0
 10
6.530075139426507
 20
-4.863458522004621
 30
0.0
 10
6.551779240983581
 20
-4.863458522004621
 30
0.0
 10
6.551779240983581
 20
-4.863458522004621
 30
0.0
 10
6.551779240983581
 20
-4.863458522004621
 30
0.0
 10
6.552916122493715
 20
-4.885472682155366
 30
0.0
 10
6.552916122493715
 20
-4.885472682155366
 30
0.0
 10
6.552916122493715
 20
-4.885472682155366
 30
0.0
 10
6.553777396365027
 20
-4.885472682155366
 30
0.0
 10
6.553777396365027
 20
-4.885472682155366
 30
0.0
 10
6.561391057387428
 20
-4.872484672175974
 30
0.0
 10
6.574069008773148
 20
-4.860357936067896
 30
0.0
 10
6.596634384201535
 20
-4.860357936067896
 30
0.0
 10
6.615272350776736
 20
-4.860357936067896
 30
0.0
 10
6.629362791311407
 20
-4.871657849259515
 30
0.0
 10
6.635288355546037
 20
-4.887711994220778
 30
0.0
 10
6.635288355546037
 20
-4.887711994220778
 30
0.0
 10
6.635839570823677
 20
-4.887711994220778
 30
0.0
 10
6.635839570823677
 20
-4.887711994220778
 30
0.0
 10
6.640077038270535
 20
-4.880098333198376
 30
0.0
 10
6.645451387227526
 20
-4.874172768963748
 30
0.0
 10
6.651066892868481
 20
-4.869969752471742
 30
0.0
 10
6.659266220123375
 20
-4.863734129643439
 30
0.0
 10
6.668292370294731
 20
-4.860357936067896
 30
0.0
 10
6.68124592931927
 20
-4.860357936067896
 30
0.0
 10
6.69929822966198
 20
-4.860357936067896
 30
0.0
 10
6.726101072537223
 20
-4.872209064537154
 30
0.0
 10
6.726101072537223
 20
-4.919613578414193
 30
0.0
 10
6.726101072537223
 20
-4.919613578414193
 30
0.0
 10
6.726101072537223
 20
-4.999987656085072
 30
0.0
 10
6.726101072537223
 20
-4.999987656085072
 30
0.0
 10
6.726101072537223
 20
-4.999987656085072
 30
0.0
 10
6.701847600321064
 20
-4.999987656085072
 30
0.0
 10
6.701847600321064
 20
-4.999987656085072
 30
0.0
 10
6.701847600321064
 20
-4.999987656085072
 30
0.0
 10
6.701847600321064
 20
-4.922714164350917
 30
0.0
 10
6.701847600321064
 20
-4.922714164350917
 30
0.0
 10
6.701847600321064
 20
-4.896462536753313
 30
0.0
 10
6.69227023487207
 20
-4.880683999430869
 30
0.0
 10
6.672219779147916
 20
-4.880683999430869
 30
0.0
 10
6.658129338613243
 20
-4.880683999430869
 30
0.0
 10
6.647139484015298
 20
-4.891122638751176
 30
0.0
 10
6.64290201656844
 20
-4.903249374859257
 30
0.0
 10
6.641765135058308
 20
-4.9066255684348
 30
0.0
 10
6.640938312141847
 20
-4.911138643520478
 30
0.0
 10
6.640938312141847
 20
-4.915651718606156
 30
0.0
 10
6.640938312141847
 20
-4.915651718606156
 30
0.0
 10
6.640938312141847
 20
-4.999987656085072
 30
0.0
 10
6.640938312141847
 20
-4.999987656085072
 30
0.0
 10
6.640938312141847
 20
-4.999987656085072
 30
0.0
 10
6.616650388970836
 20
-4.999987656085072
 30
0.0
 10
6.616650388970836
 20
-4.999987656085072
 30
0.0
 10
6.616650388970836
 20
-4.999987656085072
 30
0.0
 10
6.616650388970836
 20
-4.918201089265241
 30
0.0
 10
6.616650388970836
 20
-4.918201089265241
 30
0.0
 10
6.616650388970836
 20
-4.896462536753313
 30
0.0
 10
6.607073023521842
 20
-4.880683999430869
 30
0.0
 10
6.588193900262672
 20
-4.880683999430869
 30
0.0
 10
6.572656519624196
 20
-4.880683999430869
 30
0.0
 10
6.561391057387428
 20
-4.89308634317777
 30
0.0
 10
6.557429197579391
 20
-4.905488686924669
 30
0.0
 10
6.55601670843044
 20
-4.909174939093886
 30
0.0
 10
6.555465493152799
 20
-4.91337795558589
 30
0.0
 10
6.555465493152799
 20
-4.917615423032748
 30
0.0
 10
6.555465493152799
 20
-4.917615423032748
 30
0.0
 10
6.555465493152799
 20
-4.999987656085072
 30
0.0
 10
6.555465493152799
 20
-4.999987656085072
 30
0.0
 10
6.555465493152799
 20
-4.999987656085072
 30
0.0
 10
6.531212020936639
 20
-4.999987656085072
 30
0.0
 10
6.531212020936639
 20
-4.999987656085072
 30
0.0
 10
6.531212020936639
 20
-4.999987656085072
 30
0.0
 10
6.531212020936639
 20
-4.90042439656135
 30
0.0
 10
6.531212020936639
 20
-4.90042439656135
 30
0.0
  0
HATCH
  5
A7
330
97
100
AcDbEntity
  8
Livello 2
 62
   250
420
  1907995
440
 33554687
100
AcDbHatch
 10
0.0
 20
0.0
 30
0.0
210
0.0
220
0.0
230
1.0
  2
SOLID
 70
     1
 71
     1
 91
        1
 92
        1
 93
        1
 72
     4
 94
        3
 73
     0
 74
     0
 95
       80
 96
       76
 40
0.0
 40
0.0
 40
0.0
 40
0.0
 40
1.0
 40
1.0
 40
1.0
 40
2.0
 40
2.0
 40
2.0
 40
3.0
 40
3.0
 40
3.0
 40
4.0
 40
4.0
 40
4.0
 40
5.0
 40
5.0
 40
5.0
 40
6.0
 40
6.0
 40
6.0
 40
7.0
 40
7.0
 40
7.0
 40
8.0
 40
8.0
 40
8.0
 40
9.0
 40
9.0
 40
9.0
 40
10.0
 40
10.0
 40
10.0
 40
11.0
 40
11.0
 40
11.0
 40
12.0
 40
12.0
 40
12.0
 40
13.0
 40
13.0
 40
13.0
 40
14.0
 40
14.0
 40
14.0
 40
15.0
 40
15.0
 40
15.0
 40
16.0
 40
16.0
 40
16.0
 40
17.0
 40
17.0
 40
17.0
 40
18.0
 40
18.0
 40
18.0
 40
19.0
 40
19.0
 40
19.0
 40
20.0
 40
20.0
 40
20.0
 40
21.0
 40
21.0
 40
21.0
 40
22.0
 40
22.0
 40
22.0
 40
23.0
 40
23.0
 40
23.0
 40
24.0
 40
24.0
 40
24.0
 40
25.0
 40
25.0
 40
25.0
 40
25.0
 10
6.531212020936639
 20
-4.90042439656135
 10
6.531212020936639
 20
-4.886299505071827
 10
6.530936413297821
 20
-4.874758435196239
 10
6.530075139426507
 20
-4.863458522004621
 10
6.530075139426507
 20
-4.863458522004621
 10
6.551779240983581
 20
-4.863458522004621
 10
6.551779240983581
 20
-4.863458522004621
 10
6.551779240983581
 20
-4.863458522004621
 10
6.552916122493715
 20
-4.885472682155366
 10
6.552916122493715
 20
-4.885472682155366
 10
6.552916122493715
 20
-4.885472682155366
 10
6.553777396365027
 20
-4.885472682155366
 10
6.553777396365027
 20
-4.885472682155366
 10
6.561391057387428
 20
-4.872484672175974
 10
6.574069008773148
 20
-4.860357936067896
 10
6.596634384201535
 20
-4.860357936067896
 10
6.615272350776736
 20
-4.860357936067896
 10
6.629362791311407
 20
-4.871657849259515
 10
6.635288355546037
 20
-4.887711994220778
 10
6.635288355546037
 20
-4.887711994220778
 10
6.635839570823677
 20
-4.887711994220778
 10
6.635839570823677
 20
-4.887711994220778
 10
6.640077038270535
 20
-4.880098333198376
 10
6.645451387227526
 20
-4.874172768963748
 10
6.651066892868481
 20
-4.869969752471742
 10
6.659266220123375
 20
-4.863734129643439
 10
6.668292370294731
 20
-4.860357936067896
 10
6.68124592931927
 20
-4.860357936067896
 10
6.69929822966198
 20
-4.860357936067896
 10
6.726101072537223
 20
-4.872209064537154
 10
6.726101072537223
 20
-4.919613578414193
 10
6.726101072537223
 20
-4.919613578414193
 10
6.726101072537223
 20
-4.999987656085072
 10
6.726101072537223
 20
-4.999987656085072
 10
6.726101072537223
 20
-4.999987656085072
 10
6.701847600321064
 20
-4.999987656085072
 10
6.701847600321064
 20
-4.999987656085072
 10
6.701847600321064
 20
-4.999987656085072
 10
6.701847600321064
 20
-4.922714164350917
 10
6.701847600321064
 20
-4.922714164350917
 10
6.701847600321064
 20
-4.896462536753313
 10
6.69227023487207
 20
-4.880683999430869
 10
6.672219779147916
 20
-4.880683999430869
 10
6.658129338613243
 20
-4.880683999430869
 10
6.647139484015298
 20
-4.891122638751176
 10
6.64290201656844
 20
-4.903249374859257
 10
6.641765135058308
 20
-4.9066255684348
 10
6.640938312141847
 20
-4.911138643520478
 10
6.640938312141847
 20
-4.915651718606156
 10
6.640938312141847
 20
-4.915651718606156
 10
6.640938312141847
 20
-4.999987656085072
 10
6.640938312141847
 20
-4.999987656085072
 10
6.640938312141847
 20
-4.999987656085072
 10
6.616650388970836
 20
-4.999987656085072
 10
6.616650388970836
 20
-4.999987656085072
 10
6.616650388970836
 20
-4.999987656085072
 10
6.616650388970836
 20
-4.918201089265241
 10
6.616650388970836
 20
-4.918201089265241
 10
6.616650388970836
 20
-4.896462536753313
 10
6.607073023521842
 20
-4.880683999430869
 10
6.588193900262672
 20
-4.880683999430869
 10
6.572656519624196
 20
-4.880683999430869
 10
6.561391057387428
 20
-4.89308634317777
 10
6.557429197579391
 20
-4.905488686924669
 10
6.55601670843044
 20
-4.909174939093886
 10
6.555465493152799
 20
-4.91337795558589
 10
6.555465493152799
 20
-4.917615423032748
 10
6.555465493152799
 20
-4.917615423032748
 10
6.555465493152799
 20
-4.999987656085072
 10
6.555465493152799
 20
-4.999987656085072
 10
6.555465493152799
 20
-4.999987656085072
 10
6.531212020936639
 20
-4.999987656085072
 10
6.531212020936639
 20
-4.999987656085072
 10
6.531212020936639
 20
-4.999987656085072
 10
6.531212020936639
 20
-4.90042439656135
 10
6.531212020936639
 20
-4.90042439656135
 97
        1
330
A6
 75
     2
 76
     1
 98
        1
 10
0.0
 20
0.0
450
        0
451
        0
460
0.0
461
0.0
452
        0
462
0.0
453
        0
470

  0
ENDBLK
  5
9A
330
97
100
AcDbEntity
  8
0
100
AcDbBlockEnd
  0
BLOCK
  5
AA
330
A8
100
AcDbEntity
  8
0
100
AcDbBlockBegin
  2
Block_4
 70
     0
 10
0.0
 20
0.0
 30
0.0
  3
Block_4
  1

  0
INSERT
  5
AD
330
A8
100
AcDbEntity
  8
Livello 2
100
AcDbBlockReference
  2
Block_5
 10
0.0
 20
0.0
 30
0.0
  0
ENDBLK
  5
AB
330
A8
100
AcDbEntity
  8
0
100
AcDbBlockEnd
  0
BLOCK
  5
AE
330
AC
100
AcDbEntity
  8
0
100
AcDbBlockBegin
  2
Block_5
 70
     0
 10
0.0
 20
0.0
 30
0.0
  3
Block_5
  1

  0
SPLINE
  5
B0
330
AC
100
AcDbEntity
  8
Livello 2
100
AcDbSpline
210
0.0
220
0.0
230
1.0
 70
     9
 71
     3
 72
    17
 73
    13
 74
     0
 42
0.000000001
 43
0.0000000001
 40
0.0
 40
0.0
 40
0.0
 40
0.0
 40
1.0
 40
1.0
 40
1.0
 40
2.0
 40
2.0
 40
2.0
 40
3.0
 40
3.0
 40
3.0
 40
4.0
 40
4.0
 40
4.0
 40
4.0
 10
4.496280245186692
 20
-1.219873860372113
 30
0.0
 10
4.496280245186692
 20
-1.238236219308495
 30
0.0
 10
4.510112303559971
 20
-1.24808919239631
 30
0.0
 10
4.531265189839405
 20
-1.25373914899212
 30
0.0
 10
4.547060952639276
 20
-1.248364800035129
 30
0.0
 10
4.559187688747355
 20
-1.237099337798363
 30
0.0
 10
4.559187688747355
 20
-1.220459526604606
 30
0.0
 10
4.559187688747355
 20
-1.205783419837442
 30
0.0
 10
4.550437146214821
 20
-1.190556097792637
 30
0.0
 10
4.528164603902681
 20
-1.190556097792637
 30
0.0
 10
4.507562932900886
 20
-1.190556097792637
 30
0.0
 10
4.496280245186692
 20
-1.204095323049669
 30
0.0
 10
4.496280245186692
 20
-1.219873860372113
 30
0.0
  0
SPLINE
  5
B1
330
AC
100
AcDbEntity
  8
Livello 2
100
AcDbSpline
210
0.0
220
0.0
230
1.0
 70
     9
 71
     3
 72
    17
 73
    13
 74
     0
 42
0.000000001
 43
0.0000000001
 40
0.0
 40
0.0
 40
0.0
 40
0.0
 40
1.0
 40
1.0
 40
1.0
 40
2.0
 40
2.0
 40
2.0
 40
3.0
 40
3.0
 40
3.0
 40
4.0
 40
4.0
 40
4.0
 40
4.0
 10
4.564544812226919
 20
-1.311547851234613
 30
0.0
 10
4.564544812226919
 20
-1.289258083445045
 30
0.0
 10
4.549041882543293
 20
-1.278543836485918
 30
0.0
 10
4.524202744094643
 20
-1.271515841696009
 30
0.0
 10
4.502774250176388
 20
-1.277717013569459
 30
0.0
 10
4.491215954823376
 20
-1.29180745410413
 30
0.0
 10
4.491215954823376
 20
-1.309308539169199
 30
0.0
 10
4.49037190642949
 20
-1.327912054789549
 30
0.0
 10
4.504462346964161
 20
-1.344276258344485
 30
0.0
 10
4.527871770786433
 20
-1.344276258344485
 30
0.0
 10
4.550161538575999
 20
-1.344276258344485
 30
0.0
 10
4.564544812226919
 20
-1.330461425448633
 30
0.0
 10
4.564544812226919
 20
-1.311547851234613
 30
0.0
  0
SPLINE
  5
B2
330
AC
100
AcDbEntity
  8
Livello 2
100
AcDbSpline
210
0.0
220
0.0
230
1.0
 70
     9
 71
     3
 72
    35
 73
    31
 74
     0
 42
0.000000001
 43
0.0000000001
 40
0.0
 40
0.0
 40
0.0
 40
0.0
 40
1.0
 40
1.0
 40
1.0
 40
2.0
 40
2.0
 40
2.0
 40
3.0
 40
3.0
 40
3.0
 40
4.0
 40
4.0
 40
4.0
 40
5.0
 40
5.0
 40
5.0
 40
6.0
 40
6.0
 40
6.0
 40
7.0
 40
7.0
 40
7.0
 40
8.0
 40
8.0
 40
8.0
 40
9.0
 40
9.0
 40
9.0
 40
10.0
 40
10.0
 40
10.0
 40
10.0
 10
4.465825601097083
 20
-1.312684732744745
 30
0.0
 10
4.465825601097083
 20
-1.289568142038719
 30
0.0
 10
4.479640433992936
 20
-1.273203938483781
 30
0.0
 10
4.502205809421321
 20
-1.263592122079935
 30
0.0
 10
4.502205809421321
 20
-1.263592122079935
 30
0.0
 10
4.501930201782503
 20
-1.262765299163475
 30
0.0
 10
4.501930201782503
 20
-1.262765299163475
 30
0.0
 10
4.481621363896954
 20
-1.253153482759628
 30
0.0
 10
4.47287082136442
 20
-1.237374945437182
 30
0.0
 10
4.47287082136442
 20
-1.221596408114739
 30
0.0
 10
4.47287082136442
 20
-1.19251980221923
 30
0.0
 10
4.497417126696825
 20
-1.172779405088749
 30
0.0
 10
4.529577093051631
 20
-1.172779405088749
 30
0.0
 10
4.565113252981983
 20
-1.172779405088749
 30
0.0
 10
4.582872720208448
 20
-1.195069172878315
 30
0.0
 10
4.582872720208448
 20
-1.217910155945522
 30
0.0
 10
4.582872720208448
 20
-1.233413085629145
 30
0.0
 10
4.575259059186046
 20
-1.250052896822902
 30
0.0
 10
4.552693683757659
 20
-1.260801594736882
 30
0.0
 10
4.552693683757659
 20
-1.260801594736882
 30
0.0
 10
4.552693683757659
 20
-1.261628417653342
 30
0.0
 10
4.552693683757659
 20
-1.261628417653342
 30
0.0
 10
4.575551892302292
 20
-1.270654567824696
 30
0.0
 10
4.589659558314389
 20
-1.286743163740813
 30
0.0
 10
4.589659558314389
 20
-1.309032931530379
 30
0.0
 10
4.589659558314389
 20
-1.34090006476894
 30
0.0
 10
4.562288274684079
 20
-1.362328558687195
 30
0.0
 10
4.527320555508794
 20
-1.362328558687195
 30
0.0
 10
4.488959417280536
 20
-1.362328558687195
 30
0.0
 10
4.465825601097083
 20
-1.339487575619989
 30
0.0
 10
4.465825601097083
 20
-1.312684732744745
 30
0.0
  0
HATCH
  5
B3
330
AC
100
AcDbEntity
  8
Livello 2
 62
   250
420
  1907995
440
 33554687
100
AcDbHatch
 10
0.0
 20
0.0
 30
0.0
210
0.0
220
0.0
230
1.0
  2
SOLID
 70
     1
 71
     1
 91
        3
 92
        1
 93
        1
 72
     4
 94
        3
 73
     0
 74
     0
 95
       17
 96
       13
 40
0.0
 40
0.0
 40
0.0
 40
0.0
 40
1.0
 40
1.0
 40
1.0
 40
2.0
 40
2.0
 40
2.0
 40
3.0
 40
3.0
 40
3.0
 40
4.0
 40
4.0
 40
4.0
 40
4.0
 10
4.496280245186692
 20
-1.219873860372113
 10
4.496280245186692
 20
-1.238236219308495
 10
4.510112303559971
 20
-1.24808919239631
 10
4.531265189839405
 20
-1.25373914899212
 10
4.547060952639276
 20
-1.248364800035129
 10
4.559187688747355
 20
-1.237099337798363
 10
4.559187688747355
 20
-1.220459526604606
 10
4.559187688747355
 20
-1.205783419837442
 10
4.550437146214821
 20
-1.190556097792637
 10
4.528164603902681
 20
-1.190556097792637
 10
4.507562932900886
 20
-1.190556097792637
 10
4.496280245186692
 20
-1.204095323049669
 10
4.496280245186692
 20
-1.219873860372113
 97
        1
330
B0
 92
        1
 93
        1
 72
     4
 94
        3
 73
     0
 74
     0
 95
       17
 96
       13
 40
0.0
 40
0.0
 40
0.0
 40
0.0
 40
1.0
 40
1.0
 40
1.0
 40
2.0
 40
2.0
 40
2.0
 40
3.0
 40
3.0
 40
3.0
 40
4.0
 40
4.0
 40
4.0
 40
4.0
 10
4.564544812226919
 20
-1.311547851234613
 10
4.564544812226919
 20
-1.289258083445045
 10
4.549041882543293
 20
-1.278543836485918
 10
4.524202744094643
 20
-1.271515841696009
 10
4.502774250176388
 20
-1.277717013569459
 10
4.491215954823376
 20
-1.29180745410413
 10
4.491215954823376
 20
-1.309308539169199
 10
4.49037190642949
 20
-1.327912054789549
 10
4.504462346964161
 20
-1.344276258344485
 10
4.527871770786433
 20
-1.344276258344485
 10
4.550161538575999
 20
-1.344276258344485
 10
4.564544812226919
 20
-1.330461425448633
 10
4.564544812226919
 20
-1.311547851234613
 97
        1
330
B1
 92
        1
 93
        1
 72
     4
 94
        3
 73
     0
 74
     0
 95
       35
 96
       31
 40
0.0
 40
0.0
 40
0.0
 40
0.0
 40
1.0
 40
1.0
 40
1.0
 40
2.0
 40
2.0
 40
2.0
 40
3.0
 40
3.0
 40
3.0
 40
4.0
 40
4.0
 40
4.0
 40
5.0
 40
5.0
 40
5.0
 40
6.0
 40
6.0
 40
6.0
 40
7.0
 40
7.0
 40
7.0
 40
8.0
 40
8.0
 40
8.0
 40
9.0
 40
9.0
 40
9.0
 40
10.0
 40
10.0
 40
10.0
 40
10.0
 10
4.465825601097083
 20
-1.312684732744745
 10
4.465825601097083
 20
-1.289568142038719
 10
4.479640433992936
 20
-1.273203938483781
 10
4.502205809421321
 20
-1.263592122079935
 10
4.502205809421321
 20
-1.263592122079935
 10
4.501930201782503
 20
-1.262765299163475
 10
4.501930201782503
 20
-1.262765299163475
 10
4.481621363896954
 20
-1.253153482759628
 10
4.47287082136442
 20
-1.237374945437182
 10
4.47287082136442
 20
-1.221596408114739
 10
4.47287082136442
 20
-1.19251980221923
 10
4.497417126696825
 20
-1.172779405088749
 10
4.529577093051631
 20
-1.172779405088749
 10
4.565113252981983
 20
-1.172779405088749
 10
4.582872720208448
 20
-1.195069172878315
 10
4.582872720208448
 20
-1.217910155945522
 10
4.582872720208448
 20
-1.233413085629145
 10
4.575259059186046
 20
-1.250052896822902
 10
4.552693683757659
 20
-1.260801594736882
 10
4.552693683757659
 20
-1.260801594736882
 10
4.552693683757659
 20
-1.261628417653342
 10
4.552693683757659
 20
-1.261628417653342
 10
4.575551892302292
 20
-1.270654567824696
 10
4.589659558314389
 20
-1.286743163740813
 10
4.589659558314389
 20
-1.309032931530379
 10
4.589659558314389
 20
-1.34090006476894
 10
4.562288274684079
 20
-1.362328558687195
 10
4.527320555508794
 20
-1.362328558687195
 10
4.488959417280536
 20
-1.362328558687195
 10
4.465825601097083
 20
-1.339487575619989
 10
4.465825601097083
 20
-1.312684732744745
 97
        1
330
B2
 75
     2
 76
     1
 98
        1
 10
0.0
 20
0.0
450
        0
451
        0
460
0.0
461
0.0
452
        0
462
0.0
453
        0
470

  0
SPLINE
  5
B4
330
AC
100
AcDbEntity
  8
Livello 2
100
AcDbSpline
210
0.0
220
0.0
230
1.0
 70
     9
 71
     3
 72
    17
 73
    13
 74
     0
 42
0.000000001
 43
0.0000000001
 40
0.0
 40
0.0
 40
0.0
 40
0.0
 40
1.0
 40
1.0
 40
1.0
 40
2.0
 40
2.0
 40
2.0
 40
3.0
 40
3.0
 40
3.0
 40
4.0
 40
4.0
 40
4.0
 40
4.0
 10
4.635134818719688
 20
-1.268415255759284
 30
0.0
 10
4.635134818719688
 20
-1.31606092632029
 30
0.0
 10
4.649810925486851
 20
-1.343139376834354
 30
0.0
 10
4.672376300915238
 20
-1.343139376834354
 30
0.0
 10
4.697766654641528
 20
-1.343139376834354
 30
0.0
 10
4.709893390749607
 20
-1.313546006616057
 30
0.0
 10
4.709893390749607
 20
-1.266727158971512
 30
0.0
 10
4.709893390749607
 20
-1.221596408114739
 30
0.0
 10
4.698317869919168
 20
-1.19196858694159
 30
0.0
 10
4.672651908554058
 20
-1.19196858694159
 30
0.0
 10
4.650947806996985
 20
-1.19196858694159
 30
0.0
 10
4.635134818719688
 20
-1.218461371223162
 30
0.0
 10
4.635134818719688
 20
-1.268415255759284
 30
0.0
  0
SPLINE
  5
B5
330
AC
100
AcDbEntity
  8
Livello 2
100
AcDbSpline
210
0.0
220
0.0
230
1.0
 70
     9
 71
     3
 72
    17
 73
    13
 74
     0
 42
0.000000001
 43
0.0000000001
 40
0.0
 40
0.0
 40
0.0
 40
0.0
 40
1.0
 40
1.0
 40
1.0
 40
2.0
 40
2.0
 40
2.0
 40
3.0
 40
3.0
 40
3.0
 40
4.0
 40
4.0
 40
4.0
 40
4.0
 10
4.734715303720833
 20
-1.265590277461379
 30
0.0
 10
4.734715303720833
 20
-1.327912054789549
 30
0.0
 10
4.71158148753738
 20
-1.362328558687195
 30
0.0
 10
4.670963811766285
 20
-1.362328558687195
 30
0.0
 10
4.635134818719688
 20
-1.362328558687195
 30
0.0
 10
4.610881346503528
 20
-1.328773328660862
 30
0.0
 10
4.610330131225889
 20
-1.268105197165612
 30
0.0
 10
4.610330131225889
 20
-1.206644693708754
 30
0.0
 10
4.636840140984887
 20
-1.172779405088749
 30
0.0
 10
4.674064397703011
 20
-1.172779405088749
 30
0.0
 10
4.712718369047513
 20
-1.172779405088749
 30
0.0
 10
4.734715303720833
 20
-1.207195908986395
 30
0.0
 10
4.734715303720833
 20
-1.265590277461379
 30
0.0
  0
HATCH
  5
B6
330
AC
100
AcDbEntity
  8
Livello 2
 62
   250
420
  1907995
440
 33554687
100
AcDbHatch
 10
0.0
 20
0.0
 30
0.0
210
0.0
220
0.0
230
1.0
  2
SOLID
 70
     1
 71
     1
 91
        2
 92
        1
 93
        1
 72
     4
 94
        3
 73
     0
 74
     0
 95
       17
 96
       13
 40
0.0
 40
0.0
 40
0.0
 40
0.0
 40
1.0
 40
1.0
 40
1.0
 40
2.0
 40
2.0
 40
2.0
 40
3.0
 40
3.0
 40
3.0
 40
4.0
 40
4.0
 40
4.0
 40
4.0
 10
4.635134818719688
 20
-1.268415255759284
 10
4.635134818719688
 20
-1.31606092632029
 10
4.649810925486851
 20
-1.343139376834354
 10
4.672376300915238
 20
-1.343139376834354
 10
4.697766654641528
 20
-1.343139376834354
 10
4.709893390749607
 20
-1.313546006616057
 10
4.709893390749607
 20
-1.266727158971512
 10
4.709893390749607
 20
-1.221596408114739
 10
4.698317869919168
 20
-1.19196858694159
 10
4.672651908554058
 20
-1.19196858694159
 10
4.650947806996985
 20
-1.19196858694159
 10
4.635134818719688
 20
-1.218461371223162
 10
4.635134818719688
 20
-1.268415255759284
 97
        1
330
B4
 92
        1
 93
        1
 72
     4
 94
        3
 73
     0
 74
     0
 95
       17
 96
       13
 40
0.0
 40
0.0
 40
0.0
 40
0.0
 40
1.0
 40
1.0
 40
1.0
 40
2.0
 40
2.0
 40
2.0
 40
3.0
 40
3.0
 40
3.0
 40
4.0
 40
4.0
 40
4.0
 40
4.0
 10
4.734715303720833
 20
-1.265590277461379
 10
4.734715303720833
 20
-1.327912054789549
 10
4.71158148753738
 20
-1.362328558687195
 10
4.670963811766285
 20
-1.362328558687195
 10
4.635134818719688
 20
-1.362328558687195
 10
4.610881346503528
 20
-1.328773328660862
 10
4.610330131225889
 20
-1.268105197165612
 10
4.610330131225889
 20
-1.206644693708754
 10
4.636840140984887
 20
-1.172779405088749
 10
4.674064397703011
 20
-1.172779405088749
 10
4.712718369047513
 20
-1.172779405088749
 10
4.734715303720833
 20
-1.207195908986395
 10
4.734715303720833
 20
-1.265590277461379
 97
        1
330
B5
 75
     2
 76
     1
 98
        1
 10
0.0
 20
0.0
450
        0
451
        0
460
0.0
461
0.0
452
        0
462
0.0
453
        0
470

  0
SPLINE
  5
B7
330
AC
100
AcDbEntity
  8
Livello 2
100
AcDbSpline
210
0.0
220
0.0
230
1.0
 70
     9
 71
     3
 72
    80
 73
    76
 74
     0
 42
0.000000001
 43
0.0000000001
 40
0.0
 40
0.0
 40
0.0
 40
0.0
 40
1.0
 40
1.0
 40
1.0
 40
2.0
 40
2.0
 40
2.0
 40
3.0
 40
3.0
 40
3.0
 40
4.0
 40
4.0
 40
4.0
 40
5.0
 40
5.0
 40
5.0
 40
6.0
 40
6.0
 40
6.0
 40
7.0
 40
7.0
 40
7.0
 40
8.0
 40
8.0
 40
8.0
 40
9.0
 40
9.0
 40
9.0
 40
10.0
 40
10.0
 40
10.0
 40
11.0
 40
11.0
 40
11.0
 40
12.0
 40
12.0
 40
12.0
 40
13.0
 40
13.0
 40
13.0
 40
14.0
 40
14.0
 40
14.0
 40
15.0
 40
15.0
 40
15.0
 40
16.0
 40
16.0
 40
16.0
 40
17.0
 40
17.0
 40
17.0
 40
18.0
 40
18.0
 40
18.0
 40
19.0
 40
19.0
 40
19.0
 40
20.0
 40
20.0
 40
20.0
 40
21.0
 40
21.0
 40
21.0
 40
22.0
 40
22.0
 40
22.0
 40
23.0
 40
23.0
 40
23.0
 40
24.0
 40
24.0
 40
24.0
 40
25.0
 40
25.0
 40
25.0
 40
25.0
 10
4.825372991415183
 20
-1.259664713226749
 30
0.0
 10
4.825372991415183
 20
-1.245539821737225
 30
0.0
 10
4.825062932821511
 20
-1.233998751861639
 30
0.0
 10
4.824236109905051
 20
-1.222698838670019
 30
0.0
 10
4.824236109905051
 20
-1.222698838670019
 30
0.0
 10
4.845940211462124
 20
-1.222698838670019
 30
0.0
 10
4.845940211462124
 20
-1.222698838670019
 30
0.0
 10
4.845940211462124
 20
-1.222698838670019
 30
0.0
 10
4.847077092972256
 20
-1.244712998820765
 30
0.0
 10
4.847077092972256
 20
-1.244712998820765
 30
0.0
 10
4.847077092972256
 20
-1.244712998820765
 30
0.0
 10
4.84793836684357
 20
-1.244712998820765
 30
0.0
 10
4.84793836684357
 20
-1.244712998820765
 30
0.0
 10
4.855552027865972
 20
-1.231724988841374
 30
0.0
 10
4.868229979251691
 20
-1.219598252733294
 30
0.0
 10
4.890795354680077
 20
-1.219598252733294
 30
0.0
 10
4.90943332125528
 20
-1.219598252733294
 30
0.0
 10
4.923523761789952
 20
-1.230898165924914
 30
0.0
 10
4.929449326024581
 20
-1.246952310886177
 30
0.0
 10
4.929449326024581
 20
-1.246952310886177
 30
0.0
 10
4.930000541302221
 20
-1.246952310886177
 30
0.0
 10
4.930000541302221
 20
-1.246952310886177
 30
0.0
 10
4.934238008749079
 20
-1.239338649863775
 30
0.0
 10
4.939612357706067
 20
-1.233413085629145
 30
0.0
 10
4.945227863347025
 20
-1.22921006913714
 30
0.0
 10
4.953427190601919
 20
-1.222974446308839
 30
0.0
 10
4.962453340773275
 20
-1.219598252733294
 30
0.0
 10
4.975406899797813
 20
-1.219598252733294
 30
0.0
 10
4.993459200140523
 20
-1.219598252733294
 30
0.0
 10
5.020262043015766
 20
-1.231449381202553
 30
0.0
 10
5.020262043015766
 20
-1.278853895079592
 30
0.0
 10
5.020262043015766
 20
-1.278853895079592
 30
0.0
 10
5.020262043015766
 20
-1.35922797275047
 30
0.0
 10
5.020262043015766
 20
-1.35922797275047
 30
0.0
 10
5.020262043015766
 20
-1.35922797275047
 30
0.0
 10
4.996008570799608
 20
-1.35922797275047
 30
0.0
 10
4.996008570799608
 20
-1.35922797275047
 30
0.0
 10
4.996008570799608
 20
-1.35922797275047
 30
0.0
 10
4.996008570799608
 20
-1.281954481016315
 30
0.0
 10
4.996008570799608
 20
-1.281954481016315
 30
0.0
 10
4.996008570799608
 20
-1.255702853418712
 30
0.0
 10
4.986431205350612
 20
-1.239924316096268
 30
0.0
 10
4.966380749626458
 20
-1.239924316096268
 30
0.0
 10
4.952290309091788
 20
-1.239924316096268
 30
0.0
 10
4.941300454493839
 20
-1.250362955416574
 30
0.0
 10
4.937062987046982
 20
-1.262489691524655
 30
0.0
 10
4.935926105536851
 20
-1.265865885100199
 30
0.0
 10
4.935099282620392
 20
-1.270378960185877
 30
0.0
 10
4.935099282620392
 20
-1.274892035271554
 30
0.0
 10
4.935099282620392
 20
-1.274892035271554
 30
0.0
 10
4.935099282620392
 20
-1.35922797275047
 30
0.0
 10
4.935099282620392
 20
-1.35922797275047
 30
0.0
 10
4.935099282620392
 20
-1.35922797275047
 30
0.0
 10
4.910845810404231
 20
-1.35922797275047
 30
0.0
 10
4.910845810404231
 20
-1.35922797275047
 30
0.0
 10
4.910845810404231
 20
-1.35922797275047
 30
0.0
 10
4.910845810404231
 20
-1.277441405930639
 30
0.0
 10
4.910845810404231
 20
-1.277441405930639
 30
0.0
 10
4.910845810404231
 20
-1.255702853418712
 30
0.0
 10
4.901233994000384
 20
-1.239924316096268
 30
0.0
 10
4.882354870741216
 20
-1.239924316096268
 30
0.0
 10
4.866817490102738
 20
-1.239924316096268
 30
0.0
 10
4.855552027865972
 20
-1.252326659843167
 30
0.0
 10
4.851590168057934
 20
-1.264729003590067
 30
0.0
 10
4.850177678908981
 20
-1.268415255759284
 30
0.0
 10
4.849626463631341
 20
-1.272618272251289
 30
0.0
 10
4.849626463631341
 20
-1.276855739698147
 30
0.0
 10
4.849626463631341
 20
-1.276855739698147
 30
0.0
 10
4.849626463631341
 20
-1.35922797275047
 30
0.0
 10
4.849626463631341
 20
-1.35922797275047
 30
0.0
 10
4.849626463631341
 20
-1.35922797275047
 30
0.0
 10
4.825372991415183
 20
-1.35922797275047
 30
0.0
 10
4.825372991415183
 20
-1.35922797275047
 30
0.0
 10
4.825372991415183
 20
-1.35922797275047
 30
0.0
 10
4.825372991415183
 20
-1.259664713226749
 30
0.0
 10
4.825372991415183
 20
-1.259664713226749
 30
0.0
  0
HATCH
  5
B8
330
AC
100
AcDbEntity
  8
Livello 2
 62
   250
420
  1907995
440
 33554687
100
AcDbHatch
 10
0.0
 20
0.0
 30
0.0
210
0.0
220
0.0
230
1.0
  2
SOLID
 70
     1
 71
     1
 91
        1
 92
        1
 93
        1
 72
     4
 94
        3
 73
     0
 74
     0
 95
       80
 96
       76
 40
0.0
 40
0.0
 40
0.0
 40
0.0
 40
1.0
 40
1.0
 40
1.0
 40
2.0
 40
2.0
 40
2.0
 40
3.0
 40
3.0
 40
3.0
 40
4.0
 40
4.0
 40
4.0
 40
5.0
 40
5.0
 40
5.0
 40
6.0
 40
6.0
 40
6.0
 40
7.0
 40
7.0
 40
7.0
 40
8.0
 40
8.0
 40
8.0
 40
9.0
 40
9.0
 40
9.0
 40
10.0
 40
10.0
 40
10.0
 40
11.0
 40
11.0
 40
11.0
 40
12.0
 40
12.0
 40
12.0
 40
13.0
 40
13.0
 40
13.0
 40
14.0
 40
14.0
 40
14.0
 40
15.0
 40
15.0
 40
15.0
 40
16.0
 40
16.0
 40
16.0
 40
17.0
 40
17.0
 40
17.0
 40
18.0
 40
18.0
 40
18.0
 40
19.0
 40
19.0
 40
19.0
 40
20.0
 40
20.0
 40
20.0
 40
21.0
 40
21.0
 40
21.0
 40
22.0
 40
22.0
 40
22.0
 40
23.0
 40
23.0
 40
23.0
 40
24.0
 40
24.0
 40
24.0
 40
25.0
 40
25.0
 40
25.0
 40
25.0
 10
4.825372991415183
 20
-1.259664713226749
 10
4.825372991415183
 20
-1.245539821737225
 10
4.825062932821511
 20
-1.233998751861639
 10
4.824236109905051
 20
-1.222698838670019
 10
4.824236109905051
 20
-1.222698838670019
 10
4.845940211462124
 20
-1.222698838670019
 10
4.845940211462124
 20
-1.222698838670019
 10
4.845940211462124
 20
-1.222698838670019
 10
4.847077092972256
 20
-1.244712998820765
 10
4.847077092972256
 20
-1.244712998820765
 10
4.847077092972256
 20
-1.244712998820765
 10
4.84793836684357
 20
-1.244712998820765
 10
4.84793836684357
 20
-1.244712998820765
 10
4.855552027865972
 20
-1.231724988841374
 10
4.868229979251691
 20
-1.219598252733294
 10
4.890795354680077
 20
-1.219598252733294
 10
4.90943332125528
 20
-1.219598252733294
 10
4.923523761789952
 20
-1.230898165924914
 10
4.929449326024581
 20
-1.246952310886177
 10
4.929449326024581
 20
-1.246952310886177
 10
4.930000541302221
 20
-1.246952310886177
 10
4.930000541302221
 20
-1.246952310886177
 10
4.934238008749079
 20
-1.239338649863775
 10
4.939612357706067
 20
-1.233413085629145
 10
4.945227863347025
 20
-1.22921006913714
 10
4.953427190601919
 20
-1.222974446308839
 10
4.962453340773275
 20
-1.219598252733294
 10
4.975406899797813
 20
-1.219598252733294
 10
4.993459200140523
 20
-1.219598252733294
 10
5.020262043015766
 20
-1.231449381202553
 10
5.020262043015766
 20
-1.278853895079592
 10
5.020262043015766
 20
-1.278853895079592
 10
5.020262043015766
 20
-1.35922797275047
 10
5.020262043015766
 20
-1.35922797275047
 10
5.020262043015766
 20
-1.35922797275047
 10
4.996008570799608
 20
-1.35922797275047
 10
4.996008570799608
 20
-1.35922797275047
 10
4.996008570799608
 20
-1.35922797275047
 10
4.996008570799608
 20
-1.281954481016315
 10
4.996008570799608
 20
-1.281954481016315
 10
4.996008570799608
 20
-1.255702853418712
 10
4.986431205350612
 20
-1.239924316096268
 10
4.966380749626458
 20
-1.239924316096268
 10
4.952290309091788
 20
-1.239924316096268
 10
4.941300454493839
 20
-1.250362955416574
 10
4.937062987046982
 20
-1.262489691524655
 10
4.935926105536851
 20
-1.265865885100199
 10
4.935099282620392
 20
-1.270378960185877
 10
4.935099282620392
 20
-1.274892035271554
 10
4.935099282620392
 20
-1.274892035271554
 10
4.935099282620392
 20
-1.35922797275047
 10
4.935099282620392
 20
-1.35922797275047
 10
4.935099282620392
 20
-1.35922797275047
 10
4.910845810404231
 20
-1.35922797275047
 10
4.910845810404231
 20
-1.35922797275047
 10
4.910845810404231
 20
-1.35922797275047
 10
4.910845810404231
 20
-1.277441405930639
 10
4.910845810404231
 20
-1.277441405930639
 10
4.910845810404231
 20
-1.255702853418712
 10
4.901233994000384
 20
-1.239924316096268
 10
4.882354870741216
 20
-1.239924316096268
 10
4.866817490102738
 20
-1.239924316096268
 10
4.855552027865972
 20
-1.252326659843167
 10
4.851590168057934
 20
-1.264729003590067
 10
4.850177678908981
 20
-1.268415255759284
 10
4.849626463631341
 20
-1.272618272251289
 10
4.849626463631341
 20
-1.276855739698147
 10
4.849626463631341
 20
-1.276855739698147
 10
4.849626463631341
 20
-1.35922797275047
 10
4.849626463631341
 20
-1.35922797275047
 10
4.849626463631341
 20
-1.35922797275047
 10
4.825372991415183
 20
-1.35922797275047
 10
4.825372991415183
 20
-1.35922797275047
 10
4.825372991415183
 20
-1.35922797275047
 10
4.825372991415183
 20
-1.259664713226749
 10
4.825372991415183
 20
-1.259664713226749
 97
        1
330
B7
 75
     2
 76
     1
 98
        1
 10
0.0
 20
0.0
450
        0
451
        0
460
0.0
461
0.0
452
        0
462
0.0
453
        0
470

  0
SPLINE
  5
B9
330
AC
100
AcDbEntity
  8
Livello 2
100
AcDbSpline
210
0.0
220
0.0
230
1.0
 70
     9
 71
     3
 72
    80
 73
    76
 74
     0
 42
0.000000001
 43
0.0000000001
 40
0.0
 40
0.0
 40
0.0
 40
0.0
 40
1.0
 40
1.0
 40
1.0
 40
2.0
 40
2.0
 40
2.0
 40
3.0
 40
3.0
 40
3.0
 40
4.0
 40
4.0
 40
4.0
 40
5.0
 40
5.0
 40
5.0
 40
6.0
 40
6.0
 40
6.0
 40
7.0
 40
7.0
 40
7.0
 40
8.0
 40
8.0
 40
8.0
 40
9.0
 40
9.0
 40
9.0
 40
10.0
 40
10.0
 40
10.0
 40
11.0
 40
11.0
 40
11.0
 40
12.0
 40
12.0
 40
12.0
 40
13.0
 40
13.0
 40
13.0
 40
14.0
 40
14.0
 40
14.0
 40
15.0
 40
15.0
 40
15.0
 40
16.0
 40
16.0
 40
16.0
 40
17.0
 40
17.0
 40
17.0
 40
18.0
 40
18.0
 40
18.0
 40
19.0
 40
19.0
 40
19.0
 40
20.0
 40
20.0
 40
20.0
 40
21.0
 40
21.0
 40
21.0
 40
22.0
 40
22.0
 40
22.0
 40
23.0
 40
23.0
 40
23.0
 40
24.0
 40
24.0
 40
24.0
 40
25.0
 40
25.0
 40
25.0
 40
25.0
 10
5.060741914967453
 20
-1.259664713226749
 30
0.0
 10
5.060741914967453
 20
-1.245539821737225
 30
0.0
 10
5.06043185637378
 20
-1.233998751861639
 30
0.0
 10
5.059605033457319
 20
-1.222698838670019
 30
0.0
 10
5.059605033457319
 20
-1.222698838670019
 30
0.0
 10
5.081309135014393
 20
-1.222698838670019
 30
0.0
 10
5.081309135014393
 20
-1.222698838670019
 30
0.0
 10
5.081309135014393
 20
-1.222698838670019
 30
0.0
 10
5.082446016524526
 20
-1.244712998820765
 30
0.0
 10
5.082446016524526
 20
-1.244712998820765
 30
0.0
 10
5.082446016524526
 20
-1.244712998820765
 30
0.0
 10
5.083307290395838
 20
-1.244712998820765
 30
0.0
 10
5.083307290395838
 20
-1.244712998820765
 30
0.0
 10
5.090920951418241
 20
-1.231724988841374
 30
0.0
 10
5.103598902803961
 20
-1.219598252733294
 30
0.0
 10
5.126164278232346
 20
-1.219598252733294
 30
0.0
 10
5.144802244807547
 20
-1.219598252733294
 30
0.0
 10
5.158892685342221
 20
-1.230898165924914
 30
0.0
 10
5.164818249576849
 20
-1.246952310886177
 30
0.0
 10
5.164818249576849
 20
-1.246952310886177
 30
0.0
 10
5.16536946485449
 20
-1.246952310886177
 30
0.0
 10
5.16536946485449
 20
-1.246952310886177
 30
0.0
 10
5.169606932301348
 20
-1.239338649863775
 30
0.0
 10
5.174981281258337
 20
-1.233413085629145
 30
0.0
 10
5.180596786899293
 20
-1.22921006913714
 30
0.0
 10
5.188796114154188
 20
-1.222974446308839
 30
0.0
 10
5.197822264325544
 20
-1.219598252733294
 30
0.0
 10
5.210775823350083
 20
-1.219598252733294
 30
0.0
 10
5.228828123692792
 20
-1.219598252733294
 30
0.0
 10
5.255630966568036
 20
-1.231449381202553
 30
0.0
 10
5.255630966568036
 20
-1.278853895079592
 30
0.0
 10
5.255630966568036
 20
-1.278853895079592
 30
0.0
 10
5.255630966568036
 20
-1.35922797275047
 30
0.0
 10
5.255630966568036
 20
-1.35922797275047
 30
0.0
 10
5.255630966568036
 20
-1.35922797275047
 30
0.0
 10
5.231377494351876
 20
-1.35922797275047
 30
0.0
 10
5.231377494351876
 20
-1.35922797275047
 30
0.0
 10
5.231377494351876
 20
-1.35922797275047
 30
0.0
 10
5.231377494351876
 20
-1.281954481016315
 30
0.0
 10
5.231377494351876
 20
-1.281954481016315
 30
0.0
 10
5.231377494351876
 20
-1.255702853418712
 30
0.0
 10
5.221800128902883
 20
-1.239924316096268
 30
0.0
 10
5.201749673178728
 20
-1.239924316096268
 30
0.0
 10
5.187659232644056
 20
-1.239924316096268
 30
0.0
 10
5.17666937804611
 20
-1.250362955416574
 30
0.0
 10
5.172431910599251
 20
-1.262489691524655
 30
0.0
 10
5.17129502908912
 20
-1.265865885100199
 30
0.0
 10
5.170468206172659
 20
-1.270378960185877
 30
0.0
 10
5.170468206172659
 20
-1.274892035271554
 30
0.0
 10
5.170468206172659
 20
-1.274892035271554
 30
0.0
 10
5.170468206172659
 20
-1.35922797275047
 30
0.0
 10
5.170468206172659
 20
-1.35922797275047
 30
0.0
 10
5.170468206172659
 20
-1.35922797275047
 30
0.0
 10
5.1462147339565
 20
-1.35922797275047
 30
0.0
 10
5.1462147339565
 20
-1.35922797275047
 30
0.0
 10
5.1462147339565
 20
-1.35922797275047
 30
0.0
 10
5.1462147339565
 20
-1.277441405930639
 30
0.0
 10
5.1462147339565
 20
-1.277441405930639
 30
0.0
 10
5.1462147339565
 20
-1.255702853418712
 30
0.0
 10
5.136602917552653
 20
-1.239924316096268
 30
0.0
 10
5.117723794293485
 20
-1.239924316096268
 30
0.0
 10
5.102186413655007
 20
-1.239924316096268
 30
0.0
 10
5.090920951418241
 20
-1.252326659843167
 30
0.0
 10
5.086959091610204
 20
-1.264729003590067
 30
0.0
 10
5.085546602461251
 20
-1.268415255759284
 30
0.0
 10
5.084995387183611
 20
-1.272618272251289
 30
0.0
 10
5.084995387183611
 20
-1.276855739698147
 30
0.0
 10
5.084995387183611
 20
-1.276855739698147
 30
0.0
 10
5.084995387183611
 20
-1.35922797275047
 30
0.0
 10
5.084995387183611
 20
-1.35922797275047
 30
0.0
 10
5.084995387183611
 20
-1.35922797275047
 30
0.0
 10
5.060741914967453
 20
-1.35922797275047
 30
0.0
 10
5.060741914967453
 20
-1.35922797275047
 30
0.0
 10
5.060741914967453
 20
-1.35922797275047
 30
0.0
 10
5.060741914967453
 20
-1.259664713226749
 30
0.0
 10
5.060741914967453
 20
-1.259664713226749
 30
0.0
  0
HATCH
  5
BA
330
AC
100
AcDbEntity
  8
Livello 2
 62
   250
420
  1907995
440
 33554687
100
AcDbHatch
 10
0.0
 20
0.0
 30
0.0
210
0.0
220
0.0
230
1.0
  2
SOLID
 70
     1
 71
     1
 91
        1
 92
        1
 93
        1
 72
     4
 94
        3
 73
     0
 74
     0
 95
       80
 96
       76
 40
0.0
 40
0.0
 40
0.0
 40
0.0
 40
1.0
 40
1.0
 40
1.0
 40
2.0
 40
2.0
 40
2.0
 40
3.0
 40
3.0
 40
3.0
 40
4.0
 40
4.0
 40
4.0
 40
5.0
 40
5.0
 40
5.0
 40
6.0
 40
6.0
 40
6.0
 40
7.0
 40
7.0
 40
7.0
 40
8.0
 40
8.0
 40
8.0
 40
9.0
 40
9.0
 40
9.0
 40
10.0
 40
10.0
 40
10.0
 40
11.0
 40
11.0
 40
11.0
 40
12.0
 40
12.0
 40
12.0
 40
13.0
 40
13.0
 40
13.0
 40
14.0
 40
14.0
 40
14.0
 40
15.0
 40
15.0
 40
15.0
 40
16.0
 40
16.0
 40
16.0
 40
17.0
 40
17.0
 40
17.0
 40
18.0
 40
18.0
 40
18.0
 40
19.0
 40
19.0
 40
19.0
 40
20.0
 40
20.0
 40
20.0
 40
21.0
 40
21.0
 40
21.0
 40
22.0
 40
22.0
 40
22.0
 40
23.0
 40
23.0
 40
23.0
 40
24.0
 40
24.0
 40
24.0
 40
25.0
 40
25.0
 40
25.0
 40
25.0
 10
5.060741914967453
 20
-1.259664713226749
 10
5.060741914967453
 20
-1.245539821737225
 10
5.06043185637378
 20
-1.233998751861639
 10
5.059605033457319
 20
-1.222698838670019
 10
5.059605033457319
 20
-1.222698838670019
 10
5.081309135014393
 20
-1.222698838670019
 10
5.081309135014393
 20
-1.222698838670019
 10
5.081309135014393
 20
-1.222698838670019
 10
5.082446016524526
 20
-1.244712998820765
 10
5.082446016524526
 20
-1.244712998820765
 10
5.082446016524526
 20
-1.244712998820765
 10
5.083307290395838
 20
-1.244712998820765
 10
5.083307290395838
 20
-1.244712998820765
 10
5.090920951418241
 20
-1.231724988841374
 10
5.103598902803961
 20
-1.219598252733294
 10
5.126164278232346
 20
-1.219598252733294
 10
5.144802244807547
 20
-1.219598252733294
 10
5.158892685342221
 20
-1.230898165924914
 10
5.164818249576849
 20
-1.246952310886177
 10
5.164818249576849
 20
-1.246952310886177
 10
5.16536946485449
 20
-1.246952310886177
 10
5.16536946485449
 20
-1.246952310886177
 10
5.169606932301348
 20
-1.239338649863775
 10
5.174981281258337
 20
-1.233413085629145
 10
5.180596786899293
 20
-1.22921006913714
 10
5.188796114154188
 20
-1.222974446308839
 10
5.197822264325544
 20
-1.219598252733294
 10
5.210775823350083
 20
-1.219598252733294
 10
5.228828123692792
 20
-1.219598252733294
 10
5.255630966568036
 20
-1.231449381202553
 10
5.255630966568036
 20
-1.278853895079592
 10
5.255630966568036
 20
-1.278853895079592
 10
5.255630966568036
 20
-1.35922797275047
 10
5.255630966568036
 20
-1.35922797275047
 10
5.255630966568036
 20
-1.35922797275047
 10
5.231377494351876
 20
-1.35922797275047
 10
5.231377494351876
 20
-1.35922797275047
 10
5.231377494351876
 20
-1.35922797275047
 10
5.231377494351876
 20
-1.281954481016315
 10
5.231377494351876
 20
-1.281954481016315
 10
5.231377494351876
 20
-1.255702853418712
 10
5.221800128902883
 20
-1.239924316096268
 10
5.201749673178728
 20
-1.239924316096268
 10
5.187659232644056
 20
-1.239924316096268
 10
5.17666937804611
 20
-1.250362955416574
 10
5.172431910599251
 20
-1.262489691524655
 10
5.17129502908912
 20
-1.265865885100199
 10
5.170468206172659
 20
-1.270378960185877
 10
5.170468206172659
 20
-1.274892035271554
 10
5.170468206172659
 20
-1.274892035271554
 10
5.170468206172659
 20
-1.35922797275047
 10
5.170468206172659
 20
-1.35922797275047
 10
5.170468206172659
 20
-1.35922797275047
 10
5.1462147339565
 20
-1.35922797275047
 10
5.1462147339565
 20
-1.35922797275047
 10
5.1462147339565
 20
-1.35922797275047
 10
5.1462147339565
 20
-1.277441405930639
 10
5.1462147339565
 20
-1.277441405930639
 10
5.1462147339565
 20
-1.255702853418712
 10
5.136602917552653
 20
-1.239924316096268
 10
5.117723794293485
 20
-1.239924316096268
 10
5.102186413655007
 20
-1.239924316096268
 10
5.090920951418241
 20
-1.252326659843167
 10
5.086959091610204
 20
-1.264729003590067
 10
5.085546602461251
 20
-1.268415255759284
 10
5.084995387183611
 20
-1.272618272251289
 10
5.084995387183611
 20
-1.276855739698147
 10
5.084995387183611
 20
-1.276855739698147
 10
5.084995387183611
 20
-1.35922797275047
 10
5.084995387183611
 20
-1.35922797275047
 10
5.084995387183611
 20
-1.35922797275047
 10
5.060741914967453
 20
-1.35922797275047
 10
5.060741914967453
 20
-1.35922797275047
 10
5.060741914967453
 20
-1.35922797275047
 10
5.060741914967453
 20
-1.259664713226749
 10
5.060741914967453
 20
-1.259664713226749
 97
        1
330
B9
 75
     2
 76
     1
 98
        1
 10
0.0
 20
0.0
450
        0
451
        0
460
0.0
461
0.0
452
        0
462
0.0
453
        0
470

  0
ENDBLK
  5
AF
330
AC
100
AcDbEntity
  8
0
100
AcDbBlockEnd
  0
BLOCK
  5
C1
330
BF
100
AcDbEntity
  8
0
100
AcDbBlockBegin
  2
Block_6
 70
     0
 10
0.0
 20
0.0
 30
0.0
  3
Block_6
  1

  0
INSERT
  5
C4
330
BF
100
AcDbEntity
  8
Livello 2
100
AcDbBlockReference
  2
Block_7
 10
0.0
 20
0.0
 30
0.0
  0
ENDBLK
  5
C2
330
BF
100
AcDbEntity
  8
0
100
AcDbBlockEnd
  0
BLOCK
  5
C5
330
C3
100
AcDbEntity
  8
0
100
AcDbBlockBegin
  2
Block_7
 70
     0
 10
0.0
 20
0.0
 30
0.0
  3
Block_7
  1

  0
SPLINE
  5
C7
330
C3
100
AcDbEntity
  8
Livello 2
100
AcDbSpline
210
0.0
220
0.0
230
1.0
 70
    11
 71
     3
 72
    29
 73
    25
 74
     0
 42
0.000000001
 43
0.0000000001
 40
0.0
 40
0.0
 40
0.0
 40
0.0
 40
1.0
 40
1.0
 40
1.0
 40
2.0
 40
2.0
 40
2.0
 40
3.0
 40
3.0
 40
3.0
 40
4.0
 40
4.0
 40
4.0
 40
5.0
 40
5.0
 40
5.0
 40
6.0
 40
6.0
 40
6.0
 40
7.0
 40
7.0
 40
7.0
 40
8.0
 40
8.0
 40
8.0
 40
8.0
 10
3.470365260634143
 20
-6.777811955770824
 30
0.0
 10
3.470365260634143
 20
-6.777811955770824
 30
0.0
 10
3.470365260634143
 20
-6.794176159325759
 30
0.0
 10
3.470365260634143
 20
-6.794176159325759
 30
0.0
 10
3.470365260634143
 20
-6.794176159325759
 30
0.0
 10
3.390542398240904
 20
-6.96115993749582
 30
0.0
 10
3.390542398240904
 20
-6.96115993749582
 30
0.0
 10
3.390542398240904
 20
-6.96115993749582
 30
0.0
 10
3.364876436875793
 20
-6.96115993749582
 30
0.0
 10
3.364876436875793
 20
-6.96115993749582
 30
0.0
 10
3.364876436875793
 20
-6.96115993749582
 30
0.0
 10
3.444423691630212
 20
-6.798964842050257
 30
0.0
 10
3.444423691630212
 20
-6.798964842050257
 30
0.0
 10
3.444423691630212
 20
-6.798964842050257
 30
0.0
 10
3.444423691630212
 20
-6.798413626772616
 30
0.0
 10
3.444423691630212
 20
-6.798413626772616
 30
0.0
 10
3.444423691630212
 20
-6.798413626772616
 30
0.0
 10
3.354713405194306
 20
-6.798413626772616
 30
0.0
 10
3.354713405194306
 20
-6.798413626772616
 30
0.0
 10
3.354713405194306
 20
-6.798413626772616
 30
0.0
 10
3.354713405194306
 20
-6.777811955770824
 30
0.0
 10
3.354713405194306
 20
-6.777811955770824
 30
0.0
 10
3.354713405194306
 20
-6.777811955770824
 30
0.0
 10
3.470365260634143
 20
-6.777811955770824
 30
0.0
 10
3.470365260634143
 20
-6.777811955770824
 30
0.0
  0
HATCH
  5
C8
330
C3
100
AcDbEntity
  8
Livello 2
 62
   250
420
  1907995
440
 33554687
100
AcDbHatch
 10
0.0
 20
0.0
 30
0.0
210
0.0
220
0.0
230
1.0
  2
SOLID
 70
     1
 71
     1
 91
        1
 92
        1
 93
        1
 72
     4
 94
        3
 73
     0
 74
     0
 95
       29
 96
       25
 40
0.0
 40
0.0
 40
0.0
 40
0.0
 40
1.0
 40
1.0
 40
1.0
 40
2.0
 40
2.0
 40
2.0
 40
3.0
 40
3.0
 40
3.0
 40
4.0
 40
4.0
 40
4.0
 40
5.0
 40
5.0
 40
5.0
 40
6.0
 40
6.0
 40
6.0
 40
7.0
 40
7.0
 40
7.0
 40
8.0
 40
8.0
 40
8.0
 40
8.0
 10
3.470365260634143
 20
-6.777811955770824
 10
3.470365260634143
 20
-6.777811955770824
 10
3.470365260634143
 20
-6.794176159325759
 10
3.470365260634143
 20
-6.794176159325759
 10
3.470365260634143
 20
-6.794176159325759
 10
3.390542398240904
 20
-6.96115993749582
 10
3.390542398240904
 20
-6.96115993749582
 10
3.390542398240904
 20
-6.96115993749582
 10
3.364876436875793
 20
-6.96115993749582
 10
3.364876436875793
 20
-6.96115993749582
 10
3.364876436875793
 20
-6.96115993749582
 10
3.444423691630212
 20
-6.798964842050257
 10
3.444423691630212
 20
-6.798964842050257
 10
3.444423691630212
 20
-6.798964842050257
 10
3.444423691630212
 20
-6.798413626772616
 10
3.444423691630212
 20
-6.798413626772616
 10
3.444423691630212
 20
-6.798413626772616
 10
3.354713405194306
 20
-6.798413626772616
 10
3.354713405194306
 20
-6.798413626772616
 10
3.354713405194306
 20
-6.798413626772616
 10
3.354713405194306
 20
-6.777811955770824
 10
3.354713405194306
 20
-6.777811955770824
 10
3.354713405194306
 20
-6.777811955770824
 10
3.470365260634143
 20
-6.777811955770824
 10
3.470365260634143
 20
-6.777811955770824
 97
        1
330
C7
 75
     2
 76
     1
 98
        1
 10
0.0
 20
0.0
450
        0
451
        0
460
0.0
461
0.0
452
        0
462
0.0
453
        0
470

  0
SPLINE
  5
C9
330
C3
100
AcDbEntity
  8
Livello 2
100
AcDbSpline
210
0.0
220
0.0
230
1.0
 70
     9
 71
     3
 72
    17
 73
    13
 74
     0
 42
0.000000001
 43
0.0000000001
 40
0.0
 40
0.0
 40
0.0
 40
0.0
 40
1.0
 40
1.0
 40
1.0
 40
2.0
 40
2.0
 40
2.0
 40
3.0
 40
3.0
 40
3.0
 40
4.0
 40
4.0
 40
4.0
 40
4.0
 10
3.518389891698526
 20
-6.870347220504634
 30
0.0
 10
3.518389891698526
 20
-6.917992891065638
 30
0.0
 10
3.533065998465691
 20
-6.945071341579701
 30
0.0
 10
3.555631373894077
 20
-6.945071341579701
 30
0.0
 10
3.581021727620368
 20
-6.945071341579701
 30
0.0
 10
3.593148463728448
 20
-6.915477971361407
 30
0.0
 10
3.593148463728448
 20
-6.868659123716862
 30
0.0
 10
3.593148463728448
 20
-6.823528372860088
 30
0.0
 10
3.581572942898008
 20
-6.793900551686941
 30
0.0
 10
3.555906981532896
 20
-6.793900551686941
 30
0.0
 10
3.534202879975823
 20
-6.793900551686941
 30
0.0
 10
3.518389891698526
 20
-6.820393335968512
 30
0.0
 10
3.518389891698526
 20
-6.870347220504634
 30
0.0
  0
SPLINE
  5
CA
330
C3
100
AcDbEntity
  8
Livello 2
100
AcDbSpline
210
0.0
220
0.0
230
1.0
 70
     9
 71
     3
 72
    17
 73
    13
 74
     0
 42
0.000000001
 43
0.0000000001
 40
0.0
 40
0.0
 40
0.0
 40
0.0
 40
1.0
 40
1.0
 40
1.0
 40
2.0
 40
2.0
 40
2.0
 40
3.0
 40
3.0
 40
3.0
 40
4.0
 40
4.0
 40
4.0
 40
4.0
 10
3.617970376699673
 20
-6.867522242206731
 30
0.0
 10
3.617970376699673
 20
-6.9298440195349
 30
0.0
 10
3.59483656051622
 20
-6.964260523432544
 30
0.0
 10
3.554218884745125
 20
-6.964260523432544
 30
0.0
 10
3.518389891698526
 20
-6.964260523432544
 30
0.0
 10
3.494136419482368
 20
-6.93070529340621
 30
0.0
 10
3.493585204204728
 20
-6.870037161910962
 30
0.0
 10
3.493585204204728
 20
-6.808576658454103
 30
0.0
 10
3.520095213963724
 20
-6.774711369834098
 30
0.0
 10
3.55731947068185
 20
-6.774711369834098
 30
0.0
 10
3.595973442026352
 20
-6.774711369834098
 30
0.0
 10
3.617970376699673
 20
-6.809127873731743
 30
0.0
 10
3.617970376699673
 20
-6.867522242206731
 30
0.0
  0
HATCH
  5
CB
330
C3
100
AcDbEntity
  8
Livello 2
 62
   250
420
  1907995
440
 33554687
100
AcDbHatch
 10
0.0
 20
0.0
 30
0.0
210
0.0
220
0.0
230
1.0
  2
SOLID
 70
     1
 71
     1
 91
        2
 92
        1
 93
        1
 72
     4
 94
        3
 73
     0
 74
     0
 95
       17
 96
       13
 40
0.0
 40
0.0
 40
0.0
 40
0.0
 40
1.0
 40
1.0
 40
1.0
 40
2.0
 40
2.0
 40
2.0
 40
3.0
 40
3.0
 40
3.0
 40
4.0
 40
4.0
 40
4.0
 40
4.0
 10
3.518389891698526
 20
-6.870347220504634
 10
3.518389891698526
 20
-6.917992891065638
 10
3.533065998465691
 20
-6.945071341579701
 10
3.555631373894077
 20
-6.945071341579701
 10
3.581021727620368
 20
-6.945071341579701
 10
3.593148463728448
 20
-6.915477971361407
 10
3.593148463728448
 20
-6.868659123716862
 10
3.593148463728448
 20
-6.823528372860088
 10
3.581572942898008
 20
-6.793900551686941
 10
3.555906981532896
 20
-6.793900551686941
 10
3.534202879975823
 20
-6.793900551686941
 10
3.518389891698526
 20
-6.820393335968512
 10
3.518389891698526
 20
-6.870347220504634
 97
        1
330
C9
 92
        1
 93
        1
 72
     4
 94
        3
 73
     0
 74
     0
 95
       17
 96
       13
 40
0.0
 40
0.0
 40
0.0
 40
0.0
 40
1.0
 40
1.0
 40
1.0
 40
2.0
 40
2.0
 40
2.0
 40
3.0
 40
3.0
 40
3.0
 40
4.0
 40
4.0
 40
4.0
 40
4.0
 10
3.617970376699673
 20
-6.867522242206731
 10
3.617970376699673
 20
-6.9298440195349
 10
3.59483656051622
 20
-6.964260523432544
 10
3.554218884745125
 20
-6.964260523432544
 10
3.518389891698526
 20
-6.964260523432544
 10
3.494136419482368
 20
-6.93070529340621
 10
3.493585204204728
 20
-6.870037161910962
 10
3.493585204204728
 20
-6.808576658454103
 10
3.520095213963724
 20
-6.774711369834098
 10
3.55731947068185
 20
-6.774711369834098
 10
3.595973442026352
 20
-6.774711369834098
 10
3.617970376699673
 20
-6.809127873731743
 10
3.617970376699673
 20
-6.867522242206731
 97
        1
330
CA
 75
     2
 76
     1
 98
        1
 10
0.0
 20
0.0
450
        0
451
        0
460
0.0
461
0.0
452
        0
462
0.0
453
        0
470

  0
SPLINE
  5
CC
330
C3
100
AcDbEntity
  8
Livello 2
100
AcDbSpline
210
0.0
220
0.0
230
1.0
 70
    11
 71
     3
 72
    50
 73
    46
 74
     0
 42
0.000000001
 43
0.0000000001
 40
0.0
 40
0.0
 40
0.0
 40
0.0
 40
1.0
 40
1.0
 40
1.0
 40
2.0
 40
2.0
 40
2.0
 40
3.0
 40
3.0
 40
3.0
 40
4.0
 40
4.0
 40
4.0
 40
5.0
 40
5.0
 40
5.0
 40
6.0
 40
6.0
 40
6.0
 40
7.0
 40
7.0
 40
7.0
 40
8.0
 40
8.0
 40
8.0
 40
9.0
 40
9.0
 40
9.0
 40
10.0
 40
10.0
 40
10.0
 40
11.0
 40
11.0
 40
11.0
 40
12.0
 40
12.0
 40
12.0
 40
13.0
 40
13.0
 40
13.0
 40
14.0
 40
14.0
 40
14.0
 40
15.0
 40
15.0
 40
15.0
 40
15.0
 10
3.750313719765546
 20
-6.798689234411437
 30
0.0
 10
3.750313719765546
 20
-6.798689234411437
 30
0.0
 10
3.680378281414973
 20
-6.798689234411437
 30
0.0
 10
3.680378281414973
 20
-6.798689234411437
 30
0.0
 10
3.680378281414973
 20
-6.798689234411437
 30
0.0
 10
3.673315835670211
 20
-6.845783689694802
 30
0.0
 10
3.673315835670211
 20
-6.845783689694802
 30
0.0
 10
3.677553303117068
 20
-6.845232474417161
 30
0.0
 10
3.681480711970254
 20
-6.844681259139522
 30
0.0
 10
3.688267550076196
 20
-6.844681259139522
 30
0.0
 10
3.702357990610868
 20
-6.844681259139522
 30
0.0
 10
3.716482882100391
 20
-6.847781845076247
 30
0.0
 10
3.727748344337158
 20
-6.854534232227337
 30
0.0
 10
3.742148843465503
 20
-6.862733559482232
 30
0.0
 10
3.753999971934763
 20
-6.878512096804676
 30
0.0
 10
3.753999971934763
 20
-6.901628687510702
 30
0.0
 10
3.753999971934763
 20
-6.937457680557301
 30
0.0
 10
3.725509032271746
 20
-6.964260523432544
 30
0.0
 10
3.685718179417111
 20
-6.964260523432544
 30
0.0
 10
3.66570217464781
 20
-6.964260523432544
 30
0.0
 10
3.648786755815232
 20
-6.958610566836735
 30
0.0
 10
3.640036213282698
 20
-6.952995061195777
 30
0.0
 10
3.640036213282698
 20
-6.952995061195777
 30
0.0
 10
3.646237385156148
 20
-6.934081486981757
 30
0.0
 10
3.646237385156148
 20
-6.934081486981757
 30
0.0
 10
3.653851046178549
 20
-6.938594562067433
 30
0.0
 10
3.668802760584534
 20
-6.944244518663244
 30
0.0
 10
3.685442571778291
 20
-6.944244518663244
 30
0.0
 10
3.70886922107799
 20
-6.944244518663244
 30
0.0
 10
3.728885225847291
 20
-6.929017196618438
 30
0.0
 10
3.728885225847291
 20
-6.904453665808607
 30
0.0
 10
3.728609618208471
 20
-6.880785859824942
 30
0.0
 10
3.712796629931174
 20
-6.863835990037513
 30
0.0
 10
3.676140813968116
 20
-6.863835990037513
 30
0.0
 10
3.66570217464781
 20
-6.863835990037513
 30
0.0
 10
3.657537298347768
 20
-6.864972871547644
 30
0.0
 10
3.650750460241825
 20
-6.865834145418957
 30
0.0
 10
3.650750460241825
 20
-6.865834145418957
 30
0.0
 10
3.662601588711084
 20
-6.777811955770824
 30
0.0
 10
3.662601588711084
 20
-6.777811955770824
 30
0.0
 10
3.662601588711084
 20
-6.777811955770824
 30
0.0
 10
3.750313719765546
 20
-6.777811955770824
 30
0.0
 10
3.750313719765546
 20
-6.777811955770824
 30
0.0
 10
3.750313719765546
 20
-6.777811955770824
 30
0.0
 10
3.750313719765546
 20
-6.798689234411437
 30
0.0
 10
3.750313719765546
 20
-6.798689234411437
 30
0.0
  0
HATCH
  5
CD
330
C3
100
AcDbEntity
  8
Livello 2
 62
   250
420
  1907995
440
 33554687
100
AcDbHatch
 10
0.0
 20
0.0
 30
0.0
210
0.0
220
0.0
230
1.0
  2
SOLID
 70
     1
 71
     1
 91
        1
 92
        1
 93
        1
 72
     4
 94
        3
 73
     0
 74
     0
 95
       50
 96
       46
 40
0.0
 40
0.0
 40
0.0
 40
0.0
 40
1.0
 40
1.0
 40
1.0
 40
2.0
 40
2.0
 40
2.0
 40
3.0
 40
3.0
 40
3.0
 40
4.0
 40
4.0
 40
4.0
 40
5.0
 40
5.0
 40
5.0
 40
6.0
 40
6.0
 40
6.0
 40
7.0
 40
7.0
 40
7.0
 40
8.0
 40
8.0
 40
8.0
 40
9.0
 40
9.0
 40
9.0
 40
10.0
 40
10.0
 40
10.0
 40
11.0
 40
11.0
 40
11.0
 40
12.0
 40
12.0
 40
12.0
 40
13.0
 40
13.0
 40
13.0
 40
14.0
 40
14.0
 40
14.0
 40
15.0
 40
15.0
 40
15.0
 40
15.0
 10
3.750313719765546
 20
-6.798689234411437
 10
3.750313719765546
 20
-6.798689234411437
 10
3.680378281414973
 20
-6.798689234411437
 10
3.680378281414973
 20
-6.798689234411437
 10
3.680378281414973
 20
-6.798689234411437
 10
3.673315835670211
 20
-6.845783689694802
 10
3.673315835670211
 20
-6.845783689694802
 10
3.677553303117068
 20
-6.845232474417161
 10
3.681480711970254
 20
-6.844681259139522
 10
3.688267550076196
 20
-6.844681259139522
 10
3.702357990610868
 20
-6.844681259139522
 10
3.716482882100391
 20
-6.847781845076247
 10
3.727748344337158
 20
-6.854534232227337
 10
3.742148843465503
 20
-6.862733559482232
 10
3.753999971934763
 20
-6.878512096804676
 10
3.753999971934763
 20
-6.901628687510702
 10
3.753999971934763
 20
-6.937457680557301
 10
3.725509032271746
 20
-6.964260523432544
 10
3.685718179417111
 20
-6.964260523432544
 10
3.66570217464781
 20
-6.964260523432544
 10
3.648786755815232
 20
-6.958610566836735
 10
3.640036213282698
 20
-6.952995061195777
 10
3.640036213282698
 20
-6.952995061195777
 10
3.646237385156148
 20
-6.934081486981757
 10
3.646237385156148
 20
-6.934081486981757
 10
3.653851046178549
 20
-6.938594562067433
 10
3.668802760584534
 20
-6.944244518663244
 10
3.685442571778291
 20
-6.944244518663244
 10
3.70886922107799
 20
-6.944244518663244
 10
3.728885225847291
 20
-6.929017196618438
 10
3.728885225847291
 20
-6.904453665808607
 10
3.728609618208471
 20
-6.880785859824942
 10
3.712796629931174
 20
-6.863835990037513
 10
3.676140813968116
 20
-6.863835990037513
 10
3.66570217464781
 20
-6.863835990037513
 10
3.657537298347768
 20
-6.864972871547644
 10
3.650750460241825
 20
-6.865834145418957
 10
3.650750460241825
 20
-6.865834145418957
 10
3.662601588711084
 20
-6.777811955770824
 10
3.662601588711084
 20
-6.777811955770824
 10
3.662601588711084
 20
-6.777811955770824
 10
3.750313719765546
 20
-6.777811955770824
 10
3.750313719765546
 20
-6.777811955770824
 10
3.750313719765546
 20
-6.777811955770824
 10
3.750313719765546
 20
-6.798689234411437
 10
3.750313719765546
 20
-6.798689234411437
 97
        1
330
CC
 75
     2
 76
     1
 98
        1
 10
0.0
 20
0.0
450
        0
451
        0
460
0.0
461
0.0
452
        0
462
0.0
453
        0
470

  0
SPLINE
  5
CE
330
C3
100
AcDbEntity
  8
Livello 2
100
AcDbSpline
210
0.0
220
0.0
230
1.0
 70
     9
 71
     3
 72
    80
 73
    76
 74
     0
 42
0.000000001
 43
0.0000000001
 40
0.0
 40
0.0
 40
0.0
 40
0.0
 40
1.0
 40
1.0
 40
1.0
 40
2.0
 40
2.0
 40
2.0
 40
3.0
 40
3.0
 40
3.0
 40
4.0
 40
4.0
 40
4.0
 40
5.0
 40
5.0
 40
5.0
 40
6.0
 40
6.0
 40
6.0
 40
7.0
 40
7.0
 40
7.0
 40
8.0
 40
8.0
 40
8.0
 40
9.0
 40
9.0
 40
9.0
 40
10.0
 40
10.0
 40
10.0
 40
11.0
 40
11.0
 40
11.0
 40
12.0
 40
12.0
 40
12.0
 40
13.0
 40
13.0
 40
13.0
 40
14.0
 40
14.0
 40
14.0
 40
15.0
 40
15.0
 40
15.0
 40
16.0
 40
16.0
 40
16.0
 40
17.0
 40
17.0
 40
17.0
 40
18.0
 40
18.0
 40
18.0
 40
19.0
 40
19.0
 40
19.0
 40
20.0
 40
20.0
 40
20.0
 40
21.0
 40
21.0
 40
21.0
 40
22.0
 40
22.0
 40
22.0
 40
23.0
 40
23.0
 40
23.0
 40
24.0
 40
24.0
 40
24.0
 40
25.0
 40
25.0
 40
25.0
 40
25.0
 10
3.853390976684221
 20
-6.861596677972099
 30
0.0
 10
3.853390976684221
 20
-6.847471786482574
 30
0.0
 10
3.853080918090548
 20
-6.835930716606987
 30
0.0
 10
3.852254095174087
 20
-6.824630803415368
 30
0.0
 10
3.852254095174087
 20
-6.824630803415368
 30
0.0
 10
3.873958196731162
 20
-6.824630803415368
 30
0.0
 10
3.873958196731162
 20
-6.824630803415368
 30
0.0
 10
3.873958196731162
 20
-6.824630803415368
 30
0.0
 10
3.875095078241295
 20
-6.846644963566116
 30
0.0
 10
3.875095078241295
 20
-6.846644963566116
 30
0.0
 10
3.875095078241295
 20
-6.846644963566116
 30
0.0
 10
3.875956352112606
 20
-6.846644963566116
 30
0.0
 10
3.875956352112606
 20
-6.846644963566116
 30
0.0
 10
3.88357001313501
 20
-6.833656953586722
 30
0.0
 10
3.896247964520728
 20
-6.821530217478644
 30
0.0
 10
3.918813339949115
 20
-6.821530217478644
 30
0.0
 10
3.937451306524316
 20
-6.821530217478644
 30
0.0
 10
3.951541747058988
 20
-6.832830130670263
 30
0.0
 10
3.957467311293618
 20
-6.848884275631528
 30
0.0
 10
3.957467311293618
 20
-6.848884275631528
 30
0.0
 10
3.958018526571258
 20
-6.848884275631528
 30
0.0
 10
3.958018526571258
 20
-6.848884275631528
 30
0.0
 10
3.962255994018116
 20
-6.841270614609124
 30
0.0
 10
3.967630342975104
 20
-6.835345050374495
 30
0.0
 10
3.973245848616063
 20
-6.831142033882493
 30
0.0
 10
3.981445175870956
 20
-6.824906411054188
 30
0.0
 10
3.990471326042311
 20
-6.821530217478644
 30
0.0
 10
4.00342488506685
 20
-6.821530217478644
 30
0.0
 10
4.02147718540956
 20
-6.821530217478644
 30
0.0
 10
4.048280028284803
 20
-6.833381345947903
 30
0.0
 10
4.048280028284803
 20
-6.880785859824942
 30
0.0
 10
4.048280028284803
 20
-6.880785859824942
 30
0.0
 10
4.048280028284803
 20
-6.96115993749582
 30
0.0
 10
4.048280028284803
 20
-6.96115993749582
 30
0.0
 10
4.048280028284803
 20
-6.96115993749582
 30
0.0
 10
4.024026556068645
 20
-6.96115993749582
 30
0.0
 10
4.024026556068645
 20
-6.96115993749582
 30
0.0
 10
4.024026556068645
 20
-6.96115993749582
 30
0.0
 10
4.024026556068645
 20
-6.883886445761667
 30
0.0
 10
4.024026556068645
 20
-6.883886445761667
 30
0.0
 10
4.024026556068645
 20
-6.857634818164062
 30
0.0
 10
4.01444919061965
 20
-6.841856280841617
 30
0.0
 10
3.994398734895496
 20
-6.841856280841617
 30
0.0
 10
3.980308294360825
 20
-6.841856280841617
 30
0.0
 10
3.969318439762878
 20
-6.852294920161924
 30
0.0
 10
3.96508097231602
 20
-6.864421656270004
 30
0.0
 10
3.963944090805888
 20
-6.867797849845548
 30
0.0
 10
3.963117267889428
 20
-6.872310924931227
 30
0.0
 10
3.963117267889428
 20
-6.876824000016903
 30
0.0
 10
3.963117267889428
 20
-6.876824000016903
 30
0.0
 10
3.963117267889428
 20
-6.96115993749582
 30
0.0
 10
3.963117267889428
 20
-6.96115993749582
 30
0.0
 10
3.963117267889428
 20
-6.96115993749582
 30
0.0
 10
3.938863795673268
 20
-6.96115993749582
 30
0.0
 10
3.938863795673268
 20
-6.96115993749582
 30
0.0
 10
3.938863795673268
 20
-6.96115993749582
 30
0.0
 10
3.938863795673268
 20
-6.879373370675987
 30
0.0
 10
3.938863795673268
 20
-6.879373370675987
 30
0.0
 10
3.938863795673268
 20
-6.857634818164062
 30
0.0
 10
3.929251979269421
 20
-6.841856280841617
 30
0.0
 10
3.910372856010252
 20
-6.841856280841617
 30
0.0
 10
3.894835475371776
 20
-6.841856280841617
 30
0.0
 10
3.88357001313501
 20
-6.854258624588518
 30
0.0
 10
3.879608153326971
 20
-6.866660968335417
 30
0.0
 10
3.878195664178019
 20
-6.870347220504634
 30
0.0
 10
3.87764444890038
 20
-6.874550236996638
 30
0.0
 10
3.87764444890038
 20
-6.878787704443497
 30
0.0
 10
3.87764444890038
 20
-6.878787704443497
 30
0.0
 10
3.87764444890038
 20
-6.96115993749582
 30
0.0
 10
3.87764444890038
 20
-6.96115993749582
 30
0.0
 10
3.87764444890038
 20
-6.96115993749582
 30
0.0
 10
3.853390976684221
 20
-6.96115993749582
 30
0.0
 10
3.853390976684221
 20
-6.96115993749582
 30
0.0
 10
3.853390976684221
 20
-6.96115993749582
 30
0.0
 10
3.853390976684221
 20
-6.861596677972099
 30
0.0
 10
3.853390976684221
 20
-6.861596677972099
 30
0.0
  0
HATCH
  5
CF
330
C3
100
AcDbEntity
  8
Livello 2
 62
   250
420
  1907995
440
 33554687
100
AcDbHatch
 10
0.0
 20
0.0
 30
0.0
210
0.0
220
0.0
230
1.0
  2
SOLID
 70
     1
 71
     1
 91
        1
 92
        1
 93
        1
 72
     4
 94
        3
 73
     0
 74
     0
 95
       80
 96
       76
 40
0.0
 40
0.0
 40
0.0
 40
0.0
 40
1.0
 40
1.0
 40
1.0
 40
2.0
 40
2.0
 40
2.0
 40
3.0
 40
3.0
 40
3.0
 40
4.0
 40
4.0
 40
4.0
 40
5.0
 40
5.0
 40
5.0
 40
6.0
 40
6.0
 40
6.0
 40
7.0
 40
7.0
 40
7.0
 40
8.0
 40
8.0
 40
8.0
 40
9.0
 40
9.0
 40
9.0
 40
10.0
 40
10.0
 40
10.0
 40
11.0
 40
11.0
 40
11.0
 40
12.0
 40
12.0
 40
12.0
 40
13.0
 40
13.0
 40
13.0
 40
14.0
 40
14.0
 40
14.0
 40
15.0
 40
15.0
 40
15.0
 40
16.0
 40
16.0
 40
16.0
 40
17.0
 40
17.0
 40
17.0
 40
18.0
 40
18.0
 40
18.0
 40
19.0
 40
19.0
 40
19.0
 40
20.0
 40
20.0
 40
20.0
 40
21.0
 40
21.0
 40
21.0
 40
22.0
 40
22.0
 40
22.0
 40
23.0
 40
23.0
 40
23.0
 40
24.0
 40
24.0
 40
24.0
 40
25.0
 40
25.0
 40
25.0
 40
25.0
 10
3.853390976684221
 20
-6.861596677972099
 10
3.853390976684221
 20
-6.847471786482574
 10
3.853080918090548
 20
-6.835930716606987
 10
3.852254095174087
 20
-6.824630803415368
 10
3.852254095174087
 20
-6.824630803415368
 10
3.873958196731162
 20
-6.824630803415368
 10
3.873958196731162
 20
-6.824630803415368
 10
3.873958196731162
 20
-6.824630803415368
 10
3.875095078241295
 20
-6.846644963566116
 10
3.875095078241295
 20
-6.846644963566116
 10
3.875095078241295
 20
-6.846644963566116
 10
3.875956352112606
 20
-6.846644963566116
 10
3.875956352112606
 20
-6.846644963566116
 10
3.88357001313501
 20
-6.833656953586722
 10
3.896247964520728
 20
-6.821530217478644
 10
3.918813339949115
 20
-6.821530217478644
 10
3.937451306524316
 20
-6.821530217478644
 10
3.951541747058988
 20
-6.832830130670263
 10
3.957467311293618
 20
-6.848884275631528
 10
3.957467311293618
 20
-6.848884275631528
 10
3.958018526571258
 20
-6.848884275631528
 10
3.958018526571258
 20
-6.848884275631528
 10
3.962255994018116
 20
-6.841270614609124
 10
3.967630342975104
 20
-6.835345050374495
 10
3.973245848616063
 20
-6.831142033882493
 10
3.981445175870956
 20
-6.824906411054188
 10
3.990471326042311
 20
-6.821530217478644
 10
4.00342488506685
 20
-6.821530217478644
 10
4.02147718540956
 20
-6.821530217478644
 10
4.048280028284803
 20
-6.833381345947903
 10
4.048280028284803
 20
-6.880785859824942
 10
4.048280028284803
 20
-6.880785859824942
 10
4.048280028284803
 20
-6.96115993749582
 10
4.048280028284803
 20
-6.96115993749582
 10
4.048280028284803
 20
-6.96115993749582
 10
4.024026556068645
 20
-6.96115993749582
 10
4.024026556068645
 20
-6.96115993749582
 10
4.024026556068645
 20
-6.96115993749582
 10
4.024026556068645
 20
-6.883886445761667
 10
4.024026556068645
 20
-6.883886445761667
 10
4.024026556068645
 20
-6.857634818164062
 10
4.01444919061965
 20
-6.841856280841617
 10
3.994398734895496
 20
-6.841856280841617
 10
3.980308294360825
 20
-6.841856280841617
 10
3.969318439762878
 20
-6.852294920161924
 10
3.96508097231602
 20
-6.864421656270004
 10
3.963944090805888
 20
-6.867797849845548
 10
3.963117267889428
 20
-6.872310924931227
 10
3.963117267889428
 20
-6.876824000016903
 10
3.963117267889428
 20
-6.876824000016903
 10
3.963117267889428
 20
-6.96115993749582
 10
3.963117267889428
 20
-6.96115993749582
 10
3.963117267889428
 20
-6.96115993749582
 10
3.938863795673268
 20
-6.96115993749582
 10
3.938863795673268
 20
-6.96115993749582
 10
3.938863795673268
 20
-6.96115993749582
 10
3.938863795673268
 20
-6.879373370675987
 10
3.938863795673268
 20
-6.879373370675987
 10
3.938863795673268
 20
-6.857634818164062
 10
3.929251979269421
 20
-6.841856280841617
 10
3.910372856010252
 20
-6.841856280841617
 10
3.894835475371776
 20
-6.841856280841617
 10
3.88357001313501
 20
-6.854258624588518
 10
3.879608153326971
 20
-6.866660968335417
 10
3.878195664178019
 20
-6.870347220504634
 10
3.87764444890038
 20
-6.874550236996638
 10
3.87764444890038
 20
-6.878787704443497
 10
3.87764444890038
 20
-6.878787704443497
 10
3.87764444890038
 20
-6.96115993749582
 10
3.87764444890038
 20
-6.96115993749582
 10
3.87764444890038
 20
-6.96115993749582
 10
3.853390976684221
 20
-6.96115993749582
 10
3.853390976684221
 20
-6.96115993749582
 10
3.853390976684221
 20
-6.96115993749582
 10
3.853390976684221
 20
-6.861596677972099
 10
3.853390976684221
 20
-6.861596677972099
 97
        1
330
CE
 75
     2
 76
     1
 98
        1
 10
0.0
 20
0.0
450
        0
451
        0
460
0.0
461
0.0
452
        0
462
0.0
453
        0
470

  0
SPLINE
  5
D0
330
C3
100
AcDbEntity
  8
Livello 2
100
AcDbSpline
210
0.0
220
0.0
230
1.0
 70
     9
 71
     3
 72
    80
 73
    76
 74
     0
 42
0.000000001
 43
0.0000000001
 40
0.0
 40
0.0
 40
0.0
 40
0.0
 40
1.0
 40
1.0
 40
1.0
 40
2.0
 40
2.0
 40
2.0
 40
3.0
 40
3.0
 40
3.0
 40
4.0
 40
4.0
 40
4.0
 40
5.0
 40
5.0
 40
5.0
 40
6.0
 40
6.0
 40
6.0
 40
7.0
 40
7.0
 40
7.0
 40
8.0
 40
8.0
 40
8.0
 40
9.0
 40
9.0
 40
9.0
 40
10.0
 40
10.0
 40
10.0
 40
11.0
 40
11.0
 40
11.0
 40
12.0
 40
12.0
 40
12.0
 40
13.0
 40
13.0
 40
13.0
 40
14.0
 40
14.0
 40
14.0
 40
15.0
 40
15.0
 40
15.0
 40
16.0
 40
16.0
 40
16.0
 40
17.0
 40
17.0
 40
17.0
 40
18.0
 40
18.0
 40
18.0
 40
19.0
 40
19.0
 40
19.0
 40
20.0
 40
20.0
 40
20.0
 40
21.0
 40
21.0
 40
21.0
 40
22.0
 40
22.0
 40
22.0
 40
23.0
 40
23.0
 40
23.0
 40
24.0
 40
24.0
 40
24.0
 40
25.0
 40
25.0
 40
25.0
 40
25.0
 10
4.08875990023649
 20
-6.861596677972099
 30
0.0
 10
4.08875990023649
 20
-6.847471786482574
 30
0.0
 10
4.088449841642816
 20
-6.835930716606987
 30
0.0
 10
4.087623018726358
 20
-6.824630803415368
 30
0.0
 10
4.087623018726358
 20
-6.824630803415368
 30
0.0
 10
4.109327120283431
 20
-6.824630803415368
 30
0.0
 10
4.109327120283431
 20
-6.824630803415368
 30
0.0
 10
4.109327120283431
 20
-6.824630803415368
 30
0.0
 10
4.110464001793562
 20
-6.846644963566116
 30
0.0
 10
4.110464001793562
 20
-6.846644963566116
 30
0.0
 10
4.110464001793562
 20
-6.846644963566116
 30
0.0
 10
4.111325275664876
 20
-6.846644963566116
 30
0.0
 10
4.111325275664876
 20
-6.846644963566116
 30
0.0
 10
4.118938936687277
 20
-6.833656953586722
 30
0.0
 10
4.131616888072997
 20
-6.821530217478644
 30
0.0
 10
4.154182263501383
 20
-6.821530217478644
 30
0.0
 10
4.172820230076585
 20
-6.821530217478644
 30
0.0
 10
4.186910670611258
 20
-6.832830130670263
 30
0.0
 10
4.192836234845888
 20
-6.848884275631528
 30
0.0
 10
4.192836234845888
 20
-6.848884275631528
 30
0.0
 10
4.193387450123528
 20
-6.848884275631528
 30
0.0
 10
4.193387450123528
 20
-6.848884275631528
 30
0.0
 10
4.197624917570384
 20
-6.841270614609124
 30
0.0
 10
4.202999266527373
 20
-6.835345050374495
 30
0.0
 10
4.20861477216833
 20
-6.831142033882493
 30
0.0
 10
4.216814099423226
 20
-6.824906411054188
 30
0.0
 10
4.225840249594581
 20
-6.821530217478644
 30
0.0
 10
4.23879380861912
 20
-6.821530217478644
 30
0.0
 10
4.25684610896183
 20
-6.821530217478644
 30
0.0
 10
4.283648951837072
 20
-6.833381345947903
 30
0.0
 10
4.283648951837072
 20
-6.880785859824942
 30
0.0
 10
4.283648951837072
 20
-6.880785859824942
 30
0.0
 10
4.283648951837072
 20
-6.96115993749582
 30
0.0
 10
4.283648951837072
 20
-6.96115993749582
 30
0.0
 10
4.283648951837072
 20
-6.96115993749582
 30
0.0
 10
4.259395479620915
 20
-6.96115993749582
 30
0.0
 10
4.259395479620915
 20
-6.96115993749582
 30
0.0
 10
4.259395479620915
 20
-6.96115993749582
 30
0.0
 10
4.259395479620915
 20
-6.883886445761667
 30
0.0
 10
4.259395479620915
 20
-6.883886445761667
 30
0.0
 10
4.259395479620915
 20
-6.857634818164062
 30
0.0
 10
4.24981811417192
 20
-6.841856280841617
 30
0.0
 10
4.229767658447766
 20
-6.841856280841617
 30
0.0
 10
4.215677217913093
 20
-6.841856280841617
 30
0.0
 10
4.204687363315147
 20
-6.852294920161924
 30
0.0
 10
4.200449895868287
 20
-6.864421656270004
 30
0.0
 10
4.199313014358156
 20
-6.867797849845548
 30
0.0
 10
4.198486191441697
 20
-6.872310924931227
 30
0.0
 10
4.198486191441697
 20
-6.876824000016903
 30
0.0
 10
4.198486191441697
 20
-6.876824000016903
 30
0.0
 10
4.198486191441697
 20
-6.96115993749582
 30
0.0
 10
4.198486191441697
 20
-6.96115993749582
 30
0.0
 10
4.198486191441697
 20
-6.96115993749582
 30
0.0
 10
4.174232719225538
 20
-6.96115993749582
 30
0.0
 10
4.174232719225538
 20
-6.96115993749582
 30
0.0
 10
4.174232719225538
 20
-6.96115993749582
 30
0.0
 10
4.174232719225538
 20
-6.879373370675987
 30
0.0
 10
4.174232719225538
 20
-6.879373370675987
 30
0.0
 10
4.174232719225538
 20
-6.857634818164062
 30
0.0
 10
4.164620902821691
 20
-6.841856280841617
 30
0.0
 10
4.145741779562522
 20
-6.841856280841617
 30
0.0
 10
4.130204398924044
 20
-6.841856280841617
 30
0.0
 10
4.118938936687277
 20
-6.854258624588518
 30
0.0
 10
4.114977076879241
 20
-6.866660968335417
 30
0.0
 10
4.113564587730288
 20
-6.870347220504634
 30
0.0
 10
4.113013372452647
 20
-6.874550236996638
 30
0.0
 10
4.113013372452647
 20
-6.878787704443497
 30
0.0
 10
4.113013372452647
 20
-6.878787704443497
 30
0.0
 10
4.113013372452647
 20
-6.96115993749582
 30
0.0
 10
4.113013372452647
 20
-6.96115993749582
 30
0.0
 10
4.113013372452647
 20
-6.96115993749582
 30
0.0
 10
4.08875990023649
 20
-6.96115993749582
 30
0.0
 10
4.08875990023649
 20
-6.96115993749582
 30
0.0
 10
4.08875990023649
 20
-6.96115993749582
 30
0.0
 10
4.08875990023649
 20
-6.861596677972099
 30
0.0
 10
4.08875990023649
 20
-6.861596677972099
 30
0.0
  0
HATCH
  5
D1
330
C3
100
AcDbEntity
  8
Livello 2
 62
   250
420
  1907995
440
 33554687
100
AcDbHatch
 10
0.0
 20
0.0
 30
0.0
210
0.0
220
0.0
230
1.0
  2
SOLID
 70
     1
 71
     1
 91
        1
 92
        1
 93
        1
 72
     4
 94
        3
 73
     0
 74
     0
 95
       80
 96
       76
 40
0.0
 40
0.0
 40
0.0
 40
0.0
 40
1.0
 40
1.0
 40
1.0
 40
2.0
 40
2.0
 40
2.0
 40
3.0
 40
3.0
 40
3.0
 40
4.0
 40
4.0
 40
4.0
 40
5.0
 40
5.0
 40
5.0
 40
6.0
 40
6.0
 40
6.0
 40
7.0
 40
7.0
 40
7.0
 40
8.0
 40
8.0
 40
8.0
 40
9.0
 40
9.0
 40
9.0
 40
10.0
 40
10.0
 40
10.0
 40
11.0
 40
11.0
 40
11.0
 40
12.0
 40
12.0
 40
12.0
 40
13.0
 40
13.0
 40
13.0
 40
14.0
 40
14.0
 40
14.0
 40
15.0
 40
15.0
 40
15.0
 40
16.0
 40
16.0
 40
16.0
 40
17.0
 40
17.0
 40
17.0
 40
18.0
 40
18.0
 40
18.0
 40
19.0
 40
19.0
 40
19.0
 40
20.0
 40
20.0
 40
20.0
 40
21.0
 40
21.0
 40
21.0
 40
22.0
 40
22.0
 40
22.0
 40
23.0
 40
23.0
 40
23.0
 40
24.0
 40
24.0
 40
24.0
 40
25.0
 40
25.0
 40
25.0
 40
25.0
 10
4.08875990023649
 20
-6.861596677972099
 10
4.08875990023649
 20
-6.847471786482574
 10
4.088449841642816
 20
-6.835930716606987
 10
4.087623018726358
 20
-6.824630803415368
 10
4.087623018726358
 20
-6.824630803415368
 10
4.109327120283431
 20
-6.824630803415368
 10
4.109327120283431
 20
-6.824630803415368
 10
4.109327120283431
 20
-6.824630803415368
 10
4.110464001793562
 20
-6.846644963566116
 10
4.110464001793562
 20
-6.846644963566116
 10
4.110464001793562
 20
-6.846644963566116
 10
4.111325275664876
 20
-6.846644963566116
 10
4.111325275664876
 20
-6.846644963566116
 10
4.118938936687277
 20
-6.833656953586722
 10
4.131616888072997
 20
-6.821530217478644
 10
4.154182263501383
 20
-6.821530217478644
 10
4.172820230076585
 20
-6.821530217478644
 10
4.186910670611258
 20
-6.832830130670263
 10
4.192836234845888
 20
-6.848884275631528
 10
4.192836234845888
 20
-6.848884275631528
 10
4.193387450123528
 20
-6.848884275631528
 10
4.193387450123528
 20
-6.848884275631528
 10
4.197624917570384
 20
-6.841270614609124
 10
4.202999266527373
 20
-6.835345050374495
 10
4.20861477216833
 20
-6.831142033882493
 10
4.216814099423226
 20
-6.824906411054188
 10
4.225840249594581
 20
-6.821530217478644
 10
4.23879380861912
 20
-6.821530217478644
 10
4.25684610896183
 20
-6.821530217478644
 10
4.283648951837072
 20
-6.833381345947903
 10
4.283648951837072
 20
-6.880785859824942
 10
4.283648951837072
 20
-6.880785859824942
 10
4.283648951837072
 20
-6.96115993749582
 10
4.283648951837072
 20
-6.96115993749582
 10
4.283648951837072
 20
-6.96115993749582
 10
4.259395479620915
 20
-6.96115993749582
 10
4.259395479620915
 20
-6.96115993749582
 10
4.259395479620915
 20
-6.96115993749582
 10
4.259395479620915
 20
-6.883886445761667
 10
4.259395479620915
 20
-6.883886445761667
 10
4.259395479620915
 20
-6.857634818164062
 10
4.24981811417192
 20
-6.841856280841617
 10
4.229767658447766
 20
-6.841856280841617
 10
4.215677217913093
 20
-6.841856280841617
 10
4.204687363315147
 20
-6.852294920161924
 10
4.200449895868287
 20
-6.864421656270004
 10
4.199313014358156
 20
-6.867797849845548
 10
4.198486191441697
 20
-6.872310924931227
 10
4.198486191441697
 20
-6.876824000016903
 10
4.198486191441697
 20
-6.876824000016903
 10
4.198486191441697
 20
-6.96115993749582
 10
4.198486191441697
 20
-6.96115993749582
 10
4.198486191441697
 20
-6.96115993749582
 10
4.174232719225538
 20
-6.96115993749582
 10
4.174232719225538
 20
-6.96115993749582
 10
4.174232719225538
 20
-6.96115993749582
 10
4.174232719225538
 20
-6.879373370675987
 10
4.174232719225538
 20
-6.879373370675987
 10
4.174232719225538
 20
-6.857634818164062
 10
4.164620902821691
 20
-6.841856280841617
 10
4.145741779562522
 20
-6.841856280841617
 10
4.130204398924044
 20
-6.841856280841617
 10
4.118938936687277
 20
-6.854258624588518
 10
4.114977076879241
 20
-6.866660968335417
 10
4.113564587730288
 20
-6.870347220504634
 10
4.113013372452647
 20
-6.874550236996638
 10
4.113013372452647
 20
-6.878787704443497
 10
4.113013372452647
 20
-6.878787704443497
 10
4.113013372452647
 20
-6.96115993749582
 10
4.113013372452647
 20
-6.96115993749582
 10
4.113013372452647
 20
-6.96115993749582
 10
4.08875990023649
 20
-6.96115993749582
 10
4.08875990023649
 20
-6.96115993749582
 10
4.08875990023649
 20
-6.96115993749582
 10
4.08875990023649
 20
-6.861596677972099
 10
4.08875990023649
 20
-6.861596677972099
 97
        1
330
D0
 75
     2
 76
     1
 98
        1
 10
0.0
 20
0.0
450
        0
451
        0
460
0.0
461
0.0
452
        0
462
0.0
453
        0
470

  0
ENDBLK
  5
C6
330
C3
100
AcDbEntity
  8
0
100
AcDbBlockEnd
  0
ENDSEC
  0
SECTION
  2
ENTITIES
  0
LWPOLYLINE
  5
79
330
70
100
AcDbEntity
  8
0
100
AcDbPolyline
 90
        4
 70
     1
 43
0.0
 10
4.842177963253051
 20
-8.855018555197037
 10
4.728931111989048
 20
-8.855018555197037
 10
4.728931111989048
 20
-5.067282503262396
 10
4.842177963253051
 20
-5.067282503262396
  0
SPLINE
  5
7A
330
70
100
AcDbEntity
  8
0
100
AcDbSpline
210
0.0
220
0.0
230
1.0
 70
    11
 71
     3
 72
    23
 73
    19
 74
     0
 42
0.000000001
 43
0.0000000001
 40
0.0
 40
0.0
 40
0.0
 40
0.0
 40
1.0
 40
1.0
 40
1.0
 40
2.0
 40
2.0
 40
2.0
 40
3.0
 40
3.0
 40
3.0
 40
4.0
 40
4.0
 40
4.0
 40
5.0
 40
5.0
 40
5.0
 40
6.0
 40
6.0
 40
6.0
 40
6.0
 10
4.785547687605696
 20
-5.076107040831667
 30
0.0
 10
4.780672877494066
 20
-5.076107040831667
 30
0.0
 10
4.776728243163455
 20
-5.072145181023628
 30
0.0
 10
4.776728243163455
 20
-5.067287596389426
 30
0.0
 10
4.776728243163455
 20
-5.067287596389426
 30
0.0
 10
4.776728243163455
 20
-1.942982177248629
 30
0.0
 10
4.776728243163455
 20
-1.942982177248629
 30
0.0
 10
4.776728243163455
 20
-1.938107367137
 30
0.0
 10
4.780672877494066
 20
-1.934162732806388
 30
0.0
 10
4.785547687605696
 20
-1.934162732806388
 30
0.0
 10
4.790422497717324
 20
-1.934162732806388
 30
0.0
 10
4.794367132047934
 20
-1.938107367137
 30
0.0
 10
4.794367132047934
 20
-1.942982177248629
 30
0.0
 10
4.794367132047934
 20
-1.942982177248629
 30
0.0
 10
4.794367132047934
 20
-5.067287596389426
 30
0.0
 10
4.794367132047934
 20
-5.067287596389426
 30
0.0
 10
4.794367132047934
 20
-5.072145181023628
 30
0.0
 10
4.790422497717324
 20
-5.076107040831667
 30
0.0
 10
4.785547687605696
 20
-5.076107040831667
 30
0.0
  0
LWPOLYLINE
  5
7B
330
70
100
AcDbEntity
  8
0
100
AcDbPolyline
 90
        4
 70
     1
 43
0.0
 10
5.146889197475992
 20
-1.887870032310864
 10
4.455362299563677
 20
-1.887870032310864
 10
4.455362299563677
 20
-1.671014555241883
 10
5.146889197475992
 20
-1.671014555241883
  0
LWPOLYLINE
  5
7C
330
70
100
AcDbEntity
  8
0
100
AcDbPolyline
 90
        4
 70
     1
 43
0.0
 10
4.801125748519818
 20
-1.946528727805836
 10
4.77375963064333
 20
-1.946528727805836
 10
4.77375963064333
 20
-1.887870032310864
 10
4.801125748519818
 20
-1.887870032310864
  0
LWPOLYLINE
  5
7E
330
70
100
AcDbEntity
  8
0
100
AcDbPolyline
 90
        2
 70
     0
 43
0.0
 10
9.896542550717381
 20
0.6237411345957895
 10
9.896542550717381
 20
0.6237411345957895
  0
LINE
  5
7F
330
70
100
AcDbEntity
  8
0
100
AcDbLine
 10
4.728931111989048
 20
-8.923776593513721
 30
0.0
 11
4.842177963253051
 21
-8.923776593513721
 31
0.0
  0
LWPOLYLINE
  5
90
330
70
100
AcDbEntity
  8
0
100
AcDbPolyline
 90
        2
 70
     0
 43
0.0
 10
10.89632978450998
 20
-8.44640070710828
 10
10.89632978450998
 20
-8.44640070710828
  0
HATCH
  5
91
330
70
100
AcDbEntity
  8
Livello 2
 62
   250
420
  1907995
440
 33554687
100
AcDbHatch
 10
0.0
 20
0.0
 30
0.0
210
0.0
220
0.0
230
1.0
  2
SOLID
 70
     1
 71
     1
 91
        1
 92
        3
 72
     0
 73
     1
 93
        1
 10
10.89632978450998
 20
-8.44640070710828
 97
        0
 75
     2
 76
     1
 98
        1
 10
0.0
 20
0.0
450
        0
451
        0
460
0.0
461
0.0
452
        0
462
0.0
453
        0
470

  0
LINE
  5
92
330
70
100
AcDbEntity
  8
0
100
AcDbLine
 10
5.465053190123131
 20
-1.671014555241883
 30
0.0
 11
5.465053190123131
 21
-8.855018555197037
 31
0.0
  0
LWPOLYLINE
  5
BB
330
70
100
AcDbEntity
  8
0
100
AcDbPolyline
 90
        2
 70
     0
 43
0.0
 10
7.500656026493687
 20
-2.501719857530439
 10
7.500656026493687
 20
-2.501719857530439
  0
HATCH
  5
BC
330
70
100
AcDbEntity
  8
Livello 2
 62
   250
420
  1907995
440
 33554687
100
AcDbHatch
 10
0.0
 20
0.0
 30
0.0
210
0.0
220
0.0
230
1.0
  2
SOLID
 70
     1
 71
     1
 91
        1
 92
        3
 72
     0
 73
     1
 93
        1
 10
7.500656026493687
 20
-2.501719857530439
 97
        0
 75
     2
 76
     1
 98
        1
 10
0.0
 20
0.0
450
        0
451
        0
460
0.0
461
0.0
452
        0
462
0.0
453
        0
470

  0
LINE
  5
BD
330
70
100
AcDbEntity
  8
0
100
AcDbLine
 10
4.455362299563677
 20
-1.510939715934165
 30
0.0
 11
5.146889197475992
 21
-1.510939715934165
 31
0.0
  0
LINE
  5
BE
330
70
100
AcDbEntity
  8
0
100
AcDbLine
 10
4.348173757778261
 20
-5.076107040831667
 30
0.0
 11
4.348173757778261
 21
-8.855018555197037
 31
0.0
  0
MTEXT
  5
118
330
70
100
AcDbEntity
  8
0
100
AcDbMText
 10
2.964093688012377
 20
-6.74437244248036
 30
0.0
 40
0.2
 41
1.7148231117752
 46
0.0
 71
     1
 72
     5
  1
705 mm
 73
     1
 44
1.0
1001
ACAD
1000
ACAD_MTEXT_COLUMN_INFO_BEGIN
1070
    75
1070
     2
1070
    79
1070
     0
1070
    76
1070
     1
1070
    78
1070
     0
1070
    48
1040
1.7148231117752
1070
    49
1040
1.0
1070
    50
1070
     1
1040
0.0
1000
ACAD_MTEXT_COLUMN_INFO_END
  0
MTEXT
  5
11F
330
70
100
AcDbEntity
  8
0
100
AcDbMText
 10
5.792353231044836
 20
-5.753585800267194
 30
0.0
 40
0.2
 41
1.7148231117752
 46
0.0
 71
     1
 72
     5
  1
2250 mm
 73
     1
 44
1.0
1001
ACAD
1000
ACAD_MTEXT_COLUMN_INFO_BEGIN
1070
    75
1070
     2
1070
    79
1070
     0
1070
    76
1070
     1
1070
    78
1070
     0
1070
    48
1040
1.7148231117752
1070
    49
1040
1.0
1070
    50
1070
     1
1040
0.0
1000
ACAD_MTEXT_COLUMN_INFO_END
  0
MTEXT
  5
125
330
70
100
AcDbEntity
  8
0
100
AcDbMText
 10
4.699453890623269
 20
-9.36821561876504
 30
0.0
 40
0.2
 41
1.7148231117752
 46
0.0
 71
     1
 72
     5
  1
15 mm
 73
     1
 44
1.0
1001
ACAD
1000
ACAD_MTEXT_COLUMN_INFO_BEGIN
1070
    75
1070
     2
1070
    79
1070
     0
1070
    76
1070
     1
1070
    78
1070
     0
1070
    48
1040
1.7148231117752
1070
    49
1040
1.0
1070
    50
1070
     1
1040
0.0
1000
ACAD_MTEXT_COLUMN_INFO_END
  0
MTEXT
  5
12B
330
70
100
AcDbEntity
  8
0
100
AcDbMText
 10
4.505349400152605
 20
-1.210407747974775
 30
0.0
 40
0.2
 41
1.7148231117752
 46
0.0
 71
     1
 72
     5
  1
80 mm
 73
     1
 44
1.0
1001
ACAD
1000
ACAD_MTEXT_COLUMN_INFO_BEGIN
1070
    75
1070
     2
1070
    79
1070
     0
1070
    76
1070
     1
1070
    78
1070
     0
1070
    48
1040
1.7148231117752
1070
    49
1040
1.0
1070
    50
1070
     1
1040
0.0
1000
ACAD_MTEXT_COLUMN_INFO_END
  0
ENDSEC
  0
SECTION
  2
OBJECTS
  0
DICTIONARY
  5
C
330
0
100
AcDbDictionary
281
     1
  3
ACAD_CIP_PREVIOUS_PRODUCT_INFO
350
115
  3
ACAD_COLOR
350
63
  3
ACAD_DETAILVIEWSTYLE
350
6A
  3
ACAD_GROUP
350
D
  3
ACAD_LAYOUT
350
62
  3
ACAD_MATERIAL
350
10
  3
ACAD_MLEADERSTYLE
350
66
  3
ACAD_MLINESTYLE
350
5F
  3
ACAD_PLOTSETTINGS
350
61
  3
ACAD_PLOTSTYLENAME
350
E
  3
ACAD_SCALELIST
350
42
  3
ACAD_SECTIONVIEWSTYLE
350
68
  3
ACAD_TABLESTYLE
350
64
  3
ACAD_VISUALSTYLE
350
29
  3
ACDB_RECOMPOSE_DATA
350
167
  3
AcDbVariableDictionary
350
D2
  0
XRECORD
  5
115
102
{ACAD_REACTORS
330
C
102
}
330
C
100
AcDbXrecord
280
     1
300
ACD
300
2019
300
ACD_F_S
  0
DICTIONARY
  5
63
102
{ACAD_REACTORS
330
C
102
}
330
C
100
AcDbDictionary
281
     1
  0
DICTIONARY
  5
6A
102
{ACAD_REACTORS
330
C
102
}
330
C
100
AcDbDictionary
281
     1
  3
Imperial24
350
6B
  0
DICTIONARY
  5
D
102
{ACAD_REACTORS
330
C
102
}
330
C
100
AcDbDictionary
281
     1
  0
DICTIONARY
  5
62
102
{ACAD_REACTORS
330
C
102
}
330
C
100
AcDbDictionary
281
     1
  3
Layout1
350
6F
  3
Layout2
350
77
  3
Model
350
73
  0
DICTIONARY
  5
10
102
{ACAD_REACTORS
330
C
102
}
330
C
100
AcDbDictionary
281
     1
  3
ByBlock
350
19
  3
ByLayer
350
11
  3
Global
350
21
  0
DICTIONARY
  5
66
102
{ACAD_REACTORS
330
C
102
}
330
C
100
AcDbDictionary
281
     1
  3
Standard
350
67
  0
DICTIONARY
  5
5F
102
{ACAD_REACTORS
330
C
102
}
330
C
100
AcDbDictionary
281
     1
  3
Standard
350
60
  0
DICTIONARY
  5
61
102
{ACAD_REACTORS
330
C
102
}
330
C
100
AcDbDictionary
281
     1
  0
ACDBDICTIONARYWDFLT
  5
E
102
{ACAD_REACTORS
330
C
102
}
330
C
100
AcDbDictionary
281
     1
  3
Normal
350
F
100
AcDbDictionaryWithDefault
340
F
  0
DICTIONARY
  5
42
102
{ACAD_REACTORS
330
C
102
}
330
C
100
AcDbDictionary
281
     1
  3
A0
350
43
  3
A1
350
44
  3
A2
350
45
  3
A3
350
46
  3
A4
350
47
  3
A5
350
48
  3
A6
350
49
  3
A7
350
4A
  3
A8
350
4B
  3
A9
350
4C
  3
B0
350
4D
  3
B1
350
4E
  3
B2
350
4F
  3
B3
350
50
  3
B4
350
51
  3
B5
350
52
  3
B6
350
53
  0
DICTIONARY
  5
68
102
{ACAD_REACTORS
330
C
102
}
330
C
100
AcDbDictionary
281
     1
  3
Imperial24
350
69
  0
DICTIONARY
  5
64
102
{ACAD_REACTORS
330
C
102
}
330
C
100
AcDbDictionary
281
     1
  3
Standard
350
65
  0
DICTIONARY
  5
29
102
{ACAD_REACTORS
330
C
102
}
330
C
100
AcDbDictionary
281
     1
  3
2dWireframe
350
2F
  3
Basic
350
2E
  3
Brighten
350
35
  3
ColorChange
350
39
  3
Conceptual
350
32
  3
Dim
350
34
  3
EdgeColorOff
350
41
  3
Facepattern
350
38
  3
Flat
350
2A
  3
FlatWithEdges
350
2B
  3
Gouraud
350
2C
  3
GouraudWithEdges
350
2D
  3
Hidden
350
31
  3
JitterOff
350
3F
  3
Linepattern
350
37
  3
OverhangOff
350
40
  3
Realistic
350
33
  3
Shaded
350
3E
  3
Shaded with edges
350
3D
  3
Shades of Gray
350
3A
  3
Sketchy
350
3B
  3
Thicken
350
36
  3
Wireframe
350
30
  3
X-Ray
350
3C
  0
XRECORD
  5
167
102
{ACAD_REACTORS
330
C
102
}
330
C
100
AcDbXrecord
280
     1
 90
        1
330
65
330
118
330
11F
330
125
330
12B
  0
DICTIONARY
  5
D2
102
{ACAD_REACTORS
330
C
102
}
330
C
100
AcDbDictionary
281
     1
  3
CANNOSCALE
350
D7
  3
CMLEADERSTYLE
350
D4
  3
CTABLESTYLE
350
D3
  3
CVIEWDETAILSTYLE
350
D5
  3
CVIEWSECTIONSTYLE
350
D6
  3
XCLIPFRAME
350
12C
  0
ACDBDETAILVIEWSTYLE
  5
6B
102
{ACAD_XDICTIONARY
360
19D
102
}
102
{ACAD_REACTORS
330
6A
102
}
330
6A
100
AcDbModelDocViewStyle
 70
     0
  3
Imperial24
290
     0
100
AcDbDetailViewStyle
 70
     0
 71
     0
 90
        3
 71
     1
340
55
 62
   256
 40
0.24
340
0
 62
   256
 40
0.24
300

 40
0.36
280
     3
 71
     2
340
5D
 90
       25
 62
   256
 71
     3
340
55
 62
   256
 40
0.24
 90
        1
 40
0.75
 90
        1
300
%<\AcVar ViewType \f "%tc1">% %<\AcVar ViewDetailId>%\PSCALE %<\AcVar ViewScale \f "%sn">%
 71
     4
340
5D
 90
       25
 62
   256
340
5D
 90
       25
 62
   256
280
     0
  0
LAYOUT
  5
6F
102
{ACAD_REACTORS
330
62
102
}
330
62
100
AcDbPlotSettings
  1

  2

  4

  6

 40
0.0
 41
0.0
 42
0.0
 43
0.0
 44
0.0
 45
0.0
 46
0.0
 47
0.0
 48
0.0
 49
0.0
140
0.0
141
0.0
142
1.0
143
1.0
 70
   688
 72
     0
 73
     0
 74
     5
  7

 75
    16
147
1.0
 76
     0
 77
     2
 78
   300
148
0.0
149
0.0
100
AcDbLayout
  1
Layout1
 70
     1
 71
     1
 10
0.0
 20
0.0
 11
12.0
 21
9.0
 12
0.0
 22
0.0
 32
0.0
 14
1.000000000000000E+20
 24
1.000000000000000E+20
 34
1.000000000000000E+20
 15
-1.000000000000000E+20
 25
-1.000000000000000E+20
 35
-1.000000000000000E+20
146
0.0
 13
0.0
 23
0.0
 33
0.0
 16
1.0
 26
0.0
 36
0.0
 17
0.0
 27
1.0
 37
0.0
 76
     0
330
6C
  0
LAYOUT
  5
77
102
{ACAD_REACTORS
330
62
102
}
330
62
100
AcDbPlotSettings
  1

  2

  4

  6

 40
0.0
 41
0.0
 42
0.0
 43
0.0
 44
0.0
 45
0.0
 46
0.0
 47
0.0
 48
0.0
 49
0.0
140
0.0
141
0.0
142
1.0
143
1.0
 70
   688
 72
     0
 73
     0
 74
     5
  7

 75
    16
147
1.0
 76
     0
 77
     2
 78
   300
148
0.0
149
0.0
100
AcDbLayout
  1
Layout2
 70
     1
 71
     2
 10
0.0
 20
0.0
 11
12.0
 21
9.0
 12
0.0
 22
0.0
 32
0.0
 14
0.0
 24
0.0
 34
0.0
 15
0.0
 25
0.0
 35
0.0
146
0.0
 13
0.0
 23
0.0
 33
0.0
 16
1.0
 26
0.0
 36
0.0
 17
0.0
 27
1.0
 37
0.0
 76
     0
330
74
  0
LAYOUT
  5
73
102
{ACAD_REACTORS
330
62
102
}
330
62
100
AcDbPlotSettings
  1

  2

  4

  6

 40
0.0
 41
0.0
 42
0.0
 43
0.0
 44
0.0
 45
0.0
 46
0.0
 47
0.0
 48
0.0
 49
0.0
140
0.0
141
0.0
142
1.0
143
1.0
 70
  1712
 72
     0
 73
     0
 74
     0
  7

 75
     0
147
1.0
 76
     0
 77
     2
 78
   300
148
0.0
149
0.0
100
AcDbLayout
  1
Model
 70
     1
 71
     0
 10
0.0
 20
0.0
 11
12.0
 21
9.0
 12
0.0
 22
0.0
 32
0.0
 14
0.0
 24
0.0
 34
0.0
 15
0.0
 25
0.0
 35
0.0
146
0.0
 13
0.0
 23
0.0
 33
0.0
 16
1.0
 26
0.0
 36
0.0
 17
0.0
 27
1.0
 37
0.0
 76
     0
330
70
331
57
  0
MATERIAL
  5
19
102
{ACAD_XDICTIONARY
360
1A
102
}
102
{ACAD_REACTORS
330
10
102
}
330
10
100
AcDbMaterial
  1
ByBlock
 72
     0
 43
0.0208333333333333
 43
0.0
 43
0.0
 43
0.0
 43
0.0
 43
0.0208333333333333
 43
0.0
 43
0.0
 43
0.0
 43
0.0
 43
1.0
 43
0.0
 43
0.0
 43
0.0
 43
0.0
 43
1.0
 77
     0
 47
0.0208333333333333
 47
0.0
 47
0.0
 47
0.0
 47
0.0
 47
0.0208333333333333
 47
0.0
 47
0.0
 47
0.0
 47
0.0
 47
1.0
 47
0.0
 47
0.0
 47
0.0
 47
0.0
 47
1.0
171
     0
 49
0.0208333333333333
 49
0.0
 49
0.0
 49
0.0
 49
0.0
 49
0.0208333333333333
 49
0.0
 49
0.0
 49
0.0
 49
0.0
 49
1.0
 49
0.0
 49
0.0
 49
0.0
 49
0.0
 49
1.0
175
     0
142
0.0208333333333333
142
0.0
142
0.0
142
0.0
142
0.0
142
0.0208333333333333
142
0.0
142
0.0
142
0.0
142
0.0
142
1.0
142
0.0
142
0.0
142
0.0
142
0.0
142
1.0
179
     0
144
0.0208333333333333
144
0.0
144
0.0
144
0.0
144
0.0
144
0.0208333333333333
144
0.0
144
0.0
144
0.0
144
0.0
144
1.0
144
0.0
144
0.0
144
0.0
144
0.0
144
1.0
147
0.0208333333333333
147
0.0
147
0.0
147
0.0
147
0.0
147
0.0208333333333333
147
0.0
147
0.0
147
0.0
147
0.0
147
1.0
147
0.0
147
0.0
147
0.0
147
0.0
147
1.0
  0
MATERIAL
  5
11
102
{ACAD_XDICTIONARY
360
12
102
}
102
{ACAD_REACTORS
330
10
102
}
330
10
100
AcDbMaterial
  1
ByLayer
 72
     0
 43
0.0208333333333333
 43
0.0
 43
0.0
 43
0.0
 43
0.0
 43
0.0208333333333333
 43
0.0
 43
0.0
 43
0.0
 43
0.0
 43
1.0
 43
0.0
 43
0.0
 43
0.0
 43
0.0
 43
1.0
 77
     0
 47
0.0208333333333333
 47
0.0
 47
0.0
 47
0.0
 47
0.0
 47
0.0208333333333333
 47
0.0
 47
0.0
 47
0.0
 47
0.0
 47
1.0
 47
0.0
 47
0.0
 47
0.0
 47
0.0
 47
1.0
171
     0
 49
0.0208333333333333
 49
0.0
 49
0.0
 49
0.0
 49
0.0
 49
0.0208333333333333
 49
0.0
 49
0.0
 49
0.0
 49
0.0
 49
1.0
 49
0.0
 49
0.0
 49
0.0
 49
0.0
 49
1.0
175
     0
142
0.0208333333333333
142
0.0
142
0.0
142
0.0
142
0.0
142
0.0208333333333333
142
0.0
142
0.0
142
0.0
142
0.0
142
1.0
142
0.0
142
0.0
142
0.0
142
0.0
142
1.0
179
     0
144
0.0208333333333333
144
0.0
144
0.0
144
0.0
144
0.0
144
0.0208333333333333
144
0.0
144
0.0
144
0.0
144
0.0
144
1.0
144
0.0
144
0.0
144
0.0
144
0.0
144
1.0
147
0.0208333333333333
147
0.0
147
0.0
147
0.0
147
0.0
147
0.0208333333333333
147
0.0
147
0.0
147
0.0
147
0.0
147
1.0
147
0.0
147
0.0
147
0.0
147
0.0
147
1.0
  0
MATERIAL
  5
21
102
{ACAD_XDICTIONARY
360
22
102
}
102
{ACAD_REACTORS
330
10
102
}
330
10
100
AcDbMaterial
  1
Global
 72
     0
 43
0.0208333333333333
 43
0.0
 43
0.0
 43
0.0
 43
0.0
 43
0.0208333333333333
 43
0.0
 43
0.0
 43
0.0
 43
0.0
 43
1.0
 43
0.0
 43
0.0
 43
0.0
 43
0.0
 43
1.0
 77
     0
 47
0.0208333333333333
 47
0.0
 47
0.0
 47
0.0
 47
0.0
 47
0.0208333333333333
 47
0.0
 47
0.0
 47
0.0
 47
0.0
 47
1.0
 47
0.0
 47
0.0
 47
0.0
 47
0.0
 47
1.0
171
     0
 49
0.0208333333333333
 49
0.0
 49
0.0
 49
0.0
 49
0.0
 49
0.0208333333333333
 49
0.0
 49
0.0
 49
0.0
 49
0.0
 49
1.0
 49
0.0
 49
0.0
 49
0.0
 49
0.0
 49
1.0
175
     0
142
0.0208333333333333
142
0.0
142
0.0
142
0.0
142
0.0
142
0.0208333333333333
142
0.0
142
0.0
142
0.0
142
0.0
142
1.0
142
0.0
142
0.0
142
0.0
142
0.0
142
1.0
179
     0
144
0.0208333333333333
144
0.0
144
0.0
144
0.0
144
0.0
144
0.0208333333333333
144
0.0
144
0.0
144
0.0
144
0.0
144
1.0
144
0.0
144
0.0
144
0.0
144
0.0
144
1.0
147
0.0208333333333333
147
0.0
147
0.0
147
0.0
147
0.0
147
0.0208333333333333
147
0.0
147
0.0
147
0.0
147
0.0
147
1.0
147
0.0
147
0.0
147
0.0
147
0.0
147
1.0
  0
MLEADERSTYLE
  5
67
102
{ACAD_XDICTIONARY
360
199
102
}
102
{ACAD_REACTORS
330
66
102
}
330
66
100
AcDbMLeaderStyle
170
     2
171
     1
172
     0
 90
        2
 40
0.0
 41
0.0
173
     1
 91
-1056964608
340
5B
 92
       -2
290
     1
 42
0.09
291
     1
 43
0.36
  3
Standard
 44
0.18
300

342
55
174
     1
178
     6
175
     1
176
     0
 93
-1056964608
 45
0.18
292
     0
297
     0
 46
0.18
 94
-1056964608
 47
1.0
 49
1.0
140
1.0
293
     1
141
0.0
294
     1
177
     0
142
1.0
295
     0
296
     0
143
0.125
1001
ACAD_MLEADERVER
1070
     2
  0
MLINESTYLE
  5
60
102
{ACAD_REACTORS
330
5F
102
}
330
5F
100
AcDbMlineStyle
  2
STANDARD
 70
     0
  3

 62
   256
 51
90.0
 52
90.0
 71
     2
 49
0.5
 62
   256
  6
BYLAYER
 49
-0.5
 62
   256
  6
BYLAYER
  0
ACDBPLACEHOLDER
  5
F
102
{ACAD_REACTORS
330
E
102
}
330
E
  0
SCALE
  5
43
102
{ACAD_REACTORS
330
42
102
}
330
42
100
AcDbScale
 70
     0
300
1:1
140
1.0
141
1.0
290
     1
  0
SCALE
  5
44
102
{ACAD_REACTORS
330
42
102
}
330
42
100
AcDbScale
 70
     0
300
1/128" = 1'-0"
140
0.0078125
141
12.0
290
     0
  0
SCALE
  5
45
102
{ACAD_REACTORS
330
42
102
}
330
42
100
AcDbScale
 70
     0
300
1/64" = 1'-0"
140
0.015625
141
12.0
290
     0
  0
SCALE
  5
46
102
{ACAD_REACTORS
330
42
102
}
330
42
100
AcDbScale
 70
     0
300
1/32" = 1'-0"
140
0.03125
141
12.0
290
     0
  0
SCALE
  5
47
102
{ACAD_REACTORS
330
42
102
}
330
42
100
AcDbScale
 70
     0
300
1/16" = 1'-0"
140
0.0625
141
12.0
290
     0
  0
SCALE
  5
48
102
{ACAD_REACTORS
330
42
102
}
330
42
100
AcDbScale
 70
     0
300
3/32" = 1'-0"
140
0.09375
141
12.0
290
     0
  0
SCALE
  5
49
102
{ACAD_REACTORS
330
42
102
}
330
42
100
AcDbScale
 70
     0
300
1/8" = 1'-0"
140
0.125
141
12.0
290
     0
  0
SCALE
  5
4A
102
{ACAD_REACTORS
330
42
102
}
330
42
100
AcDbScale
 70
     0
300
3/16" = 1'-0"
140
0.1875
141
12.0
290
     0
  0
SCALE
  5
4B
102
{ACAD_REACTORS
330
42
102
}
330
42
100
AcDbScale
 70
     0
300
1/4" = 1'-0"
140
0.25
141
12.0
290
     0
  0
SCALE
  5
4C
102
{ACAD_REACTORS
330
42
102
}
330
42
100
AcDbScale
 70
     0
300
3/8" = 1'-0"
140
0.375
141
12.0
290
     0
  0
SCALE
  5
4D
102
{ACAD_REACTORS
330
42
102
}
330
42
100
AcDbScale
 70
     0
300
1/2" = 1'-0"
140
0.5
141
12.0
290
     0
  0
SCALE
  5
4E
102
{ACAD_REACTORS
330
42
102
}
330
42
100
AcDbScale
 70
     0
300
3/4" = 1'-0"
140
0.75
141
12.0
290
     0
  0
SCALE
  5
4F
102
{ACAD_REACTORS
330
42
102
}
330
42
100
AcDbScale
 70
     0
300
1" = 1'-0"
140
1.0
141
12.0
290
     0
  0
SCALE
  5
50
102
{ACAD_REACTORS
330
42
102
}
330
42
100
AcDbScale
 70
     0
300
1-1/2" = 1'-0"
140
1.5
141
12.0
290
     0
  0
SCALE
  5
51
102
{ACAD_REACTORS
330
42
102
}
330
42
100
AcDbScale
 70
     0
300
3" = 1'-0"
140
3.0
141
12.0
290
     0
  0
SCALE
  5
52
102
{ACAD_REACTORS
330
42
102
}
330
42
100
AcDbScale
 70
     0
300
6" = 1'-0"
140
6.0
141
12.0
290
     0
  0
SCALE
  5
53
102
{ACAD_REACTORS
330
42
102
}
330
42
100
AcDbScale
 70
     0
300
1'-0" = 1'-0"
140
12.0
141
12.0
290
     0
  0
ACDBSECTIONVIEWSTYLE
  5
69
102
{ACAD_XDICTIONARY
360
19B
102
}
102
{ACAD_REACTORS
330
68
102
}
330
68
100
AcDbModelDocViewStyle
 70
     0
  3
Imperial24
290
     0
100
AcDbSectionViewStyle
 70
     0
 71
     0
 90
       78
 71
     1
340
55
 62
   256
 40
0.24
340
0
340
0
 62
   256
 40
0.24
300
I, O, Q, S, X, Z
 40
0.48
 90
        3
 40
0.18
 90
        1
 71
     2
340
5D
 90
       25
 62
   256
340
5D
 90
       50
 62
   256
 40
0.24
 40
0.0
 40
0.24
 71
     3
340
55
 62
   256
 40
0.24
 90
        1
 40
0.75
 90
        1
300
%<\AcVar ViewType \f "%tc1">% %<\AcVar ViewSectionStartId>%-%<\AcVar ViewSectionEndId>%\PSCALE %<\AcVar ViewScale \f "%sn">%
 71
     4
 62
   256
 62
   257
300
ANSI31
 40
1.0
 90
        0
290
     0
290
     0
 90
        6
 40
0.0
 40
1.570796326794896
 40
0.2617993877991494
 40
1.308996938995747
 40
-0.2617993877991494
 40
1.832595714594045
  0
TABLESTYLE
  5
65
102
{ACAD_XDICTIONARY
360
D8
102
}
102
{ACAD_REACTORS
330
64
102
}
330
64
100
AcDbTableStyle
  3
Standard
 70
     0
 71
     0
 40
0.06
 41
0.06
280
     0
281
     0
  7
Standard
140
0.18
170
     2
 62
     0
 63
     7
283
     0
 90
      512
 91
        0
  1

274
    -2
284
     1
 64
     0
275
    -2
285
     1
 65
     0
276
    -2
286
     1
 66
     0
277
    -2
287
     1
 67
     0
278
    -2
288
     1
 68
     0
279
    -2
289
     1
 69
     0
  7
Standard
140
0.25
170
     5
 62
     0
 63
     7
283
     0
 90
      512
 91
        0
  1

274
    -2
284
     1
 64
     0
275
    -2
285
     1
 65
     0
276
    -2
286
     1
 66
     0
277
    -2
287
     1
 67
     0
278
    -2
288
     1
 68
     0
279
    -2
289
     1
 69
     0
  7
Standard
140
0.18
170
     5
 62
     0
 63
     7
283
     0
 90
      512
 91
        0
  1

274
    -2
284
     1
 64
     0
275
    -2
285
     1
 65
     0
276
    -2
286
     1
 66
     0
277
    -2
287
     1
 67
     0
278
    -2
288
     1
 68
     0
279
    -2
289
     1
 69
     0
  0
VISUALSTYLE
  5
2F
102
{ACAD_XDICTIONARY
360
172
102
}
102
{ACAD_REACTORS
330
29
102
}
330
29
100
AcDbVisualStyle
  2
2dWireframe
 70
     4
 71
     0
 72
     2
 73
     0
 90
        0
 40
-0.6
 41
-30.0
 62
     5
 63
     7
421
 16777215
 74
     1
 91
        4
 64
     7
 65
   257
 75
     1
175
     1
 42
1.0
 92
        0
 66
   257
 43
1.0
 76
     1
 77
     6
 78
     2
 67
     7
 79
     5
170
     0
171
     0
290
     0
174
     0
 93
        1
 44
0.0
173
     0
291
     0
 45
0.0
1001
ACAD
1000
AcDbSavedByObjectVersion
1070
     0
  0
VISUALSTYLE
  5
2E
102
{ACAD_XDICTIONARY
360
170
102
}
102
{ACAD_REACTORS
330
29
102
}
330
29
100
AcDbVisualStyle
  2
Basic
 70
     7
 71
     1
 72
     0
 73
     1
 90
        0
 40
-0.6
 41
-30.0
 62
     5
 63
     7
421
 16777215
 74
     0
 91
        4
 64
     7
 65
   257
 75
     1
175
     1
 42
1.0
 92
        8
 66
     7
 43
1.0
 76
     1
 77
     6
 78
     2
 67
     7
 79
     5
170
     0
171
     0
290
     0
174
     0
 93
        1
 44
0.0
173
     0
291
     1
 45
0.0
1001
ACAD
1000
AcDbSavedByObjectVersion
1070
     0
  0
VISUALSTYLE
  5
35
102
{ACAD_XDICTIONARY
360
17E
102
}
102
{ACAD_REACTORS
330
29
102
}
330
29
100
AcDbVisualStyle
  2
Brighten
 70
    12
 71
     2
 72
     2
 73
     0
 90
        0
 40
-0.6
 41
-30.0
 62
     5
 63
     7
421
 16777215
 74
     1
 91
        4
 64
     7
 65
   257
 75
     1
175
     1
 42
1.0
 92
        8
 66
     7
 43
1.0
 76
     1
 77
     6
 78
     2
 67
     7
 79
     5
170
     0
171
     0
290
     0
174
     0
 93
        1
 44
50.0
173
     0
291
     1
 45
0.0
1001
ACAD
1000
AcDbSavedByObjectVersion
1070
     0
  0
VISUALSTYLE
  5
39
102
{ACAD_XDICTIONARY
360
186
102
}
102
{ACAD_REACTORS
330
29
102
}
330
29
100
AcDbVisualStyle
  2
ColorChange
 70
    16
 71
     2
 72
     2
 73
     3
 90
        0
 40
-0.6
 41
-30.0
 62
     5
 63
     8
421
  8421504
 74
     1
 91
        4
 64
     7
 65
   257
 75
     1
175
     1
 42
1.0
 92
        8
 66
     8
424
  8421504
 43
1.0
 76
     1
 77
     6
 78
     2
 67
     7
 79
     5
170
     0
171
     0
290
     0
174
     0
 93
        1
 44
0.0
173
     0
291
     1
 45
0.0
1001
ACAD
1000
AcDbSavedByObjectVersion
1070
     0
  0
VISUALSTYLE
  5
32
102
{ACAD_XDICTIONARY
360
178
102
}
102
{ACAD_REACTORS
330
29
102
}
330
29
100
AcDbVisualStyle
  2
Conceptual
 70
     9
 71
     3
 72
     2
 73
     0
 90
        0
 40
-0.6
 41
-30.0
 62
     5
 63
     7
421
 16777215
 74
     2
 91
        2
 64
     7
 65
   257
 75
     1
175
     1
 42
179.0
 92
        8
 66
     7
 43
1.0
 76
     1
 77
     6
 78
     2
 67
     7
 79
     3
170
     0
171
     0
290
     0
174
     0
 93
        1
 44
0.0
173
     0
291
     0
 45
0.0
1001
ACAD
1000
AcDbSavedByObjectVersion
1070
     0
  0
VISUALSTYLE
  5
34
102
{ACAD_XDICTIONARY
360
17C
102
}
102
{ACAD_REACTORS
330
29
102
}
330
29
100
AcDbVisualStyle
  2
Dim
 70
    11
 71
     2
 72
     2
 73
     0
 90
        0
 40
-0.6
 41
-30.0
 62
     5
 63
     7
421
 16777215
 74
     1
 91
        4
 64
     7
 65
   257
 75
     1
175
     1
 42
1.0
 92
        8
 66
     7
 43
1.0
 76
     1
 77
     6
 78
     2
 67
     7
 79
     5
170
     0
171
     0
290
     0
174
     0
 93
        1
 44
-50.0
173
     0
291
     1
 45
0.0
1001
ACAD
1000
AcDbSavedByObjectVersion
1070
     0
  0
VISUALSTYLE
  5
41
102
{ACAD_XDICTIONARY
360
196
102
}
102
{ACAD_REACTORS
330
29
102
}
330
29
100
AcDbVisualStyle
  2
EdgeColorOff
 70
    22
 71
     2
 72
     2
 73
     0
 90
        0
 40
-0.6
 41
-30.0
 62
     5
 63
     7
421
 16777215
 74
     1
 91
        4
 64
     7
 65
   257
 75
     1
175
     1
 42
1.0
 92
        8
 66
     7
 43
1.0
 76
     1
 77
     6
 78
     2
 67
     7
 79
     5
170
     0
171
     0
290
     0
174
     0
 93
        1
 44
0.0
173
     0
291
     1
 45
0.0
1001
ACAD
1000
AcDbSavedByObjectVersion
1070
     0
  0
VISUALSTYLE
  5
38
102
{ACAD_XDICTIONARY
360
184
102
}
102
{ACAD_REACTORS
330
29
102
}
330
29
100
AcDbVisualStyle
  2
Facepattern
 70
    15
 71
     2
 72
     2
 73
     0
 90
        0
 40
-0.6
 41
-30.0
 62
     5
 63
     7
421
 16777215
 74
     1
 91
        4
 64
     7
 65
   257
 75
     1
175
     1
 42
1.0
 92
        8
 66
     7
 43
1.0
 76
     1
 77
     6
 78
     2
 67
     7
 79
     5
170
     0
171
     0
290
     0
174
     0
 93
        1
 44
0.0
173
     0
291
     1
 45
0.0
1001
ACAD
1000
AcDbSavedByObjectVersion
1070
     0
  0
VISUALSTYLE
  5
2A
102
{ACAD_XDICTIONARY
360
168
102
}
102
{ACAD_REACTORS
330
29
102
}
330
29
100
AcDbVisualStyle
  2
Flat
 70
     0
 71
     2
 72
     1
 73
     1
 90
        2
 40
-0.6
 41
30.0
 62
     5
 63
     7
421
 16777215
 74
     0
 91
        0
 64
     7
 65
   257
 75
     1
175
     1
 42
1.0
 92
        8
 66
     7
 43
1.0
 76
     1
 77
     6
 78
     2
 67
     7
 79
     5
170
     0
171
     0
290
     0
174
     0
 93
       13
 44
0.0
173
     0
291
     1
 45
0.0
1001
ACAD
1000
AcDbSavedByObjectVersion
1070
     0
  0
VISUALSTYLE
  5
2B
102
{ACAD_XDICTIONARY
360
16A
102
}
102
{ACAD_REACTORS
330
29
102
}
330
29
100
AcDbVisualStyle
  2
FlatWithEdges
 70
     1
 71
     2
 72
     1
 73
     1
 90
        2
 40
-0.6
 41
30.0
 62
     5
 63
     7
421
 16777215
 74
     1
 91
        0
 64
     7
 65
   257
 75
     1
175
     1
 42
1.0
 92
        0
 66
   257
 43
1.0
 76
     1
 77
     6
 78
     2
 67
     7
 79
     5
170
     0
171
     0
290
     0
174
     0
 93
       13
 44
0.0
173
     0
291
     1
 45
0.0
1001
ACAD
1000
AcDbSavedByObjectVersion
1070
     0
  0
VISUALSTYLE
  5
2C
102
{ACAD_XDICTIONARY
360
16C
102
}
102
{ACAD_REACTORS
330
29
102
}
330
29
100
AcDbVisualStyle
  2
Gouraud
 70
     2
 71
     2
 72
     2
 73
     1
 90
        2
 40
-0.6
 41
30.0
 62
     5
 63
     7
421
 16777215
 74
     0
 91
        0
 64
     7
 65
   257
 75
     1
175
     1
 42
1.0
 92
        0
 66
     7
 43
1.0
 76
     1
 77
     6
 78
     2
 67
     7
 79
     5
170
     0
171
     0
290
     0
174
     0
 93
       13
 44
0.0
173
     0
291
     1
 45
0.0
1001
ACAD
1000
AcDbSavedByObjectVersion
1070
     0
  0
VISUALSTYLE
  5
2D
102
{ACAD_XDICTIONARY
360
16E
102
}
102
{ACAD_REACTORS
330
29
102
}
330
29
100
AcDbVisualStyle
  2
GouraudWithEdges
 70
     3
 71
     2
 72
     2
 73
     1
 90
        2
 40
-0.6
 41
30.0
 62
     5
 63
     7
421
 16777215
 74
     1
 91
        0
 64
     7
 65
   257
 75
     1
175
     1
 42
1.0
 92
        0
 66
   257
 43
1.0
 76
     1
 77
     6
 78
     2
 67
     7
 79
     5
170
     0
171
     0
290
     0
174
     0
 93
       13
 44
0.0
173
     0
291
     1
 45
0.0
1001
ACAD
1000
AcDbSavedByObjectVersion
1070
     0
  0
VISUALSTYLE
  5
31
102
{ACAD_XDICTIONARY
360
176
102
}
102
{ACAD_REACTORS
330
29
102
}
330
29
100
AcDbVisualStyle
  2
Hidden
 70
     6
 71
     1
 72
     2
 73
     2
 90
        0
 40
-0.6
 41
-30.0
 62
     5
 63
     7
421
 16777215
 74
     2
 91
        2
 64
     7
 65
   257
 75
     2
175
     1
 42
40.0
 92
        0
 66
   257
 43
1.0
 76
     1
 77
     6
 78
     2
 67
     7
 79
     3
170
     0
171
     0
290
     0
174
     0
 93
        1
 44
0.0
173
     0
291
     0
 45
0.0
1001
ACAD
1000
AcDbSavedByObjectVersion
1070
     0
  0
VISUALSTYLE
  5
3F
102
{ACAD_XDICTIONARY
360
192
102
}
102
{ACAD_REACTORS
330
29
102
}
330
29
100
AcDbVisualStyle
  2
JitterOff
 70
    20
 71
     2
 72
     2
 73
     0
 90
        0
 40
-0.6
 41
-30.0
 62
     5
 63
     7
421
 16777215
 74
     1
 91
        4
 64
     7
 65
   257
 75
     1
175
     1
 42
1.0
 92
       10
 66
     7
 43
1.0
 76
     1
 77
     6
 78
     2
 67
     7
 79
     5
170
     0
171
     0
290
     0
174
     0
 93
        1
 44
0.0
173
     0
291
     1
 45
0.0
1001
ACAD
1000
AcDbSavedByObjectVersion
1070
     0
  0
VISUALSTYLE
  5
37
102
{ACAD_XDICTIONARY
360
182
102
}
102
{ACAD_REACTORS
330
29
102
}
330
29
100
AcDbVisualStyle
  2
Linepattern
 70
    14
 71
     2
 72
     2
 73
     0
 90
        0
 40
-0.6
 41
-30.0
 62
     5
 63
     7
421
 16777215
 74
     1
 91
        4
 64
     7
 65
   257
 75
     7
175
     7
 42
1.0
 92
        8
 66
     7
 43
1.0
 76
     1
 77
     6
 78
     2
 67
     7
 79
     5
170
     0
171
     0
290
     0
174
     0
 93
        1
 44
0.0
173
     0
291
     1
 45
0.0
1001
ACAD
1000
AcDbSavedByObjectVersion
1070
     0
  0
VISUALSTYLE
  5
40
102
{ACAD_XDICTIONARY
360
194
102
}
102
{ACAD_REACTORS
330
29
102
}
330
29
100
AcDbVisualStyle
  2
OverhangOff
 70
    21
 71
     2
 72
     2
 73
     0
 90
        0
 40
-0.6
 41
-30.0
 62
     5
 63
     7
421
 16777215
 74
     1
 91
        4
 64
     7
 65
   257
 75
     1
175
     1
 42
1.0
 92
        9
 66
     7
 43
1.0
 76
     1
 77
     6
 78
     2
 67
     7
 79
     5
170
     0
171
     0
290
     0
174
     0
 93
        1
 44
0.0
173
     0
291
     1
 45
0.0
1001
ACAD
1000
AcDbSavedByObjectVersion
1070
     0
  0
VISUALSTYLE
  5
33
102
{ACAD_XDICTIONARY
360
17A
102
}
102
{ACAD_REACTORS
330
29
102
}
330
29
100
AcDbVisualStyle
  2
Realistic
 70
     8
 71
     2
 72
     3
 73
     0
 90
        2
 40
-0.6
 41
30.0
 62
     5
 63
     7
421
 16777215
 74
     0
 91
        0
 64
     7
 65
   257
 75
     1
175
     1
 42
1.0
 92
        8
 66
   257
 43
1.0
 76
     1
 77
     6
 78
     2
 67
     7
 79
     3
170
     0
171
     0
290
     0
174
     0
 93
       13
 44
0.0
173
     0
291
     0
 45
0.0
1001
ACAD
1000
AcDbSavedByObjectVersion
1070
     0
  0
VISUALSTYLE
  5
3E
102
{ACAD_XDICTIONARY
360
190
102
}
102
{ACAD_REACTORS
330
29
102
}
330
29
100
AcDbVisualStyle
  2
Shaded
 70
    27
 71
     2
 72
     2
 73
     1
 90
        2
 40
-0.6
 41
30.0
 62
     5
 63
     7
421
 16777215
 74
     0
 91
        4
 64
     7
 65
   257
 75
     1
175
     1
 42
1.0
 92
        8
 66
   257
 43
1.0
 76
     1
 77
     6
 78
     2
 67
     8
425
  7895160
 79
     3
170
     0
171
     0
290
     0
174
     0
 93
        5
 44
0.0
173
     0
291
     0
 45
0.0
1001
ACAD
1000
AcDbSavedByObjectVersion
1070
     0
  0
VISUALSTYLE
  5
3D
102
{ACAD_XDICTIONARY
360
18E
102
}
102
{ACAD_REACTORS
330
29
102
}
330
29
100
AcDbVisualStyle
  2
Shaded with edges
 70
    26
 71
     2
 72
     2
 73
     1
 90
        2
 40
-0.6
 41
30.0
 62
     5
 63
     7
421
 16777215
 74
     1
 91
        2
 64
     7
 65
   257
 75
     2
175
     1
 42
1.0
 92
        8
 66
   257
 43
1.0
 76
     1
 77
     6
 78
     2
 67
     7
 79
     3
170
     0
171
     0
290
     0
174
     0
 93
        5
 44
0.0
173
     0
291
     0
 45
0.0
1001
ACAD
1000
AcDbSavedByObjectVersion
1070
     0
  0
VISUALSTYLE
  5
3A
102
{ACAD_XDICTIONARY
360
188
102
}
102
{ACAD_REACTORS
330
29
102
}
330
29
100
AcDbVisualStyle
  2
Shades of Gray
 70
    23
 71
     2
 72
     2
 73
     3
 90
        0
 40
-0.6
 41
-30.0
 62
     5
 63
     7
421
 16777215
 74
     2
 91
        2
 64
     7
 65
     7
 75
     1
175
     1
 42
40.0
 92
        8
 66
     7
 43
1.0
 76
     1
 77
     6
 78
     2
 67
     7
 79
     3
170
     0
171
     0
290
     0
174
     0
 93
        1
 44
0.0
173
     0
291
     0
 45
0.0
1001
ACAD
1000
AcDbSavedByObjectVersion
1070
     0
  0
VISUALSTYLE
  5
3B
102
{ACAD_XDICTIONARY
360
18A
102
}
102
{ACAD_REACTORS
330
29
102
}
330
29
100
AcDbVisualStyle
  2
Sketchy
 70
    24
 71
     1
 72
     2
 73
     2
 90
        0
 40
-0.6
 41
-30.0
 62
     5
 63
     7
421
 16777215
 74
     2
 91
        2
 64
     7
 65
     7
 75
     1
175
     1
 42
40.0
 92
       11
 66
     7
 43
1.0
 76
     1
 77
     6
 78
     2
 67
     7
 79
     6
170
     0
171
     0
290
     0
174
     0
 93
        1
 44
0.0
173
     0
291
     0
 45
0.0
1001
ACAD
1000
AcDbSavedByObjectVersion
1070
     0
  0
VISUALSTYLE
  5
36
102
{ACAD_XDICTIONARY
360
180
102
}
102
{ACAD_REACTORS
330
29
102
}
330
29
100
AcDbVisualStyle
  2
Thicken
 70
    13
 71
     2
 72
     2
 73
     0
 90
        0
 40
-0.6
 41
-30.0
 62
     5
 63
     7
421
 16777215
 74
     1
 91
        4
 64
     7
 65
   257
 75
     1
175
     1
 42
1.0
 92
       12
 66
     7
 43
1.0
 76
     1
 77
     6
 78
     2
 67
     7
 79
     5
170
     0
171
     0
290
     0
174
     0
 93
        1
 44
0.0
173
     0
291
     1
 45
0.0
1001
ACAD
1000
AcDbSavedByObjectVersion
1070
     0
  0
VISUALSTYLE
  5
30
102
{ACAD_XDICTIONARY
360
174
102
}
102
{ACAD_REACTORS
330
29
102
}
330
29
100
AcDbVisualStyle
  2
Wireframe
 70
     5
 71
     0
 72
     2
 73
     0
 90
        0
 40
-0.6
 41
-30.0
 62
     5
 63
     7
421
 16777215
 74
     1
 91
        4
 64
     7
 65
   257
 75
     1
175
     1
 42
1.0
 92
        0
 66
   257
 43
1.0
 76
     1
 77
     6
 78
     2
 67
     7
 79
     3
170
     0
171
     0
290
     0
174
     0
 93
        1
 44
0.0
173
     0
291
     0
 45
0.0
1001
ACAD
1000
AcDbSavedByObjectVersion
1070
     0
  0
VISUALSTYLE
  5
3C
102
{ACAD_XDICTIONARY
360
18C
102
}
102
{ACAD_REACTORS
330
29
102
}
330
29
100
AcDbVisualStyle
  2
X-Ray
 70
    25
 71
     2
 72
     2
 73
     1
 90
        1
 40
0.5
 41
-30.0
 62
     5
 63
     7
421
 16777215
 74
     1
 91
        0
 64
     7
 65
   257
 75
     1
175
     1
 42
1.0
 92
        8
 66
     7
 43
1.0
 76
     1
 77
     6
 78
     2
 67
     7
 79
     3
170
     0
171
     0
290
     0
174
     0
 93
       13
 44
0.0
173
     0
291
     0
 45
0.0
1001
ACAD
1000
AcDbSavedByObjectVersion
1070
     0
  0
DICTIONARYVAR
  5
D7
102
{ACAD_REACTORS
330
D2
102
}
330
D2
100
DictionaryVariables
280
     0
  1
1:1
  0
DICTIONARYVAR
  5
D4
102
{ACAD_REACTORS
330
D2
102
}
330
D2
100
DictionaryVariables
280
     0
  1
STANDARD
  0
DICTIONARYVAR
  5
D3
102
{ACAD_REACTORS
330
D2
102
}
330
D2
100
DictionaryVariables
280
     0
  1
STANDARD
  0
DICTIONARYVAR
  5
D5
102
{ACAD_REACTORS
330
D2
102
}
330
D2
100
DictionaryVariables
280
     0
  1
Imperial24
  0
DICTIONARYVAR
  5
D6
102
{ACAD_REACTORS
330
D2
102
}
330
D2
100
DictionaryVariables
280
     0
  1
Imperial24
  0
DICTIONARYVAR
  5
12C
102
{ACAD_REACTORS
330
D2
102
}
330
D2
100
DictionaryVariables
280
     0
  1
2
  0
DICTIONARY
  5
19D
330
6B
100
AcDbDictionary
280
     1
281
     1
  3
ACAD_XREC_ROUNDTRIP
360
19E
  0
DICTIONARY
  5
1A
330
19
100
AcDbDictionary
280
     1
281
     1
  3
BUMPTILE
360
1C
  3
DIFFUSETILE
360
1B
  3
OPACITYTILE
360
1F
  3
REFLECTIONTILE
360
1E
  3
REFRACTIONTILE
360
20
  3
SPECULARTILE
360
1D
  0
DICTIONARY
  5
12
330
11
100
AcDbDictionary
280
     1
281
     1
  3
BUMPTILE
360
14
  3
DIFFUSETILE
360
13
  3
OPACITYTILE
360
17
  3
REFLECTIONTILE
360
16
  3
REFRACTIONTILE
360
18
  3
SPECULARTILE
360
15
  0
DICTIONARY
  5
22
330
21
100
AcDbDictionary
280
     1
281
     1
  3
BUMPTILE
360
24
  3
DIFFUSETILE
360
23
  3
OPACITYTILE
360
27
  3
REFLECTIONTILE
360
26
  3
REFRACTIONTILE
360
28
  3
SPECULARTILE
360
25
  0
DICTIONARY
  5
199
330
67
100
AcDbDictionary
280
     1
281
     1
  3
ACAD_XREC_ROUNDTRIP
360
19A
  0
DICTIONARY
  5
19B
330
69
100
AcDbDictionary
280
     1
281
     1
  3
ACAD_XREC_ROUNDTRIP
360
19C
  0
DICTIONARY
  5
D8
330
65
100
AcDbDictionary
280
     1
281
     1
  3
ACAD_ROUNDTRIP_2008_TABLESTYLE_CELLSTYLEMAP
360
166
  0
DICTIONARY
  5
172
330
2F
100
AcDbDictionary
280
     1
281
     1
  3
ACAD_XREC_ROUNDTRIP
360
173
  0
DICTIONARY
  5
170
330
2E
100
AcDbDictionary
280
     1
281
     1
  3
ACAD_XREC_ROUNDTRIP
360
171
  0
DICTIONARY
  5
17E
330
35
100
AcDbDictionary
280
     1
281
     1
  3
ACAD_XREC_ROUNDTRIP
360
17F
  0
DICTIONARY
  5
186
330
39
100
AcDbDictionary
280
     1
281
     1
  3
ACAD_XREC_ROUNDTRIP
360
187
  0
DICTIONARY
  5
178
330
32
100
AcDbDictionary
280
     1
281
     1
  3
ACAD_XREC_ROUNDTRIP
360
179
  0
DICTIONARY
  5
17C
330
34
100
AcDbDictionary
280
     1
281
     1
  3
ACAD_XREC_ROUNDTRIP
360
17D
  0
DICTIONARY
  5
196
330
41
100
AcDbDictionary
280
     1
281
     1
  3
ACAD_XREC_ROUNDTRIP
360
197
  0
DICTIONARY
  5
184
330
38
100
AcDbDictionary
280
     1
281
     1
  3
ACAD_XREC_ROUNDTRIP
360
185
  0
DICTIONARY
  5
168
330
2A
100
AcDbDictionary
280
     1
281
     1
  3
ACAD_XREC_ROUNDTRIP
360
169
  0
DICTIONARY
  5
16A
330
2B
100
AcDbDictionary
280
     1
281
     1
  3
ACAD_XREC_ROUNDTRIP
360
16B
  0
DICTIONARY
  5
16C
330
2C
100
AcDbDictionary
280
     1
281
     1
  3
ACAD_XREC_ROUNDTRIP
360
16D
  0
DICTIONARY
  5
16E
330
2D
100
AcDbDictionary
280
     1
281
     1
  3
ACAD_XREC_ROUNDTRIP
360
16F
  0
DICTIONARY
  5
176
330
31
100
AcDbDictionary
280
     1
281
     1
  3
ACAD_XREC_ROUNDTRIP
360
177
  0
DICTIONARY
  5
192
330
3F
100
AcDbDictionary
280
     1
281
     1
  3
ACAD_XREC_ROUNDTRIP
360
193
  0
DICTIONARY
  5
182
330
37
100
AcDbDictionary
280
     1
281
     1
  3
ACAD_XREC_ROUNDTRIP
360
183
  0
DICTIONARY
  5
194
330
40
100
AcDbDictionary
280
     1
281
     1
  3
ACAD_XREC_ROUNDTRIP
360
195
  0
DICTIONARY
  5
17A
330
33
100
AcDbDictionary
280
     1
281
     1
  3
ACAD_XREC_ROUNDTRIP
360
17B
  0
DICTIONARY
  5
190
330
3E
100
AcDbDictionary
280
     1
281
     1
  3
ACAD_XREC_ROUNDTRIP
360
191
  0
DICTIONARY
  5
18E
330
3D
100
AcDbDictionary
280
     1
281
     1
  3
ACAD_XREC_ROUNDTRIP
360
18F
  0
DICTIONARY
  5
188
330
3A
100
AcDbDictionary
280
     1
281
     1
  3
ACAD_XREC_ROUNDTRIP
360
189
  0
DICTIONARY
  5
18A
330
3B
100
AcDbDictionary
280
     1
281
     1
  3
ACAD_XREC_ROUNDTRIP
360
18B
  0
DICTIONARY
  5
180
330
36
100
AcDbDictionary
280
     1
281
     1
  3
ACAD_XREC_ROUNDTRIP
360
181
  0
DICTIONARY
  5
174
330
30
100
AcDbDictionary
280
     1
281
     1
  3
ACAD_XREC_ROUNDTRIP
360
175
  0
DICTIONARY
  5
18C
330
3C
100
AcDbDictionary
280
     1
281
     1
  3
ACAD_XREC_ROUNDTRIP
360
18D
  0
XRECORD
  5
19E
102
{ACAD_REACTORS
330
19D
102
}
330
19D
100
AcDbXrecord
280
     1
102
DISPLAYNAME
  1
Imperial24
102
FLAGS
 90
        0
  0
XRECORD
  5
1C
102
{ACAD_REACTORS
330
1A
102
}
330
1A
100
AcDbXrecord
280
     1
270
     1
271
     1
  0
XRECORD
  5
1B
102
{ACAD_REACTORS
330
1A
102
}
330
1A
100
AcDbXrecord
280
     1
270
     1
271
     1
  0
XRECORD
  5
1F
102
{ACAD_REACTORS
330
1A
102
}
330
1A
100
AcDbXrecord
280
     1
270
     1
271
     1
  0
XRECORD
  5
1E
102
{ACAD_REACTORS
330
1A
102
}
330
1A
100
AcDbXrecord
280
     1
270
     1
271
     1
  0
XRECORD
  5
20
102
{ACAD_REACTORS
330
1A
102
}
330
1A
100
AcDbXrecord
280
     1
270
     1
271
     1
  0
XRECORD
  5
1D
102
{ACAD_REACTORS
330
1A
102
}
330
1A
100
AcDbXrecord
280
     1
270
     1
271
     1
  0
XRECORD
  5
14
102
{ACAD_REACTORS
330
12
102
}
330
12
100
AcDbXrecord
280
     1
270
     1
271
     1
  0
XRECORD
  5
13
102
{ACAD_REACTORS
330
12
102
}
330
12
100
AcDbXrecord
280
     1
270
     1
271
     1
  0
XRECORD
  5
17
102
{ACAD_REACTORS
330
12
102
}
330
12
100
AcDbXrecord
280
     1
270
     1
271
     1
  0
XRECORD
  5
16
102
{ACAD_REACTORS
330
12
102
}
330
12
100
AcDbXrecord
280
     1
270
     1
271
     1
  0
XRECORD
  5
18
102
{ACAD_REACTORS
330
12
102
}
330
12
100
AcDbXrecord
280
     1
270
     1
271
     1
  0
XRECORD
  5
15
102
{ACAD_REACTORS
330
12
102
}
330
12
100
AcDbXrecord
280
     1
270
     1
271
     1
  0
XRECORD
  5
24
102
{ACAD_REACTORS
330
22
102
}
330
22
100
AcDbXrecord
280
     1
270
     1
271
     1
  0
XRECORD
  5
23
102
{ACAD_REACTORS
330
22
102
}
330
22
100
AcDbXrecord
280
     1
270
     1
271
     1
  0
XRECORD
  5
27
102
{ACAD_REACTORS
330
22
102
}
330
22
100
AcDbXrecord
280
     1
270
     1
271
     1
  0
XRECORD
  5
26
102
{ACAD_REACTORS
330
22
102
}
330
22
100
AcDbXrecord
280
     1
270
     1
271
     1
  0
XRECORD
  5
28
102
{ACAD_REACTORS
330
22
102
}
330
22
100
AcDbXrecord
280
     1
270
     1
271
     1
  0
XRECORD
  5
25
102
{ACAD_REACTORS
330
22
102
}
330
22
100
AcDbXrecord
280
     1
270
     1
271
     1
  0
XRECORD
  5
19A
102
{ACAD_REACTORS
330
199
102
}
330
199
100
AcDbXrecord
280
     1
102
ACAD_ROUNDTRIP_2012_MLEADER_STYLE
298
     1
  0
XRECORD
  5
19C
102
{ACAD_REACTORS
330
19B
102
}
330
19B
100
AcDbXrecord
280
     1
102
DISPLAYNAME
  1
Imperial24
102
FLAGS
 90
        0
  0
CELLSTYLEMAP
  5
166
102
{ACAD_REACTORS
330
D8
102
}
330
D8
100
AcDbCellStyleMap
 90
        3
300
CELLSTYLE
  1
TABLEFORMAT_BEGIN
 90
        5
170
     1
 91
        0
 92
    32768
 62
   257
 93
        1
300
CONTENTFORMAT
  1
CONTENTFORMAT_BEGIN
 90
        0
 91
        0
 92
      512
 93
        0
300

 40
0.0
140
1.0
 94
        5
 62
     0
340
55
144
0.25
309
CONTENTFORMAT_END
171
     1
301
MARGIN
  1
CELLMARGIN_BEGIN
 40
0.06
 40
0.06
 40
0.06
 40
0.06
 40
0.18
 40
0.18
309
CELLMARGIN_END
 94
        6
 95
        1
302
GRIDFORMAT
  1
GRIDFORMAT_BEGIN
 90
        0
 91
        1
 62
     0
 92
       -2
340
0
 93
        0
 40
0.045
309
GRIDFORMAT_END
 95
        2
302
GRIDFORMAT
  1
GRIDFORMAT_BEGIN
 90
        0
 91
        1
 62
     0
 92
       -2
340
0
 93
        0
 40
0.045
309
GRIDFORMAT_END
 95
        4
302
GRIDFORMAT
  1
GRIDFORMAT_BEGIN
 90
        0
 91
        1
 62
     0
 92
       -2
340
0
 93
        0
 40
0.045
309
GRIDFORMAT_END
 95
        8
302
GRIDFORMAT
  1
GRIDFORMAT_BEGIN
 90
        0
 91
        1
 62
     0
 92
       -2
340
0
 93
        0
 40
0.045
309
GRIDFORMAT_END
 95
       16
302
GRIDFORMAT
  1
GRIDFORMAT_BEGIN
 90
        0
 91
        1
 62
     0
 92
       -2
340
0
 93
        0
 40
0.045
309
GRIDFORMAT_END
 95
       32
302
GRIDFORMAT
  1
GRIDFORMAT_BEGIN
 90
        0
 91
        1
 62
     0
 92
       -2
340
0
 93
        0
 40
0.045
309
GRIDFORMAT_END
309
TABLEFORMAT_END
  1
CELLSTYLE_BEGIN
 90
        1
 91
        1
300
_TITLE
309
CELLSTYLE_END
300
CELLSTYLE
  1
TABLEFORMAT_BEGIN
 90
        5
170
     1
 91
        0
 92
        0
 62
   257
 93
        1
300
CONTENTFORMAT
  1
CONTENTFORMAT_BEGIN
 90
        0
 91
        0
 92
      512
 93
        0
300

 40
0.0
140
1.0
 94
        5
 62
     0
340
55
144
0.18
309
CONTENTFORMAT_END
171
     1
301
MARGIN
  1
CELLMARGIN_BEGIN
 40
0.06
 40
0.06
 40
0.06
 40
0.06
 40
0.18
 40
0.18
309
CELLMARGIN_END
 94
        6
 95
        1
302
GRIDFORMAT
  1
GRIDFORMAT_BEGIN
 90
        0
 91
        1
 62
     0
 92
       -2
340
0
 93
        0
 40
0.045
309
GRIDFORMAT_END
 95
        2
302
GRIDFORMAT
  1
GRIDFORMAT_BEGIN
 90
        0
 91
        1
 62
     0
 92
       -2
340
0
 93
        0
 40
0.045
309
GRIDFORMAT_END
 95
        4
302
GRIDFORMAT
  1
GRIDFORMAT_BEGIN
 90
        0
 91
        1
 62
     0
 92
       -2
340
0
 93
        0
 40
0.045
309
GRIDFORMAT_END
 95
        8
302
GRIDFORMAT
  1
GRIDFORMAT_BEGIN
 90
        0
 91
        1
 62
     0
 92
       -2
340
0
 93
        0
 40
0.045
309
GRIDFORMAT_END
 95
       16
302
GRIDFORMAT
  1
GRIDFORMAT_BEGIN
 90
        0
 91
        1
 62
     0
 92
       -2
340
0
 93
        0
 40
0.045
309
GRIDFORMAT_END
 95
       32
302
GRIDFORMAT
  1
GRIDFORMAT_BEGIN
 90
        0
 91
        1
 62
     0
 92
       -2
340
0
 93
        0
 40
0.045
309
GRIDFORMAT_END
309
TABLEFORMAT_END
  1
CELLSTYLE_BEGIN
 90
        2
 91
        1
300
_HEADER
309
CELLSTYLE_END
300
CELLSTYLE
  1
TABLEFORMAT_BEGIN
 90
        5
170
     1
 91
        0
 92
        0
 62
   257
 93
        1
300
CONTENTFORMAT
  1
CONTENTFORMAT_BEGIN
 90
        0
 91
        0
 92
      512
 93
        0
300

 40
0.0
140
1.0
 94
        2
 62
     0
340
55
144
0.18
309
CONTENTFORMAT_END
171
     1
301
MARGIN
  1
CELLMARGIN_BEGIN
 40
0.06
 40
0.06
 40
0.06
 40
0.06
 40
0.18
 40
0.18
309
CELLMARGIN_END
 94
        6
 95
        1
302
GRIDFORMAT
  1
GRIDFORMAT_BEGIN
 90
        0
 91
        1
 62
     0
 92
       -2
340
0
 93
        0
 40
0.045
309
GRIDFORMAT_END
 95
        2
302
GRIDFORMAT
  1
GRIDFORMAT_BEGIN
 90
        0
 91
        1
 62
     0
 92
       -2
340
0
 93
        0
 40
0.045
309
GRIDFORMAT_END
 95
        4
302
GRIDFORMAT
  1
GRIDFORMAT_BEGIN
 90
        0
 91
        1
 62
     0
 92
       -2
340
0
 93
        0
 40
0.045
309
GRIDFORMAT_END
 95
        8
302
GRIDFORMAT
  1
GRIDFORMAT_BEGIN
 90
        0
 91
        1
 62
     0
 92
       -2
340
0
 93
        0
 40
0.045
309
GRIDFORMAT_END
 95
       16
302
GRIDFORMAT
  1
GRIDFORMAT_BEGIN
 90
        0
 91
        1
 62
     0
 92
       -2
340
0
 93
        0
 40
0.045
309
GRIDFORMAT_END
 95
       32
302
GRIDFORMAT
  1
GRIDFORMAT_BEGIN
 90
        0
 91
        1
 62
     0
 92
       -2
340
0
 93
        0
 40
0.045
309
GRIDFORMAT_END
309
TABLEFORMAT_END
  1
CELLSTYLE_BEGIN
 90
        3
 91
        2
300
_DATA
309
CELLSTYLE_END
  0
XRECORD
  5
173
102
{ACAD_REACTORS
330
172
102
}
330
172
100
AcDbXrecord
280
     1
102
RTVSPost2010Prop28
280
     1
102
RTVSPost2010PropOp28
 70
     1
102
RTVSPost2010Prop29
280
     1
102
RTVSPost2010PropOp29
 70
     1
102
RTVSPost2010Prop30
280
     0
102
RTVSPost2010PropOp30
 70
     1
102
RTVSPost2010Prop31
280
     0
102
RTVSPost2010PropOp31
 70
     1
102
RTVSPost2010Prop32
280
     0
102
RTVSPost2010PropOp32
 70
     1
102
RTVSPost2010Prop33
280
     0
102
RTVSPost2010PropOp33
 70
     1
102
RTVSPost2010Prop34
280
     0
102
RTVSPost2010PropOp34
 70
     1
102
RTVSPost2010Prop35
280
     0
102
RTVSPost2010PropOp35
 70
     1
102
RTVSPost2010Prop36
280
     0
102
RTVSPost2010PropOp36
 70
     1
102
RTVSPost2010Prop37
 90
       50
102
RTVSPost2010PropOp37
 70
     1
102
RTVSPost2010Prop38
140
0.0
102
RTVSPost2010PropOp38
 70
     1
102
RTVSPost2010Prop39
140
1.0
102
RTVSPost2010PropOp39
 70
     1
102
RTVSPost2010Prop40
 90
        0
102
RTVSPost2010PropOp40
 70
     1
102
RTVSPost2010Prop41ColorIndex
 90
       18
102
RTVSPost2010Prop41ColorRGB
 90
        0
102
RTVSPost2010PropOp41
 70
     1
102
RTVSPost2010Prop42
 90
       50
102
RTVSPost2010PropOp42
 70
     1
102
RTVSPost2010Prop43
 90
        3
102
RTVSPost2010PropOp43
 70
     1
102
RTVSPost2010Prop44ColorIndex
 90
        5
102
RTVSPost2010Prop44ColorRGB
 90
      255
102
RTVSPost2010PropOp44
 70
     1
102
RTVSPost2010Prop45
280
     0
102
RTVSPost2010PropOp45
 70
     1
102
RTVSPost2010Prop46
 90
       50
102
RTVSPost2010PropOp46
 70
     1
102
RTVSPost2010Prop47
 90
       50
102
RTVSPost2010PropOp47
 70
     1
102
RTVSPost2010Prop48
 90
       50
102
RTVSPost2010PropOp48
 70
     1
102
RTVSPost2010Prop49
280
     0
102
RTVSPost2010PropOp49
 70
     1
102
RTVSPost2010Prop50
 90
       50
102
RTVSPost2010PropOp50
 70
     1
102
RTVSPost2010Prop51ColorIndex
 90
      256
102
RTVSPost2010Prop51ColorRGB
 90
-16777216
102
RTVSPost2010PropOp51
 70
     0
102
RTVSPost2010Prop52
140
1.0
102
RTVSPost2010PropOp52
 70
     0
102
RTVSPost2010Prop53
 90
        2
102
RTVSPost2010PropOp53
 70
     1
102
RTVSPost2010Prop54
  1
strokes_ogs.tif
102
RTVSPost2010PropOp54
 70
     1
102
RTVSPost2010Prop55
280
     0
102
RTVSPost2010PropOp55
 70
     1
102
RTVSPost2010Prop56
140
1.0
102
RTVSPost2010PropOp56
 70
     1
102
RTVSPost2010Prop57
140
1.0
102
RTVSPost2010PropOp57
 70
     1
102
RTVSPropertyOp0
 70
     1
102
RTVSPropertyOp1
 70
     1
102
RTVSPropertyOp2
 70
     1
102
RTVSPropertyOp3
 70
     1
102
RTVSPropertyOp4
 70
     1
102
RTVSPropertyOp5
 70
     1
102
RTVSPropertyOp6
 70
     1
102
RTVSPropertyOp7
 70
     1
102
RTVSPropertyOp8
 70
     1
102
RTVSPropertyOp9
 70
     1
102
RTVSPropertyOp10
 70
     1
102
RTVSPropertyOp11
 70
     1
102
RTVSPropertyOp12
 70
     1
102
RTVSPropertyOp13
 70
     1
102
RTVSPropertyOp14
 70
     1
102
RTVSPropertyOp15
 70
     1
102
RTVSPropertyOp16
 70
     1
102
RTVSPropertyOp17
 70
     1
102
RTVSPropertyOp18
 70
     1
102
RTVSPropertyOp19
 70
     1
102
RTVSPropertyOp20
 70
     1
102
RTVSPropertyOp21
 70
     1
102
RTVSPropertyOp22
 70
     1
102
RTVSPropertyOp23
 70
     1
102
RTVSPropertyOp24
 70
     1
102
RTVSPropertyOp25
 70
     1
102
RTVSPropertyOp26
 70
     1
102
RTVSPropertyOp27
 70
     1
102
RTVSPropertyOp28
 70
     1
102
RTVSPropertyOp29
 70
     1
102
RTVSPropertyOp30
 70
     1
102
RTVSPropertyOp31
 70
     1
102
RTVSPropertyOp32
 70
     1
102
RTVSPropertyOp33
 70
     1
102
RTVSPropertyOp34
 70
     1
102
RTVSPropertyOp35
 70
     1
102
RTVSPropertyOp36
 70
     1
102
RTVSPropertyOp37
 70
     1
102
RTVSPropertyOp38
 70
     1
102
RTVSPropertyOp39
 70
     1
102
RTVSPropertyOp40
 70
     1
102
RTVSPropertyOp41
 70
     1
102
RTVSPropertyOp42
 70
     1
102
RTVSPropertyOp43
 70
     1
102
RTVSPropertyOp44
 70
     1
102
RTVSPropertyOp45
 70
     1
102
RTVSPropertyOp46
 70
     1
102
RTVSPropertyOp47
 70
     1
102
RTVSPropertyOp48
 70
     1
102
RTVSPropertyOp49
 70
     1
102
RTVSPropertyOp50
 70
     1
102
RTVSPropertyOp51
 70
     0
102
RTVSPropertyOp52
 70
     0
102
RTVSPropertyOp53
 70
     1
102
RTVSPropertyOp54
 70
     1
102
RTVSPropertyOp55
 70
     1
102
RTVSPropertyOp56
 70
     1
102
RTVSPropertyOp57
 70
     1
102
RTVSPropertyOp58
 70
     1
102
RTVSPropertyOp59
 70
     1
102
RTVSPropertyOp60
 70
     1
102
RTVSPropertyOp61
 70
     1
102
RTVSPropertyOp62
 70
     1
  0
XRECORD
  5
171
102
{ACAD_REACTORS
330
170
102
}
330
170
100
AcDbXrecord
280
     1
102
RTVSPost2010Prop28
280
     0
102
RTVSPost2010PropOp28
 70
     1
102
RTVSPost2010Prop29
280
     1
102
RTVSPost2010PropOp29
 70
     1
102
RTVSPost2010Prop30
280
     1
102
RTVSPost2010PropOp30
 70
     1
102
RTVSPost2010Prop31
280
     0
102
RTVSPost2010PropOp31
 70
     1
102
RTVSPost2010Prop32
280
     0
102
RTVSPost2010PropOp32
 70
     1
102
RTVSPost2010Prop33
280
     0
102
RTVSPost2010PropOp33
 70
     1
102
RTVSPost2010Prop34
280
     0
102
RTVSPost2010PropOp34
 70
     1
102
RTVSPost2010Prop35
280
     0
102
RTVSPost2010PropOp35
 70
     1
102
RTVSPost2010Prop36
280
     0
102
RTVSPost2010PropOp36
 70
     1
102
RTVSPost2010Prop37
 90
       50
102
RTVSPost2010PropOp37
 70
     1
102
RTVSPost2010Prop38
140
0.0
102
RTVSPost2010PropOp38
 70
     1
102
RTVSPost2010Prop39
140
1.0
102
RTVSPost2010PropOp39
 70
     1
102
RTVSPost2010Prop40
 90
        0
102
RTVSPost2010PropOp40
 70
     1
102
RTVSPost2010Prop41ColorIndex
 90
       18
102
RTVSPost2010Prop41ColorRGB
 90
        0
102
RTVSPost2010PropOp41
 70
     1
102
RTVSPost2010Prop42
 90
       50
102
RTVSPost2010PropOp42
 70
     1
102
RTVSPost2010Prop43
 90
        3
102
RTVSPost2010PropOp43
 70
     1
102
RTVSPost2010Prop44ColorIndex
 90
        5
102
RTVSPost2010Prop44ColorRGB
 90
      255
102
RTVSPost2010PropOp44
 70
     1
102
RTVSPost2010Prop45
280
     0
102
RTVSPost2010PropOp45
 70
     1
102
RTVSPost2010Prop46
 90
       50
102
RTVSPost2010PropOp46
 70
     1
102
RTVSPost2010Prop47
 90
       50
102
RTVSPost2010PropOp47
 70
     1
102
RTVSPost2010Prop48
 90
       50
102
RTVSPost2010PropOp48
 70
     1
102
RTVSPost2010Prop49
280
     0
102
RTVSPost2010PropOp49
 70
     1
102
RTVSPost2010Prop50
 90
       50
102
RTVSPost2010PropOp50
 70
     1
102
RTVSPost2010Prop51ColorIndex
 90
      256
102
RTVSPost2010Prop51ColorRGB
 90
-16777216
102
RTVSPost2010PropOp51
 70
     0
102
RTVSPost2010Prop52
140
1.0
102
RTVSPost2010PropOp52
 70
     0
102
RTVSPost2010Prop53
 90
        2
102
RTVSPost2010PropOp53
 70
     1
102
RTVSPost2010Prop54
  1
strokes_ogs.tif
102
RTVSPost2010PropOp54
 70
     1
102
RTVSPost2010Prop55
280
     0
102
RTVSPost2010PropOp55
 70
     1
102
RTVSPost2010Prop56
140
1.0
102
RTVSPost2010PropOp56
 70
     1
102
RTVSPost2010Prop57
140
1.0
102
RTVSPost2010PropOp57
 70
     1
102
RTVSPropertyOp0
 70
     1
102
RTVSPropertyOp1
 70
     1
102
RTVSPropertyOp2
 70
     1
102
RTVSPropertyOp3
 70
     1
102
RTVSPropertyOp4
 70
     1
102
RTVSPropertyOp5
 70
     1
102
RTVSPropertyOp6
 70
     1
102
RTVSPropertyOp7
 70
     1
102
RTVSPropertyOp8
 70
     1
102
RTVSPropertyOp9
 70
     1
102
RTVSPropertyOp10
 70
     1
102
RTVSPropertyOp11
 70
     1
102
RTVSPropertyOp12
 70
     1
102
RTVSPropertyOp13
 70
     1
102
RTVSPropertyOp14
 70
     1
102
RTVSPropertyOp15
 70
     1
102
RTVSPropertyOp16
 70
     1
102
RTVSPropertyOp17
 70
     1
102
RTVSPropertyOp18
 70
     1
102
RTVSPropertyOp19
 70
     1
102
RTVSPropertyOp20
 70
     1
102
RTVSPropertyOp21
 70
     1
102
RTVSPropertyOp22
 70
     1
102
RTVSPropertyOp23
 70
     1
102
RTVSPropertyOp24
 70
     1
102
RTVSPropertyOp25
 70
     1
102
RTVSPropertyOp26
 70
     1
102
RTVSPropertyOp27
 70
     1
102
RTVSPropertyOp28
 70
     1
102
RTVSPropertyOp29
 70
     1
102
RTVSPropertyOp30
 70
     1
102
RTVSPropertyOp31
 70
     1
102
RTVSPropertyOp32
 70
     1
102
RTVSPropertyOp33
 70
     1
102
RTVSPropertyOp34
 70
     1
102
RTVSPropertyOp35
 70
     1
102
RTVSPropertyOp36
 70
     1
102
RTVSPropertyOp37
 70
     1
102
RTVSPropertyOp38
 70
     1
102
RTVSPropertyOp39
 70
     1
102
RTVSPropertyOp40
 70
     1
102
RTVSPropertyOp41
 70
     1
102
RTVSPropertyOp42
 70
     1
102
RTVSPropertyOp43
 70
     1
102
RTVSPropertyOp44
 70
     1
102
RTVSPropertyOp45
 70
     1
102
RTVSPropertyOp46
 70
     1
102
RTVSPropertyOp47
 70
     1
102
RTVSPropertyOp48
 70
     1
102
RTVSPropertyOp49
 70
     1
102
RTVSPropertyOp50
 70
     1
102
RTVSPropertyOp51
 70
     0
102
RTVSPropertyOp52
 70
     0
102
RTVSPropertyOp53
 70
     1
102
RTVSPropertyOp54
 70
     1
102
RTVSPropertyOp55
 70
     1
102
RTVSPropertyOp56
 70
     1
102
RTVSPropertyOp57
 70
     1
102
RTVSPropertyOp58
 70
     1
102
RTVSPropertyOp59
 70
     1
102
RTVSPropertyOp60
 70
     1
102
RTVSPropertyOp61
 70
     1
102
RTVSPropertyOp62
 70
     1
  0
XRECORD
  5
17F
102
{ACAD_REACTORS
330
17E
102
}
330
17E
100
AcDbXrecord
280
     1
102
RTVSPost2010Prop28
280
     0
102
RTVSPost2010PropOp28
 70
     1
102
RTVSPost2010Prop29
280
     1
102
RTVSPost2010PropOp29
 70
     1
102
RTVSPost2010Prop30
280
     1
102
RTVSPost2010PropOp30
 70
     1
102
RTVSPost2010Prop31
280
     0
102
RTVSPost2010PropOp31
 70
     1
102
RTVSPost2010Prop32
280
     0
102
RTVSPost2010PropOp32
 70
     1
102
RTVSPost2010Prop33
280
     0
102
RTVSPost2010PropOp33
 70
     1
102
RTVSPost2010Prop34
280
     0
102
RTVSPost2010PropOp34
 70
     1
102
RTVSPost2010Prop35
280
     0
102
RTVSPost2010PropOp35
 70
     1
102
RTVSPost2010Prop36
280
     0
102
RTVSPost2010PropOp36
 70
     1
102
RTVSPost2010Prop37
 90
       50
102
RTVSPost2010PropOp37
 70
     1
102
RTVSPost2010Prop38
140
0.0
102
RTVSPost2010PropOp38
 70
     1
102
RTVSPost2010Prop39
140
1.0
102
RTVSPost2010PropOp39
 70
     1
102
RTVSPost2010Prop40
 90
        0
102
RTVSPost2010PropOp40
 70
     1
102
RTVSPost2010Prop41ColorIndex
 90
       18
102
RTVSPost2010Prop41ColorRGB
 90
        0
102
RTVSPost2010PropOp41
 70
     1
102
RTVSPost2010Prop42
 90
       50
102
RTVSPost2010PropOp42
 70
     1
102
RTVSPost2010Prop43
 90
        3
102
RTVSPost2010PropOp43
 70
     1
102
RTVSPost2010Prop44ColorIndex
 90
        5
102
RTVSPost2010Prop44ColorRGB
 90
      255
102
RTVSPost2010PropOp44
 70
     1
102
RTVSPost2010Prop45
280
     0
102
RTVSPost2010PropOp45
 70
     1
102
RTVSPost2010Prop46
 90
       50
102
RTVSPost2010PropOp46
 70
     1
102
RTVSPost2010Prop47
 90
       50
102
RTVSPost2010PropOp47
 70
     1
102
RTVSPost2010Prop48
 90
       50
102
RTVSPost2010PropOp48
 70
     1
102
RTVSPost2010Prop49
280
     0
102
RTVSPost2010PropOp49
 70
     1
102
RTVSPost2010Prop50
 90
       50
102
RTVSPost2010PropOp50
 70
     1
102
RTVSPost2010Prop51ColorIndex
 90
      256
102
RTVSPost2010Prop51ColorRGB
 90
-16777216
102
RTVSPost2010PropOp51
 70
     0
102
RTVSPost2010Prop52
140
1.0
102
RTVSPost2010PropOp52
 70
     0
102
RTVSPost2010Prop53
 90
        2
102
RTVSPost2010PropOp53
 70
     1
102
RTVSPost2010Prop54
  1
strokes_ogs.tif
102
RTVSPost2010PropOp54
 70
     1
102
RTVSPost2010Prop55
280
     0
102
RTVSPost2010PropOp55
 70
     1
102
RTVSPost2010Prop56
140
1.0
102
RTVSPost2010PropOp56
 70
     1
102
RTVSPost2010Prop57
140
1.0
102
RTVSPost2010PropOp57
 70
     1
102
RTVSPropertyOp0
 70
     1
102
RTVSPropertyOp1
 70
     1
102
RTVSPropertyOp2
 70
     1
102
RTVSPropertyOp3
 70
     1
102
RTVSPropertyOp4
 70
     1
102
RTVSPropertyOp5
 70
     1
102
RTVSPropertyOp6
 70
     1
102
RTVSPropertyOp7
 70
     1
102
RTVSPropertyOp8
 70
     1
102
RTVSPropertyOp9
 70
     1
102
RTVSPropertyOp10
 70
     1
102
RTVSPropertyOp11
 70
     1
102
RTVSPropertyOp12
 70
     1
102
RTVSPropertyOp13
 70
     1
102
RTVSPropertyOp14
 70
     1
102
RTVSPropertyOp15
 70
     1
102
RTVSPropertyOp16
 70
     1
102
RTVSPropertyOp17
 70
     1
102
RTVSPropertyOp18
 70
     1
102
RTVSPropertyOp19
 70
     1
102
RTVSPropertyOp20
 70
     1
102
RTVSPropertyOp21
 70
     1
102
RTVSPropertyOp22
 70
     1
102
RTVSPropertyOp23
 70
     1
102
RTVSPropertyOp24
 70
     1
102
RTVSPropertyOp25
 70
     1
102
RTVSPropertyOp26
 70
     1
102
RTVSPropertyOp27
 70
     1
102
RTVSPropertyOp28
 70
     1
102
RTVSPropertyOp29
 70
     1
102
RTVSPropertyOp30
 70
     1
102
RTVSPropertyOp31
 70
     1
102
RTVSPropertyOp32
 70
     1
102
RTVSPropertyOp33
 70
     1
102
RTVSPropertyOp34
 70
     1
102
RTVSPropertyOp35
 70
     1
102
RTVSPropertyOp36
 70
     1
102
RTVSPropertyOp37
 70
     1
102
RTVSPropertyOp38
 70
     1
102
RTVSPropertyOp39
 70
     1
102
RTVSPropertyOp40
 70
     1
102
RTVSPropertyOp41
 70
     1
102
RTVSPropertyOp42
 70
     1
102
RTVSPropertyOp43
 70
     1
102
RTVSPropertyOp44
 70
     1
102
RTVSPropertyOp45
 70
     1
102
RTVSPropertyOp46
 70
     1
102
RTVSPropertyOp47
 70
     1
102
RTVSPropertyOp48
 70
     1
102
RTVSPropertyOp49
 70
     1
102
RTVSPropertyOp50
 70
     1
102
RTVSPropertyOp51
 70
     0
102
RTVSPropertyOp52
 70
     0
102
RTVSPropertyOp53
 70
     1
102
RTVSPropertyOp54
 70
     1
102
RTVSPropertyOp55
 70
     1
102
RTVSPropertyOp56
 70
     1
102
RTVSPropertyOp57
 70
     1
102
RTVSPropertyOp58
 70
     1
102
RTVSPropertyOp59
 70
     1
102
RTVSPropertyOp60
 70
     1
102
RTVSPropertyOp61
 70
     1
102
RTVSPropertyOp62
 70
     1
  0
XRECORD
  5
187
102
{ACAD_REACTORS
330
186
102
}
330
186
100
AcDbXrecord
280
     1
102
RTVSPost2010Prop28
280
     0
102
RTVSPost2010PropOp28
 70
     1
102
RTVSPost2010Prop29
280
     1
102
RTVSPost2010PropOp29
 70
     1
102
RTVSPost2010Prop30
280
     1
102
RTVSPost2010PropOp30
 70
     1
102
RTVSPost2010Prop31
280
     0
102
RTVSPost2010PropOp31
 70
     1
102
RTVSPost2010Prop32
280
     0
102
RTVSPost2010PropOp32
 70
     1
102
RTVSPost2010Prop33
280
     0
102
RTVSPost2010PropOp33
 70
     1
102
RTVSPost2010Prop34
280
     0
102
RTVSPost2010PropOp34
 70
     1
102
RTVSPost2010Prop35
280
     0
102
RTVSPost2010PropOp35
 70
     1
102
RTVSPost2010Prop36
280
     0
102
RTVSPost2010PropOp36
 70
     1
102
RTVSPost2010Prop37
 90
       50
102
RTVSPost2010PropOp37
 70
     1
102
RTVSPost2010Prop38
140
0.0
102
RTVSPost2010PropOp38
 70
     1
102
RTVSPost2010Prop39
140
1.0
102
RTVSPost2010PropOp39
 70
     1
102
RTVSPost2010Prop40
 90
        0
102
RTVSPost2010PropOp40
 70
     1
102
RTVSPost2010Prop41ColorIndex
 90
       18
102
RTVSPost2010Prop41ColorRGB
 90
        0
102
RTVSPost2010PropOp41
 70
     1
102
RTVSPost2010Prop42
 90
       50
102
RTVSPost2010PropOp42
 70
     1
102
RTVSPost2010Prop43
 90
        3
102
RTVSPost2010PropOp43
 70
     1
102
RTVSPost2010Prop44ColorIndex
 90
        5
102
RTVSPost2010Prop44ColorRGB
 90
      255
102
RTVSPost2010PropOp44
 70
     1
102
RTVSPost2010Prop45
280
     0
102
RTVSPost2010PropOp45
 70
     1
102
RTVSPost2010Prop46
 90
       50
102
RTVSPost2010PropOp46
 70
     1
102
RTVSPost2010Prop47
 90
       50
102
RTVSPost2010PropOp47
 70
     1
102
RTVSPost2010Prop48
 90
       50
102
RTVSPost2010PropOp48
 70
     1
102
RTVSPost2010Prop49
280
     0
102
RTVSPost2010PropOp49
 70
     1
102
RTVSPost2010Prop50
 90
       50
102
RTVSPost2010PropOp50
 70
     1
102
RTVSPost2010Prop51ColorIndex
 90
      256
102
RTVSPost2010Prop51ColorRGB
 90
-16777216
102
RTVSPost2010PropOp51
 70
     0
102
RTVSPost2010Prop52
140
1.0
102
RTVSPost2010PropOp52
 70
     0
102
RTVSPost2010Prop53
 90
        2
102
RTVSPost2010PropOp53
 70
     1
102
RTVSPost2010Prop54
  1
strokes_ogs.tif
102
RTVSPost2010PropOp54
 70
     1
102
RTVSPost2010Prop55
280
     0
102
RTVSPost2010PropOp55
 70
     1
102
RTVSPost2010Prop56
140
1.0
102
RTVSPost2010PropOp56
 70
     1
102
RTVSPost2010Prop57
140
1.0
102
RTVSPost2010PropOp57
 70
     1
102
RTVSPropertyOp0
 70
     1
102
RTVSPropertyOp1
 70
     1
102
RTVSPropertyOp2
 70
     1
102
RTVSPropertyOp3
 70
     1
102
RTVSPropertyOp4
 70
     1
102
RTVSPropertyOp5
 70
     1
102
RTVSPropertyOp6
 70
     1
102
RTVSPropertyOp7
 70
     1
102
RTVSPropertyOp8
 70
     1
102
RTVSPropertyOp9
 70
     1
102
RTVSPropertyOp10
 70
     1
102
RTVSPropertyOp11
 70
     1
102
RTVSPropertyOp12
 70
     1
102
RTVSPropertyOp13
 70
     1
102
RTVSPropertyOp14
 70
     1
102
RTVSPropertyOp15
 70
     1
102
RTVSPropertyOp16
 70
     1
102
RTVSPropertyOp17
 70
     1
102
RTVSPropertyOp18
 70
     1
102
RTVSPropertyOp19
 70
     1
102
RTVSPropertyOp20
 70
     1
102
RTVSPropertyOp21
 70
     1
102
RTVSPropertyOp22
 70
     1
102
RTVSPropertyOp23
 70
     1
102
RTVSPropertyOp24
 70
     1
102
RTVSPropertyOp25
 70
     1
102
RTVSPropertyOp26
 70
     1
102
RTVSPropertyOp27
 70
     1
102
RTVSPropertyOp28
 70
     1
102
RTVSPropertyOp29
 70
     1
102
RTVSPropertyOp30
 70
     1
102
RTVSPropertyOp31
 70
     1
102
RTVSPropertyOp32
 70
     1
102
RTVSPropertyOp33
 70
     1
102
RTVSPropertyOp34
 70
     1
102
RTVSPropertyOp35
 70
     1
102
RTVSPropertyOp36
 70
     1
102
RTVSPropertyOp37
 70
     1
102
RTVSPropertyOp38
 70
     1
102
RTVSPropertyOp39
 70
     1
102
RTVSPropertyOp40
 70
     1
102
RTVSPropertyOp41
 70
     1
102
RTVSPropertyOp42
 70
     1
102
RTVSPropertyOp43
 70
     1
102
RTVSPropertyOp44
 70
     1
102
RTVSPropertyOp45
 70
     1
102
RTVSPropertyOp46
 70
     1
102
RTVSPropertyOp47
 70
     1
102
RTVSPropertyOp48
 70
     1
102
RTVSPropertyOp49
 70
     1
102
RTVSPropertyOp50
 70
     1
102
RTVSPropertyOp51
 70
     0
102
RTVSPropertyOp52
 70
     0
102
RTVSPropertyOp53
 70
     1
102
RTVSPropertyOp54
 70
     1
102
RTVSPropertyOp55
 70
     1
102
RTVSPropertyOp56
 70
     1
102
RTVSPropertyOp57
 70
     1
102
RTVSPropertyOp58
 70
     1
102
RTVSPropertyOp59
 70
     1
102
RTVSPropertyOp60
 70
     1
102
RTVSPropertyOp61
 70
     1
102
RTVSPropertyOp62
 70
     1
  0
XRECORD
  5
179
102
{ACAD_REACTORS
330
178
102
}
330
178
100
AcDbXrecord
280
     1
102
RTVSPost2010Prop28
280
     0
102
RTVSPost2010PropOp28
 70
     1
102
RTVSPost2010Prop29
280
     1
102
RTVSPost2010PropOp29
 70
     1
102
RTVSPost2010Prop30
280
     1
102
RTVSPost2010PropOp30
 70
     1
102
RTVSPost2010Prop31
280
     0
102
RTVSPost2010PropOp31
 70
     1
102
RTVSPost2010Prop32
280
     0
102
RTVSPost2010PropOp32
 70
     1
102
RTVSPost2010Prop33
280
     0
102
RTVSPost2010PropOp33
 70
     1
102
RTVSPost2010Prop34
280
     0
102
RTVSPost2010PropOp34
 70
     1
102
RTVSPost2010Prop35
280
     0
102
RTVSPost2010PropOp35
 70
     1
102
RTVSPost2010Prop36
280
     0
102
RTVSPost2010PropOp36
 70
     1
102
RTVSPost2010Prop37
 90
       50
102
RTVSPost2010PropOp37
 70
     1
102
RTVSPost2010Prop38
140
0.0
102
RTVSPost2010PropOp38
 70
     1
102
RTVSPost2010Prop39
140
1.0
102
RTVSPost2010PropOp39
 70
     1
102
RTVSPost2010Prop40
 90
        0
102
RTVSPost2010PropOp40
 70
     1
102
RTVSPost2010Prop41ColorIndex
 90
       18
102
RTVSPost2010Prop41ColorRGB
 90
        0
102
RTVSPost2010PropOp41
 70
     1
102
RTVSPost2010Prop42
 90
       50
102
RTVSPost2010PropOp42
 70
     1
102
RTVSPost2010Prop43
 90
        3
102
RTVSPost2010PropOp43
 70
     1
102
RTVSPost2010Prop44ColorIndex
 90
        5
102
RTVSPost2010Prop44ColorRGB
 90
      255
102
RTVSPost2010PropOp44
 70
     1
102
RTVSPost2010Prop45
280
     0
102
RTVSPost2010PropOp45
 70
     1
102
RTVSPost2010Prop46
 90
       50
102
RTVSPost2010PropOp46
 70
     1
102
RTVSPost2010Prop47
 90
       50
102
RTVSPost2010PropOp47
 70
     1
102
RTVSPost2010Prop48
 90
       50
102
RTVSPost2010PropOp48
 70
     1
102
RTVSPost2010Prop49
280
     0
102
RTVSPost2010PropOp49
 70
     1
102
RTVSPost2010Prop50
 90
       50
102
RTVSPost2010PropOp50
 70
     1
102
RTVSPost2010Prop51ColorIndex
 90
      256
102
RTVSPost2010Prop51ColorRGB
 90
-16777216
102
RTVSPost2010PropOp51
 70
     0
102
RTVSPost2010Prop52
140
1.0
102
RTVSPost2010PropOp52
 70
     0
102
RTVSPost2010Prop53
 90
        2
102
RTVSPost2010PropOp53
 70
     1
102
RTVSPost2010Prop54
  1
strokes_ogs.tif
102
RTVSPost2010PropOp54
 70
     1
102
RTVSPost2010Prop55
280
     0
102
RTVSPost2010PropOp55
 70
     1
102
RTVSPost2010Prop56
140
1.0
102
RTVSPost2010PropOp56
 70
     1
102
RTVSPost2010Prop57
140
1.0
102
RTVSPost2010PropOp57
 70
     1
102
RTVSPropertyOp0
 70
     1
102
RTVSPropertyOp1
 70
     1
102
RTVSPropertyOp2
 70
     1
102
RTVSPropertyOp3
 70
     1
102
RTVSPropertyOp4
 70
     1
102
RTVSPropertyOp5
 70
     1
102
RTVSPropertyOp6
 70
     1
102
RTVSPropertyOp7
 70
     1
102
RTVSPropertyOp8
 70
     1
102
RTVSPropertyOp9
 70
     1
102
RTVSPropertyOp10
 70
     1
102
RTVSPropertyOp11
 70
     1
102
RTVSPropertyOp12
 70
     1
102
RTVSPropertyOp13
 70
     1
102
RTVSPropertyOp14
 70
     1
102
RTVSPropertyOp15
 70
     1
102
RTVSPropertyOp16
 70
     1
102
RTVSPropertyOp17
 70
     1
102
RTVSPropertyOp18
 70
     1
102
RTVSPropertyOp19
 70
     1
102
RTVSPropertyOp20
 70
     1
102
RTVSPropertyOp21
 70
     1
102
RTVSPropertyOp22
 70
     1
102
RTVSPropertyOp23
 70
     1
102
RTVSPropertyOp24
 70
     1
102
RTVSPropertyOp25
 70
     1
102
RTVSPropertyOp26
 70
     1
102
RTVSPropertyOp27
 70
     1
102
RTVSPropertyOp28
 70
     1
102
RTVSPropertyOp29
 70
     1
102
RTVSPropertyOp30
 70
     1
102
RTVSPropertyOp31
 70
     1
102
RTVSPropertyOp32
 70
     1
102
RTVSPropertyOp33
 70
     1
102
RTVSPropertyOp34
 70
     1
102
RTVSPropertyOp35
 70
     1
102
RTVSPropertyOp36
 70
     1
102
RTVSPropertyOp37
 70
     1
102
RTVSPropertyOp38
 70
     1
102
RTVSPropertyOp39
 70
     1
102
RTVSPropertyOp40
 70
     1
102
RTVSPropertyOp41
 70
     1
102
RTVSPropertyOp42
 70
     1
102
RTVSPropertyOp43
 70
     1
102
RTVSPropertyOp44
 70
     1
102
RTVSPropertyOp45
 70
     1
102
RTVSPropertyOp46
 70
     1
102
RTVSPropertyOp47
 70
     1
102
RTVSPropertyOp48
 70
     1
102
RTVSPropertyOp49
 70
     1
102
RTVSPropertyOp50
 70
     1
102
RTVSPropertyOp51
 70
     0
102
RTVSPropertyOp52
 70
     0
102
RTVSPropertyOp53
 70
     1
102
RTVSPropertyOp54
 70
     1
102
RTVSPropertyOp55
 70
     1
102
RTVSPropertyOp56
 70
     1
102
RTVSPropertyOp57
 70
     1
102
RTVSPropertyOp58
 70
     1
102
RTVSPropertyOp59
 70
     1
102
RTVSPropertyOp60
 70
     1
102
RTVSPropertyOp61
 70
     1
102
RTVSPropertyOp62
 70
     1
  0
XRECORD
  5
17D
102
{ACAD_REACTORS
330
17C
102
}
330
17C
100
AcDbXrecord
280
     1
102
RTVSPost2010Prop28
280
     0
102
RTVSPost2010PropOp28
 70
     1
102
RTVSPost2010Prop29
280
     1
102
RTVSPost2010PropOp29
 70
     1
102
RTVSPost2010Prop30
280
     1
102
RTVSPost2010PropOp30
 70
     1
102
RTVSPost2010Prop31
280
     0
102
RTVSPost2010PropOp31
 70
     1
102
RTVSPost2010Prop32
280
     0
102
RTVSPost2010PropOp32
 70
     1
102
RTVSPost2010Prop33
280
     0
102
RTVSPost2010PropOp33
 70
     1
102
RTVSPost2010Prop34
280
     0
102
RTVSPost2010PropOp34
 70
     1
102
RTVSPost2010Prop35
280
     0
102
RTVSPost2010PropOp35
 70
     1
102
RTVSPost2010Prop36
280
     0
102
RTVSPost2010PropOp36
 70
     1
102
RTVSPost2010Prop37
 90
       50
102
RTVSPost2010PropOp37
 70
     1
102
RTVSPost2010Prop38
140
0.0
102
RTVSPost2010PropOp38
 70
     1
102
RTVSPost2010Prop39
140
1.0
102
RTVSPost2010PropOp39
 70
     1
102
RTVSPost2010Prop40
 90
        0
102
RTVSPost2010PropOp40
 70
     1
102
RTVSPost2010Prop41ColorIndex
 90
       18
102
RTVSPost2010Prop41ColorRGB
 90
        0
102
RTVSPost2010PropOp41
 70
     1
102
RTVSPost2010Prop42
 90
       50
102
RTVSPost2010PropOp42
 70
     1
102
RTVSPost2010Prop43
 90
        3
102
RTVSPost2010PropOp43
 70
     1
102
RTVSPost2010Prop44ColorIndex
 90
        5
102
RTVSPost2010Prop44ColorRGB
 90
      255
102
RTVSPost2010PropOp44
 70
     1
102
RTVSPost2010Prop45
280
     0
102
RTVSPost2010PropOp45
 70
     1
102
RTVSPost2010Prop46
 90
       50
102
RTVSPost2010PropOp46
 70
     1
102
RTVSPost2010Prop47
 90
       50
102
RTVSPost2010PropOp47
 70
     1
102
RTVSPost2010Prop48
 90
       50
102
RTVSPost2010PropOp48
 70
     1
102
RTVSPost2010Prop49
280
     0
102
RTVSPost2010PropOp49
 70
     1
102
RTVSPost2010Prop50
 90
       50
102
RTVSPost2010PropOp50
 70
     1
102
RTVSPost2010Prop51ColorIndex
 90
      256
102
RTVSPost2010Prop51ColorRGB
 90
-16777216
102
RTVSPost2010PropOp51
 70
     0
102
RTVSPost2010Prop52
140
1.0
102
RTVSPost2010PropOp52
 70
     0
102
RTVSPost2010Prop53
 90
        2
102
RTVSPost2010PropOp53
 70
     1
102
RTVSPost2010Prop54
  1
strokes_ogs.tif
102
RTVSPost2010PropOp54
 70
     1
102
RTVSPost2010Prop55
280
     0
102
RTVSPost2010PropOp55
 70
     1
102
RTVSPost2010Prop56
140
1.0
102
RTVSPost2010PropOp56
 70
     1
102
RTVSPost2010Prop57
140
1.0
102
RTVSPost2010PropOp57
 70
     1
102
RTVSPropertyOp0
 70
     1
102
RTVSPropertyOp1
 70
     1
102
RTVSPropertyOp2
 70
     1
102
RTVSPropertyOp3
 70
     1
102
RTVSPropertyOp4
 70
     1
102
RTVSPropertyOp5
 70
     1
102
RTVSPropertyOp6
 70
     1
102
RTVSPropertyOp7
 70
     1
102
RTVSPropertyOp8
 70
     1
102
RTVSPropertyOp9
 70
     1
102
RTVSPropertyOp10
 70
     1
102
RTVSPropertyOp11
 70
     1
102
RTVSPropertyOp12
 70
     1
102
RTVSPropertyOp13
 70
     1
102
RTVSPropertyOp14
 70
     1
102
RTVSPropertyOp15
 70
     1
102
RTVSPropertyOp16
 70
     1
102
RTVSPropertyOp17
 70
     1
102
RTVSPropertyOp18
 70
     1
102
RTVSPropertyOp19
 70
     1
102
RTVSPropertyOp20
 70
     1
102
RTVSPropertyOp21
 70
     1
102
RTVSPropertyOp22
 70
     1
102
RTVSPropertyOp23
 70
     1
102
RTVSPropertyOp24
 70
     1
102
RTVSPropertyOp25
 70
     1
102
RTVSPropertyOp26
 70
     1
102
RTVSPropertyOp27
 70
     1
102
RTVSPropertyOp28
 70
     1
102
RTVSPropertyOp29
 70
     1
102
RTVSPropertyOp30
 70
     1
102
RTVSPropertyOp31
 70
     1
102
RTVSPropertyOp32
 70
     1
102
RTVSPropertyOp33
 70
     1
102
RTVSPropertyOp34
 70
     1
102
RTVSPropertyOp35
 70
     1
102
RTVSPropertyOp36
 70
     1
102
RTVSPropertyOp37
 70
     1
102
RTVSPropertyOp38
 70
     1
102
RTVSPropertyOp39
 70
     1
102
RTVSPropertyOp40
 70
     1
102
RTVSPropertyOp41
 70
     1
102
RTVSPropertyOp42
 70
     1
102
RTVSPropertyOp43
 70
     1
102
RTVSPropertyOp44
 70
     1
102
RTVSPropertyOp45
 70
     1
102
RTVSPropertyOp46
 70
     1
102
RTVSPropertyOp47
 70
     1
102
RTVSPropertyOp48
 70
     1
102
RTVSPropertyOp49
 70
     1
102
RTVSPropertyOp50
 70
     1
102
RTVSPropertyOp51
 70
     0
102
RTVSPropertyOp52
 70
     0
102
RTVSPropertyOp53
 70
     1
102
RTVSPropertyOp54
 70
     1
102
RTVSPropertyOp55
 70
     1
102
RTVSPropertyOp56
 70
     1
102
RTVSPropertyOp57
 70
     1
102
RTVSPropertyOp58
 70
     1
102
RTVSPropertyOp59
 70
     1
102
RTVSPropertyOp60
 70
     1
102
RTVSPropertyOp61
 70
     1
102
RTVSPropertyOp62
 70
     1
  0
XRECORD
  5
197
102
{ACAD_REACTORS
330
196
102
}
330
196
100
AcDbXrecord
280
     1
102
RTVSPost2010Prop28
280
     0
102
RTVSPost2010PropOp28
 70
     0
102
RTVSPost2010Prop29
280
     1
102
RTVSPost2010PropOp29
 70
     0
102
RTVSPost2010Prop30
280
     1
102
RTVSPost2010PropOp30
 70
     0
102
RTVSPost2010Prop31
280
     0
102
RTVSPost2010PropOp31
 70
     0
102
RTVSPost2010Prop32
280
     0
102
RTVSPost2010PropOp32
 70
     0
102
RTVSPost2010Prop33
280
     0
102
RTVSPost2010PropOp33
 70
     0
102
RTVSPost2010Prop34
280
     0
102
RTVSPost2010PropOp34
 70
     0
102
RTVSPost2010Prop35
280
     0
102
RTVSPost2010PropOp35
 70
     0
102
RTVSPost2010Prop36
280
     0
102
RTVSPost2010PropOp36
 70
     0
102
RTVSPost2010Prop37
 90
       50
102
RTVSPost2010PropOp37
 70
     0
102
RTVSPost2010Prop38
140
0.0
102
RTVSPost2010PropOp38
 70
     0
102
RTVSPost2010Prop39
140
1.0
102
RTVSPost2010PropOp39
 70
     0
102
RTVSPost2010Prop40
 90
        0
102
RTVSPost2010PropOp40
 70
     0
102
RTVSPost2010Prop41ColorIndex
 90
       18
102
RTVSPost2010Prop41ColorRGB
 90
        0
102
RTVSPost2010PropOp41
 70
     0
102
RTVSPost2010Prop42
 90
       50
102
RTVSPost2010PropOp42
 70
     0
102
RTVSPost2010Prop43
 90
        3
102
RTVSPost2010PropOp43
 70
     0
102
RTVSPost2010Prop44ColorIndex
 90
        5
102
RTVSPost2010Prop44ColorRGB
 90
      255
102
RTVSPost2010PropOp44
 70
     0
102
RTVSPost2010Prop45
280
     0
102
RTVSPost2010PropOp45
 70
     0
102
RTVSPost2010Prop46
 90
       50
102
RTVSPost2010PropOp46
 70
     0
102
RTVSPost2010Prop47
 90
       50
102
RTVSPost2010PropOp47
 70
     0
102
RTVSPost2010Prop48
 90
       50
102
RTVSPost2010PropOp48
 70
     0
102
RTVSPost2010Prop49
280
     0
102
RTVSPost2010PropOp49
 70
     0
102
RTVSPost2010Prop50
 90
       50
102
RTVSPost2010PropOp50
 70
     0
102
RTVSPost2010Prop51ColorIndex
 90
      256
102
RTVSPost2010Prop51ColorRGB
 90
-16777216
102
RTVSPost2010PropOp51
 70
     0
102
RTVSPost2010Prop52
140
1.0
102
RTVSPost2010PropOp52
 70
     0
102
RTVSPost2010Prop53
 90
        2
102
RTVSPost2010PropOp53
 70
     0
102
RTVSPost2010Prop54
  1
strokes_ogs.tif
102
RTVSPost2010PropOp54
 70
     0
102
RTVSPost2010Prop55
280
     0
102
RTVSPost2010PropOp55
 70
     0
102
RTVSPost2010Prop56
140
1.0
102
RTVSPost2010PropOp56
 70
     0
102
RTVSPost2010Prop57
140
1.0
102
RTVSPost2010PropOp57
 70
     0
102
RTVSPropertyOp0
 70
     0
102
RTVSPropertyOp1
 70
     0
102
RTVSPropertyOp2
 70
     0
102
RTVSPropertyOp3
 70
     0
102
RTVSPropertyOp4
 70
     0
102
RTVSPropertyOp5
 70
     0
102
RTVSPropertyOp6
 70
     0
102
RTVSPropertyOp7
 70
     0
102
RTVSPropertyOp8
 70
     0
102
RTVSPropertyOp9
 70
     0
102
RTVSPropertyOp10
 70
     0
102
RTVSPropertyOp11
 70
     0
102
RTVSPropertyOp12
 70
     0
102
RTVSPropertyOp13
 70
     0
102
RTVSPropertyOp14
 70
     2
102
RTVSPropertyOp15
 70
     0
102
RTVSPropertyOp16
 70
     0
102
RTVSPropertyOp17
 70
     0
102
RTVSPropertyOp18
 70
     0
102
RTVSPropertyOp19
 70
     0
102
RTVSPropertyOp20
 70
     0
102
RTVSPropertyOp21
 70
     0
102
RTVSPropertyOp22
 70
     0
102
RTVSPropertyOp23
 70
     0
102
RTVSPropertyOp24
 70
     0
102
RTVSPropertyOp25
 70
     0
102
RTVSPropertyOp26
 70
     0
102
RTVSPropertyOp27
 70
     0
102
RTVSPropertyOp28
 70
     0
102
RTVSPropertyOp29
 70
     0
102
RTVSPropertyOp30
 70
     0
102
RTVSPropertyOp31
 70
     0
102
RTVSPropertyOp32
 70
     0
102
RTVSPropertyOp33
 70
     0
102
RTVSPropertyOp34
 70
     0
102
RTVSPropertyOp35
 70
     0
102
RTVSPropertyOp36
 70
     0
102
RTVSPropertyOp37
 70
     0
102
RTVSPropertyOp38
 70
     0
102
RTVSPropertyOp39
 70
     0
102
RTVSPropertyOp40
 70
     0
102
RTVSPropertyOp41
 70
     0
102
RTVSPropertyOp42
 70
     0
102
RTVSPropertyOp43
 70
     0
102
RTVSPropertyOp44
 70
     0
102
RTVSPropertyOp45
 70
     0
102
RTVSPropertyOp46
 70
     0
102
RTVSPropertyOp47
 70
     0
102
RTVSPropertyOp48
 70
     0
102
RTVSPropertyOp49
 70
     0
102
RTVSPropertyOp50
 70
     0
102
RTVSPropertyOp51
 70
     0
102
RTVSPropertyOp52
 70
     0
102
RTVSPropertyOp53
 70
     0
102
RTVSPropertyOp54
 70
     0
102
RTVSPropertyOp55
 70
     0
102
RTVSPropertyOp56
 70
     0
102
RTVSPropertyOp57
 70
     0
102
RTVSPropertyOp58
 70
     1
102
RTVSPropertyOp59
 70
     1
102
RTVSPropertyOp60
 70
     1
102
RTVSPropertyOp61
 70
     1
102
RTVSPropertyOp62
 70
     1
  0
XRECORD
  5
185
102
{ACAD_REACTORS
330
184
102
}
330
184
100
AcDbXrecord
280
     1
102
RTVSPost2010Prop28
280
     0
102
RTVSPost2010PropOp28
 70
     1
102
RTVSPost2010Prop29
280
     1
102
RTVSPost2010PropOp29
 70
     1
102
RTVSPost2010Prop30
280
     1
102
RTVSPost2010PropOp30
 70
     1
102
RTVSPost2010Prop31
280
     0
102
RTVSPost2010PropOp31
 70
     1
102
RTVSPost2010Prop32
280
     0
102
RTVSPost2010PropOp32
 70
     1
102
RTVSPost2010Prop33
280
     0
102
RTVSPost2010PropOp33
 70
     1
102
RTVSPost2010Prop34
280
     0
102
RTVSPost2010PropOp34
 70
     1
102
RTVSPost2010Prop35
280
     0
102
RTVSPost2010PropOp35
 70
     1
102
RTVSPost2010Prop36
280
     0
102
RTVSPost2010PropOp36
 70
     1
102
RTVSPost2010Prop37
 90
       50
102
RTVSPost2010PropOp37
 70
     1
102
RTVSPost2010Prop38
140
0.0
102
RTVSPost2010PropOp38
 70
     1
102
RTVSPost2010Prop39
140
1.0
102
RTVSPost2010PropOp39
 70
     1
102
RTVSPost2010Prop40
 90
        0
102
RTVSPost2010PropOp40
 70
     1
102
RTVSPost2010Prop41ColorIndex
 90
       18
102
RTVSPost2010Prop41ColorRGB
 90
        0
102
RTVSPost2010PropOp41
 70
     1
102
RTVSPost2010Prop42
 90
       50
102
RTVSPost2010PropOp42
 70
     1
102
RTVSPost2010Prop43
 90
        3
102
RTVSPost2010PropOp43
 70
     1
102
RTVSPost2010Prop44ColorIndex
 90
        5
102
RTVSPost2010Prop44ColorRGB
 90
      255
102
RTVSPost2010PropOp44
 70
     1
102
RTVSPost2010Prop45
280
     0
102
RTVSPost2010PropOp45
 70
     1
102
RTVSPost2010Prop46
 90
       50
102
RTVSPost2010PropOp46
 70
     1
102
RTVSPost2010Prop47
 90
       50
102
RTVSPost2010PropOp47
 70
     1
102
RTVSPost2010Prop48
 90
       50
102
RTVSPost2010PropOp48
 70
     1
102
RTVSPost2010Prop49
280
     0
102
RTVSPost2010PropOp49
 70
     1
102
RTVSPost2010Prop50
 90
       50
102
RTVSPost2010PropOp50
 70
     1
102
RTVSPost2010Prop51ColorIndex
 90
      256
102
RTVSPost2010Prop51ColorRGB
 90
-16777216
102
RTVSPost2010PropOp51
 70
     0
102
RTVSPost2010Prop52
140
1.0
102
RTVSPost2010PropOp52
 70
     0
102
RTVSPost2010Prop53
 90
        2
102
RTVSPost2010PropOp53
 70
     1
102
RTVSPost2010Prop54
  1
strokes_ogs.tif
102
RTVSPost2010PropOp54
 70
     1
102
RTVSPost2010Prop55
280
     0
102
RTVSPost2010PropOp55
 70
     1
102
RTVSPost2010Prop56
140
1.0
102
RTVSPost2010PropOp56
 70
     1
102
RTVSPost2010Prop57
140
1.0
102
RTVSPost2010PropOp57
 70
     1
102
RTVSPropertyOp0
 70
     1
102
RTVSPropertyOp1
 70
     1
102
RTVSPropertyOp2
 70
     1
102
RTVSPropertyOp3
 70
     1
102
RTVSPropertyOp4
 70
     1
102
RTVSPropertyOp5
 70
     1
102
RTVSPropertyOp6
 70
     1
102
RTVSPropertyOp7
 70
     1
102
RTVSPropertyOp8
 70
     1
102
RTVSPropertyOp9
 70
     1
102
RTVSPropertyOp10
 70
     1
102
RTVSPropertyOp11
 70
     1
102
RTVSPropertyOp12
 70
     1
102
RTVSPropertyOp13
 70
     1
102
RTVSPropertyOp14
 70
     1
102
RTVSPropertyOp15
 70
     1
102
RTVSPropertyOp16
 70
     1
102
RTVSPropertyOp17
 70
     1
102
RTVSPropertyOp18
 70
     1
102
RTVSPropertyOp19
 70
     1
102
RTVSPropertyOp20
 70
     1
102
RTVSPropertyOp21
 70
     1
102
RTVSPropertyOp22
 70
     1
102
RTVSPropertyOp23
 70
     1
102
RTVSPropertyOp24
 70
     1
102
RTVSPropertyOp25
 70
     1
102
RTVSPropertyOp26
 70
     1
102
RTVSPropertyOp27
 70
     1
102
RTVSPropertyOp28
 70
     1
102
RTVSPropertyOp29
 70
     1
102
RTVSPropertyOp30
 70
     1
102
RTVSPropertyOp31
 70
     1
102
RTVSPropertyOp32
 70
     1
102
RTVSPropertyOp33
 70
     1
102
RTVSPropertyOp34
 70
     1
102
RTVSPropertyOp35
 70
     1
102
RTVSPropertyOp36
 70
     1
102
RTVSPropertyOp37
 70
     1
102
RTVSPropertyOp38
 70
     1
102
RTVSPropertyOp39
 70
     1
102
RTVSPropertyOp40
 70
     1
102
RTVSPropertyOp41
 70
     1
102
RTVSPropertyOp42
 70
     1
102
RTVSPropertyOp43
 70
     1
102
RTVSPropertyOp44
 70
     1
102
RTVSPropertyOp45
 70
     1
102
RTVSPropertyOp46
 70
     1
102
RTVSPropertyOp47
 70
     1
102
RTVSPropertyOp48
 70
     1
102
RTVSPropertyOp49
 70
     1
102
RTVSPropertyOp50
 70
     1
102
RTVSPropertyOp51
 70
     0
102
RTVSPropertyOp52
 70
     0
102
RTVSPropertyOp53
 70
     1
102
RTVSPropertyOp54
 70
     1
102
RTVSPropertyOp55
 70
     1
102
RTVSPropertyOp56
 70
     1
102
RTVSPropertyOp57
 70
     1
102
RTVSPropertyOp58
 70
     1
102
RTVSPropertyOp59
 70
     1
102
RTVSPropertyOp60
 70
     1
102
RTVSPropertyOp61
 70
     1
102
RTVSPropertyOp62
 70
     1
  0
XRECORD
  5
169
102
{ACAD_REACTORS
330
168
102
}
330
168
100
AcDbXrecord
280
     1
102
RTVSPost2010Prop28
280
     0
102
RTVSPost2010PropOp28
 70
     1
102
RTVSPost2010Prop29
280
     1
102
RTVSPost2010PropOp29
 70
     1
102
RTVSPost2010Prop30
280
     1
102
RTVSPost2010PropOp30
 70
     1
102
RTVSPost2010Prop31
280
     0
102
RTVSPost2010PropOp31
 70
     1
102
RTVSPost2010Prop32
280
     0
102
RTVSPost2010PropOp32
 70
     1
102
RTVSPost2010Prop33
280
     0
102
RTVSPost2010PropOp33
 70
     1
102
RTVSPost2010Prop34
280
     0
102
RTVSPost2010PropOp34
 70
     1
102
RTVSPost2010Prop35
280
     0
102
RTVSPost2010PropOp35
 70
     1
102
RTVSPost2010Prop36
280
     0
102
RTVSPost2010PropOp36
 70
     1
102
RTVSPost2010Prop37
 90
       50
102
RTVSPost2010PropOp37
 70
     1
102
RTVSPost2010Prop38
140
0.0
102
RTVSPost2010PropOp38
 70
     1
102
RTVSPost2010Prop39
140
1.0
102
RTVSPost2010PropOp39
 70
     1
102
RTVSPost2010Prop40
 90
        0
102
RTVSPost2010PropOp40
 70
     1
102
RTVSPost2010Prop41ColorIndex
 90
       18
102
RTVSPost2010Prop41ColorRGB
 90
        0
102
RTVSPost2010PropOp41
 70
     1
102
RTVSPost2010Prop42
 90
       50
102
RTVSPost2010PropOp42
 70
     1
102
RTVSPost2010Prop43
 90
        3
102
RTVSPost2010PropOp43
 70
     1
102
RTVSPost2010Prop44ColorIndex
 90
        5
102
RTVSPost2010Prop44ColorRGB
 90
      255
102
RTVSPost2010PropOp44
 70
     1
102
RTVSPost2010Prop45
280
     0
102
RTVSPost2010PropOp45
 70
     1
102
RTVSPost2010Prop46
 90
       50
102
RTVSPost2010PropOp46
 70
     1
102
RTVSPost2010Prop47
 90
       50
102
RTVSPost2010PropOp47
 70
     1
102
RTVSPost2010Prop48
 90
       50
102
RTVSPost2010PropOp48
 70
     1
102
RTVSPost2010Prop49
280
     0
102
RTVSPost2010PropOp49
 70
     1
102
RTVSPost2010Prop50
 90
       50
102
RTVSPost2010PropOp50
 70
     1
102
RTVSPost2010Prop51ColorIndex
 90
      256
102
RTVSPost2010Prop51ColorRGB
 90
-16777216
102
RTVSPost2010PropOp51
 70
     0
102
RTVSPost2010Prop52
140
1.0
102
RTVSPost2010PropOp52
 70
     0
102
RTVSPost2010Prop53
 90
        2
102
RTVSPost2010PropOp53
 70
     1
102
RTVSPost2010Prop54
  1
strokes_ogs.tif
102
RTVSPost2010PropOp54
 70
     1
102
RTVSPost2010Prop55
280
     0
102
RTVSPost2010PropOp55
 70
     1
102
RTVSPost2010Prop56
140
1.0
102
RTVSPost2010PropOp56
 70
     1
102
RTVSPost2010Prop57
140
1.0
102
RTVSPost2010PropOp57
 70
     1
102
RTVSPropertyOp0
 70
     1
102
RTVSPropertyOp1
 70
     1
102
RTVSPropertyOp2
 70
     1
102
RTVSPropertyOp3
 70
     1
102
RTVSPropertyOp4
 70
     1
102
RTVSPropertyOp5
 70
     1
102
RTVSPropertyOp6
 70
     1
102
RTVSPropertyOp7
 70
     1
102
RTVSPropertyOp8
 70
     1
102
RTVSPropertyOp9
 70
     1
102
RTVSPropertyOp10
 70
     1
102
RTVSPropertyOp11
 70
     1
102
RTVSPropertyOp12
 70
     1
102
RTVSPropertyOp13
 70
     1
102
RTVSPropertyOp14
 70
     1
102
RTVSPropertyOp15
 70
     1
102
RTVSPropertyOp16
 70
     1
102
RTVSPropertyOp17
 70
     1
102
RTVSPropertyOp18
 70
     1
102
RTVSPropertyOp19
 70
     1
102
RTVSPropertyOp20
 70
     1
102
RTVSPropertyOp21
 70
     1
102
RTVSPropertyOp22
 70
     1
102
RTVSPropertyOp23
 70
     1
102
RTVSPropertyOp24
 70
     1
102
RTVSPropertyOp25
 70
     1
102
RTVSPropertyOp26
 70
     1
102
RTVSPropertyOp27
 70
     1
102
RTVSPropertyOp28
 70
     1
102
RTVSPropertyOp29
 70
     1
102
RTVSPropertyOp30
 70
     1
102
RTVSPropertyOp31
 70
     1
102
RTVSPropertyOp32
 70
     1
102
RTVSPropertyOp33
 70
     1
102
RTVSPropertyOp34
 70
     1
102
RTVSPropertyOp35
 70
     1
102
RTVSPropertyOp36
 70
     1
102
RTVSPropertyOp37
 70
     1
102
RTVSPropertyOp38
 70
     1
102
RTVSPropertyOp39
 70
     1
102
RTVSPropertyOp40
 70
     1
102
RTVSPropertyOp41
 70
     1
102
RTVSPropertyOp42
 70
     1
102
RTVSPropertyOp43
 70
     1
102
RTVSPropertyOp44
 70
     1
102
RTVSPropertyOp45
 70
     1
102
RTVSPropertyOp46
 70
     1
102
RTVSPropertyOp47
 70
     1
102
RTVSPropertyOp48
 70
     1
102
RTVSPropertyOp49
 70
     1
102
RTVSPropertyOp50
 70
     1
102
RTVSPropertyOp51
 70
     0
102
RTVSPropertyOp52
 70
     0
102
RTVSPropertyOp53
 70
     1
102
RTVSPropertyOp54
 70
     1
102
RTVSPropertyOp55
 70
     1
102
RTVSPropertyOp56
 70
     1
102
RTVSPropertyOp57
 70
     1
102
RTVSPropertyOp58
 70
     1
102
RTVSPropertyOp59
 70
     1
102
RTVSPropertyOp60
 70
     1
102
RTVSPropertyOp61
 70
     1
102
RTVSPropertyOp62
 70
     1
  0
XRECORD
  5
16B
102
{ACAD_REACTORS
330
16A
102
}
330
16A
100
AcDbXrecord
280
     1
102
RTVSPost2010Prop28
280
     0
102
RTVSPost2010PropOp28
 70
     1
102
RTVSPost2010Prop29
280
     1
102
RTVSPost2010PropOp29
 70
     1
102
RTVSPost2010Prop30
280
     1
102
RTVSPost2010PropOp30
 70
     1
102
RTVSPost2010Prop31
280
     0
102
RTVSPost2010PropOp31
 70
     1
102
RTVSPost2010Prop32
280
     0
102
RTVSPost2010PropOp32
 70
     1
102
RTVSPost2010Prop33
280
     0
102
RTVSPost2010PropOp33
 70
     1
102
RTVSPost2010Prop34
280
     0
102
RTVSPost2010PropOp34
 70
     1
102
RTVSPost2010Prop35
280
     0
102
RTVSPost2010PropOp35
 70
     1
102
RTVSPost2010Prop36
280
     0
102
RTVSPost2010PropOp36
 70
     1
102
RTVSPost2010Prop37
 90
       50
102
RTVSPost2010PropOp37
 70
     1
102
RTVSPost2010Prop38
140
0.0
102
RTVSPost2010PropOp38
 70
     1
102
RTVSPost2010Prop39
140
1.0
102
RTVSPost2010PropOp39
 70
     1
102
RTVSPost2010Prop40
 90
        0
102
RTVSPost2010PropOp40
 70
     1
102
RTVSPost2010Prop41ColorIndex
 90
       18
102
RTVSPost2010Prop41ColorRGB
 90
        0
102
RTVSPost2010PropOp41
 70
     1
102
RTVSPost2010Prop42
 90
       50
102
RTVSPost2010PropOp42
 70
     1
102
RTVSPost2010Prop43
 90
        3
102
RTVSPost2010PropOp43
 70
     1
102
RTVSPost2010Prop44ColorIndex
 90
        5
102
RTVSPost2010Prop44ColorRGB
 90
      255
102
RTVSPost2010PropOp44
 70
     1
102
RTVSPost2010Prop45
280
     0
102
RTVSPost2010PropOp45
 70
     1
102
RTVSPost2010Prop46
 90
       50
102
RTVSPost2010PropOp46
 70
     1
102
RTVSPost2010Prop47
 90
       50
102
RTVSPost2010PropOp47
 70
     1
102
RTVSPost2010Prop48
 90
       50
102
RTVSPost2010PropOp48
 70
     1
102
RTVSPost2010Prop49
280
     0
102
RTVSPost2010PropOp49
 70
     1
102
RTVSPost2010Prop50
 90
       50
102
RTVSPost2010PropOp50
 70
     1
102
RTVSPost2010Prop51ColorIndex
 90
      256
102
RTVSPost2010Prop51ColorRGB
 90
-16777216
102
RTVSPost2010PropOp51
 70
     0
102
RTVSPost2010Prop52
140
1.0
102
RTVSPost2010PropOp52
 70
     0
102
RTVSPost2010Prop53
 90
        2
102
RTVSPost2010PropOp53
 70
     1
102
RTVSPost2010Prop54
  1
strokes_ogs.tif
102
RTVSPost2010PropOp54
 70
     1
102
RTVSPost2010Prop55
280
     0
102
RTVSPost2010PropOp55
 70
     1
102
RTVSPost2010Prop56
140
1.0
102
RTVSPost2010PropOp56
 70
     1
102
RTVSPost2010Prop57
140
1.0
102
RTVSPost2010PropOp57
 70
     1
102
RTVSPropertyOp0
 70
     1
102
RTVSPropertyOp1
 70
     1
102
RTVSPropertyOp2
 70
     1
102
RTVSPropertyOp3
 70
     1
102
RTVSPropertyOp4
 70
     1
102
RTVSPropertyOp5
 70
     1
102
RTVSPropertyOp6
 70
     1
102
RTVSPropertyOp7
 70
     1
102
RTVSPropertyOp8
 70
     1
102
RTVSPropertyOp9
 70
     1
102
RTVSPropertyOp10
 70
     1
102
RTVSPropertyOp11
 70
     1
102
RTVSPropertyOp12
 70
     1
102
RTVSPropertyOp13
 70
     1
102
RTVSPropertyOp14
 70
     1
102
RTVSPropertyOp15
 70
     1
102
RTVSPropertyOp16
 70
     1
102
RTVSPropertyOp17
 70
     1
102
RTVSPropertyOp18
 70
     1
102
RTVSPropertyOp19
 70
     1
102
RTVSPropertyOp20
 70
     1
102
RTVSPropertyOp21
 70
     1
102
RTVSPropertyOp22
 70
     1
102
RTVSPropertyOp23
 70
     1
102
RTVSPropertyOp24
 70
     1
102
RTVSPropertyOp25
 70
     1
102
RTVSPropertyOp26
 70
     1
102
RTVSPropertyOp27
 70
     1
102
RTVSPropertyOp28
 70
     1
102
RTVSPropertyOp29
 70
     1
102
RTVSPropertyOp30
 70
     1
102
RTVSPropertyOp31
 70
     1
102
RTVSPropertyOp32
 70
     1
102
RTVSPropertyOp33
 70
     1
102
RTVSPropertyOp34
 70
     1
102
RTVSPropertyOp35
 70
     1
102
RTVSPropertyOp36
 70
     1
102
RTVSPropertyOp37
 70
     1
102
RTVSPropertyOp38
 70
     1
102
RTVSPropertyOp39
 70
     1
102
RTVSPropertyOp40
 70
     1
102
RTVSPropertyOp41
 70
     1
102
RTVSPropertyOp42
 70
     1
102
RTVSPropertyOp43
 70
     1
102
RTVSPropertyOp44
 70
     1
102
RTVSPropertyOp45
 70
     1
102
RTVSPropertyOp46
 70
     1
102
RTVSPropertyOp47
 70
     1
102
RTVSPropertyOp48
 70
     1
102
RTVSPropertyOp49
 70
     1
102
RTVSPropertyOp50
 70
     1
102
RTVSPropertyOp51
 70
     0
102
RTVSPropertyOp52
 70
     0
102
RTVSPropertyOp53
 70
     1
102
RTVSPropertyOp54
 70
     1
102
RTVSPropertyOp55
 70
     1
102
RTVSPropertyOp56
 70
     1
102
RTVSPropertyOp57
 70
     1
102
RTVSPropertyOp58
 70
     1
102
RTVSPropertyOp59
 70
     1
102
RTVSPropertyOp60
 70
     1
102
RTVSPropertyOp61
 70
     1
102
RTVSPropertyOp62
 70
     1
  0
XRECORD
  5
16D
102
{ACAD_REACTORS
330
16C
102
}
330
16C
100
AcDbXrecord
280
     1
102
RTVSPost2010Prop28
280
     0
102
RTVSPost2010PropOp28
 70
     1
102
RTVSPost2010Prop29
280
     1
102
RTVSPost2010PropOp29
 70
     1
102
RTVSPost2010Prop30
280
     1
102
RTVSPost2010PropOp30
 70
     1
102
RTVSPost2010Prop31
280
     0
102
RTVSPost2010PropOp31
 70
     1
102
RTVSPost2010Prop32
280
     0
102
RTVSPost2010PropOp32
 70
     1
102
RTVSPost2010Prop33
280
     0
102
RTVSPost2010PropOp33
 70
     1
102
RTVSPost2010Prop34
280
     0
102
RTVSPost2010PropOp34
 70
     1
102
RTVSPost2010Prop35
280
     0
102
RTVSPost2010PropOp35
 70
     1
102
RTVSPost2010Prop36
280
     0
102
RTVSPost2010PropOp36
 70
     1
102
RTVSPost2010Prop37
 90
       50
102
RTVSPost2010PropOp37
 70
     1
102
RTVSPost2010Prop38
140
0.0
102
RTVSPost2010PropOp38
 70
     1
102
RTVSPost2010Prop39
140
1.0
102
RTVSPost2010PropOp39
 70
     1
102
RTVSPost2010Prop40
 90
        0
102
RTVSPost2010PropOp40
 70
     1
102
RTVSPost2010Prop41ColorIndex
 90
       18
102
RTVSPost2010Prop41ColorRGB
 90
        0
102
RTVSPost2010PropOp41
 70
     1
102
RTVSPost2010Prop42
 90
       50
102
RTVSPost2010PropOp42
 70
     1
102
RTVSPost2010Prop43
 90
        3
102
RTVSPost2010PropOp43
 70
     1
102
RTVSPost2010Prop44ColorIndex
 90
        5
102
RTVSPost2010Prop44ColorRGB
 90
      255
102
RTVSPost2010PropOp44
 70
     1
102
RTVSPost2010Prop45
280
     0
102
RTVSPost2010PropOp45
 70
     1
102
RTVSPost2010Prop46
 90
       50
102
RTVSPost2010PropOp46
 70
     1
102
RTVSPost2010Prop47
 90
       50
102
RTVSPost2010PropOp47
 70
     1
102
RTVSPost2010Prop48
 90
       50
102
RTVSPost2010PropOp48
 70
     1
102
RTVSPost2010Prop49
280
     0
102
RTVSPost2010PropOp49
 70
     1
102
RTVSPost2010Prop50
 90
       50
102
RTVSPost2010PropOp50
 70
     1
102
RTVSPost2010Prop51ColorIndex
 90
      256
102
RTVSPost2010Prop51ColorRGB
 90
-16777216
102
RTVSPost2010PropOp51
 70
     0
102
RTVSPost2010Prop52
140
1.0
102
RTVSPost2010PropOp52
 70
     0
102
RTVSPost2010Prop53
 90
        2
102
RTVSPost2010PropOp53
 70
     1
102
RTVSPost2010Prop54
  1
strokes_ogs.tif
102
RTVSPost2010PropOp54
 70
     1
102
RTVSPost2010Prop55
280
     0
102
RTVSPost2010PropOp55
 70
     1
102
RTVSPost2010Prop56
140
1.0
102
RTVSPost2010PropOp56
 70
     1
102
RTVSPost2010Prop57
140
1.0
102
RTVSPost2010PropOp57
 70
     1
102
RTVSPropertyOp0
 70
     1
102
RTVSPropertyOp1
 70
     1
102
RTVSPropertyOp2
 70
     1
102
RTVSPropertyOp3
 70
     1
102
RTVSPropertyOp4
 70
     1
102
RTVSPropertyOp5
 70
     1
102
RTVSPropertyOp6
 70
     1
102
RTVSPropertyOp7
 70
     1
102
RTVSPropertyOp8
 70
     1
102
RTVSPropertyOp9
 70
     1
102
RTVSPropertyOp10
 70
     1
102
RTVSPropertyOp11
 70
     1
102
RTVSPropertyOp12
 70
     1
102
RTVSPropertyOp13
 70
     1
102
RTVSPropertyOp14
 70
     1
102
RTVSPropertyOp15
 70
     1
102
RTVSPropertyOp16
 70
     1
102
RTVSPropertyOp17
 70
     1
102
RTVSPropertyOp18
 70
     1
102
RTVSPropertyOp19
 70
     1
102
RTVSPropertyOp20
 70
     1
102
RTVSPropertyOp21
 70
     1
102
RTVSPropertyOp22
 70
     1
102
RTVSPropertyOp23
 70
     1
102
RTVSPropertyOp24
 70
     1
102
RTVSPropertyOp25
 70
     1
102
RTVSPropertyOp26
 70
     1
102
RTVSPropertyOp27
 70
     1
102
RTVSPropertyOp28
 70
     1
102
RTVSPropertyOp29
 70
     1
102
RTVSPropertyOp30
 70
     1
102
RTVSPropertyOp31
 70
     1
102
RTVSPropertyOp32
 70
     1
102
RTVSPropertyOp33
 70
     1
102
RTVSPropertyOp34
 70
     1
102
RTVSPropertyOp35
 70
     1
102
RTVSPropertyOp36
 70
     1
102
RTVSPropertyOp37
 70
     1
102
RTVSPropertyOp38
 70
     1
102
RTVSPropertyOp39
 70
     1
102
RTVSPropertyOp40
 70
     1
102
RTVSPropertyOp41
 70
     1
102
RTVSPropertyOp42
 70
     1
102
RTVSPropertyOp43
 70
     1
102
RTVSPropertyOp44
 70
     1
102
RTVSPropertyOp45
 70
     1
102
RTVSPropertyOp46
 70
     1
102
RTVSPropertyOp47
 70
     1
102
RTVSPropertyOp48
 70
     1
102
RTVSPropertyOp49
 70
     1
102
RTVSPropertyOp50
 70
     1
102
RTVSPropertyOp51
 70
     0
102
RTVSPropertyOp52
 70
     0
102
RTVSPropertyOp53
 70
     1
102
RTVSPropertyOp54
 70
     1
102
RTVSPropertyOp55
 70
     1
102
RTVSPropertyOp56
 70
     1
102
RTVSPropertyOp57
 70
     1
102
RTVSPropertyOp58
 70
     1
102
RTVSPropertyOp59
 70
     1
102
RTVSPropertyOp60
 70
     1
102
RTVSPropertyOp61
 70
     1
102
RTVSPropertyOp62
 70
     1
  0
XRECORD
  5
16F
102
{ACAD_REACTORS
330
16E
102
}
330
16E
100
AcDbXrecord
280
     1
102
RTVSPost2010Prop28
280
     0
102
RTVSPost2010PropOp28
 70
     1
102
RTVSPost2010Prop29
280
     1
102
RTVSPost2010PropOp29
 70
     1
102
RTVSPost2010Prop30
280
     1
102
RTVSPost2010PropOp30
 70
     1
102
RTVSPost2010Prop31
280
     0
102
RTVSPost2010PropOp31
 70
     1
102
RTVSPost2010Prop32
280
     0
102
RTVSPost2010PropOp32
 70
     1
102
RTVSPost2010Prop33
280
     0
102
RTVSPost2010PropOp33
 70
     1
102
RTVSPost2010Prop34
280
     0
102
RTVSPost2010PropOp34
 70
     1
102
RTVSPost2010Prop35
280
     0
102
RTVSPost2010PropOp35
 70
     1
102
RTVSPost2010Prop36
280
     0
102
RTVSPost2010PropOp36
 70
     1
102
RTVSPost2010Prop37
 90
       50
102
RTVSPost2010PropOp37
 70
     1
102
RTVSPost2010Prop38
140
0.0
102
RTVSPost2010PropOp38
 70
     1
102
RTVSPost2010Prop39
140
1.0
102
RTVSPost2010PropOp39
 70
     1
102
RTVSPost2010Prop40
 90
        0
102
RTVSPost2010PropOp40
 70
     1
102
RTVSPost2010Prop41ColorIndex
 90
       18
102
RTVSPost2010Prop41ColorRGB
 90
        0
102
RTVSPost2010PropOp41
 70
     1
102
RTVSPost2010Prop42
 90
       50
102
RTVSPost2010PropOp42
 70
     1
102
RTVSPost2010Prop43
 90
        3
102
RTVSPost2010PropOp43
 70
     1
102
RTVSPost2010Prop44ColorIndex
 90
        5
102
RTVSPost2010Prop44ColorRGB
 90
      255
102
RTVSPost2010PropOp44
 70
     1
102
RTVSPost2010Prop45
280
     0
102
RTVSPost2010PropOp45
 70
     1
102
RTVSPost2010Prop46
 90
       50
102
RTVSPost2010PropOp46
 70
     1
102
RTVSPost2010Prop47
 90
       50
102
RTVSPost2010PropOp47
 70
     1
102
RTVSPost2010Prop48
 90
       50
102
RTVSPost2010PropOp48
 70
     1
102
RTVSPost2010Prop49
280
     0
102
RTVSPost2010PropOp49
 70
     1
102
RTVSPost2010Prop50
 90
       50
102
RTVSPost2010PropOp50
 70
     1
102
RTVSPost2010Prop51ColorIndex
 90
      256
102
RTVSPost2010Prop51ColorRGB
 90
-16777216
102
RTVSPost2010PropOp51
 70
     0
102
RTVSPost2010Prop52
140
1.0
102
RTVSPost2010PropOp52
 70
     0
102
RTVSPost2010Prop53
 90
        2
102
RTVSPost2010PropOp53
 70
     1
102
RTVSPost2010Prop54
  1
strokes_ogs.tif
102
RTVSPost2010PropOp54
 70
     1
102
RTVSPost2010Prop55
280
     0
102
RTVSPost2010PropOp55
 70
     1
102
RTVSPost2010Prop56
140
1.0
102
RTVSPost2010PropOp56
 70
     1
102
RTVSPost2010Prop57
140
1.0
102
RTVSPost2010PropOp57
 70
     1
102
RTVSPropertyOp0
 70
     1
102
RTVSPropertyOp1
 70
     1
102
RTVSPropertyOp2
 70
     1
102
RTVSPropertyOp3
 70
     1
102
RTVSPropertyOp4
 70
     1
102
RTVSPropertyOp5
 70
     1
102
RTVSPropertyOp6
 70
     1
102
RTVSPropertyOp7
 70
     1
102
RTVSPropertyOp8
 70
     1
102
RTVSPropertyOp9
 70
     1
102
RTVSPropertyOp10
 70
     1
102
RTVSPropertyOp11
 70
     1
102
RTVSPropertyOp12
 70
     1
102
RTVSPropertyOp13
 70
     1
102
RTVSPropertyOp14
 70
     1
102
RTVSPropertyOp15
 70
     1
102
RTVSPropertyOp16
 70
     1
102
RTVSPropertyOp17
 70
     1
102
RTVSPropertyOp18
 70
     1
102
RTVSPropertyOp19
 70
     1
102
RTVSPropertyOp20
 70
     1
102
RTVSPropertyOp21
 70
     1
102
RTVSPropertyOp22
 70
     1
102
RTVSPropertyOp23
 70
     1
102
RTVSPropertyOp24
 70
     1
102
RTVSPropertyOp25
 70
     1
102
RTVSPropertyOp26
 70
     1
102
RTVSPropertyOp27
 70
     1
102
RTVSPropertyOp28
 70
     1
102
RTVSPropertyOp29
 70
     1
102
RTVSPropertyOp30
 70
     1
102
RTVSPropertyOp31
 70
     1
102
RTVSPropertyOp32
 70
     1
102
RTVSPropertyOp33
 70
     1
102
RTVSPropertyOp34
 70
     1
102
RTVSPropertyOp35
 70
     1
102
RTVSPropertyOp36
 70
     1
102
RTVSPropertyOp37
 70
     1
102
RTVSPropertyOp38
 70
     1
102
RTVSPropertyOp39
 70
     1
102
RTVSPropertyOp40
 70
     1
102
RTVSPropertyOp41
 70
     1
102
RTVSPropertyOp42
 70
     1
102
RTVSPropertyOp43
 70
     1
102
RTVSPropertyOp44
 70
     1
102
RTVSPropertyOp45
 70
     1
102
RTVSPropertyOp46
 70
     1
102
RTVSPropertyOp47
 70
     1
102
RTVSPropertyOp48
 70
     1
102
RTVSPropertyOp49
 70
     1
102
RTVSPropertyOp50
 70
     1
102
RTVSPropertyOp51
 70
     0
102
RTVSPropertyOp52
 70
     0
102
RTVSPropertyOp53
 70
     1
102
RTVSPropertyOp54
 70
     1
102
RTVSPropertyOp55
 70
     1
102
RTVSPropertyOp56
 70
     1
102
RTVSPropertyOp57
 70
     1
102
RTVSPropertyOp58
 70
     1
102
RTVSPropertyOp59
 70
     1
102
RTVSPropertyOp60
 70
     1
102
RTVSPropertyOp61
 70
     1
102
RTVSPropertyOp62
 70
     1
  0
XRECORD
  5
177
102
{ACAD_REACTORS
330
176
102
}
330
176
100
AcDbXrecord
280
     1
102
RTVSPost2010Prop28
280
     0
102
RTVSPost2010PropOp28
 70
     1
102
RTVSPost2010Prop29
280
     1
102
RTVSPost2010PropOp29
 70
     1
102
RTVSPost2010Prop30
280
     1
102
RTVSPost2010PropOp30
 70
     1
102
RTVSPost2010Prop31
280
     0
102
RTVSPost2010PropOp31
 70
     1
102
RTVSPost2010Prop32
280
     0
102
RTVSPost2010PropOp32
 70
     1
102
RTVSPost2010Prop33
280
     0
102
RTVSPost2010PropOp33
 70
     1
102
RTVSPost2010Prop34
280
     0
102
RTVSPost2010PropOp34
 70
     1
102
RTVSPost2010Prop35
280
     0
102
RTVSPost2010PropOp35
 70
     1
102
RTVSPost2010Prop36
280
     0
102
RTVSPost2010PropOp36
 70
     1
102
RTVSPost2010Prop37
 90
       50
102
RTVSPost2010PropOp37
 70
     1
102
RTVSPost2010Prop38
140
0.0
102
RTVSPost2010PropOp38
 70
     1
102
RTVSPost2010Prop39
140
1.0
102
RTVSPost2010PropOp39
 70
     1
102
RTVSPost2010Prop40
 90
        0
102
RTVSPost2010PropOp40
 70
     1
102
RTVSPost2010Prop41ColorIndex
 90
       18
102
RTVSPost2010Prop41ColorRGB
 90
        0
102
RTVSPost2010PropOp41
 70
     1
102
RTVSPost2010Prop42
 90
       50
102
RTVSPost2010PropOp42
 70
     1
102
RTVSPost2010Prop43
 90
        3
102
RTVSPost2010PropOp43
 70
     1
102
RTVSPost2010Prop44ColorIndex
 90
        5
102
RTVSPost2010Prop44ColorRGB
 90
      255
102
RTVSPost2010PropOp44
 70
     1
102
RTVSPost2010Prop45
280
     0
102
RTVSPost2010PropOp45
 70
     1
102
RTVSPost2010Prop46
 90
       50
102
RTVSPost2010PropOp46
 70
     1
102
RTVSPost2010Prop47
 90
       50
102
RTVSPost2010PropOp47
 70
     1
102
RTVSPost2010Prop48
 90
       50
102
RTVSPost2010PropOp48
 70
     1
102
RTVSPost2010Prop49
280
     0
102
RTVSPost2010PropOp49
 70
     1
102
RTVSPost2010Prop50
 90
       50
102
RTVSPost2010PropOp50
 70
     1
102
RTVSPost2010Prop51ColorIndex
 90
      256
102
RTVSPost2010Prop51ColorRGB
 90
-16777216
102
RTVSPost2010PropOp51
 70
     0
102
RTVSPost2010Prop52
140
1.0
102
RTVSPost2010PropOp52
 70
     0
102
RTVSPost2010Prop53
 90
        2
102
RTVSPost2010PropOp53
 70
     1
102
RTVSPost2010Prop54
  1
strokes_ogs.tif
102
RTVSPost2010PropOp54
 70
     1
102
RTVSPost2010Prop55
280
     0
102
RTVSPost2010PropOp55
 70
     1
102
RTVSPost2010Prop56
140
1.0
102
RTVSPost2010PropOp56
 70
     1
102
RTVSPost2010Prop57
140
1.0
102
RTVSPost2010PropOp57
 70
     1
102
RTVSPropertyOp0
 70
     1
102
RTVSPropertyOp1
 70
     1
102
RTVSPropertyOp2
 70
     1
102
RTVSPropertyOp3
 70
     1
102
RTVSPropertyOp4
 70
     1
102
RTVSPropertyOp5
 70
     1
102
RTVSPropertyOp6
 70
     1
102
RTVSPropertyOp7
 70
     1
102
RTVSPropertyOp8
 70
     1
102
RTVSPropertyOp9
 70
     1
102
RTVSPropertyOp10
 70
     1
102
RTVSPropertyOp11
 70
     1
102
RTVSPropertyOp12
 70
     1
102
RTVSPropertyOp13
 70
     1
102
RTVSPropertyOp14
 70
     1
102
RTVSPropertyOp15
 70
     1
102
RTVSPropertyOp16
 70
     1
102
RTVSPropertyOp17
 70
     1
102
RTVSPropertyOp18
 70
     1
102
RTVSPropertyOp19
 70
     1
102
RTVSPropertyOp20
 70
     1
102
RTVSPropertyOp21
 70
     1
102
RTVSPropertyOp22
 70
     1
102
RTVSPropertyOp23
 70
     1
102
RTVSPropertyOp24
 70
     1
102
RTVSPropertyOp25
 70
     1
102
RTVSPropertyOp26
 70
     1
102
RTVSPropertyOp27
 70
     1
102
RTVSPropertyOp28
 70
     1
102
RTVSPropertyOp29
 70
     1
102
RTVSPropertyOp30
 70
     1
102
RTVSPropertyOp31
 70
     1
102
RTVSPropertyOp32
 70
     1
102
RTVSPropertyOp33
 70
     1
102
RTVSPropertyOp34
 70
     1
102
RTVSPropertyOp35
 70
     1
102
RTVSPropertyOp36
 70
     1
102
RTVSPropertyOp37
 70
     1
102
RTVSPropertyOp38
 70
     1
102
RTVSPropertyOp39
 70
     1
102
RTVSPropertyOp40
 70
     1
102
RTVSPropertyOp41
 70
     1
102
RTVSPropertyOp42
 70
     1
102
RTVSPropertyOp43
 70
     1
102
RTVSPropertyOp44
 70
     1
102
RTVSPropertyOp45
 70
     1
102
RTVSPropertyOp46
 70
     1
102
RTVSPropertyOp47
 70
     1
102
RTVSPropertyOp48
 70
     1
102
RTVSPropertyOp49
 70
     1
102
RTVSPropertyOp50
 70
     1
102
RTVSPropertyOp51
 70
     0
102
RTVSPropertyOp52
 70
     0
102
RTVSPropertyOp53
 70
     1
102
RTVSPropertyOp54
 70
     1
102
RTVSPropertyOp55
 70
     1
102
RTVSPropertyOp56
 70
     1
102
RTVSPropertyOp57
 70
     1
102
RTVSPropertyOp58
 70
     1
102
RTVSPropertyOp59
 70
     1
102
RTVSPropertyOp60
 70
     1
102
RTVSPropertyOp61
 70
     1
102
RTVSPropertyOp62
 70
     1
  0
XRECORD
  5
193
102
{ACAD_REACTORS
330
192
102
}
330
192
100
AcDbXrecord
280
     1
102
RTVSPost2010Prop28
280
     0
102
RTVSPost2010PropOp28
 70
     0
102
RTVSPost2010Prop29
280
     1
102
RTVSPost2010PropOp29
 70
     0
102
RTVSPost2010Prop30
280
     1
102
RTVSPost2010PropOp30
 70
     0
102
RTVSPost2010Prop31
280
     0
102
RTVSPost2010PropOp31
 70
     0
102
RTVSPost2010Prop32
280
     0
102
RTVSPost2010PropOp32
 70
     0
102
RTVSPost2010Prop33
280
     0
102
RTVSPost2010PropOp33
 70
     0
102
RTVSPost2010Prop34
280
     0
102
RTVSPost2010PropOp34
 70
     0
102
RTVSPost2010Prop35
280
     0
102
RTVSPost2010PropOp35
 70
     0
102
RTVSPost2010Prop36
280
     0
102
RTVSPost2010PropOp36
 70
     0
102
RTVSPost2010Prop37
 90
       50
102
RTVSPost2010PropOp37
 70
     0
102
RTVSPost2010Prop38
140
0.0
102
RTVSPost2010PropOp38
 70
     0
102
RTVSPost2010Prop39
140
1.0
102
RTVSPost2010PropOp39
 70
     0
102
RTVSPost2010Prop40
 90
        0
102
RTVSPost2010PropOp40
 70
     0
102
RTVSPost2010Prop41ColorIndex
 90
       18
102
RTVSPost2010Prop41ColorRGB
 90
        0
102
RTVSPost2010PropOp41
 70
     0
102
RTVSPost2010Prop42
 90
       50
102
RTVSPost2010PropOp42
 70
     0
102
RTVSPost2010Prop43
 90
        3
102
RTVSPost2010PropOp43
 70
     0
102
RTVSPost2010Prop44ColorIndex
 90
        5
102
RTVSPost2010Prop44ColorRGB
 90
      255
102
RTVSPost2010PropOp44
 70
     0
102
RTVSPost2010Prop45
280
     0
102
RTVSPost2010PropOp45
 70
     0
102
RTVSPost2010Prop46
 90
       50
102
RTVSPost2010PropOp46
 70
     0
102
RTVSPost2010Prop47
 90
       50
102
RTVSPost2010PropOp47
 70
     0
102
RTVSPost2010Prop48
 90
       50
102
RTVSPost2010PropOp48
 70
     0
102
RTVSPost2010Prop49
280
     0
102
RTVSPost2010PropOp49
 70
     0
102
RTVSPost2010Prop50
 90
       50
102
RTVSPost2010PropOp50
 70
     0
102
RTVSPost2010Prop51ColorIndex
 90
      256
102
RTVSPost2010Prop51ColorRGB
 90
-16777216
102
RTVSPost2010PropOp51
 70
     0
102
RTVSPost2010Prop52
140
1.0
102
RTVSPost2010PropOp52
 70
     0
102
RTVSPost2010Prop53
 90
        2
102
RTVSPost2010PropOp53
 70
     0
102
RTVSPost2010Prop54
  1
strokes_ogs.tif
102
RTVSPost2010PropOp54
 70
     0
102
RTVSPost2010Prop55
280
     0
102
RTVSPost2010PropOp55
 70
     0
102
RTVSPost2010Prop56
140
1.0
102
RTVSPost2010PropOp56
 70
     0
102
RTVSPost2010Prop57
140
1.0
102
RTVSPost2010PropOp57
 70
     0
102
RTVSPropertyOp0
 70
     0
102
RTVSPropertyOp1
 70
     0
102
RTVSPropertyOp2
 70
     0
102
RTVSPropertyOp3
 70
     0
102
RTVSPropertyOp4
 70
     0
102
RTVSPropertyOp5
 70
     0
102
RTVSPropertyOp6
 70
     0
102
RTVSPropertyOp7
 70
     0
102
RTVSPropertyOp8
 70
     0
102
RTVSPropertyOp9
 70
     0
102
RTVSPropertyOp10
 70
     0
102
RTVSPropertyOp11
 70
     0
102
RTVSPropertyOp12
 70
     0
102
RTVSPropertyOp13
 70
     0
102
RTVSPropertyOp14
 70
     2
102
RTVSPropertyOp15
 70
     0
102
RTVSPropertyOp16
 70
     0
102
RTVSPropertyOp17
 70
     0
102
RTVSPropertyOp18
 70
     0
102
RTVSPropertyOp19
 70
     0
102
RTVSPropertyOp20
 70
     0
102
RTVSPropertyOp21
 70
     0
102
RTVSPropertyOp22
 70
     0
102
RTVSPropertyOp23
 70
     0
102
RTVSPropertyOp24
 70
     0
102
RTVSPropertyOp25
 70
     0
102
RTVSPropertyOp26
 70
     0
102
RTVSPropertyOp27
 70
     0
102
RTVSPropertyOp28
 70
     0
102
RTVSPropertyOp29
 70
     0
102
RTVSPropertyOp30
 70
     0
102
RTVSPropertyOp31
 70
     0
102
RTVSPropertyOp32
 70
     0
102
RTVSPropertyOp33
 70
     0
102
RTVSPropertyOp34
 70
     0
102
RTVSPropertyOp35
 70
     0
102
RTVSPropertyOp36
 70
     0
102
RTVSPropertyOp37
 70
     0
102
RTVSPropertyOp38
 70
     0
102
RTVSPropertyOp39
 70
     0
102
RTVSPropertyOp40
 70
     0
102
RTVSPropertyOp41
 70
     0
102
RTVSPropertyOp42
 70
     0
102
RTVSPropertyOp43
 70
     0
102
RTVSPropertyOp44
 70
     0
102
RTVSPropertyOp45
 70
     0
102
RTVSPropertyOp46
 70
     0
102
RTVSPropertyOp47
 70
     0
102
RTVSPropertyOp48
 70
     0
102
RTVSPropertyOp49
 70
     0
102
RTVSPropertyOp50
 70
     0
102
RTVSPropertyOp51
 70
     0
102
RTVSPropertyOp52
 70
     0
102
RTVSPropertyOp53
 70
     0
102
RTVSPropertyOp54
 70
     0
102
RTVSPropertyOp55
 70
     0
102
RTVSPropertyOp56
 70
     0
102
RTVSPropertyOp57
 70
     0
102
RTVSPropertyOp58
 70
     1
102
RTVSPropertyOp59
 70
     1
102
RTVSPropertyOp60
 70
     1
102
RTVSPropertyOp61
 70
     1
102
RTVSPropertyOp62
 70
     1
  0
XRECORD
  5
183
102
{ACAD_REACTORS
330
182
102
}
330
182
100
AcDbXrecord
280
     1
102
RTVSPost2010Prop28
280
     0
102
RTVSPost2010PropOp28
 70
     1
102
RTVSPost2010Prop29
280
     1
102
RTVSPost2010PropOp29
 70
     1
102
RTVSPost2010Prop30
280
     1
102
RTVSPost2010PropOp30
 70
     1
102
RTVSPost2010Prop31
280
     0
102
RTVSPost2010PropOp31
 70
     1
102
RTVSPost2010Prop32
280
     0
102
RTVSPost2010PropOp32
 70
     1
102
RTVSPost2010Prop33
280
     0
102
RTVSPost2010PropOp33
 70
     1
102
RTVSPost2010Prop34
280
     0
102
RTVSPost2010PropOp34
 70
     1
102
RTVSPost2010Prop35
280
     0
102
RTVSPost2010PropOp35
 70
     1
102
RTVSPost2010Prop36
280
     0
102
RTVSPost2010PropOp36
 70
     1
102
RTVSPost2010Prop37
 90
       50
102
RTVSPost2010PropOp37
 70
     1
102
RTVSPost2010Prop38
140
0.0
102
RTVSPost2010PropOp38
 70
     1
102
RTVSPost2010Prop39
140
1.0
102
RTVSPost2010PropOp39
 70
     1
102
RTVSPost2010Prop40
 90
        0
102
RTVSPost2010PropOp40
 70
     1
102
RTVSPost2010Prop41ColorIndex
 90
       18
102
RTVSPost2010Prop41ColorRGB
 90
        0
102
RTVSPost2010PropOp41
 70
     1
102
RTVSPost2010Prop42
 90
       50
102
RTVSPost2010PropOp42
 70
     1
102
RTVSPost2010Prop43
 90
        3
102
RTVSPost2010PropOp43
 70
     1
102
RTVSPost2010Prop44ColorIndex
 90
        5
102
RTVSPost2010Prop44ColorRGB
 90
      255
102
RTVSPost2010PropOp44
 70
     1
102
RTVSPost2010Prop45
280
     0
102
RTVSPost2010PropOp45
 70
     1
102
RTVSPost2010Prop46
 90
       50
102
RTVSPost2010PropOp46
 70
     1
102
RTVSPost2010Prop47
 90
       50
102
RTVSPost2010PropOp47
 70
     1
102
RTVSPost2010Prop48
 90
       50
102
RTVSPost2010PropOp48
 70
     1
102
RTVSPost2010Prop49
280
     0
102
RTVSPost2010PropOp49
 70
     1
102
RTVSPost2010Prop50
 90
       50
102
RTVSPost2010PropOp50
 70
     1
102
RTVSPost2010Prop51ColorIndex
 90
      256
102
RTVSPost2010Prop51ColorRGB
 90
-16777216
102
RTVSPost2010PropOp51
 70
     0
102
RTVSPost2010Prop52
140
1.0
102
RTVSPost2010PropOp52
 70
     0
102
RTVSPost2010Prop53
 90
        2
102
RTVSPost2010PropOp53
 70
     1
102
RTVSPost2010Prop54
  1
strokes_ogs.tif
102
RTVSPost2010PropOp54
 70
     1
102
RTVSPost2010Prop55
280
     0
102
RTVSPost2010PropOp55
 70
     1
102
RTVSPost2010Prop56
140
1.0
102
RTVSPost2010PropOp56
 70
     1
102
RTVSPost2010Prop57
140
1.0
102
RTVSPost2010PropOp57
 70
     1
102
RTVSPropertyOp0
 70
     1
102
RTVSPropertyOp1
 70
     1
102
RTVSPropertyOp2
 70
     1
102
RTVSPropertyOp3
 70
     1
102
RTVSPropertyOp4
 70
     1
102
RTVSPropertyOp5
 70
     1
102
RTVSPropertyOp6
 70
     1
102
RTVSPropertyOp7
 70
     1
102
RTVSPropertyOp8
 70
     1
102
RTVSPropertyOp9
 70
     1
102
RTVSPropertyOp10
 70
     1
102
RTVSPropertyOp11
 70
     1
102
RTVSPropertyOp12
 70
     1
102
RTVSPropertyOp13
 70
     1
102
RTVSPropertyOp14
 70
     1
102
RTVSPropertyOp15
 70
     1
102
RTVSPropertyOp16
 70
     1
102
RTVSPropertyOp17
 70
     1
102
RTVSPropertyOp18
 70
     1
102
RTVSPropertyOp19
 70
     1
102
RTVSPropertyOp20
 70
     1
102
RTVSPropertyOp21
 70
     1
102
RTVSPropertyOp22
 70
     1
102
RTVSPropertyOp23
 70
     1
102
RTVSPropertyOp24
 70
     1
102
RTVSPropertyOp25
 70
     1
102
RTVSPropertyOp26
 70
     1
102
RTVSPropertyOp27
 70
     1
102
RTVSPropertyOp28
 70
     1
102
RTVSPropertyOp29
 70
     1
102
RTVSPropertyOp30
 70
     1
102
RTVSPropertyOp31
 70
     1
102
RTVSPropertyOp32
 70
     1
102
RTVSPropertyOp33
 70
     1
102
RTVSPropertyOp34
 70
     1
102
RTVSPropertyOp35
 70
     1
102
RTVSPropertyOp36
 70
     1
102
RTVSPropertyOp37
 70
     1
102
RTVSPropertyOp38
 70
     1
102
RTVSPropertyOp39
 70
     1
102
RTVSPropertyOp40
 70
     1
102
RTVSPropertyOp41
 70
     1
102
RTVSPropertyOp42
 70
     1
102
RTVSPropertyOp43
 70
     1
102
RTVSPropertyOp44
 70
     1
102
RTVSPropertyOp45
 70
     1
102
RTVSPropertyOp46
 70
     1
102
RTVSPropertyOp47
 70
     1
102
RTVSPropertyOp48
 70
     1
102
RTVSPropertyOp49
 70
     1
102
RTVSPropertyOp50
 70
     1
102
RTVSPropertyOp51
 70
     0
102
RTVSPropertyOp52
 70
     0
102
RTVSPropertyOp53
 70
     1
102
RTVSPropertyOp54
 70
     1
102
RTVSPropertyOp55
 70
     1
102
RTVSPropertyOp56
 70
     1
102
RTVSPropertyOp57
 70
     1
102
RTVSPropertyOp58
 70
     1
102
RTVSPropertyOp59
 70
     1
102
RTVSPropertyOp60
 70
     1
102
RTVSPropertyOp61
 70
     1
102
RTVSPropertyOp62
 70
     1
  0
XRECORD
  5
195
102
{ACAD_REACTORS
330
194
102
}
330
194
100
AcDbXrecord
280
     1
102
RTVSPost2010Prop28
280
     0
102
RTVSPost2010PropOp28
 70
     0
102
RTVSPost2010Prop29
280
     1
102
RTVSPost2010PropOp29
 70
     0
102
RTVSPost2010Prop30
280
     1
102
RTVSPost2010PropOp30
 70
     0
102
RTVSPost2010Prop31
280
     0
102
RTVSPost2010PropOp31
 70
     0
102
RTVSPost2010Prop32
280
     0
102
RTVSPost2010PropOp32
 70
     0
102
RTVSPost2010Prop33
280
     0
102
RTVSPost2010PropOp33
 70
     0
102
RTVSPost2010Prop34
280
     0
102
RTVSPost2010PropOp34
 70
     0
102
RTVSPost2010Prop35
280
     0
102
RTVSPost2010PropOp35
 70
     0
102
RTVSPost2010Prop36
280
     0
102
RTVSPost2010PropOp36
 70
     0
102
RTVSPost2010Prop37
 90
       50
102
RTVSPost2010PropOp37
 70
     0
102
RTVSPost2010Prop38
140
0.0
102
RTVSPost2010PropOp38
 70
     0
102
RTVSPost2010Prop39
140
1.0
102
RTVSPost2010PropOp39
 70
     0
102
RTVSPost2010Prop40
 90
        0
102
RTVSPost2010PropOp40
 70
     0
102
RTVSPost2010Prop41ColorIndex
 90
       18
102
RTVSPost2010Prop41ColorRGB
 90
        0
102
RTVSPost2010PropOp41
 70
     0
102
RTVSPost2010Prop42
 90
       50
102
RTVSPost2010PropOp42
 70
     0
102
RTVSPost2010Prop43
 90
        3
102
RTVSPost2010PropOp43
 70
     0
102
RTVSPost2010Prop44ColorIndex
 90
        5
102
RTVSPost2010Prop44ColorRGB
 90
      255
102
RTVSPost2010PropOp44
 70
     0
102
RTVSPost2010Prop45
280
     0
102
RTVSPost2010PropOp45
 70
     0
102
RTVSPost2010Prop46
 90
       50
102
RTVSPost2010PropOp46
 70
     0
102
RTVSPost2010Prop47
 90
       50
102
RTVSPost2010PropOp47
 70
     0
102
RTVSPost2010Prop48
 90
       50
102
RTVSPost2010PropOp48
 70
     0
102
RTVSPost2010Prop49
280
     0
102
RTVSPost2010PropOp49
 70
     0
102
RTVSPost2010Prop50
 90
       50
102
RTVSPost2010PropOp50
 70
     0
102
RTVSPost2010Prop51ColorIndex
 90
      256
102
RTVSPost2010Prop51ColorRGB
 90
-16777216
102
RTVSPost2010PropOp51
 70
     0
102
RTVSPost2010Prop52
140
1.0
102
RTVSPost2010PropOp52
 70
     0
102
RTVSPost2010Prop53
 90
        2
102
RTVSPost2010PropOp53
 70
     0
102
RTVSPost2010Prop54
  1
strokes_ogs.tif
102
RTVSPost2010PropOp54
 70
     0
102
RTVSPost2010Prop55
280
     0
102
RTVSPost2010PropOp55
 70
     0
102
RTVSPost2010Prop56
140
1.0
102
RTVSPost2010PropOp56
 70
     0
102
RTVSPost2010Prop57
140
1.0
102
RTVSPost2010PropOp57
 70
     0
102
RTVSPropertyOp0
 70
     0
102
RTVSPropertyOp1
 70
     0
102
RTVSPropertyOp2
 70
     0
102
RTVSPropertyOp3
 70
     0
102
RTVSPropertyOp4
 70
     0
102
RTVSPropertyOp5
 70
     0
102
RTVSPropertyOp6
 70
     0
102
RTVSPropertyOp7
 70
     0
102
RTVSPropertyOp8
 70
     0
102
RTVSPropertyOp9
 70
     0
102
RTVSPropertyOp10
 70
     0
102
RTVSPropertyOp11
 70
     0
102
RTVSPropertyOp12
 70
     0
102
RTVSPropertyOp13
 70
     0
102
RTVSPropertyOp14
 70
     2
102
RTVSPropertyOp15
 70
     0
102
RTVSPropertyOp16
 70
     0
102
RTVSPropertyOp17
 70
     0
102
RTVSPropertyOp18
 70
     0
102
RTVSPropertyOp19
 70
     0
102
RTVSPropertyOp20
 70
     0
102
RTVSPropertyOp21
 70
     0
102
RTVSPropertyOp22
 70
     0
102
RTVSPropertyOp23
 70
     0
102
RTVSPropertyOp24
 70
     0
102
RTVSPropertyOp25
 70
     0
102
RTVSPropertyOp26
 70
     0
102
RTVSPropertyOp27
 70
     0
102
RTVSPropertyOp28
 70
     0
102
RTVSPropertyOp29
 70
     0
102
RTVSPropertyOp30
 70
     0
102
RTVSPropertyOp31
 70
     0
102
RTVSPropertyOp32
 70
     0
102
RTVSPropertyOp33
 70
     0
102
RTVSPropertyOp34
 70
     0
102
RTVSPropertyOp35
 70
     0
102
RTVSPropertyOp36
 70
     0
102
RTVSPropertyOp37
 70
     0
102
RTVSPropertyOp38
 70
     0
102
RTVSPropertyOp39
 70
     0
102
RTVSPropertyOp40
 70
     0
102
RTVSPropertyOp41
 70
     0
102
RTVSPropertyOp42
 70
     0
102
RTVSPropertyOp43
 70
     0
102
RTVSPropertyOp44
 70
     0
102
RTVSPropertyOp45
 70
     0
102
RTVSPropertyOp46
 70
     0
102
RTVSPropertyOp47
 70
     0
102
RTVSPropertyOp48
 70
     0
102
RTVSPropertyOp49
 70
     0
102
RTVSPropertyOp50
 70
     0
102
RTVSPropertyOp51
 70
     0
102
RTVSPropertyOp52
 70
     0
102
RTVSPropertyOp53
 70
     0
102
RTVSPropertyOp54
 70
     0
102
RTVSPropertyOp55
 70
     0
102
RTVSPropertyOp56
 70
     0
102
RTVSPropertyOp57
 70
     0
102
RTVSPropertyOp58
 70
     1
102
RTVSPropertyOp59
 70
     1
102
RTVSPropertyOp60
 70
     1
102
RTVSPropertyOp61
 70
     1
102
RTVSPropertyOp62
 70
     1
  0
XRECORD
  5
17B
102
{ACAD_REACTORS
330
17A
102
}
330
17A
100
AcDbXrecord
280
     1
102
RTVSPost2010Prop28
280
     0
102
RTVSPost2010PropOp28
 70
     1
102
RTVSPost2010Prop29
280
     1
102
RTVSPost2010PropOp29
 70
     1
102
RTVSPost2010Prop30
280
     1
102
RTVSPost2010PropOp30
 70
     1
102
RTVSPost2010Prop31
280
     0
102
RTVSPost2010PropOp31
 70
     1
102
RTVSPost2010Prop32
280
     0
102
RTVSPost2010PropOp32
 70
     1
102
RTVSPost2010Prop33
280
     0
102
RTVSPost2010PropOp33
 70
     1
102
RTVSPost2010Prop34
280
     0
102
RTVSPost2010PropOp34
 70
     1
102
RTVSPost2010Prop35
280
     0
102
RTVSPost2010PropOp35
 70
     1
102
RTVSPost2010Prop36
280
     0
102
RTVSPost2010PropOp36
 70
     1
102
RTVSPost2010Prop37
 90
       50
102
RTVSPost2010PropOp37
 70
     1
102
RTVSPost2010Prop38
140
0.0
102
RTVSPost2010PropOp38
 70
     1
102
RTVSPost2010Prop39
140
1.0
102
RTVSPost2010PropOp39
 70
     1
102
RTVSPost2010Prop40
 90
        0
102
RTVSPost2010PropOp40
 70
     1
102
RTVSPost2010Prop41ColorIndex
 90
       18
102
RTVSPost2010Prop41ColorRGB
 90
        0
102
RTVSPost2010PropOp41
 70
     1
102
RTVSPost2010Prop42
 90
       50
102
RTVSPost2010PropOp42
 70
     1
102
RTVSPost2010Prop43
 90
        3
102
RTVSPost2010PropOp43
 70
     1
102
RTVSPost2010Prop44ColorIndex
 90
        5
102
RTVSPost2010Prop44ColorRGB
 90
      255
102
RTVSPost2010PropOp44
 70
     1
102
RTVSPost2010Prop45
280
     0
102
RTVSPost2010PropOp45
 70
     1
102
RTVSPost2010Prop46
 90
       50
102
RTVSPost2010PropOp46
 70
     1
102
RTVSPost2010Prop47
 90
       50
102
RTVSPost2010PropOp47
 70
     1
102
RTVSPost2010Prop48
 90
       50
102
RTVSPost2010PropOp48
 70
     1
102
RTVSPost2010Prop49
280
     0
102
RTVSPost2010PropOp49
 70
     1
102
RTVSPost2010Prop50
 90
       50
102
RTVSPost2010PropOp50
 70
     1
102
RTVSPost2010Prop51ColorIndex
 90
      256
102
RTVSPost2010Prop51ColorRGB
 90
-16777216
102
RTVSPost2010PropOp51
 70
     0
102
RTVSPost2010Prop52
140
1.0
102
RTVSPost2010PropOp52
 70
     0
102
RTVSPost2010Prop53
 90
        2
102
RTVSPost2010PropOp53
 70
     1
102
RTVSPost2010Prop54
  1
strokes_ogs.tif
102
RTVSPost2010PropOp54
 70
     1
102
RTVSPost2010Prop55
280
     0
102
RTVSPost2010PropOp55
 70
     1
102
RTVSPost2010Prop56
140
1.0
102
RTVSPost2010PropOp56
 70
     1
102
RTVSPost2010Prop57
140
1.0
102
RTVSPost2010PropOp57
 70
     1
102
RTVSPropertyOp0
 70
     1
102
RTVSPropertyOp1
 70
     1
102
RTVSPropertyOp2
 70
     1
102
RTVSPropertyOp3
 70
     1
102
RTVSPropertyOp4
 70
     1
102
RTVSPropertyOp5
 70
     1
102
RTVSPropertyOp6
 70
     1
102
RTVSPropertyOp7
 70
     1
102
RTVSPropertyOp8
 70
     1
102
RTVSPropertyOp9
 70
     1
102
RTVSPropertyOp10
 70
     1
102
RTVSPropertyOp11
 70
     1
102
RTVSPropertyOp12
 70
     1
102
RTVSPropertyOp13
 70
     1
102
RTVSPropertyOp14
 70
     1
102
RTVSPropertyOp15
 70
     1
102
RTVSPropertyOp16
 70
     1
102
RTVSPropertyOp17
 70
     1
102
RTVSPropertyOp18
 70
     1
102
RTVSPropertyOp19
 70
     1
102
RTVSPropertyOp20
 70
     1
102
RTVSPropertyOp21
 70
     1
102
RTVSPropertyOp22
 70
     1
102
RTVSPropertyOp23
 70
     1
102
RTVSPropertyOp24
 70
     1
102
RTVSPropertyOp25
 70
     1
102
RTVSPropertyOp26
 70
     1
102
RTVSPropertyOp27
 70
     1
102
RTVSPropertyOp28
 70
     1
102
RTVSPropertyOp29
 70
     1
102
RTVSPropertyOp30
 70
     1
102
RTVSPropertyOp31
 70
     1
102
RTVSPropertyOp32
 70
     1
102
RTVSPropertyOp33
 70
     1
102
RTVSPropertyOp34
 70
     1
102
RTVSPropertyOp35
 70
     1
102
RTVSPropertyOp36
 70
     1
102
RTVSPropertyOp37
 70
     1
102
RTVSPropertyOp38
 70
     1
102
RTVSPropertyOp39
 70
     1
102
RTVSPropertyOp40
 70
     1
102
RTVSPropertyOp41
 70
     1
102
RTVSPropertyOp42
 70
     1
102
RTVSPropertyOp43
 70
     1
102
RTVSPropertyOp44
 70
     1
102
RTVSPropertyOp45
 70
     1
102
RTVSPropertyOp46
 70
     1
102
RTVSPropertyOp47
 70
     1
102
RTVSPropertyOp48
 70
     1
102
RTVSPropertyOp49
 70
     1
102
RTVSPropertyOp50
 70
     1
102
RTVSPropertyOp51
 70
     0
102
RTVSPropertyOp52
 70
     0
102
RTVSPropertyOp53
 70
     1
102
RTVSPropertyOp54
 70
     1
102
RTVSPropertyOp55
 70
     1
102
RTVSPropertyOp56
 70
     1
102
RTVSPropertyOp57
 70
     1
102
RTVSPropertyOp58
 70
     1
102
RTVSPropertyOp59
 70
     1
102
RTVSPropertyOp60
 70
     1
102
RTVSPropertyOp61
 70
     1
102
RTVSPropertyOp62
 70
     1
  0
XRECORD
  5
191
102
{ACAD_REACTORS
330
190
102
}
330
190
100
AcDbXrecord
280
     1
102
RTVSPost2010Prop28
280
     0
102
RTVSPost2010PropOp28
 70
     1
102
RTVSPost2010Prop29
280
     1
102
RTVSPost2010PropOp29
 70
     1
102
RTVSPost2010Prop30
280
     1
102
RTVSPost2010PropOp30
 70
     1
102
RTVSPost2010Prop31
280
     0
102
RTVSPost2010PropOp31
 70
     1
102
RTVSPost2010Prop32
280
     0
102
RTVSPost2010PropOp32
 70
     1
102
RTVSPost2010Prop33
280
     0
102
RTVSPost2010PropOp33
 70
     1
102
RTVSPost2010Prop34
280
     0
102
RTVSPost2010PropOp34
 70
     1
102
RTVSPost2010Prop35
280
     0
102
RTVSPost2010PropOp35
 70
     1
102
RTVSPost2010Prop36
280
     0
102
RTVSPost2010PropOp36
 70
     1
102
RTVSPost2010Prop37
 90
       50
102
RTVSPost2010PropOp37
 70
     1
102
RTVSPost2010Prop38
140
0.0
102
RTVSPost2010PropOp38
 70
     1
102
RTVSPost2010Prop39
140
1.0
102
RTVSPost2010PropOp39
 70
     1
102
RTVSPost2010Prop40
 90
        0
102
RTVSPost2010PropOp40
 70
     1
102
RTVSPost2010Prop41ColorIndex
 90
       18
102
RTVSPost2010Prop41ColorRGB
 90
        0
102
RTVSPost2010PropOp41
 70
     1
102
RTVSPost2010Prop42
 90
       50
102
RTVSPost2010PropOp42
 70
     1
102
RTVSPost2010Prop43
 90
        3
102
RTVSPost2010PropOp43
 70
     1
102
RTVSPost2010Prop44ColorIndex
 90
        5
102
RTVSPost2010Prop44ColorRGB
 90
      255
102
RTVSPost2010PropOp44
 70
     1
102
RTVSPost2010Prop45
280
     0
102
RTVSPost2010PropOp45
 70
     1
102
RTVSPost2010Prop46
 90
       50
102
RTVSPost2010PropOp46
 70
     1
102
RTVSPost2010Prop47
 90
       50
102
RTVSPost2010PropOp47
 70
     1
102
RTVSPost2010Prop48
 90
       50
102
RTVSPost2010PropOp48
 70
     1
102
RTVSPost2010Prop49
280
     0
102
RTVSPost2010PropOp49
 70
     1
102
RTVSPost2010Prop50
 90
       50
102
RTVSPost2010PropOp50
 70
     1
102
RTVSPost2010Prop51ColorIndex
 90
      256
102
RTVSPost2010Prop51ColorRGB
 90
-16777216
102
RTVSPost2010PropOp51
 70
     0
102
RTVSPost2010Prop52
140
1.0
102
RTVSPost2010PropOp52
 70
     0
102
RTVSPost2010Prop53
 90
        2
102
RTVSPost2010PropOp53
 70
     1
102
RTVSPost2010Prop54
  1
strokes_ogs.tif
102
RTVSPost2010PropOp54
 70
     1
102
RTVSPost2010Prop55
280
     0
102
RTVSPost2010PropOp55
 70
     1
102
RTVSPost2010Prop56
140
1.0
102
RTVSPost2010PropOp56
 70
     1
102
RTVSPost2010Prop57
140
1.0
102
RTVSPost2010PropOp57
 70
     1
102
RTVSPropertyOp0
 70
     1
102
RTVSPropertyOp1
 70
     1
102
RTVSPropertyOp2
 70
     1
102
RTVSPropertyOp3
 70
     1
102
RTVSPropertyOp4
 70
     1
102
RTVSPropertyOp5
 70
     1
102
RTVSPropertyOp6
 70
     1
102
RTVSPropertyOp7
 70
     1
102
RTVSPropertyOp8
 70
     1
102
RTVSPropertyOp9
 70
     1
102
RTVSPropertyOp10
 70
     1
102
RTVSPropertyOp11
 70
     1
102
RTVSPropertyOp12
 70
     1
102
RTVSPropertyOp13
 70
     1
102
RTVSPropertyOp14
 70
     1
102
RTVSPropertyOp15
 70
     1
102
RTVSPropertyOp16
 70
     1
102
RTVSPropertyOp17
 70
     1
102
RTVSPropertyOp18
 70
     1
102
RTVSPropertyOp19
 70
     1
102
RTVSPropertyOp20
 70
     1
102
RTVSPropertyOp21
 70
     1
102
RTVSPropertyOp22
 70
     1
102
RTVSPropertyOp23
 70
     1
102
RTVSPropertyOp24
 70
     1
102
RTVSPropertyOp25
 70
     1
102
RTVSPropertyOp26
 70
     1
102
RTVSPropertyOp27
 70
     1
102
RTVSPropertyOp28
 70
     1
102
RTVSPropertyOp29
 70
     1
102
RTVSPropertyOp30
 70
     1
102
RTVSPropertyOp31
 70
     1
102
RTVSPropertyOp32
 70
     1
102
RTVSPropertyOp33
 70
     1
102
RTVSPropertyOp34
 70
     1
102
RTVSPropertyOp35
 70
     1
102
RTVSPropertyOp36
 70
     1
102
RTVSPropertyOp37
 70
     1
102
RTVSPropertyOp38
 70
     1
102
RTVSPropertyOp39
 70
     1
102
RTVSPropertyOp40
 70
     1
102
RTVSPropertyOp41
 70
     1
102
RTVSPropertyOp42
 70
     1
102
RTVSPropertyOp43
 70
     1
102
RTVSPropertyOp44
 70
     1
102
RTVSPropertyOp45
 70
     1
102
RTVSPropertyOp46
 70
     1
102
RTVSPropertyOp47
 70
     1
102
RTVSPropertyOp48
 70
     1
102
RTVSPropertyOp49
 70
     1
102
RTVSPropertyOp50
 70
     1
102
RTVSPropertyOp51
 70
     0
102
RTVSPropertyOp52
 70
     0
102
RTVSPropertyOp53
 70
     1
102
RTVSPropertyOp54
 70
     1
102
RTVSPropertyOp55
 70
     1
102
RTVSPropertyOp56
 70
     1
102
RTVSPropertyOp57
 70
     1
102
RTVSPropertyOp58
 70
     1
102
RTVSPropertyOp59
 70
     1
102
RTVSPropertyOp60
 70
     1
102
RTVSPropertyOp61
 70
     1
102
RTVSPropertyOp62
 70
     1
  0
XRECORD
  5
18F
102
{ACAD_REACTORS
330
18E
102
}
330
18E
100
AcDbXrecord
280
     1
102
RTVSPost2010Prop28
280
     0
102
RTVSPost2010PropOp28
 70
     1
102
RTVSPost2010Prop29
280
     1
102
RTVSPost2010PropOp29
 70
     1
102
RTVSPost2010Prop30
280
     1
102
RTVSPost2010PropOp30
 70
     1
102
RTVSPost2010Prop31
280
     0
102
RTVSPost2010PropOp31
 70
     1
102
RTVSPost2010Prop32
280
     0
102
RTVSPost2010PropOp32
 70
     1
102
RTVSPost2010Prop33
280
     0
102
RTVSPost2010PropOp33
 70
     1
102
RTVSPost2010Prop34
280
     0
102
RTVSPost2010PropOp34
 70
     1
102
RTVSPost2010Prop35
280
     0
102
RTVSPost2010PropOp35
 70
     1
102
RTVSPost2010Prop36
280
     0
102
RTVSPost2010PropOp36
 70
     1
102
RTVSPost2010Prop37
 90
       50
102
RTVSPost2010PropOp37
 70
     1
102
RTVSPost2010Prop38
140
0.0
102
RTVSPost2010PropOp38
 70
     1
102
RTVSPost2010Prop39
140
1.0
102
RTVSPost2010PropOp39
 70
     1
102
RTVSPost2010Prop40
 90
        0
102
RTVSPost2010PropOp40
 70
     1
102
RTVSPost2010Prop41ColorIndex
 90
       18
102
RTVSPost2010Prop41ColorRGB
 90
        0
102
RTVSPost2010PropOp41
 70
     1
102
RTVSPost2010Prop42
 90
       50
102
RTVSPost2010PropOp42
 70
     1
102
RTVSPost2010Prop43
 90
        3
102
RTVSPost2010PropOp43
 70
     1
102
RTVSPost2010Prop44ColorIndex
 90
        5
102
RTVSPost2010Prop44ColorRGB
 90
      255
102
RTVSPost2010PropOp44
 70
     1
102
RTVSPost2010Prop45
280
     0
102
RTVSPost2010PropOp45
 70
     1
102
RTVSPost2010Prop46
 90
       50
102
RTVSPost2010PropOp46
 70
     1
102
RTVSPost2010Prop47
 90
       50
102
RTVSPost2010PropOp47
 70
     1
102
RTVSPost2010Prop48
 90
       50
102
RTVSPost2010PropOp48
 70
     1
102
RTVSPost2010Prop49
280
     0
102
RTVSPost2010PropOp49
 70
     1
102
RTVSPost2010Prop50
 90
       50
102
RTVSPost2010PropOp50
 70
     1
102
RTVSPost2010Prop51ColorIndex
 90
      256
102
RTVSPost2010Prop51ColorRGB
 90
-16777216
102
RTVSPost2010PropOp51
 70
     0
102
RTVSPost2010Prop52
140
1.0
102
RTVSPost2010PropOp52
 70
     0
102
RTVSPost2010Prop53
 90
        2
102
RTVSPost2010PropOp53
 70
     1
102
RTVSPost2010Prop54
  1
strokes_ogs.tif
102
RTVSPost2010PropOp54
 70
     1
102
RTVSPost2010Prop55
280
     0
102
RTVSPost2010PropOp55
 70
     1
102
RTVSPost2010Prop56
140
1.0
102
RTVSPost2010PropOp56
 70
     1
102
RTVSPost2010Prop57
140
1.0
102
RTVSPost2010PropOp57
 70
     1
102
RTVSPropertyOp0
 70
     1
102
RTVSPropertyOp1
 70
     1
102
RTVSPropertyOp2
 70
     1
102
RTVSPropertyOp3
 70
     1
102
RTVSPropertyOp4
 70
     1
102
RTVSPropertyOp5
 70
     1
102
RTVSPropertyOp6
 70
     1
102
RTVSPropertyOp7
 70
     1
102
RTVSPropertyOp8
 70
     1
102
RTVSPropertyOp9
 70
     1
102
RTVSPropertyOp10
 70
     1
102
RTVSPropertyOp11
 70
     1
102
RTVSPropertyOp12
 70
     1
102
RTVSPropertyOp13
 70
     1
102
RTVSPropertyOp14
 70
     1
102
RTVSPropertyOp15
 70
     1
102
RTVSPropertyOp16
 70
     1
102
RTVSPropertyOp17
 70
     1
102
RTVSPropertyOp18
 70
     1
102
RTVSPropertyOp19
 70
     1
102
RTVSPropertyOp20
 70
     1
102
RTVSPropertyOp21
 70
     1
102
RTVSPropertyOp22
 70
     1
102
RTVSPropertyOp23
 70
     1
102
RTVSPropertyOp24
 70
     1
102
RTVSPropertyOp25
 70
     1
102
RTVSPropertyOp26
 70
     1
102
RTVSPropertyOp27
 70
     1
102
RTVSPropertyOp28
 70
     1
102
RTVSPropertyOp29
 70
     1
102
RTVSPropertyOp30
 70
     1
102
RTVSPropertyOp31
 70
     1
102
RTVSPropertyOp32
 70
     1
102
RTVSPropertyOp33
 70
     1
102
RTVSPropertyOp34
 70
     1
102
RTVSPropertyOp35
 70
     1
102
RTVSPropertyOp36
 70
     1
102
RTVSPropertyOp37
 70
     1
102
RTVSPropertyOp38
 70
     1
102
RTVSPropertyOp39
 70
     1
102
RTVSPropertyOp40
 70
     1
102
RTVSPropertyOp41
 70
     1
102
RTVSPropertyOp42
 70
     1
102
RTVSPropertyOp43
 70
     1
102
RTVSPropertyOp44
 70
     1
102
RTVSPropertyOp45
 70
     1
102
RTVSPropertyOp46
 70
     1
102
RTVSPropertyOp47
 70
     1
102
RTVSPropertyOp48
 70
     1
102
RTVSPropertyOp49
 70
     1
102
RTVSPropertyOp50
 70
     1
102
RTVSPropertyOp51
 70
     0
102
RTVSPropertyOp52
 70
     0
102
RTVSPropertyOp53
 70
     1
102
RTVSPropertyOp54
 70
     1
102
RTVSPropertyOp55
 70
     1
102
RTVSPropertyOp56
 70
     1
102
RTVSPropertyOp57
 70
     1
102
RTVSPropertyOp58
 70
     1
102
RTVSPropertyOp59
 70
     1
102
RTVSPropertyOp60
 70
     1
102
RTVSPropertyOp61
 70
     1
102
RTVSPropertyOp62
 70
     1
  0
XRECORD
  5
189
102
{ACAD_REACTORS
330
188
102
}
330
188
100
AcDbXrecord
280
     1
102
RTVSPost2010Prop28
280
     0
102
RTVSPost2010PropOp28
 70
     1
102
RTVSPost2010Prop29
280
     1
102
RTVSPost2010PropOp29
 70
     1
102
RTVSPost2010Prop30
280
     1
102
RTVSPost2010PropOp30
 70
     1
102
RTVSPost2010Prop31
280
     0
102
RTVSPost2010PropOp31
 70
     1
102
RTVSPost2010Prop32
280
     0
102
RTVSPost2010PropOp32
 70
     1
102
RTVSPost2010Prop33
280
     0
102
RTVSPost2010PropOp33
 70
     1
102
RTVSPost2010Prop34
280
     0
102
RTVSPost2010PropOp34
 70
     1
102
RTVSPost2010Prop35
280
     0
102
RTVSPost2010PropOp35
 70
     1
102
RTVSPost2010Prop36
280
     0
102
RTVSPost2010PropOp36
 70
     1
102
RTVSPost2010Prop37
 90
       50
102
RTVSPost2010PropOp37
 70
     1
102
RTVSPost2010Prop38
140
0.0
102
RTVSPost2010PropOp38
 70
     1
102
RTVSPost2010Prop39
140
1.0
102
RTVSPost2010PropOp39
 70
     1
102
RTVSPost2010Prop40
 90
        0
102
RTVSPost2010PropOp40
 70
     1
102
RTVSPost2010Prop41ColorIndex
 90
       18
102
RTVSPost2010Prop41ColorRGB
 90
        0
102
RTVSPost2010PropOp41
 70
     1
102
RTVSPost2010Prop42
 90
       50
102
RTVSPost2010PropOp42
 70
     1
102
RTVSPost2010Prop43
 90
        3
102
RTVSPost2010PropOp43
 70
     1
102
RTVSPost2010Prop44ColorIndex
 90
        5
102
RTVSPost2010Prop44ColorRGB
 90
      255
102
RTVSPost2010PropOp44
 70
     1
102
RTVSPost2010Prop45
280
     0
102
RTVSPost2010PropOp45
 70
     1
102
RTVSPost2010Prop46
 90
       50
102
RTVSPost2010PropOp46
 70
     1
102
RTVSPost2010Prop47
 90
       50
102
RTVSPost2010PropOp47
 70
     1
102
RTVSPost2010Prop48
 90
       50
102
RTVSPost2010PropOp48
 70
     1
102
RTVSPost2010Prop49
280
     0
102
RTVSPost2010PropOp49
 70
     1
102
RTVSPost2010Prop50
 90
       50
102
RTVSPost2010PropOp50
 70
     1
102
RTVSPost2010Prop51ColorIndex
 90
      256
102
RTVSPost2010Prop51ColorRGB
 90
-16777216
102
RTVSPost2010PropOp51
 70
     0
102
RTVSPost2010Prop52
140
1.0
102
RTVSPost2010PropOp52
 70
     0
102
RTVSPost2010Prop53
 90
        2
102
RTVSPost2010PropOp53
 70
     1
102
RTVSPost2010Prop54
  1
strokes_ogs.tif
102
RTVSPost2010PropOp54
 70
     1
102
RTVSPost2010Prop55
280
     0
102
RTVSPost2010PropOp55
 70
     1
102
RTVSPost2010Prop56
140
1.0
102
RTVSPost2010PropOp56
 70
     1
102
RTVSPost2010Prop57
140
1.0
102
RTVSPost2010PropOp57
 70
     1
102
RTVSPropertyOp0
 70
     1
102
RTVSPropertyOp1
 70
     1
102
RTVSPropertyOp2
 70
     1
102
RTVSPropertyOp3
 70
     1
102
RTVSPropertyOp4
 70
     1
102
RTVSPropertyOp5
 70
     1
102
RTVSPropertyOp6
 70
     1
102
RTVSPropertyOp7
 70
     1
102
RTVSPropertyOp8
 70
     1
102
RTVSPropertyOp9
 70
     1
102
RTVSPropertyOp10
 70
     1
102
RTVSPropertyOp11
 70
     1
102
RTVSPropertyOp12
 70
     1
102
RTVSPropertyOp13
 70
     1
102
RTVSPropertyOp14
 70
     1
102
RTVSPropertyOp15
 70
     1
102
RTVSPropertyOp16
 70
     1
102
RTVSPropertyOp17
 70
     1
102
RTVSPropertyOp18
 70
     1
102
RTVSPropertyOp19
 70
     1
102
RTVSPropertyOp20
 70
     1
102
RTVSPropertyOp21
 70
     1
102
RTVSPropertyOp22
 70
     1
102
RTVSPropertyOp23
 70
     1
102
RTVSPropertyOp24
 70
     1
102
RTVSPropertyOp25
 70
     1
102
RTVSPropertyOp26
 70
     1
102
RTVSPropertyOp27
 70
     1
102
RTVSPropertyOp28
 70
     1
102
RTVSPropertyOp29
 70
     1
102
RTVSPropertyOp30
 70
     1
102
RTVSPropertyOp31
 70
     1
102
RTVSPropertyOp32
 70
     1
102
RTVSPropertyOp33
 70
     1
102
RTVSPropertyOp34
 70
     1
102
RTVSPropertyOp35
 70
     1
102
RTVSPropertyOp36
 70
     1
102
RTVSPropertyOp37
 70
     1
102
RTVSPropertyOp38
 70
     1
102
RTVSPropertyOp39
 70
     1
102
RTVSPropertyOp40
 70
     1
102
RTVSPropertyOp41
 70
     1
102
RTVSPropertyOp42
 70
     1
102
RTVSPropertyOp43
 70
     1
102
RTVSPropertyOp44
 70
     1
102
RTVSPropertyOp45
 70
     1
102
RTVSPropertyOp46
 70
     1
102
RTVSPropertyOp47
 70
     1
102
RTVSPropertyOp48
 70
     1
102
RTVSPropertyOp49
 70
     1
102
RTVSPropertyOp50
 70
     1
102
RTVSPropertyOp51
 70
     0
102
RTVSPropertyOp52
 70
     0
102
RTVSPropertyOp53
 70
     1
102
RTVSPropertyOp54
 70
     1
102
RTVSPropertyOp55
 70
     1
102
RTVSPropertyOp56
 70
     1
102
RTVSPropertyOp57
 70
     1
102
RTVSPropertyOp58
 70
     1
102
RTVSPropertyOp59
 70
     1
102
RTVSPropertyOp60
 70
     1
102
RTVSPropertyOp61
 70
     1
102
RTVSPropertyOp62
 70
     1
  0
XRECORD
  5
18B
102
{ACAD_REACTORS
330
18A
102
}
330
18A
100
AcDbXrecord
280
     1
102
RTVSPost2010Prop28
280
     0
102
RTVSPost2010PropOp28
 70
     1
102
RTVSPost2010Prop29
280
     1
102
RTVSPost2010PropOp29
 70
     1
102
RTVSPost2010Prop30
280
     1
102
RTVSPost2010PropOp30
 70
     1
102
RTVSPost2010Prop31
280
     0
102
RTVSPost2010PropOp31
 70
     1
102
RTVSPost2010Prop32
280
     0
102
RTVSPost2010PropOp32
 70
     1
102
RTVSPost2010Prop33
280
     0
102
RTVSPost2010PropOp33
 70
     1
102
RTVSPost2010Prop34
280
     0
102
RTVSPost2010PropOp34
 70
     1
102
RTVSPost2010Prop35
280
     0
102
RTVSPost2010PropOp35
 70
     1
102
RTVSPost2010Prop36
280
     0
102
RTVSPost2010PropOp36
 70
     1
102
RTVSPost2010Prop37
 90
       50
102
RTVSPost2010PropOp37
 70
     1
102
RTVSPost2010Prop38
140
0.0
102
RTVSPost2010PropOp38
 70
     1
102
RTVSPost2010Prop39
140
1.0
102
RTVSPost2010PropOp39
 70
     1
102
RTVSPost2010Prop40
 90
        0
102
RTVSPost2010PropOp40
 70
     1
102
RTVSPost2010Prop41ColorIndex
 90
       18
102
RTVSPost2010Prop41ColorRGB
 90
        0
102
RTVSPost2010PropOp41
 70
     1
102
RTVSPost2010Prop42
 90
       50
102
RTVSPost2010PropOp42
 70
     1
102
RTVSPost2010Prop43
 90
        3
102
RTVSPost2010PropOp43
 70
     1
102
RTVSPost2010Prop44ColorIndex
 90
        5
102
RTVSPost2010Prop44ColorRGB
 90
      255
102
RTVSPost2010PropOp44
 70
     1
102
RTVSPost2010Prop45
280
     0
102
RTVSPost2010PropOp45
 70
     1
102
RTVSPost2010Prop46
 90
       50
102
RTVSPost2010PropOp46
 70
     1
102
RTVSPost2010Prop47
 90
       50
102
RTVSPost2010PropOp47
 70
     1
102
RTVSPost2010Prop48
 90
       50
102
RTVSPost2010PropOp48
 70
     1
102
RTVSPost2010Prop49
280
     0
102
RTVSPost2010PropOp49
 70
     1
102
RTVSPost2010Prop50
 90
       50
102
RTVSPost2010PropOp50
 70
     1
102
RTVSPost2010Prop51ColorIndex
 90
      256
102
RTVSPost2010Prop51ColorRGB
 90
-16777216
102
RTVSPost2010PropOp51
 70
     0
102
RTVSPost2010Prop52
140
1.0
102
RTVSPost2010PropOp52
 70
     0
102
RTVSPost2010Prop53
 90
        2
102
RTVSPost2010PropOp53
 70
     1
102
RTVSPost2010Prop54
  1
strokes_ogs.tif
102
RTVSPost2010PropOp54
 70
     1
102
RTVSPost2010Prop55
280
     0
102
RTVSPost2010PropOp55
 70
     1
102
RTVSPost2010Prop56
140
1.0
102
RTVSPost2010PropOp56
 70
     1
102
RTVSPost2010Prop57
140
1.0
102
RTVSPost2010PropOp57
 70
     1
102
RTVSPropertyOp0
 70
     1
102
RTVSPropertyOp1
 70
     1
102
RTVSPropertyOp2
 70
     1
102
RTVSPropertyOp3
 70
     1
102
RTVSPropertyOp4
 70
     1
102
RTVSPropertyOp5
 70
     1
102
RTVSPropertyOp6
 70
     1
102
RTVSPropertyOp7
 70
     1
102
RTVSPropertyOp8
 70
     1
102
RTVSPropertyOp9
 70
     1
102
RTVSPropertyOp10
 70
     1
102
RTVSPropertyOp11
 70
     1
102
RTVSPropertyOp12
 70
     1
102
RTVSPropertyOp13
 70
     1
102
RTVSPropertyOp14
 70
     1
102
RTVSPropertyOp15
 70
     1
102
RTVSPropertyOp16
 70
     1
102
RTVSPropertyOp17
 70
     1
102
RTVSPropertyOp18
 70
     1
102
RTVSPropertyOp19
 70
     1
102
RTVSPropertyOp20
 70
     1
102
RTVSPropertyOp21
 70
     1
102
RTVSPropertyOp22
 70
     1
102
RTVSPropertyOp23
 70
     1
102
RTVSPropertyOp24
 70
     1
102
RTVSPropertyOp25
 70
     1
102
RTVSPropertyOp26
 70
     1
102
RTVSPropertyOp27
 70
     1
102
RTVSPropertyOp28
 70
     1
102
RTVSPropertyOp29
 70
     1
102
RTVSPropertyOp30
 70
     1
102
RTVSPropertyOp31
 70
     1
102
RTVSPropertyOp32
 70
     1
102
RTVSPropertyOp33
 70
     1
102
RTVSPropertyOp34
 70
     1
102
RTVSPropertyOp35
 70
     1
102
RTVSPropertyOp36
 70
     1
102
RTVSPropertyOp37
 70
     1
102
RTVSPropertyOp38
 70
     1
102
RTVSPropertyOp39
 70
     1
102
RTVSPropertyOp40
 70
     1
102
RTVSPropertyOp41
 70
     1
102
RTVSPropertyOp42
 70
     1
102
RTVSPropertyOp43
 70
     1
102
RTVSPropertyOp44
 70
     1
102
RTVSPropertyOp45
 70
     1
102
RTVSPropertyOp46
 70
     1
102
RTVSPropertyOp47
 70
     1
102
RTVSPropertyOp48
 70
     1
102
RTVSPropertyOp49
 70
     1
102
RTVSPropertyOp50
 70
     1
102
RTVSPropertyOp51
 70
     0
102
RTVSPropertyOp52
 70
     0
102
RTVSPropertyOp53
 70
     1
102
RTVSPropertyOp54
 70
     1
102
RTVSPropertyOp55
 70
     1
102
RTVSPropertyOp56
 70
     1
102
RTVSPropertyOp57
 70
     1
102
RTVSPropertyOp58
 70
     1
102
RTVSPropertyOp59
 70
     1
102
RTVSPropertyOp60
 70
     1
102
RTVSPropertyOp61
 70
     1
102
RTVSPropertyOp62
 70
     1
  0
XRECORD
  5
181
102
{ACAD_REACTORS
330
180
102
}
330
180
100
AcDbXrecord
280
     1
102
RTVSPost2010Prop28
280
     0
102
RTVSPost2010PropOp28
 70
     1
102
RTVSPost2010Prop29
280
     1
102
RTVSPost2010PropOp29
 70
     1
102
RTVSPost2010Prop30
280
     1
102
RTVSPost2010PropOp30
 70
     1
102
RTVSPost2010Prop31
280
     0
102
RTVSPost2010PropOp31
 70
     1
102
RTVSPost2010Prop32
280
     0
102
RTVSPost2010PropOp32
 70
     1
102
RTVSPost2010Prop33
280
     0
102
RTVSPost2010PropOp33
 70
     1
102
RTVSPost2010Prop34
280
     0
102
RTVSPost2010PropOp34
 70
     1
102
RTVSPost2010Prop35
280
     0
102
RTVSPost2010PropOp35
 70
     1
102
RTVSPost2010Prop36
280
     0
102
RTVSPost2010PropOp36
 70
     1
102
RTVSPost2010Prop37
 90
       50
102
RTVSPost2010PropOp37
 70
     1
102
RTVSPost2010Prop38
140
0.0
102
RTVSPost2010PropOp38
 70
     1
102
RTVSPost2010Prop39
140
1.0
102
RTVSPost2010PropOp39
 70
     1
102
RTVSPost2010Prop40
 90
        0
102
RTVSPost2010PropOp40
 70
     1
102
RTVSPost2010Prop41ColorIndex
 90
       18
102
RTVSPost2010Prop41ColorRGB
 90
        0
102
RTVSPost2010PropOp41
 70
     1
102
RTVSPost2010Prop42
 90
       50
102
RTVSPost2010PropOp42
 70
     1
102
RTVSPost2010Prop43
 90
        3
102
RTVSPost2010PropOp43
 70
     1
102
RTVSPost2010Prop44ColorIndex
 90
        5
102
RTVSPost2010Prop44ColorRGB
 90
      255
102
RTVSPost2010PropOp44
 70
     1
102
RTVSPost2010Prop45
280
     0
102
RTVSPost2010PropOp45
 70
     1
102
RTVSPost2010Prop46
 90
       50
102
RTVSPost2010PropOp46
 70
     1
102
RTVSPost2010Prop47
 90
       50
102
RTVSPost2010PropOp47
 70
     1
102
RTVSPost2010Prop48
 90
       50
102
RTVSPost2010PropOp48
 70
     1
102
RTVSPost2010Prop49
280
     0
102
RTVSPost2010PropOp49
 70
     1
102
RTVSPost2010Prop50
 90
       50
102
RTVSPost2010PropOp50
 70
     1
102
RTVSPost2010Prop51ColorIndex
 90
      256
102
RTVSPost2010Prop51ColorRGB
 90
-16777216
102
RTVSPost2010PropOp51
 70
     0
102
RTVSPost2010Prop52
140
1.0
102
RTVSPost2010PropOp52
 70
     0
102
RTVSPost2010Prop53
 90
        2
102
RTVSPost2010PropOp53
 70
     1
102
RTVSPost2010Prop54
  1
strokes_ogs.tif
102
RTVSPost2010PropOp54
 70
     1
102
RTVSPost2010Prop55
280
     0
102
RTVSPost2010PropOp55
 70
     1
102
RTVSPost2010Prop56
140
1.0
102
RTVSPost2010PropOp56
 70
     1
102
RTVSPost2010Prop57
140
1.0
102
RTVSPost2010PropOp57
 70
     1
102
RTVSPropertyOp0
 70
     1
102
RTVSPropertyOp1
 70
     1
102
RTVSPropertyOp2
 70
     1
102
RTVSPropertyOp3
 70
     1
102
RTVSPropertyOp4
 70
     1
102
RTVSPropertyOp5
 70
     1
102
RTVSPropertyOp6
 70
     1
102
RTVSPropertyOp7
 70
     1
102
RTVSPropertyOp8
 70
     1
102
RTVSPropertyOp9
 70
     1
102
RTVSPropertyOp10
 70
     1
102
RTVSPropertyOp11
 70
     1
102
RTVSPropertyOp12
 70
     1
102
RTVSPropertyOp13
 70
     1
102
RTVSPropertyOp14
 70
     1
102
RTVSPropertyOp15
 70
     1
102
RTVSPropertyOp16
 70
     1
102
RTVSPropertyOp17
 70
     1
102
RTVSPropertyOp18
 70
     1
102
RTVSPropertyOp19
 70
     1
102
RTVSPropertyOp20
 70
     1
102
RTVSPropertyOp21
 70
     1
102
RTVSPropertyOp22
 70
     1
102
RTVSPropertyOp23
 70
     1
102
RTVSPropertyOp24
 70
     1
102
RTVSPropertyOp25
 70
     1
102
RTVSPropertyOp26
 70
     1
102
RTVSPropertyOp27
 70
     1
102
RTVSPropertyOp28
 70
     1
102
RTVSPropertyOp29
 70
     1
102
RTVSPropertyOp30
 70
     1
102
RTVSPropertyOp31
 70
     1
102
RTVSPropertyOp32
 70
     1
102
RTVSPropertyOp33
 70
     1
102
RTVSPropertyOp34
 70
     1
102
RTVSPropertyOp35
 70
     1
102
RTVSPropertyOp36
 70
     1
102
RTVSPropertyOp37
 70
     1
102
RTVSPropertyOp38
 70
     1
102
RTVSPropertyOp39
 70
     1
102
RTVSPropertyOp40
 70
     1
102
RTVSPropertyOp41
 70
     1
102
RTVSPropertyOp42
 70
     1
102
RTVSPropertyOp43
 70
     1
102
RTVSPropertyOp44
 70
     1
102
RTVSPropertyOp45
 70
     1
102
RTVSPropertyOp46
 70
     1
102
RTVSPropertyOp47
 70
     1
102
RTVSPropertyOp48
 70
     1
102
RTVSPropertyOp49
 70
     1
102
RTVSPropertyOp50
 70
     1
102
RTVSPropertyOp51
 70
     0
102
RTVSPropertyOp52
 70
     0
102
RTVSPropertyOp53
 70
     1
102
RTVSPropertyOp54
 70
     1
102
RTVSPropertyOp55
 70
     1
102
RTVSPropertyOp56
 70
     1
102
RTVSPropertyOp57
 70
     1
102
RTVSPropertyOp58
 70
     1
102
RTVSPropertyOp59
 70
     1
102
RTVSPropertyOp60
 70
     1
102
RTVSPropertyOp61
 70
     1
102
RTVSPropertyOp62
 70
     1
  0
XRECORD
  5
175
102
{ACAD_REACTORS
330
174
102
}
330
174
100
AcDbXrecord
280
     1
102
RTVSPost2010Prop28
280
     0
102
RTVSPost2010PropOp28
 70
     1
102
RTVSPost2010Prop29
280
     1
102
RTVSPost2010PropOp29
 70
     1
102
RTVSPost2010Prop30
280
     1
102
RTVSPost2010PropOp30
 70
     1
102
RTVSPost2010Prop31
280
     0
102
RTVSPost2010PropOp31
 70
     1
102
RTVSPost2010Prop32
280
     0
102
RTVSPost2010PropOp32
 70
     1
102
RTVSPost2010Prop33
280
     0
102
RTVSPost2010PropOp33
 70
     1
102
RTVSPost2010Prop34
280
     0
102
RTVSPost2010PropOp34
 70
     1
102
RTVSPost2010Prop35
280
     0
102
RTVSPost2010PropOp35
 70
     1
102
RTVSPost2010Prop36
280
     0
102
RTVSPost2010PropOp36
 70
     1
102
RTVSPost2010Prop37
 90
       50
102
RTVSPost2010PropOp37
 70
     1
102
RTVSPost2010Prop38
140
0.0
102
RTVSPost2010PropOp38
 70
     1
102
RTVSPost2010Prop39
140
1.0
102
RTVSPost2010PropOp39
 70
     1
102
RTVSPost2010Prop40
 90
        0
102
RTVSPost2010PropOp40
 70
     1
102
RTVSPost2010Prop41ColorIndex
 90
       18
102
RTVSPost2010Prop41ColorRGB
 90
        0
102
RTVSPost2010PropOp41
 70
     1
102
RTVSPost2010Prop42
 90
       50
102
RTVSPost2010PropOp42
 70
     1
102
RTVSPost2010Prop43
 90
        3
102
RTVSPost2010PropOp43
 70
     1
102
RTVSPost2010Prop44ColorIndex
 90
        5
102
RTVSPost2010Prop44ColorRGB
 90
      255
102
RTVSPost2010PropOp44
 70
     1
102
RTVSPost2010Prop45
280
     0
102
RTVSPost2010PropOp45
 70
     1
102
RTVSPost2010Prop46
 90
       50
102
RTVSPost2010PropOp46
 70
     1
102
RTVSPost2010Prop47
 90
       50
102
RTVSPost2010PropOp47
 70
     1
102
RTVSPost2010Prop48
 90
       50
102
RTVSPost2010PropOp48
 70
     1
102
RTVSPost2010Prop49
280
     0
102
RTVSPost2010PropOp49
 70
     1
102
RTVSPost2010Prop50
 90
       50
102
RTVSPost2010PropOp50
 70
     1
102
RTVSPost2010Prop51ColorIndex
 90
      256
102
RTVSPost2010Prop51ColorRGB
 90
-16777216
102
RTVSPost2010PropOp51
 70
     0
102
RTVSPost2010Prop52
140
1.0
102
RTVSPost2010PropOp52
 70
     0
102
RTVSPost2010Prop53
 90
        2
102
RTVSPost2010PropOp53
 70
     1
102
RTVSPost2010Prop54
  1
strokes_ogs.tif
102
RTVSPost2010PropOp54
 70
     1
102
RTVSPost2010Prop55
280
     0
102
RTVSPost2010PropOp55
 70
     1
102
RTVSPost2010Prop56
140
1.0
102
RTVSPost2010PropOp56
 70
     1
102
RTVSPost2010Prop57
140
1.0
102
RTVSPost2010PropOp57
 70
     1
102
RTVSPropertyOp0
 70
     1
102
RTVSPropertyOp1
 70
     1
102
RTVSPropertyOp2
 70
     1
102
RTVSPropertyOp3
 70
     1
102
RTVSPropertyOp4
 70
     1
102
RTVSPropertyOp5
 70
     1
102
RTVSPropertyOp6
 70
     1
102
RTVSPropertyOp7
 70
     1
102
RTVSPropertyOp8
 70
     1
102
RTVSPropertyOp9
 70
     1
102
RTVSPropertyOp10
 70
     1
102
RTVSPropertyOp11
 70
     1
102
RTVSPropertyOp12
 70
     1
102
RTVSPropertyOp13
 70
     1
102
RTVSPropertyOp14
 70
     1
102
RTVSPropertyOp15
 70
     1
102
RTVSPropertyOp16
 70
     1
102
RTVSPropertyOp17
 70
     1
102
RTVSPropertyOp18
 70
     1
102
RTVSPropertyOp19
 70
     1
102
RTVSPropertyOp20
 70
     1
102
RTVSPropertyOp21
 70
     1
102
RTVSPropertyOp22
 70
     1
102
RTVSPropertyOp23
 70
     1
102
RTVSPropertyOp24
 70
     1
102
RTVSPropertyOp25
 70
     1
102
RTVSPropertyOp26
 70
     1
102
RTVSPropertyOp27
 70
     1
102
RTVSPropertyOp28
 70
     1
102
RTVSPropertyOp29
 70
     1
102
RTVSPropertyOp30
 70
     1
102
RTVSPropertyOp31
 70
     1
102
RTVSPropertyOp32
 70
     1
102
RTVSPropertyOp33
 70
     1
102
RTVSPropertyOp34
 70
     1
102
RTVSPropertyOp35
 70
     1
102
RTVSPropertyOp36
 70
     1
102
RTVSPropertyOp37
 70
     1
102
RTVSPropertyOp38
 70
     1
102
RTVSPropertyOp39
 70
     1
102
RTVSPropertyOp40
 70
     1
102
RTVSPropertyOp41
 70
     1
102
RTVSPropertyOp42
 70
     1
102
RTVSPropertyOp43
 70
     1
102
RTVSPropertyOp44
 70
     1
102
RTVSPropertyOp45
 70
     1
102
RTVSPropertyOp46
 70
     1
102
RTVSPropertyOp47
 70
     1
102
RTVSPropertyOp48
 70
     1
102
RTVSPropertyOp49
 70
     1
102
RTVSPropertyOp50
 70
     1
102
RTVSPropertyOp51
 70
     0
102
RTVSPropertyOp52
 70
     0
102
RTVSPropertyOp53
 70
     1
102
RTVSPropertyOp54
 70
     1
102
RTVSPropertyOp55
 70
     1
102
RTVSPropertyOp56
 70
     1
102
RTVSPropertyOp57
 70
     1
102
RTVSPropertyOp58
 70
     1
102
RTVSPropertyOp59
 70
     1
102
RTVSPropertyOp60
 70
     1
102
RTVSPropertyOp61
 70
     1
102
RTVSPropertyOp62
 70
     1
  0
XRECORD
  5
18D
102
{ACAD_REACTORS
330
18C
102
}
330
18C
100
AcDbXrecord
280
     1
102
RTVSPost2010Prop28
280
     0
102
RTVSPost2010PropOp28
 70
     1
102
RTVSPost2010Prop29
280
     1
102
RTVSPost2010PropOp29
 70
     1
102
RTVSPost2010Prop30
280
     1
102
RTVSPost2010PropOp30
 70
     1
102
RTVSPost2010Prop31
280
     0
102
RTVSPost2010PropOp31
 70
     1
102
RTVSPost2010Prop32
280
     0
102
RTVSPost2010PropOp32
 70
     1
102
RTVSPost2010Prop33
280
     0
102
RTVSPost2010PropOp33
 70
     1
102
RTVSPost2010Prop34
280
     0
102
RTVSPost2010PropOp34
 70
     1
102
RTVSPost2010Prop35
280
     0
102
RTVSPost2010PropOp35
 70
     1
102
RTVSPost2010Prop36
280
     0
102
RTVSPost2010PropOp36
 70
     1
102
RTVSPost2010Prop37
 90
       50
102
RTVSPost2010PropOp37
 70
     1
102
RTVSPost2010Prop38
140
0.0
102
RTVSPost2010PropOp38
 70
     1
102
RTVSPost2010Prop39
140
1.0
102
RTVSPost2010PropOp39
 70
     1
102
RTVSPost2010Prop40
 90
        0
102
RTVSPost2010PropOp40
 70
     1
102
RTVSPost2010Prop41ColorIndex
 90
       18
102
RTVSPost2010Prop41ColorRGB
 90
        0
102
RTVSPost2010PropOp41
 70
     1
102
RTVSPost2010Prop42
 90
       50
102
RTVSPost2010PropOp42
 70
     1
102
RTVSPost2010Prop43
 90
        3
102
RTVSPost2010PropOp43
 70
     1
102
RTVSPost2010Prop44ColorIndex
 90
        5
102
RTVSPost2010Prop44ColorRGB
 90
      255
102
RTVSPost2010PropOp44
 70
     1
102
RTVSPost2010Prop45
280
     0
102
RTVSPost2010PropOp45
 70
     1
102
RTVSPost2010Prop46
 90
       50
102
RTVSPost2010PropOp46
 70
     1
102
RTVSPost2010Prop47
 90
       50
102
RTVSPost2010PropOp47
 70
     1
102
RTVSPost2010Prop48
 90
       50
102
RTVSPost2010PropOp48
 70
     1
102
RTVSPost2010Prop49
280
     0
102
RTVSPost2010PropOp49
 70
     1
102
RTVSPost2010Prop50
 90
       50
102
RTVSPost2010PropOp50
 70
     1
102
RTVSPost2010Prop51ColorIndex
 90
      256
102
RTVSPost2010Prop51ColorRGB
 90
-16777216
102
RTVSPost2010PropOp51
 70
     0
102
RTVSPost2010Prop52
140
1.0
102
RTVSPost2010PropOp52
 70
     0
102
RTVSPost2010Prop53
 90
        2
102
RTVSPost2010PropOp53
 70
     1
102
RTVSPost2010Prop54
  1
strokes_ogs.tif
102
RTVSPost2010PropOp54
 70
     1
102
RTVSPost2010Prop55
280
     0
102
RTVSPost2010PropOp55
 70
     1
102
RTVSPost2010Prop56
140
1.0
102
RTVSPost2010PropOp56
 70
     1
102
RTVSPost2010Prop57
140
1.0
102
RTVSPost2010PropOp57
 70
     1
102
RTVSPropertyOp0
 70
     1
102
RTVSPropertyOp1
 70
     1
102
RTVSPropertyOp2
 70
     1
102
RTVSPropertyOp3
 70
     1
102
RTVSPropertyOp4
 70
     1
102
RTVSPropertyOp5
 70
     1
102
RTVSPropertyOp6
 70
     1
102
RTVSPropertyOp7
 70
     1
102
RTVSPropertyOp8
 70
     1
102
RTVSPropertyOp9
 70
     1
102
RTVSPropertyOp10
 70
     1
102
RTVSPropertyOp11
 70
     1
102
RTVSPropertyOp12
 70
     1
102
RTVSPropertyOp13
 70
     1
102
RTVSPropertyOp14
 70
     1
102
RTVSPropertyOp15
 70
     1
102
RTVSPropertyOp16
 70
     1
102
RTVSPropertyOp17
 70
     1
102
RTVSPropertyOp18
 70
     1
102
RTVSPropertyOp19
 70
     1
102
RTVSPropertyOp20
 70
     1
102
RTVSPropertyOp21
 70
     1
102
RTVSPropertyOp22
 70
     1
102
RTVSPropertyOp23
 70
     1
102
RTVSPropertyOp24
 70
     1
102
RTVSPropertyOp25
 70
     1
102
RTVSPropertyOp26
 70
     1
102
RTVSPropertyOp27
 70
     1
102
RTVSPropertyOp28
 70
     1
102
RTVSPropertyOp29
 70
     1
102
RTVSPropertyOp30
 70
     1
102
RTVSPropertyOp31
 70
     1
102
RTVSPropertyOp32
 70
     1
102
RTVSPropertyOp33
 70
     1
102
RTVSPropertyOp34
 70
     1
102
RTVSPropertyOp35
 70
     1
102
RTVSPropertyOp36
 70
     1
102
RTVSPropertyOp37
 70
     1
102
RTVSPropertyOp38
 70
     1
102
RTVSPropertyOp39
 70
     1
102
RTVSPropertyOp40
 70
     1
102
RTVSPropertyOp41
 70
     1
102
RTVSPropertyOp42
 70
     1
102
RTVSPropertyOp43
 70
     1
102
RTVSPropertyOp44
 70
     1
102
RTVSPropertyOp45
 70
     1
102
RTVSPropertyOp46
 70
     1
102
RTVSPropertyOp47
 70
     1
102
RTVSPropertyOp48
 70
     1
102
RTVSPropertyOp49
 70
     1
102
RTVSPropertyOp50
 70
     1
102
RTVSPropertyOp51
 70
     0
102
RTVSPropertyOp52
 70
     0
102
RTVSPropertyOp53
 70
     1
102
RTVSPropertyOp54
 70
     1
102
RTVSPropertyOp55
 70
     1
102
RTVSPropertyOp56
 70
     1
102
RTVSPropertyOp57
 70
     1
102
RTVSPropertyOp58
 70
     1
102
RTVSPropertyOp59
 70
     1
102
RTVSPropertyOp60
 70
     1
102
RTVSPropertyOp61
 70
     1
102
RTVSPropertyOp62
 70
     1
  0
ENDSEC
  0
EOF
