  0
SECTION
  2
HEADER
  9
$ACADVER
  1
AC1021
  9
$ACADMAINTVER
 70
    50
  9
$DWGCODEPAGE
  3
ANSI_1252
  9
$LASTSAVEDBY
  1
ufficio.tecnico
  9
$INSBASE
 10
0.0
 20
0.0
 30
0.0
  9
$EXTMIN
 10
-1391.999698662977
 20
12.78401107874691
 30
0.0
  9
$EXTMAX
 10
699.6189535799726
 20
1367.392851713972
 30
0.0
  9
$LIMMIN
 10
0.0
 20
0.0
  9
$LIMMAX
 10
12.0
 20
9.0
  9
$ORTHOMODE
 70
     0
  9
$REGENMODE
 70
     1
  9
$FILLMODE
 70
     1
  9
$QTEXTMODE
 70
     0
  9
$MIRRTEXT
 70
     0
  9
$LTSCALE
 40
1.0
  9
$ATTMODE
 70
     1
  9
$TEXTSIZE
 40
0.2
  9
$TRACEWID
 40
0.05
  9
$TEXTSTYLE
  7
Standard
  9
$CLAYER
  8
0
  9
$CELTYPE
  6
ByLayer
  9
$CECOLOR
 62
   256
  9
$CELTSCALE
 40
1.0
  9
$DISPSILH
 70
     0
  9
$DIMSCALE
 40
1.0
  9
$DIMASZ
 40
0.18
  9
$DIMEXO
 40
0.0625
  9
$DIMDLI
 40
0.38
  9
$DIMRND
 40
0.0
  9
$DIMDLE
 40
0.0
  9
$DIMEXE
 40
0.18
  9
$DIMTP
 40
0.0
  9
$DIMTM
 40
0.0
  9
$DIMTXT
 40
0.18
  9
$DIMCEN
 40
0.09
  9
$DIMTSZ
 40
0.0
  9
$DIMTOL
 70
     0
  9
$DIMLIM
 70
     0
  9
$DIMTIH
 70
     1
  9
$DIMTOH
 70
     1
  9
$DIMSE1
 70
     0
  9
$DIMSE2
 70
     0
  9
$DIMTAD
 70
     0
  9
$DIMZIN
 70
     0
  9
$DIMBLK
  1

  9
$DIMASO
 70
     1
  9
$DIMSHO
 70
     1
  9
$DIMPOST
  1

  9
$DIMAPOST
  1

  9
$DIMALT
 70
     0
  9
$DIMALTD
 70
     2
  9
$DIMALTF
 40
25.4
  9
$DIMLFAC
 40
1.0
  9
$DIMTOFL
 70
     0
  9
$DIMTVP
 40
0.0
  9
$DIMTIX
 70
     0
  9
$DIMSOXD
 70
     0
  9
$DIMSAH
 70
     0
  9
$DIMBLK1
  1

  9
$DIMBLK2
  1

  9
$DIMSTYLE
  2
Standard
  9
$DIMCLRD
 70
     0
  9
$DIMCLRE
 70
     0
  9
$DIMCLRT
 70
     0
  9
$DIMTFAC
 40
1.0
  9
$DIMGAP
 40
0.09
  9
$DIMJUST
 70
     0
  9
$DIMSD1
 70
     0
  9
$DIMSD2
 70
     0
  9
$DIMTOLJ
 70
     1
  9
$DIMTZIN
 70
     0
  9
$DIMALTZ
 70
     0
  9
$DIMALTTZ
 70
     0
  9
$DIMUPT
 70
     0
  9
$DIMDEC
 70
     4
  9
$DIMTDEC
 70
     4
  9
$DIMALTU
 70
     2
  9
$DIMALTTD
 70
     2
  9
$DIMTXSTY
  7
Standard
  9
$DIMAUNIT
 70
     0
  9
$DIMADEC
 70
     0
  9
$DIMALTRND
 40
0.0
  9
$DIMAZIN
 70
     0
  9
$DIMDSEP
 70
    46
  9
$DIMATFIT
 70
     3
  9
$DIMFRAC
 70
     0
  9
$DIMLDRBLK
  1

  9
$DIMLUNIT
 70
     2
  9
$DIMLWD
 70
    -2
  9
$DIMLWE
 70
    -2
  9
$DIMTMOVE
 70
     0
  9
$DIMFXL
 40
1.0
  9
$DIMFXLON
 70
     0
  9
$DIMJOGANG
 40
0.7853981633974483
  9
$DIMTFILL
 70
     0
  9
$DIMTFILLCLR
 70
     0
  9
$DIMARCSYM
 70
     0
  9
$DIMLTYPE
  6

  9
$DIMLTEX1
  6

  9
$DIMLTEX2
  6

  9
$LUNITS
 70
     2
  9
$LUPREC
 70
     4
  9
$SKETCHINC
 40
0.1
  9
$FILLETRAD
 40
0.0
  9
$AUNITS
 70
     0
  9
$AUPREC
 70
     0
  9
$MENU
  1
.
  9
$ELEVATION
 40
0.0
  9
$PELEVATION
 40
0.0
  9
$THICKNESS
 40
0.0
  9
$LIMCHECK
 70
     0
  9
$CHAMFERA
 40
0.0
  9
$CHAMFERB
 40
0.0
  9
$CHAMFERC
 40
0.0
  9
$CHAMFERD
 40
0.0
  9
$SKPOLY
 70
     0
  9
$TDCREATE
 40
2459445.694560185
  9
$TDUCREATE
 40
2459445.611226852
  9
$TDUPDATE
 40
2459445.708842593
  9
$TDUUPDATE
 40
2459445.625509260
  9
$TDINDWG
 40
0.0049768519
  9
$TDUSRTIMER
 40
0.0049768519
  9
$USRTIMER
 70
     1
  9
$ANGBASE
 50
0.0
  9
$ANGDIR
 70
     0
  9
$PDMODE
 70
     0
  9
$PDSIZE
 40
0.0
  9
$PLINEWID
 40
0.0
  9
$SPLFRAME
 70
     0
  9
$SPLINETYPE
 70
     6
  9
$SPLINESEGS
 70
     8
  9
$HANDSEED
  5
272
  9
$SURFTAB1
 70
     6
  9
$SURFTAB2
 70
     6
  9
$SURFTYPE
 70
     6
  9
$SURFU
 70
     6
  9
$SURFV
 70
     6
  9
$UCSBASE
  2

  9
$UCSNAME
  2

  9
$UCSORG
 10
0.0
 20
0.0
 30
0.0
  9
$UCSXDIR
 10
1.0
 20
0.0
 30
0.0
  9
$UCSYDIR
 10
0.0
 20
1.0
 30
0.0
  9
$UCSORTHOREF
  2

  9
$UCSORTHOVIEW
 70
     0
  9
$UCSORGTOP
 10
0.0
 20
0.0
 30
0.0
  9
$UCSORGBOTTOM
 10
0.0
 20
0.0
 30
0.0
  9
$UCSORGLEFT
 10
0.0
 20
0.0
 30
0.0
  9
$UCSORGRIGHT
 10
0.0
 20
0.0
 30
0.0
  9
$UCSORGFRONT
 10
0.0
 20
0.0
 30
0.0
  9
$UCSORGBACK
 10
0.0
 20
0.0
 30
0.0
  9
$PUCSBASE
  2

  9
$PUCSNAME
  2

  9
$PUCSORG
 10
0.0
 20
0.0
 30
0.0
  9
$PUCSXDIR
 10
1.0
 20
0.0
 30
0.0
  9
$PUCSYDIR
 10
0.0
 20
1.0
 30
0.0
  9
$PUCSORTHOREF
  2

  9
$PUCSORTHOVIEW
 70
     0
  9
$PUCSORGTOP
 10
0.0
 20
0.0
 30
0.0
  9
$PUCSORGBOTTOM
 10
0.0
 20
0.0
 30
0.0
  9
$PUCSORGLEFT
 10
0.0
 20
0.0
 30
0.0
  9
$PUCSORGRIGHT
 10
0.0
 20
0.0
 30
0.0
  9
$PUCSORGFRONT
 10
0.0
 20
0.0
 30
0.0
  9
$PUCSORGBACK
 10
0.0
 20
0.0
 30
0.0
  9
$USERI1
 70
     0
  9
$USERI2
 70
     0
  9
$USERI3
 70
     0
  9
$USERI4
 70
     0
  9
$USERI5
 70
     0
  9
$USERR1
 40
0.0
  9
$USERR2
 40
0.0
  9
$USERR3
 40
0.0
  9
$USERR4
 40
0.0
  9
$USERR5
 40
0.0
  9
$WORLDVIEW
 70
     1
  9
$SHADEDGE
 70
     3
  9
$SHADEDIF
 70
    70
  9
$TILEMODE
 70
     1
  9
$MAXACTVP
 70
    64
  9
$PINSBASE
 10
0.0
 20
0.0
 30
0.0
  9
$PLIMCHECK
 70
     0
  9
$PEXTMIN
 10
1.000000000000000E+20
 20
1.000000000000000E+20
 30
1.000000000000000E+20
  9
$PEXTMAX
 10
-1.000000000000000E+20
 20
-1.000000000000000E+20
 30
-1.000000000000000E+20
  9
$PLIMMIN
 10
0.0
 20
0.0
  9
$PLIMMAX
 10
12.0
 20
9.0
  9
$UNITMODE
 70
     0
  9
$VISRETAIN
 70
     1
  9
$PLINEGEN
 70
     0
  9
$PSLTSCALE
 70
     1
  9
$TREEDEPTH
 70
  3020
  9
$CMLSTYLE
  2
Standard
  9
$CMLJUST
 70
     0
  9
$CMLSCALE
 40
1.0
  9
$PROXYGRAPHICS
 70
     1
  9
$MEASUREMENT
 70
     0
  9
$CELWEIGHT
370
    -1
  9
$ENDCAPS
280
     0
  9
$JOINSTYLE
280
     0
  9
$LWDISPLAY
290
     1
  9
$INSUNITS
 70
     0
  9
$HYPERLINKBASE
  1

  9
$STYLESHEET
  1

  9
$XEDIT
290
     1
  9
$CEPSNTYPE
380
     0
  9
$PSTYLEMODE
290
     1
  9
$FINGERPRINTGUID
  2
{B6098B59-6C5D-B249-A269-87BDC4F61796}
  9
$VERSIONGUID
  2
{A60C518D-5F9E-D043-BE2A-8572AB4B7E0E}
  9
$EXTNAMES
290
     1
  9
$PSVPSCALE
 40
0.0
  9
$OLESTARTUP
290
     0
  9
$SORTENTS
280
   127
  9
$INDEXCTL
280
     0
  9
$HIDETEXT
280
     1
  9
$XCLIPFRAME
290
     0
  9
$HALOGAP
280
     0
  9
$OBSCOLOR
 70
   257
  9
$OBSLTYPE
280
     0
  9
$INTERSECTIONDISPLAY
280
     0
  9
$INTERSECTIONCOLOR
 70
   257
  9
$DIMASSOC
280
     2
  9
$PROJECTNAME
  1

  9
$CAMERADISPLAY
290
     0
  9
$LENSLENGTH
 40
50.0
  9
$CAMERAHEIGHT
 40
0.0
  9
$STEPSPERSEC
 40
2.0
  9
$STEPSIZE
 40
6.0
  9
$3DDWFPREC
 40
2.0
  9
$PSOLWIDTH
 40
0.25
  9
$PSOLHEIGHT
 40
4.0
  9
$LOFTANG1
 40
1.570796326794896
  9
$LOFTANG2
 40
1.570796326794896
  9
$LOFTMAG1
 40
0.0
  9
$LOFTMAG2
 40
0.0
  9
$LOFTPARAM
 70
     7
  9
$LOFTNORMALS
280
     1
  9
$LATITUDE
 40
37.795
  9
$LONGITUDE
 40
-122.394
  9
$NORTHDIRECTION
 40
0.0
  9
$TIMEZONE
 70
 -8000
  9
$LIGHTGLYPHDISPLAY
280
     1
  9
$TILEMODELIGHTSYNCH
280
     1
  9
$CMATERIAL
347
11
  9
$SOLIDHIST
280
     0
  9
$SHOWHIST
280
     1
  9
$DWFFRAME
280
     2
  9
$DGNFRAME
280
     0
  9
$REALWORLDSCALE
290
     1
  9
$INTERFERECOLOR
 62
     1
  9
$INTERFEREOBJVS
345
33
  9
$INTERFEREVPVS
346
30
  9
$CSHADOW
280
     0
  9
$SHADOWPLANELOCATION
 40
0.0
  0
ENDSEC
  0
SECTION
  2
CLASSES
  0
CLASS
  1
ACDBDICTIONARYWDFLT
  2
AcDbDictionaryWithDefault
  3
ObjectDBX Classes
 90
        0
 91
        1
280
     0
281
     0
  0
CLASS
  1
MATERIAL
  2
AcDbMaterial
  3
ObjectDBX Classes
 90
     1153
 91
        3
280
     0
281
     0
  0
CLASS
  1
VISUALSTYLE
  2
AcDbVisualStyle
  3
ObjectDBX Classes
 90
     4095
 91
       24
280
     0
281
     0
  0
CLASS
  1
SCALE
  2
AcDbScale
  3
ObjectDBX Classes
 90
     1153
 91
       17
280
     0
281
     0
  0
CLASS
  1
TABLESTYLE
  2
AcDbTableStyle
  3
ObjectDBX Classes
 90
     4095
 91
        1
280
     0
281
     0
  0
CLASS
  1
MLEADERSTYLE
  2
AcDbMLeaderStyle
  3
ACDB_MLEADERSTYLE_CLASS
 90
     4095
 91
        1
280
     0
281
     0
  0
CLASS
  1
ACDBSECTIONVIEWSTYLE
  2
AcDbSectionViewStyle
  3
ObjectDBX Classes
 90
     1025
 91
        1
280
     0
281
     0
  0
CLASS
  1
ACDBDETAILVIEWSTYLE
  2
AcDbDetailViewStyle
  3
ObjectDBX Classes
 90
     1025
 91
        1
280
     0
281
     0
  0
CLASS
  1
IMAGEDEF
  2
AcDbRasterImageDef
  3
ISM
 90
        0
 91
        1
280
     0
281
     0
  0
CLASS
  1
IMAGE
  2
AcDbRasterImage
  3
ISM
 90
     2175
 91
        1
280
     0
281
     1
  0
CLASS
  1
DICTIONARYVAR
  2
AcDbDictionaryVar
  3
ObjectDBX Classes
 90
        0
 91
        6
280
     0
281
     0
  0
CLASS
  1
CELLSTYLEMAP
  2
AcDbCellStyleMap
  3
ObjectDBX Classes
 90
     1152
 91
        3
280
     0
281
     0
  0
ENDSEC
  0
SECTION
  2
TABLES
  0
TABLE
  2
VPORT
  5
8
330
0
100
AcDbSymbolTable
 70
     1
  0
VPORT
  5
57
330
8
100
AcDbSymbolTableRecord
100
AcDbViewportTableRecord
  2
*Active
 70
     0
 10
0.0
 20
0.0
 11
1.0
 21
1.0
 12
281.7473809355829
 22
-53.39792132966431
 13
0.0
 23
0.0
 14
1.0
 24
1.0
 15
0.0
 25
0.0
 16
0.0
 26
0.0
 36
1.0
 17
297.6379999999998
 27
413.4058920254914
 37
0.0
 40
1548.252432043035
 41
2.545333333333333
 42
50.0
 43
0.0
 44
0.0
 50
0.0
 51
0.0
 71
     0
 72
   100
 73
     1
 74
     0
 75
     1
 76
     0
 77
     0
 78
     0
281
     0
 65
     1
110
0.0
120
0.0
130
0.0
111
1.0
121
0.0
131
0.0
112
0.0
122
1.0
132
0.0
 79
     0
146
0.0
348
2F
 60
     3
 61
     5
292
     1
282
     1
141
0.0
142
0.0
 63
   250
421
  3355443
1001
ACAD_NAV_VCDISPLAY
1070
     3
  0
ENDTAB
  0
TABLE
  2
LTYPE
  5
5
330
0
100
AcDbSymbolTable
 70
     2
  0
LTYPE
  5
5B
330
5
100
AcDbSymbolTableRecord
100
AcDbLinetypeTableRecord
  2
ByBlock
 70
     0
  3

 72
    65
 73
     0
 40
0.0
  0
LTYPE
  5
5C
330
5
100
AcDbSymbolTableRecord
100
AcDbLinetypeTableRecord
  2
ByLayer
 70
     0
  3

 72
    65
 73
     0
 40
0.0
  0
LTYPE
  5
5D
330
5
100
AcDbSymbolTableRecord
100
AcDbLinetypeTableRecord
  2
Continuous
 70
     0
  3
Solid line
 72
    65
 73
     0
 40
0.0
  0
ENDTAB
  0
TABLE
  2
LAYER
  5
2
102
{ACAD_XDICTIONARY
360
1E2
102
}
330
0
100
AcDbSymbolTable
 70
     4
  0
LAYER
  5
54
330
2
100
AcDbSymbolTableRecord
100
AcDbLayerTableRecord
  2
0
 70
     0
 62
     7
  6
Continuous
370
    -3
390
F
347
21
  0
LAYER
  5
78
330
2
100
AcDbSymbolTableRecord
100
AcDbLayerTableRecord
  2
Livello 1
 70
     5
 62
     7
  6
Continuous
370
     0
390
F
347
21
  0
LAYER
  5
7D
330
2
100
AcDbSymbolTableRecord
100
AcDbLayerTableRecord
  2
Livello 2
 70
     0
 62
     7
  6
Continuous
370
     0
390
F
347
21
  0
LAYER
  5
143
330
2
100
AcDbSymbolTableRecord
100
AcDbLayerTableRecord
  2
Livello 3
 70
     0
 62
     7
  6
Continuous
370
     0
390
F
347
21
  0
ENDTAB
  0
TABLE
  2
STYLE
  5
3
330
0
100
AcDbSymbolTable
 70
     2
  0
STYLE
  5
55
330
3
100
AcDbSymbolTableRecord
100
AcDbTextStyleTableRecord
  2
Standard
 70
     0
 40
0.0
 41
1.0
 50
0.0
 71
     0
 42
0.2
  3
txt
  4

  0
STYLE
  5
5A
330
3
100
AcDbSymbolTableRecord
100
AcDbTextStyleTableRecord
  2
Annotative
 70
     0
 40
0.0
 41
1.0
 50
0.0
 71
     0
 42
0.2
  3
txt
  4

1001
AcadAnnotative
1000
AnnotativeData
1002
{
1070
     1
1070
     1
1002
}
  0
ENDTAB
  0
TABLE
  2
VIEW
  5
6
330
0
100
AcDbSymbolTable
 70
     0
  0
ENDTAB
  0
TABLE
  2
UCS
  5
7
330
0
100
AcDbSymbolTable
 70
     0
  0
ENDTAB
  0
TABLE
  2
APPID
  5
9
330
0
100
AcDbSymbolTable
 70
     6
  0
APPID
  5
56
330
9
100
AcDbSymbolTableRecord
100
AcDbRegAppTableRecord
  2
ACAD
 70
     0
  0
APPID
  5
5E
330
9
100
AcDbSymbolTableRecord
100
AcDbRegAppTableRecord
  2
AcadAnnotative
 70
     0
  0
APPID
  5
1DF
330
9
100
AcDbSymbolTableRecord
100
AcDbRegAppTableRecord
  2
ACAD_PSEXT
 70
     0
  0
APPID
  5
1E1
330
9
100
AcDbSymbolTableRecord
100
AcDbRegAppTableRecord
  2
ACAD_NAV_VCDISPLAY
 70
     0
  0
APPID
  5
1EB
330
9
100
AcDbSymbolTableRecord
100
AcDbRegAppTableRecord
  2
ACAD_EXEMPT_FROM_CAD_STANDARDS
 70
     0
  0
APPID
  5
26B
330
9
100
AcDbSymbolTableRecord
100
AcDbRegAppTableRecord
  2
ACAD_MLEADERVER
 70
     0
  0
ENDTAB
  0
TABLE
  2
DIMSTYLE
  5
A
330
0
100
AcDbSymbolTable
 70
     2
100
AcDbDimStyleTable
 71
     0
  0
DIMSTYLE
105
58
330
A
100
AcDbSymbolTableRecord
100
AcDbDimStyleTableRecord
  2
Standard
 70
     0
340
55
  0
DIMSTYLE
105
59
330
A
100
AcDbSymbolTableRecord
100
AcDbDimStyleTableRecord
  2
Annotative
 70
     0
340
55
1001
AcadAnnotative
1000
AnnotativeData
1002
{
1070
     1
1070
     1
1002
}
  0
ENDTAB
  0
TABLE
  2
BLOCK_RECORD
  5
1
330
0
100
AcDbSymbolTable
 70
     5
  0
BLOCK_RECORD
  5
70
330
1
100
AcDbSymbolTableRecord
100
AcDbBlockTableRecord
  2
*Model_Space
340
73
 70
     0
280
     1
281
     0
  0
BLOCK_RECORD
  5
6C
330
1
100
AcDbSymbolTableRecord
100
AcDbBlockTableRecord
  2
*Paper_Space
340
6F
 70
     0
280
     1
281
     0
  0
BLOCK_RECORD
  5
74
330
1
100
AcDbSymbolTableRecord
100
AcDbBlockTableRecord
  2
*Paper_Space0
340
77
 70
     0
280
     1
281
     0
  0
ENDTAB
  0
ENDSEC
  0
SECTION
  2
BLOCKS
  0
BLOCK
  5
71
330
70
100
AcDbEntity
  8
0
100
AcDbBlockBegin
  2
*Model_Space
 70
     0
 10
0.0
 20
0.0
 30
0.0
  3
*Model_Space
  1

  0
ENDBLK
  5
72
330
70
100
AcDbEntity
  8
0
100
AcDbBlockEnd
  0
BLOCK
  5
6D
330
6C
100
AcDbEntity
 67
     1
  8
0
100
AcDbBlockBegin
  2
*Paper_Space
 70
     0
 10
0.0
 20
0.0
 30
0.0
  3
*Paper_Space
  1

  0
ENDBLK
  5
6E
330
6C
100
AcDbEntity
 67
     1
  8
0
100
AcDbBlockEnd
  0
BLOCK
  5
75
330
74
100
AcDbEntity
 67
     1
  8
0
100
AcDbBlockBegin
  2
*Paper_Space0
 70
     0
 10
0.0
 20
0.0
 30
0.0
  3
*Paper_Space0
  1

  0
ENDBLK
  5
76
330
74
100
AcDbEntity
 67
     1
  8
0
100
AcDbBlockEnd
  0
ENDSEC
  0
SECTION
  2
ENTITIES
  0
IMAGE
  5
7B
330
70
100
AcDbEntity
  8
Livello 1
 92
      140
310
8C000000010000008400000006000000050000000088365696693440BE308F260B282EC000000000000000000088365696693440A1ABA4BDACEF894000000000000000000CA4157A13278240A1ABA4BDACEF894000000000000000000CA4157A13278240BE308F260B282EC000000000000000000088365696693440BE308F
310
260B282EC00000000000000000
100
AcDbRasterImage
 90
        0
 10
20.41245020705537
 20
-15.07821007249765
 30
0.0
 11
0.5409961969058537
 21
0.0
 31
0.0
 12
0.0
 22
0.5409971550341099
 32
0.0
 13
1036.0
 23
1562.0
340
7A
 70
     3
280
     0
281
    50
282
    50
283
     0
360
0
 71
     1
 91
        2
 14
-0.5
 24
-0.5
 14
1035.5
 24
1561.5
  0
LWPOLYLINE
  5
7C
330
70
100
AcDbEntity
  8
Livello 1
 62
    18
420
        0
370
     0
100
AcDbPolyline
 90
        4
 70
     1
 43
0.0
 10
20.41245020705537
 20
-15.07821594901725
 10
580.8845181220457
 20
-15.07821594901725
 10
580.8845181220457
 20
829.9593460907827
 10
20.41245020705537
 20
829.9593460907827
  0
LWPOLYLINE
  5
7E
330
70
100
AcDbEntity
  8
0
100
AcDbPolyline
 90
        4
 70
     1
 43
0.0
 10
402.9124190856164
 20
562.7017388967915
 10
262.0854307842565
 20
717.7881212676566
 10
266.9175829301157
 20
720.4372024194428
 10
407.1273651760638
 20
565.5676518997223
  0
LWPOLYLINE
  5
7F
330
70
100
AcDbEntity
  8
0
100
AcDbPolyline
 90
        4
 70
     1
 43
0.0
 10
379.153971600339
 20
541.7648975069505
 10
237.7934801921993
 20
698.3051812494395
 10
241.9972291220574
 20
702.2470082123336
 10
382.222336714507
 20
546.7683782768035
  0
SPLINE
  5
80
330
70
100
AcDbEntity
  8
0
100
AcDbSpline
210
0.0
220
0.0
230
1.0
 70
     9
 71
     3
 72
    98
 73
    94
 74
     0
 42
0.000000001
 43
0.0000000001
 40
0.0
 40
0.0
 40
0.0
 40
0.0
 40
1.0
 40
1.0
 40
1.0
 40
2.0
 40
2.0
 40
2.0
 40
3.0
 40
3.0
 40
3.0
 40
4.0
 40
4.0
 40
4.0
 40
5.0
 40
5.0
 40
5.0
 40
6.0
 40
6.0
 40
6.0
 40
7.0
 40
7.0
 40
7.0
 40
8.0
 40
8.0
 40
8.0
 40
9.0
 40
9.0
 40
9.0
 40
10.0
 40
10.0
 40
10.0
 40
11.0
 40
11.0
 40
11.0
 40
12.0
 40
12.0
 40
12.0
 40
13.0
 40
13.0
 40
13.0
 40
14.0
 40
14.0
 40
14.0
 40
15.0
 40
15.0
 40
15.0
 40
16.0
 40
16.0
 40
16.0
 40
17.0
 40
17.0
 40
17.0
 40
18.0
 40
18.0
 40
18.0
 40
19.0
 40
19.0
 40
19.0
 40
20.0
 40
20.0
 40
20.0
 40
21.0
 40
21.0
 40
21.0
 40
22.0
 40
22.0
 40
22.0
 40
23.0
 40
23.0
 40
23.0
 40
24.0
 40
24.0
 40
24.0
 40
25.0
 40
25.0
 40
25.0
 40
26.0
 40
26.0
 40
26.0
 40
27.0
 40
27.0
 40
27.0
 40
28.0
 40
28.0
 40
28.0
 40
29.0
 40
29.0
 40
29.0
 40
30.0
 40
30.0
 40
30.0
 40
31.0
 40
31.0
 40
31.0
 40
31.0
 10
399.0488107400123
 20
525.8230011482273
 30
0.0
 10
399.4068694957186
 20
525.9044288405585
 30
0.0
 10
399.7649282515213
 20
525.9858565324655
 30
0.0
 10
400.1229870072766
 20
526.0672842245838
 30
0.0
 10
401.0972658328463
 20
526.2888491911453
 30
0.0
 10
402.0715446584181
 20
526.5104141577103
 30
0.0
 10
403.0458234839916
 20
526.7319791242726
 30
0.0
 10
404.481113415728
 20
527.0583846227673
 30
0.0
 10
405.9164033474663
 20
527.384790121262
 30
0.0
 10
407.3516932792045
 20
527.7111956197577
 30
0.0
 10
409.1019530280518
 20
528.1092297682489
 30
0.0
 10
410.8522127769011
 20
528.5072639167418
 30
0.0
 10
412.6024725257483
 20
528.9052980652331
 30
0.0
 10
414.5193646582174
 20
529.3412268056398
 30
0.0
 10
416.4362567906863
 20
529.7771555460458
 30
0.0
 10
418.3531489231553
 20
530.2130842864507
 30
0.0
 10
420.2946508529966
 20
530.6546096474431
 30
0.0
 10
422.2361527828398
 20
531.0961350084343
 30
0.0
 10
424.1776547126809
 20
531.5376603694276
 30
0.0
 10
425.9877494547763
 20
531.9493018528318
 30
0.0
 10
427.7978441968679
 20
532.3609433362362
 30
0.0
 10
429.6079389389633
 20
532.7725848196405
 30
0.0
 10
431.132350000742
 20
533.1192577402324
 30
0.0
 10
432.6567610625207
 20
533.4659306608227
 30
0.0
 10
434.1811721242993
 20
533.8126035814148
 30
0.0
 10
435.2778769195156
 20
534.0620099678663
 30
0.0
 10
436.3745817147299
 20
534.3114163543169
 30
0.0
 10
437.4712865099462
 20
534.5608227407682
 30
0.0
 10
437.9923922296147
 20
534.6793296489795
 30
0.0
 10
438.5155240995281
 20
534.7912597806144
 30
0.0
 10
439.0350775727474
 20
534.9164512379156
 30
0.0
 10
439.05718173682
 20
534.9217774510107
 30
0.0
 10
439.0794360863928
 20
534.9265389995726
 30
0.0
 10
439.1016079390428
 20
534.9315811966053
 30
0.0
 10
439.4889958428939
 20
535.0196787575351
 30
0.0
 10
439.8843504073301
 20
535.3902917098876
 30
0.0
 10
440.0670605291123
 20
535.7291150181716
 30
0.0
 10
440.2628599715026
 20
536.0922115679632
 30
0.0
 10
440.3327650132849
 20
536.6197049631355
 30
0.0
 10
440.1897374455566
 20
537.0141195357937
 30
0.0
 10
440.0457212712498
 20
537.4112603020494
 30
0.0
 10
439.7832664199994
 20
537.7901076948574
 30
0.0
 10
439.3922036239891
 20
537.9795721258641
 30
0.0
 10
438.971919263049
 20
538.1831939945749
 30
0.0
 10
438.5632419252269
 20
538.2059597147907
 30
0.0
 10
438.1071991063691
 20
538.1022490423065
 30
0.0
 10
437.7491403506629
 20
538.0208213499753
 30
0.0
 10
437.3910815948601
 20
537.9393936580681
 30
0.0
 10
437.0330228391048
 20
537.8579659659499
 30
0.0
 10
436.0587440135331
 20
537.6364009993884
 30
0.0
 10
435.0844651879614
 20
537.4148360328245
 30
0.0
 10
434.1101863623897
 20
537.1932710662613
 30
0.0
 10
432.6748964306534
 20
536.8668655677664
 30
0.0
 10
431.2396064989133
 20
536.5404600692707
 30
0.0
 10
429.8043165671769
 20
536.2140545707769
 30
0.0
 10
428.0540568183296
 20
535.816020422284
 30
0.0
 10
426.3037970694803
 20
535.4179862737928
 30
0.0
 10
424.5535373206311
 20
535.0199521253006
 30
0.0
 10
422.6366451881621
 20
534.5840233848938
 30
0.0
 10
420.719753055695
 20
534.148094644489
 30
0.0
 10
418.8028609232241
 20
533.7121659040831
 30
0.0
 10
416.8613589933848
 20
533.2706405430926
 30
0.0
 10
414.9198570635417
 20
532.8291151821002
 30
0.0
 10
412.9783551337004
 20
532.3875898211081
 30
0.0
 10
411.1682603916051
 20
531.9759483377018
 30
0.0
 10
409.3581656495116
 20
531.5643068542977
 30
0.0
 10
407.5480709074181
 20
531.1526653708933
 30
0.0
 10
406.0236598456395
 20
530.8059924503012
 30
0.0
 10
404.4992487838607
 20
530.4593195297111
 30
0.0
 10
402.9748377220821
 20
530.1126466091191
 30
0.0
 10
401.8781329268658
 20
529.8632402226676
 30
0.0
 10
400.7814281316512
 20
529.613833836218
 30
0.0
 10
399.6847233364351
 20
529.3644274497665
 30
0.0
 10
399.1636176167667
 20
529.2459205415544
 30
0.0
 10
398.6404857468515
 20
529.1339904099195
 30
0.0
 10
398.120932273634
 20
529.0087989526182
 30
0.0
 10
398.0988281095615
 20
529.0034727395241
 30
0.0
 10
398.0765737599868
 20
528.9987111909613
 30
0.0
 10
398.0544019073386
 20
528.9936689939286
 30
0.0
 10
397.6670140034876
 20
528.9055714329988
 30
0.0
 10
397.2716594390495
 20
528.5349584806461
 30
0.0
 10
397.0889493172672
 20
528.1961351723621
 30
0.0
 10
396.8931498748771
 20
527.8330386225706
 30
0.0
 10
396.8232448330964
 20
527.3055452273982
 30
0.0
 10
396.9662724008249
 20
526.9111306547402
 30
0.0
 10
397.1102885751315
 20
526.5139898884845
 30
0.0
 10
397.3727434263819
 20
526.1351424956765
 30
0.0
 10
397.7638062223924
 20
525.9456780646686
 30
0.0
 10
398.1840905833323
 20
525.7420561959596
 30
0.0
 10
398.5927679211527
 20
525.7192904757438
 30
0.0
 10
399.0488107400123
 20
525.8230011482273
 30
0.0
 10
399.0488107400123
 20
525.8230011482273
 30
0.0
 10
399.0488107400123
 20
525.8230011482273
 30
0.0
 10
399.0488107400123
 20
525.8230011482273
 30
0.0
  0
SPLINE
  5
81
330
70
100
AcDbEntity
  8
0
100
AcDbSpline
210
0.0
220
0.0
230
1.0
 70
     9
 71
     3
 72
   389
 73
   385
 74
     0
 42
0.000000001
 43
0.0000000001
 40
0.0
 40
0.0
 40
0.0
 40
0.0
 40
1.0
 40
1.0
 40
1.0
 40
2.0
 40
2.0
 40
2.0
 40
3.0
 40
3.0
 40
3.0
 40
4.0
 40
4.0
 40
4.0
 40
5.0
 40
5.0
 40
5.0
 40
6.0
 40
6.0
 40
6.0
 40
7.0
 40
7.0
 40
7.0
 40
8.0
 40
8.0
 40
8.0
 40
9.0
 40
9.0
 40
9.0
 40
10.0
 40
10.0
 40
10.0
 40
11.0
 40
11.0
 40
11.0
 40
12.0
 40
12.0
 40
12.0
 40
13.0
 40
13.0
 40
13.0
 40
14.0
 40
14.0
 40
14.0
 40
15.0
 40
15.0
 40
15.0
 40
16.0
 40
16.0
 40
16.0
 40
17.0
 40
17.0
 40
17.0
 40
18.0
 40
18.0
 40
18.0
 40
19.0
 40
19.0
 40
19.0
 40
20.0
 40
20.0
 40
20.0
 40
21.0
 40
21.0
 40
21.0
 40
22.0
 40
22.0
 40
22.0
 40
23.0
 40
23.0
 40
23.0
 40
24.0
 40
24.0
 40
24.0
 40
25.0
 40
25.0
 40
25.0
 40
26.0
 40
26.0
 40
26.0
 40
27.0
 40
27.0
 40
27.0
 40
28.0
 40
28.0
 40
28.0
 40
29.0
 40
29.0
 40
29.0
 40
30.0
 40
30.0
 40
30.0
 40
31.0
 40
31.0
 40
31.0
 40
32.0
 40
32.0
 40
32.0
 40
33.0
 40
33.0
 40
33.0
 40
34.0
 40
34.0
 40
34.0
 40
35.0
 40
35.0
 40
35.0
 40
36.0
 40
36.0
 40
36.0
 40
37.0
 40
37.0
 40
37.0
 40
38.0
 40
38.0
 40
38.0
 40
39.0
 40
39.0
 40
39.0
 40
40.0
 40
40.0
 40
40.0
 40
41.0
 40
41.0
 40
41.0
 40
42.0
 40
42.0
 40
42.0
 40
43.0
 40
43.0
 40
43.0
 40
44.0
 40
44.0
 40
44.0
 40
45.0
 40
45.0
 40
45.0
 40
46.0
 40
46.0
 40
46.0
 40
47.0
 40
47.0
 40
47.0
 40
48.0
 40
48.0
 40
48.0
 40
49.0
 40
49.0
 40
49.0
 40
50.0
 40
50.0
 40
50.0
 40
51.0
 40
51.0
 40
51.0
 40
52.0
 40
52.0
 40
52.0
 40
53.0
 40
53.0
 40
53.0
 40
54.0
 40
54.0
 40
54.0
 40
55.0
 40
55.0
 40
55.0
 40
56.0
 40
56.0
 40
56.0
 40
57.0
 40
57.0
 40
57.0
 40
58.0
 40
58.0
 40
58.0
 40
59.0
 40
59.0
 40
59.0
 40
60.0
 40
60.0
 40
60.0
 40
61.0
 40
61.0
 40
61.0
 40
62.0
 40
62.0
 40
62.0
 40
63.0
 40
63.0
 40
63.0
 40
64.0
 40
64.0
 40
64.0
 40
65.0
 40
65.0
 40
65.0
 40
66.0
 40
66.0
 40
66.0
 40
67.0
 40
67.0
 40
67.0
 40
68.0
 40
68.0
 40
68.0
 40
69.0
 40
69.0
 40
69.0
 40
70.0
 40
70.0
 40
70.0
 40
71.0
 40
71.0
 40
71.0
 40
72.0
 40
72.0
 40
72.0
 40
73.0
 40
73.0
 40
73.0
 40
74.0
 40
74.0
 40
74.0
 40
75.0
 40
75.0
 40
75.0
 40
76.0
 40
76.0
 40
76.0
 40
77.0
 40
77.0
 40
77.0
 40
78.0
 40
78.0
 40
78.0
 40
79.0
 40
79.0
 40
79.0
 40
80.0
 40
80.0
 40
80.0
 40
81.0
 40
81.0
 40
81.0
 40
82.0
 40
82.0
 40
82.0
 40
83.0
 40
83.0
 40
83.0
 40
84.0
 40
84.0
 40
84.0
 40
85.0
 40
85.0
 40
85.0
 40
86.0
 40
86.0
 40
86.0
 40
87.0
 40
87.0
 40
87.0
 40
88.0
 40
88.0
 40
88.0
 40
89.0
 40
89.0
 40
89.0
 40
90.0
 40
90.0
 40
90.0
 40
91.0
 40
91.0
 40
91.0
 40
92.0
 40
92.0
 40
92.0
 40
93.0
 40
93.0
 40
93.0
 40
94.0
 40
94.0
 40
94.0
 40
95.0
 40
95.0
 40
95.0
 40
96.0
 40
96.0
 40
96.0
 40
97.0
 40
97.0
 40
97.0
 40
98.0
 40
98.0
 40
98.0
 40
99.0
 40
99.0
 40
99.0
 40
100.0
 40
100.0
 40
100.0
 40
101.0
 40
101.0
 40
101.0
 40
102.0
 40
102.0
 40
102.0
 40
103.0
 40
103.0
 40
103.0
 40
104.0
 40
104.0
 40
104.0
 40
105.0
 40
105.0
 40
105.0
 40
106.0
 40
106.0
 40
106.0
 40
107.0
 40
107.0
 40
107.0
 40
108.0
 40
108.0
 40
108.0
 40
109.0
 40
109.0
 40
109.0
 40
110.0
 40
110.0
 40
110.0
 40
111.0
 40
111.0
 40
111.0
 40
112.0
 40
112.0
 40
112.0
 40
113.0
 40
113.0
 40
113.0
 40
114.0
 40
114.0
 40
114.0
 40
115.0
 40
115.0
 40
115.0
 40
116.0
 40
116.0
 40
116.0
 40
117.0
 40
117.0
 40
117.0
 40
118.0
 40
118.0
 40
118.0
 40
119.0
 40
119.0
 40
119.0
 40
120.0
 40
120.0
 40
120.0
 40
121.0
 40
121.0
 40
121.0
 40
122.0
 40
122.0
 40
122.0
 40
123.0
 40
123.0
 40
123.0
 40
124.0
 40
124.0
 40
124.0
 40
125.0
 40
125.0
 40
125.0
 40
126.0
 40
126.0
 40
126.0
 40
127.0
 40
127.0
 40
127.0
 40
128.0
 40
128.0
 40
128.0
 40
128.0
 10
187.5782627114486
 20
741.3292557516268
 30
0.0
 10
190.7656814697193
 20
738.977927483902
 30
0.0
 10
194.699582535588
 20
737.8975050607076
 30
0.0
 10
198.651412682304
 20
738.2569745081227
 30
0.0
 10
202.5624662828477
 20
738.6127348076288
 30
0.0
 10
206.3569917666664
 20
740.228415211728
 30
0.0
 10
209.117760593158
 20
743.0597544133489
 30
0.0
 10
210.7418180383493
 20
744.7253257810553
 30
0.0
 10
211.8507395110819
 20
746.8014125858007
 30
0.0
 10
212.9326897025066
 20
748.8377588154381
 30
0.0
 10
213.4498883907454
 20
749.8111821829062
 30
0.0
 10
213.9738055021753
 20
750.7818589989838
 30
0.0
 10
214.5736013206488
 20
751.7075512084211
 30
0.0
 10
214.7096417556986
 20
751.9175086089473
 30
0.0
 10
214.8489712969849
 20
752.125334250908
 30
0.0
 10
214.9914816136443
 20
752.330954846202
 30
0.0
 10
215.0587998573919
 20
752.4280847781102
 30
0.0
 10
215.2399792739207
 20
752.7847077957367
 30
0.0
 10
215.0006965595149
 20
752.3493871668343
 30
0.0
 10
215.0382715566812
 20
752.4177463520682
 30
0.0
 10
215.1032064748224
 20
752.4900911224366
 30
0.0
 10
215.1482858782965
 20
752.5510692590724
 30
0.0
 10
215.4699962563154
 20
752.9862413748531
 30
0.0
 10
215.8063762567772
 20
753.4105981304318
 30
0.0
 10
216.15599439996
 20
753.8236744640397
 30
0.0
 10
216.7743933121801
 20
754.5543171962536
 30
0.0
 10
217.4346376568592
 20
755.2494439360263
 30
0.0
 10
218.1310396366098
 20
755.9061260821962
 30
0.0
 10
218.4644367524288
 20
756.2205076318022
 30
0.0
 10
218.8075658021471
 20
756.5235280909355
 30
0.0
 10
219.1550317916108
 20
756.8221712908462
 30
0.0
 10
219.4877984854902
 20
757.1081806077216
 30
0.0
 10
218.8281286452766
 20
756.560647758686
 30
0.0
 10
219.1700822873818
 20
756.8356899240825
 30
0.0
 10
219.2674824328987
 20
756.9140313822063
 30
0.0
 10
219.3642349693464
 20
756.9931318221132
 30
0.0
 10
219.4621507934835
 20
757.070837853219
 30
0.0
 10
219.6906564510682
 20
757.2521800202513
 30
0.0
 10
219.9221031375264
 20
757.4298357692613
 30
0.0
 10
220.156443409589
 20
757.6035737854907
 30
0.0
 10
220.9270294772259
 20
758.1748801748999
 30
0.0
 10
221.7277938559846
 20
758.7053074179657
 30
0.0
 10
222.5542720345529
 20
759.1922610047712
 30
0.0
 10
222.9497804412085
 20
759.4252910377807
 30
0.0
 10
223.3511669541258
 20
759.6482923119348
 30
0.0
 10
223.7577957427138
 20
759.8613190277882
 30
0.0
 10
223.979619952458
 20
759.9775294000619
 30
0.0
 10
224.203086049648
 20
760.0906184350169
 30
0.0
 10
224.4280193395825
 20
760.2006889294735
 30
0.0
 10
224.5405013994305
 20
760.2557317199316
 30
0.0
 10
224.653702634072
 20
760.3092093986015
 30
0.0
 10
224.7665451657113
 20
760.363496449282
 30
0.0
 10
224.9510761658539
 20
760.450050620324
 30
0.0
 10
224.9176064167823
 20
760.4345856824056
 30
0.0
 10
224.6661359184964
 20
760.3171016355271
 30
0.0
 10
224.7420871008017
 20
760.3517358335939
 30
0.0
 10
224.818194063173
 20
760.3860242605296
 30
0.0
 10
224.894456805614
 20
760.4199669163389
 30
0.0
 10
226.685401264579
 20
761.2165929866977
 30
0.0
 10
228.5610826253606
 20
761.8232003813062
 30
0.0
 10
230.4814058989286
 20
762.2173096880941
 30
0.0
 10
230.6854787209732
 20
762.2591916980336
 30
0.0
 10
230.8902459194805
 20
762.2966049466267
 30
0.0
 10
231.094848589265
 20
762.3356960134222
 30
0.0
 10
231.531592622312
 20
762.4191396468139
 30
0.0
 10
230.6519788212136
 20
762.26845551495
 30
0.0
 10
231.0914870452771
 20
762.3355675835846
 30
0.0
 10
231.2149675260871
 20
762.3544228177961
 30
0.0
 10
231.3382405005141
 20
762.3744480186833
 30
0.0
 10
231.4618387913479
 20
762.3925639204681
 30
0.0
 10
231.9560298452207
 20
762.4649979042642
 30
0.0
 10
232.452311348583
 20
762.5232680813796
 30
0.0
 10
232.949867794734
 20
762.5669834647224
 30
0.0
 10
233.9449008374622
 20
762.6544072158122
 30
0.0
 10
234.9451322512077
 20
762.6836365509689
 30
0.0
 10
235.9435280913831
 20
762.6519250803494
 30
0.0
 10
236.40193296908
 20
762.6373650308923
 30
0.0
 10
236.8587034519633
 20
762.6054564769073
 30
0.0
 10
237.3158494158161
 20
762.5696216732631
 30
0.0
 10
237.7594594293532
 20
762.5348479270504
 30
0.0
 10
236.8713693775198
 20
762.6227778975271
 30
0.0
 10
237.3133400512906
 20
762.5698789948272
 30
0.0
 10
237.4376708154878
 20
762.5549980052301
 30
0.0
 10
237.562156087637
 20
762.5416763664587
 30
0.0
 10
237.6864058584515
 20
762.5260553554608
 30
0.0
 10
237.967386404448
 20
762.4907297353792
 30
0.0
 10
238.2477247977495
 20
762.4504047451718
 30
0.0
 10
238.5273687376484
 20
762.4057215219244
 30
0.0
 10
239.7730281237173
 20
762.20668242793
 30
0.0
 10
241.0036386613874
 20
761.9198454759779
 30
0.0
 10
242.2155746176686
 20
761.5710225980473
 30
0.0
 10
243.3803038253373
 20
761.2357869017031
 30
0.0
 10
244.526289619922
 20
760.8411353861791
 30
0.0
 10
245.6607951275382
 20
760.4154471962693
 30
0.0
 10
245.2462047971276
 20
760.5710094267934
 30
0.0
 10
245.7414481558608
 20
760.3837868279716
 30
0.0
 10
245.7976449384505
 20
760.3618898824661
 30
0.0
 10
245.9451665456618
 20
760.304408431658
 30
0.0
 10
246.0924650740681
 20
760.2463550134416
 30
0.0
 10
246.2395683454615
 20
760.1878115078362
 30
0.0
 10
246.5092466135911
 20
760.0804861502665
 30
0.0
 10
246.7782138971143
 20
759.9713865022912
 30
0.0
 10
247.0466126128813
 20
759.8609021459532
 30
0.0
 10
247.6539837421333
 20
759.6108822899278
 30
0.0
 10
248.2583001145103
 20
759.3534988246556
 30
0.0
 10
248.8606682071413
 20
759.0916705286653
 30
0.0
 10
253.2145303552052
 20
757.1991992620914
 30
0.0
 10
257.4791103829621
 20
755.0609600852002
 30
0.0
 10
261.4417263173101
 20
752.4359192438942
 30
0.0
 10
261.9039810616523
 20
752.1296978984263
 30
0.0
 10
262.3619243408684
 20
751.8169538121019
 30
0.0
 10
262.8150435516827
 20
751.4973667373433
 30
0.0
 10
262.8698721993824
 20
751.4586958385771
 30
0.0
 10
263.2865962048636
 20
751.1670689510127
 30
0.0
 10
262.9177977544705
 20
751.4258775808403
 30
0.0
 10
263.0414904395248
 20
751.3390747911216
 30
0.0
 10
263.1626871741182
 20
751.2482822570982
 30
0.0
 10
263.2844427658356
 20
751.1587929717789
 30
0.0
 10
263.5281395059938
 20
750.9796780185808
 30
0.0
 10
263.7703155546333
 20
750.7984866201559
 30
0.0
 10
264.0108681784294
 20
750.6151702609193
 30
0.0
 10
264.9542688569827
 20
749.8962390974728
 30
0.0
 10
265.8747819479422
 20
749.1458209102184
 30
0.0
 10
266.7610434465168
 20
748.3573676164796
 30
0.0
 10
267.5700833885021
 20
747.6376136747258
 30
0.0
 10
268.3498367799621
 20
746.8839040028488
 30
0.0
 10
269.0812779786902
 20
746.0851016947182
 30
0.0
 10
269.2716489046416
 20
745.8771988102288
 30
0.0
 10
269.458749646943
 20
745.6662943160607
 30
0.0
 10
269.6420979558807
 20
745.4521700242668
 30
0.0
 10
269.6982588994351
 20
745.3865821694644
 30
0.0
 10
270.0244907225697
 20
745.0468574236582
 30
0.0
 10
269.6968058396251
 20
745.3894892968365
 30
0.0
 10
269.7923263596504
 20
745.2896117119791
 30
0.0
 10
269.8749855684992
 20
745.1690823520938
 30
0.0
 10
269.9602703990813
 20
745.0603881023815
 30
0.0
 10
270.3063486638657
 20
744.6193164947588
 30
0.0
 10
270.6359844769495
 20
744.1652904306184
 30
0.0
 10
270.9447222634117
 20
743.6972732340863
 30
0.0
 10
271.2270194498779
 20
743.2693374789204
 30
0.0
 10
271.4920534041203
 20
742.8299023146045
 30
0.0
 10
271.7364176814681
 20
742.3791974849027
 30
0.0
 10
271.8655802232133
 20
742.1409704330097
 30
0.0
 10
272.0294605840773
 20
741.8880017322607
 30
0.0
 10
272.117694208523
 20
741.6313046448931
 30
0.0
 10
271.9613750481885
 20
742.0860822130771
 30
0.0
 10
272.1076349959822
 20
741.6499682595493
 30
0.0
 10
272.145797188492
 20
741.5621092720185
 30
0.0
 10
272.2013258932038
 20
741.4342681954367
 30
0.0
 10
272.2552385640174
 20
741.3057045746644
 30
0.0
 10
272.3070801987205
 20
741.1763239494193
 30
0.0
 10
272.5120811827828
 20
740.6647051386735
 30
0.0
 10
272.6860860172419
 20
740.1404858693931
 30
0.0
 10
272.826895754557
 20
739.6075981925496
 30
0.0
 10
272.8857677073647
 20
739.3848001193437
 30
0.0
 10
272.9391715268075
 20
739.1605531764471
 30
0.0
 10
272.9866242732751
 20
738.935043639638
 30
0.0
 10
273.0143133300153
 20
738.8034570229573
 30
0.0
 10
273.0553494385467
 20
738.6619628591123
 30
0.0
 10
273.0657307179245
 20
738.5277808426836
 30
0.0
 10
273.0235671181699
 20
739.0727615362266
 30
0.0
 10
273.0709853455164
 20
738.4502542819126
 30
0.0
 10
273.0846093920336
 20
738.3404486180515
 30
0.0
 10
273.1468087754883
 20
737.839140538712
 30
0.0
 10
273.1797961121292
 20
737.3340540397021
 30
0.0
 10
273.181090217231
 20
736.8288730857666
 30
0.0
 10
273.1817924794195
 20
736.5547303737692
 30
0.0
 10
273.1732225525684
 20
736.2805512481826
 30
0.0
 10
273.154856989614
 20
736.0070190451823
 30
0.0
 10
273.1515364961688
 20
735.9615619439746
 30
0.0
 10
273.1482160027263
 20
735.9161048427648
 30
0.0
 10
273.1448955092819
 20
735.8706477415571
 30
0.0
 10
273.1264193976094
 20
735.6581267549844
 30
0.0
 10
273.129724583444
 20
735.6890970229068
 30
0.0
 10
273.1548110667873
 20
735.9635585453261
 30
0.0
 10
273.1128045082405
 20
735.8704412606384
 30
0.0
 10
273.1159816368126
 20
735.6605937186186
 30
0.0
 10
273.1003728922415
 20
735.5584651918225
 30
0.0
 10
273.0183969262252
 20
735.0220937620616
 30
0.0
 10
272.8955749773795
 20
734.4915755905168
 30
0.0
 10
272.7300272363627
 20
733.974786534275
 30
0.0
 10
272.6956052181185
 20
733.8673315958175
 30
0.0
 10
272.6560775329308
 20
733.761630220022
 30
0.0
 10
272.6210242575098
 20
733.6544533943897
 30
0.0
 10
272.5328436257714
 20
733.3848375003326
 30
0.0
 10
272.8071123506143
 20
734.0731324295473
 30
0.0
 10
272.623410481061
 20
733.6668954144961
 30
0.0
 10
272.4926294255774
 20
733.3776871133767
 30
0.0
 10
272.3656867237141
 20
733.0894787640317
 30
0.0
 10
272.2137985880254
 20
732.8102605728572
 30
0.0
 10
272.0960845841273
 20
732.5938651901887
 30
0.0
 10
271.9692924038008
 20
732.3826175479588
 30
0.0
 10
271.8341925486411
 20
732.1766430147826
 30
0.0
 10
271.7880846278859
 20
732.1063464371726
 30
0.0
 10
271.7040077603861
 20
732.0219469929707
 30
0.0
 10
271.6769254278306
 20
731.9440943057269
 30
0.0
 10
271.7265475238801
 20
732.0128001367975
 30
0.0
 10
271.7761696199314
 20
732.0815059678697
 30
0.0
 10
271.8257917159808
 20
732.1502117989411
 30
0.0
 10
271.7813463192533
 20
732.0893288127906
 30
0.0
 10
271.7362992694471
 20
732.0288942865026
 30
0.0
 10
271.6906505665647
 20
731.9689082200747
 30
0.0
 10
271.4135823725337
 20
731.6045583165841
 30
0.0
 10
271.1152558532031
 20
731.2568499829449
 30
0.0
 10
270.8058346180878
 20
730.9197038691372
 30
0.0
 10
270.1752658538107
 20
730.2326346436383
 30
0.0
 10
269.497114973783
 20
729.5914748936001
 30
0.0
 10
268.8270195602281
 20
728.9436020886422
 30
0.0
 10
267.5066677824798
 20
727.667037598756
 30
0.0
 10
266.132537435692
 20
726.2990252914642
 30
0.0
 10
265.3519293489899
 20
724.608756491617
 30
0.0
 10
264.885946768306
 20
723.5997535991018
 30
0.0
 10
264.6503975072783
 20
722.5959766479401
 30
0.0
 10
264.5991779975384
 20
721.4862768019337
 30
0.0
 10
264.5538310102311
 20
720.5038084986536
 30
0.0
 10
265.5850037007331
 20
719.6013320562862
 30
0.0
 10
266.5388700459244
 20
719.6774847043516
 30
0.0
 10
267.620642611374
 20
719.7638488431829
 30
0.0
 10
268.2990861371964
 20
720.5647499139404
 30
0.0
 10
268.3476621435056
 20
721.6171767527383
 30
0.0
 10
268.3568353805094
 20
721.8159201562021
 30
0.0
 10
268.4697720571376
 20
722.0174189199278
 30
0.0
 10
268.3318123858908
 20
721.5571295680392
 30
0.0
 10
268.3613591175408
 20
721.6557094344498
 30
0.0
 10
268.361134357533
 20
721.7763134286688
 30
0.0
 10
268.3793840465805
 20
721.8783061917056
 30
0.0
 10
268.4168571430882
 20
722.0877335765753
 30
0.0
 10
268.4667824646804
 20
722.2948769973234
 30
0.0
 10
268.5281989766772
 20
722.4985634654784
 30
0.0
 10
268.5575341841595
 20
722.5958530153137
 30
0.0
 10
268.6086651253327
 20
722.6991484707069
 30
0.0
 10
268.6277524851639
 20
722.798397030936
 30
0.0
 10
268.5434311991348
 20
722.3599515722997
 30
0.0
 10
268.5147561103968
 20
722.5262580243269
 30
0.0
 10
268.5905019202646
 20
722.6857909069357
 30
0.0
 10
268.6887249194797
 20
722.8926643726762
 30
0.0
 10
268.7827078830724
 20
723.0993993488027
 30
0.0
 10
268.8944846484519
 20
723.2996972238679
 30
0.0
 10
268.9984140573752
 20
723.4859330636145
 30
0.0
 10
269.1105450630721
 20
723.6675357243838
 30
0.0
 10
269.2288893974937
 20
723.8449394985272
 30
0.0
 10
269.3215034645218
 20
723.9837723806422
 30
0.0
 10
269.5391497882556
 20
724.1490581818587
 30
0.0
 10
269.1971622300262
 20
723.809016205605
 30
0.0
 10
269.2445493992636
 20
723.8561337871914
 30
0.0
 10
269.2862614914556
 20
723.9287598819372
 30
0.0
 10
269.3280025749063
 20
723.9832096899389
 30
0.0
 10
269.6215296709752
 20
724.3661056932015
 30
0.0
 10
269.9398106108283
 20
724.7294910217561
 30
0.0
 10
270.2695633996746
 20
725.0814438154866
 30
0.0
 10
271.509771073037
 20
726.4051462077313
 30
0.0
 10
272.9164218492178
 20
727.5694660764111
 30
0.0
 10
274.0792485242037
 20
728.9662455249362
 30
0.0
 10
275.5439086388296
 20
730.7255852366852
 30
0.0
 10
276.5326707206977
 20
732.8072413288099
 30
0.0
 10
276.804194128511
 20
735.0932870516408
 30
0.0
 10
277.0932254429381
 20
737.5267376533003
 30
0.0
 10
276.8010836175499
 20
740.0174414459469
 30
0.0
 10
275.886866476123
 20
742.2990435992105
 30
0.0
 10
274.1273396187144
 20
746.6902763651305
 30
0.0
 10
270.7189345314692
 20
750.1217046915371
 30
0.0
 10
267.0479311932895
 20
752.9887546242771
 30
0.0
 10
263.1752255586107
 20
756.0133338486992
 30
0.0
 10
258.9251914486776
 20
758.5014918110882
 30
0.0
 10
254.5032706001521
 20
760.6299706869513
 30
0.0
 10
252.3279347403295
 20
761.6770623433031
 30
0.0
 10
250.1166926924898
 20
762.661432137649
 30
0.0
 10
247.8713001782326
 20
763.5489649863711
 30
0.0
 10
245.4204800426987
 20
764.5176968952854
 30
0.0
 10
242.9213549908454
 20
765.385317419169
 30
0.0
 10
240.3293538651069
 20
765.8897126315077
 30
0.0
 10
236.117390283338
 20
766.7093474087088
 30
0.0
 10
231.7937919815131
 20
766.5241392080551
 30
0.0
 10
227.6568787184933
 20
765.3893467824908
 30
0.0
 10
223.5917438713022
 20
764.2742438204041
 30
0.0
 10
219.8287381568643
 20
762.2412655029648
 30
0.0
 10
216.603199553123
 20
759.5409996682083
 30
0.0
 10
215.1021017737539
 20
758.2843527802879
 30
0.0
 10
213.7354559055921
 20
756.8719466148959
 30
0.0
 10
212.5547581729888
 20
755.309214931045
 30
0.0
 10
211.1383629510191
 20
753.4345220023595
 30
0.0
 10
210.0700124125761
 20
751.4000011766857
 30
0.0
 10
208.9492452953164
 20
749.3438165979614
 30
0.0
 10
208.6712244472237
 20
748.8337532925616
 30
0.0
 10
208.3854500435091
 20
748.3276888890141
 30
0.0
 10
208.0804286391667
 20
747.8332018832689
 30
0.0
 10
207.9215996036829
 20
747.5757153821112
 30
0.0
 10
207.7578272283563
 20
747.3212432066684
 30
0.0
 10
207.5873998278175
 20
747.0712676933625
 30
0.0
 10
207.5310917639854
 20
746.9886774695187
 30
0.0
 10
207.476148546808
 20
746.901187925162
 30
0.0
 10
207.4147858824035
 20
746.8227166944589
 30
0.0
 10
207.6923521343115
 20
747.177671382301
 30
0.0
 10
207.3203107622967
 20
746.7051339265144
 30
0.0
 10
207.2654405306612
 20
746.6351876316994
 30
0.0
 10
206.9870749965394
 20
746.2803387977255
 30
0.0
 10
206.689477568545
 20
745.9406768053212
 30
0.0
 10
206.3746217915013
 20
745.6177727292632
 30
0.0
 10
206.2439931717317
 20
745.4838049991185
 30
0.0
 10
206.1104057930579
 20
745.352719552513
 30
0.0
 10
205.9740489990427
 20
745.2245874861273
 30
0.0
 10
205.8923317386761
 20
745.1477992226172
 30
0.0
 10
205.8096123983041
 20
745.0720777089154
 30
0.0
 10
205.7259364797173
 20
744.9974287479973
 30
0.0
 10
205.6100940786646
 20
744.8940834245741
 30
0.0
 10
205.209421492189
 20
744.6574156857111
 30
0.0
 10
205.6691331235761
 20
744.9398079460714
 30
0.0
 10
205.3256811155334
 20
744.7288317987339
 30
0.0
 10
205.0174516792831
 20
744.4316170124339
 30
0.0
 10
204.6814379941725
 20
744.2042072925013
 30
0.0
 10
204.2945945222491
 20
743.9423966297026
 30
0.0
 10
203.8944863250908
 20
743.7003992772043
 30
0.0
 10
203.4836074504728
 20
743.4782411979057
 30
0.0
 10
203.3024179068116
 20
743.3802738321063
 30
0.0
 10
203.1179460127914
 20
743.2894917440227
 30
0.0
 10
202.9344113296092
 20
743.1961408153884
 30
0.0
 10
202.570373946779
 20
743.010981110664
 30
0.0
 10
203.3429577152947
 20
743.3735734328373
 30
0.0
 10
202.9684708100376
 20
743.2101269847653
 30
0.0
 10
202.8653909502564
 20
743.1651373290187
 30
0.0
 10
202.7628652044923
 20
743.1190509326062
 30
0.0
 10
202.6592628803109
 20
743.0752435287232
 30
0.0
 10
202.2443675936856
 20
742.8998084162985
 30
0.0
 10
201.8215358387988
 20
742.7431300062634
 30
0.0
 10
201.3926856989447
 20
742.6052967046862
 30
0.0
 10
200.9808874301343
 20
742.4729439089206
 30
0.0
 10
200.563540956422
 20
742.3580938011091
 30
0.0
 10
200.1421341267205
 20
742.2606044721886
 30
0.0
 10
199.9404068997692
 20
742.2139363818915
 30
0.0
 10
199.7377994278031
 20
742.1711847431115
 30
0.0
 10
199.5343788967848
 20
742.1325470004493
 30
0.0
 10
199.3837919869811
 20
742.1039444880087
 30
0.0
 10
199.0424762955781
 20
742.1137725955168
 30
0.0
 10
199.5852087518906
 20
742.1389712373602
 30
0.0
 10
199.4376725878783
 20
742.1321212490965
 30
0.0
 10
199.2848109929136
 20
742.0930828201488
 30
0.0
 10
199.1380318211804
 20
742.0738588424547
 30
0.0
 10
198.2798785723143
 20
741.9614647015251
 30
0.0
 10
197.412348255225
 20
741.9197680938085
 30
0.0
 10
196.5474016149419
 20
741.9510509990541
 30
0.0
 10
196.3220102004416
 20
741.9592028293926
 30
0.0
 10
196.0975247594988
 20
741.9759601713757
 30
0.0
 10
195.8725220456072
 20
741.9903873485492
 30
0.0
 10
195.4595772424563
 20
742.0168653751252
 30
0.0
 10
196.3354851469648
 20
741.9336132506059
 30
0.0
 10
195.9248660672228
 20
741.9836709200335
 30
0.0
 10
195.8131775272331
 20
741.9972866244408
 30
0.0
 10
195.701406914085
 20
742.0096641468571
 30
0.0
 10
195.5898682422257
 20
742.0245585222472
 30
0.0
 10
195.1445223238643
 20
742.0840280244045
 30
0.0
 10
194.7018189179052
 20
742.1636099194846
 30
0.0
 10
194.2638102891897
 20
742.2637359542923
 30
0.0
 10
193.8448887491013
 20
742.3594987999423
 30
0.0
 10
193.4303328365531
 20
742.4741063610071
 30
0.0
 10
193.0218958549285
 20
742.6076979463005
 30
0.0
 10
192.870984031525
 20
742.6570581919078
 30
0.0
 10
192.2554696903262
 20
742.9416101413671
 30
0.0
 10
192.790584596135
 20
742.678809005175
 30
0.0
 10
192.557651270894
 20
742.7932052626248
 30
0.0
 10
192.3048533868132
 20
742.8750137986662
 30
0.0
 10
192.068104816406
 20
742.9830257771827
 30
0.0
 10
191.6939057489589
 20
743.1537468994447
 30
0.0
 10
191.3276505275607
 20
743.3419747618472
 30
0.0
 10
190.9713616056096
 20
743.5474862597629
 30
0.0
 10
190.7763987358785
 20
743.6599430579608
 30
0.0
 10
190.584408555057
 20
743.777556528782
 30
0.0
 10
190.3957261669093
 20
743.9002608365519
 30
0.0
 10
190.301102512084
 20
743.9617966808772
 30
0.0
 10
190.208524650634
 20
744.0262342503092
 30
0.0
 10
190.1144859985152
 20
744.0886127287402
 30
0.0
 10
189.7740624819898
 20
744.3144252058937
 30
0.0
 10
190.4655393961611
 20
743.8295038104423
 30
0.0
 10
190.1362810273622
 20
744.0723945532838
 30
0.0
 10
189.7201657061341
 20
744.3793588374402
 30
0.0
 10
189.3304146601731
 20
744.5938752992778
 30
0.0
 10
188.7918218940031
 20
744.5750672254397
 30
0.0
 10
188.3321316243246
 20
744.559014487495
 30
0.0
 10
187.7901564980284
 20
744.3356578076401
 30
0.0
 10
187.4857024685771
 20
743.9798343104121
 30
0.0
 10
186.8875168992172
 20
743.2807189738041
 30
0.0
 10
186.7351740532531
 20
741.9511941740793
 30
0.0
 10
187.5782627114486
 20
741.3292557516268
 30
0.0
 10
187.5782627114486
 20
741.3292557516268
 30
0.0
 10
187.5782627114486
 20
741.3292557516268
 30
0.0
 10
187.5782627114486
 20
741.3292557516268
 30
0.0
  0
LWPOLYLINE
  5
82
330
70
100
AcDbEntity
  8
0
100
AcDbPolyline
 90
        6
 70
     1
 43
0.0
 10
140.6860008248868
 20
705.5533457917936
 10
141.5685936457794
 20
715.7964883536606
 10
152.9923596289763
 20
755.0177394315287
 10
186.0158172151186
 20
751.4297664963788
 10
186.4672455978516
 20
712.3639001358224
 10
184.7890847393373
 20
701.5203077828928
  0
LINE
  5
83
330
70
100
AcDbEntity
  8
0
100
AcDbLine
 10
141.5685936457794
 20
715.7964883536606
 30
0.0
 11
186.3181679475774
 21
711.4006210435336
 31
0.0
  0
SPLINE
  5
84
330
70
100
AcDbEntity
  8
0
100
AcDbSpline
210
0.0
220
0.0
230
1.0
 70
     9
 71
     3
 72
   110
 73
   106
 74
     0
 42
0.000000001
 43
0.0000000001
 40
0.0
 40
0.0
 40
0.0
 40
0.0
 40
1.0
 40
1.0
 40
1.0
 40
2.0
 40
2.0
 40
2.0
 40
3.0
 40
3.0
 40
3.0
 40
4.0
 40
4.0
 40
4.0
 40
5.0
 40
5.0
 40
5.0
 40
6.0
 40
6.0
 40
6.0
 40
7.0
 40
7.0
 40
7.0
 40
8.0
 40
8.0
 40
8.0
 40
9.0
 40
9.0
 40
9.0
 40
10.0
 40
10.0
 40
10.0
 40
11.0
 40
11.0
 40
11.0
 40
12.0
 40
12.0
 40
12.0
 40
13.0
 40
13.0
 40
13.0
 40
14.0
 40
14.0
 40
14.0
 40
15.0
 40
15.0
 40
15.0
 40
16.0
 40
16.0
 40
16.0
 40
17.0
 40
17.0
 40
17.0
 40
18.0
 40
18.0
 40
18.0
 40
19.0
 40
19.0
 40
19.0
 40
20.0
 40
20.0
 40
20.0
 40
21.0
 40
21.0
 40
21.0
 40
22.0
 40
22.0
 40
22.0
 40
23.0
 40
23.0
 40
23.0
 40
24.0
 40
24.0
 40
24.0
 40
25.0
 40
25.0
 40
25.0
 40
26.0
 40
26.0
 40
26.0
 40
27.0
 40
27.0
 40
27.0
 40
28.0
 40
28.0
 40
28.0
 40
29.0
 40
29.0
 40
29.0
 40
30.0
 40
30.0
 40
30.0
 40
31.0
 40
31.0
 40
31.0
 40
32.0
 40
32.0
 40
32.0
 40
33.0
 40
33.0
 40
33.0
 40
34.0
 40
34.0
 40
34.0
 40
35.0
 40
35.0
 40
35.0
 40
35.0
 10
176.1034479833069
 20
720.0469054027462
 30
0.0
 10
176.1152001808805
 20
720.2616501046632
 30
0.0
 10
176.1269523785404
 20
720.4763948065747
 30
0.0
 10
176.1387045761585
 20
720.6911395084889
 30
0.0
 10
176.1706822640517
 20
721.2754590781806
 30
0.0
 10
176.2026599519449
 20
721.8597786478729
 30
0.0
 10
176.2346376398391
 20
722.4440982175647
 30
0.0
 10
176.2815601234251
 20
723.3014999630722
 30
0.0
 10
176.3284826070094
 20
724.1589017085797
 30
0.0
 10
176.3754050905945
 20
725.0163034540862
 30
0.0
 10
176.4330246300915
 20
726.0691695849053
 30
0.0
 10
176.4906441695884
 20
727.1220357157243
 30
0.0
 10
176.5482637090863
 20
728.1749018465434
 30
0.0
 10
176.6113871247644
 20
729.3283388057316
 30
0.0
 10
176.6745105404407
 20
730.4817757649208
 30
0.0
 10
176.7376339561178
 20
731.6352127241097
 30
0.0
 10
176.8011307240713
 20
732.7954718476275
 30
0.0
 10
176.8646274920256
 20
733.9557309711462
 30
0.0
 10
176.9281242599791
 20
735.1159900946648
 30
0.0
 10
176.9873342796345
 20
736.1979186356501
 30
0.0
 10
177.0465442992908
 20
737.2798471766364
 30
0.0
 10
177.1057543189472
 20
738.3617757176216
 30
0.0
 10
177.1559587671509
 20
739.279147907534
 30
0.0
 10
177.2061632153563
 20
740.1965200974455
 30
0.0
 10
177.25636766356
 20
741.1138922873577
 30
0.0
 10
177.2923427319674
 20
741.7712549009958
 30
0.0
 10
177.3283178003767
 20
742.4286175146344
 30
0.0
 10
177.3642928687832
 20
743.0859801282731
 30
0.0
 10
177.3813568941623
 20
743.3977864102007
 30
0.0
 10
177.401390775829
 20
743.7095956097528
 30
0.0
 10
177.4154934279277
 20
744.02155398172
 30
0.0
 10
177.416106526608
 20
744.0351160596256
 30
0.0
 10
177.4169774406091
 20
744.0486709406741
 30
0.0
 10
177.4177193118994
 20
744.0622269524746
 30
0.0
 10
177.4183393029761
 20
744.2836999052079
 30
0.0
 10
177.3650147635189
 20
744.4884056011442
 30
0.0
 10
177.2577456935278
 20
744.6763440402837
 30
0.0
 10
177.1860025327214
 20
744.8732456643611
 30
0.0
 10
177.0692605250269
 20
745.0417169471184
 30
0.0
 10
176.907519670448
 20
745.1817578885528
 30
0.0
 10
176.6191557211105
 20
745.4506616216084
 30
0.0
 10
176.1546785094433
 20
745.6445187484887
 30
0.0
 10
175.7551261275675
 20
745.6126201789736
 30
0.0
 10
175.3402987118679
 20
745.5795021154681
 30
0.0
 10
174.9141516018553
 20
745.4279768006154
 30
0.0
 10
174.6355951914893
 20
745.1024205375206
 30
0.0
 10
174.5556473223769
 20
744.9911184144638
 30
0.0
 10
174.4756994532645
 20
744.8798162914061
 30
0.0
 10
174.3957515841539
 20
744.7685141683487
 30
0.0
 10
174.259180611074
 20
744.5128724888427
 30
0.0
 10
174.1955077167122
 20
744.2400434309411
 30
0.0
 10
174.2047329010684
 20
743.950026994642
 30
0.0
 10
174.1929807034948
 20
743.735282292725
 30
0.0
 10
174.1812285058349
 20
743.5205375908143
 30
0.0
 10
174.1694763082169
 20
743.3057928888992
 30
0.0
 10
174.1374986203236
 20
742.7214733192066
 30
0.0
 10
174.1055209324304
 20
742.137153749516
 30
0.0
 10
174.0735432445362
 20
741.5528341798236
 30
0.0
 10
174.026620760952
 20
740.6954324343169
 30
0.0
 10
173.9796982773659
 20
739.8380306888084
 30
0.0
 10
173.9327757937808
 20
738.9806289433017
 30
0.0
 10
173.8751562542838
 20
737.9277628124827
 30
0.0
 10
173.8175367147869
 20
736.8748966816647
 30
0.0
 10
173.759917175289
 20
735.8220305508447
 30
0.0
 10
173.6967937596109
 20
734.6685935916557
 30
0.0
 10
173.6336703439347
 20
733.5151566324675
 30
0.0
 10
173.5705469282575
 20
732.3617196732794
 30
0.0
 10
173.507050160304
 20
731.2014605497608
 30
0.0
 10
173.4435533923497
 20
730.0412014262438
 30
0.0
 10
173.3800566243963
 20
728.8809423027232
 30
0.0
 10
173.3208466047399
 20
727.799013761738
 30
0.0
 10
173.2616365850845
 20
726.7170852207526
 30
0.0
 10
173.202426565428
 20
725.6351566797658
 30
0.0
 10
173.1522221172236
 20
724.7177844898542
 30
0.0
 10
173.102017669019
 20
723.8004122999427
 30
0.0
 10
173.0518132208162
 20
722.8830401100302
 30
0.0
 10
173.0158381524079
 20
722.2256774963925
 30
0.0
 10
172.9798630839996
 20
721.5683148827537
 30
0.0
 10
172.9438880155921
 20
720.9109522691151
 30
0.0
 10
172.926823990213
 20
720.5991459871873
 30
0.0
 10
172.9067901085462
 20
720.2873367876353
 30
0.0
 10
172.8926874564477
 20
719.9753784156674
 30
0.0
 10
172.8920743577672
 20
719.9618163377635
 30
0.0
 10
172.8912034437662
 20
719.9482614567141
 30
0.0
 10
172.8904615724759
 20
719.9347054449153
 30
0.0
 10
172.8898415813992
 20
719.7132324921802
 30
0.0
 10
172.9431661208564
 20
719.508526796244
 30
0.0
 10
173.0504351908475
 20
719.3205883571045
 30
0.0
 10
173.1221783516539
 20
719.1236867330262
 30
0.0
 10
173.2389203593484
 20
718.9552154502688
 30
0.0
 10
173.4006612139274
 20
718.8151745088353
 30
0.0
 10
173.6890251632666
 20
718.5462707757777
 30
0.0
 10
174.1535023749311
 20
718.3524136488995
 30
0.0
 10
174.5530547568069
 20
718.3843122184143
 30
0.0
 10
174.9678821725064
 20
718.4174302819201
 30
0.0
 10
175.3940292825209
 20
718.5689555967727
 30
0.0
 10
175.672585692886
 20
718.8945118598675
 30
0.0
 10
175.7525335619984
 20
719.0058139829234
 30
0.0
 10
175.8324814311109
 20
719.1171161059828
 30
0.0
 10
175.9124293002223
 20
719.2284182290396
 30
0.0
 10
176.0490002733013
 20
719.4840599085455
 30
0.0
 10
176.1126731676631
 20
719.7568889664481
 30
0.0
 10
176.1034479833069
 20
720.0469054027462
 30
0.0
 10
176.1034479833069
 20
720.0469054027462
 30
0.0
 10
176.1034479833069
 20
720.0469054027462
 30
0.0
 10
176.1034479833069
 20
720.0469054027462
 30
0.0
  0
SPLINE
  5
85
330
70
100
AcDbEntity
  8
0
100
AcDbSpline
210
0.0
220
0.0
230
1.0
 70
     9
 71
     3
 72
   110
 73
   106
 74
     0
 42
0.000000001
 43
0.0000000001
 40
0.0
 40
0.0
 40
0.0
 40
0.0
 40
1.0
 40
1.0
 40
1.0
 40
2.0
 40
2.0
 40
2.0
 40
3.0
 40
3.0
 40
3.0
 40
4.0
 40
4.0
 40
4.0
 40
5.0
 40
5.0
 40
5.0
 40
6.0
 40
6.0
 40
6.0
 40
7.0
 40
7.0
 40
7.0
 40
8.0
 40
8.0
 40
8.0
 40
9.0
 40
9.0
 40
9.0
 40
10.0
 40
10.0
 40
10.0
 40
11.0
 40
11.0
 40
11.0
 40
12.0
 40
12.0
 40
12.0
 40
13.0
 40
13.0
 40
13.0
 40
14.0
 40
14.0
 40
14.0
 40
15.0
 40
15.0
 40
15.0
 40
16.0
 40
16.0
 40
16.0
 40
17.0
 40
17.0
 40
17.0
 40
18.0
 40
18.0
 40
18.0
 40
19.0
 40
19.0
 40
19.0
 40
20.0
 40
20.0
 40
20.0
 40
21.0
 40
21.0
 40
21.0
 40
22.0
 40
22.0
 40
22.0
 40
23.0
 40
23.0
 40
23.0
 40
24.0
 40
24.0
 40
24.0
 40
25.0
 40
25.0
 40
25.0
 40
26.0
 40
26.0
 40
26.0
 40
27.0
 40
27.0
 40
27.0
 40
28.0
 40
28.0
 40
28.0
 40
29.0
 40
29.0
 40
29.0
 40
30.0
 40
30.0
 40
30.0
 40
31.0
 40
31.0
 40
31.0
 40
32.0
 40
32.0
 40
32.0
 40
33.0
 40
33.0
 40
33.0
 40
34.0
 40
34.0
 40
34.0
 40
35.0
 40
35.0
 40
35.0
 40
35.0
 10
159.3070344154639
 20
721.0096604694326
 30
0.0
 10
159.3372836808021
 20
721.2225885866354
 30
0.0
 10
159.3675329462239
 20
721.4355167038266
 30
0.0
 10
159.3977822116039
 20
721.6484448210247
 30
0.0
 10
159.4800903550567
 20
722.2278214701628
 30
0.0
 10
159.5623984985086
 20
722.8071981193042
 30
0.0
 10
159.6447066419605
 20
723.3865747684448
 30
0.0
 10
159.7654815561109
 20
724.2367235158873
 30
0.0
 10
159.8862564702585
 20
725.0868722633295
 30
0.0
 10
160.0070313844071
 20
725.9370210107707
 30
0.0
 10
160.1553397092102
 20
726.980980656328
 30
0.0
 10
160.3036480340133
 20
728.0249403018861
 30
0.0
 10
160.4519563588164
 20
729.0688999474423
 30
0.0
 10
160.6144312434935
 20
730.212579664967
 30
0.0
 10
160.7769061281687
 20
731.3562593824918
 30
0.0
 10
160.9393810128449
 20
732.4999391000183
 30
0.0
 10
161.1028168779658
 20
733.6503832713007
 30
0.0
 10
161.2662527430875
 20
734.8008274425847
 30
0.0
 10
161.4296886082065
 20
735.9512716138687
 30
0.0
 10
161.5820907083161
 20
737.0240478226421
 30
0.0
 10
161.7344928084267
 20
738.0968240314158
 30
0.0
 10
161.8868949085354
 20
739.1696002401877
 30
0.0
 10
162.0161173507104
 20
740.0792121254897
 30
0.0
 10
162.1453397928844
 20
740.9888240107919
 30
0.0
 10
162.2745622350585
 20
741.8984358960914
 30
0.0
 10
162.3671593327935
 20
742.5502376979055
 30
0.0
 10
162.4597564305286
 20
743.2020394997197
 30
0.0
 10
162.5523535282627
 20
743.8538413015338
 30
0.0
 10
162.5962750354538
 20
744.1630099280446
 30
0.0
 10
162.6431555607178
 20
744.4719250453336
 30
0.0
 10
162.6841398844517
 20
744.7815008774732
 30
0.0
 10
162.6859216368948
 20
744.7949593768452
 30
0.0
 10
162.6879596205435
 20
744.8083884465849
 30
0.0
 10
162.6898691409833
 20
744.8218297843395
 30
0.0
 10
162.7096086839265
 20
745.0424221768326
 30
0.0
 10
162.674157460714
 20
745.2509674698276
 30
0.0
 10
162.5835154713486
 20
745.447465663321
 30
0.0
 10
162.5290406063486
 20
745.6498262814529
 30
0.0
 10
162.4272802685736
 20
745.8277479022017
 30
0.0
 10
162.2782344580218
 20
745.9812305255673
 30
0.0
 10
162.0141643429961
 20
746.274027313937
 30
0.0
 10
161.5681591252396
 20
746.5072632707115
 30
0.0
 10
161.1673446560935
 20
746.5099809761085
 30
0.0
 10
160.7512069030645
 20
746.5128025803787
 30
0.0
 10
160.313568501534
 20
746.3986364298818
 30
0.0
 10
160.0079439148658
 20
746.0983462931452
 30
0.0
 10
159.9186848181425
 20
745.9943624577463
 30
0.0
 10
159.8294257214184
 20
745.8903786223445
 30
0.0
 10
159.7401666246951
 20
745.7863947869427
 30
0.0
 10
159.5820336604647
 20
745.5434992031787
 30
0.0
 10
159.4950426070081
 20
745.2771864379382
 30
0.0
 10
159.4791934643235
 20
744.9874564912178
 30
0.0
 10
159.4489441989862
 20
744.774528374015
 30
0.0
 10
159.4186949335644
 20
744.5616002568249
 30
0.0
 10
159.3884456681835
 20
744.3486721396275
 30
0.0
 10
159.3061375247325
 20
743.769295490486
 30
0.0
 10
159.2238293812807
 20
743.1899188413463
 30
0.0
 10
159.1415212378278
 20
742.6105421922057
 30
0.0
 10
159.0207463236802
 20
741.7603934447631
 30
0.0
 10
158.8999714095298
 20
740.9102446973212
 30
0.0
 10
158.7791964953811
 20
740.0600959498806
 30
0.0
 10
158.630888170579
 20
739.0161363043224
 30
0.0
 10
158.482579845775
 20
737.9721766587662
 30
0.0
 10
158.3342715209719
 20
736.928217013209
 30
0.0
 10
158.1717966362957
 20
735.7845372956834
 30
0.0
 10
158.0093217516196
 20
734.640857578157
 30
0.0
 10
157.8468468669434
 20
733.497177860633
 30
0.0
 10
157.6834110018235
 20
732.34673368935
 30
0.0
 10
157.5199751367017
 20
731.1962895180657
 30
0.0
 10
157.3565392715818
 20
730.0458453467817
 30
0.0
 10
157.2041371714722
 20
728.9730691380082
 30
0.0
 10
157.0517350713626
 20
727.9002929292365
 30
0.0
 10
156.8993329712539
 20
726.8275167204627
 30
0.0
 10
156.7701105290789
 20
725.9179048351616
 30
0.0
 10
156.6408880869048
 20
725.0082929498593
 30
0.0
 10
156.5116656447306
 20
724.0986810645581
 30
0.0
 10
156.4190685469957
 20
723.4468792627449
 30
0.0
 10
156.3264714492588
 20
722.7950774609308
 30
0.0
 10
156.2338743515256
 20
722.1432756591166
 30
0.0
 10
156.1899528443346
 20
721.8341070326068
 30
0.0
 10
156.1430723190706
 20
721.5251919153168
 30
0.0
 10
156.1020879953366
 20
721.2156160831772
 30
0.0
 10
156.1003062428945
 20
721.2021575838052
 30
0.0
 10
156.0982682592466
 20
721.1887285140655
 30
0.0
 10
156.0963587388041
 20
721.175287176311
 30
0.0
 10
156.0766191958619
 20
720.9546947838171
 30
0.0
 10
156.1120704190743
 20
720.7461494908231
 30
0.0
 10
156.2027124084397
 20
720.5496512973295
 30
0.0
 10
156.2571872734397
 20
720.3472906791977
 30
0.0
 10
156.3589476112147
 20
720.1693690584478
 30
0.0
 10
156.5079934217665
 20
720.0158864350832
 30
0.0
 10
156.7720635367923
 20
719.7230896467126
 30
0.0
 10
157.2180687545488
 20
719.489853689939
 30
0.0
 10
157.6188832236948
 20
719.487135984542
 30
0.0
 10
158.035020976723
 20
719.4843143802736
 30
0.0
 10
158.4726593782552
 20
719.5984805307689
 30
0.0
 10
158.7782839649226
 20
719.8987706675052
 30
0.0
 10
158.8675430616458
 20
720.002754502905
 30
0.0
 10
158.95680215837
 20
720.1067383383068
 30
0.0
 10
159.0460612550932
 20
720.2107221737077
 30
0.0
 10
159.2041942193236
 20
720.4536177574717
 30
0.0
 10
159.2911852727802
 20
720.7199305227141
 30
0.0
 10
159.3070344154639
 20
721.0096604694326
 30
0.0
 10
159.3070344154639
 20
721.0096604694326
 30
0.0
 10
159.3070344154639
 20
721.0096604694326
 30
0.0
 10
159.3070344154639
 20
721.0096604694326
 30
0.0
  0
SPLINE
  5
86
330
70
100
AcDbEntity
  8
0
100
AcDbSpline
210
0.0
220
0.0
230
1.0
 70
     8
 71
     3
 72
     8
 73
     4
 74
     0
 42
0.000000001
 43
0.0000000001
 40
0.0
 40
0.0
 40
0.0
 40
0.0
 40
1.0
 40
1.0
 40
1.0
 40
1.0
 10
218.1138743874644
 20
721.6390757977296
 30
0.0
 10
218.5105132641529
 20
721.6032503510843
 30
0.0
 10
218.9071521407905
 20
721.5674249038803
 30
0.0
 10
219.3037910174535
 20
721.5315994569571
 30
0.0
  0
LINE
  5
87
330
70
100
AcDbEntity
  8
0
100
AcDbLine
 10
220.2259558369769
 20
727.1681074141423
 30
0.0
 11
220.2259558369769
 21
727.1681074141423
 31
0.0
  0
SPLINE
  5
88
330
70
100
AcDbEntity
  8
0
100
AcDbSpline
210
0.0
220
0.0
230
1.0
 70
     9
 71
     3
 72
   152
 73
   148
 74
     0
 42
0.000000001
 43
0.0000000001
 40
0.0
 40
0.0
 40
0.0
 40
0.0
 40
1.0
 40
1.0
 40
1.0
 40
2.0
 40
2.0
 40
2.0
 40
3.0
 40
3.0
 40
3.0
 40
4.0
 40
4.0
 40
4.0
 40
5.0
 40
5.0
 40
5.0
 40
6.0
 40
6.0
 40
6.0
 40
7.0
 40
7.0
 40
7.0
 40
8.0
 40
8.0
 40
8.0
 40
9.0
 40
9.0
 40
9.0
 40
10.0
 40
10.0
 40
10.0
 40
11.0
 40
11.0
 40
11.0
 40
12.0
 40
12.0
 40
12.0
 40
13.0
 40
13.0
 40
13.0
 40
14.0
 40
14.0
 40
14.0
 40
15.0
 40
15.0
 40
15.0
 40
16.0
 40
16.0
 40
16.0
 40
17.0
 40
17.0
 40
17.0
 40
18.0
 40
18.0
 40
18.0
 40
19.0
 40
19.0
 40
19.0
 40
20.0
 40
20.0
 40
20.0
 40
21.0
 40
21.0
 40
21.0
 40
22.0
 40
22.0
 40
22.0
 40
23.0
 40
23.0
 40
23.0
 40
24.0
 40
24.0
 40
24.0
 40
25.0
 40
25.0
 40
25.0
 40
26.0
 40
26.0
 40
26.0
 40
27.0
 40
27.0
 40
27.0
 40
28.0
 40
28.0
 40
28.0
 40
29.0
 40
29.0
 40
29.0
 40
30.0
 40
30.0
 40
30.0
 40
31.0
 40
31.0
 40
31.0
 40
32.0
 40
32.0
 40
32.0
 40
33.0
 40
33.0
 40
33.0
 40
34.0
 40
34.0
 40
34.0
 40
35.0
 40
35.0
 40
35.0
 40
36.0
 40
36.0
 40
36.0
 40
37.0
 40
37.0
 40
37.0
 40
38.0
 40
38.0
 40
38.0
 40
39.0
 40
39.0
 40
39.0
 40
40.0
 40
40.0
 40
40.0
 40
41.0
 40
41.0
 40
41.0
 40
42.0
 40
42.0
 40
42.0
 40
43.0
 40
43.0
 40
43.0
 40
44.0
 40
44.0
 40
44.0
 40
45.0
 40
45.0
 40
45.0
 40
46.0
 40
46.0
 40
46.0
 40
47.0
 40
47.0
 40
47.0
 40
48.0
 40
48.0
 40
48.0
 40
49.0
 40
49.0
 40
49.0
 40
49.0
 10
246.0967683761865
 20
719.1115885987492
 30
0.0
 10
248.1065619976216
 20
718.9300588522947
 30
0.0
 10
250.1163556190568
 20
718.7485291058437
 30
0.0
 10
252.1261492404919
 20
718.5669993593927
 30
0.0
 10
253.8245996414944
 20
718.4135909360755
 30
0.0
 10
255.5230500424968
 20
718.2601825127584
 30
0.0
 10
257.2215004434984
 20
718.1067740894422
 30
0.0
 10
258.4430833802944
 20
717.9964375661183
 30
0.0
 10
259.6646663170913
 20
717.8861010427953
 30
0.0
 10
260.8862492538857
 20
717.7757645194732
 30
0.0
 10
261.4653448180598
 20
717.7234591136766
 30
0.0
 10
262.0442499422097
 20
717.6656366262486
 30
0.0
 10
262.623822940328
 20
717.6188223800517
 30
0.0
 10
262.648877368405
 20
717.6167986415958
 30
0.0
 10
262.6739014758514
 20
717.6142991574716
 30
0.0
 10
262.6989362717341
 20
717.6120379501188
 30
0.0
 10
263.1418821772022
 20
717.6107979679653
 30
0.0
 10
263.5512935690758
 20
717.717447046879
 30
0.0
 10
263.9271704473531
 20
717.9319851868613
 30
0.0
 10
264.3209736955086
 20
718.0754715084757
 30
0.0
 10
264.6579162610242
 20
718.3089555238621
 30
0.0
 10
264.9379981438924
 20
718.6324372330227
 30
0.0
 10
265.2411543433591
 20
718.9344017938546
 30
0.0
 10
265.4505656781958
 20
719.2868106058021
 30
0.0
 10
265.5662321483997
 20
719.6896636688652
 30
0.0
 10
265.754027838665
 20
720.0795903540875
 30
0.0
 10
265.8318580307778
 20
720.4954439040611
 30
0.0
 10
265.7997227247333
 20
720.9372243187817
 30
0.0
 10
265.7334865977227
 20
721.76687915018
 30
0.0
 10
265.4304359680172
 20
722.619173370207
 30
0.0
 10
264.7793234418277
 20
723.1762861909401
 30
0.0
 10
264.5567191957143
 20
723.3361819291623
 30
0.0
 10
264.3341149495982
 20
723.4960776673862
 30
0.0
 10
264.1115107034839
 20
723.6559734056091
 30
0.0
 10
263.6002273444719
 20
723.9291153517697
 30
0.0
 10
263.0545692286669
 20
724.0564611404924
 30
0.0
 10
262.4745363560705
 20
724.0380107717792
 30
0.0
 10
262.0778974793811
 20
724.0738362184247
 30
0.0
 10
261.6812586027436
 20
724.1096616656286
 30
0.0
 10
261.2846197260797
 20
724.1454871125515
 30
0.0
 10
260.2004008398444
 20
724.2434165603407
 30
0.0
 10
259.1161819536101
 20
724.3413460081309
 30
0.0
 10
258.031963067373
 20
724.4392754559193
 30
0.0
 10
256.4335154607406
 20
724.5836513687755
 30
0.0
 10
254.8350678541083
 20
724.7280272816333
 30
0.0
 10
253.236620247475
 20
724.872403194491
 30
0.0
 10
251.2868558785458
 20
725.0485109439431
 30
0.0
 10
249.3370915096175
 20
725.2246186933952
 30
0.0
 10
247.3873271406874
 20
725.4007264428454
 30
0.0
 10
245.2443781476668
 20
725.5942831260853
 30
0.0
 10
243.1014291546471
 20
725.787839809328
 30
0.0
 10
240.9584801616274
 20
725.9813964925688
 30
0.0
 10
238.8028675635342
 20
726.1760969852977
 30
0.0
 10
236.64725496544
 20
726.3707974780292
 30
0.0
 10
234.4916423673467
 20
726.5654979707597
 30
0.0
 10
232.4818487459115
 20
726.7470277172142
 30
0.0
 10
230.4720551244764
 20
726.9285574636642
 30
0.0
 10
228.4622615030412
 20
727.1100872101158
 30
0.0
 10
226.7638111020387
 20
727.263495633433
 30
0.0
 10
225.0653607010381
 20
727.4169040567485
 30
0.0
 10
223.3669103000338
 20
727.5703124800656
 30
0.0
 10
222.1453273632387
 20
727.6806490033894
 30
0.0
 10
220.9237444264436
 20
727.7909855267133
 30
0.0
 10
219.7021614896466
 20
727.9013220500363
 30
0.0
 10
219.1232495688491
 20
727.9536108686897
 30
0.0
 10
218.5442930839154
 20
728.0153583567788
 30
0.0
 10
217.9645878032043
 20
728.0582641894571
 30
0.0
 10
217.9395273734726
 20
728.0601189916142
 30
0.0
 10
217.9145035445945
 20
728.0627879289623
 30
0.0
 10
217.8894744717982
 20
728.0650486193898
 30
0.0
 10
217.6060974149441
 20
728.0168492283719
 30
0.0
 10
217.3227203580909
 20
727.968649837353
 30
0.0
 10
217.0393433012368
 20
727.920450446334
 30
0.0
 10
216.7872746311987
 20
727.8035510705421
 30
0.0
 10
216.5352059611614
 20
727.6866516947502
 30
0.0
 10
216.2831372911232
 20
727.5697523189583
 30
0.0
 10
216.07222906063
 20
727.3947179914685
 30
0.0
 10
215.8613208301349
 20
727.2196836639769
 30
0.0
 10
215.6504125996398
 20
727.0446493364852
 30
0.0
 10
215.3472564001731
 20
726.7426847756541
 30
0.0
 10
215.1378450653374
 20
726.3902759637066
 30
0.0
 10
215.0221785951326
 20
725.9874229006436
 30
0.0
 10
214.8856076220536
 20
725.7317812211384
 30
0.0
 10
214.8219347276909
 20
725.4589521632359
 30
0.0
 10
214.8311599120489
 20
725.1689357269379
 30
0.0
 10
214.7645883232908
 20
724.8815507791549
 30
0.0
 10
214.7745307210507
 20
724.5968377586567
 30
0.0
 10
214.8609871053286
 20
724.3147966654476
 30
0.0
 10
214.8720149169812
 20
724.0248431782802
 30
0.0
 10
214.9545643003867
 20
723.7571203148336
 30
0.0
 10
215.1086352555449
 20
723.511628075109
 30
0.0
 10
215.2521215771594
 20
723.1178248269525
 30
0.0
 10
215.4856055925447
 20
722.7808822614386
 30
0.0
 10
215.8090873017054
 20
722.5008003785696
 30
0.0
 10
216.4266453449336
 20
721.8146099977619
 30
0.0
 10
217.0442033883637
 20
721.1284196171353
 30
0.0
 10
217.6617614316929
 20
720.4422292364187
 30
0.0
 10
219.1498450586432
 20
718.7887673771712
 30
0.0
 10
220.6379286855927
 20
717.1353055179232
 30
0.0
 10
222.1260123125457
 20
715.4818436586764
 30
0.0
 10
223.9212597644173
 20
713.4870813107681
 30
0.0
 10
225.7165072162889
 20
711.4923189628589
 30
0.0
 10
227.5117546681604
 20
709.4975566149505
 30
0.0
 10
229.0633088725399
 20
707.7735703731577
 30
0.0
 10
232.8913800773116
 20
703.2055891202462
 30
0.0
 10
234.4429342816939
 20
701.4816028784535
 30
0.0
 10
235.196522288973
 20
700.6442648384018
 30
0.0
 10
235.9389171960256
 20
699.7950100635463
 30
0.0
 10
236.704559476937
 20
698.9686318783551
 30
0.0
 10
236.7152891907362
 20
698.9570510113644
 30
0.0
 10
236.7256918480189
 20
698.9451509603868
 30
0.0
 10
236.7362537563567
 20
698.9334152539466
 30
0.0
 10
237.0382183171887
 20
698.630259054481
 30
0.0
 10
237.3906271291353
 20
698.4208477196452
 30
0.0
 10
237.7934801921993
 20
698.3051812494395
 30
0.0
 10
238.1834068774224
 20
698.1173855591741
 30
0.0
 10
238.5992604273943
 20
698.0395553670651
 30
0.0
 10
239.0410408421149
 20
698.0716906731085
 30
0.0
 10
239.4839867475821
 20
698.0704506909543
 30
0.0
 10
239.8933981394548
 20
698.1770997698695
 30
0.0
 10
240.2692750177339
 20
698.3916379098517
 30
0.0
 10
240.6630782658904
 20
698.5351242314655
 30
0.0
 10
241.0000208314041
 20
698.7686082468518
 30
0.0
 10
241.2801027142741
 20
699.0920899560124
 30
0.0
 10
241.8208129989307
 20
699.7240324033537
 30
0.0
 10
242.2100368753372
 20
700.5425032983922
 30
0.0
 10
242.1418272951132
 20
701.3968770417712
 30
0.0
 10
242.0936279040943
 20
701.6802540986263
 30
0.0
 10
242.0454285130763
 20
701.9636311554786
 30
0.0
 10
241.9972291220574
 20
702.2470082123336
 30
0.0
 10
241.8255667064195
 20
702.7859726991144
 30
0.0
 10
241.5336330031359
 20
703.2489495996469
 30
0.0
 10
241.1214280122085
 20
703.6359389139287
 30
0.0
 10
241.1214280122085
 20
703.6359389139287
 30
0.0
 10
241.1214280122085
 20
703.6359389139287
 30
0.0
 10
241.1214280122085
 20
703.6359389139287
 30
0.0
 10
240.5038699689803
 20
704.3221292947363
 30
0.0
 10
239.8863119255502
 20
705.0083196753639
 30
0.0
 10
239.268753882222
 20
705.6945100560795
 30
0.0
 10
237.7806702552707
 20
707.3479719153273
 30
0.0
 10
234.0160696279327
 20
711.8454287856947
 30
0.0
 10
232.5279860009805
 20
713.4988906449424
 30
0.0
 10
232.5279860009805
 20
713.4988906449424
 30
0.0
 10
225.5627386841106
 20
720.8285051540715
 30
0.0
 10
235.3254989911311
 20
720.0149417951524
 30
0.0
 10
235.4158949199
 20
720.1957336526911
 30
0.0
 10
243.9411557780932
 20
719.3062890914807
 30
0.0
 10
246.0967683761865
 20
719.1115885987492
 30
0.0
  0
LWPOLYLINE
  5
89
330
70
100
AcDbEntity
  8
0
100
AcDbPolyline
 90
        4
 70
     1
 43
0.0
 10
189.4767187395581
 20
721.1513144187484
 10
186.998390626476
 20
721.1513144187484
 10
186.998390626476
 20
729.2058807862604
 10
189.4767187395581
 20
729.2058807862604
  0
LWPOLYLINE
  5
8A
330
70
100
AcDbEntity
  8
0
100
AcDbPolyline
 90
        4
 70
     1
 43
0.0
 10
214.7877190658246
 20
722.2665620696361
 10
189.9104261593455
 20
722.2665620696361
 10
189.9104261593455
 20
727.5330093099319
 10
214.7877190658246
 20
727.5330093099319
  0
LINE
  5
8B
330
70
100
AcDbEntity
  8
0
100
AcDbLine
 10
384.6218426929482
 20
540.5339703106092
 30
0.0
 11
384.6218426929482
 21
540.5339703106092
 31
0.0
  0
LINE
  5
8C
330
70
100
AcDbEntity
  8
0
100
AcDbLine
 10
409.4186845854746
 20
559.6299321837286
 30
0.0
 11
409.4186845854746
 21
559.6299321837286
 31
0.0
  0
LWPOLYLINE
  5
8D
330
70
100
AcDbEntity
  8
0
100
AcDbPolyline
 90
        4
 70
     1
 43
0.0
 10
162.2143025025889
 20
179.456160620306
 10
155.6362851212488
 20
179.069110202905
 10
382.3286904838915
 20
532.5331810179914
 10
387.3082455983131
 20
530.3017795157883
  0
LWPOLYLINE
  5
8E
330
70
100
AcDbEntity
  8
0
100
AcDbPolyline
 90
        4
 70
     1
 43
0.0
 10
194.8061952428506
 20
174.4364420453057
 10
191.3797538162644
 20
178.6347341989149
 10
414.8304397448099
 20
530.2754652102958
 10
420.6440203182465
 20
530.2825084050591
  0
LWPOLYLINE
  5
8F
330
70
100
AcDbEntity
  8
0
100
AcDbPolyline
 90
        4
 70
     1
 43
0.0
 10
406.3267140727183
 20
565.5161714647928
 10
402.1881630499628
 20
562.5513769834359
 10
310.7549583835553
 20
621.799697257461
 10
313.3318645176077
 20
625.7764308571894
  0
LINE
  5
90
330
70
100
AcDbEntity
  8
0
100
AcDbLine
 10
403.6943432884036
 20
563.6303814065541
 30
0.0
 11
403.6521518642238
 21
567.249276182054
 31
0.0
  0
LINE
  5
91
330
70
100
AcDbEntity
  8
0
100
AcDbLine
 10
402.1881630499628
 20
562.5513769834359
 30
0.0
 11
402.1218304425365
 21
568.2409178295837
 31
0.0
  0
LINE
  5
92
330
70
100
AcDbEntity
  8
0
100
AcDbLine
 10
400.6578416282755
 20
563.5430186309657
 30
0.0
 11
400.5915090208473
 21
569.2325594771146
 31
0.0
  0
LINE
  5
93
330
70
100
AcDbEntity
  8
0
100
AcDbLine
 10
399.1275202065882
 20
564.5346602784966
 30
0.0
 11
399.0611875991581
 21
570.2242011246452
 31
0.0
  0
LINE
  5
94
330
70
100
AcDbEntity
  8
0
100
AcDbLine
 10
397.5971987848989
 20
565.5263019260265
 30
0.0
 11
397.5308661774726
 21
571.2158427721751
 31
0.0
  0
LINE
  5
95
330
70
100
AcDbEntity
  8
0
100
AcDbLine
 10
396.0668773632115
 20
566.5179435735573
 30
0.0
 11
396.0005447557833
 21
572.2074844197067
 31
0.0
  0
LINE
  5
96
330
70
100
AcDbEntity
  8
0
100
AcDbLine
 10
394.5365559415222
 20
567.509585221087
 30
0.0
 11
394.4702233340942
 21
573.1991260672366
 31
0.0
  0
LINE
  5
97
330
70
100
AcDbEntity
  8
0
100
AcDbLine
 10
393.0062345198349
 20
568.5012268686177
 30
0.0
 11
392.9399019124066
 21
574.1907677147674
 31
0.0
  0
LINE
  5
98
330
70
100
AcDbEntity
  8
0
100
AcDbLine
 10
391.4759130981456
 20
569.4928685161483
 30
0.0
 11
391.4095804907192
 21
575.1824093622981
 31
0.0
  0
LINE
  5
99
330
70
100
AcDbEntity
  8
0
100
AcDbLine
 10
389.9455916764582
 20
570.4845101636792
 30
0.0
 11
389.87925906903
 21
576.1740510098278
 31
0.0
  0
LINE
  5
9A
330
70
100
AcDbEntity
  8
0
100
AcDbLine
 10
388.415270254769
 20
571.47615181121
 30
0.0
 11
388.3489376473426
 21
577.1656926573577
 31
0.0
  0
LINE
  5
9B
330
70
100
AcDbEntity
  8
0
100
AcDbLine
 10
386.8849488330798
 20
572.4677934587397
 30
0.0
 11
386.8186162256534
 21
578.1573343048893
 31
0.0
  0
LINE
  5
9C
330
70
100
AcDbEntity
  8
0
100
AcDbLine
 10
385.3546274113942
 20
573.4594351062705
 30
0.0
 11
385.2882948039642
 21
579.1489759524193
 31
0.0
  0
LINE
  5
9D
330
70
100
AcDbEntity
  8
0
100
AcDbLine
 10
383.8243059897049
 20
574.4510767538013
 30
0.0
 11
383.7579733822786
 21
580.1406175999491
 31
0.0
  0
LINE
  5
9E
330
70
100
AcDbEntity
  8
0
100
AcDbLine
 10
382.2939845680177
 20
575.4427184013311
 30
0.0
 11
382.2276519605893
 21
581.1322592474797
 31
0.0
  0
LINE
  5
9F
330
70
100
AcDbEntity
  8
0
100
AcDbLine
 10
380.7636631463283
 20
576.4343600488619
 30
0.0
 11
380.6973305389001
 21
582.1239008950104
 31
0.0
  0
LINE
  5
A0
330
70
100
AcDbEntity
  8
0
100
AcDbLine
 10
379.2333417246409
 20
577.4260016963926
 30
0.0
 11
379.1670091172127
 21
583.1155425425412
 31
0.0
  0
LINE
  5
A1
330
70
100
AcDbEntity
  8
0
100
AcDbLine
 10
377.7030203029517
 20
578.4176433439223
 30
0.0
 11
377.6366876955253
 21
584.1071841900702
 31
0.0
  0
LINE
  5
A2
330
70
100
AcDbEntity
  8
0
100
AcDbLine
 10
376.1726988812644
 20
579.4092849914532
 30
0.0
 11
376.1063662738362
 21
585.0988258376019
 31
0.0
  0
LINE
  5
A3
330
70
100
AcDbEntity
  8
0
100
AcDbLine
 10
374.6423774595751
 20
580.4009266389838
 30
0.0
 11
374.5760448521486
 21
586.0904674851317
 31
0.0
  0
LINE
  5
A4
330
70
100
AcDbEntity
  8
0
100
AcDbLine
 10
373.1120560378877
 20
581.3925682865138
 30
0.0
 11
373.0457234304595
 21
587.0821091326632
 31
0.0
  0
LINE
  5
A5
330
70
100
AcDbEntity
  8
0
100
AcDbLine
 10
371.5817346162002
 20
582.3842099340454
 30
0.0
 11
371.5154020087721
 21
588.0737507801923
 31
0.0
  0
LINE
  5
A6
330
70
100
AcDbEntity
  8
0
100
AcDbLine
 10
370.051413194511
 20
583.3758515815752
 30
0.0
 11
369.9850805870847
 21
589.0653924277247
 31
0.0
  0
LINE
  5
A7
330
70
100
AcDbEntity
  8
0
100
AcDbLine
 10
368.5210917728218
 20
584.3674932291069
 30
0.0
 11
368.4547591653953
 21
590.0570340752547
 31
0.0
  0
LINE
  5
A8
330
70
100
AcDbEntity
  8
0
100
AcDbLine
 10
366.9907703511344
 20
585.3591348766349
 30
0.0
 11
366.9244377437062
 21
591.0486757227836
 31
0.0
  0
LINE
  5
A9
330
70
100
AcDbEntity
  8
0
100
AcDbLine
 10
365.460448929447
 20
586.3507765241673
 30
0.0
 11
365.3941163220188
 21
592.0403173703152
 31
0.0
  0
LINE
  5
AA
330
70
100
AcDbEntity
  8
0
100
AcDbLine
 10
363.9301275077596
 20
587.3424181716955
 30
0.0
 11
363.8637949003314
 21
593.031959017846
 31
0.0
  0
LINE
  5
AB
330
70
100
AcDbEntity
  8
0
100
AcDbLine
 10
362.3998060860704
 20
588.3340598192271
 30
0.0
 11
362.3334734786422
 21
594.0236006653767
 31
0.0
  0
LINE
  5
AC
330
70
100
AcDbEntity
  8
0
100
AcDbLine
 10
360.8694846643812
 20
589.3257014667579
 30
0.0
 11
360.803152056953
 21
595.0152423129057
 31
0.0
  0
LINE
  5
AD
330
70
100
AcDbEntity
  8
0
100
AcDbLine
 10
359.3391632426937
 20
590.3173431142877
 30
0.0
 11
359.2728306352674
 21
596.0068839604364
 31
0.0
  0
LINE
  5
AE
330
70
100
AcDbEntity
  8
0
100
AcDbLine
 10
357.8088418210064
 20
591.3089847618183
 30
0.0
 11
357.7425092135781
 21
596.9985256079679
 31
0.0
  0
LINE
  5
AF
330
70
100
AcDbEntity
  8
0
100
AcDbLine
 10
356.2785203993172
 20
592.3006264093482
 30
0.0
 11
356.2121877918908
 21
597.9901672554979
 31
0.0
  0
LINE
  5
B0
330
70
100
AcDbEntity
  8
0
100
AcDbLine
 10
354.7481989776279
 20
593.2922680568789
 30
0.0
 11
354.6818663702016
 21
598.9818089030277
 31
0.0
  0
LINE
  5
B1
330
70
100
AcDbEntity
  8
0
100
AcDbLine
 10
353.2178775559405
 20
594.2839097044096
 30
0.0
 11
353.1515449485141
 21
599.9734505505585
 31
0.0
  0
LINE
  5
B2
330
70
100
AcDbEntity
  8
0
100
AcDbLine
 10
351.6875561342532
 20
595.2755513519396
 30
0.0
 11
351.6212235268267
 21
600.9650921980882
 31
0.0
  0
LINE
  5
B3
330
70
100
AcDbEntity
  8
0
100
AcDbLine
 10
350.1572347125639
 20
596.2671929994702
 30
0.0
 11
350.0909021051375
 21
601.9567338456198
 31
0.0
  0
LINE
  5
B4
330
70
100
AcDbEntity
  8
0
100
AcDbLine
 10
348.6269132908765
 20
597.258834647001
 30
0.0
 11
348.5605806834483
 21
602.9483754931487
 31
0.0
  0
LINE
  5
B5
330
70
100
AcDbEntity
  8
0
100
AcDbLine
 10
347.0965918691871
 20
598.2504762945308
 30
0.0
 11
347.0302592617591
 21
603.9400171406796
 31
0.0
  0
LINE
  5
B6
330
70
100
AcDbEntity
  8
0
100
AcDbLine
 10
345.5662704475017
 20
599.2421179420607
 30
0.0
 11
345.4999378400735
 21
604.9316587882104
 31
0.0
  0
LINE
  5
B7
330
70
100
AcDbEntity
  8
0
100
AcDbLine
 10
344.0359490258126
 20
600.2337595895915
 30
0.0
 11
343.9696164183843
 21
605.9233004357403
 31
0.0
  0
LINE
  5
B8
330
70
100
AcDbEntity
  8
0
100
AcDbLine
 10
342.5056276041232
 20
601.2254012371231
 30
0.0
 11
342.439294996695
 21
606.9149420832708
 31
0.0
  0
LINE
  5
B9
330
70
100
AcDbEntity
  8
0
100
AcDbLine
 10
340.975306182434
 20
602.217042884652
 30
0.0
 11
340.9089735750076
 21
607.9065837308015
 31
0.0
  0
LINE
  5
BA
330
70
100
AcDbEntity
  8
0
100
AcDbLine
 10
339.4449847607484
 20
603.2086845321828
 30
0.0
 11
339.3786521533202
 21
608.8982253783322
 31
0.0
  0
LINE
  5
BB
330
70
100
AcDbEntity
  8
0
100
AcDbLine
 10
337.9146633390592
 20
604.2003261797135
 30
0.0
 11
337.8483307316328
 21
609.8898670258622
 31
0.0
  0
LINE
  5
BC
330
70
100
AcDbEntity
  8
0
100
AcDbLine
 10
336.38434191737
 20
605.1919678272432
 30
0.0
 11
336.3180093099436
 21
610.881508673393
 31
0.0
  0
LINE
  5
BD
330
70
100
AcDbEntity
  8
0
100
AcDbLine
 10
334.8540204956807
 20
606.183609474775
 30
0.0
 11
334.7876878882544
 21
611.8731503209237
 31
0.0
  0
LINE
  5
BE
330
70
100
AcDbEntity
  8
0
100
AcDbLine
 10
333.3236990739952
 20
607.1752511223047
 30
0.0
 11
333.2573664665688
 21
612.8647919684535
 31
0.0
  0
LINE
  5
BF
330
70
100
AcDbEntity
  8
0
100
AcDbLine
 10
331.7933776523059
 20
608.1668927698355
 30
0.0
 11
331.7270450448796
 21
613.8564336159832
 31
0.0
  0
LINE
  5
C0
330
70
100
AcDbEntity
  8
0
100
AcDbLine
 10
330.2630562306185
 20
609.1585344173653
 30
0.0
 11
330.1967236231903
 21
614.8480752635141
 31
0.0
  0
LINE
  5
C1
330
70
100
AcDbEntity
  8
0
100
AcDbLine
 10
328.7327348089293
 20
610.1501760648962
 30
0.0
 11
328.6664022015011
 21
615.8397169110457
 31
0.0
  0
LINE
  5
C2
330
70
100
AcDbEntity
  8
0
100
AcDbLine
 10
327.2024133872418
 20
611.1418177124269
 30
0.0
 11
327.1360807798118
 21
616.8313585585765
 31
0.0
  0
LINE
  5
C3
330
70
100
AcDbEntity
  8
0
100
AcDbLine
 10
325.6720919655545
 20
612.1334593599567
 30
0.0
 11
325.6057593581263
 21
617.8230002061053
 31
0.0
  0
LINE
  5
C4
330
70
100
AcDbEntity
  8
0
100
AcDbLine
 10
324.1417705438653
 20
613.1251010074874
 30
0.0
 11
324.0754379364371
 21
618.8146418536362
 31
0.0
  0
LINE
  5
C5
330
70
100
AcDbEntity
  8
0
100
AcDbLine
 10
322.611449122176
 20
614.1167426550172
 30
0.0
 11
322.5451165147497
 21
619.8062835011668
 31
0.0
  0
LINE
  5
C6
330
70
100
AcDbEntity
  8
0
100
AcDbLine
 10
321.0811277004887
 20
615.108384302549
 30
0.0
 11
321.0147950930605
 21
620.7979251486976
 31
0.0
  0
LINE
  5
C7
330
70
100
AcDbEntity
  8
0
100
AcDbLine
 10
319.5508062788012
 20
616.1000259500797
 30
0.0
 11
319.4844736713732
 21
621.7895667962275
 31
0.0
  0
LINE
  5
C8
330
70
100
AcDbEntity
  8
0
100
AcDbLine
 10
318.020484857112
 20
617.0916675976086
 30
0.0
 11
317.9541522496856
 21
622.7812084437582
 31
0.0
  0
LINE
  5
C9
330
70
100
AcDbEntity
  8
0
100
AcDbLine
 10
316.4901634354228
 20
618.0833092451393
 30
0.0
 11
316.4238308279964
 21
623.772850091289
 31
0.0
  0
LINE
  5
CA
330
70
100
AcDbEntity
  8
0
100
AcDbLine
 10
314.9598420137354
 20
619.0749508926701
 30
0.0
 11
314.8935094063072
 21
624.7644917388186
 31
0.0
  0
LINE
  5
CB
330
70
100
AcDbEntity
  8
0
100
AcDbLine
 10
313.429520592048
 20
620.0665925402009
 30
0.0
 11
313.3631879846216
 21
625.7561333863495
 31
0.0
  0
CIRCLE
  5
CC
330
70
100
AcDbEntity
  8
0
100
AcDbCircle
 10
309.6964846874854
 20
625.3088624312837
 30
0.0
 40
3.527032526968127
  0
LWPOLYLINE
  5
CD
330
70
100
AcDbEntity
  8
0
100
AcDbPolyline
 90
        5
 70
     0
 43
0.0
 10
246.2228071719619
 20
284.1232802658942
 10
164.861918645538
 20
209.6216178589584
 10
160.2953572124088
 20
211.8455427263543
 10
243.8917627155078
 20
288.4924355146413
 10
244.9280697095255
 20
289.3651322880197
  0
LINE
  5
CE
330
70
100
AcDbEntity
  8
0
100
AcDbLine
 10
244.3784947155446
 20
282.509748922721
 30
0.0
 11
238.8545269473134
 21
283.8739538744558
 31
0.0
  0
LINE
  5
CF
330
70
100
AcDbEntity
  8
0
100
AcDbLine
 10
243.0344120310628
 20
281.2774021581772
 30
0.0
 11
237.5104442628299
 21
282.6416071099138
 31
0.0
  0
LINE
  5
D0
330
70
100
AcDbEntity
  8
0
100
AcDbLine
 10
241.6903293465803
 20
280.0450553936371
 30
0.0
 11
236.1663615783509
 21
281.4092603453737
 31
0.0
  0
LINE
  5
D1
330
70
100
AcDbEntity
  8
0
100
AcDbLine
 10
240.3462466621004
 20
278.8127086291006
 30
0.0
 11
234.8222788938691
 21
280.1769135808318
 31
0.0
  0
LINE
  5
D2
330
70
100
AcDbEntity
  8
0
100
AcDbLine
 10
239.0021639776205
 20
277.5803618645587
 30
0.0
 11
233.4781962093884
 21
278.9445668162916
 31
0.0
  0
LINE
  5
D3
330
70
100
AcDbEntity
  8
0
100
AcDbLine
 10
237.6580812931416
 20
276.3480151000166
 30
0.0
 11
232.1341135249067
 21
277.7122200517533
 31
0.0
  0
LINE
  5
D4
330
70
100
AcDbEntity
  8
0
100
AcDbLine
 10
236.3139986086598
 20
275.1156683354748
 30
0.0
 11
230.7900308404251
 21
276.4798732872114
 31
0.0
  0
LINE
  5
D5
330
70
100
AcDbEntity
  8
0
100
AcDbLine
 10
234.9699159241782
 20
273.8833215709365
 30
0.0
 11
229.445948155947
 21
275.2475265226713
 31
0.0
  0
LINE
  5
D6
330
70
100
AcDbEntity
  8
0
100
AcDbLine
 10
233.6258332396965
 20
272.6509748063945
 30
0.0
 11
228.1018654714662
 21
274.0151797581311
 31
0.0
  0
LINE
  5
D7
330
70
100
AcDbEntity
  8
0
100
AcDbLine
 10
232.2817505552139
 20
271.4186280418526
 30
0.0
 11
226.7577827869855
 21
272.7828329935892
 31
0.0
  0
LINE
  5
D8
330
70
100
AcDbEntity
  8
0
100
AcDbLine
 10
230.9376678707367
 20
270.1862812773161
 30
0.0
 11
225.4137001025029
 21
271.5504862290454
 31
0.0
  0
LINE
  5
D9
330
70
100
AcDbEntity
  8
0
100
AcDbLine
 10
229.5935851862541
 20
268.9539345127741
 30
0.0
 11
224.0696174180239
 21
270.3181394645089
 31
0.0
  0
LINE
  5
DA
330
70
100
AcDbEntity
  8
0
100
AcDbLine
 10
228.2495025017752
 20
267.721587748234
 30
0.0
 11
222.725534733544
 21
269.0857926999688
 31
0.0
  0
LINE
  5
DB
330
70
100
AcDbEntity
  8
0
100
AcDbLine
 10
226.9054198172944
 20
266.4892409836921
 30
0.0
 11
221.3814520490614
 21
267.8534459354269
 31
0.0
  0
LINE
  5
DC
330
70
100
AcDbEntity
  8
0
100
AcDbLine
 10
225.5613371328127
 20
265.2568942191501
 30
0.0
 11
220.0373693645806
 21
266.6210991708867
 31
0.0
  0
LINE
  5
DD
330
70
100
AcDbEntity
  8
0
100
AcDbLine
 10
224.217254448331
 20
264.02454745461
 30
0.0
 11
218.6932866800999
 21
265.3887524063466
 31
0.0
  0
LINE
  5
DE
330
70
100
AcDbEntity
  8
0
100
AcDbLine
 10
222.8731717638511
 20
262.7922006900699
 30
0.0
 11
217.3492039956191
 21
264.1564056418047
 31
0.0
  0
LINE
  5
DF
330
70
100
AcDbEntity
  8
0
100
AcDbLine
 10
221.5290890793731
 20
261.5598539255316
 30
0.0
 11
216.0051213111401
 21
262.9240588772627
 31
0.0
  0
LINE
  5
E0
330
70
100
AcDbEntity
  8
0
100
AcDbLine
 10
220.1850063948914
 20
260.3275071609896
 30
0.0
 11
214.6610386266566
 21
261.6917121127262
 31
0.0
  0
LINE
  5
E1
330
70
100
AcDbEntity
  8
0
100
AcDbLine
 10
218.8409237104097
 20
259.0951603964495
 30
0.0
 11
213.3169559421776
 21
260.4593653481843
 31
0.0
  0
LINE
  5
E2
330
70
100
AcDbEntity
  8
0
100
AcDbLine
 10
217.4968410259271
 20
257.8628136319057
 30
0.0
 11
211.9728732576969
 21
259.2270185836442
 31
0.0
  0
LINE
  5
E3
330
70
100
AcDbEntity
  8
0
100
AcDbLine
 10
216.1527583414454
 20
256.6304668673674
 30
0.0
 11
210.628790573217
 21
257.9946718191022
 31
0.0
  0
LINE
  5
E4
330
70
100
AcDbEntity
  8
0
100
AcDbLine
 10
214.8086756569664
 20
255.3981201028273
 30
0.0
 11
209.2847078887362
 21
256.7623250545621
 31
0.0
  0
LINE
  5
E5
330
70
100
AcDbEntity
  8
0
100
AcDbLine
 10
213.4645929724866
 20
254.1657733382854
 30
0.0
 11
207.9406252042545
 21
255.5299782900184
 31
0.0
  0
LINE
  5
E6
330
70
100
AcDbEntity
  8
0
100
AcDbLine
 10
212.1205102880067
 20
252.9334265737489
 30
0.0
 11
206.5965425197755
 21
254.29763152548
 31
0.0
  0
LINE
  5
E7
330
70
100
AcDbEntity
  8
0
100
AcDbLine
 10
210.776427603525
 20
251.7010798092069
 30
0.0
 11
205.2524598352938
 21
253.0652847609399
 31
0.0
  0
LINE
  5
E8
330
70
100
AcDbEntity
  8
0
100
AcDbLine
 10
209.4323449190424
 20
250.468733044665
 30
0.0
 11
203.9083771508122
 21
251.8329379963998
 31
0.0
  0
LINE
  5
E9
330
70
100
AcDbEntity
  8
0
100
AcDbLine
 10
208.0882622345634
 20
249.2363862801212
 30
0.0
 11
202.5642944663287
 21
250.6005912318597
 31
0.0
  0
LINE
  5
EA
330
70
100
AcDbEntity
  8
0
100
AcDbLine
 10
206.7441795500799
 20
248.0040395155847
 30
0.0
 11
201.2202117818497
 21
249.3682444673177
 31
0.0
  0
LINE
  5
EB
330
70
100
AcDbEntity
  8
0
100
AcDbLine
 10
205.4000968656019
 20
246.7716927510428
 30
0.0
 11
199.8761290973698
 21
248.1358977027794
 31
0.0
  0
LINE
  5
EC
330
70
100
AcDbEntity
  8
0
100
AcDbLine
 10
204.056014181122
 20
245.5393459865009
 30
0.0
 11
198.5320464128899
 21
246.9035509382357
 31
0.0
  0
LINE
  5
ED
330
70
100
AcDbEntity
  8
0
100
AcDbLine
 10
202.7119314966403
 20
244.3069992219607
 30
0.0
 11
197.187963728411
 21
245.6712041736955
 31
0.0
  0
LINE
  5
EE
330
70
100
AcDbEntity
  8
0
100
AcDbLine
 10
201.3678488121586
 20
243.0746524574224
 30
0.0
 11
195.8438810439265
 21
244.4388574091572
 31
0.0
  0
LINE
  5
EF
330
70
100
AcDbEntity
  8
0
100
AcDbLine
 10
200.023766127676
 20
241.8423056928787
 30
0.0
 11
194.4997983594458
 21
243.2065106446171
 31
0.0
  0
LINE
  5
F0
330
70
100
AcDbEntity
  8
0
100
AcDbLine
 10
198.6796834431979
 20
240.6099589283404
 30
0.0
 11
193.1557156749659
 21
241.9741638800751
 31
0.0
  0
LINE
  5
F1
330
70
100
AcDbEntity
  8
0
100
AcDbLine
 10
197.3356007587181
 20
239.3776121638002
 30
0.0
 11
191.811632990486
 21
240.7418171155331
 31
0.0
  0
LINE
  5
F2
330
70
100
AcDbEntity
  8
0
100
AcDbLine
 10
195.9915180742382
 20
238.1452653992601
 30
0.0
 11
190.4675503060061
 21
239.5094703509931
 31
0.0
  0
LINE
  5
F3
330
70
100
AcDbEntity
  8
0
100
AcDbLine
 10
194.6474353897556
 20
236.9129186347182
 30
0.0
 11
189.1234676215235
 21
238.277123586453
 31
0.0
  0
LINE
  5
F4
330
70
100
AcDbEntity
  8
0
100
AcDbLine
 10
193.3033527052739
 20
235.680571870178
 30
0.0
 11
187.7793849370437
 21
237.044776821911
 31
0.0
  0
LINE
  5
F5
330
70
100
AcDbEntity
  8
0
100
AcDbLine
 10
191.959270020795
 20
234.4482251056379
 30
0.0
 11
186.4353022525602
 21
235.8124300573709
 31
0.0
  0
LINE
  5
F6
330
70
100
AcDbEntity
  8
0
100
AcDbLine
 10
190.6151873363123
 20
233.215878341096
 30
0.0
 11
185.0912195680784
 21
234.5800832928325
 31
0.0
  0
LINE
  5
F7
330
70
100
AcDbEntity
  8
0
100
AcDbLine
 10
189.2711046518334
 20
231.9835315765558
 30
0.0
 11
183.7471368836013
 21
233.3477365282925
 31
0.0
  0
LINE
  5
F8
330
70
100
AcDbEntity
  8
0
100
AcDbLine
 10
187.9270219673517
 20
230.7511848120157
 30
0.0
 11
182.4030541991215
 21
232.1153897637487
 31
0.0
  0
LINE
  5
F9
330
70
100
AcDbEntity
  8
0
100
AcDbLine
 10
186.5829392828691
 20
229.5188380474737
 30
0.0
 11
181.0589715146407
 21
230.8830429992104
 31
0.0
  0
LINE
  5
FA
330
70
100
AcDbEntity
  8
0
100
AcDbLine
 10
185.2388565983901
 20
228.2864912829337
 30
0.0
 11
179.7148888301581
 21
229.6506962346703
 31
0.0
  0
LINE
  5
FB
330
70
100
AcDbEntity
  8
0
100
AcDbLine
 10
183.8947739139075
 20
227.0541445183935
 30
0.0
 11
178.3708061456764
 21
228.4183494701284
 31
0.0
  0
LINE
  5
FC
330
70
100
AcDbEntity
  8
0
100
AcDbLine
 10
182.5506912294286
 20
225.8217977538552
 30
0.0
 11
177.0267234611965
 21
227.1860027055882
 31
0.0
  0
LINE
  5
FD
330
70
100
AcDbEntity
  8
0
100
AcDbLine
 10
181.2066085449487
 20
224.5894509893133
 30
0.0
 11
175.6826407767148
 21
225.9536559410481
 31
0.0
  0
LINE
  5
FE
330
70
100
AcDbEntity
  8
0
100
AcDbLine
 10
179.862525860467
 20
223.3571042247713
 30
0.0
 11
174.338558092234
 21
224.7213091765061
 31
0.0
  0
LINE
  5
FF
330
70
100
AcDbEntity
  8
0
100
AcDbLine
 10
178.518443175988
 20
222.1247574602312
 30
0.0
 11
172.9944754077551
 21
223.4889624119642
 31
0.0
  0
LINE
  5
100
330
70
100
AcDbEntity
  8
0
100
AcDbLine
 10
177.1743604915045
 20
220.892410695691
 30
0.0
 11
171.6503927232743
 21
222.2566156474258
 31
0.0
  0
LINE
  5
101
330
70
100
AcDbEntity
  8
0
100
AcDbLine
 10
175.8302778070256
 20
219.6600639311491
 30
0.0
 11
170.3063100387917
 21
221.0242688828857
 31
0.0
  0
LINE
  5
102
330
70
100
AcDbEntity
  8
0
100
AcDbLine
 10
174.4861951225439
 20
218.4277171666108
 30
0.0
 11
168.96222735431
 21
219.7919221183438
 31
0.0
  0
LINE
  5
103
330
70
100
AcDbEntity
  8
0
100
AcDbLine
 10
173.1421124380622
 20
217.1953704020689
 30
0.0
 11
167.6181446698301
 21
218.5595753538018
 31
0.0
  0
LINE
  5
104
330
70
100
AcDbEntity
  8
0
100
AcDbLine
 10
171.7980297535832
 20
215.9630236375288
 30
0.0
 11
166.2740619853521
 21
217.3272285892654
 31
0.0
  0
LINE
  5
105
330
70
100
AcDbEntity
  8
0
100
AcDbLine
 10
170.4539470691006
 20
214.7306768729868
 30
0.0
 11
164.9299793008722
 21
216.0948818247216
 31
0.0
  0
LINE
  5
106
330
70
100
AcDbEntity
  8
0
100
AcDbLine
 10
169.1098643846217
 20
213.4983301084467
 30
0.0
 11
163.5858966163896
 21
214.8625350601796
 31
0.0
  0
LINE
  5
107
330
70
100
AcDbEntity
  8
0
100
AcDbLine
 10
167.7657817001391
 20
212.2659833439065
 30
0.0
 11
162.241813931907
 21
213.6301882956431
 31
0.0
  0
LINE
  5
108
330
70
100
AcDbEntity
  8
0
100
AcDbLine
 10
240.1986096317923
 20
285.1063006389958
 30
0.0
 11
245.7225774000235
 21
283.7420956872611
 31
0.0
  0
LINE
  5
109
330
70
100
AcDbEntity
  8
0
100
AcDbLine
 10
323.292057409104
 20
361.2145860553555
 30
0.0
 11
323.292057409104
 21
361.2145860553555
 31
0.0
  0
LWPOLYLINE
  5
10A
330
70
100
AcDbEntity
  8
0
100
AcDbPolyline
 90
        4
 70
     0
 43
0.0
 10
244.9280697095255
 20
289.3651322880197
 10
289.3464492874282
 20
330.090935090926
 10
293.6111709260858
 20
327.5721673199096
 10
246.2228071719619
 20
284.1232802658942
  0
LINE
  5
10B
330
70
100
AcDbEntity
  8
0
100
AcDbLine
 10
320.9429870098666
 20
359.0607979442483
 30
0.0
 11
320.9429870098666
 21
359.0607979442483
 31
0.0
  0
LINE
  5
10C
330
70
100
AcDbEntity
  8
0
100
AcDbLine
 10
292.8648876660826
 20
326.8879238789996
 30
0.0
 11
287.3409198978497
 21
328.2521288307326
 31
0.0
  0
LINE
  5
10D
330
70
100
AcDbEntity
  8
0
100
AcDbLine
 10
291.5208049816028
 20
325.6555771144613
 30
0.0
 11
285.9968372133717
 21
327.0197820661961
 31
0.0
  0
LINE
  5
10E
330
70
100
AcDbEntity
  8
0
100
AcDbLine
 10
290.1767222971212
 20
324.4232303499175
 30
0.0
 11
284.6527545288873
 21
325.7874353016541
 31
0.0
  0
LINE
  5
10F
330
70
100
AcDbEntity
  8
0
100
AcDbLine
 10
288.8326396126386
 20
323.1908835853756
 30
0.0
 11
283.3086718444074
 21
324.5550885371122
 31
0.0
  0
LINE
  5
110
330
70
100
AcDbEntity
  8
0
100
AcDbLine
 10
287.4885569281569
 20
321.9585368208336
 30
0.0
 11
281.964589159923
 21
323.3227417725702
 31
0.0
  0
LINE
  5
111
330
70
100
AcDbEntity
  8
0
100
AcDbLine
 10
286.1444742436752
 20
320.7261900562989
 30
0.0
 11
280.6205064754458
 21
322.0903950080301
 31
0.0
  0
LINE
  5
112
330
70
100
AcDbEntity
  8
0
100
AcDbLine
 10
284.800391559199
 20
319.493843291757
 30
0.0
 11
279.2764237909651
 21
320.85804824349
 31
0.0
  0
LINE
  5
113
330
70
100
AcDbEntity
  8
0
100
AcDbLine
 10
283.4563088747191
 20
318.2614965272151
 30
0.0
 11
277.9323411064852
 21
319.6257014789499
 31
0.0
  0
LINE
  5
114
330
70
100
AcDbEntity
  8
0
100
AcDbLine
 10
282.1122261902365
 20
317.0291497626731
 30
0.0
 11
276.5882584220053
 21
318.3933547144097
 31
0.0
  0
LINE
  5
115
330
70
100
AcDbEntity
  8
0
100
AcDbLine
 10
280.7681435057548
 20
315.796802998133
 30
0.0
 11
275.2441757375218
 21
317.1610079498714
 31
0.0
  0
LINE
  5
116
330
70
100
AcDbEntity
  8
0
100
AcDbLine
 10
279.4240608212713
 20
314.5644562335911
 30
0.0
 11
273.9000930530391
 21
315.9286611853295
 31
0.0
  0
LINE
  5
117
330
70
100
AcDbEntity
  8
0
100
AcDbLine
 10
278.0799781367932
 20
313.3321094690527
 30
0.0
 11
272.5560103685593
 21
314.6963144207857
 31
0.0
  0
LINE
  5
118
330
70
100
AcDbEntity
  8
0
100
AcDbLine
 10
276.7358954523124
 20
312.0997627045144
 30
0.0
 11
271.2119276840813
 21
313.4639676562456
 31
0.0
  0
LINE
  5
119
330
70
100
AcDbEntity
  8
0
100
AcDbLine
 10
275.3918127678344
 20
310.8674159399743
 30
0.0
 11
269.8678449996032
 21
312.2316208917055
 31
0.0
  0
LINE
  5
11A
330
70
100
AcDbEntity
  8
0
100
AcDbLine
 10
274.0477300833527
 20
309.6350691754324
 30
0.0
 11
268.5237623151188
 21
310.9992741271672
 31
0.0
  0
LINE
  5
11B
330
70
100
AcDbEntity
  8
0
100
AcDbLine
 10
272.7036473988692
 20
308.4027224108904
 30
0.0
 11
267.1796796306371
 21
309.7669273626252
 31
0.0
  0
LINE
  5
11C
330
70
100
AcDbEntity
  8
0
100
AcDbLine
 10
271.3595647143911
 20
307.1703756463485
 30
0.0
 11
265.8355969461554
 21
308.5345805980869
 31
0.0
  0
LINE
  5
11D
330
70
100
AcDbEntity
  8
0
100
AcDbLine
 10
270.0154820299085
 20
305.9380288818084
 30
0.0
 11
264.4915142616737
 21
307.3022338335432
 31
0.0
  0
LINE
  5
11E
330
70
100
AcDbEntity
  8
0
100
AcDbLine
 10
268.6713993454268
 20
304.7056821172682
 30
0.0
 11
263.1474315771975
 21
306.069887069003
 31
0.0
  0
LINE
  5
11F
330
70
100
AcDbEntity
  8
0
100
AcDbLine
 10
267.3273166609452
 20
303.4733353527299
 30
0.0
 11
261.8033488927176
 21
304.8375403044629
 31
0.0
  0
LINE
  5
120
330
70
100
AcDbEntity
  8
0
100
AcDbLine
 10
265.9832339764653
 20
302.240988588188
 30
0.0
 11
260.459266208235
 21
303.6051935399228
 31
0.0
  0
LINE
  5
121
330
70
100
AcDbEntity
  8
0
100
AcDbLine
 10
264.6391512919863
 20
301.008641823646
 30
0.0
 11
259.1151835237533
 21
302.3728467753845
 31
0.0
  0
LINE
  5
122
330
70
100
AcDbEntity
  8
0
100
AcDbLine
 10
263.2950686075028
 20
299.7762950591042
 30
0.0
 11
257.7711008392735
 21
301.1405000108425
 31
0.0
  0
LINE
  5
123
330
70
100
AcDbEntity
  8
0
100
AcDbLine
 10
261.9509859230248
 20
298.5439482945658
 30
0.0
 11
256.4270181547909
 21
299.9081532463024
 31
0.0
  0
LINE
  5
124
330
70
100
AcDbEntity
  8
0
100
AcDbLine
 10
260.606903238543
 20
297.3116015300257
 30
0.0
 11
255.0829354703092
 21
298.6758064817586
 31
0.0
  0
LINE
  5
125
330
70
100
AcDbEntity
  8
0
100
AcDbLine
 10
259.2628205540604
 20
296.0792547654837
 30
0.0
 11
253.7388527858293
 21
297.4434597172167
 31
0.0
  0
LINE
  5
126
330
70
100
AcDbEntity
  8
0
100
AcDbLine
 10
257.9187378695824
 20
294.8469080009454
 30
0.0
 11
252.3947701013512
 21
296.2111129526784
 31
0.0
  0
LINE
  5
127
330
70
100
AcDbEntity
  8
0
100
AcDbLine
 10
256.5746551851006
 20
293.6145612364035
 30
0.0
 11
251.0506874168687
 21
294.9787661881383
 31
0.0
  0
LINE
  5
128
330
70
100
AcDbEntity
  8
0
100
AcDbLine
 10
255.2305725006227
 20
292.3822144718615
 30
0.0
 11
249.7066047323888
 21
293.7464194236
 31
0.0
  0
LINE
  5
129
330
70
100
AcDbEntity
  8
0
100
AcDbLine
 10
253.8864898161392
 20
291.1498677073213
 30
0.0
 11
248.3625220479071
 21
292.514072659058
 31
0.0
  0
LINE
  5
12A
330
70
100
AcDbEntity
  8
0
100
AcDbLine
 10
252.5424071316574
 20
289.9175209427813
 30
0.0
 11
247.0184393634254
 21
291.281725894516
 31
0.0
  0
LINE
  5
12B
330
70
100
AcDbEntity
  8
0
100
AcDbLine
 10
251.1983244471776
 20
288.6851741782411
 30
0.0
 11
245.6743566789482
 21
290.0493791299759
 31
0.0
  0
LINE
  5
12C
330
70
100
AcDbEntity
  8
0
100
AcDbLine
 10
249.8542417626977
 20
287.4528274136992
 30
0.0
 11
244.3302739944666
 21
288.817032365434
 31
0.0
  0
LINE
  5
12D
330
70
100
AcDbEntity
  8
0
100
AcDbLine
 10
248.5101590782151
 20
286.2204806491627
 30
0.0
 11
242.9861913099848
 21
287.584685600892
 31
0.0
  0
CIRCLE
  5
12E
330
70
100
AcDbEntity
  8
0
100
AcDbCircle
 10
290.8534262451196
 20
328.4152465409789
 30
0.0
 40
3.479943127478803
  0
LINE
  5
12F
330
70
100
AcDbEntity
  8
0
100
AcDbLine
 10
247.299684417485
 20
285.1106348421035
 30
0.0
 11
241.5426923162713
 21
286.338647403536
 31
0.0
  0
LWPOLYLINE
  5
130
330
70
100
AcDbEntity
  8
0
100
AcDbPolyline
 90
        4
 70
     1
 43
0.0
 10
253.0416654499049
 20
139.675962129857
 10
98.47125313383733
 20
139.675962129857
 10
102.7578463874897
 20
162.7929471763382
 10
249.8267205096654
 20
162.7929471763382
  0
SPLINE
  5
131
330
70
100
AcDbEntity
  8
0
100
AcDbSpline
210
0.0
220
0.0
230
1.0
 70
     9
 71
     3
 72
   185
 73
   181
 74
     0
 42
0.000000001
 43
0.0000000001
 40
0.0
 40
0.0
 40
0.0
 40
0.0
 40
1.0
 40
1.0
 40
1.0
 40
2.0
 40
2.0
 40
2.0
 40
3.0
 40
3.0
 40
3.0
 40
4.0
 40
4.0
 40
4.0
 40
5.0
 40
5.0
 40
5.0
 40
6.0
 40
6.0
 40
6.0
 40
7.0
 40
7.0
 40
7.0
 40
8.0
 40
8.0
 40
8.0
 40
9.0
 40
9.0
 40
9.0
 40
10.0
 40
10.0
 40
10.0
 40
11.0
 40
11.0
 40
11.0
 40
12.0
 40
12.0
 40
12.0
 40
13.0
 40
13.0
 40
13.0
 40
14.0
 40
14.0
 40
14.0
 40
15.0
 40
15.0
 40
15.0
 40
16.0
 40
16.0
 40
16.0
 40
17.0
 40
17.0
 40
17.0
 40
18.0
 40
18.0
 40
18.0
 40
19.0
 40
19.0
 40
19.0
 40
20.0
 40
20.0
 40
20.0
 40
21.0
 40
21.0
 40
21.0
 40
22.0
 40
22.0
 40
22.0
 40
23.0
 40
23.0
 40
23.0
 40
24.0
 40
24.0
 40
24.0
 40
25.0
 40
25.0
 40
25.0
 40
26.0
 40
26.0
 40
26.0
 40
27.0
 40
27.0
 40
27.0
 40
28.0
 40
28.0
 40
28.0
 40
29.0
 40
29.0
 40
29.0
 40
30.0
 40
30.0
 40
30.0
 40
31.0
 40
31.0
 40
31.0
 40
32.0
 40
32.0
 40
32.0
 40
33.0
 40
33.0
 40
33.0
 40
34.0
 40
34.0
 40
34.0
 40
35.0
 40
35.0
 40
35.0
 40
36.0
 40
36.0
 40
36.0
 40
37.0
 40
37.0
 40
37.0
 40
38.0
 40
38.0
 40
38.0
 40
39.0
 40
39.0
 40
39.0
 40
40.0
 40
40.0
 40
40.0
 40
41.0
 40
41.0
 40
41.0
 40
42.0
 40
42.0
 40
42.0
 40
43.0
 40
43.0
 40
43.0
 40
44.0
 40
44.0
 40
44.0
 40
45.0
 40
45.0
 40
45.0
 40
46.0
 40
46.0
 40
46.0
 40
47.0
 40
47.0
 40
47.0
 40
48.0
 40
48.0
 40
48.0
 40
49.0
 40
49.0
 40
49.0
 40
50.0
 40
50.0
 40
50.0
 40
51.0
 40
51.0
 40
51.0
 40
52.0
 40
52.0
 40
52.0
 40
53.0
 40
53.0
 40
53.0
 40
54.0
 40
54.0
 40
54.0
 40
55.0
 40
55.0
 40
55.0
 40
56.0
 40
56.0
 40
56.0
 40
57.0
 40
57.0
 40
57.0
 40
58.0
 40
58.0
 40
58.0
 40
59.0
 40
59.0
 40
59.0
 40
60.0
 40
60.0
 40
60.0
 40
60.0
 10
194.991562144718
 20
176.3599670453568
 30
0.0
 10
194.9788729496011
 20
176.6934181624091
 30
0.0
 10
194.883900210888
 20
177.0012946645602
 30
0.0
 10
194.7067747450237
 20
177.2835965518097
 30
0.0
 10
194.5417498002753
 20
177.7364830826973
 30
0.0
 10
194.2732490479229
 20
178.1239613913311
 30
0.0
 10
193.9012070797407
 20
178.446096885933
 30
0.0
 10
193.6293050998291
 20
178.7380137818545
 30
0.0
 10
193.3573377116963
 20
179.0299306777742
 30
0.0
 10
193.0854357317866
 20
179.3219129819172
 30
0.0
 10
192.3505743547593
 20
180.1107361423037
 30
0.0
 10
191.6157783859553
 20
180.8996247109116
 30
0.0
 10
190.8809170089307
 20
181.6885132795196
 30
0.0
 10
189.7955329688429
 20
182.8538261672001
 30
0.0
 10
188.7101489287578
 20
184.0190736466593
 30
0.0
 10
187.6246994804478
 20
185.1843211261184
 30
0.0
 10
186.3010332866906
 20
186.6053147545899
 30
0.0
 10
184.9774325011549
 20
188.0263737912846
 30
0.0
 10
183.653766307395
 20
189.4474328279811
 30
0.0
 10
182.2041892857969
 20
191.003625251853
 30
0.0
 10
180.7545468559774
 20
192.5598176757248
 30
0.0
 10
179.3049698343802
 20
194.1160755078199
 30
0.0
 10
177.8417879025528
 20
195.6869193734765
 30
0.0
 10
176.3786059707272
 20
197.2576978309116
 30
0.0
 10
174.9154240388998
 20
198.8285416965682
 30
0.0
 10
173.551008522676
 20
200.293358833951
 30
0.0
 10
172.1865275982318
 20
201.7581759713339
 30
0.0
 10
170.8221120820089
 20
203.2229931087168
 30
0.0
 10
169.6634054247752
 20
204.4669266795481
 30
0.0
 10
168.5046987675423
 20
205.7109256586009
 30
0.0
 10
167.3459921103094
 20
206.9548592294323
 30
0.0
 10
166.5179894247922
 20
207.8437569698654
 30
0.0
 10
165.6899213310544
 20
208.7327201185235
 30
0.0
 10
164.861918645538
 20
209.6216178589584
 30
0.0
 10
164.4702542106797
 20
210.0421273198299
 30
0.0
 10
164.078524367599
 20
210.4627021889246
 30
0.0
 10
163.6867945245203
 20
210.8832116497979
 30
0.0
 10
163.6701808360667
 20
210.9010680944721
 30
0.0
 10
163.6535671476149
 20
210.9188591309248
 30
0.0
 10
163.6369534591613
 20
210.9367155756008
 30
0.0
 10
163.2897012072135
 20
211.2853414002166
 30
0.0
 10
162.8844318621268
 20
211.5261744745567
 30
0.0
 10
162.4211454239001
 20
211.659149390398
 30
0.0
 10
161.9727720603478
 20
211.8751273402813
 30
0.0
 10
161.4945071392249
 20
211.9646711965488
 30
0.0
 10
160.9864814769771
 20
211.9277155509753
 30
0.0
 10
160.4770822420614
 20
211.9290891236415
 30
0.0
 10
160.0062738582746
 20
211.806448706915
 30
0.0
 10
159.5739909173961
 20
211.5597288925728
 30
0.0
 10
159.1211043865087
 20
211.3947039478244
 30
0.0
 10
158.7336260778746
 20
211.1262031954721
 30
0.0
 10
158.4115559914944
 20
210.7542266355121
 30
0.0
 10
158.2276934787378
 20
210.4982188536087
 30
0.0
 10
158.0437655577589
 20
210.2422110717053
 30
0.0
 10
157.8599030450023
 20
209.986268698025
 30
0.0
 10
157.5458127617376
 20
209.3982487799603
 30
0.0
 10
157.3993637521107
 20
208.7707877038756
 30
0.0
 10
157.4205560161208
 20
208.1036892451048
 30
0.0
 10
157.4760221885926
 20
207.7778254818331
 30
0.0
 10
157.5314229528421
 20
207.4519617185633
 30
0.0
 10
157.5868237170925
 20
207.1260979552935
 30
0.0
 10
157.7842911400767
 20
206.5062896412128
 30
0.0
 10
158.1199661366854
 20
205.9738667120637
 30
0.0
 10
158.594044931584
 20
205.5288291678444
 30
0.0
 10
158.8659469114955
 20
205.2368468637033
 30
0.0
 10
159.1379142996275
 20
204.9449299677817
 30
0.0
 10
159.409816279538
 20
204.653013071862
 30
0.0
 10
160.1446776565644
 20
203.8641245032541
 30
0.0
 10
160.8794736253694
 20
203.0752359346443
 30
0.0
 10
161.614335002394
 20
202.2863473660363
 30
0.0
 10
162.6997190424808
 20
201.121099886579
 30
0.0
 10
163.7851030825668
 20
199.9558524071199
 30
0.0
 10
164.870552530876
 20
198.7905395194393
 30
0.0
 10
166.1942187246341
 20
197.369545890966
 30
0.0
 10
167.5178195101707
 20
195.9484868542713
 30
0.0
 10
168.8414857039297
 20
194.527493225798
 30
0.0
 10
170.2910627255269
 20
192.9712353937029
 30
0.0
 10
171.7406397471259
 20
191.4150429698311
 30
0.0
 10
173.1902821769445
 20
189.8587851377378
 30
0.0
 10
174.653464108771
 20
188.2880066803027
 30
0.0
 10
176.1166460405984
 20
186.7171628146461
 30
0.0
 10
177.5798279724249
 20
185.1463189489877
 30
0.0
 10
182.4613090074798
 20
179.9057467737584
 30
0.0
 10
174.765246760604
 20
179.4370314530842
 30
0.0
 10
174.765246760604
 20
179.4370314530842
 30
0.0
 10
173.1038779153468
 20
179.4370314530842
 30
0.0
 10
171.4425090700896
 20
179.4370314530842
 30
0.0
 10
169.7812056330549
 20
179.4370314530842
 30
0.0
 10
168.2426734291912
 20
179.4370314530842
 30
0.0
 10
166.7042066335516
 20
179.4370314530842
 30
0.0
 10
165.165674429687
 20
179.4370314530842
 30
0.0
 10
163.8609112121594
 20
179.4370314530842
 30
0.0
 10
162.5561479946327
 20
179.4370314530842
 30
0.0
 10
161.2513193688837
 20
179.4370314530842
 30
0.0
 10
160.3132346453139
 20
179.4370314530842
 30
0.0
 10
159.3751499217442
 20
179.4370314530842
 30
0.0
 10
158.4370651981735
 20
179.4370314530842
 30
0.0
 10
157.9937282677347
 20
179.4370314530842
 30
0.0
 10
157.5502605208512
 20
179.4391899244183
 30
0.0
 10
157.1068581821901
 20
179.4370314530842
 30
0.0
 10
157.0874973484024
 20
179.4369660448628
 30
0.0
 10
157.0681365146156
 20
179.4370314530842
 30
0.0
 10
157.0487102726056
 20
179.4370314530842
 30
0.0
 10
156.5393110376899
 20
179.4384704339736
 30
0.0
 10
156.068502653904
 20
179.3158300172472
 30
0.0
 10
155.6362851212488
 20
179.069110202905
 30
0.0
 10
155.1833985903604
 20
178.9040852581583
 30
0.0
 10
154.7959202817264
 20
178.6355845058042
 30
0.0
 10
154.4737847871247
 20
178.2636079458443
 30
0.0
 10
154.1251589625108
 20
177.9163556938965
 30
0.0
 10
153.8843258881698
 20
177.5110863488098
 30
0.0
 10
153.7513509723267
 20
177.0477999105824
 30
0.0
 10
153.5353730224433
 20
176.5993611388076
 30
0.0
 10
153.4458945743999
 20
176.1211616259079
 30
0.0
 10
153.4828502199743
 20
175.6130705554369
 30
0.0
 10
153.5382509842229
 20
175.2872067921671
 30
0.0
 10
153.5937171566938
 20
174.9613430288955
 30
0.0
 10
153.6491179209433
 20
174.6354138574024
 30
0.0
 10
153.8465199357078
 20
174.0156055433217
 30
0.0
 10
154.182260340537
 20
173.4831826141726
 30
0.0
 10
154.6562737272143
 20
173.0381450699551
 30
0.0
 10
154.9122815091168
 20
172.8542825571985
 30
0.0
 10
155.1682892910203
 20
172.6704200444419
 30
0.0
 10
155.4242970729228
 20
172.4865575316853
 30
0.0
 10
156.0122515827661
 20
172.1724018401983
 30
0.0
 10
156.6397780670721
 20
172.0259528305723
 30
0.0
 10
157.3068111176208
 20
172.0472105028038
 30
0.0
 10
157.6138373128824
 20
172.0472105028038
 30
0.0
 10
157.9207980999217
 20
172.0472105028038
 30
0.0
 10
158.2278242951834
 20
172.0472105028038
 30
0.0
 10
159.055892388922
 20
172.0472105028038
 30
0.0
 10
159.8838950744366
 20
172.0472105028038
 30
0.0
 10
160.711897759953
 20
172.0472105028038
 30
0.0
 10
161.9395446834423
 20
172.0472105028038
 30
0.0
 10
163.1671916069326
 20
172.0472105028038
 30
0.0
 10
164.3947731221997
 20
172.0472105028038
 30
0.0
 10
165.8925560035977
 20
172.0472105028038
 30
0.0
 10
167.3903388849967
 20
172.0472105028038
 30
0.0
 10
168.8880563581751
 20
172.0472105028038
 30
0.0
 10
169.410406421096
 20
172.0472105028038
 30
0.0
 10
169.9326910757954
 20
172.0472105028038
 30
0.0
 10
170.4550411387181
 20
172.0472105028038
 30
0.0
 10
170.4550411387181
 20
172.0472105028038
 30
0.0
 10
170.4550411387181
 20
162.8582709911988
 30
0.0
 10
170.4550411387181
 20
162.8582709911988
 30
0.0
 10
170.4550411387181
 20
162.8582709911988
 30
0.0
 10
186.8167771191638
 20
162.8582709911988
 30
0.0
 10
186.8167771191638
 20
162.8582709911988
 30
0.0
 10
186.8167771191638
 20
162.8582709911988
 30
0.0
 10
186.8167771191638
 20
172.0472105028038
 30
0.0
 10
186.8167771191638
 20
172.0472105028038
 30
0.0
 10
186.9799052254666
 20
172.0472105028038
 30
0.0
 10
187.1430333317685
 20
172.0472105028038
 30
0.0
 10
187.3061614380704
 20
172.0472105028038
 30
0.0
 10
188.2442461616401
 20
172.0472105028038
 30
0.0
 10
189.1823308852099
 20
172.0472105028038
 30
0.0
 10
190.1204156087796
 20
172.0472105028038
 30
0.0
 10
190.5637525392194
 20
172.0472105028038
 30
0.0
 10
191.0072856943261
 20
172.0434168259125
 30
0.0
 10
191.450622624764
 20
172.0472105028038
 30
0.0
 10
191.4699834585508
 20
172.0473413192485
 30
0.0
 10
191.4894097005608
 20
172.0472105028038
 30
0.0
 10
191.5087705343476
 20
172.0472105028038
 30
0.0
 10
191.8346997058406
 20
172.1026112670533
 30
0.0
 10
192.1605634691123
 20
172.1580774395242
 30
0.0
 10
192.4864272323812
 20
172.2134782037737
 30
0.0
 10
192.7763164734124
 20
172.3478921005062
 30
0.0
 10
193.0662057144427
 20
172.4823714054619
 30
0.0
 10
193.356094955473
 20
172.6167853021943
 30
0.0
 10
193.5986286435918
 20
172.8180464020697
 30
0.0
 10
193.8411623317106
 20
173.0193729101683
 30
0.0
 10
194.0836960198294
 20
173.2206340100438
 30
0.0
 10
194.4323218444451
 20
173.5678862619916
 30
0.0
 10
194.6731549187843
 20
173.9731556070801
 30
0.0
 10
194.8061952428506
 20
174.4364420453057
 30
0.0
 10
194.9632403844816
 20
174.730452004338
 30
0.0
 10
195.0364321851848
 20
175.0442152464929
 30
0.0
 10
195.0258360531788
 20
175.3777317717668
 30
0.0
 10
195.1024290814384
 20
175.7082395188171
 30
0.0
 10
195.0909826425441
 20
176.0356076711996
 30
0.0
 10
194.991562144718
 20
176.3599670453568
 30
0.0
  0
CIRCLE
  5
132
330
70
100
AcDbEntity
  8
0
100
AcDbCircle
 10
161.4206754593051
 20
208.1477081487933
 30
0.0
 40
3.017786617566116
  0
CIRCLE
  5
133
330
70
100
AcDbEntity
  8
0
100
AcDbCircle
 10
190.8688541574147
 20
176.0513235851353
 30
0.0
 40
3.017786617566116
  0
CIRCLE
  5
134
330
70
100
AcDbEntity
  8
0
100
AcDbCircle
 10
157.2775705950462
 20
175.7421209779445
 30
0.0
 40
3.017786617566569
  0
CIRCLE
  5
135
330
70
100
AcDbEntity
  8
0
100
AcDbCircle
 10
176.4857258566953
 20
192.0798498743729
 30
0.0
 40
1.261164556594166
  0
SPLINE
  5
136
330
70
100
AcDbEntity
  8
0
100
AcDbSpline
210
0.0
220
0.0
230
1.0
 70
     9
 71
     3
 72
    29
 73
    25
 74
     0
 42
0.000000001
 43
0.0000000001
 40
0.0
 40
0.0
 40
0.0
 40
0.0
 40
1.0
 40
1.0
 40
1.0
 40
2.0
 40
2.0
 40
2.0
 40
3.0
 40
3.0
 40
3.0
 40
4.0
 40
4.0
 40
4.0
 40
5.0
 40
5.0
 40
5.0
 40
6.0
 40
6.0
 40
6.0
 40
7.0
 40
7.0
 40
7.0
 40
8.0
 40
8.0
 40
8.0
 40
8.0
 10
422.4949640550911
 20
530.3017795157883
 30
0.0
 10
422.4949640550911
 20
530.3017795157883
 30
0.0
 10
422.0051872868516
 20
531.2541232318099
 30
0.0
 10
422.0051872868516
 20
531.2541232318099
 30
0.0
 10
427.3676149801395
 20
534.0159200082716
 30
0.0
 10
431.054545652165
 20
536.9739414514961
 30
0.0
 10
432.3878268545958
 20
539.5845144181056
 30
0.0
 10
434.6807774939389
 20
544.0767511225248
 30
0.0
 10
434.0591377496347
 20
549.2016161525871
 30
0.0
 10
430.6380260928508
 20
554.0140915131631
 30
0.0
 10
425.8375858451691
 20
560.7678829102442
 30
0.0
 10
416.947300276377
 20
565.128256638598
 30
0.0
 10
409.9658882658514
 20
564.1680639359065
 30
0.0
 10
409.9658882658514
 20
564.1680639359065
 30
0.0
 10
409.8193738480021
 20
565.229246933759
 30
0.0
 10
409.8193738480021
 20
565.229246933759
 30
0.0
 10
417.1566065875921
 20
566.2480454035902
 30
0.0
 10
426.4958541939358
 20
561.6898772111388
 30
0.0
 10
431.5118799421671
 20
554.6352079916887
 30
0.0
 10
435.175786919959
 20
549.481040078057
 30
0.0
 10
435.8256830162771
 20
543.9626791829141
 30
0.0
 10
433.342263633729
 20
539.0968307129788
 30
0.0
 10
431.5045542212756
 20
535.4972854258849
 30
0.0
 10
426.4288761743483
 20
532.3273413425567
 30
0.0
 10
422.4949640550911
 20
530.3017795157883
 30
0.0
  0
SPLINE
  5
137
330
70
100
AcDbEntity
  8
0
100
AcDbSpline
210
0.0
220
0.0
230
1.0
 70
     9
 71
     3
 72
    50
 73
    46
 74
     0
 42
0.000000001
 43
0.0000000001
 40
0.0
 40
0.0
 40
0.0
 40
0.0
 40
1.0
 40
1.0
 40
1.0
 40
2.0
 40
2.0
 40
2.0
 40
3.0
 40
3.0
 40
3.0
 40
4.0
 40
4.0
 40
4.0
 40
5.0
 40
5.0
 40
5.0
 40
6.0
 40
6.0
 40
6.0
 40
7.0
 40
7.0
 40
7.0
 40
8.0
 40
8.0
 40
8.0
 40
9.0
 40
9.0
 40
9.0
 40
10.0
 40
10.0
 40
10.0
 40
11.0
 40
11.0
 40
11.0
 40
12.0
 40
12.0
 40
12.0
 40
13.0
 40
13.0
 40
13.0
 40
14.0
 40
14.0
 40
14.0
 40
15.0
 40
15.0
 40
15.0
 40
15.0
 10
413.1436159276289
 20
536.7084494773662
 30
0.0
 10
411.6039717839866
 20
536.7084494773662
 30
0.0
 10
410.0642622321228
 20
536.7084494773662
 30
0.0
 10
408.5246180884805
 20
536.7084494773662
 30
0.0
 10
406.8380670776567
 20
536.7084494773662
 30
0.0
 10
405.1515160668313
 20
536.7084494773662
 30
0.0
 10
403.4649650560058
 20
536.7084494773662
 30
0.0
 10
401.7689952611763
 20
536.7084494773662
 30
0.0
 10
400.0730254663467
 20
536.7084494773662
 30
0.0
 10
398.3770556715171
 20
536.7084494773662
 30
0.0
 10
396.7898597502972
 20
536.7084494773662
 30
0.0
 10
395.2026638290772
 20
536.7084494773662
 30
0.0
 10
393.6154679078553
 20
536.7084494773662
 30
0.0
 10
393.6154679078553
 20
536.7084494773662
 30
0.0
 10
391.2131547209028
 20
536.6913125231357
 30
0.0
 10
391.1172662670779
 20
536.7084494773662
 30
0.0
 10
386.9943243855069
 20
537.3009171545453
 30
0.0
 10
389.5831164141055
 20
541.1019197661817
 30
0.0
 10
389.5831164141055
 20
541.1019197661817
 30
0.0
 10
389.5831164141055
 20
541.1019197661817
 30
0.0
 10
391.985822050392
 20
543.1097559647187
 30
0.0
 10
391.985822050392
 20
543.1097559647187
 30
0.0
 10
393.2070589681007
 20
544.0502607925118
 30
0.0
 10
394.4283612940308
 20
544.9907002120835
 30
0.0
 10
395.6495982117394
 20
545.9312050398766
 30
0.0
 10
396.8824777930095
 20
546.8806053858969
 30
0.0
 10
398.1152919660562
 20
547.8300057319167
 30
0.0
 10
399.348106139103
 20
548.7794060779361
 30
0.0
 10
400.4977210534433
 20
549.6647063661476
 30
0.0
 10
401.6472705595623
 20
550.5500066543572
 30
0.0
 10
402.7968854739009
 20
551.4353069425688
 30
0.0
 10
402.7968854739009
 20
551.4353069425688
 30
0.0
 10
406.6865816349144
 20
554.8515783909059
 30
0.0
 10
408.2058838214361
 20
551.4353069425688
 30
0.0
 10
408.8222909079595
 20
550.0494375294464
 30
0.0
 10
409.4386325862615
 20
548.6635681163241
 30
0.0
 10
410.0549742645617
 20
547.2776987032021
 30
0.0
 10
410.6745863539762
 20
545.8845689774098
 30
0.0
 10
411.2941330351676
 20
544.4914392516166
 30
0.0
 10
411.9137451245824
 20
543.098244117602
 30
0.0
 10
412.4915613599767
 20
541.7989751907444
 30
0.0
 10
413.0694430035928
 20
540.4996408556652
 30
0.0
 10
413.6473246472087
 20
539.2003065205845
 30
0.0
 10
414.8989763882655
 20
536.385856125208
 30
0.0
 10
413.1436159276289
 20
536.7084494773662
 30
0.0
 10
413.1436159276289
 20
536.7084494773662
 30
0.0
  0
SPLINE
  5
138
330
70
100
AcDbEntity
  8
0
100
AcDbSpline
210
0.0
220
0.0
230
1.0
 70
     9
 71
     3
 72
   185
 73
   181
 74
     0
 42
0.000000001
 43
0.0000000001
 40
0.0
 40
0.0
 40
0.0
 40
0.0
 40
1.0
 40
1.0
 40
1.0
 40
2.0
 40
2.0
 40
2.0
 40
3.0
 40
3.0
 40
3.0
 40
4.0
 40
4.0
 40
4.0
 40
5.0
 40
5.0
 40
5.0
 40
6.0
 40
6.0
 40
6.0
 40
7.0
 40
7.0
 40
7.0
 40
8.0
 40
8.0
 40
8.0
 40
9.0
 40
9.0
 40
9.0
 40
10.0
 40
10.0
 40
10.0
 40
11.0
 40
11.0
 40
11.0
 40
12.0
 40
12.0
 40
12.0
 40
13.0
 40
13.0
 40
13.0
 40
14.0
 40
14.0
 40
14.0
 40
15.0
 40
15.0
 40
15.0
 40
16.0
 40
16.0
 40
16.0
 40
17.0
 40
17.0
 40
17.0
 40
18.0
 40
18.0
 40
18.0
 40
19.0
 40
19.0
 40
19.0
 40
20.0
 40
20.0
 40
20.0
 40
21.0
 40
21.0
 40
21.0
 40
22.0
 40
22.0
 40
22.0
 40
23.0
 40
23.0
 40
23.0
 40
24.0
 40
24.0
 40
24.0
 40
25.0
 40
25.0
 40
25.0
 40
26.0
 40
26.0
 40
26.0
 40
27.0
 40
27.0
 40
27.0
 40
28.0
 40
28.0
 40
28.0
 40
29.0
 40
29.0
 40
29.0
 40
30.0
 40
30.0
 40
30.0
 40
31.0
 40
31.0
 40
31.0
 40
32.0
 40
32.0
 40
32.0
 40
33.0
 40
33.0
 40
33.0
 40
34.0
 40
34.0
 40
34.0
 40
35.0
 40
35.0
 40
35.0
 40
36.0
 40
36.0
 40
36.0
 40
37.0
 40
37.0
 40
37.0
 40
38.0
 40
38.0
 40
38.0
 40
39.0
 40
39.0
 40
39.0
 40
40.0
 40
40.0
 40
40.0
 40
41.0
 40
41.0
 40
41.0
 40
42.0
 40
42.0
 40
42.0
 40
43.0
 40
43.0
 40
43.0
 40
44.0
 40
44.0
 40
44.0
 40
45.0
 40
45.0
 40
45.0
 40
46.0
 40
46.0
 40
46.0
 40
47.0
 40
47.0
 40
47.0
 40
48.0
 40
48.0
 40
48.0
 40
49.0
 40
49.0
 40
49.0
 40
50.0
 40
50.0
 40
50.0
 40
51.0
 40
51.0
 40
51.0
 40
52.0
 40
52.0
 40
52.0
 40
53.0
 40
53.0
 40
53.0
 40
54.0
 40
54.0
 40
54.0
 40
55.0
 40
55.0
 40
55.0
 40
56.0
 40
56.0
 40
56.0
 40
57.0
 40
57.0
 40
57.0
 40
58.0
 40
58.0
 40
58.0
 40
59.0
 40
59.0
 40
59.0
 40
60.0
 40
60.0
 40
60.0
 40
60.0
 10
423.6002321947417
 20
534.4578179578211
 30
0.0
 10
423.4854407646871
 20
534.7159188028363
 30
0.0
 10
423.3706493346308
 20
534.9739542396291
 30
0.0
 10
423.2559233127958
 20
535.231989676422
 30
0.0
 10
422.9452342570892
 20
535.9305494900971
 30
0.0
 10
422.6346106096043
 20
536.6290438955493
 30
0.0
 10
422.323921553896
 20
537.3275383010024
 30
0.0
 10
421.8627281787812
 20
538.364651073065
 30
0.0
 10
421.401469395445
 20
539.4017638451278
 30
0.0
 10
420.9402106121086
 20
540.4388112089691
 30
0.0
 10
420.3797929638348
 20
541.698900610696
 30
0.0
 10
419.8193753155591
 20
542.9589900124227
 30
0.0
 10
419.2590230755086
 20
544.2190794141506
 30
0.0
 10
418.6426159889852
 20
545.6049488272729
 30
0.0
 10
418.0262743106831
 20
546.9908182403951
 30
0.0
 10
417.4099326323811
 20
548.3766876535172
 30
0.0
 10
416.7903859511898
 20
549.7698173793096
 30
0.0
 10
416.170773861775
 20
551.1630125133242
 30
0.0
 10
415.5511617723605
 20
552.5561422391165
 30
0.0
 10
414.9733455369678
 20
553.8554765741963
 30
0.0
 10
414.3954638933519
 20
555.1547455010542
 30
0.0
 10
413.8176476579573
 20
556.454079836134
 30
0.0
 10
413.3271513992731
 20
557.5568624633397
 30
0.0
 10
412.836720548812
 20
558.6596450905463
 30
0.0
 10
412.3462896983491
 20
559.7623623095296
 30
0.0
 10
411.9938047886225
 20
560.5549791468056
 30
0.0
 10
411.6413198788941
 20
561.3475305758602
 30
0.0
 10
411.2888349691656
 20
562.1400820049148
 30
0.0
 10
411.1225672681958
 20
562.513889995098
 30
0.0
 10
410.9565612001151
 20
562.8878288017248
 30
0.0
 10
410.7900972744773
 20
563.2615059754633
 30
0.0
 10
410.7829023700286
 20
563.2776618063599
 30
0.0
 10
410.7757074655818
 20
563.2938176372572
 30
0.0
 10
410.7685125611332
 20
563.3099734681536
 30
0.0
 10
410.5968813859381
 20
563.8489372195281
 30
0.0
 10
410.3049644900184
 20
564.3118966166439
 30
0.0
 10
409.8927618733723
 20
564.6988516594992
 30
0.0
 10
409.5907721112235
 20
565.0020187696481
 30
0.0
 10
409.2383526097181
 20
565.2114558973062
 30
0.0
 10
408.8355033688547
 20
565.3270976342509
 30
0.0
 10
408.4456049559974
 20
565.5148846403426
 30
0.0
 10
408.0297394789049
 20
565.5927204248255
 30
0.0
 10
407.5879723458
 20
565.5606049876987
 30
0.0
 10
407.0080630472948
 20
565.5385624167991
 30
0.0
 10
406.4725659316991
 20
565.3734720638293
 30
0.0
 10
405.9816118154595
 20
565.0653339287901
 30
0.0
 10
405.7546452842379
 20
564.8904977507045
 30
0.0
 10
405.5276133447931
 20
564.7157269808412
 30
0.0
 10
405.3006468135698
 20
564.5408908027556
 30
0.0
 10
404.6828661543803
 20
564.0651768023007
 30
0.0
 10
404.065085495189
 20
563.5893973936235
 30
0.0
 10
403.4473702442191
 20
563.1136833931686
 30
0.0
 10
402.5336173793292
 20
562.4100217381583
 30
0.0
 10
401.6198645144377
 20
561.7063600831469
 30
0.0
 10
400.7061116495459
 20
561.0026984281367
 30
0.0
 10
399.5912285012236
 20
560.1440846946052
 30
0.0
 10
398.476279944678
 20
559.2855363692961
 30
0.0
 10
397.3613967963538
 20
558.4269226357655
 30
0.0
 10
396.1400944704237
 20
557.4864178079724
 30
0.0
 10
394.9188575527152
 20
556.5459129801793
 30
0.0
 10
393.697555226785
 20
555.6054081523861
 30
0.0
 10
392.4647410537382
 20
554.6560078063658
 30
0.0
 10
391.2319268806896
 20
553.7066074603463
 30
0.0
 10
389.9990472994214
 20
552.7572071143257
 30
0.0
 10
388.8494977933024
 20
551.8719068261153
 30
0.0
 10
387.699882878962
 20
550.9866065379046
 30
0.0
 10
386.5502679646234
 20
550.1013062496939
 30
0.0
 10
385.5787596394821
 20
549.3531670035499
 30
0.0
 10
384.6071859061177
 20
548.6049623491843
 30
0.0
 10
383.6356775809763
 20
547.8567576948188
 30
0.0
 10
382.9369869508555
 20
547.3187096585552
 30
0.0
 10
382.2382963207365
 20
546.7806616222924
 30
0.0
 10
381.5395402823942
 20
546.2426135860287
 30
0.0
 10
381.2085092695652
 20
545.9876523356824
 30
0.0
 10
380.877085807404
 20
545.733214351113
 30
0.0
 10
380.5464472439089
 20
545.4777952432103
 30
0.0
 10
380.5322536596797
 20
545.4668066618722
 30
0.0
 10
380.5179946672288
 20
545.4558834887555
 30
0.0
 10
380.5038010829994
 20
545.444960315639
 30
0.0
 10
380.4112484485104
 20
545.3908023076128
 30
0.0
 10
380.3379258313616
 20
545.3187878549106
 30
0.0
 10
380.2551190219892
 20
545.255538103991
 30
0.0
 10
380.2135848008584
 20
545.2247308313088
 30
0.0
 10
380.1725084372811
 20
545.1948392737384
 30
0.0
 10
380.1325440134842
 20
545.1621351626116
 30
0.0
 10
380.061118234782
 20
545.1001281679147
 30
0.0
 10
379.9926358260818
 20
545.0354394361056
 30
0.0
 10
379.9293206669408
 20
544.9659104958491
 30
0.0
 10
379.7162206788363
 20
544.7562117353018
 30
0.0
 10
379.5241167300755
 20
544.5260402011898
 30
0.0
 10
379.3914034471218
 20
544.2520451581668
 30
0.0
 10
379.3786488437818
 20
544.2256856445983
 30
0.0
 10
379.371453939335
 20
544.1967098021396
 30
0.0
 10
379.3592226017736
 20
544.1700886556819
 30
0.0
 10
379.2408991277152
 20
543.9539798893547
 30
0.0
 10
379.1450760821116
 20
543.7256397854643
 30
0.0
 10
379.0943193016428
 20
543.4731640475637
 30
0.0
 10
379.0595221274034
 20
543.3469915868354
 30
0.0
 10
379.0554668176246
 20
543.2218656576623
 30
0.0
 10
379.0402921100613
 20
543.0964126873787
 30
0.0
 10
379.0358443509485
 20
543.0635123515858
 30
0.0
 10
379.0296305698339
 20
543.0312006897911
 30
0.0
 10
379.0262293422766
 20
542.9981695375536
 30
0.0
 10
379.0173338240493
 20
542.8873680090545
 30
0.0
 10
379.0156332102706
 20
542.7768281134449
 30
0.0
 10
379.0221086242746
 20
542.6665498507244
 30
0.0
 10
379.0225664818299
 20
542.3633827405764
 30
0.0
 10
379.0524580394012
 20
542.0600848139838
 30
0.0
 10
379.153971600339
 20
541.7648975069505
 30
0.0
 10
379.170258247681
 20
541.7175419540382
 30
0.0
 10
379.1865448950212
 20
541.6701209929042
 30
0.0
 10
379.2028315423631
 20
541.6227654399916
 30
0.0
 10
379.2123157345904
 20
541.5943782715329
 30
0.0
 10
379.2214728857052
 20
541.5658602866304
 30
0.0
 10
379.2320690177112
 20
541.5378001592833
 30
0.0
 10
379.5638849292063
 20
540.5729634728121
 30
0.0
 10
379.8956354324801
 20
539.6081267863401
 30
0.0
 10
380.2274513439753
 20
538.6432246916456
 30
0.0
 10
380.797484000921
 20
536.9856495232798
 30
0.0
 10
381.3675166578652
 20
535.3281397631352
 30
0.0
 10
381.9375493148109
 20
533.6705645947695
 30
0.0
 10
382.0679079017645
 20
533.2914585385842
 30
0.0
 10
382.1982664887163
 20
532.9122870741766
 30
0.0
 10
382.3286904838915
 20
532.5331810179914
 30
0.0
 10
382.4455749770605
 20
532.281097729423
 30
0.0
 10
382.5624594702277
 20
532.0290144408554
 30
0.0
 10
382.6793439633966
 20
531.7769311522879
 30
0.0
 10
382.894340789946
 20
531.4095985761078
 30
0.0
 10
383.1806979869743
 20
531.1187282117442
 30
0.0
 10
383.5384155544833
 20
530.9043854674164
 30
0.0
 10
383.7457596190288
 20
530.7122815186557
 30
0.0
 10
383.9869197344797
 20
530.5828386468147
 30
0.0
 10
384.2616996761699
 20
530.5159914436717
 30
0.0
 10
384.6516634972504
 20
530.3282044375792
 30
0.0
 10
385.0674635661198
 20
530.2503686530963
 30
0.0
 10
385.5092961074479
 20
530.2824840902229
 30
0.0
 10
385.823059349601
 20
530.2824840902229
 30
0.0
 10
386.1368879999773
 20
530.2824840902229
 30
0.0
 10
386.4507166503518
 20
530.2824840902229
 30
0.0
 10
387.3046864001026
 20
530.2824840902229
 30
0.0
 10
388.1586561498534
 20
530.2824840902229
 30
0.0
 10
389.0125604913828
 20
530.2824840902229
 30
0.0
 10
390.2701643806649
 20
530.2824840902229
 30
0.0
 10
391.5277028617238
 20
530.2824840902229
 30
0.0
 10
392.7852413427827
 20
530.2824840902229
 30
0.0
 10
394.3249508946465
 20
530.2824840902229
 30
0.0
 10
395.8645950382888
 20
530.2824840902229
 30
0.0
 10
397.4043045901526
 20
530.2824840902229
 30
0.0
 10
399.0908556009781
 20
530.2824840902229
 30
0.0
 10
400.7774066118034
 20
530.2824840902229
 30
0.0
 10
402.4639576226271
 20
530.2824840902229
 30
0.0
 10
404.1599274174568
 20
530.2824840902229
 30
0.0
 10
405.8558972122863
 20
530.2824840902229
 30
0.0
 10
407.551867007116
 20
530.2824840902229
 30
0.0
 10
409.139062928336
 20
530.2824840902229
 30
0.0
 10
410.7262588495578
 20
530.2824840902229
 30
0.0
 10
412.3134547707776
 20
530.2824840902229
 30
0.0
 10
413.6498755678767
 20
530.2824840902229
 30
0.0
 10
414.9862963649739
 20
530.2824840902229
 30
0.0
 10
416.3227171620729
 20
530.2824840902229
 30
0.0
 10
417.2874884403227
 20
530.2824840902229
 30
0.0
 10
418.2522597185707
 20
530.2824840902229
 30
0.0
 10
419.2170309968205
 20
530.2824840902229
 30
0.0
 10
419.6727954894885
 20
530.2824840902229
 30
0.0
 10
420.1286253903781
 20
530.2793444955549
 30
0.0
 10
420.5843898830462
 20
530.2824840902229
 30
0.0
 10
420.6042739826115
 20
530.2826149066677
 30
0.0
 10
420.6241580821751
 20
530.2824840902229
 30
0.0
 10
420.6440421817404
 20
530.2824840902229
 30
0.0
 10
421.2239514802476
 20
530.3045920693457
 30
0.0
 10
421.7593831876201
 20
530.4696824223156
 30
0.0
 10
422.2503373038597
 20
530.777820557355
 30
0.0
 10
422.6177352882623
 20
530.9928173839043
 30
0.0
 10
422.9086056526266
 20
531.2791091727103
 30
0.0
 10
423.1229483969526
 20
531.6368267402195
 30
0.0
 10
423.3960931330874
 20
531.9570653963763
 30
0.0
 10
423.5750500291741
 20
532.3279300165577
 30
0.0
 10
423.6598844934378
 20
532.7495514172078
 30
0.0
 10
423.7929902257254
 20
533.3242934661557
 30
0.0
 10
423.7731061261602
 20
533.8937374491006
 30
0.0
 10
423.6002321947417
 20
534.4578179578211
 30
0.0
  0
CIRCLE
  5
139
330
70
100
AcDbEntity
  8
0
100
AcDbCircle
 10
383.7911396859927
 20
540.5339703106092
 30
0.0
 40
2.81187320547542
  0
CIRCLE
  5
13A
330
70
100
AcDbEntity
  8
0
100
AcDbCircle
 10
419.5108212844028
 20
534.774498300743
 30
0.0
 40
2.811873205475762
  0
CIRCLE
  5
13B
330
70
100
AcDbEntity
  8
0
100
AcDbCircle
 10
407.1273651760638
 20
561.4745119745126
 30
0.0
 40
2.811873205475535
  0
CIRCLE
  5
13C
330
70
100
AcDbEntity
  8
0
100
AcDbCircle
 10
386.6030128914681
 20
533.4898849624031
 30
0.0
 40
2.81187320547542
  0
CIRCLE
  5
13D
330
70
100
AcDbEntity
  8
0
100
AcDbCircle
 10
387.2072223028063
 20
544.8254596408802
 30
0.0
 40
1.811455577493801
  0
CIRCLE
  5
13E
330
70
100
AcDbEntity
  8
0
100
AcDbCircle
 10
238.6214834538223
 20
701.6039921696402
 30
0.0
 40
2.81187320547542
  0
CIRCLE
  5
13F
330
70
100
AcDbEntity
  8
0
100
AcDbCircle
 10
262.0854307842565
 20
721.1513144187484
 30
0.0
 40
2.81187320547542
  0
SPLINE
  5
140
330
70
100
AcDbEntity
  8
0
100
AcDbSpline
210
0.0
220
0.0
230
1.0
 70
     9
 71
     3
 72
    98
 73
    94
 74
     0
 42
0.000000001
 43
0.0000000001
 40
0.0
 40
0.0
 40
0.0
 40
0.0
 40
1.0
 40
1.0
 40
1.0
 40
2.0
 40
2.0
 40
2.0
 40
3.0
 40
3.0
 40
3.0
 40
4.0
 40
4.0
 40
4.0
 40
5.0
 40
5.0
 40
5.0
 40
6.0
 40
6.0
 40
6.0
 40
7.0
 40
7.0
 40
7.0
 40
8.0
 40
8.0
 40
8.0
 40
9.0
 40
9.0
 40
9.0
 40
10.0
 40
10.0
 40
10.0
 40
11.0
 40
11.0
 40
11.0
 40
12.0
 40
12.0
 40
12.0
 40
13.0
 40
13.0
 40
13.0
 40
14.0
 40
14.0
 40
14.0
 40
15.0
 40
15.0
 40
15.0
 40
16.0
 40
16.0
 40
16.0
 40
17.0
 40
17.0
 40
17.0
 40
18.0
 40
18.0
 40
18.0
 40
19.0
 40
19.0
 40
19.0
 40
20.0
 40
20.0
 40
20.0
 40
21.0
 40
21.0
 40
21.0
 40
22.0
 40
22.0
 40
22.0
 40
23.0
 40
23.0
 40
23.0
 40
24.0
 40
24.0
 40
24.0
 40
25.0
 40
25.0
 40
25.0
 40
26.0
 40
26.0
 40
26.0
 40
27.0
 40
27.0
 40
27.0
 40
28.0
 40
28.0
 40
28.0
 40
29.0
 40
29.0
 40
29.0
 40
30.0
 40
30.0
 40
30.0
 40
31.0
 40
31.0
 40
31.0
 40
31.0
 10
207.9667016988724
 20
738.5913667459434
 30
0.0
 10
208.1380967427049
 20
738.3212783863672
 30
0.0
 10
208.3094917862172
 20
738.0511900265871
 30
0.0
 10
208.4808868298896
 20
737.7811016669075
 30
0.0
 10
208.9472531990223
 20
737.0461905227491
 30
0.0
 10
209.4136195681576
 20
736.3112793785894
 30
0.0
 10
209.8799859372912
 20
735.5763682344294
 30
0.0
 10
210.5670284312364
 20
734.4937104384788
 30
0.0
 10
211.2540709251844
 20
733.4110526425273
 30
0.0
 10
211.9411134191296
 20
732.3283948465777
 30
0.0
 10
212.7789252063567
 20
731.0081512357746
 30
0.0
 10
213.6167369935874
 20
729.6879076249697
 30
0.0
 10
214.4545487808173
 20
728.3676640141647
 30
0.0
 10
215.3721239147289
 20
726.9217274369465
 30
0.0
 10
216.2896990486406
 20
725.4757908597277
 30
0.0
 10
217.2072741825532
 20
724.0298542825085
 30
0.0
 10
218.1366294984254
 20
722.5653542162055
 30
0.0
 10
219.0659848142977
 20
721.1008541499012
 30
0.0
 10
219.99534013017
 20
719.6363540835972
 30
0.0
 10
220.8617936448136
 20
718.2709761619634
 30
0.0
 10
221.7282471594562
 20
716.9055982403297
 30
0.0
 10
222.5947006741007
 20
715.5402203186967
 30
0.0
 10
223.3244035407643
 20
714.3903372994046
 30
0.0
 10
224.0541064074287
 20
713.2404542801114
 30
0.0
 10
224.7838092740922
 20
712.0905712608181
 30
0.0
 10
225.3087783280571
 20
711.2633126211931
 30
0.0
 10
225.8337473820175
 20
710.4360539815697
 30
0.0
 10
226.3587164359815
 20
709.6087953419445
 30
0.0
 10
226.6081585628535
 20
709.215718544401
 30
0.0
 10
226.8527946649665
 20
708.8190581925402
 30
0.0
 10
227.1072696641759
 20
708.4292074775403
 30
0.0
 10
227.1180961862283
 20
708.4126214577898
 30
0.0
 10
227.1285031328662
 20
708.3957472758347
 30
0.0
 10
227.1391163230082
 20
708.3790227600522
 30
0.0
 10
227.3245506007688
 20
708.0868110439488
 30
0.0
 10
227.7441790336243
 20
707.8705649216662
 30
0.0
 10
228.0756175316283
 20
707.8195578926632
 30
0.0
 10
228.4308002246417
 20
707.7648967291787
 30
0.0
 10
228.8841422042024
 20
707.8615697576743
 30
0.0
 10
229.1660794701956
 20
708.0941385242032
 30
0.0
 10
229.4499654866231
 20
708.3283148060901
 30
0.0
 10
229.6842495687397
 20
708.6543544621981
 30
0.0
 10
229.7255443375862
 20
709.0306397328222
 30
0.0
 10
229.7699247944138
 20
709.4350423405593
 30
0.0
 10
229.6692616185592
 20
709.7771026631852
 30
0.0
 10
229.4509637060464
 20
710.1211016713896
 30
0.0
 10
229.2795686622139
 20
710.3911900309667
 30
0.0
 10
229.1081736187007
 20
710.6612783907457
 30
0.0
 10
228.9367785750282
 20
710.9313667504266
 30
0.0
 10
228.4704122058947
 20
711.6662778945865
 30
0.0
 10
228.0040458367612
 20
712.4011890387446
 30
0.0
 10
227.5376794676267
 20
713.1361001829045
 30
0.0
 10
226.8506369736806
 20
714.2187579788551
 30
0.0
 10
226.1635944797363
 20
715.3014157748066
 30
0.0
 10
225.4765519857892
 20
716.3840735707545
 30
0.0
 10
224.6387401985603
 20
717.7043171815594
 30
0.0
 10
223.8009284113305
 20
719.0245607923652
 30
0.0
 10
222.9631166241015
 20
720.3448044031692
 30
0.0
 10
222.045541490189
 20
721.7907409803881
 30
0.0
 10
221.1279663562773
 20
723.2366775576065
 30
0.0
 10
220.2103912223656
 20
724.6826141348247
 30
0.0
 10
219.2810359064933
 20
726.1471142011287
 30
0.0
 10
218.3516805906211
 20
727.6116142674327
 30
0.0
 10
217.422325274747
 20
729.0761143337367
 30
0.0
 10
216.5558717601043
 20
730.4414922553704
 30
0.0
 10
215.6894182454617
 20
731.8068701770025
 30
0.0
 10
214.8229647308172
 20
733.1722480986372
 30
0.0
 10
214.0932618641536
 20
734.3221311179286
 30
0.0
 10
213.3635589974892
 20
735.4720141372228
 30
0.0
 10
212.6338561308257
 20
736.6218971565158
 30
0.0
 10
212.1088870768617
 20
737.4491557961411
 30
0.0
 10
211.5839180228995
 20
738.2764144357643
 30
0.0
 10
211.0589489689364
 20
739.1036730753894
 30
0.0
 10
210.8095068420644
 20
739.4967498729329
 30
0.0
 10
210.5648707399505
 20
739.893410224794
 30
0.0
 10
210.310395740742
 20
740.2832609397936
 30
0.0
 10
210.2995692186905
 20
740.299846959544
 30
0.0
 10
210.2891622720517
 20
740.3167211415002
 30
0.0
 10
210.2785490819087
 20
740.3334456572812
 30
0.0
 10
210.0931148041472
 20
740.6256573733854
 30
0.0
 10
209.6734863712927
 20
740.8419034956676
 30
0.0
 10
209.3420478732896
 20
740.8929105246707
 30
0.0
 10
208.9868651802762
 20
740.9475716881551
 30
0.0
 10
208.5335232007137
 20
740.8508986596587
 30
0.0
 10
208.2515859347213
 20
740.618329893131
 30
0.0
 10
207.9676999182948
 20
740.384153611245
 30
0.0
 10
207.7334158361782
 20
740.0581139551348
 30
0.0
 10
207.6921210673317
 20
739.6818286845127
 30
0.0
 10
207.647740610505
 20
739.2774260767746
 30
0.0
 10
207.7484037863587
 20
738.9353657541505
 30
0.0
 10
207.9667016988724
 20
738.5913667459434
 30
0.0
 10
207.9667016988724
 20
738.5913667459434
 30
0.0
 10
207.9667016988724
 20
738.5913667459434
 30
0.0
 10
207.9667016988724
 20
738.5913667459434
 30
0.0
  0
CIRCLE
  5
141
330
70
100
AcDbEntity
  8
0
100
AcDbCircle
 10
218.7088327024594
 20
724.356234208667
 30
0.0
 40
2.81187320547542
  0
SPLINE
  5
142
330
70
100
AcDbEntity
  8
0
100
AcDbSpline
210
0.0
220
0.0
230
1.0
 70
    11
 71
     3
 72
    35
 73
    31
 74
     0
 42
0.000000001
 43
0.0000000001
 40
0.0
 40
0.0
 40
0.0
 40
0.0
 40
1.0
 40
1.0
 40
1.0
 40
2.0
 40
2.0
 40
2.0
 40
3.0
 40
3.0
 40
3.0
 40
4.0
 40
4.0
 40
4.0
 40
5.0
 40
5.0
 40
5.0
 40
6.0
 40
6.0
 40
6.0
 40
7.0
 40
7.0
 40
7.0
 40
8.0
 40
8.0
 40
8.0
 40
9.0
 40
9.0
 40
9.0
 40
10.0
 40
10.0
 40
10.0
 40
10.0
 10
158.8163400900821
 20
637.7156554130797
 30
0.0
 10
158.8163400900821
 20
637.7156554130797
 30
0.0
 10
218.1138743874644
 20
632.3982546825582
 30
0.0
 10
218.1138743874644
 20
632.3982546825582
 30
0.0
 10
213.7016516942122
 20
679.6028612881719
 30
0.0
 10
180.7917911630775
 20
699.4924226573047
 30
0.0
 10
180.7917911630775
 20
699.4924226573047
 30
0.0
 10
180.7917911630775
 20
699.4924226573047
 30
0.0
 10
181.0029142500652
 20
701.9361829804919
 30
0.0
 10
181.0029142500652
 20
701.9361829804919
 30
0.0
 10
181.0029142500652
 20
701.9361829804919
 30
0.0
 10
163.9305370045449
 20
703.5423191815935
 30
0.0
 10
163.9305370045449
 20
703.5423191815935
 30
0.0
 10
163.9305370045449
 20
703.5423191815935
 30
0.0
 10
162.3950976351471
 20
703.6811151679231
 30
0.0
 10
162.3950976351471
 20
703.6811151679231
 30
0.0
 10
162.3950976351471
 20
703.6811151679231
 30
0.0
 10
145.5380211051388
 20
705.1428652370778
 30
0.0
 10
145.5380211051388
 20
705.1428652370778
 30
0.0
 10
145.5380211051388
 20
705.1428652370778
 30
0.0
 10
145.0809189647107
 20
702.7205056608181
 30
0.0
 10
145.0809189647107
 20
702.7205056608181
 30
0.0
 10
145.0809189647107
 20
702.7205056608181
 30
0.0
 10
109.1378406117292
 20
689.0549032172128
 30
0.0
 10
96.33219201961129
 20
643.4067054650495
 30
0.0
 10
96.33219201961129
 20
643.4067054650495
 30
0.0
 10
155.6220516280582
 20
638.0044030032677
 30
0.0
 10
155.6220516280582
 20
638.0044030032677
 30
0.0
 10
155.6220516280582
 20
638.0044030032677
 30
0.0
 10
158.8163400900821
 20
637.7156554130797
 30
0.0
 10
158.8163400900821
 20
637.7156554130797
 30
0.0
  0
LINE
  5
144
330
70
100
AcDbEntity
  8
0
100
AcDbLine
 10
475.403705558967
 20
766.3949483124351
 30
0.0
 11
475.403705558967
 21
139.675962129857
 31
0.0
  0
LINE
  5
145
330
70
100
AcDbEntity
  8
0
100
AcDbLine
 10
98.47125313383733
 20
97.41117756490714
 30
0.0
 11
253.8126713009851
 21
97.41117756490714
 31
0.0
  0
LINE
  5
146
330
70
100
AcDbEntity
  8
0
100
AcDbLine
 10
283.3824903595605
 20
139.675962129857
 30
0.0
 11
300.6484841645506
 21
162.8582709911988
 31
0.0
  0
LINE
  5
147
330
70
100
AcDbEntity
  8
0
100
AcDbLine
 10
88.23247918447668
 20
755.0177394315287
 30
0.0
 11
88.23247918447668
 21
641.5694706581169
 31
0.0
  0
MTEXT
  5
1EA
330
70
100
AcDbEntity
  8
0
100
AcDbMText
 10
-19.87552803694254
 20
717.8155736930416
 30
0.0
 40
16.0
 41
135.8050212204645
 46
0.0
 71
     1
 72
     5
  1
160 mm
 73
     1
 44
1.0
1001
ACAD
1000
ACAD_MTEXT_COLUMN_INFO_BEGIN
1070
    75
1070
     2
1070
    79
1070
     0
1070
    76
1070
     1
1070
    78
1070
     0
1070
    48
1040
135.8050212204645
1070
    49
1040
80.0
1070
    50
1070
     1
1040
0.0
1000
ACAD_MTEXT_COLUMN_INFO_END
  0
MTEXT
  5
1F2
330
70
100
AcDbEntity
  8
0
100
AcDbMText
 10
511.5421789045403
 20
413.9821621298137
 30
0.0
 40
16.0
 41
135.8050212204645
 46
0.0
 71
     1
 72
     5
  1
1600 mm
 73
     1
 44
1.0
1001
ACAD
1000
ACAD_MTEXT_COLUMN_INFO_BEGIN
1070
    75
1070
     2
1070
    79
1070
     0
1070
    76
1070
     1
1070
    78
1070
     0
1070
    48
1040
135.8050212204645
1070
    49
1040
80.0
1070
    50
1070
     1
1040
0.0
1000
ACAD_MTEXT_COLUMN_INFO_END
  0
MTEXT
  5
1F8
330
70
100
AcDbEntity
  8
0
100
AcDbMText
 10
308.5381735392257
 20
154.1866185540802
 30
0.0
 40
16.0
 41
135.8050212204645
 46
0.0
 71
     1
 72
     5
  1
700 mm
 73
     1
 44
1.0
1001
ACAD
1000
ACAD_MTEXT_COLUMN_INFO_BEGIN
1070
    75
1070
     2
1070
    79
1070
     0
1070
    76
1070
     1
1070
    78
1070
     0
1070
    48
1040
135.8050212204645
1070
    49
1040
80.0
1070
    50
1070
     1
1040
0.0
1000
ACAD_MTEXT_COLUMN_INFO_END
  0
MTEXT
  5
1FE
330
70
100
AcDbEntity
  8
0
100
AcDbMText
 10
132.0757143215677
 20
89.86039597867369
 30
0.0
 40
16.0
 41
135.8050212204645
 46
0.0
 71
     1
 72
     5
  1
280 mm
 73
     1
 44
1.0
1001
ACAD
1000
ACAD_MTEXT_COLUMN_INFO_BEGIN
1070
    75
1070
     2
1070
    79
1070
     0
1070
    76
1070
     1
1070
    78
1070
     0
1070
    48
1040
135.8050212204645
1070
    49
1040
80.0
1070
    50
1070
     1
1040
0.0
1000
ACAD_MTEXT_COLUMN_INFO_END
  0
ENDSEC
  0
SECTION
  2
OBJECTS
  0
DICTIONARY
  5
C
330
0
100
AcDbDictionary
281
     1
  3
ACAD_CIP_PREVIOUS_PRODUCT_INFO
350
1DE
  3
ACAD_COLOR
350
63
  3
ACAD_DETAILVIEWSTYLE
350
6A
  3
ACAD_GROUP
350
D
  3
ACAD_IMAGE_DICT
350
79
  3
ACAD_LAYOUT
350
62
  3
ACAD_MATERIAL
350
10
  3
ACAD_MLEADERSTYLE
350
66
  3
ACAD_MLINESTYLE
350
5F
  3
ACAD_PLOTSETTINGS
350
61
  3
ACAD_PLOTSTYLENAME
350
E
  3
ACAD_SCALELIST
350
42
  3
ACAD_SECTIONVIEWSTYLE
350
68
  3
ACAD_TABLESTYLE
350
64
  3
ACAD_VISUALSTYLE
350
29
  3
ACDB_RECOMPOSE_DATA
350
23A
  3
AcDbVariableDictionary
350
19B
  0
DICTIONARY
  5
1E2
330
2
100
AcDbDictionary
280
     1
281
     1
  3
ACAD_LAYERSTATES
360
1E3
  0
XRECORD
  5
1DE
102
{ACAD_REACTORS
330
C
102
}
330
C
100
AcDbXrecord
280
     1
300
ACD
300
2019
300
ACD_F_S
  0
DICTIONARY
  5
63
102
{ACAD_REACTORS
330
C
102
}
330
C
100
AcDbDictionary
281
     1
  0
DICTIONARY
  5
6A
102
{ACAD_REACTORS
330
C
102
}
330
C
100
AcDbDictionary
281
     1
  3
Imperial24
350
6B
  0
DICTIONARY
  5
D
102
{ACAD_REACTORS
330
C
102
}
330
C
100
AcDbDictionary
281
     1
  0
DICTIONARY
  5
79
102
{ACAD_REACTORS
330
C
102
}
330
C
100
AcDbDictionary
281
     1
  3
WALLY PT1 bianco nero_1.png
350
7A
  0
DICTIONARY
  5
62
102
{ACAD_REACTORS
330
C
102
}
330
C
100
AcDbDictionary
281
     1
  3
Layout1
350
6F
  3
Layout2
350
77
  3
Model
350
73
  0
DICTIONARY
  5
10
102
{ACAD_REACTORS
330
C
102
}
330
C
100
AcDbDictionary
281
     1
  3
ByBlock
350
19
  3
ByLayer
350
11
  3
Global
350
21
  0
DICTIONARY
  5
66
102
{ACAD_REACTORS
330
C
102
}
330
C
100
AcDbDictionary
281
     1
  3
Standard
350
67
  0
DICTIONARY
  5
5F
102
{ACAD_REACTORS
330
C
102
}
330
C
100
AcDbDictionary
281
     1
  3
Standard
350
60
  0
DICTIONARY
  5
61
102
{ACAD_REACTORS
330
C
102
}
330
C
100
AcDbDictionary
281
     1
  0
ACDBDICTIONARYWDFLT
  5
E
102
{ACAD_REACTORS
330
C
102
}
330
C
100
AcDbDictionary
281
     1
  3
Normal
350
F
100
AcDbDictionaryWithDefault
340
F
  0
DICTIONARY
  5
42
102
{ACAD_REACTORS
330
C
102
}
330
C
100
AcDbDictionary
281
     1
  3
A0
350
43
  3
A1
350
44
  3
A2
350
45
  3
A3
350
46
  3
A4
350
47
  3
A5
350
48
  3
A6
350
49
  3
A7
350
4A
  3
A8
350
4B
  3
A9
350
4C
  3
B0
350
4D
  3
B1
350
4E
  3
B2
350
4F
  3
B3
350
50
  3
B4
350
51
  3
B5
350
52
  3
B6
350
53
  0
DICTIONARY
  5
68
102
{ACAD_REACTORS
330
C
102
}
330
C
100
AcDbDictionary
281
     1
  3
Imperial24
350
69
  0
DICTIONARY
  5
64
102
{ACAD_REACTORS
330
C
102
}
330
C
100
AcDbDictionary
281
     1
  3
Standard
350
65
  0
DICTIONARY
  5
29
102
{ACAD_REACTORS
330
C
102
}
330
C
100
AcDbDictionary
281
     1
  3
2dWireframe
350
2F
  3
Basic
350
2E
  3
Brighten
350
35
  3
ColorChange
350
39
  3
Conceptual
350
32
  3
Dim
350
34
  3
EdgeColorOff
350
41
  3
Facepattern
350
38
  3
Flat
350
2A
  3
FlatWithEdges
350
2B
  3
Gouraud
350
2C
  3
GouraudWithEdges
350
2D
  3
Hidden
350
31
  3
JitterOff
350
3F
  3
Linepattern
350
37
  3
OverhangOff
350
40
  3
Realistic
350
33
  3
Shaded
350
3E
  3
Shaded with edges
350
3D
  3
Shades of Gray
350
3A
  3
Sketchy
350
3B
  3
Thicken
350
36
  3
Wireframe
350
30
  3
X-Ray
350
3C
  0
XRECORD
  5
23A
102
{ACAD_REACTORS
330
C
102
}
330
C
100
AcDbXrecord
280
     1
 90
        1
330
65
330
1EA
330
1F2
330
1F8
330
1FE
  0
DICTIONARY
  5
19B
102
{ACAD_REACTORS
330
C
102
}
330
C
100
AcDbDictionary
281
     1
  3
CANNOSCALE
350
1A0
  3
CMLEADERSTYLE
350
19D
  3
CTABLESTYLE
350
19C
  3
CVIEWDETAILSTYLE
350
19E
  3
CVIEWSECTIONSTYLE
350
19F
  3
XCLIPFRAME
350
1FF
  0
DICTIONARY
  5
1E3
102
{ACAD_REACTORS
330
1E2
102
}
330
1E2
100
AcDbDictionary
281
     1
  0
ACDBDETAILVIEWSTYLE
  5
6B
102
{ACAD_XDICTIONARY
360
270
102
}
102
{ACAD_REACTORS
330
6A
102
}
330
6A
100
AcDbModelDocViewStyle
 70
     0
  3
Imperial24
290
     0
100
AcDbDetailViewStyle
 70
     0
 71
     0
 90
        3
 71
     1
340
55
 62
   256
 40
0.24
340
0
 62
   256
 40
0.24
300

 40
0.36
280
     3
 71
     2
340
5D
 90
       25
 62
   256
 71
     3
340
55
 62
   256
 40
0.24
 90
        1
 40
0.75
 90
        1
300
%<\AcVar ViewType \f "%tc1">% %<\AcVar ViewDetailId>%\PSCALE %<\AcVar ViewScale \f "%sn">%
 71
     4
340
5D
 90
       25
 62
   256
340
5D
 90
       25
 62
   256
280
     0
  0
IMAGEDEF
  5
7A
102
{ACAD_REACTORS
330
79
102
}
330
79
100
AcDbRasterImageDef
 90
        0
  1
C:\Users\ufficio.tecnico\Desktop\CARLOTTA\2D ILLUSTRATOR-CAD\FILE AUTOCAD\WALLY PT1 bianco nero_1.png
 10
1036.0
 20
1562.0
 11
0.3527336860670194
 21
0.3527336860670194
280
     1
281
     2
  0
LAYOUT
  5
6F
102
{ACAD_REACTORS
330
62
102
}
330
62
100
AcDbPlotSettings
  1

  2

  4

  6

 40
0.0
 41
0.0
 42
0.0
 43
0.0
 44
0.0
 45
0.0
 46
0.0
 47
0.0
 48
0.0
 49
0.0
140
0.0
141
0.0
142
1.0
143
1.0
 70
   688
 72
     0
 73
     0
 74
     5
  7

 75
    16
147
1.0
 76
     0
 77
     2
 78
   300
148
0.0
149
0.0
100
AcDbLayout
  1
Layout1
 70
     1
 71
     1
 10
0.0
 20
0.0
 11
12.0
 21
9.0
 12
0.0
 22
0.0
 32
0.0
 14
1.000000000000000E+20
 24
1.000000000000000E+20
 34
1.000000000000000E+20
 15
-1.000000000000000E+20
 25
-1.000000000000000E+20
 35
-1.000000000000000E+20
146
0.0
 13
0.0
 23
0.0
 33
0.0
 16
1.0
 26
0.0
 36
0.0
 17
0.0
 27
1.0
 37
0.0
 76
     0
330
6C
  0
LAYOUT
  5
77
102
{ACAD_REACTORS
330
62
102
}
330
62
100
AcDbPlotSettings
  1

  2

  4

  6

 40
0.0
 41
0.0
 42
0.0
 43
0.0
 44
0.0
 45
0.0
 46
0.0
 47
0.0
 48
0.0
 49
0.0
140
0.0
141
0.0
142
1.0
143
1.0
 70
   688
 72
     0
 73
     0
 74
     5
  7

 75
    16
147
1.0
 76
     0
 77
     2
 78
   300
148
0.0
149
0.0
100
AcDbLayout
  1
Layout2
 70
     1
 71
     2
 10
0.0
 20
0.0
 11
12.0
 21
9.0
 12
0.0
 22
0.0
 32
0.0
 14
0.0
 24
0.0
 34
0.0
 15
0.0
 25
0.0
 35
0.0
146
0.0
 13
0.0
 23
0.0
 33
0.0
 16
1.0
 26
0.0
 36
0.0
 17
0.0
 27
1.0
 37
0.0
 76
     0
330
74
  0
LAYOUT
  5
73
102
{ACAD_REACTORS
330
62
102
}
330
62
100
AcDbPlotSettings
  1

  2
Adobe PDF
  4
A4
  6

 40
3.174999952316284
 41
3.174999952316284
 42
3.175003051757812
 43
3.17498779296875
 44
209.9733276367187
 45
297.0318298339844
 46
0.0
 47
0.0
 48
0.0
 49
0.0
140
0.0
141
0.0
142
1.0
143
504.3687988331181
 70
 11952
 72
     0
 73
     1
 74
     0
  7

 75
     0
147
0.0019826761732953
 76
     0
 77
     2
 78
   300
148
77760.28696760934
149
21852.71647797188
100
AcDbLayout
  1
Model
 70
     1
 71
     0
 10
0.0
 20
0.0
 11
12.0
 21
9.0
 12
0.0
 22
0.0
 32
0.0
 14
0.0
 24
0.0
 34
0.0
 15
0.0
 25
0.0
 35
0.0
146
0.0
 13
0.0
 23
0.0
 33
0.0
 16
1.0
 26
0.0
 36
0.0
 17
0.0
 27
1.0
 37
0.0
 76
     0
330
70
331
57
1001
ACAD_PSEXT
1000
Adobe PDF
1000
Adobe PDF Converter
1000
Documents\*.pdf
1000

1070
     0
  0
MATERIAL
  5
19
102
{ACAD_XDICTIONARY
360
1A
102
}
102
{ACAD_REACTORS
330
10
102
}
330
10
100
AcDbMaterial
  1
ByBlock
 72
     0
 43
0.0208333333333333
 43
0.0
 43
0.0
 43
0.0
 43
0.0
 43
0.0208333333333333
 43
0.0
 43
0.0
 43
0.0
 43
0.0
 43
1.0
 43
0.0
 43
0.0
 43
0.0
 43
0.0
 43
1.0
 77
     0
 47
0.0208333333333333
 47
0.0
 47
0.0
 47
0.0
 47
0.0
 47
0.0208333333333333
 47
0.0
 47
0.0
 47
0.0
 47
0.0
 47
1.0
 47
0.0
 47
0.0
 47
0.0
 47
0.0
 47
1.0
171
     0
 49
0.0208333333333333
 49
0.0
 49
0.0
 49
0.0
 49
0.0
 49
0.0208333333333333
 49
0.0
 49
0.0
 49
0.0
 49
0.0
 49
1.0
 49
0.0
 49
0.0
 49
0.0
 49
0.0
 49
1.0
175
     0
142
0.0208333333333333
142
0.0
142
0.0
142
0.0
142
0.0
142
0.0208333333333333
142
0.0
142
0.0
142
0.0
142
0.0
142
1.0
142
0.0
142
0.0
142
0.0
142
0.0
142
1.0
179
     0
144
0.0208333333333333
144
0.0
144
0.0
144
0.0
144
0.0
144
0.0208333333333333
144
0.0
144
0.0
144
0.0
144
0.0
144
1.0
144
0.0
144
0.0
144
0.0
144
0.0
144
1.0
147
0.0208333333333333
147
0.0
147
0.0
147
0.0
147
0.0
147
0.0208333333333333
147
0.0
147
0.0
147
0.0
147
0.0
147
1.0
147
0.0
147
0.0
147
0.0
147
0.0
147
1.0
  0
MATERIAL
  5
11
102
{ACAD_XDICTIONARY
360
12
102
}
102
{ACAD_REACTORS
330
10
102
}
330
10
100
AcDbMaterial
  1
ByLayer
 72
     0
 43
0.0208333333333333
 43
0.0
 43
0.0
 43
0.0
 43
0.0
 43
0.0208333333333333
 43
0.0
 43
0.0
 43
0.0
 43
0.0
 43
1.0
 43
0.0
 43
0.0
 43
0.0
 43
0.0
 43
1.0
 77
     0
 47
0.0208333333333333
 47
0.0
 47
0.0
 47
0.0
 47
0.0
 47
0.0208333333333333
 47
0.0
 47
0.0
 47
0.0
 47
0.0
 47
1.0
 47
0.0
 47
0.0
 47
0.0
 47
0.0
 47
1.0
171
     0
 49
0.0208333333333333
 49
0.0
 49
0.0
 49
0.0
 49
0.0
 49
0.0208333333333333
 49
0.0
 49
0.0
 49
0.0
 49
0.0
 49
1.0
 49
0.0
 49
0.0
 49
0.0
 49
0.0
 49
1.0
175
     0
142
0.0208333333333333
142
0.0
142
0.0
142
0.0
142
0.0
142
0.0208333333333333
142
0.0
142
0.0
142
0.0
142
0.0
142
1.0
142
0.0
142
0.0
142
0.0
142
0.0
142
1.0
179
     0
144
0.0208333333333333
144
0.0
144
0.0
144
0.0
144
0.0
144
0.0208333333333333
144
0.0
144
0.0
144
0.0
144
0.0
144
1.0
144
0.0
144
0.0
144
0.0
144
0.0
144
1.0
147
0.0208333333333333
147
0.0
147
0.0
147
0.0
147
0.0
147
0.0208333333333333
147
0.0
147
0.0
147
0.0
147
0.0
147
1.0
147
0.0
147
0.0
147
0.0
147
0.0
147
1.0
  0
MATERIAL
  5
21
102
{ACAD_XDICTIONARY
360
22
102
}
102
{ACAD_REACTORS
330
10
102
}
330
10
100
AcDbMaterial
  1
Global
 72
     0
 43
0.0208333333333333
 43
0.0
 43
0.0
 43
0.0
 43
0.0
 43
0.0208333333333333
 43
0.0
 43
0.0
 43
0.0
 43
0.0
 43
1.0
 43
0.0
 43
0.0
 43
0.0
 43
0.0
 43
1.0
 77
     0
 47
0.0208333333333333
 47
0.0
 47
0.0
 47
0.0
 47
0.0
 47
0.0208333333333333
 47
0.0
 47
0.0
 47
0.0
 47
0.0
 47
1.0
 47
0.0
 47
0.0
 47
0.0
 47
0.0
 47
1.0
171
     0
 49
0.0208333333333333
 49
0.0
 49
0.0
 49
0.0
 49
0.0
 49
0.0208333333333333
 49
0.0
 49
0.0
 49
0.0
 49
0.0
 49
1.0
 49
0.0
 49
0.0
 49
0.0
 49
0.0
 49
1.0
175
     0
142
0.0208333333333333
142
0.0
142
0.0
142
0.0
142
0.0
142
0.0208333333333333
142
0.0
142
0.0
142
0.0
142
0.0
142
1.0
142
0.0
142
0.0
142
0.0
142
0.0
142
1.0
179
     0
144
0.0208333333333333
144
0.0
144
0.0
144
0.0
144
0.0
144
0.0208333333333333
144
0.0
144
0.0
144
0.0
144
0.0
144
1.0
144
0.0
144
0.0
144
0.0
144
0.0
144
1.0
147
0.0208333333333333
147
0.0
147
0.0
147
0.0
147
0.0
147
0.0208333333333333
147
0.0
147
0.0
147
0.0
147
0.0
147
1.0
147
0.0
147
0.0
147
0.0
147
0.0
147
1.0
  0
MLEADERSTYLE
  5
67
102
{ACAD_XDICTIONARY
360
26C
102
}
102
{ACAD_REACTORS
330
66
102
}
330
66
100
AcDbMLeaderStyle
170
     2
171
     1
172
     0
 90
        2
 40
0.0
 41
0.0
173
     1
 91
-1056964608
340
5B
 92
       -2
290
     1
 42
0.09
291
     1
 43
0.36
  3
Standard
 44
0.18
300

342
55
174
     1
178
     6
175
     1
176
     0
 93
-1056964608
 45
0.18
292
     0
297
     0
 46
0.18
 94
-1056964608
 47
1.0
 49
1.0
140
1.0
293
     1
141
0.0
294
     1
177
     0
142
1.0
295
     0
296
     0
143
0.125
1001
ACAD_MLEADERVER
1070
     2
  0
MLINESTYLE
  5
60
102
{ACAD_REACTORS
330
5F
102
}
330
5F
100
AcDbMlineStyle
  2
STANDARD
 70
     0
  3

 62
   256
 51
90.0
 52
90.0
 71
     2
 49
0.5
 62
   256
  6
BYLAYER
 49
-0.5
 62
   256
  6
BYLAYER
  0
ACDBPLACEHOLDER
  5
F
102
{ACAD_REACTORS
330
E
102
}
330
E
  0
SCALE
  5
43
102
{ACAD_REACTORS
330
42
102
}
330
42
100
AcDbScale
 70
     0
300
1:1
140
1.0
141
1.0
290
     1
  0
SCALE
  5
44
102
{ACAD_REACTORS
330
42
102
}
330
42
100
AcDbScale
 70
     0
300
1/128" = 1'-0"
140
0.0078125
141
12.0
290
     0
  0
SCALE
  5
45
102
{ACAD_REACTORS
330
42
102
}
330
42
100
AcDbScale
 70
     0
300
1/64" = 1'-0"
140
0.015625
141
12.0
290
     0
  0
SCALE
  5
46
102
{ACAD_REACTORS
330
42
102
}
330
42
100
AcDbScale
 70
     0
300
1/32" = 1'-0"
140
0.03125
141
12.0
290
     0
  0
SCALE
  5
47
102
{ACAD_REACTORS
330
42
102
}
330
42
100
AcDbScale
 70
     0
300
1/16" = 1'-0"
140
0.0625
141
12.0
290
     0
  0
SCALE
  5
48
102
{ACAD_REACTORS
330
42
102
}
330
42
100
AcDbScale
 70
     0
300
3/32" = 1'-0"
140
0.09375
141
12.0
290
     0
  0
SCALE
  5
49
102
{ACAD_REACTORS
330
42
102
}
330
42
100
AcDbScale
 70
     0
300
1/8" = 1'-0"
140
0.125
141
12.0
290
     0
  0
SCALE
  5
4A
102
{ACAD_REACTORS
330
42
102
}
330
42
100
AcDbScale
 70
     0
300
3/16" = 1'-0"
140
0.1875
141
12.0
290
     0
  0
SCALE
  5
4B
102
{ACAD_REACTORS
330
42
102
}
330
42
100
AcDbScale
 70
     0
300
1/4" = 1'-0"
140
0.25
141
12.0
290
     0
  0
SCALE
  5
4C
102
{ACAD_REACTORS
330
42
102
}
330
42
100
AcDbScale
 70
     0
300
3/8" = 1'-0"
140
0.375
141
12.0
290
     0
  0
SCALE
  5
4D
102
{ACAD_REACTORS
330
42
102
}
330
42
100
AcDbScale
 70
     0
300
1/2" = 1'-0"
140
0.5
141
12.0
290
     0
  0
SCALE
  5
4E
102
{ACAD_REACTORS
330
42
102
}
330
42
100
AcDbScale
 70
     0
300
3/4" = 1'-0"
140
0.75
141
12.0
290
     0
  0
SCALE
  5
4F
102
{ACAD_REACTORS
330
42
102
}
330
42
100
AcDbScale
 70
     0
300
1" = 1'-0"
140
1.0
141
12.0
290
     0
  0
SCALE
  5
50
102
{ACAD_REACTORS
330
42
102
}
330
42
100
AcDbScale
 70
     0
300
1-1/2" = 1'-0"
140
1.5
141
12.0
290
     0
  0
SCALE
  5
51
102
{ACAD_REACTORS
330
42
102
}
330
42
100
AcDbScale
 70
     0
300
3" = 1'-0"
140
3.0
141
12.0
290
     0
  0
SCALE
  5
52
102
{ACAD_REACTORS
330
42
102
}
330
42
100
AcDbScale
 70
     0
300
6" = 1'-0"
140
6.0
141
12.0
290
     0
  0
SCALE
  5
53
102
{ACAD_REACTORS
330
42
102
}
330
42
100
AcDbScale
 70
     0
300
1'-0" = 1'-0"
140
12.0
141
12.0
290
     0
  0
ACDBSECTIONVIEWSTYLE
  5
69
102
{ACAD_XDICTIONARY
360
26E
102
}
102
{ACAD_REACTORS
330
68
102
}
330
68
100
AcDbModelDocViewStyle
 70
     0
  3
Imperial24
290
     0
100
AcDbSectionViewStyle
 70
     0
 71
     0
 90
       78
 71
     1
340
55
 62
   256
 40
0.24
340
0
340
0
 62
   256
 40
0.24
300
I, O, Q, S, X, Z
 40
0.48
 90
        3
 40
0.18
 90
        1
 71
     2
340
5D
 90
       25
 62
   256
340
5D
 90
       50
 62
   256
 40
0.24
 40
0.0
 40
0.24
 71
     3
340
55
 62
   256
 40
0.24
 90
        1
 40
0.75
 90
        1
300
%<\AcVar ViewType \f "%tc1">% %<\AcVar ViewSectionStartId>%-%<\AcVar ViewSectionEndId>%\PSCALE %<\AcVar ViewScale \f "%sn">%
 71
     4
 62
   256
 62
   257
300
ANSI31
 40
1.0
 90
        0
290
     0
290
     0
 90
        6
 40
0.0
 40
1.570796326794896
 40
0.2617993877991494
 40
1.308996938995747
 40
-0.2617993877991494
 40
1.832595714594045
  0
TABLESTYLE
  5
65
102
{ACAD_XDICTIONARY
360
1A1
102
}
102
{ACAD_REACTORS
330
64
102
}
330
64
100
AcDbTableStyle
  3
Standard
 70
     0
 71
     0
 40
0.06
 41
0.06
280
     0
281
     0
  7
Standard
140
0.18
170
     2
 62
     0
 63
     7
283
     0
 90
      512
 91
        0
  1

274
    -2
284
     1
 64
     0
275
    -2
285
     1
 65
     0
276
    -2
286
     1
 66
     0
277
    -2
287
     1
 67
     0
278
    -2
288
     1
 68
     0
279
    -2
289
     1
 69
     0
  7
Standard
140
0.25
170
     5
 62
     0
 63
     7
283
     0
 90
      512
 91
        0
  1

274
    -2
284
     1
 64
     0
275
    -2
285
     1
 65
     0
276
    -2
286
     1
 66
     0
277
    -2
287
     1
 67
     0
278
    -2
288
     1
 68
     0
279
    -2
289
     1
 69
     0
  7
Standard
140
0.18
170
     5
 62
     0
 63
     7
283
     0
 90
      512
 91
        0
  1

274
    -2
284
     1
 64
     0
275
    -2
285
     1
 65
     0
276
    -2
286
     1
 66
     0
277
    -2
287
     1
 67
     0
278
    -2
288
     1
 68
     0
279
    -2
289
     1
 69
     0
  0
VISUALSTYLE
  5
2F
102
{ACAD_XDICTIONARY
360
245
102
}
102
{ACAD_REACTORS
330
29
102
}
330
29
100
AcDbVisualStyle
  2
2dWireframe
 70
     4
 71
     0
 72
     2
 73
     0
 90
        0
 40
-0.6
 41
-30.0
 62
     5
 63
     7
421
 16777215
 74
     1
 91
        4
 64
     7
 65
   257
 75
     1
175
     1
 42
1.0
 92
        0
 66
   257
 43
1.0
 76
     1
 77
     6
 78
     2
 67
     7
 79
     5
170
     0
171
     0
290
     0
174
     0
 93
        1
 44
0.0
173
     0
291
     0
 45
0.0
1001
ACAD
1000
AcDbSavedByObjectVersion
1070
     0
  0
VISUALSTYLE
  5
2E
102
{ACAD_XDICTIONARY
360
243
102
}
102
{ACAD_REACTORS
330
29
102
}
330
29
100
AcDbVisualStyle
  2
Basic
 70
     7
 71
     1
 72
     0
 73
     1
 90
        0
 40
-0.6
 41
-30.0
 62
     5
 63
     7
421
 16777215
 74
     0
 91
        4
 64
     7
 65
   257
 75
     1
175
     1
 42
1.0
 92
        8
 66
     7
 43
1.0
 76
     1
 77
     6
 78
     2
 67
     7
 79
     5
170
     0
171
     0
290
     0
174
     0
 93
        1
 44
0.0
173
     0
291
     1
 45
0.0
1001
ACAD
1000
AcDbSavedByObjectVersion
1070
     0
  0
VISUALSTYLE
  5
35
102
{ACAD_XDICTIONARY
360
251
102
}
102
{ACAD_REACTORS
330
29
102
}
330
29
100
AcDbVisualStyle
  2
Brighten
 70
    12
 71
     2
 72
     2
 73
     0
 90
        0
 40
-0.6
 41
-30.0
 62
     5
 63
     7
421
 16777215
 74
     1
 91
        4
 64
     7
 65
   257
 75
     1
175
     1
 42
1.0
 92
        8
 66
     7
 43
1.0
 76
     1
 77
     6
 78
     2
 67
     7
 79
     5
170
     0
171
     0
290
     0
174
     0
 93
        1
 44
50.0
173
     0
291
     1
 45
0.0
1001
ACAD
1000
AcDbSavedByObjectVersion
1070
     0
  0
VISUALSTYLE
  5
39
102
{ACAD_XDICTIONARY
360
259
102
}
102
{ACAD_REACTORS
330
29
102
}
330
29
100
AcDbVisualStyle
  2
ColorChange
 70
    16
 71
     2
 72
     2
 73
     3
 90
        0
 40
-0.6
 41
-30.0
 62
     5
 63
     8
421
  8421504
 74
     1
 91
        4
 64
     7
 65
   257
 75
     1
175
     1
 42
1.0
 92
        8
 66
     8
424
  8421504
 43
1.0
 76
     1
 77
     6
 78
     2
 67
     7
 79
     5
170
     0
171
     0
290
     0
174
     0
 93
        1
 44
0.0
173
     0
291
     1
 45
0.0
1001
ACAD
1000
AcDbSavedByObjectVersion
1070
     0
  0
VISUALSTYLE
  5
32
102
{ACAD_XDICTIONARY
360
24B
102
}
102
{ACAD_REACTORS
330
29
102
}
330
29
100
AcDbVisualStyle
  2
Conceptual
 70
     9
 71
     3
 72
     2
 73
     0
 90
        0
 40
-0.6
 41
-30.0
 62
     5
 63
     7
421
 16777215
 74
     2
 91
        2
 64
     7
 65
   257
 75
     1
175
     1
 42
179.0
 92
        8
 66
     7
 43
1.0
 76
     1
 77
     6
 78
     2
 67
     7
 79
     3
170
     0
171
     0
290
     0
174
     0
 93
        1
 44
0.0
173
     0
291
     0
 45
0.0
1001
ACAD
1000
AcDbSavedByObjectVersion
1070
     0
  0
VISUALSTYLE
  5
34
102
{ACAD_XDICTIONARY
360
24F
102
}
102
{ACAD_REACTORS
330
29
102
}
330
29
100
AcDbVisualStyle
  2
Dim
 70
    11
 71
     2
 72
     2
 73
     0
 90
        0
 40
-0.6
 41
-30.0
 62
     5
 63
     7
421
 16777215
 74
     1
 91
        4
 64
     7
 65
   257
 75
     1
175
     1
 42
1.0
 92
        8
 66
     7
 43
1.0
 76
     1
 77
     6
 78
     2
 67
     7
 79
     5
170
     0
171
     0
290
     0
174
     0
 93
        1
 44
-50.0
173
     0
291
     1
 45
0.0
1001
ACAD
1000
AcDbSavedByObjectVersion
1070
     0
  0
VISUALSTYLE
  5
41
102
{ACAD_XDICTIONARY
360
269
102
}
102
{ACAD_REACTORS
330
29
102
}
330
29
100
AcDbVisualStyle
  2
EdgeColorOff
 70
    22
 71
     2
 72
     2
 73
     0
 90
        0
 40
-0.6
 41
-30.0
 62
     5
 63
     7
421
 16777215
 74
     1
 91
        4
 64
     7
 65
   257
 75
     1
175
     1
 42
1.0
 92
        8
 66
     7
 43
1.0
 76
     1
 77
     6
 78
     2
 67
     7
 79
     5
170
     0
171
     0
290
     0
174
     0
 93
        1
 44
0.0
173
     0
291
     1
 45
0.0
1001
ACAD
1000
AcDbSavedByObjectVersion
1070
     0
  0
VISUALSTYLE
  5
38
102
{ACAD_XDICTIONARY
360
257
102
}
102
{ACAD_REACTORS
330
29
102
}
330
29
100
AcDbVisualStyle
  2
Facepattern
 70
    15
 71
     2
 72
     2
 73
     0
 90
        0
 40
-0.6
 41
-30.0
 62
     5
 63
     7
421
 16777215
 74
     1
 91
        4
 64
     7
 65
   257
 75
     1
175
     1
 42
1.0
 92
        8
 66
     7
 43
1.0
 76
     1
 77
     6
 78
     2
 67
     7
 79
     5
170
     0
171
     0
290
     0
174
     0
 93
        1
 44
0.0
173
     0
291
     1
 45
0.0
1001
ACAD
1000
AcDbSavedByObjectVersion
1070
     0
  0
VISUALSTYLE
  5
2A
102
{ACAD_XDICTIONARY
360
23B
102
}
102
{ACAD_REACTORS
330
29
102
}
330
29
100
AcDbVisualStyle
  2
Flat
 70
     0
 71
     2
 72
     1
 73
     1
 90
        2
 40
-0.6
 41
30.0
 62
     5
 63
     7
421
 16777215
 74
     0
 91
        0
 64
     7
 65
   257
 75
     1
175
     1
 42
1.0
 92
        8
 66
     7
 43
1.0
 76
     1
 77
     6
 78
     2
 67
     7
 79
     5
170
     0
171
     0
290
     0
174
     0
 93
       13
 44
0.0
173
     0
291
     1
 45
0.0
1001
ACAD
1000
AcDbSavedByObjectVersion
1070
     0
  0
VISUALSTYLE
  5
2B
102
{ACAD_XDICTIONARY
360
23D
102
}
102
{ACAD_REACTORS
330
29
102
}
330
29
100
AcDbVisualStyle
  2
FlatWithEdges
 70
     1
 71
     2
 72
     1
 73
     1
 90
        2
 40
-0.6
 41
30.0
 62
     5
 63
     7
421
 16777215
 74
     1
 91
        0
 64
     7
 65
   257
 75
     1
175
     1
 42
1.0
 92
        0
 66
   257
 43
1.0
 76
     1
 77
     6
 78
     2
 67
     7
 79
     5
170
     0
171
     0
290
     0
174
     0
 93
       13
 44
0.0
173
     0
291
     1
 45
0.0
1001
ACAD
1000
AcDbSavedByObjectVersion
1070
     0
  0
VISUALSTYLE
  5
2C
102
{ACAD_XDICTIONARY
360
23F
102
}
102
{ACAD_REACTORS
330
29
102
}
330
29
100
AcDbVisualStyle
  2
Gouraud
 70
     2
 71
     2
 72
     2
 73
     1
 90
        2
 40
-0.6
 41
30.0
 62
     5
 63
     7
421
 16777215
 74
     0
 91
        0
 64
     7
 65
   257
 75
     1
175
     1
 42
1.0
 92
        0
 66
     7
 43
1.0
 76
     1
 77
     6
 78
     2
 67
     7
 79
     5
170
     0
171
     0
290
     0
174
     0
 93
       13
 44
0.0
173
     0
291
     1
 45
0.0
1001
ACAD
1000
AcDbSavedByObjectVersion
1070
     0
  0
VISUALSTYLE
  5
2D
102
{ACAD_XDICTIONARY
360
241
102
}
102
{ACAD_REACTORS
330
29
102
}
330
29
100
AcDbVisualStyle
  2
GouraudWithEdges
 70
     3
 71
     2
 72
     2
 73
     1
 90
        2
 40
-0.6
 41
30.0
 62
     5
 63
     7
421
 16777215
 74
     1
 91
        0
 64
     7
 65
   257
 75
     1
175
     1
 42
1.0
 92
        0
 66
   257
 43
1.0
 76
     1
 77
     6
 78
     2
 67
     7
 79
     5
170
     0
171
     0
290
     0
174
     0
 93
       13
 44
0.0
173
     0
291
     1
 45
0.0
1001
ACAD
1000
AcDbSavedByObjectVersion
1070
     0
  0
VISUALSTYLE
  5
31
102
{ACAD_XDICTIONARY
360
249
102
}
102
{ACAD_REACTORS
330
29
102
}
330
29
100
AcDbVisualStyle
  2
Hidden
 70
     6
 71
     1
 72
     2
 73
     2
 90
        0
 40
-0.6
 41
-30.0
 62
     5
 63
     7
421
 16777215
 74
     2
 91
        2
 64
     7
 65
   257
 75
     2
175
     1
 42
40.0
 92
        0
 66
   257
 43
1.0
 76
     1
 77
     6
 78
     2
 67
     7
 79
     3
170
     0
171
     0
290
     0
174
     0
 93
        1
 44
0.0
173
     0
291
     0
 45
0.0
1001
ACAD
1000
AcDbSavedByObjectVersion
1070
     0
  0
VISUALSTYLE
  5
3F
102
{ACAD_XDICTIONARY
360
265
102
}
102
{ACAD_REACTORS
330
29
102
}
330
29
100
AcDbVisualStyle
  2
JitterOff
 70
    20
 71
     2
 72
     2
 73
     0
 90
        0
 40
-0.6
 41
-30.0
 62
     5
 63
     7
421
 16777215
 74
     1
 91
        4
 64
     7
 65
   257
 75
     1
175
     1
 42
1.0
 92
       10
 66
     7
 43
1.0
 76
     1
 77
     6
 78
     2
 67
     7
 79
     5
170
     0
171
     0
290
     0
174
     0
 93
        1
 44
0.0
173
     0
291
     1
 45
0.0
1001
ACAD
1000
AcDbSavedByObjectVersion
1070
     0
  0
VISUALSTYLE
  5
37
102
{ACAD_XDICTIONARY
360
255
102
}
102
{ACAD_REACTORS
330
29
102
}
330
29
100
AcDbVisualStyle
  2
Linepattern
 70
    14
 71
     2
 72
     2
 73
     0
 90
        0
 40
-0.6
 41
-30.0
 62
     5
 63
     7
421
 16777215
 74
     1
 91
        4
 64
     7
 65
   257
 75
     7
175
     7
 42
1.0
 92
        8
 66
     7
 43
1.0
 76
     1
 77
     6
 78
     2
 67
     7
 79
     5
170
     0
171
     0
290
     0
174
     0
 93
        1
 44
0.0
173
     0
291
     1
 45
0.0
1001
ACAD
1000
AcDbSavedByObjectVersion
1070
     0
  0
VISUALSTYLE
  5
40
102
{ACAD_XDICTIONARY
360
267
102
}
102
{ACAD_REACTORS
330
29
102
}
330
29
100
AcDbVisualStyle
  2
OverhangOff
 70
    21
 71
     2
 72
     2
 73
     0
 90
        0
 40
-0.6
 41
-30.0
 62
     5
 63
     7
421
 16777215
 74
     1
 91
        4
 64
     7
 65
   257
 75
     1
175
     1
 42
1.0
 92
        9
 66
     7
 43
1.0
 76
     1
 77
     6
 78
     2
 67
     7
 79
     5
170
     0
171
     0
290
     0
174
     0
 93
        1
 44
0.0
173
     0
291
     1
 45
0.0
1001
ACAD
1000
AcDbSavedByObjectVersion
1070
     0
  0
VISUALSTYLE
  5
33
102
{ACAD_XDICTIONARY
360
24D
102
}
102
{ACAD_REACTORS
330
29
102
}
330
29
100
AcDbVisualStyle
  2
Realistic
 70
     8
 71
     2
 72
     3
 73
     0
 90
        2
 40
-0.6
 41
30.0
 62
     5
 63
     7
421
 16777215
 74
     0
 91
        0
 64
     7
 65
   257
 75
     1
175
     1
 42
1.0
 92
        8
 66
   257
 43
1.0
 76
     1
 77
     6
 78
     2
 67
     7
 79
     3
170
     0
171
     0
290
     0
174
     0
 93
       13
 44
0.0
173
     0
291
     0
 45
0.0
1001
ACAD
1000
AcDbSavedByObjectVersion
1070
     0
  0
VISUALSTYLE
  5
3E
102
{ACAD_XDICTIONARY
360
263
102
}
102
{ACAD_REACTORS
330
29
102
}
330
29
100
AcDbVisualStyle
  2
Shaded
 70
    27
 71
     2
 72
     2
 73
     1
 90
        2
 40
-0.6
 41
30.0
 62
     5
 63
     7
421
 16777215
 74
     0
 91
        4
 64
     7
 65
   257
 75
     1
175
     1
 42
1.0
 92
        8
 66
   257
 43
1.0
 76
     1
 77
     6
 78
     2
 67
     8
425
  7895160
 79
     3
170
     0
171
     0
290
     0
174
     0
 93
        5
 44
0.0
173
     0
291
     0
 45
0.0
1001
ACAD
1000
AcDbSavedByObjectVersion
1070
     0
  0
VISUALSTYLE
  5
3D
102
{ACAD_XDICTIONARY
360
261
102
}
102
{ACAD_REACTORS
330
29
102
}
330
29
100
AcDbVisualStyle
  2
Shaded with edges
 70
    26
 71
     2
 72
     2
 73
     1
 90
        2
 40
-0.6
 41
30.0
 62
     5
 63
     7
421
 16777215
 74
     1
 91
        2
 64
     7
 65
   257
 75
     2
175
     1
 42
1.0
 92
        8
 66
   257
 43
1.0
 76
     1
 77
     6
 78
     2
 67
     7
 79
     3
170
     0
171
     0
290
     0
174
     0
 93
        5
 44
0.0
173
     0
291
     0
 45
0.0
1001
ACAD
1000
AcDbSavedByObjectVersion
1070
     0
  0
VISUALSTYLE
  5
3A
102
{ACAD_XDICTIONARY
360
25B
102
}
102
{ACAD_REACTORS
330
29
102
}
330
29
100
AcDbVisualStyle
  2
Shades of Gray
 70
    23
 71
     2
 72
     2
 73
     3
 90
        0
 40
-0.6
 41
-30.0
 62
     5
 63
     7
421
 16777215
 74
     2
 91
        2
 64
     7
 65
     7
 75
     1
175
     1
 42
40.0
 92
        8
 66
     7
 43
1.0
 76
     1
 77
     6
 78
     2
 67
     7
 79
     3
170
     0
171
     0
290
     0
174
     0
 93
        1
 44
0.0
173
     0
291
     0
 45
0.0
1001
ACAD
1000
AcDbSavedByObjectVersion
1070
     0
  0
VISUALSTYLE
  5
3B
102
{ACAD_XDICTIONARY
360
25D
102
}
102
{ACAD_REACTORS
330
29
102
}
330
29
100
AcDbVisualStyle
  2
Sketchy
 70
    24
 71
     1
 72
     2
 73
     2
 90
        0
 40
-0.6
 41
-30.0
 62
     5
 63
     7
421
 16777215
 74
     2
 91
        2
 64
     7
 65
     7
 75
     1
175
     1
 42
40.0
 92
       11
 66
     7
 43
1.0
 76
     1
 77
     6
 78
     2
 67
     7
 79
     6
170
     0
171
     0
290
     0
174
     0
 93
        1
 44
0.0
173
     0
291
     0
 45
0.0
1001
ACAD
1000
AcDbSavedByObjectVersion
1070
     0
  0
VISUALSTYLE
  5
36
102
{ACAD_XDICTIONARY
360
253
102
}
102
{ACAD_REACTORS
330
29
102
}
330
29
100
AcDbVisualStyle
  2
Thicken
 70
    13
 71
     2
 72
     2
 73
     0
 90
        0
 40
-0.6
 41
-30.0
 62
     5
 63
     7
421
 16777215
 74
     1
 91
        4
 64
     7
 65
   257
 75
     1
175
     1
 42
1.0
 92
       12
 66
     7
 43
1.0
 76
     1
 77
     6
 78
     2
 67
     7
 79
     5
170
     0
171
     0
290
     0
174
     0
 93
        1
 44
0.0
173
     0
291
     1
 45
0.0
1001
ACAD
1000
AcDbSavedByObjectVersion
1070
     0
  0
VISUALSTYLE
  5
30
102
{ACAD_XDICTIONARY
360
247
102
}
102
{ACAD_REACTORS
330
29
102
}
330
29
100
AcDbVisualStyle
  2
Wireframe
 70
     5
 71
     0
 72
     2
 73
     0
 90
        0
 40
-0.6
 41
-30.0
 62
     5
 63
     7
421
 16777215
 74
     1
 91
        4
 64
     7
 65
   257
 75
     1
175
     1
 42
1.0
 92
        0
 66
   257
 43
1.0
 76
     1
 77
     6
 78
     2
 67
     7
 79
     3
170
     0
171
     0
290
     0
174
     0
 93
        1
 44
0.0
173
     0
291
     0
 45
0.0
1001
ACAD
1000
AcDbSavedByObjectVersion
1070
     0
  0
VISUALSTYLE
  5
3C
102
{ACAD_XDICTIONARY
360
25F
102
}
102
{ACAD_REACTORS
330
29
102
}
330
29
100
AcDbVisualStyle
  2
X-Ray
 70
    25
 71
     2
 72
     2
 73
     1
 90
        1
 40
0.5
 41
-30.0
 62
     5
 63
     7
421
 16777215
 74
     1
 91
        0
 64
     7
 65
   257
 75
     1
175
     1
 42
1.0
 92
        8
 66
     7
 43
1.0
 76
     1
 77
     6
 78
     2
 67
     7
 79
     3
170
     0
171
     0
290
     0
174
     0
 93
       13
 44
0.0
173
     0
291
     0
 45
0.0
1001
ACAD
1000
AcDbSavedByObjectVersion
1070
     0
  0
DICTIONARYVAR
  5
1A0
102
{ACAD_REACTORS
330
19B
102
}
330
19B
100
DictionaryVariables
280
     0
  1
1:1
  0
DICTIONARYVAR
  5
19D
102
{ACAD_REACTORS
330
19B
102
}
330
19B
100
DictionaryVariables
280
     0
  1
STANDARD
  0
DICTIONARYVAR
  5
19C
102
{ACAD_REACTORS
330
19B
102
}
330
19B
100
DictionaryVariables
280
     0
  1
STANDARD
  0
DICTIONARYVAR
  5
19E
102
{ACAD_REACTORS
330
19B
102
}
330
19B
100
DictionaryVariables
280
     0
  1
Imperial24
  0
DICTIONARYVAR
  5
19F
102
{ACAD_REACTORS
330
19B
102
}
330
19B
100
DictionaryVariables
280
     0
  1
Imperial24
  0
DICTIONARYVAR
  5
1FF
102
{ACAD_REACTORS
330
19B
102
}
330
19B
100
DictionaryVariables
280
     0
  1
2
  0
DICTIONARY
  5
270
330
6B
100
AcDbDictionary
280
     1
281
     1
  3
ACAD_XREC_ROUNDTRIP
360
271
  0
DICTIONARY
  5
1A
330
19
100
AcDbDictionary
280
     1
281
     1
  3
BUMPTILE
360
1C
  3
DIFFUSETILE
360
1B
  3
OPACITYTILE
360
1F
  3
REFLECTIONTILE
360
1E
  3
REFRACTIONTILE
360
20
  3
SPECULARTILE
360
1D
  0
DICTIONARY
  5
12
330
11
100
AcDbDictionary
280
     1
281
     1
  3
BUMPTILE
360
14
  3
DIFFUSETILE
360
13
  3
OPACITYTILE
360
17
  3
REFLECTIONTILE
360
16
  3
REFRACTIONTILE
360
18
  3
SPECULARTILE
360
15
  0
DICTIONARY
  5
22
330
21
100
AcDbDictionary
280
     1
281
     1
  3
BUMPTILE
360
24
  3
DIFFUSETILE
360
23
  3
OPACITYTILE
360
27
  3
REFLECTIONTILE
360
26
  3
REFRACTIONTILE
360
28
  3
SPECULARTILE
360
25
  0
DICTIONARY
  5
26C
330
67
100
AcDbDictionary
280
     1
281
     1
  3
ACAD_XREC_ROUNDTRIP
360
26D
  0
DICTIONARY
  5
26E
330
69
100
AcDbDictionary
280
     1
281
     1
  3
ACAD_XREC_ROUNDTRIP
360
26F
  0
DICTIONARY
  5
1A1
330
65
100
AcDbDictionary
280
     1
281
     1
  3
ACAD_ROUNDTRIP_2008_TABLESTYLE_CELLSTYLEMAP
360
239
  0
DICTIONARY
  5
245
330
2F
100
AcDbDictionary
280
     1
281
     1
  3
ACAD_XREC_ROUNDTRIP
360
246
  0
DICTIONARY
  5
243
330
2E
100
AcDbDictionary
280
     1
281
     1
  3
ACAD_XREC_ROUNDTRIP
360
244
  0
DICTIONARY
  5
251
330
35
100
AcDbDictionary
280
     1
281
     1
  3
ACAD_XREC_ROUNDTRIP
360
252
  0
DICTIONARY
  5
259
330
39
100
AcDbDictionary
280
     1
281
     1
  3
ACAD_XREC_ROUNDTRIP
360
25A
  0
DICTIONARY
  5
24B
330
32
100
AcDbDictionary
280
     1
281
     1
  3
ACAD_XREC_ROUNDTRIP
360
24C
  0
DICTIONARY
  5
24F
330
34
100
AcDbDictionary
280
     1
281
     1
  3
ACAD_XREC_ROUNDTRIP
360
250
  0
DICTIONARY
  5
269
330
41
100
AcDbDictionary
280
     1
281
     1
  3
ACAD_XREC_ROUNDTRIP
360
26A
  0
DICTIONARY
  5
257
330
38
100
AcDbDictionary
280
     1
281
     1
  3
ACAD_XREC_ROUNDTRIP
360
258
  0
DICTIONARY
  5
23B
330
2A
100
AcDbDictionary
280
     1
281
     1
  3
ACAD_XREC_ROUNDTRIP
360
23C
  0
DICTIONARY
  5
23D
330
2B
100
AcDbDictionary
280
     1
281
     1
  3
ACAD_XREC_ROUNDTRIP
360
23E
  0
DICTIONARY
  5
23F
330
2C
100
AcDbDictionary
280
     1
281
     1
  3
ACAD_XREC_ROUNDTRIP
360
240
  0
DICTIONARY
  5
241
330
2D
100
AcDbDictionary
280
     1
281
     1
  3
ACAD_XREC_ROUNDTRIP
360
242
  0
DICTIONARY
  5
249
330
31
100
AcDbDictionary
280
     1
281
     1
  3
ACAD_XREC_ROUNDTRIP
360
24A
  0
DICTIONARY
  5
265
330
3F
100
AcDbDictionary
280
     1
281
     1
  3
ACAD_XREC_ROUNDTRIP
360
266
  0
DICTIONARY
  5
255
330
37
100
AcDbDictionary
280
     1
281
     1
  3
ACAD_XREC_ROUNDTRIP
360
256
  0
DICTIONARY
  5
267
330
40
100
AcDbDictionary
280
     1
281
     1
  3
ACAD_XREC_ROUNDTRIP
360
268
  0
DICTIONARY
  5
24D
330
33
100
AcDbDictionary
280
     1
281
     1
  3
ACAD_XREC_ROUNDTRIP
360
24E
  0
DICTIONARY
  5
263
330
3E
100
AcDbDictionary
280
     1
281
     1
  3
ACAD_XREC_ROUNDTRIP
360
264
  0
DICTIONARY
  5
261
330
3D
100
AcDbDictionary
280
     1
281
     1
  3
ACAD_XREC_ROUNDTRIP
360
262
  0
DICTIONARY
  5
25B
330
3A
100
AcDbDictionary
280
     1
281
     1
  3
ACAD_XREC_ROUNDTRIP
360
25C
  0
DICTIONARY
  5
25D
330
3B
100
AcDbDictionary
280
     1
281
     1
  3
ACAD_XREC_ROUNDTRIP
360
25E
  0
DICTIONARY
  5
253
330
36
100
AcDbDictionary
280
     1
281
     1
  3
ACAD_XREC_ROUNDTRIP
360
254
  0
DICTIONARY
  5
247
330
30
100
AcDbDictionary
280
     1
281
     1
  3
ACAD_XREC_ROUNDTRIP
360
248
  0
DICTIONARY
  5
25F
330
3C
100
AcDbDictionary
280
     1
281
     1
  3
ACAD_XREC_ROUNDTRIP
360
260
  0
XRECORD
  5
271
102
{ACAD_REACTORS
330
270
102
}
330
270
100
AcDbXrecord
280
     1
102
DISPLAYNAME
  1
Imperial24
102
FLAGS
 90
        0
  0
XRECORD
  5
1C
102
{ACAD_REACTORS
330
1A
102
}
330
1A
100
AcDbXrecord
280
     1
270
     1
271
     1
  0
XRECORD
  5
1B
102
{ACAD_REACTORS
330
1A
102
}
330
1A
100
AcDbXrecord
280
     1
270
     1
271
     1
  0
XRECORD
  5
1F
102
{ACAD_REACTORS
330
1A
102
}
330
1A
100
AcDbXrecord
280
     1
270
     1
271
     1
  0
XRECORD
  5
1E
102
{ACAD_REACTORS
330
1A
102
}
330
1A
100
AcDbXrecord
280
     1
270
     1
271
     1
  0
XRECORD
  5
20
102
{ACAD_REACTORS
330
1A
102
}
330
1A
100
AcDbXrecord
280
     1
270
     1
271
     1
  0
XRECORD
  5
1D
102
{ACAD_REACTORS
330
1A
102
}
330
1A
100
AcDbXrecord
280
     1
270
     1
271
     1
  0
XRECORD
  5
14
102
{ACAD_REACTORS
330
12
102
}
330
12
100
AcDbXrecord
280
     1
270
     1
271
     1
  0
XRECORD
  5
13
102
{ACAD_REACTORS
330
12
102
}
330
12
100
AcDbXrecord
280
     1
270
     1
271
     1
  0
XRECORD
  5
17
102
{ACAD_REACTORS
330
12
102
}
330
12
100
AcDbXrecord
280
     1
270
     1
271
     1
  0
XRECORD
  5
16
102
{ACAD_REACTORS
330
12
102
}
330
12
100
AcDbXrecord
280
     1
270
     1
271
     1
  0
XRECORD
  5
18
102
{ACAD_REACTORS
330
12
102
}
330
12
100
AcDbXrecord
280
     1
270
     1
271
     1
  0
XRECORD
  5
15
102
{ACAD_REACTORS
330
12
102
}
330
12
100
AcDbXrecord
280
     1
270
     1
271
     1
  0
XRECORD
  5
24
102
{ACAD_REACTORS
330
22
102
}
330
22
100
AcDbXrecord
280
     1
270
     1
271
     1
  0
XRECORD
  5
23
102
{ACAD_REACTORS
330
22
102
}
330
22
100
AcDbXrecord
280
     1
270
     1
271
     1
  0
XRECORD
  5
27
102
{ACAD_REACTORS
330
22
102
}
330
22
100
AcDbXrecord
280
     1
270
     1
271
     1
  0
XRECORD
  5
26
102
{ACAD_REACTORS
330
22
102
}
330
22
100
AcDbXrecord
280
     1
270
     1
271
     1
  0
XRECORD
  5
28
102
{ACAD_REACTORS
330
22
102
}
330
22
100
AcDbXrecord
280
     1
270
     1
271
     1
  0
XRECORD
  5
25
102
{ACAD_REACTORS
330
22
102
}
330
22
100
AcDbXrecord
280
     1
270
     1
271
     1
  0
XRECORD
  5
26D
102
{ACAD_REACTORS
330
26C
102
}
330
26C
100
AcDbXrecord
280
     1
102
ACAD_ROUNDTRIP_2012_MLEADER_STYLE
298
     1
  0
XRECORD
  5
26F
102
{ACAD_REACTORS
330
26E
102
}
330
26E
100
AcDbXrecord
280
     1
102
DISPLAYNAME
  1
Imperial24
102
FLAGS
 90
        0
  0
CELLSTYLEMAP
  5
239
102
{ACAD_REACTORS
330
1A1
102
}
330
1A1
100
AcDbCellStyleMap
 90
        3
300
CELLSTYLE
  1
TABLEFORMAT_BEGIN
 90
        5
170
     1
 91
        0
 92
    32768
 62
   257
 93
        1
300
CONTENTFORMAT
  1
CONTENTFORMAT_BEGIN
 90
        0
 91
        0
 92
      512
 93
        0
300

 40
0.0
140
1.0
 94
        5
 62
     0
340
55
144
0.25
309
CONTENTFORMAT_END
171
     1
301
MARGIN
  1
CELLMARGIN_BEGIN
 40
0.06
 40
0.06
 40
0.06
 40
0.06
 40
0.18
 40
0.18
309
CELLMARGIN_END
 94
        6
 95
        1
302
GRIDFORMAT
  1
GRIDFORMAT_BEGIN
 90
        0
 91
        1
 62
     0
 92
       -2
340
0
 93
        0
 40
0.045
309
GRIDFORMAT_END
 95
        2
302
GRIDFORMAT
  1
GRIDFORMAT_BEGIN
 90
        0
 91
        1
 62
     0
 92
       -2
340
0
 93
        0
 40
0.045
309
GRIDFORMAT_END
 95
        4
302
GRIDFORMAT
  1
GRIDFORMAT_BEGIN
 90
        0
 91
        1
 62
     0
 92
       -2
340
0
 93
        0
 40
0.045
309
GRIDFORMAT_END
 95
        8
302
GRIDFORMAT
  1
GRIDFORMAT_BEGIN
 90
        0
 91
        1
 62
     0
 92
       -2
340
0
 93
        0
 40
0.045
309
GRIDFORMAT_END
 95
       16
302
GRIDFORMAT
  1
GRIDFORMAT_BEGIN
 90
        0
 91
        1
 62
     0
 92
       -2
340
0
 93
        0
 40
0.045
309
GRIDFORMAT_END
 95
       32
302
GRIDFORMAT
  1
GRIDFORMAT_BEGIN
 90
        0
 91
        1
 62
     0
 92
       -2
340
0
 93
        0
 40
0.045
309
GRIDFORMAT_END
309
TABLEFORMAT_END
  1
CELLSTYLE_BEGIN
 90
        1
 91
        1
300
_TITLE
309
CELLSTYLE_END
300
CELLSTYLE
  1
TABLEFORMAT_BEGIN
 90
        5
170
     1
 91
        0
 92
        0
 62
   257
 93
        1
300
CONTENTFORMAT
  1
CONTENTFORMAT_BEGIN
 90
        0
 91
        0
 92
      512
 93
        0
300

 40
0.0
140
1.0
 94
        5
 62
     0
340
55
144
0.18
309
CONTENTFORMAT_END
171
     1
301
MARGIN
  1
CELLMARGIN_BEGIN
 40
0.06
 40
0.06
 40
0.06
 40
0.06
 40
0.18
 40
0.18
309
CELLMARGIN_END
 94
        6
 95
        1
302
GRIDFORMAT
  1
GRIDFORMAT_BEGIN
 90
        0
 91
        1
 62
     0
 92
       -2
340
0
 93
        0
 40
0.045
309
GRIDFORMAT_END
 95
        2
302
GRIDFORMAT
  1
GRIDFORMAT_BEGIN
 90
        0
 91
        1
 62
     0
 92
       -2
340
0
 93
        0
 40
0.045
309
GRIDFORMAT_END
 95
        4
302
GRIDFORMAT
  1
GRIDFORMAT_BEGIN
 90
        0
 91
        1
 62
     0
 92
       -2
340
0
 93
        0
 40
0.045
309
GRIDFORMAT_END
 95
        8
302
GRIDFORMAT
  1
GRIDFORMAT_BEGIN
 90
        0
 91
        1
 62
     0
 92
       -2
340
0
 93
        0
 40
0.045
309
GRIDFORMAT_END
 95
       16
302
GRIDFORMAT
  1
GRIDFORMAT_BEGIN
 90
        0
 91
        1
 62
     0
 92
       -2
340
0
 93
        0
 40
0.045
309
GRIDFORMAT_END
 95
       32
302
GRIDFORMAT
  1
GRIDFORMAT_BEGIN
 90
        0
 91
        1
 62
     0
 92
       -2
340
0
 93
        0
 40
0.045
309
GRIDFORMAT_END
309
TABLEFORMAT_END
  1
CELLSTYLE_BEGIN
 90
        2
 91
        1
300
_HEADER
309
CELLSTYLE_END
300
CELLSTYLE
  1
TABLEFORMAT_BEGIN
 90
        5
170
     1
 91
        0
 92
        0
 62
   257
 93
        1
300
CONTENTFORMAT
  1
CONTENTFORMAT_BEGIN
 90
        0
 91
        0
 92
      512
 93
        0
300

 40
0.0
140
1.0
 94
        2
 62
     0
340
55
144
0.18
309
CONTENTFORMAT_END
171
     1
301
MARGIN
  1
CELLMARGIN_BEGIN
 40
0.06
 40
0.06
 40
0.06
 40
0.06
 40
0.18
 40
0.18
309
CELLMARGIN_END
 94
        6
 95
        1
302
GRIDFORMAT
  1
GRIDFORMAT_BEGIN
 90
        0
 91
        1
 62
     0
 92
       -2
340
0
 93
        0
 40
0.045
309
GRIDFORMAT_END
 95
        2
302
GRIDFORMAT
  1
GRIDFORMAT_BEGIN
 90
        0
 91
        1
 62
     0
 92
       -2
340
0
 93
        0
 40
0.045
309
GRIDFORMAT_END
 95
        4
302
GRIDFORMAT
  1
GRIDFORMAT_BEGIN
 90
        0
 91
        1
 62
     0
 92
       -2
340
0
 93
        0
 40
0.045
309
GRIDFORMAT_END
 95
        8
302
GRIDFORMAT
  1
GRIDFORMAT_BEGIN
 90
        0
 91
        1
 62
     0
 92
       -2
340
0
 93
        0
 40
0.045
309
GRIDFORMAT_END
 95
       16
302
GRIDFORMAT
  1
GRIDFORMAT_BEGIN
 90
        0
 91
        1
 62
     0
 92
       -2
340
0
 93
        0
 40
0.045
309
GRIDFORMAT_END
 95
       32
302
GRIDFORMAT
  1
GRIDFORMAT_BEGIN
 90
        0
 91
        1
 62
     0
 92
       -2
340
0
 93
        0
 40
0.045
309
GRIDFORMAT_END
309
TABLEFORMAT_END
  1
CELLSTYLE_BEGIN
 90
        3
 91
        2
300
_DATA
309
CELLSTYLE_END
  0
XRECORD
  5
246
102
{ACAD_REACTORS
330
245
102
}
330
245
100
AcDbXrecord
280
     1
102
RTVSPost2010Prop28
280
     1
102
RTVSPost2010PropOp28
 70
     1
102
RTVSPost2010Prop29
280
     1
102
RTVSPost2010PropOp29
 70
     1
102
RTVSPost2010Prop30
280
     0
102
RTVSPost2010PropOp30
 70
     1
102
RTVSPost2010Prop31
280
     0
102
RTVSPost2010PropOp31
 70
     1
102
RTVSPost2010Prop32
280
     0
102
RTVSPost2010PropOp32
 70
     1
102
RTVSPost2010Prop33
280
     0
102
RTVSPost2010PropOp33
 70
     1
102
RTVSPost2010Prop34
280
     0
102
RTVSPost2010PropOp34
 70
     1
102
RTVSPost2010Prop35
280
     0
102
RTVSPost2010PropOp35
 70
     1
102
RTVSPost2010Prop36
280
     0
102
RTVSPost2010PropOp36
 70
     1
102
RTVSPost2010Prop37
 90
       50
102
RTVSPost2010PropOp37
 70
     1
102
RTVSPost2010Prop38
140
0.0
102
RTVSPost2010PropOp38
 70
     1
102
RTVSPost2010Prop39
140
1.0
102
RTVSPost2010PropOp39
 70
     1
102
RTVSPost2010Prop40
 90
        0
102
RTVSPost2010PropOp40
 70
     1
102
RTVSPost2010Prop41ColorIndex
 90
       18
102
RTVSPost2010Prop41ColorRGB
 90
        0
102
RTVSPost2010PropOp41
 70
     1
102
RTVSPost2010Prop42
 90
       50
102
RTVSPost2010PropOp42
 70
     1
102
RTVSPost2010Prop43
 90
        3
102
RTVSPost2010PropOp43
 70
     1
102
RTVSPost2010Prop44ColorIndex
 90
        5
102
RTVSPost2010Prop44ColorRGB
 90
      255
102
RTVSPost2010PropOp44
 70
     1
102
RTVSPost2010Prop45
280
     0
102
RTVSPost2010PropOp45
 70
     1
102
RTVSPost2010Prop46
 90
       50
102
RTVSPost2010PropOp46
 70
     1
102
RTVSPost2010Prop47
 90
       50
102
RTVSPost2010PropOp47
 70
     1
102
RTVSPost2010Prop48
 90
       50
102
RTVSPost2010PropOp48
 70
     1
102
RTVSPost2010Prop49
280
     0
102
RTVSPost2010PropOp49
 70
     1
102
RTVSPost2010Prop50
 90
       50
102
RTVSPost2010PropOp50
 70
     1
102
RTVSPost2010Prop51ColorIndex
 90
      256
102
RTVSPost2010Prop51ColorRGB
 90
-16777216
102
RTVSPost2010PropOp51
 70
     0
102
RTVSPost2010Prop52
140
1.0
102
RTVSPost2010PropOp52
 70
     0
102
RTVSPost2010Prop53
 90
        2
102
RTVSPost2010PropOp53
 70
     1
102
RTVSPost2010Prop54
  1
strokes_ogs.tif
102
RTVSPost2010PropOp54
 70
     1
102
RTVSPost2010Prop55
280
     0
102
RTVSPost2010PropOp55
 70
     1
102
RTVSPost2010Prop56
140
1.0
102
RTVSPost2010PropOp56
 70
     1
102
RTVSPost2010Prop57
140
1.0
102
RTVSPost2010PropOp57
 70
     1
102
RTVSPropertyOp0
 70
     1
102
RTVSPropertyOp1
 70
     1
102
RTVSPropertyOp2
 70
     1
102
RTVSPropertyOp3
 70
     1
102
RTVSPropertyOp4
 70
     1
102
RTVSPropertyOp5
 70
     1
102
RTVSPropertyOp6
 70
     1
102
RTVSPropertyOp7
 70
     1
102
RTVSPropertyOp8
 70
     1
102
RTVSPropertyOp9
 70
     1
102
RTVSPropertyOp10
 70
     1
102
RTVSPropertyOp11
 70
     1
102
RTVSPropertyOp12
 70
     1
102
RTVSPropertyOp13
 70
     1
102
RTVSPropertyOp14
 70
     1
102
RTVSPropertyOp15
 70
     1
102
RTVSPropertyOp16
 70
     1
102
RTVSPropertyOp17
 70
     1
102
RTVSPropertyOp18
 70
     1
102
RTVSPropertyOp19
 70
     1
102
RTVSPropertyOp20
 70
     1
102
RTVSPropertyOp21
 70
     1
102
RTVSPropertyOp22
 70
     1
102
RTVSPropertyOp23
 70
     1
102
RTVSPropertyOp24
 70
     1
102
RTVSPropertyOp25
 70
     1
102
RTVSPropertyOp26
 70
     1
102
RTVSPropertyOp27
 70
     1
102
RTVSPropertyOp28
 70
     1
102
RTVSPropertyOp29
 70
     1
102
RTVSPropertyOp30
 70
     1
102
RTVSPropertyOp31
 70
     1
102
RTVSPropertyOp32
 70
     1
102
RTVSPropertyOp33
 70
     1
102
RTVSPropertyOp34
 70
     1
102
RTVSPropertyOp35
 70
     1
102
RTVSPropertyOp36
 70
     1
102
RTVSPropertyOp37
 70
     1
102
RTVSPropertyOp38
 70
     1
102
RTVSPropertyOp39
 70
     1
102
RTVSPropertyOp40
 70
     1
102
RTVSPropertyOp41
 70
     1
102
RTVSPropertyOp42
 70
     1
102
RTVSPropertyOp43
 70
     1
102
RTVSPropertyOp44
 70
     1
102
RTVSPropertyOp45
 70
     1
102
RTVSPropertyOp46
 70
     1
102
RTVSPropertyOp47
 70
     1
102
RTVSPropertyOp48
 70
     1
102
RTVSPropertyOp49
 70
     1
102
RTVSPropertyOp50
 70
     1
102
RTVSPropertyOp51
 70
     0
102
RTVSPropertyOp52
 70
     0
102
RTVSPropertyOp53
 70
     1
102
RTVSPropertyOp54
 70
     1
102
RTVSPropertyOp55
 70
     1
102
RTVSPropertyOp56
 70
     1
102
RTVSPropertyOp57
 70
     1
102
RTVSPropertyOp58
 70
     1
102
RTVSPropertyOp59
 70
     1
102
RTVSPropertyOp60
 70
     1
102
RTVSPropertyOp61
 70
     1
102
RTVSPropertyOp62
 70
     1
  0
XRECORD
  5
244
102
{ACAD_REACTORS
330
243
102
}
330
243
100
AcDbXrecord
280
     1
102
RTVSPost2010Prop28
280
     0
102
RTVSPost2010PropOp28
 70
     1
102
RTVSPost2010Prop29
280
     1
102
RTVSPost2010PropOp29
 70
     1
102
RTVSPost2010Prop30
280
     1
102
RTVSPost2010PropOp30
 70
     1
102
RTVSPost2010Prop31
280
     0
102
RTVSPost2010PropOp31
 70
     1
102
RTVSPost2010Prop32
280
     0
102
RTVSPost2010PropOp32
 70
     1
102
RTVSPost2010Prop33
280
     0
102
RTVSPost2010PropOp33
 70
     1
102
RTVSPost2010Prop34
280
     0
102
RTVSPost2010PropOp34
 70
     1
102
RTVSPost2010Prop35
280
     0
102
RTVSPost2010PropOp35
 70
     1
102
RTVSPost2010Prop36
280
     0
102
RTVSPost2010PropOp36
 70
     1
102
RTVSPost2010Prop37
 90
       50
102
RTVSPost2010PropOp37
 70
     1
102
RTVSPost2010Prop38
140
0.0
102
RTVSPost2010PropOp38
 70
     1
102
RTVSPost2010Prop39
140
1.0
102
RTVSPost2010PropOp39
 70
     1
102
RTVSPost2010Prop40
 90
        0
102
RTVSPost2010PropOp40
 70
     1
102
RTVSPost2010Prop41ColorIndex
 90
       18
102
RTVSPost2010Prop41ColorRGB
 90
        0
102
RTVSPost2010PropOp41
 70
     1
102
RTVSPost2010Prop42
 90
       50
102
RTVSPost2010PropOp42
 70
     1
102
RTVSPost2010Prop43
 90
        3
102
RTVSPost2010PropOp43
 70
     1
102
RTVSPost2010Prop44ColorIndex
 90
        5
102
RTVSPost2010Prop44ColorRGB
 90
      255
102
RTVSPost2010PropOp44
 70
     1
102
RTVSPost2010Prop45
280
     0
102
RTVSPost2010PropOp45
 70
     1
102
RTVSPost2010Prop46
 90
       50
102
RTVSPost2010PropOp46
 70
     1
102
RTVSPost2010Prop47
 90
       50
102
RTVSPost2010PropOp47
 70
     1
102
RTVSPost2010Prop48
 90
       50
102
RTVSPost2010PropOp48
 70
     1
102
RTVSPost2010Prop49
280
     0
102
RTVSPost2010PropOp49
 70
     1
102
RTVSPost2010Prop50
 90
       50
102
RTVSPost2010PropOp50
 70
     1
102
RTVSPost2010Prop51ColorIndex
 90
      256
102
RTVSPost2010Prop51ColorRGB
 90
-16777216
102
RTVSPost2010PropOp51
 70
     0
102
RTVSPost2010Prop52
140
1.0
102
RTVSPost2010PropOp52
 70
     0
102
RTVSPost2010Prop53
 90
        2
102
RTVSPost2010PropOp53
 70
     1
102
RTVSPost2010Prop54
  1
strokes_ogs.tif
102
RTVSPost2010PropOp54
 70
     1
102
RTVSPost2010Prop55
280
     0
102
RTVSPost2010PropOp55
 70
     1
102
RTVSPost2010Prop56
140
1.0
102
RTVSPost2010PropOp56
 70
     1
102
RTVSPost2010Prop57
140
1.0
102
RTVSPost2010PropOp57
 70
     1
102
RTVSPropertyOp0
 70
     1
102
RTVSPropertyOp1
 70
     1
102
RTVSPropertyOp2
 70
     1
102
RTVSPropertyOp3
 70
     1
102
RTVSPropertyOp4
 70
     1
102
RTVSPropertyOp5
 70
     1
102
RTVSPropertyOp6
 70
     1
102
RTVSPropertyOp7
 70
     1
102
RTVSPropertyOp8
 70
     1
102
RTVSPropertyOp9
 70
     1
102
RTVSPropertyOp10
 70
     1
102
RTVSPropertyOp11
 70
     1
102
RTVSPropertyOp12
 70
     1
102
RTVSPropertyOp13
 70
     1
102
RTVSPropertyOp14
 70
     1
102
RTVSPropertyOp15
 70
     1
102
RTVSPropertyOp16
 70
     1
102
RTVSPropertyOp17
 70
     1
102
RTVSPropertyOp18
 70
     1
102
RTVSPropertyOp19
 70
     1
102
RTVSPropertyOp20
 70
     1
102
RTVSPropertyOp21
 70
     1
102
RTVSPropertyOp22
 70
     1
102
RTVSPropertyOp23
 70
     1
102
RTVSPropertyOp24
 70
     1
102
RTVSPropertyOp25
 70
     1
102
RTVSPropertyOp26
 70
     1
102
RTVSPropertyOp27
 70
     1
102
RTVSPropertyOp28
 70
     1
102
RTVSPropertyOp29
 70
     1
102
RTVSPropertyOp30
 70
     1
102
RTVSPropertyOp31
 70
     1
102
RTVSPropertyOp32
 70
     1
102
RTVSPropertyOp33
 70
     1
102
RTVSPropertyOp34
 70
     1
102
RTVSPropertyOp35
 70
     1
102
RTVSPropertyOp36
 70
     1
102
RTVSPropertyOp37
 70
     1
102
RTVSPropertyOp38
 70
     1
102
RTVSPropertyOp39
 70
     1
102
RTVSPropertyOp40
 70
     1
102
RTVSPropertyOp41
 70
     1
102
RTVSPropertyOp42
 70
     1
102
RTVSPropertyOp43
 70
     1
102
RTVSPropertyOp44
 70
     1
102
RTVSPropertyOp45
 70
     1
102
RTVSPropertyOp46
 70
     1
102
RTVSPropertyOp47
 70
     1
102
RTVSPropertyOp48
 70
     1
102
RTVSPropertyOp49
 70
     1
102
RTVSPropertyOp50
 70
     1
102
RTVSPropertyOp51
 70
     0
102
RTVSPropertyOp52
 70
     0
102
RTVSPropertyOp53
 70
     1
102
RTVSPropertyOp54
 70
     1
102
RTVSPropertyOp55
 70
     1
102
RTVSPropertyOp56
 70
     1
102
RTVSPropertyOp57
 70
     1
102
RTVSPropertyOp58
 70
     1
102
RTVSPropertyOp59
 70
     1
102
RTVSPropertyOp60
 70
     1
102
RTVSPropertyOp61
 70
     1
102
RTVSPropertyOp62
 70
     1
  0
XRECORD
  5
252
102
{ACAD_REACTORS
330
251
102
}
330
251
100
AcDbXrecord
280
     1
102
RTVSPost2010Prop28
280
     0
102
RTVSPost2010PropOp28
 70
     1
102
RTVSPost2010Prop29
280
     1
102
RTVSPost2010PropOp29
 70
     1
102
RTVSPost2010Prop30
280
     1
102
RTVSPost2010PropOp30
 70
     1
102
RTVSPost2010Prop31
280
     0
102
RTVSPost2010PropOp31
 70
     1
102
RTVSPost2010Prop32
280
     0
102
RTVSPost2010PropOp32
 70
     1
102
RTVSPost2010Prop33
280
     0
102
RTVSPost2010PropOp33
 70
     1
102
RTVSPost2010Prop34
280
     0
102
RTVSPost2010PropOp34
 70
     1
102
RTVSPost2010Prop35
280
     0
102
RTVSPost2010PropOp35
 70
     1
102
RTVSPost2010Prop36
280
     0
102
RTVSPost2010PropOp36
 70
     1
102
RTVSPost2010Prop37
 90
       50
102
RTVSPost2010PropOp37
 70
     1
102
RTVSPost2010Prop38
140
0.0
102
RTVSPost2010PropOp38
 70
     1
102
RTVSPost2010Prop39
140
1.0
102
RTVSPost2010PropOp39
 70
     1
102
RTVSPost2010Prop40
 90
        0
102
RTVSPost2010PropOp40
 70
     1
102
RTVSPost2010Prop41ColorIndex
 90
       18
102
RTVSPost2010Prop41ColorRGB
 90
        0
102
RTVSPost2010PropOp41
 70
     1
102
RTVSPost2010Prop42
 90
       50
102
RTVSPost2010PropOp42
 70
     1
102
RTVSPost2010Prop43
 90
        3
102
RTVSPost2010PropOp43
 70
     1
102
RTVSPost2010Prop44ColorIndex
 90
        5
102
RTVSPost2010Prop44ColorRGB
 90
      255
102
RTVSPost2010PropOp44
 70
     1
102
RTVSPost2010Prop45
280
     0
102
RTVSPost2010PropOp45
 70
     1
102
RTVSPost2010Prop46
 90
       50
102
RTVSPost2010PropOp46
 70
     1
102
RTVSPost2010Prop47
 90
       50
102
RTVSPost2010PropOp47
 70
     1
102
RTVSPost2010Prop48
 90
       50
102
RTVSPost2010PropOp48
 70
     1
102
RTVSPost2010Prop49
280
     0
102
RTVSPost2010PropOp49
 70
     1
102
RTVSPost2010Prop50
 90
       50
102
RTVSPost2010PropOp50
 70
     1
102
RTVSPost2010Prop51ColorIndex
 90
      256
102
RTVSPost2010Prop51ColorRGB
 90
-16777216
102
RTVSPost2010PropOp51
 70
     0
102
RTVSPost2010Prop52
140
1.0
102
RTVSPost2010PropOp52
 70
     0
102
RTVSPost2010Prop53
 90
        2
102
RTVSPost2010PropOp53
 70
     1
102
RTVSPost2010Prop54
  1
strokes_ogs.tif
102
RTVSPost2010PropOp54
 70
     1
102
RTVSPost2010Prop55
280
     0
102
RTVSPost2010PropOp55
 70
     1
102
RTVSPost2010Prop56
140
1.0
102
RTVSPost2010PropOp56
 70
     1
102
RTVSPost2010Prop57
140
1.0
102
RTVSPost2010PropOp57
 70
     1
102
RTVSPropertyOp0
 70
     1
102
RTVSPropertyOp1
 70
     1
102
RTVSPropertyOp2
 70
     1
102
RTVSPropertyOp3
 70
     1
102
RTVSPropertyOp4
 70
     1
102
RTVSPropertyOp5
 70
     1
102
RTVSPropertyOp6
 70
     1
102
RTVSPropertyOp7
 70
     1
102
RTVSPropertyOp8
 70
     1
102
RTVSPropertyOp9
 70
     1
102
RTVSPropertyOp10
 70
     1
102
RTVSPropertyOp11
 70
     1
102
RTVSPropertyOp12
 70
     1
102
RTVSPropertyOp13
 70
     1
102
RTVSPropertyOp14
 70
     1
102
RTVSPropertyOp15
 70
     1
102
RTVSPropertyOp16
 70
     1
102
RTVSPropertyOp17
 70
     1
102
RTVSPropertyOp18
 70
     1
102
RTVSPropertyOp19
 70
     1
102
RTVSPropertyOp20
 70
     1
102
RTVSPropertyOp21
 70
     1
102
RTVSPropertyOp22
 70
     1
102
RTVSPropertyOp23
 70
     1
102
RTVSPropertyOp24
 70
     1
102
RTVSPropertyOp25
 70
     1
102
RTVSPropertyOp26
 70
     1
102
RTVSPropertyOp27
 70
     1
102
RTVSPropertyOp28
 70
     1
102
RTVSPropertyOp29
 70
     1
102
RTVSPropertyOp30
 70
     1
102
RTVSPropertyOp31
 70
     1
102
RTVSPropertyOp32
 70
     1
102
RTVSPropertyOp33
 70
     1
102
RTVSPropertyOp34
 70
     1
102
RTVSPropertyOp35
 70
     1
102
RTVSPropertyOp36
 70
     1
102
RTVSPropertyOp37
 70
     1
102
RTVSPropertyOp38
 70
     1
102
RTVSPropertyOp39
 70
     1
102
RTVSPropertyOp40
 70
     1
102
RTVSPropertyOp41
 70
     1
102
RTVSPropertyOp42
 70
     1
102
RTVSPropertyOp43
 70
     1
102
RTVSPropertyOp44
 70
     1
102
RTVSPropertyOp45
 70
     1
102
RTVSPropertyOp46
 70
     1
102
RTVSPropertyOp47
 70
     1
102
RTVSPropertyOp48
 70
     1
102
RTVSPropertyOp49
 70
     1
102
RTVSPropertyOp50
 70
     1
102
RTVSPropertyOp51
 70
     0
102
RTVSPropertyOp52
 70
     0
102
RTVSPropertyOp53
 70
     1
102
RTVSPropertyOp54
 70
     1
102
RTVSPropertyOp55
 70
     1
102
RTVSPropertyOp56
 70
     1
102
RTVSPropertyOp57
 70
     1
102
RTVSPropertyOp58
 70
     1
102
RTVSPropertyOp59
 70
     1
102
RTVSPropertyOp60
 70
     1
102
RTVSPropertyOp61
 70
     1
102
RTVSPropertyOp62
 70
     1
  0
XRECORD
  5
25A
102
{ACAD_REACTORS
330
259
102
}
330
259
100
AcDbXrecord
280
     1
102
RTVSPost2010Prop28
280
     0
102
RTVSPost2010PropOp28
 70
     1
102
RTVSPost2010Prop29
280
     1
102
RTVSPost2010PropOp29
 70
     1
102
RTVSPost2010Prop30
280
     1
102
RTVSPost2010PropOp30
 70
     1
102
RTVSPost2010Prop31
280
     0
102
RTVSPost2010PropOp31
 70
     1
102
RTVSPost2010Prop32
280
     0
102
RTVSPost2010PropOp32
 70
     1
102
RTVSPost2010Prop33
280
     0
102
RTVSPost2010PropOp33
 70
     1
102
RTVSPost2010Prop34
280
     0
102
RTVSPost2010PropOp34
 70
     1
102
RTVSPost2010Prop35
280
     0
102
RTVSPost2010PropOp35
 70
     1
102
RTVSPost2010Prop36
280
     0
102
RTVSPost2010PropOp36
 70
     1
102
RTVSPost2010Prop37
 90
       50
102
RTVSPost2010PropOp37
 70
     1
102
RTVSPost2010Prop38
140
0.0
102
RTVSPost2010PropOp38
 70
     1
102
RTVSPost2010Prop39
140
1.0
102
RTVSPost2010PropOp39
 70
     1
102
RTVSPost2010Prop40
 90
        0
102
RTVSPost2010PropOp40
 70
     1
102
RTVSPost2010Prop41ColorIndex
 90
       18
102
RTVSPost2010Prop41ColorRGB
 90
        0
102
RTVSPost2010PropOp41
 70
     1
102
RTVSPost2010Prop42
 90
       50
102
RTVSPost2010PropOp42
 70
     1
102
RTVSPost2010Prop43
 90
        3
102
RTVSPost2010PropOp43
 70
     1
102
RTVSPost2010Prop44ColorIndex
 90
        5
102
RTVSPost2010Prop44ColorRGB
 90
      255
102
RTVSPost2010PropOp44
 70
     1
102
RTVSPost2010Prop45
280
     0
102
RTVSPost2010PropOp45
 70
     1
102
RTVSPost2010Prop46
 90
       50
102
RTVSPost2010PropOp46
 70
     1
102
RTVSPost2010Prop47
 90
       50
102
RTVSPost2010PropOp47
 70
     1
102
RTVSPost2010Prop48
 90
       50
102
RTVSPost2010PropOp48
 70
     1
102
RTVSPost2010Prop49
280
     0
102
RTVSPost2010PropOp49
 70
     1
102
RTVSPost2010Prop50
 90
       50
102
RTVSPost2010PropOp50
 70
     1
102
RTVSPost2010Prop51ColorIndex
 90
      256
102
RTVSPost2010Prop51ColorRGB
 90
-16777216
102
RTVSPost2010PropOp51
 70
     0
102
RTVSPost2010Prop52
140
1.0
102
RTVSPost2010PropOp52
 70
     0
102
RTVSPost2010Prop53
 90
        2
102
RTVSPost2010PropOp53
 70
     1
102
RTVSPost2010Prop54
  1
strokes_ogs.tif
102
RTVSPost2010PropOp54
 70
     1
102
RTVSPost2010Prop55
280
     0
102
RTVSPost2010PropOp55
 70
     1
102
RTVSPost2010Prop56
140
1.0
102
RTVSPost2010PropOp56
 70
     1
102
RTVSPost2010Prop57
140
1.0
102
RTVSPost2010PropOp57
 70
     1
102
RTVSPropertyOp0
 70
     1
102
RTVSPropertyOp1
 70
     1
102
RTVSPropertyOp2
 70
     1
102
RTVSPropertyOp3
 70
     1
102
RTVSPropertyOp4
 70
     1
102
RTVSPropertyOp5
 70
     1
102
RTVSPropertyOp6
 70
     1
102
RTVSPropertyOp7
 70
     1
102
RTVSPropertyOp8
 70
     1
102
RTVSPropertyOp9
 70
     1
102
RTVSPropertyOp10
 70
     1
102
RTVSPropertyOp11
 70
     1
102
RTVSPropertyOp12
 70
     1
102
RTVSPropertyOp13
 70
     1
102
RTVSPropertyOp14
 70
     1
102
RTVSPropertyOp15
 70
     1
102
RTVSPropertyOp16
 70
     1
102
RTVSPropertyOp17
 70
     1
102
RTVSPropertyOp18
 70
     1
102
RTVSPropertyOp19
 70
     1
102
RTVSPropertyOp20
 70
     1
102
RTVSPropertyOp21
 70
     1
102
RTVSPropertyOp22
 70
     1
102
RTVSPropertyOp23
 70
     1
102
RTVSPropertyOp24
 70
     1
102
RTVSPropertyOp25
 70
     1
102
RTVSPropertyOp26
 70
     1
102
RTVSPropertyOp27
 70
     1
102
RTVSPropertyOp28
 70
     1
102
RTVSPropertyOp29
 70
     1
102
RTVSPropertyOp30
 70
     1
102
RTVSPropertyOp31
 70
     1
102
RTVSPropertyOp32
 70
     1
102
RTVSPropertyOp33
 70
     1
102
RTVSPropertyOp34
 70
     1
102
RTVSPropertyOp35
 70
     1
102
RTVSPropertyOp36
 70
     1
102
RTVSPropertyOp37
 70
     1
102
RTVSPropertyOp38
 70
     1
102
RTVSPropertyOp39
 70
     1
102
RTVSPropertyOp40
 70
     1
102
RTVSPropertyOp41
 70
     1
102
RTVSPropertyOp42
 70
     1
102
RTVSPropertyOp43
 70
     1
102
RTVSPropertyOp44
 70
     1
102
RTVSPropertyOp45
 70
     1
102
RTVSPropertyOp46
 70
     1
102
RTVSPropertyOp47
 70
     1
102
RTVSPropertyOp48
 70
     1
102
RTVSPropertyOp49
 70
     1
102
RTVSPropertyOp50
 70
     1
102
RTVSPropertyOp51
 70
     0
102
RTVSPropertyOp52
 70
     0
102
RTVSPropertyOp53
 70
     1
102
RTVSPropertyOp54
 70
     1
102
RTVSPropertyOp55
 70
     1
102
RTVSPropertyOp56
 70
     1
102
RTVSPropertyOp57
 70
     1
102
RTVSPropertyOp58
 70
     1
102
RTVSPropertyOp59
 70
     1
102
RTVSPropertyOp60
 70
     1
102
RTVSPropertyOp61
 70
     1
102
RTVSPropertyOp62
 70
     1
  0
XRECORD
  5
24C
102
{ACAD_REACTORS
330
24B
102
}
330
24B
100
AcDbXrecord
280
     1
102
RTVSPost2010Prop28
280
     0
102
RTVSPost2010PropOp28
 70
     1
102
RTVSPost2010Prop29
280
     1
102
RTVSPost2010PropOp29
 70
     1
102
RTVSPost2010Prop30
280
     1
102
RTVSPost2010PropOp30
 70
     1
102
RTVSPost2010Prop31
280
     0
102
RTVSPost2010PropOp31
 70
     1
102
RTVSPost2010Prop32
280
     0
102
RTVSPost2010PropOp32
 70
     1
102
RTVSPost2010Prop33
280
     0
102
RTVSPost2010PropOp33
 70
     1
102
RTVSPost2010Prop34
280
     0
102
RTVSPost2010PropOp34
 70
     1
102
RTVSPost2010Prop35
280
     0
102
RTVSPost2010PropOp35
 70
     1
102
RTVSPost2010Prop36
280
     0
102
RTVSPost2010PropOp36
 70
     1
102
RTVSPost2010Prop37
 90
       50
102
RTVSPost2010PropOp37
 70
     1
102
RTVSPost2010Prop38
140
0.0
102
RTVSPost2010PropOp38
 70
     1
102
RTVSPost2010Prop39
140
1.0
102
RTVSPost2010PropOp39
 70
     1
102
RTVSPost2010Prop40
 90
        0
102
RTVSPost2010PropOp40
 70
     1
102
RTVSPost2010Prop41ColorIndex
 90
       18
102
RTVSPost2010Prop41ColorRGB
 90
        0
102
RTVSPost2010PropOp41
 70
     1
102
RTVSPost2010Prop42
 90
       50
102
RTVSPost2010PropOp42
 70
     1
102
RTVSPost2010Prop43
 90
        3
102
RTVSPost2010PropOp43
 70
     1
102
RTVSPost2010Prop44ColorIndex
 90
        5
102
RTVSPost2010Prop44ColorRGB
 90
      255
102
RTVSPost2010PropOp44
 70
     1
102
RTVSPost2010Prop45
280
     0
102
RTVSPost2010PropOp45
 70
     1
102
RTVSPost2010Prop46
 90
       50
102
RTVSPost2010PropOp46
 70
     1
102
RTVSPost2010Prop47
 90
       50
102
RTVSPost2010PropOp47
 70
     1
102
RTVSPost2010Prop48
 90
       50
102
RTVSPost2010PropOp48
 70
     1
102
RTVSPost2010Prop49
280
     0
102
RTVSPost2010PropOp49
 70
     1
102
RTVSPost2010Prop50
 90
       50
102
RTVSPost2010PropOp50
 70
     1
102
RTVSPost2010Prop51ColorIndex
 90
      256
102
RTVSPost2010Prop51ColorRGB
 90
-16777216
102
RTVSPost2010PropOp51
 70
     0
102
RTVSPost2010Prop52
140
1.0
102
RTVSPost2010PropOp52
 70
     0
102
RTVSPost2010Prop53
 90
        2
102
RTVSPost2010PropOp53
 70
     1
102
RTVSPost2010Prop54
  1
strokes_ogs.tif
102
RTVSPost2010PropOp54
 70
     1
102
RTVSPost2010Prop55
280
     0
102
RTVSPost2010PropOp55
 70
     1
102
RTVSPost2010Prop56
140
1.0
102
RTVSPost2010PropOp56
 70
     1
102
RTVSPost2010Prop57
140
1.0
102
RTVSPost2010PropOp57
 70
     1
102
RTVSPropertyOp0
 70
     1
102
RTVSPropertyOp1
 70
     1
102
RTVSPropertyOp2
 70
     1
102
RTVSPropertyOp3
 70
     1
102
RTVSPropertyOp4
 70
     1
102
RTVSPropertyOp5
 70
     1
102
RTVSPropertyOp6
 70
     1
102
RTVSPropertyOp7
 70
     1
102
RTVSPropertyOp8
 70
     1
102
RTVSPropertyOp9
 70
     1
102
RTVSPropertyOp10
 70
     1
102
RTVSPropertyOp11
 70
     1
102
RTVSPropertyOp12
 70
     1
102
RTVSPropertyOp13
 70
     1
102
RTVSPropertyOp14
 70
     1
102
RTVSPropertyOp15
 70
     1
102
RTVSPropertyOp16
 70
     1
102
RTVSPropertyOp17
 70
     1
102
RTVSPropertyOp18
 70
     1
102
RTVSPropertyOp19
 70
     1
102
RTVSPropertyOp20
 70
     1
102
RTVSPropertyOp21
 70
     1
102
RTVSPropertyOp22
 70
     1
102
RTVSPropertyOp23
 70
     1
102
RTVSPropertyOp24
 70
     1
102
RTVSPropertyOp25
 70
     1
102
RTVSPropertyOp26
 70
     1
102
RTVSPropertyOp27
 70
     1
102
RTVSPropertyOp28
 70
     1
102
RTVSPropertyOp29
 70
     1
102
RTVSPropertyOp30
 70
     1
102
RTVSPropertyOp31
 70
     1
102
RTVSPropertyOp32
 70
     1
102
RTVSPropertyOp33
 70
     1
102
RTVSPropertyOp34
 70
     1
102
RTVSPropertyOp35
 70
     1
102
RTVSPropertyOp36
 70
     1
102
RTVSPropertyOp37
 70
     1
102
RTVSPropertyOp38
 70
     1
102
RTVSPropertyOp39
 70
     1
102
RTVSPropertyOp40
 70
     1
102
RTVSPropertyOp41
 70
     1
102
RTVSPropertyOp42
 70
     1
102
RTVSPropertyOp43
 70
     1
102
RTVSPropertyOp44
 70
     1
102
RTVSPropertyOp45
 70
     1
102
RTVSPropertyOp46
 70
     1
102
RTVSPropertyOp47
 70
     1
102
RTVSPropertyOp48
 70
     1
102
RTVSPropertyOp49
 70
     1
102
RTVSPropertyOp50
 70
     1
102
RTVSPropertyOp51
 70
     0
102
RTVSPropertyOp52
 70
     0
102
RTVSPropertyOp53
 70
     1
102
RTVSPropertyOp54
 70
     1
102
RTVSPropertyOp55
 70
     1
102
RTVSPropertyOp56
 70
     1
102
RTVSPropertyOp57
 70
     1
102
RTVSPropertyOp58
 70
     1
102
RTVSPropertyOp59
 70
     1
102
RTVSPropertyOp60
 70
     1
102
RTVSPropertyOp61
 70
     1
102
RTVSPropertyOp62
 70
     1
  0
XRECORD
  5
250
102
{ACAD_REACTORS
330
24F
102
}
330
24F
100
AcDbXrecord
280
     1
102
RTVSPost2010Prop28
280
     0
102
RTVSPost2010PropOp28
 70
     1
102
RTVSPost2010Prop29
280
     1
102
RTVSPost2010PropOp29
 70
     1
102
RTVSPost2010Prop30
280
     1
102
RTVSPost2010PropOp30
 70
     1
102
RTVSPost2010Prop31
280
     0
102
RTVSPost2010PropOp31
 70
     1
102
RTVSPost2010Prop32
280
     0
102
RTVSPost2010PropOp32
 70
     1
102
RTVSPost2010Prop33
280
     0
102
RTVSPost2010PropOp33
 70
     1
102
RTVSPost2010Prop34
280
     0
102
RTVSPost2010PropOp34
 70
     1
102
RTVSPost2010Prop35
280
     0
102
RTVSPost2010PropOp35
 70
     1
102
RTVSPost2010Prop36
280
     0
102
RTVSPost2010PropOp36
 70
     1
102
RTVSPost2010Prop37
 90
       50
102
RTVSPost2010PropOp37
 70
     1
102
RTVSPost2010Prop38
140
0.0
102
RTVSPost2010PropOp38
 70
     1
102
RTVSPost2010Prop39
140
1.0
102
RTVSPost2010PropOp39
 70
     1
102
RTVSPost2010Prop40
 90
        0
102
RTVSPost2010PropOp40
 70
     1
102
RTVSPost2010Prop41ColorIndex
 90
       18
102
RTVSPost2010Prop41ColorRGB
 90
        0
102
RTVSPost2010PropOp41
 70
     1
102
RTVSPost2010Prop42
 90
       50
102
RTVSPost2010PropOp42
 70
     1
102
RTVSPost2010Prop43
 90
        3
102
RTVSPost2010PropOp43
 70
     1
102
RTVSPost2010Prop44ColorIndex
 90
        5
102
RTVSPost2010Prop44ColorRGB
 90
      255
102
RTVSPost2010PropOp44
 70
     1
102
RTVSPost2010Prop45
280
     0
102
RTVSPost2010PropOp45
 70
     1
102
RTVSPost2010Prop46
 90
       50
102
RTVSPost2010PropOp46
 70
     1
102
RTVSPost2010Prop47
 90
       50
102
RTVSPost2010PropOp47
 70
     1
102
RTVSPost2010Prop48
 90
       50
102
RTVSPost2010PropOp48
 70
     1
102
RTVSPost2010Prop49
280
     0
102
RTVSPost2010PropOp49
 70
     1
102
RTVSPost2010Prop50
 90
       50
102
RTVSPost2010PropOp50
 70
     1
102
RTVSPost2010Prop51ColorIndex
 90
      256
102
RTVSPost2010Prop51ColorRGB
 90
-16777216
102
RTVSPost2010PropOp51
 70
     0
102
RTVSPost2010Prop52
140
1.0
102
RTVSPost2010PropOp52
 70
     0
102
RTVSPost2010Prop53
 90
        2
102
RTVSPost2010PropOp53
 70
     1
102
RTVSPost2010Prop54
  1
strokes_ogs.tif
102
RTVSPost2010PropOp54
 70
     1
102
RTVSPost2010Prop55
280
     0
102
RTVSPost2010PropOp55
 70
     1
102
RTVSPost2010Prop56
140
1.0
102
RTVSPost2010PropOp56
 70
     1
102
RTVSPost2010Prop57
140
1.0
102
RTVSPost2010PropOp57
 70
     1
102
RTVSPropertyOp0
 70
     1
102
RTVSPropertyOp1
 70
     1
102
RTVSPropertyOp2
 70
     1
102
RTVSPropertyOp3
 70
     1
102
RTVSPropertyOp4
 70
     1
102
RTVSPropertyOp5
 70
     1
102
RTVSPropertyOp6
 70
     1
102
RTVSPropertyOp7
 70
     1
102
RTVSPropertyOp8
 70
     1
102
RTVSPropertyOp9
 70
     1
102
RTVSPropertyOp10
 70
     1
102
RTVSPropertyOp11
 70
     1
102
RTVSPropertyOp12
 70
     1
102
RTVSPropertyOp13
 70
     1
102
RTVSPropertyOp14
 70
     1
102
RTVSPropertyOp15
 70
     1
102
RTVSPropertyOp16
 70
     1
102
RTVSPropertyOp17
 70
     1
102
RTVSPropertyOp18
 70
     1
102
RTVSPropertyOp19
 70
     1
102
RTVSPropertyOp20
 70
     1
102
RTVSPropertyOp21
 70
     1
102
RTVSPropertyOp22
 70
     1
102
RTVSPropertyOp23
 70
     1
102
RTVSPropertyOp24
 70
     1
102
RTVSPropertyOp25
 70
     1
102
RTVSPropertyOp26
 70
     1
102
RTVSPropertyOp27
 70
     1
102
RTVSPropertyOp28
 70
     1
102
RTVSPropertyOp29
 70
     1
102
RTVSPropertyOp30
 70
     1
102
RTVSPropertyOp31
 70
     1
102
RTVSPropertyOp32
 70
     1
102
RTVSPropertyOp33
 70
     1
102
RTVSPropertyOp34
 70
     1
102
RTVSPropertyOp35
 70
     1
102
RTVSPropertyOp36
 70
     1
102
RTVSPropertyOp37
 70
     1
102
RTVSPropertyOp38
 70
     1
102
RTVSPropertyOp39
 70
     1
102
RTVSPropertyOp40
 70
     1
102
RTVSPropertyOp41
 70
     1
102
RTVSPropertyOp42
 70
     1
102
RTVSPropertyOp43
 70
     1
102
RTVSPropertyOp44
 70
     1
102
RTVSPropertyOp45
 70
     1
102
RTVSPropertyOp46
 70
     1
102
RTVSPropertyOp47
 70
     1
102
RTVSPropertyOp48
 70
     1
102
RTVSPropertyOp49
 70
     1
102
RTVSPropertyOp50
 70
     1
102
RTVSPropertyOp51
 70
     0
102
RTVSPropertyOp52
 70
     0
102
RTVSPropertyOp53
 70
     1
102
RTVSPropertyOp54
 70
     1
102
RTVSPropertyOp55
 70
     1
102
RTVSPropertyOp56
 70
     1
102
RTVSPropertyOp57
 70
     1
102
RTVSPropertyOp58
 70
     1
102
RTVSPropertyOp59
 70
     1
102
RTVSPropertyOp60
 70
     1
102
RTVSPropertyOp61
 70
     1
102
RTVSPropertyOp62
 70
     1
  0
XRECORD
  5
26A
102
{ACAD_REACTORS
330
269
102
}
330
269
100
AcDbXrecord
280
     1
102
RTVSPost2010Prop28
280
     0
102
RTVSPost2010PropOp28
 70
     0
102
RTVSPost2010Prop29
280
     1
102
RTVSPost2010PropOp29
 70
     0
102
RTVSPost2010Prop30
280
     1
102
RTVSPost2010PropOp30
 70
     0
102
RTVSPost2010Prop31
280
     0
102
RTVSPost2010PropOp31
 70
     0
102
RTVSPost2010Prop32
280
     0
102
RTVSPost2010PropOp32
 70
     0
102
RTVSPost2010Prop33
280
     0
102
RTVSPost2010PropOp33
 70
     0
102
RTVSPost2010Prop34
280
     0
102
RTVSPost2010PropOp34
 70
     0
102
RTVSPost2010Prop35
280
     0
102
RTVSPost2010PropOp35
 70
     0
102
RTVSPost2010Prop36
280
     0
102
RTVSPost2010PropOp36
 70
     0
102
RTVSPost2010Prop37
 90
       50
102
RTVSPost2010PropOp37
 70
     0
102
RTVSPost2010Prop38
140
0.0
102
RTVSPost2010PropOp38
 70
     0
102
RTVSPost2010Prop39
140
1.0
102
RTVSPost2010PropOp39
 70
     0
102
RTVSPost2010Prop40
 90
        0
102
RTVSPost2010PropOp40
 70
     0
102
RTVSPost2010Prop41ColorIndex
 90
       18
102
RTVSPost2010Prop41ColorRGB
 90
        0
102
RTVSPost2010PropOp41
 70
     0
102
RTVSPost2010Prop42
 90
       50
102
RTVSPost2010PropOp42
 70
     0
102
RTVSPost2010Prop43
 90
        3
102
RTVSPost2010PropOp43
 70
     0
102
RTVSPost2010Prop44ColorIndex
 90
        5
102
RTVSPost2010Prop44ColorRGB
 90
      255
102
RTVSPost2010PropOp44
 70
     0
102
RTVSPost2010Prop45
280
     0
102
RTVSPost2010PropOp45
 70
     0
102
RTVSPost2010Prop46
 90
       50
102
RTVSPost2010PropOp46
 70
     0
102
RTVSPost2010Prop47
 90
       50
102
RTVSPost2010PropOp47
 70
     0
102
RTVSPost2010Prop48
 90
       50
102
RTVSPost2010PropOp48
 70
     0
102
RTVSPost2010Prop49
280
     0
102
RTVSPost2010PropOp49
 70
     0
102
RTVSPost2010Prop50
 90
       50
102
RTVSPost2010PropOp50
 70
     0
102
RTVSPost2010Prop51ColorIndex
 90
      256
102
RTVSPost2010Prop51ColorRGB
 90
-16777216
102
RTVSPost2010PropOp51
 70
     0
102
RTVSPost2010Prop52
140
1.0
102
RTVSPost2010PropOp52
 70
     0
102
RTVSPost2010Prop53
 90
        2
102
RTVSPost2010PropOp53
 70
     0
102
RTVSPost2010Prop54
  1
strokes_ogs.tif
102
RTVSPost2010PropOp54
 70
     0
102
RTVSPost2010Prop55
280
     0
102
RTVSPost2010PropOp55
 70
     0
102
RTVSPost2010Prop56
140
1.0
102
RTVSPost2010PropOp56
 70
     0
102
RTVSPost2010Prop57
140
1.0
102
RTVSPost2010PropOp57
 70
     0
102
RTVSPropertyOp0
 70
     0
102
RTVSPropertyOp1
 70
     0
102
RTVSPropertyOp2
 70
     0
102
RTVSPropertyOp3
 70
     0
102
RTVSPropertyOp4
 70
     0
102
RTVSPropertyOp5
 70
     0
102
RTVSPropertyOp6
 70
     0
102
RTVSPropertyOp7
 70
     0
102
RTVSPropertyOp8
 70
     0
102
RTVSPropertyOp9
 70
     0
102
RTVSPropertyOp10
 70
     0
102
RTVSPropertyOp11
 70
     0
102
RTVSPropertyOp12
 70
     0
102
RTVSPropertyOp13
 70
     0
102
RTVSPropertyOp14
 70
     2
102
RTVSPropertyOp15
 70
     0
102
RTVSPropertyOp16
 70
     0
102
RTVSPropertyOp17
 70
     0
102
RTVSPropertyOp18
 70
     0
102
RTVSPropertyOp19
 70
     0
102
RTVSPropertyOp20
 70
     0
102
RTVSPropertyOp21
 70
     0
102
RTVSPropertyOp22
 70
     0
102
RTVSPropertyOp23
 70
     0
102
RTVSPropertyOp24
 70
     0
102
RTVSPropertyOp25
 70
     0
102
RTVSPropertyOp26
 70
     0
102
RTVSPropertyOp27
 70
     0
102
RTVSPropertyOp28
 70
     0
102
RTVSPropertyOp29
 70
     0
102
RTVSPropertyOp30
 70
     0
102
RTVSPropertyOp31
 70
     0
102
RTVSPropertyOp32
 70
     0
102
RTVSPropertyOp33
 70
     0
102
RTVSPropertyOp34
 70
     0
102
RTVSPropertyOp35
 70
     0
102
RTVSPropertyOp36
 70
     0
102
RTVSPropertyOp37
 70
     0
102
RTVSPropertyOp38
 70
     0
102
RTVSPropertyOp39
 70
     0
102
RTVSPropertyOp40
 70
     0
102
RTVSPropertyOp41
 70
     0
102
RTVSPropertyOp42
 70
     0
102
RTVSPropertyOp43
 70
     0
102
RTVSPropertyOp44
 70
     0
102
RTVSPropertyOp45
 70
     0
102
RTVSPropertyOp46
 70
     0
102
RTVSPropertyOp47
 70
     0
102
RTVSPropertyOp48
 70
     0
102
RTVSPropertyOp49
 70
     0
102
RTVSPropertyOp50
 70
     0
102
RTVSPropertyOp51
 70
     0
102
RTVSPropertyOp52
 70
     0
102
RTVSPropertyOp53
 70
     0
102
RTVSPropertyOp54
 70
     0
102
RTVSPropertyOp55
 70
     0
102
RTVSPropertyOp56
 70
     0
102
RTVSPropertyOp57
 70
     0
102
RTVSPropertyOp58
 70
     1
102
RTVSPropertyOp59
 70
     1
102
RTVSPropertyOp60
 70
     1
102
RTVSPropertyOp61
 70
     1
102
RTVSPropertyOp62
 70
     1
  0
XRECORD
  5
258
102
{ACAD_REACTORS
330
257
102
}
330
257
100
AcDbXrecord
280
     1
102
RTVSPost2010Prop28
280
     0
102
RTVSPost2010PropOp28
 70
     1
102
RTVSPost2010Prop29
280
     1
102
RTVSPost2010PropOp29
 70
     1
102
RTVSPost2010Prop30
280
     1
102
RTVSPost2010PropOp30
 70
     1
102
RTVSPost2010Prop31
280
     0
102
RTVSPost2010PropOp31
 70
     1
102
RTVSPost2010Prop32
280
     0
102
RTVSPost2010PropOp32
 70
     1
102
RTVSPost2010Prop33
280
     0
102
RTVSPost2010PropOp33
 70
     1
102
RTVSPost2010Prop34
280
     0
102
RTVSPost2010PropOp34
 70
     1
102
RTVSPost2010Prop35
280
     0
102
RTVSPost2010PropOp35
 70
     1
102
RTVSPost2010Prop36
280
     0
102
RTVSPost2010PropOp36
 70
     1
102
RTVSPost2010Prop37
 90
       50
102
RTVSPost2010PropOp37
 70
     1
102
RTVSPost2010Prop38
140
0.0
102
RTVSPost2010PropOp38
 70
     1
102
RTVSPost2010Prop39
140
1.0
102
RTVSPost2010PropOp39
 70
     1
102
RTVSPost2010Prop40
 90
        0
102
RTVSPost2010PropOp40
 70
     1
102
RTVSPost2010Prop41ColorIndex
 90
       18
102
RTVSPost2010Prop41ColorRGB
 90
        0
102
RTVSPost2010PropOp41
 70
     1
102
RTVSPost2010Prop42
 90
       50
102
RTVSPost2010PropOp42
 70
     1
102
RTVSPost2010Prop43
 90
        3
102
RTVSPost2010PropOp43
 70
     1
102
RTVSPost2010Prop44ColorIndex
 90
        5
102
RTVSPost2010Prop44ColorRGB
 90
      255
102
RTVSPost2010PropOp44
 70
     1
102
RTVSPost2010Prop45
280
     0
102
RTVSPost2010PropOp45
 70
     1
102
RTVSPost2010Prop46
 90
       50
102
RTVSPost2010PropOp46
 70
     1
102
RTVSPost2010Prop47
 90
       50
102
RTVSPost2010PropOp47
 70
     1
102
RTVSPost2010Prop48
 90
       50
102
RTVSPost2010PropOp48
 70
     1
102
RTVSPost2010Prop49
280
     0
102
RTVSPost2010PropOp49
 70
     1
102
RTVSPost2010Prop50
 90
       50
102
RTVSPost2010PropOp50
 70
     1
102
RTVSPost2010Prop51ColorIndex
 90
      256
102
RTVSPost2010Prop51ColorRGB
 90
-16777216
102
RTVSPost2010PropOp51
 70
     0
102
RTVSPost2010Prop52
140
1.0
102
RTVSPost2010PropOp52
 70
     0
102
RTVSPost2010Prop53
 90
        2
102
RTVSPost2010PropOp53
 70
     1
102
RTVSPost2010Prop54
  1
strokes_ogs.tif
102
RTVSPost2010PropOp54
 70
     1
102
RTVSPost2010Prop55
280
     0
102
RTVSPost2010PropOp55
 70
     1
102
RTVSPost2010Prop56
140
1.0
102
RTVSPost2010PropOp56
 70
     1
102
RTVSPost2010Prop57
140
1.0
102
RTVSPost2010PropOp57
 70
     1
102
RTVSPropertyOp0
 70
     1
102
RTVSPropertyOp1
 70
     1
102
RTVSPropertyOp2
 70
     1
102
RTVSPropertyOp3
 70
     1
102
RTVSPropertyOp4
 70
     1
102
RTVSPropertyOp5
 70
     1
102
RTVSPropertyOp6
 70
     1
102
RTVSPropertyOp7
 70
     1
102
RTVSPropertyOp8
 70
     1
102
RTVSPropertyOp9
 70
     1
102
RTVSPropertyOp10
 70
     1
102
RTVSPropertyOp11
 70
     1
102
RTVSPropertyOp12
 70
     1
102
RTVSPropertyOp13
 70
     1
102
RTVSPropertyOp14
 70
     1
102
RTVSPropertyOp15
 70
     1
102
RTVSPropertyOp16
 70
     1
102
RTVSPropertyOp17
 70
     1
102
RTVSPropertyOp18
 70
     1
102
RTVSPropertyOp19
 70
     1
102
RTVSPropertyOp20
 70
     1
102
RTVSPropertyOp21
 70
     1
102
RTVSPropertyOp22
 70
     1
102
RTVSPropertyOp23
 70
     1
102
RTVSPropertyOp24
 70
     1
102
RTVSPropertyOp25
 70
     1
102
RTVSPropertyOp26
 70
     1
102
RTVSPropertyOp27
 70
     1
102
RTVSPropertyOp28
 70
     1
102
RTVSPropertyOp29
 70
     1
102
RTVSPropertyOp30
 70
     1
102
RTVSPropertyOp31
 70
     1
102
RTVSPropertyOp32
 70
     1
102
RTVSPropertyOp33
 70
     1
102
RTVSPropertyOp34
 70
     1
102
RTVSPropertyOp35
 70
     1
102
RTVSPropertyOp36
 70
     1
102
RTVSPropertyOp37
 70
     1
102
RTVSPropertyOp38
 70
     1
102
RTVSPropertyOp39
 70
     1
102
RTVSPropertyOp40
 70
     1
102
RTVSPropertyOp41
 70
     1
102
RTVSPropertyOp42
 70
     1
102
RTVSPropertyOp43
 70
     1
102
RTVSPropertyOp44
 70
     1
102
RTVSPropertyOp45
 70
     1
102
RTVSPropertyOp46
 70
     1
102
RTVSPropertyOp47
 70
     1
102
RTVSPropertyOp48
 70
     1
102
RTVSPropertyOp49
 70
     1
102
RTVSPropertyOp50
 70
     1
102
RTVSPropertyOp51
 70
     0
102
RTVSPropertyOp52
 70
     0
102
RTVSPropertyOp53
 70
     1
102
RTVSPropertyOp54
 70
     1
102
RTVSPropertyOp55
 70
     1
102
RTVSPropertyOp56
 70
     1
102
RTVSPropertyOp57
 70
     1
102
RTVSPropertyOp58
 70
     1
102
RTVSPropertyOp59
 70
     1
102
RTVSPropertyOp60
 70
     1
102
RTVSPropertyOp61
 70
     1
102
RTVSPropertyOp62
 70
     1
  0
XRECORD
  5
23C
102
{ACAD_REACTORS
330
23B
102
}
330
23B
100
AcDbXrecord
280
     1
102
RTVSPost2010Prop28
280
     0
102
RTVSPost2010PropOp28
 70
     1
102
RTVSPost2010Prop29
280
     1
102
RTVSPost2010PropOp29
 70
     1
102
RTVSPost2010Prop30
280
     1
102
RTVSPost2010PropOp30
 70
     1
102
RTVSPost2010Prop31
280
     0
102
RTVSPost2010PropOp31
 70
     1
102
RTVSPost2010Prop32
280
     0
102
RTVSPost2010PropOp32
 70
     1
102
RTVSPost2010Prop33
280
     0
102
RTVSPost2010PropOp33
 70
     1
102
RTVSPost2010Prop34
280
     0
102
RTVSPost2010PropOp34
 70
     1
102
RTVSPost2010Prop35
280
     0
102
RTVSPost2010PropOp35
 70
     1
102
RTVSPost2010Prop36
280
     0
102
RTVSPost2010PropOp36
 70
     1
102
RTVSPost2010Prop37
 90
       50
102
RTVSPost2010PropOp37
 70
     1
102
RTVSPost2010Prop38
140
0.0
102
RTVSPost2010PropOp38
 70
     1
102
RTVSPost2010Prop39
140
1.0
102
RTVSPost2010PropOp39
 70
     1
102
RTVSPost2010Prop40
 90
        0
102
RTVSPost2010PropOp40
 70
     1
102
RTVSPost2010Prop41ColorIndex
 90
       18
102
RTVSPost2010Prop41ColorRGB
 90
        0
102
RTVSPost2010PropOp41
 70
     1
102
RTVSPost2010Prop42
 90
       50
102
RTVSPost2010PropOp42
 70
     1
102
RTVSPost2010Prop43
 90
        3
102
RTVSPost2010PropOp43
 70
     1
102
RTVSPost2010Prop44ColorIndex
 90
        5
102
RTVSPost2010Prop44ColorRGB
 90
      255
102
RTVSPost2010PropOp44
 70
     1
102
RTVSPost2010Prop45
280
     0
102
RTVSPost2010PropOp45
 70
     1
102
RTVSPost2010Prop46
 90
       50
102
RTVSPost2010PropOp46
 70
     1
102
RTVSPost2010Prop47
 90
       50
102
RTVSPost2010PropOp47
 70
     1
102
RTVSPost2010Prop48
 90
       50
102
RTVSPost2010PropOp48
 70
     1
102
RTVSPost2010Prop49
280
     0
102
RTVSPost2010PropOp49
 70
     1
102
RTVSPost2010Prop50
 90
       50
102
RTVSPost2010PropOp50
 70
     1
102
RTVSPost2010Prop51ColorIndex
 90
      256
102
RTVSPost2010Prop51ColorRGB
 90
-16777216
102
RTVSPost2010PropOp51
 70
     0
102
RTVSPost2010Prop52
140
1.0
102
RTVSPost2010PropOp52
 70
     0
102
RTVSPost2010Prop53
 90
        2
102
RTVSPost2010PropOp53
 70
     1
102
RTVSPost2010Prop54
  1
strokes_ogs.tif
102
RTVSPost2010PropOp54
 70
     1
102
RTVSPost2010Prop55
280
     0
102
RTVSPost2010PropOp55
 70
     1
102
RTVSPost2010Prop56
140
1.0
102
RTVSPost2010PropOp56
 70
     1
102
RTVSPost2010Prop57
140
1.0
102
RTVSPost2010PropOp57
 70
     1
102
RTVSPropertyOp0
 70
     1
102
RTVSPropertyOp1
 70
     1
102
RTVSPropertyOp2
 70
     1
102
RTVSPropertyOp3
 70
     1
102
RTVSPropertyOp4
 70
     1
102
RTVSPropertyOp5
 70
     1
102
RTVSPropertyOp6
 70
     1
102
RTVSPropertyOp7
 70
     1
102
RTVSPropertyOp8
 70
     1
102
RTVSPropertyOp9
 70
     1
102
RTVSPropertyOp10
 70
     1
102
RTVSPropertyOp11
 70
     1
102
RTVSPropertyOp12
 70
     1
102
RTVSPropertyOp13
 70
     1
102
RTVSPropertyOp14
 70
     1
102
RTVSPropertyOp15
 70
     1
102
RTVSPropertyOp16
 70
     1
102
RTVSPropertyOp17
 70
     1
102
RTVSPropertyOp18
 70
     1
102
RTVSPropertyOp19
 70
     1
102
RTVSPropertyOp20
 70
     1
102
RTVSPropertyOp21
 70
     1
102
RTVSPropertyOp22
 70
     1
102
RTVSPropertyOp23
 70
     1
102
RTVSPropertyOp24
 70
     1
102
RTVSPropertyOp25
 70
     1
102
RTVSPropertyOp26
 70
     1
102
RTVSPropertyOp27
 70
     1
102
RTVSPropertyOp28
 70
     1
102
RTVSPropertyOp29
 70
     1
102
RTVSPropertyOp30
 70
     1
102
RTVSPropertyOp31
 70
     1
102
RTVSPropertyOp32
 70
     1
102
RTVSPropertyOp33
 70
     1
102
RTVSPropertyOp34
 70
     1
102
RTVSPropertyOp35
 70
     1
102
RTVSPropertyOp36
 70
     1
102
RTVSPropertyOp37
 70
     1
102
RTVSPropertyOp38
 70
     1
102
RTVSPropertyOp39
 70
     1
102
RTVSPropertyOp40
 70
     1
102
RTVSPropertyOp41
 70
     1
102
RTVSPropertyOp42
 70
     1
102
RTVSPropertyOp43
 70
     1
102
RTVSPropertyOp44
 70
     1
102
RTVSPropertyOp45
 70
     1
102
RTVSPropertyOp46
 70
     1
102
RTVSPropertyOp47
 70
     1
102
RTVSPropertyOp48
 70
     1
102
RTVSPropertyOp49
 70
     1
102
RTVSPropertyOp50
 70
     1
102
RTVSPropertyOp51
 70
     0
102
RTVSPropertyOp52
 70
     0
102
RTVSPropertyOp53
 70
     1
102
RTVSPropertyOp54
 70
     1
102
RTVSPropertyOp55
 70
     1
102
RTVSPropertyOp56
 70
     1
102
RTVSPropertyOp57
 70
     1
102
RTVSPropertyOp58
 70
     1
102
RTVSPropertyOp59
 70
     1
102
RTVSPropertyOp60
 70
     1
102
RTVSPropertyOp61
 70
     1
102
RTVSPropertyOp62
 70
     1
  0
XRECORD
  5
23E
102
{ACAD_REACTORS
330
23D
102
}
330
23D
100
AcDbXrecord
280
     1
102
RTVSPost2010Prop28
280
     0
102
RTVSPost2010PropOp28
 70
     1
102
RTVSPost2010Prop29
280
     1
102
RTVSPost2010PropOp29
 70
     1
102
RTVSPost2010Prop30
280
     1
102
RTVSPost2010PropOp30
 70
     1
102
RTVSPost2010Prop31
280
     0
102
RTVSPost2010PropOp31
 70
     1
102
RTVSPost2010Prop32
280
     0
102
RTVSPost2010PropOp32
 70
     1
102
RTVSPost2010Prop33
280
     0
102
RTVSPost2010PropOp33
 70
     1
102
RTVSPost2010Prop34
280
     0
102
RTVSPost2010PropOp34
 70
     1
102
RTVSPost2010Prop35
280
     0
102
RTVSPost2010PropOp35
 70
     1
102
RTVSPost2010Prop36
280
     0
102
RTVSPost2010PropOp36
 70
     1
102
RTVSPost2010Prop37
 90
       50
102
RTVSPost2010PropOp37
 70
     1
102
RTVSPost2010Prop38
140
0.0
102
RTVSPost2010PropOp38
 70
     1
102
RTVSPost2010Prop39
140
1.0
102
RTVSPost2010PropOp39
 70
     1
102
RTVSPost2010Prop40
 90
        0
102
RTVSPost2010PropOp40
 70
     1
102
RTVSPost2010Prop41ColorIndex
 90
       18
102
RTVSPost2010Prop41ColorRGB
 90
        0
102
RTVSPost2010PropOp41
 70
     1
102
RTVSPost2010Prop42
 90
       50
102
RTVSPost2010PropOp42
 70
     1
102
RTVSPost2010Prop43
 90
        3
102
RTVSPost2010PropOp43
 70
     1
102
RTVSPost2010Prop44ColorIndex
 90
        5
102
RTVSPost2010Prop44ColorRGB
 90
      255
102
RTVSPost2010PropOp44
 70
     1
102
RTVSPost2010Prop45
280
     0
102
RTVSPost2010PropOp45
 70
     1
102
RTVSPost2010Prop46
 90
       50
102
RTVSPost2010PropOp46
 70
     1
102
RTVSPost2010Prop47
 90
       50
102
RTVSPost2010PropOp47
 70
     1
102
RTVSPost2010Prop48
 90
       50
102
RTVSPost2010PropOp48
 70
     1
102
RTVSPost2010Prop49
280
     0
102
RTVSPost2010PropOp49
 70
     1
102
RTVSPost2010Prop50
 90
       50
102
RTVSPost2010PropOp50
 70
     1
102
RTVSPost2010Prop51ColorIndex
 90
      256
102
RTVSPost2010Prop51ColorRGB
 90
-16777216
102
RTVSPost2010PropOp51
 70
     0
102
RTVSPost2010Prop52
140
1.0
102
RTVSPost2010PropOp52
 70
     0
102
RTVSPost2010Prop53
 90
        2
102
RTVSPost2010PropOp53
 70
     1
102
RTVSPost2010Prop54
  1
strokes_ogs.tif
102
RTVSPost2010PropOp54
 70
     1
102
RTVSPost2010Prop55
280
     0
102
RTVSPost2010PropOp55
 70
     1
102
RTVSPost2010Prop56
140
1.0
102
RTVSPost2010PropOp56
 70
     1
102
RTVSPost2010Prop57
140
1.0
102
RTVSPost2010PropOp57
 70
     1
102
RTVSPropertyOp0
 70
     1
102
RTVSPropertyOp1
 70
     1
102
RTVSPropertyOp2
 70
     1
102
RTVSPropertyOp3
 70
     1
102
RTVSPropertyOp4
 70
     1
102
RTVSPropertyOp5
 70
     1
102
RTVSPropertyOp6
 70
     1
102
RTVSPropertyOp7
 70
     1
102
RTVSPropertyOp8
 70
     1
102
RTVSPropertyOp9
 70
     1
102
RTVSPropertyOp10
 70
     1
102
RTVSPropertyOp11
 70
     1
102
RTVSPropertyOp12
 70
     1
102
RTVSPropertyOp13
 70
     1
102
RTVSPropertyOp14
 70
     1
102
RTVSPropertyOp15
 70
     1
102
RTVSPropertyOp16
 70
     1
102
RTVSPropertyOp17
 70
     1
102
RTVSPropertyOp18
 70
     1
102
RTVSPropertyOp19
 70
     1
102
RTVSPropertyOp20
 70
     1
102
RTVSPropertyOp21
 70
     1
102
RTVSPropertyOp22
 70
     1
102
RTVSPropertyOp23
 70
     1
102
RTVSPropertyOp24
 70
     1
102
RTVSPropertyOp25
 70
     1
102
RTVSPropertyOp26
 70
     1
102
RTVSPropertyOp27
 70
     1
102
RTVSPropertyOp28
 70
     1
102
RTVSPropertyOp29
 70
     1
102
RTVSPropertyOp30
 70
     1
102
RTVSPropertyOp31
 70
     1
102
RTVSPropertyOp32
 70
     1
102
RTVSPropertyOp33
 70
     1
102
RTVSPropertyOp34
 70
     1
102
RTVSPropertyOp35
 70
     1
102
RTVSPropertyOp36
 70
     1
102
RTVSPropertyOp37
 70
     1
102
RTVSPropertyOp38
 70
     1
102
RTVSPropertyOp39
 70
     1
102
RTVSPropertyOp40
 70
     1
102
RTVSPropertyOp41
 70
     1
102
RTVSPropertyOp42
 70
     1
102
RTVSPropertyOp43
 70
     1
102
RTVSPropertyOp44
 70
     1
102
RTVSPropertyOp45
 70
     1
102
RTVSPropertyOp46
 70
     1
102
RTVSPropertyOp47
 70
     1
102
RTVSPropertyOp48
 70
     1
102
RTVSPropertyOp49
 70
     1
102
RTVSPropertyOp50
 70
     1
102
RTVSPropertyOp51
 70
     0
102
RTVSPropertyOp52
 70
     0
102
RTVSPropertyOp53
 70
     1
102
RTVSPropertyOp54
 70
     1
102
RTVSPropertyOp55
 70
     1
102
RTVSPropertyOp56
 70
     1
102
RTVSPropertyOp57
 70
     1
102
RTVSPropertyOp58
 70
     1
102
RTVSPropertyOp59
 70
     1
102
RTVSPropertyOp60
 70
     1
102
RTVSPropertyOp61
 70
     1
102
RTVSPropertyOp62
 70
     1
  0
XRECORD
  5
240
102
{ACAD_REACTORS
330
23F
102
}
330
23F
100
AcDbXrecord
280
     1
102
RTVSPost2010Prop28
280
     0
102
RTVSPost2010PropOp28
 70
     1
102
RTVSPost2010Prop29
280
     1
102
RTVSPost2010PropOp29
 70
     1
102
RTVSPost2010Prop30
280
     1
102
RTVSPost2010PropOp30
 70
     1
102
RTVSPost2010Prop31
280
     0
102
RTVSPost2010PropOp31
 70
     1
102
RTVSPost2010Prop32
280
     0
102
RTVSPost2010PropOp32
 70
     1
102
RTVSPost2010Prop33
280
     0
102
RTVSPost2010PropOp33
 70
     1
102
RTVSPost2010Prop34
280
     0
102
RTVSPost2010PropOp34
 70
     1
102
RTVSPost2010Prop35
280
     0
102
RTVSPost2010PropOp35
 70
     1
102
RTVSPost2010Prop36
280
     0
102
RTVSPost2010PropOp36
 70
     1
102
RTVSPost2010Prop37
 90
       50
102
RTVSPost2010PropOp37
 70
     1
102
RTVSPost2010Prop38
140
0.0
102
RTVSPost2010PropOp38
 70
     1
102
RTVSPost2010Prop39
140
1.0
102
RTVSPost2010PropOp39
 70
     1
102
RTVSPost2010Prop40
 90
        0
102
RTVSPost2010PropOp40
 70
     1
102
RTVSPost2010Prop41ColorIndex
 90
       18
102
RTVSPost2010Prop41ColorRGB
 90
        0
102
RTVSPost2010PropOp41
 70
     1
102
RTVSPost2010Prop42
 90
       50
102
RTVSPost2010PropOp42
 70
     1
102
RTVSPost2010Prop43
 90
        3
102
RTVSPost2010PropOp43
 70
     1
102
RTVSPost2010Prop44ColorIndex
 90
        5
102
RTVSPost2010Prop44ColorRGB
 90
      255
102
RTVSPost2010PropOp44
 70
     1
102
RTVSPost2010Prop45
280
     0
102
RTVSPost2010PropOp45
 70
     1
102
RTVSPost2010Prop46
 90
       50
102
RTVSPost2010PropOp46
 70
     1
102
RTVSPost2010Prop47
 90
       50
102
RTVSPost2010PropOp47
 70
     1
102
RTVSPost2010Prop48
 90
       50
102
RTVSPost2010PropOp48
 70
     1
102
RTVSPost2010Prop49
280
     0
102
RTVSPost2010PropOp49
 70
     1
102
RTVSPost2010Prop50
 90
       50
102
RTVSPost2010PropOp50
 70
     1
102
RTVSPost2010Prop51ColorIndex
 90
      256
102
RTVSPost2010Prop51ColorRGB
 90
-16777216
102
RTVSPost2010PropOp51
 70
     0
102
RTVSPost2010Prop52
140
1.0
102
RTVSPost2010PropOp52
 70
     0
102
RTVSPost2010Prop53
 90
        2
102
RTVSPost2010PropOp53
 70
     1
102
RTVSPost2010Prop54
  1
strokes_ogs.tif
102
RTVSPost2010PropOp54
 70
     1
102
RTVSPost2010Prop55
280
     0
102
RTVSPost2010PropOp55
 70
     1
102
RTVSPost2010Prop56
140
1.0
102
RTVSPost2010PropOp56
 70
     1
102
RTVSPost2010Prop57
140
1.0
102
RTVSPost2010PropOp57
 70
     1
102
RTVSPropertyOp0
 70
     1
102
RTVSPropertyOp1
 70
     1
102
RTVSPropertyOp2
 70
     1
102
RTVSPropertyOp3
 70
     1
102
RTVSPropertyOp4
 70
     1
102
RTVSPropertyOp5
 70
     1
102
RTVSPropertyOp6
 70
     1
102
RTVSPropertyOp7
 70
     1
102
RTVSPropertyOp8
 70
     1
102
RTVSPropertyOp9
 70
     1
102
RTVSPropertyOp10
 70
     1
102
RTVSPropertyOp11
 70
     1
102
RTVSPropertyOp12
 70
     1
102
RTVSPropertyOp13
 70
     1
102
RTVSPropertyOp14
 70
     1
102
RTVSPropertyOp15
 70
     1
102
RTVSPropertyOp16
 70
     1
102
RTVSPropertyOp17
 70
     1
102
RTVSPropertyOp18
 70
     1
102
RTVSPropertyOp19
 70
     1
102
RTVSPropertyOp20
 70
     1
102
RTVSPropertyOp21
 70
     1
102
RTVSPropertyOp22
 70
     1
102
RTVSPropertyOp23
 70
     1
102
RTVSPropertyOp24
 70
     1
102
RTVSPropertyOp25
 70
     1
102
RTVSPropertyOp26
 70
     1
102
RTVSPropertyOp27
 70
     1
102
RTVSPropertyOp28
 70
     1
102
RTVSPropertyOp29
 70
     1
102
RTVSPropertyOp30
 70
     1
102
RTVSPropertyOp31
 70
     1
102
RTVSPropertyOp32
 70
     1
102
RTVSPropertyOp33
 70
     1
102
RTVSPropertyOp34
 70
     1
102
RTVSPropertyOp35
 70
     1
102
RTVSPropertyOp36
 70
     1
102
RTVSPropertyOp37
 70
     1
102
RTVSPropertyOp38
 70
     1
102
RTVSPropertyOp39
 70
     1
102
RTVSPropertyOp40
 70
     1
102
RTVSPropertyOp41
 70
     1
102
RTVSPropertyOp42
 70
     1
102
RTVSPropertyOp43
 70
     1
102
RTVSPropertyOp44
 70
     1
102
RTVSPropertyOp45
 70
     1
102
RTVSPropertyOp46
 70
     1
102
RTVSPropertyOp47
 70
     1
102
RTVSPropertyOp48
 70
     1
102
RTVSPropertyOp49
 70
     1
102
RTVSPropertyOp50
 70
     1
102
RTVSPropertyOp51
 70
     0
102
RTVSPropertyOp52
 70
     0
102
RTVSPropertyOp53
 70
     1
102
RTVSPropertyOp54
 70
     1
102
RTVSPropertyOp55
 70
     1
102
RTVSPropertyOp56
 70
     1
102
RTVSPropertyOp57
 70
     1
102
RTVSPropertyOp58
 70
     1
102
RTVSPropertyOp59
 70
     1
102
RTVSPropertyOp60
 70
     1
102
RTVSPropertyOp61
 70
     1
102
RTVSPropertyOp62
 70
     1
  0
XRECORD
  5
242
102
{ACAD_REACTORS
330
241
102
}
330
241
100
AcDbXrecord
280
     1
102
RTVSPost2010Prop28
280
     0
102
RTVSPost2010PropOp28
 70
     1
102
RTVSPost2010Prop29
280
     1
102
RTVSPost2010PropOp29
 70
     1
102
RTVSPost2010Prop30
280
     1
102
RTVSPost2010PropOp30
 70
     1
102
RTVSPost2010Prop31
280
     0
102
RTVSPost2010PropOp31
 70
     1
102
RTVSPost2010Prop32
280
     0
102
RTVSPost2010PropOp32
 70
     1
102
RTVSPost2010Prop33
280
     0
102
RTVSPost2010PropOp33
 70
     1
102
RTVSPost2010Prop34
280
     0
102
RTVSPost2010PropOp34
 70
     1
102
RTVSPost2010Prop35
280
     0
102
RTVSPost2010PropOp35
 70
     1
102
RTVSPost2010Prop36
280
     0
102
RTVSPost2010PropOp36
 70
     1
102
RTVSPost2010Prop37
 90
       50
102
RTVSPost2010PropOp37
 70
     1
102
RTVSPost2010Prop38
140
0.0
102
RTVSPost2010PropOp38
 70
     1
102
RTVSPost2010Prop39
140
1.0
102
RTVSPost2010PropOp39
 70
     1
102
RTVSPost2010Prop40
 90
        0
102
RTVSPost2010PropOp40
 70
     1
102
RTVSPost2010Prop41ColorIndex
 90
       18
102
RTVSPost2010Prop41ColorRGB
 90
        0
102
RTVSPost2010PropOp41
 70
     1
102
RTVSPost2010Prop42
 90
       50
102
RTVSPost2010PropOp42
 70
     1
102
RTVSPost2010Prop43
 90
        3
102
RTVSPost2010PropOp43
 70
     1
102
RTVSPost2010Prop44ColorIndex
 90
        5
102
RTVSPost2010Prop44ColorRGB
 90
      255
102
RTVSPost2010PropOp44
 70
     1
102
RTVSPost2010Prop45
280
     0
102
RTVSPost2010PropOp45
 70
     1
102
RTVSPost2010Prop46
 90
       50
102
RTVSPost2010PropOp46
 70
     1
102
RTVSPost2010Prop47
 90
       50
102
RTVSPost2010PropOp47
 70
     1
102
RTVSPost2010Prop48
 90
       50
102
RTVSPost2010PropOp48
 70
     1
102
RTVSPost2010Prop49
280
     0
102
RTVSPost2010PropOp49
 70
     1
102
RTVSPost2010Prop50
 90
       50
102
RTVSPost2010PropOp50
 70
     1
102
RTVSPost2010Prop51ColorIndex
 90
      256
102
RTVSPost2010Prop51ColorRGB
 90
-16777216
102
RTVSPost2010PropOp51
 70
     0
102
RTVSPost2010Prop52
140
1.0
102
RTVSPost2010PropOp52
 70
     0
102
RTVSPost2010Prop53
 90
        2
102
RTVSPost2010PropOp53
 70
     1
102
RTVSPost2010Prop54
  1
strokes_ogs.tif
102
RTVSPost2010PropOp54
 70
     1
102
RTVSPost2010Prop55
280
     0
102
RTVSPost2010PropOp55
 70
     1
102
RTVSPost2010Prop56
140
1.0
102
RTVSPost2010PropOp56
 70
     1
102
RTVSPost2010Prop57
140
1.0
102
RTVSPost2010PropOp57
 70
     1
102
RTVSPropertyOp0
 70
     1
102
RTVSPropertyOp1
 70
     1
102
RTVSPropertyOp2
 70
     1
102
RTVSPropertyOp3
 70
     1
102
RTVSPropertyOp4
 70
     1
102
RTVSPropertyOp5
 70
     1
102
RTVSPropertyOp6
 70
     1
102
RTVSPropertyOp7
 70
     1
102
RTVSPropertyOp8
 70
     1
102
RTVSPropertyOp9
 70
     1
102
RTVSPropertyOp10
 70
     1
102
RTVSPropertyOp11
 70
     1
102
RTVSPropertyOp12
 70
     1
102
RTVSPropertyOp13
 70
     1
102
RTVSPropertyOp14
 70
     1
102
RTVSPropertyOp15
 70
     1
102
RTVSPropertyOp16
 70
     1
102
RTVSPropertyOp17
 70
     1
102
RTVSPropertyOp18
 70
     1
102
RTVSPropertyOp19
 70
     1
102
RTVSPropertyOp20
 70
     1
102
RTVSPropertyOp21
 70
     1
102
RTVSPropertyOp22
 70
     1
102
RTVSPropertyOp23
 70
     1
102
RTVSPropertyOp24
 70
     1
102
RTVSPropertyOp25
 70
     1
102
RTVSPropertyOp26
 70
     1
102
RTVSPropertyOp27
 70
     1
102
RTVSPropertyOp28
 70
     1
102
RTVSPropertyOp29
 70
     1
102
RTVSPropertyOp30
 70
     1
102
RTVSPropertyOp31
 70
     1
102
RTVSPropertyOp32
 70
     1
102
RTVSPropertyOp33
 70
     1
102
RTVSPropertyOp34
 70
     1
102
RTVSPropertyOp35
 70
     1
102
RTVSPropertyOp36
 70
     1
102
RTVSPropertyOp37
 70
     1
102
RTVSPropertyOp38
 70
     1
102
RTVSPropertyOp39
 70
     1
102
RTVSPropertyOp40
 70
     1
102
RTVSPropertyOp41
 70
     1
102
RTVSPropertyOp42
 70
     1
102
RTVSPropertyOp43
 70
     1
102
RTVSPropertyOp44
 70
     1
102
RTVSPropertyOp45
 70
     1
102
RTVSPropertyOp46
 70
     1
102
RTVSPropertyOp47
 70
     1
102
RTVSPropertyOp48
 70
     1
102
RTVSPropertyOp49
 70
     1
102
RTVSPropertyOp50
 70
     1
102
RTVSPropertyOp51
 70
     0
102
RTVSPropertyOp52
 70
     0
102
RTVSPropertyOp53
 70
     1
102
RTVSPropertyOp54
 70
     1
102
RTVSPropertyOp55
 70
     1
102
RTVSPropertyOp56
 70
     1
102
RTVSPropertyOp57
 70
     1
102
RTVSPropertyOp58
 70
     1
102
RTVSPropertyOp59
 70
     1
102
RTVSPropertyOp60
 70
     1
102
RTVSPropertyOp61
 70
     1
102
RTVSPropertyOp62
 70
     1
  0
XRECORD
  5
24A
102
{ACAD_REACTORS
330
249
102
}
330
249
100
AcDbXrecord
280
     1
102
RTVSPost2010Prop28
280
     0
102
RTVSPost2010PropOp28
 70
     1
102
RTVSPost2010Prop29
280
     1
102
RTVSPost2010PropOp29
 70
     1
102
RTVSPost2010Prop30
280
     1
102
RTVSPost2010PropOp30
 70
     1
102
RTVSPost2010Prop31
280
     0
102
RTVSPost2010PropOp31
 70
     1
102
RTVSPost2010Prop32
280
     0
102
RTVSPost2010PropOp32
 70
     1
102
RTVSPost2010Prop33
280
     0
102
RTVSPost2010PropOp33
 70
     1
102
RTVSPost2010Prop34
280
     0
102
RTVSPost2010PropOp34
 70
     1
102
RTVSPost2010Prop35
280
     0
102
RTVSPost2010PropOp35
 70
     1
102
RTVSPost2010Prop36
280
     0
102
RTVSPost2010PropOp36
 70
     1
102
RTVSPost2010Prop37
 90
       50
102
RTVSPost2010PropOp37
 70
     1
102
RTVSPost2010Prop38
140
0.0
102
RTVSPost2010PropOp38
 70
     1
102
RTVSPost2010Prop39
140
1.0
102
RTVSPost2010PropOp39
 70
     1
102
RTVSPost2010Prop40
 90
        0
102
RTVSPost2010PropOp40
 70
     1
102
RTVSPost2010Prop41ColorIndex
 90
       18
102
RTVSPost2010Prop41ColorRGB
 90
        0
102
RTVSPost2010PropOp41
 70
     1
102
RTVSPost2010Prop42
 90
       50
102
RTVSPost2010PropOp42
 70
     1
102
RTVSPost2010Prop43
 90
        3
102
RTVSPost2010PropOp43
 70
     1
102
RTVSPost2010Prop44ColorIndex
 90
        5
102
RTVSPost2010Prop44ColorRGB
 90
      255
102
RTVSPost2010PropOp44
 70
     1
102
RTVSPost2010Prop45
280
     0
102
RTVSPost2010PropOp45
 70
     1
102
RTVSPost2010Prop46
 90
       50
102
RTVSPost2010PropOp46
 70
     1
102
RTVSPost2010Prop47
 90
       50
102
RTVSPost2010PropOp47
 70
     1
102
RTVSPost2010Prop48
 90
       50
102
RTVSPost2010PropOp48
 70
     1
102
RTVSPost2010Prop49
280
     0
102
RTVSPost2010PropOp49
 70
     1
102
RTVSPost2010Prop50
 90
       50
102
RTVSPost2010PropOp50
 70
     1
102
RTVSPost2010Prop51ColorIndex
 90
      256
102
RTVSPost2010Prop51ColorRGB
 90
-16777216
102
RTVSPost2010PropOp51
 70
     0
102
RTVSPost2010Prop52
140
1.0
102
RTVSPost2010PropOp52
 70
     0
102
RTVSPost2010Prop53
 90
        2
102
RTVSPost2010PropOp53
 70
     1
102
RTVSPost2010Prop54
  1
strokes_ogs.tif
102
RTVSPost2010PropOp54
 70
     1
102
RTVSPost2010Prop55
280
     0
102
RTVSPost2010PropOp55
 70
     1
102
RTVSPost2010Prop56
140
1.0
102
RTVSPost2010PropOp56
 70
     1
102
RTVSPost2010Prop57
140
1.0
102
RTVSPost2010PropOp57
 70
     1
102
RTVSPropertyOp0
 70
     1
102
RTVSPropertyOp1
 70
     1
102
RTVSPropertyOp2
 70
     1
102
RTVSPropertyOp3
 70
     1
102
RTVSPropertyOp4
 70
     1
102
RTVSPropertyOp5
 70
     1
102
RTVSPropertyOp6
 70
     1
102
RTVSPropertyOp7
 70
     1
102
RTVSPropertyOp8
 70
     1
102
RTVSPropertyOp9
 70
     1
102
RTVSPropertyOp10
 70
     1
102
RTVSPropertyOp11
 70
     1
102
RTVSPropertyOp12
 70
     1
102
RTVSPropertyOp13
 70
     1
102
RTVSPropertyOp14
 70
     1
102
RTVSPropertyOp15
 70
     1
102
RTVSPropertyOp16
 70
     1
102
RTVSPropertyOp17
 70
     1
102
RTVSPropertyOp18
 70
     1
102
RTVSPropertyOp19
 70
     1
102
RTVSPropertyOp20
 70
     1
102
RTVSPropertyOp21
 70
     1
102
RTVSPropertyOp22
 70
     1
102
RTVSPropertyOp23
 70
     1
102
RTVSPropertyOp24
 70
     1
102
RTVSPropertyOp25
 70
     1
102
RTVSPropertyOp26
 70
     1
102
RTVSPropertyOp27
 70
     1
102
RTVSPropertyOp28
 70
     1
102
RTVSPropertyOp29
 70
     1
102
RTVSPropertyOp30
 70
     1
102
RTVSPropertyOp31
 70
     1
102
RTVSPropertyOp32
 70
     1
102
RTVSPropertyOp33
 70
     1
102
RTVSPropertyOp34
 70
     1
102
RTVSPropertyOp35
 70
     1
102
RTVSPropertyOp36
 70
     1
102
RTVSPropertyOp37
 70
     1
102
RTVSPropertyOp38
 70
     1
102
RTVSPropertyOp39
 70
     1
102
RTVSPropertyOp40
 70
     1
102
RTVSPropertyOp41
 70
     1
102
RTVSPropertyOp42
 70
     1
102
RTVSPropertyOp43
 70
     1
102
RTVSPropertyOp44
 70
     1
102
RTVSPropertyOp45
 70
     1
102
RTVSPropertyOp46
 70
     1
102
RTVSPropertyOp47
 70
     1
102
RTVSPropertyOp48
 70
     1
102
RTVSPropertyOp49
 70
     1
102
RTVSPropertyOp50
 70
     1
102
RTVSPropertyOp51
 70
     0
102
RTVSPropertyOp52
 70
     0
102
RTVSPropertyOp53
 70
     1
102
RTVSPropertyOp54
 70
     1
102
RTVSPropertyOp55
 70
     1
102
RTVSPropertyOp56
 70
     1
102
RTVSPropertyOp57
 70
     1
102
RTVSPropertyOp58
 70
     1
102
RTVSPropertyOp59
 70
     1
102
RTVSPropertyOp60
 70
     1
102
RTVSPropertyOp61
 70
     1
102
RTVSPropertyOp62
 70
     1
  0
XRECORD
  5
266
102
{ACAD_REACTORS
330
265
102
}
330
265
100
AcDbXrecord
280
     1
102
RTVSPost2010Prop28
280
     0
102
RTVSPost2010PropOp28
 70
     0
102
RTVSPost2010Prop29
280
     1
102
RTVSPost2010PropOp29
 70
     0
102
RTVSPost2010Prop30
280
     1
102
RTVSPost2010PropOp30
 70
     0
102
RTVSPost2010Prop31
280
     0
102
RTVSPost2010PropOp31
 70
     0
102
RTVSPost2010Prop32
280
     0
102
RTVSPost2010PropOp32
 70
     0
102
RTVSPost2010Prop33
280
     0
102
RTVSPost2010PropOp33
 70
     0
102
RTVSPost2010Prop34
280
     0
102
RTVSPost2010PropOp34
 70
     0
102
RTVSPost2010Prop35
280
     0
102
RTVSPost2010PropOp35
 70
     0
102
RTVSPost2010Prop36
280
     0
102
RTVSPost2010PropOp36
 70
     0
102
RTVSPost2010Prop37
 90
       50
102
RTVSPost2010PropOp37
 70
     0
102
RTVSPost2010Prop38
140
0.0
102
RTVSPost2010PropOp38
 70
     0
102
RTVSPost2010Prop39
140
1.0
102
RTVSPost2010PropOp39
 70
     0
102
RTVSPost2010Prop40
 90
        0
102
RTVSPost2010PropOp40
 70
     0
102
RTVSPost2010Prop41ColorIndex
 90
       18
102
RTVSPost2010Prop41ColorRGB
 90
        0
102
RTVSPost2010PropOp41
 70
     0
102
RTVSPost2010Prop42
 90
       50
102
RTVSPost2010PropOp42
 70
     0
102
RTVSPost2010Prop43
 90
        3
102
RTVSPost2010PropOp43
 70
     0
102
RTVSPost2010Prop44ColorIndex
 90
        5
102
RTVSPost2010Prop44ColorRGB
 90
      255
102
RTVSPost2010PropOp44
 70
     0
102
RTVSPost2010Prop45
280
     0
102
RTVSPost2010PropOp45
 70
     0
102
RTVSPost2010Prop46
 90
       50
102
RTVSPost2010PropOp46
 70
     0
102
RTVSPost2010Prop47
 90
       50
102
RTVSPost2010PropOp47
 70
     0
102
RTVSPost2010Prop48
 90
       50
102
RTVSPost2010PropOp48
 70
     0
102
RTVSPost2010Prop49
280
     0
102
RTVSPost2010PropOp49
 70
     0
102
RTVSPost2010Prop50
 90
       50
102
RTVSPost2010PropOp50
 70
     0
102
RTVSPost2010Prop51ColorIndex
 90
      256
102
RTVSPost2010Prop51ColorRGB
 90
-16777216
102
RTVSPost2010PropOp51
 70
     0
102
RTVSPost2010Prop52
140
1.0
102
RTVSPost2010PropOp52
 70
     0
102
RTVSPost2010Prop53
 90
        2
102
RTVSPost2010PropOp53
 70
     0
102
RTVSPost2010Prop54
  1
strokes_ogs.tif
102
RTVSPost2010PropOp54
 70
     0
102
RTVSPost2010Prop55
280
     0
102
RTVSPost2010PropOp55
 70
     0
102
RTVSPost2010Prop56
140
1.0
102
RTVSPost2010PropOp56
 70
     0
102
RTVSPost2010Prop57
140
1.0
102
RTVSPost2010PropOp57
 70
     0
102
RTVSPropertyOp0
 70
     0
102
RTVSPropertyOp1
 70
     0
102
RTVSPropertyOp2
 70
     0
102
RTVSPropertyOp3
 70
     0
102
RTVSPropertyOp4
 70
     0
102
RTVSPropertyOp5
 70
     0
102
RTVSPropertyOp6
 70
     0
102
RTVSPropertyOp7
 70
     0
102
RTVSPropertyOp8
 70
     0
102
RTVSPropertyOp9
 70
     0
102
RTVSPropertyOp10
 70
     0
102
RTVSPropertyOp11
 70
     0
102
RTVSPropertyOp12
 70
     0
102
RTVSPropertyOp13
 70
     0
102
RTVSPropertyOp14
 70
     2
102
RTVSPropertyOp15
 70
     0
102
RTVSPropertyOp16
 70
     0
102
RTVSPropertyOp17
 70
     0
102
RTVSPropertyOp18
 70
     0
102
RTVSPropertyOp19
 70
     0
102
RTVSPropertyOp20
 70
     0
102
RTVSPropertyOp21
 70
     0
102
RTVSPropertyOp22
 70
     0
102
RTVSPropertyOp23
 70
     0
102
RTVSPropertyOp24
 70
     0
102
RTVSPropertyOp25
 70
     0
102
RTVSPropertyOp26
 70
     0
102
RTVSPropertyOp27
 70
     0
102
RTVSPropertyOp28
 70
     0
102
RTVSPropertyOp29
 70
     0
102
RTVSPropertyOp30
 70
     0
102
RTVSPropertyOp31
 70
     0
102
RTVSPropertyOp32
 70
     0
102
RTVSPropertyOp33
 70
     0
102
RTVSPropertyOp34
 70
     0
102
RTVSPropertyOp35
 70
     0
102
RTVSPropertyOp36
 70
     0
102
RTVSPropertyOp37
 70
     0
102
RTVSPropertyOp38
 70
     0
102
RTVSPropertyOp39
 70
     0
102
RTVSPropertyOp40
 70
     0
102
RTVSPropertyOp41
 70
     0
102
RTVSPropertyOp42
 70
     0
102
RTVSPropertyOp43
 70
     0
102
RTVSPropertyOp44
 70
     0
102
RTVSPropertyOp45
 70
     0
102
RTVSPropertyOp46
 70
     0
102
RTVSPropertyOp47
 70
     0
102
RTVSPropertyOp48
 70
     0
102
RTVSPropertyOp49
 70
     0
102
RTVSPropertyOp50
 70
     0
102
RTVSPropertyOp51
 70
     0
102
RTVSPropertyOp52
 70
     0
102
RTVSPropertyOp53
 70
     0
102
RTVSPropertyOp54
 70
     0
102
RTVSPropertyOp55
 70
     0
102
RTVSPropertyOp56
 70
     0
102
RTVSPropertyOp57
 70
     0
102
RTVSPropertyOp58
 70
     1
102
RTVSPropertyOp59
 70
     1
102
RTVSPropertyOp60
 70
     1
102
RTVSPropertyOp61
 70
     1
102
RTVSPropertyOp62
 70
     1
  0
XRECORD
  5
256
102
{ACAD_REACTORS
330
255
102
}
330
255
100
AcDbXrecord
280
     1
102
RTVSPost2010Prop28
280
     0
102
RTVSPost2010PropOp28
 70
     1
102
RTVSPost2010Prop29
280
     1
102
RTVSPost2010PropOp29
 70
     1
102
RTVSPost2010Prop30
280
     1
102
RTVSPost2010PropOp30
 70
     1
102
RTVSPost2010Prop31
280
     0
102
RTVSPost2010PropOp31
 70
     1
102
RTVSPost2010Prop32
280
     0
102
RTVSPost2010PropOp32
 70
     1
102
RTVSPost2010Prop33
280
     0
102
RTVSPost2010PropOp33
 70
     1
102
RTVSPost2010Prop34
280
     0
102
RTVSPost2010PropOp34
 70
     1
102
RTVSPost2010Prop35
280
     0
102
RTVSPost2010PropOp35
 70
     1
102
RTVSPost2010Prop36
280
     0
102
RTVSPost2010PropOp36
 70
     1
102
RTVSPost2010Prop37
 90
       50
102
RTVSPost2010PropOp37
 70
     1
102
RTVSPost2010Prop38
140
0.0
102
RTVSPost2010PropOp38
 70
     1
102
RTVSPost2010Prop39
140
1.0
102
RTVSPost2010PropOp39
 70
     1
102
RTVSPost2010Prop40
 90
        0
102
RTVSPost2010PropOp40
 70
     1
102
RTVSPost2010Prop41ColorIndex
 90
       18
102
RTVSPost2010Prop41ColorRGB
 90
        0
102
RTVSPost2010PropOp41
 70
     1
102
RTVSPost2010Prop42
 90
       50
102
RTVSPost2010PropOp42
 70
     1
102
RTVSPost2010Prop43
 90
        3
102
RTVSPost2010PropOp43
 70
     1
102
RTVSPost2010Prop44ColorIndex
 90
        5
102
RTVSPost2010Prop44ColorRGB
 90
      255
102
RTVSPost2010PropOp44
 70
     1
102
RTVSPost2010Prop45
280
     0
102
RTVSPost2010PropOp45
 70
     1
102
RTVSPost2010Prop46
 90
       50
102
RTVSPost2010PropOp46
 70
     1
102
RTVSPost2010Prop47
 90
       50
102
RTVSPost2010PropOp47
 70
     1
102
RTVSPost2010Prop48
 90
       50
102
RTVSPost2010PropOp48
 70
     1
102
RTVSPost2010Prop49
280
     0
102
RTVSPost2010PropOp49
 70
     1
102
RTVSPost2010Prop50
 90
       50
102
RTVSPost2010PropOp50
 70
     1
102
RTVSPost2010Prop51ColorIndex
 90
      256
102
RTVSPost2010Prop51ColorRGB
 90
-16777216
102
RTVSPost2010PropOp51
 70
     0
102
RTVSPost2010Prop52
140
1.0
102
RTVSPost2010PropOp52
 70
     0
102
RTVSPost2010Prop53
 90
        2
102
RTVSPost2010PropOp53
 70
     1
102
RTVSPost2010Prop54
  1
strokes_ogs.tif
102
RTVSPost2010PropOp54
 70
     1
102
RTVSPost2010Prop55
280
     0
102
RTVSPost2010PropOp55
 70
     1
102
RTVSPost2010Prop56
140
1.0
102
RTVSPost2010PropOp56
 70
     1
102
RTVSPost2010Prop57
140
1.0
102
RTVSPost2010PropOp57
 70
     1
102
RTVSPropertyOp0
 70
     1
102
RTVSPropertyOp1
 70
     1
102
RTVSPropertyOp2
 70
     1
102
RTVSPropertyOp3
 70
     1
102
RTVSPropertyOp4
 70
     1
102
RTVSPropertyOp5
 70
     1
102
RTVSPropertyOp6
 70
     1
102
RTVSPropertyOp7
 70
     1
102
RTVSPropertyOp8
 70
     1
102
RTVSPropertyOp9
 70
     1
102
RTVSPropertyOp10
 70
     1
102
RTVSPropertyOp11
 70
     1
102
RTVSPropertyOp12
 70
     1
102
RTVSPropertyOp13
 70
     1
102
RTVSPropertyOp14
 70
     1
102
RTVSPropertyOp15
 70
     1
102
RTVSPropertyOp16
 70
     1
102
RTVSPropertyOp17
 70
     1
102
RTVSPropertyOp18
 70
     1
102
RTVSPropertyOp19
 70
     1
102
RTVSPropertyOp20
 70
     1
102
RTVSPropertyOp21
 70
     1
102
RTVSPropertyOp22
 70
     1
102
RTVSPropertyOp23
 70
     1
102
RTVSPropertyOp24
 70
     1
102
RTVSPropertyOp25
 70
     1
102
RTVSPropertyOp26
 70
     1
102
RTVSPropertyOp27
 70
     1
102
RTVSPropertyOp28
 70
     1
102
RTVSPropertyOp29
 70
     1
102
RTVSPropertyOp30
 70
     1
102
RTVSPropertyOp31
 70
     1
102
RTVSPropertyOp32
 70
     1
102
RTVSPropertyOp33
 70
     1
102
RTVSPropertyOp34
 70
     1
102
RTVSPropertyOp35
 70
     1
102
RTVSPropertyOp36
 70
     1
102
RTVSPropertyOp37
 70
     1
102
RTVSPropertyOp38
 70
     1
102
RTVSPropertyOp39
 70
     1
102
RTVSPropertyOp40
 70
     1
102
RTVSPropertyOp41
 70
     1
102
RTVSPropertyOp42
 70
     1
102
RTVSPropertyOp43
 70
     1
102
RTVSPropertyOp44
 70
     1
102
RTVSPropertyOp45
 70
     1
102
RTVSPropertyOp46
 70
     1
102
RTVSPropertyOp47
 70
     1
102
RTVSPropertyOp48
 70
     1
102
RTVSPropertyOp49
 70
     1
102
RTVSPropertyOp50
 70
     1
102
RTVSPropertyOp51
 70
     0
102
RTVSPropertyOp52
 70
     0
102
RTVSPropertyOp53
 70
     1
102
RTVSPropertyOp54
 70
     1
102
RTVSPropertyOp55
 70
     1
102
RTVSPropertyOp56
 70
     1
102
RTVSPropertyOp57
 70
     1
102
RTVSPropertyOp58
 70
     1
102
RTVSPropertyOp59
 70
     1
102
RTVSPropertyOp60
 70
     1
102
RTVSPropertyOp61
 70
     1
102
RTVSPropertyOp62
 70
     1
  0
XRECORD
  5
268
102
{ACAD_REACTORS
330
267
102
}
330
267
100
AcDbXrecord
280
     1
102
RTVSPost2010Prop28
280
     0
102
RTVSPost2010PropOp28
 70
     0
102
RTVSPost2010Prop29
280
     1
102
RTVSPost2010PropOp29
 70
     0
102
RTVSPost2010Prop30
280
     1
102
RTVSPost2010PropOp30
 70
     0
102
RTVSPost2010Prop31
280
     0
102
RTVSPost2010PropOp31
 70
     0
102
RTVSPost2010Prop32
280
     0
102
RTVSPost2010PropOp32
 70
     0
102
RTVSPost2010Prop33
280
     0
102
RTVSPost2010PropOp33
 70
     0
102
RTVSPost2010Prop34
280
     0
102
RTVSPost2010PropOp34
 70
     0
102
RTVSPost2010Prop35
280
     0
102
RTVSPost2010PropOp35
 70
     0
102
RTVSPost2010Prop36
280
     0
102
RTVSPost2010PropOp36
 70
     0
102
RTVSPost2010Prop37
 90
       50
102
RTVSPost2010PropOp37
 70
     0
102
RTVSPost2010Prop38
140
0.0
102
RTVSPost2010PropOp38
 70
     0
102
RTVSPost2010Prop39
140
1.0
102
RTVSPost2010PropOp39
 70
     0
102
RTVSPost2010Prop40
 90
        0
102
RTVSPost2010PropOp40
 70
     0
102
RTVSPost2010Prop41ColorIndex
 90
       18
102
RTVSPost2010Prop41ColorRGB
 90
        0
102
RTVSPost2010PropOp41
 70
     0
102
RTVSPost2010Prop42
 90
       50
102
RTVSPost2010PropOp42
 70
     0
102
RTVSPost2010Prop43
 90
        3
102
RTVSPost2010PropOp43
 70
     0
102
RTVSPost2010Prop44ColorIndex
 90
        5
102
RTVSPost2010Prop44ColorRGB
 90
      255
102
RTVSPost2010PropOp44
 70
     0
102
RTVSPost2010Prop45
280
     0
102
RTVSPost2010PropOp45
 70
     0
102
RTVSPost2010Prop46
 90
       50
102
RTVSPost2010PropOp46
 70
     0
102
RTVSPost2010Prop47
 90
       50
102
RTVSPost2010PropOp47
 70
     0
102
RTVSPost2010Prop48
 90
       50
102
RTVSPost2010PropOp48
 70
     0
102
RTVSPost2010Prop49
280
     0
102
RTVSPost2010PropOp49
 70
     0
102
RTVSPost2010Prop50
 90
       50
102
RTVSPost2010PropOp50
 70
     0
102
RTVSPost2010Prop51ColorIndex
 90
      256
102
RTVSPost2010Prop51ColorRGB
 90
-16777216
102
RTVSPost2010PropOp51
 70
     0
102
RTVSPost2010Prop52
140
1.0
102
RTVSPost2010PropOp52
 70
     0
102
RTVSPost2010Prop53
 90
        2
102
RTVSPost2010PropOp53
 70
     0
102
RTVSPost2010Prop54
  1
strokes_ogs.tif
102
RTVSPost2010PropOp54
 70
     0
102
RTVSPost2010Prop55
280
     0
102
RTVSPost2010PropOp55
 70
     0
102
RTVSPost2010Prop56
140
1.0
102
RTVSPost2010PropOp56
 70
     0
102
RTVSPost2010Prop57
140
1.0
102
RTVSPost2010PropOp57
 70
     0
102
RTVSPropertyOp0
 70
     0
102
RTVSPropertyOp1
 70
     0
102
RTVSPropertyOp2
 70
     0
102
RTVSPropertyOp3
 70
     0
102
RTVSPropertyOp4
 70
     0
102
RTVSPropertyOp5
 70
     0
102
RTVSPropertyOp6
 70
     0
102
RTVSPropertyOp7
 70
     0
102
RTVSPropertyOp8
 70
     0
102
RTVSPropertyOp9
 70
     0
102
RTVSPropertyOp10
 70
     0
102
RTVSPropertyOp11
 70
     0
102
RTVSPropertyOp12
 70
     0
102
RTVSPropertyOp13
 70
     0
102
RTVSPropertyOp14
 70
     2
102
RTVSPropertyOp15
 70
     0
102
RTVSPropertyOp16
 70
     0
102
RTVSPropertyOp17
 70
     0
102
RTVSPropertyOp18
 70
     0
102
RTVSPropertyOp19
 70
     0
102
RTVSPropertyOp20
 70
     0
102
RTVSPropertyOp21
 70
     0
102
RTVSPropertyOp22
 70
     0
102
RTVSPropertyOp23
 70
     0
102
RTVSPropertyOp24
 70
     0
102
RTVSPropertyOp25
 70
     0
102
RTVSPropertyOp26
 70
     0
102
RTVSPropertyOp27
 70
     0
102
RTVSPropertyOp28
 70
     0
102
RTVSPropertyOp29
 70
     0
102
RTVSPropertyOp30
 70
     0
102
RTVSPropertyOp31
 70
     0
102
RTVSPropertyOp32
 70
     0
102
RTVSPropertyOp33
 70
     0
102
RTVSPropertyOp34
 70
     0
102
RTVSPropertyOp35
 70
     0
102
RTVSPropertyOp36
 70
     0
102
RTVSPropertyOp37
 70
     0
102
RTVSPropertyOp38
 70
     0
102
RTVSPropertyOp39
 70
     0
102
RTVSPropertyOp40
 70
     0
102
RTVSPropertyOp41
 70
     0
102
RTVSPropertyOp42
 70
     0
102
RTVSPropertyOp43
 70
     0
102
RTVSPropertyOp44
 70
     0
102
RTVSPropertyOp45
 70
     0
102
RTVSPropertyOp46
 70
     0
102
RTVSPropertyOp47
 70
     0
102
RTVSPropertyOp48
 70
     0
102
RTVSPropertyOp49
 70
     0
102
RTVSPropertyOp50
 70
     0
102
RTVSPropertyOp51
 70
     0
102
RTVSPropertyOp52
 70
     0
102
RTVSPropertyOp53
 70
     0
102
RTVSPropertyOp54
 70
     0
102
RTVSPropertyOp55
 70
     0
102
RTVSPropertyOp56
 70
     0
102
RTVSPropertyOp57
 70
     0
102
RTVSPropertyOp58
 70
     1
102
RTVSPropertyOp59
 70
     1
102
RTVSPropertyOp60
 70
     1
102
RTVSPropertyOp61
 70
     1
102
RTVSPropertyOp62
 70
     1
  0
XRECORD
  5
24E
102
{ACAD_REACTORS
330
24D
102
}
330
24D
100
AcDbXrecord
280
     1
102
RTVSPost2010Prop28
280
     0
102
RTVSPost2010PropOp28
 70
     1
102
RTVSPost2010Prop29
280
     1
102
RTVSPost2010PropOp29
 70
     1
102
RTVSPost2010Prop30
280
     1
102
RTVSPost2010PropOp30
 70
     1
102
RTVSPost2010Prop31
280
     0
102
RTVSPost2010PropOp31
 70
     1
102
RTVSPost2010Prop32
280
     0
102
RTVSPost2010PropOp32
 70
     1
102
RTVSPost2010Prop33
280
     0
102
RTVSPost2010PropOp33
 70
     1
102
RTVSPost2010Prop34
280
     0
102
RTVSPost2010PropOp34
 70
     1
102
RTVSPost2010Prop35
280
     0
102
RTVSPost2010PropOp35
 70
     1
102
RTVSPost2010Prop36
280
     0
102
RTVSPost2010PropOp36
 70
     1
102
RTVSPost2010Prop37
 90
       50
102
RTVSPost2010PropOp37
 70
     1
102
RTVSPost2010Prop38
140
0.0
102
RTVSPost2010PropOp38
 70
     1
102
RTVSPost2010Prop39
140
1.0
102
RTVSPost2010PropOp39
 70
     1
102
RTVSPost2010Prop40
 90
        0
102
RTVSPost2010PropOp40
 70
     1
102
RTVSPost2010Prop41ColorIndex
 90
       18
102
RTVSPost2010Prop41ColorRGB
 90
        0
102
RTVSPost2010PropOp41
 70
     1
102
RTVSPost2010Prop42
 90
       50
102
RTVSPost2010PropOp42
 70
     1
102
RTVSPost2010Prop43
 90
        3
102
RTVSPost2010PropOp43
 70
     1
102
RTVSPost2010Prop44ColorIndex
 90
        5
102
RTVSPost2010Prop44ColorRGB
 90
      255
102
RTVSPost2010PropOp44
 70
     1
102
RTVSPost2010Prop45
280
     0
102
RTVSPost2010PropOp45
 70
     1
102
RTVSPost2010Prop46
 90
       50
102
RTVSPost2010PropOp46
 70
     1
102
RTVSPost2010Prop47
 90
       50
102
RTVSPost2010PropOp47
 70
     1
102
RTVSPost2010Prop48
 90
       50
102
RTVSPost2010PropOp48
 70
     1
102
RTVSPost2010Prop49
280
     0
102
RTVSPost2010PropOp49
 70
     1
102
RTVSPost2010Prop50
 90
       50
102
RTVSPost2010PropOp50
 70
     1
102
RTVSPost2010Prop51ColorIndex
 90
      256
102
RTVSPost2010Prop51ColorRGB
 90
-16777216
102
RTVSPost2010PropOp51
 70
     0
102
RTVSPost2010Prop52
140
1.0
102
RTVSPost2010PropOp52
 70
     0
102
RTVSPost2010Prop53
 90
        2
102
RTVSPost2010PropOp53
 70
     1
102
RTVSPost2010Prop54
  1
strokes_ogs.tif
102
RTVSPost2010PropOp54
 70
     1
102
RTVSPost2010Prop55
280
     0
102
RTVSPost2010PropOp55
 70
     1
102
RTVSPost2010Prop56
140
1.0
102
RTVSPost2010PropOp56
 70
     1
102
RTVSPost2010Prop57
140
1.0
102
RTVSPost2010PropOp57
 70
     1
102
RTVSPropertyOp0
 70
     1
102
RTVSPropertyOp1
 70
     1
102
RTVSPropertyOp2
 70
     1
102
RTVSPropertyOp3
 70
     1
102
RTVSPropertyOp4
 70
     1
102
RTVSPropertyOp5
 70
     1
102
RTVSPropertyOp6
 70
     1
102
RTVSPropertyOp7
 70
     1
102
RTVSPropertyOp8
 70
     1
102
RTVSPropertyOp9
 70
     1
102
RTVSPropertyOp10
 70
     1
102
RTVSPropertyOp11
 70
     1
102
RTVSPropertyOp12
 70
     1
102
RTVSPropertyOp13
 70
     1
102
RTVSPropertyOp14
 70
     1
102
RTVSPropertyOp15
 70
     1
102
RTVSPropertyOp16
 70
     1
102
RTVSPropertyOp17
 70
     1
102
RTVSPropertyOp18
 70
     1
102
RTVSPropertyOp19
 70
     1
102
RTVSPropertyOp20
 70
     1
102
RTVSPropertyOp21
 70
     1
102
RTVSPropertyOp22
 70
     1
102
RTVSPropertyOp23
 70
     1
102
RTVSPropertyOp24
 70
     1
102
RTVSPropertyOp25
 70
     1
102
RTVSPropertyOp26
 70
     1
102
RTVSPropertyOp27
 70
     1
102
RTVSPropertyOp28
 70
     1
102
RTVSPropertyOp29
 70
     1
102
RTVSPropertyOp30
 70
     1
102
RTVSPropertyOp31
 70
     1
102
RTVSPropertyOp32
 70
     1
102
RTVSPropertyOp33
 70
     1
102
RTVSPropertyOp34
 70
     1
102
RTVSPropertyOp35
 70
     1
102
RTVSPropertyOp36
 70
     1
102
RTVSPropertyOp37
 70
     1
102
RTVSPropertyOp38
 70
     1
102
RTVSPropertyOp39
 70
     1
102
RTVSPropertyOp40
 70
     1
102
RTVSPropertyOp41
 70
     1
102
RTVSPropertyOp42
 70
     1
102
RTVSPropertyOp43
 70
     1
102
RTVSPropertyOp44
 70
     1
102
RTVSPropertyOp45
 70
     1
102
RTVSPropertyOp46
 70
     1
102
RTVSPropertyOp47
 70
     1
102
RTVSPropertyOp48
 70
     1
102
RTVSPropertyOp49
 70
     1
102
RTVSPropertyOp50
 70
     1
102
RTVSPropertyOp51
 70
     0
102
RTVSPropertyOp52
 70
     0
102
RTVSPropertyOp53
 70
     1
102
RTVSPropertyOp54
 70
     1
102
RTVSPropertyOp55
 70
     1
102
RTVSPropertyOp56
 70
     1
102
RTVSPropertyOp57
 70
     1
102
RTVSPropertyOp58
 70
     1
102
RTVSPropertyOp59
 70
     1
102
RTVSPropertyOp60
 70
     1
102
RTVSPropertyOp61
 70
     1
102
RTVSPropertyOp62
 70
     1
  0
XRECORD
  5
264
102
{ACAD_REACTORS
330
263
102
}
330
263
100
AcDbXrecord
280
     1
102
RTVSPost2010Prop28
280
     0
102
RTVSPost2010PropOp28
 70
     1
102
RTVSPost2010Prop29
280
     1
102
RTVSPost2010PropOp29
 70
     1
102
RTVSPost2010Prop30
280
     1
102
RTVSPost2010PropOp30
 70
     1
102
RTVSPost2010Prop31
280
     0
102
RTVSPost2010PropOp31
 70
     1
102
RTVSPost2010Prop32
280
     0
102
RTVSPost2010PropOp32
 70
     1
102
RTVSPost2010Prop33
280
     0
102
RTVSPost2010PropOp33
 70
     1
102
RTVSPost2010Prop34
280
     0
102
RTVSPost2010PropOp34
 70
     1
102
RTVSPost2010Prop35
280
     0
102
RTVSPost2010PropOp35
 70
     1
102
RTVSPost2010Prop36
280
     0
102
RTVSPost2010PropOp36
 70
     1
102
RTVSPost2010Prop37
 90
       50
102
RTVSPost2010PropOp37
 70
     1
102
RTVSPost2010Prop38
140
0.0
102
RTVSPost2010PropOp38
 70
     1
102
RTVSPost2010Prop39
140
1.0
102
RTVSPost2010PropOp39
 70
     1
102
RTVSPost2010Prop40
 90
        0
102
RTVSPost2010PropOp40
 70
     1
102
RTVSPost2010Prop41ColorIndex
 90
       18
102
RTVSPost2010Prop41ColorRGB
 90
        0
102
RTVSPost2010PropOp41
 70
     1
102
RTVSPost2010Prop42
 90
       50
102
RTVSPost2010PropOp42
 70
     1
102
RTVSPost2010Prop43
 90
        3
102
RTVSPost2010PropOp43
 70
     1
102
RTVSPost2010Prop44ColorIndex
 90
        5
102
RTVSPost2010Prop44ColorRGB
 90
      255
102
RTVSPost2010PropOp44
 70
     1
102
RTVSPost2010Prop45
280
     0
102
RTVSPost2010PropOp45
 70
     1
102
RTVSPost2010Prop46
 90
       50
102
RTVSPost2010PropOp46
 70
     1
102
RTVSPost2010Prop47
 90
       50
102
RTVSPost2010PropOp47
 70
     1
102
RTVSPost2010Prop48
 90
       50
102
RTVSPost2010PropOp48
 70
     1
102
RTVSPost2010Prop49
280
     0
102
RTVSPost2010PropOp49
 70
     1
102
RTVSPost2010Prop50
 90
       50
102
RTVSPost2010PropOp50
 70
     1
102
RTVSPost2010Prop51ColorIndex
 90
      256
102
RTVSPost2010Prop51ColorRGB
 90
-16777216
102
RTVSPost2010PropOp51
 70
     0
102
RTVSPost2010Prop52
140
1.0
102
RTVSPost2010PropOp52
 70
     0
102
RTVSPost2010Prop53
 90
        2
102
RTVSPost2010PropOp53
 70
     1
102
RTVSPost2010Prop54
  1
strokes_ogs.tif
102
RTVSPost2010PropOp54
 70
     1
102
RTVSPost2010Prop55
280
     0
102
RTVSPost2010PropOp55
 70
     1
102
RTVSPost2010Prop56
140
1.0
102
RTVSPost2010PropOp56
 70
     1
102
RTVSPost2010Prop57
140
1.0
102
RTVSPost2010PropOp57
 70
     1
102
RTVSPropertyOp0
 70
     1
102
RTVSPropertyOp1
 70
     1
102
RTVSPropertyOp2
 70
     1
102
RTVSPropertyOp3
 70
     1
102
RTVSPropertyOp4
 70
     1
102
RTVSPropertyOp5
 70
     1
102
RTVSPropertyOp6
 70
     1
102
RTVSPropertyOp7
 70
     1
102
RTVSPropertyOp8
 70
     1
102
RTVSPropertyOp9
 70
     1
102
RTVSPropertyOp10
 70
     1
102
RTVSPropertyOp11
 70
     1
102
RTVSPropertyOp12
 70
     1
102
RTVSPropertyOp13
 70
     1
102
RTVSPropertyOp14
 70
     1
102
RTVSPropertyOp15
 70
     1
102
RTVSPropertyOp16
 70
     1
102
RTVSPropertyOp17
 70
     1
102
RTVSPropertyOp18
 70
     1
102
RTVSPropertyOp19
 70
     1
102
RTVSPropertyOp20
 70
     1
102
RTVSPropertyOp21
 70
     1
102
RTVSPropertyOp22
 70
     1
102
RTVSPropertyOp23
 70
     1
102
RTVSPropertyOp24
 70
     1
102
RTVSPropertyOp25
 70
     1
102
RTVSPropertyOp26
 70
     1
102
RTVSPropertyOp27
 70
     1
102
RTVSPropertyOp28
 70
     1
102
RTVSPropertyOp29
 70
     1
102
RTVSPropertyOp30
 70
     1
102
RTVSPropertyOp31
 70
     1
102
RTVSPropertyOp32
 70
     1
102
RTVSPropertyOp33
 70
     1
102
RTVSPropertyOp34
 70
     1
102
RTVSPropertyOp35
 70
     1
102
RTVSPropertyOp36
 70
     1
102
RTVSPropertyOp37
 70
     1
102
RTVSPropertyOp38
 70
     1
102
RTVSPropertyOp39
 70
     1
102
RTVSPropertyOp40
 70
     1
102
RTVSPropertyOp41
 70
     1
102
RTVSPropertyOp42
 70
     1
102
RTVSPropertyOp43
 70
     1
102
RTVSPropertyOp44
 70
     1
102
RTVSPropertyOp45
 70
     1
102
RTVSPropertyOp46
 70
     1
102
RTVSPropertyOp47
 70
     1
102
RTVSPropertyOp48
 70
     1
102
RTVSPropertyOp49
 70
     1
102
RTVSPropertyOp50
 70
     1
102
RTVSPropertyOp51
 70
     0
102
RTVSPropertyOp52
 70
     0
102
RTVSPropertyOp53
 70
     1
102
RTVSPropertyOp54
 70
     1
102
RTVSPropertyOp55
 70
     1
102
RTVSPropertyOp56
 70
     1
102
RTVSPropertyOp57
 70
     1
102
RTVSPropertyOp58
 70
     1
102
RTVSPropertyOp59
 70
     1
102
RTVSPropertyOp60
 70
     1
102
RTVSPropertyOp61
 70
     1
102
RTVSPropertyOp62
 70
     1
  0
XRECORD
  5
262
102
{ACAD_REACTORS
330
261
102
}
330
261
100
AcDbXrecord
280
     1
102
RTVSPost2010Prop28
280
     0
102
RTVSPost2010PropOp28
 70
     1
102
RTVSPost2010Prop29
280
     1
102
RTVSPost2010PropOp29
 70
     1
102
RTVSPost2010Prop30
280
     1
102
RTVSPost2010PropOp30
 70
     1
102
RTVSPost2010Prop31
280
     0
102
RTVSPost2010PropOp31
 70
     1
102
RTVSPost2010Prop32
280
     0
102
RTVSPost2010PropOp32
 70
     1
102
RTVSPost2010Prop33
280
     0
102
RTVSPost2010PropOp33
 70
     1
102
RTVSPost2010Prop34
280
     0
102
RTVSPost2010PropOp34
 70
     1
102
RTVSPost2010Prop35
280
     0
102
RTVSPost2010PropOp35
 70
     1
102
RTVSPost2010Prop36
280
     0
102
RTVSPost2010PropOp36
 70
     1
102
RTVSPost2010Prop37
 90
       50
102
RTVSPost2010PropOp37
 70
     1
102
RTVSPost2010Prop38
140
0.0
102
RTVSPost2010PropOp38
 70
     1
102
RTVSPost2010Prop39
140
1.0
102
RTVSPost2010PropOp39
 70
     1
102
RTVSPost2010Prop40
 90
        0
102
RTVSPost2010PropOp40
 70
     1
102
RTVSPost2010Prop41ColorIndex
 90
       18
102
RTVSPost2010Prop41ColorRGB
 90
        0
102
RTVSPost2010PropOp41
 70
     1
102
RTVSPost2010Prop42
 90
       50
102
RTVSPost2010PropOp42
 70
     1
102
RTVSPost2010Prop43
 90
        3
102
RTVSPost2010PropOp43
 70
     1
102
RTVSPost2010Prop44ColorIndex
 90
        5
102
RTVSPost2010Prop44ColorRGB
 90
      255
102
RTVSPost2010PropOp44
 70
     1
102
RTVSPost2010Prop45
280
     0
102
RTVSPost2010PropOp45
 70
     1
102
RTVSPost2010Prop46
 90
       50
102
RTVSPost2010PropOp46
 70
     1
102
RTVSPost2010Prop47
 90
       50
102
RTVSPost2010PropOp47
 70
     1
102
RTVSPost2010Prop48
 90
       50
102
RTVSPost2010PropOp48
 70
     1
102
RTVSPost2010Prop49
280
     0
102
RTVSPost2010PropOp49
 70
     1
102
RTVSPost2010Prop50
 90
       50
102
RTVSPost2010PropOp50
 70
     1
102
RTVSPost2010Prop51ColorIndex
 90
      256
102
RTVSPost2010Prop51ColorRGB
 90
-16777216
102
RTVSPost2010PropOp51
 70
     0
102
RTVSPost2010Prop52
140
1.0
102
RTVSPost2010PropOp52
 70
     0
102
RTVSPost2010Prop53
 90
        2
102
RTVSPost2010PropOp53
 70
     1
102
RTVSPost2010Prop54
  1
strokes_ogs.tif
102
RTVSPost2010PropOp54
 70
     1
102
RTVSPost2010Prop55
280
     0
102
RTVSPost2010PropOp55
 70
     1
102
RTVSPost2010Prop56
140
1.0
102
RTVSPost2010PropOp56
 70
     1
102
RTVSPost2010Prop57
140
1.0
102
RTVSPost2010PropOp57
 70
     1
102
RTVSPropertyOp0
 70
     1
102
RTVSPropertyOp1
 70
     1
102
RTVSPropertyOp2
 70
     1
102
RTVSPropertyOp3
 70
     1
102
RTVSPropertyOp4
 70
     1
102
RTVSPropertyOp5
 70
     1
102
RTVSPropertyOp6
 70
     1
102
RTVSPropertyOp7
 70
     1
102
RTVSPropertyOp8
 70
     1
102
RTVSPropertyOp9
 70
     1
102
RTVSPropertyOp10
 70
     1
102
RTVSPropertyOp11
 70
     1
102
RTVSPropertyOp12
 70
     1
102
RTVSPropertyOp13
 70
     1
102
RTVSPropertyOp14
 70
     1
102
RTVSPropertyOp15
 70
     1
102
RTVSPropertyOp16
 70
     1
102
RTVSPropertyOp17
 70
     1
102
RTVSPropertyOp18
 70
     1
102
RTVSPropertyOp19
 70
     1
102
RTVSPropertyOp20
 70
     1
102
RTVSPropertyOp21
 70
     1
102
RTVSPropertyOp22
 70
     1
102
RTVSPropertyOp23
 70
     1
102
RTVSPropertyOp24
 70
     1
102
RTVSPropertyOp25
 70
     1
102
RTVSPropertyOp26
 70
     1
102
RTVSPropertyOp27
 70
     1
102
RTVSPropertyOp28
 70
     1
102
RTVSPropertyOp29
 70
     1
102
RTVSPropertyOp30
 70
     1
102
RTVSPropertyOp31
 70
     1
102
RTVSPropertyOp32
 70
     1
102
RTVSPropertyOp33
 70
     1
102
RTVSPropertyOp34
 70
     1
102
RTVSPropertyOp35
 70
     1
102
RTVSPropertyOp36
 70
     1
102
RTVSPropertyOp37
 70
     1
102
RTVSPropertyOp38
 70
     1
102
RTVSPropertyOp39
 70
     1
102
RTVSPropertyOp40
 70
     1
102
RTVSPropertyOp41
 70
     1
102
RTVSPropertyOp42
 70
     1
102
RTVSPropertyOp43
 70
     1
102
RTVSPropertyOp44
 70
     1
102
RTVSPropertyOp45
 70
     1
102
RTVSPropertyOp46
 70
     1
102
RTVSPropertyOp47
 70
     1
102
RTVSPropertyOp48
 70
     1
102
RTVSPropertyOp49
 70
     1
102
RTVSPropertyOp50
 70
     1
102
RTVSPropertyOp51
 70
     0
102
RTVSPropertyOp52
 70
     0
102
RTVSPropertyOp53
 70
     1
102
RTVSPropertyOp54
 70
     1
102
RTVSPropertyOp55
 70
     1
102
RTVSPropertyOp56
 70
     1
102
RTVSPropertyOp57
 70
     1
102
RTVSPropertyOp58
 70
     1
102
RTVSPropertyOp59
 70
     1
102
RTVSPropertyOp60
 70
     1
102
RTVSPropertyOp61
 70
     1
102
RTVSPropertyOp62
 70
     1
  0
XRECORD
  5
25C
102
{ACAD_REACTORS
330
25B
102
}
330
25B
100
AcDbXrecord
280
     1
102
RTVSPost2010Prop28
280
     0
102
RTVSPost2010PropOp28
 70
     1
102
RTVSPost2010Prop29
280
     1
102
RTVSPost2010PropOp29
 70
     1
102
RTVSPost2010Prop30
280
     1
102
RTVSPost2010PropOp30
 70
     1
102
RTVSPost2010Prop31
280
     0
102
RTVSPost2010PropOp31
 70
     1
102
RTVSPost2010Prop32
280
     0
102
RTVSPost2010PropOp32
 70
     1
102
RTVSPost2010Prop33
280
     0
102
RTVSPost2010PropOp33
 70
     1
102
RTVSPost2010Prop34
280
     0
102
RTVSPost2010PropOp34
 70
     1
102
RTVSPost2010Prop35
280
     0
102
RTVSPost2010PropOp35
 70
     1
102
RTVSPost2010Prop36
280
     0
102
RTVSPost2010PropOp36
 70
     1
102
RTVSPost2010Prop37
 90
       50
102
RTVSPost2010PropOp37
 70
     1
102
RTVSPost2010Prop38
140
0.0
102
RTVSPost2010PropOp38
 70
     1
102
RTVSPost2010Prop39
140
1.0
102
RTVSPost2010PropOp39
 70
     1
102
RTVSPost2010Prop40
 90
        0
102
RTVSPost2010PropOp40
 70
     1
102
RTVSPost2010Prop41ColorIndex
 90
       18
102
RTVSPost2010Prop41ColorRGB
 90
        0
102
RTVSPost2010PropOp41
 70
     1
102
RTVSPost2010Prop42
 90
       50
102
RTVSPost2010PropOp42
 70
     1
102
RTVSPost2010Prop43
 90
        3
102
RTVSPost2010PropOp43
 70
     1
102
RTVSPost2010Prop44ColorIndex
 90
        5
102
RTVSPost2010Prop44ColorRGB
 90
      255
102
RTVSPost2010PropOp44
 70
     1
102
RTVSPost2010Prop45
280
     0
102
RTVSPost2010PropOp45
 70
     1
102
RTVSPost2010Prop46
 90
       50
102
RTVSPost2010PropOp46
 70
     1
102
RTVSPost2010Prop47
 90
       50
102
RTVSPost2010PropOp47
 70
     1
102
RTVSPost2010Prop48
 90
       50
102
RTVSPost2010PropOp48
 70
     1
102
RTVSPost2010Prop49
280
     0
102
RTVSPost2010PropOp49
 70
     1
102
RTVSPost2010Prop50
 90
       50
102
RTVSPost2010PropOp50
 70
     1
102
RTVSPost2010Prop51ColorIndex
 90
      256
102
RTVSPost2010Prop51ColorRGB
 90
-16777216
102
RTVSPost2010PropOp51
 70
     0
102
RTVSPost2010Prop52
140
1.0
102
RTVSPost2010PropOp52
 70
     0
102
RTVSPost2010Prop53
 90
        2
102
RTVSPost2010PropOp53
 70
     1
102
RTVSPost2010Prop54
  1
strokes_ogs.tif
102
RTVSPost2010PropOp54
 70
     1
102
RTVSPost2010Prop55
280
     0
102
RTVSPost2010PropOp55
 70
     1
102
RTVSPost2010Prop56
140
1.0
102
RTVSPost2010PropOp56
 70
     1
102
RTVSPost2010Prop57
140
1.0
102
RTVSPost2010PropOp57
 70
     1
102
RTVSPropertyOp0
 70
     1
102
RTVSPropertyOp1
 70
     1
102
RTVSPropertyOp2
 70
     1
102
RTVSPropertyOp3
 70
     1
102
RTVSPropertyOp4
 70
     1
102
RTVSPropertyOp5
 70
     1
102
RTVSPropertyOp6
 70
     1
102
RTVSPropertyOp7
 70
     1
102
RTVSPropertyOp8
 70
     1
102
RTVSPropertyOp9
 70
     1
102
RTVSPropertyOp10
 70
     1
102
RTVSPropertyOp11
 70
     1
102
RTVSPropertyOp12
 70
     1
102
RTVSPropertyOp13
 70
     1
102
RTVSPropertyOp14
 70
     1
102
RTVSPropertyOp15
 70
     1
102
RTVSPropertyOp16
 70
     1
102
RTVSPropertyOp17
 70
     1
102
RTVSPropertyOp18
 70
     1
102
RTVSPropertyOp19
 70
     1
102
RTVSPropertyOp20
 70
     1
102
RTVSPropertyOp21
 70
     1
102
RTVSPropertyOp22
 70
     1
102
RTVSPropertyOp23
 70
     1
102
RTVSPropertyOp24
 70
     1
102
RTVSPropertyOp25
 70
     1
102
RTVSPropertyOp26
 70
     1
102
RTVSPropertyOp27
 70
     1
102
RTVSPropertyOp28
 70
     1
102
RTVSPropertyOp29
 70
     1
102
RTVSPropertyOp30
 70
     1
102
RTVSPropertyOp31
 70
     1
102
RTVSPropertyOp32
 70
     1
102
RTVSPropertyOp33
 70
     1
102
RTVSPropertyOp34
 70
     1
102
RTVSPropertyOp35
 70
     1
102
RTVSPropertyOp36
 70
     1
102
RTVSPropertyOp37
 70
     1
102
RTVSPropertyOp38
 70
     1
102
RTVSPropertyOp39
 70
     1
102
RTVSPropertyOp40
 70
     1
102
RTVSPropertyOp41
 70
     1
102
RTVSPropertyOp42
 70
     1
102
RTVSPropertyOp43
 70
     1
102
RTVSPropertyOp44
 70
     1
102
RTVSPropertyOp45
 70
     1
102
RTVSPropertyOp46
 70
     1
102
RTVSPropertyOp47
 70
     1
102
RTVSPropertyOp48
 70
     1
102
RTVSPropertyOp49
 70
     1
102
RTVSPropertyOp50
 70
     1
102
RTVSPropertyOp51
 70
     0
102
RTVSPropertyOp52
 70
     0
102
RTVSPropertyOp53
 70
     1
102
RTVSPropertyOp54
 70
     1
102
RTVSPropertyOp55
 70
     1
102
RTVSPropertyOp56
 70
     1
102
RTVSPropertyOp57
 70
     1
102
RTVSPropertyOp58
 70
     1
102
RTVSPropertyOp59
 70
     1
102
RTVSPropertyOp60
 70
     1
102
RTVSPropertyOp61
 70
     1
102
RTVSPropertyOp62
 70
     1
  0
XRECORD
  5
25E
102
{ACAD_REACTORS
330
25D
102
}
330
25D
100
AcDbXrecord
280
     1
102
RTVSPost2010Prop28
280
     0
102
RTVSPost2010PropOp28
 70
     1
102
RTVSPost2010Prop29
280
     1
102
RTVSPost2010PropOp29
 70
     1
102
RTVSPost2010Prop30
280
     1
102
RTVSPost2010PropOp30
 70
     1
102
RTVSPost2010Prop31
280
     0
102
RTVSPost2010PropOp31
 70
     1
102
RTVSPost2010Prop32
280
     0
102
RTVSPost2010PropOp32
 70
     1
102
RTVSPost2010Prop33
280
     0
102
RTVSPost2010PropOp33
 70
     1
102
RTVSPost2010Prop34
280
     0
102
RTVSPost2010PropOp34
 70
     1
102
RTVSPost2010Prop35
280
     0
102
RTVSPost2010PropOp35
 70
     1
102
RTVSPost2010Prop36
280
     0
102
RTVSPost2010PropOp36
 70
     1
102
RTVSPost2010Prop37
 90
       50
102
RTVSPost2010PropOp37
 70
     1
102
RTVSPost2010Prop38
140
0.0
102
RTVSPost2010PropOp38
 70
     1
102
RTVSPost2010Prop39
140
1.0
102
RTVSPost2010PropOp39
 70
     1
102
RTVSPost2010Prop40
 90
        0
102
RTVSPost2010PropOp40
 70
     1
102
RTVSPost2010Prop41ColorIndex
 90
       18
102
RTVSPost2010Prop41ColorRGB
 90
        0
102
RTVSPost2010PropOp41
 70
     1
102
RTVSPost2010Prop42
 90
       50
102
RTVSPost2010PropOp42
 70
     1
102
RTVSPost2010Prop43
 90
        3
102
RTVSPost2010PropOp43
 70
     1
102
RTVSPost2010Prop44ColorIndex
 90
        5
102
RTVSPost2010Prop44ColorRGB
 90
      255
102
RTVSPost2010PropOp44
 70
     1
102
RTVSPost2010Prop45
280
     0
102
RTVSPost2010PropOp45
 70
     1
102
RTVSPost2010Prop46
 90
       50
102
RTVSPost2010PropOp46
 70
     1
102
RTVSPost2010Prop47
 90
       50
102
RTVSPost2010PropOp47
 70
     1
102
RTVSPost2010Prop48
 90
       50
102
RTVSPost2010PropOp48
 70
     1
102
RTVSPost2010Prop49
280
     0
102
RTVSPost2010PropOp49
 70
     1
102
RTVSPost2010Prop50
 90
       50
102
RTVSPost2010PropOp50
 70
     1
102
RTVSPost2010Prop51ColorIndex
 90
      256
102
RTVSPost2010Prop51ColorRGB
 90
-16777216
102
RTVSPost2010PropOp51
 70
     0
102
RTVSPost2010Prop52
140
1.0
102
RTVSPost2010PropOp52
 70
     0
102
RTVSPost2010Prop53
 90
        2
102
RTVSPost2010PropOp53
 70
     1
102
RTVSPost2010Prop54
  1
strokes_ogs.tif
102
RTVSPost2010PropOp54
 70
     1
102
RTVSPost2010Prop55
280
     0
102
RTVSPost2010PropOp55
 70
     1
102
RTVSPost2010Prop56
140
1.0
102
RTVSPost2010PropOp56
 70
     1
102
RTVSPost2010Prop57
140
1.0
102
RTVSPost2010PropOp57
 70
     1
102
RTVSPropertyOp0
 70
     1
102
RTVSPropertyOp1
 70
     1
102
RTVSPropertyOp2
 70
     1
102
RTVSPropertyOp3
 70
     1
102
RTVSPropertyOp4
 70
     1
102
RTVSPropertyOp5
 70
     1
102
RTVSPropertyOp6
 70
     1
102
RTVSPropertyOp7
 70
     1
102
RTVSPropertyOp8
 70
     1
102
RTVSPropertyOp9
 70
     1
102
RTVSPropertyOp10
 70
     1
102
RTVSPropertyOp11
 70
     1
102
RTVSPropertyOp12
 70
     1
102
RTVSPropertyOp13
 70
     1
102
RTVSPropertyOp14
 70
     1
102
RTVSPropertyOp15
 70
     1
102
RTVSPropertyOp16
 70
     1
102
RTVSPropertyOp17
 70
     1
102
RTVSPropertyOp18
 70
     1
102
RTVSPropertyOp19
 70
     1
102
RTVSPropertyOp20
 70
     1
102
RTVSPropertyOp21
 70
     1
102
RTVSPropertyOp22
 70
     1
102
RTVSPropertyOp23
 70
     1
102
RTVSPropertyOp24
 70
     1
102
RTVSPropertyOp25
 70
     1
102
RTVSPropertyOp26
 70
     1
102
RTVSPropertyOp27
 70
     1
102
RTVSPropertyOp28
 70
     1
102
RTVSPropertyOp29
 70
     1
102
RTVSPropertyOp30
 70
     1
102
RTVSPropertyOp31
 70
     1
102
RTVSPropertyOp32
 70
     1
102
RTVSPropertyOp33
 70
     1
102
RTVSPropertyOp34
 70
     1
102
RTVSPropertyOp35
 70
     1
102
RTVSPropertyOp36
 70
     1
102
RTVSPropertyOp37
 70
     1
102
RTVSPropertyOp38
 70
     1
102
RTVSPropertyOp39
 70
     1
102
RTVSPropertyOp40
 70
     1
102
RTVSPropertyOp41
 70
     1
102
RTVSPropertyOp42
 70
     1
102
RTVSPropertyOp43
 70
     1
102
RTVSPropertyOp44
 70
     1
102
RTVSPropertyOp45
 70
     1
102
RTVSPropertyOp46
 70
     1
102
RTVSPropertyOp47
 70
     1
102
RTVSPropertyOp48
 70
     1
102
RTVSPropertyOp49
 70
     1
102
RTVSPropertyOp50
 70
     1
102
RTVSPropertyOp51
 70
     0
102
RTVSPropertyOp52
 70
     0
102
RTVSPropertyOp53
 70
     1
102
RTVSPropertyOp54
 70
     1
102
RTVSPropertyOp55
 70
     1
102
RTVSPropertyOp56
 70
     1
102
RTVSPropertyOp57
 70
     1
102
RTVSPropertyOp58
 70
     1
102
RTVSPropertyOp59
 70
     1
102
RTVSPropertyOp60
 70
     1
102
RTVSPropertyOp61
 70
     1
102
RTVSPropertyOp62
 70
     1
  0
XRECORD
  5
254
102
{ACAD_REACTORS
330
253
102
}
330
253
100
AcDbXrecord
280
     1
102
RTVSPost2010Prop28
280
     0
102
RTVSPost2010PropOp28
 70
     1
102
RTVSPost2010Prop29
280
     1
102
RTVSPost2010PropOp29
 70
     1
102
RTVSPost2010Prop30
280
     1
102
RTVSPost2010PropOp30
 70
     1
102
RTVSPost2010Prop31
280
     0
102
RTVSPost2010PropOp31
 70
     1
102
RTVSPost2010Prop32
280
     0
102
RTVSPost2010PropOp32
 70
     1
102
RTVSPost2010Prop33
280
     0
102
RTVSPost2010PropOp33
 70
     1
102
RTVSPost2010Prop34
280
     0
102
RTVSPost2010PropOp34
 70
     1
102
RTVSPost2010Prop35
280
     0
102
RTVSPost2010PropOp35
 70
     1
102
RTVSPost2010Prop36
280
     0
102
RTVSPost2010PropOp36
 70
     1
102
RTVSPost2010Prop37
 90
       50
102
RTVSPost2010PropOp37
 70
     1
102
RTVSPost2010Prop38
140
0.0
102
RTVSPost2010PropOp38
 70
     1
102
RTVSPost2010Prop39
140
1.0
102
RTVSPost2010PropOp39
 70
     1
102
RTVSPost2010Prop40
 90
        0
102
RTVSPost2010PropOp40
 70
     1
102
RTVSPost2010Prop41ColorIndex
 90
       18
102
RTVSPost2010Prop41ColorRGB
 90
        0
102
RTVSPost2010PropOp41
 70
     1
102
RTVSPost2010Prop42
 90
       50
102
RTVSPost2010PropOp42
 70
     1
102
RTVSPost2010Prop43
 90
        3
102
RTVSPost2010PropOp43
 70
     1
102
RTVSPost2010Prop44ColorIndex
 90
        5
102
RTVSPost2010Prop44ColorRGB
 90
      255
102
RTVSPost2010PropOp44
 70
     1
102
RTVSPost2010Prop45
280
     0
102
RTVSPost2010PropOp45
 70
     1
102
RTVSPost2010Prop46
 90
       50
102
RTVSPost2010PropOp46
 70
     1
102
RTVSPost2010Prop47
 90
       50
102
RTVSPost2010PropOp47
 70
     1
102
RTVSPost2010Prop48
 90
       50
102
RTVSPost2010PropOp48
 70
     1
102
RTVSPost2010Prop49
280
     0
102
RTVSPost2010PropOp49
 70
     1
102
RTVSPost2010Prop50
 90
       50
102
RTVSPost2010PropOp50
 70
     1
102
RTVSPost2010Prop51ColorIndex
 90
      256
102
RTVSPost2010Prop51ColorRGB
 90
-16777216
102
RTVSPost2010PropOp51
 70
     0
102
RTVSPost2010Prop52
140
1.0
102
RTVSPost2010PropOp52
 70
     0
102
RTVSPost2010Prop53
 90
        2
102
RTVSPost2010PropOp53
 70
     1
102
RTVSPost2010Prop54
  1
strokes_ogs.tif
102
RTVSPost2010PropOp54
 70
     1
102
RTVSPost2010Prop55
280
     0
102
RTVSPost2010PropOp55
 70
     1
102
RTVSPost2010Prop56
140
1.0
102
RTVSPost2010PropOp56
 70
     1
102
RTVSPost2010Prop57
140
1.0
102
RTVSPost2010PropOp57
 70
     1
102
RTVSPropertyOp0
 70
     1
102
RTVSPropertyOp1
 70
     1
102
RTVSPropertyOp2
 70
     1
102
RTVSPropertyOp3
 70
     1
102
RTVSPropertyOp4
 70
     1
102
RTVSPropertyOp5
 70
     1
102
RTVSPropertyOp6
 70
     1
102
RTVSPropertyOp7
 70
     1
102
RTVSPropertyOp8
 70
     1
102
RTVSPropertyOp9
 70
     1
102
RTVSPropertyOp10
 70
     1
102
RTVSPropertyOp11
 70
     1
102
RTVSPropertyOp12
 70
     1
102
RTVSPropertyOp13
 70
     1
102
RTVSPropertyOp14
 70
     1
102
RTVSPropertyOp15
 70
     1
102
RTVSPropertyOp16
 70
     1
102
RTVSPropertyOp17
 70
     1
102
RTVSPropertyOp18
 70
     1
102
RTVSPropertyOp19
 70
     1
102
RTVSPropertyOp20
 70
     1
102
RTVSPropertyOp21
 70
     1
102
RTVSPropertyOp22
 70
     1
102
RTVSPropertyOp23
 70
     1
102
RTVSPropertyOp24
 70
     1
102
RTVSPropertyOp25
 70
     1
102
RTVSPropertyOp26
 70
     1
102
RTVSPropertyOp27
 70
     1
102
RTVSPropertyOp28
 70
     1
102
RTVSPropertyOp29
 70
     1
102
RTVSPropertyOp30
 70
     1
102
RTVSPropertyOp31
 70
     1
102
RTVSPropertyOp32
 70
     1
102
RTVSPropertyOp33
 70
     1
102
RTVSPropertyOp34
 70
     1
102
RTVSPropertyOp35
 70
     1
102
RTVSPropertyOp36
 70
     1
102
RTVSPropertyOp37
 70
     1
102
RTVSPropertyOp38
 70
     1
102
RTVSPropertyOp39
 70
     1
102
RTVSPropertyOp40
 70
     1
102
RTVSPropertyOp41
 70
     1
102
RTVSPropertyOp42
 70
     1
102
RTVSPropertyOp43
 70
     1
102
RTVSPropertyOp44
 70
     1
102
RTVSPropertyOp45
 70
     1
102
RTVSPropertyOp46
 70
     1
102
RTVSPropertyOp47
 70
     1
102
RTVSPropertyOp48
 70
     1
102
RTVSPropertyOp49
 70
     1
102
RTVSPropertyOp50
 70
     1
102
RTVSPropertyOp51
 70
     0
102
RTVSPropertyOp52
 70
     0
102
RTVSPropertyOp53
 70
     1
102
RTVSPropertyOp54
 70
     1
102
RTVSPropertyOp55
 70
     1
102
RTVSPropertyOp56
 70
     1
102
RTVSPropertyOp57
 70
     1
102
RTVSPropertyOp58
 70
     1
102
RTVSPropertyOp59
 70
     1
102
RTVSPropertyOp60
 70
     1
102
RTVSPropertyOp61
 70
     1
102
RTVSPropertyOp62
 70
     1
  0
XRECORD
  5
248
102
{ACAD_REACTORS
330
247
102
}
330
247
100
AcDbXrecord
280
     1
102
RTVSPost2010Prop28
280
     0
102
RTVSPost2010PropOp28
 70
     1
102
RTVSPost2010Prop29
280
     1
102
RTVSPost2010PropOp29
 70
     1
102
RTVSPost2010Prop30
280
     1
102
RTVSPost2010PropOp30
 70
     1
102
RTVSPost2010Prop31
280
     0
102
RTVSPost2010PropOp31
 70
     1
102
RTVSPost2010Prop32
280
     0
102
RTVSPost2010PropOp32
 70
     1
102
RTVSPost2010Prop33
280
     0
102
RTVSPost2010PropOp33
 70
     1
102
RTVSPost2010Prop34
280
     0
102
RTVSPost2010PropOp34
 70
     1
102
RTVSPost2010Prop35
280
     0
102
RTVSPost2010PropOp35
 70
     1
102
RTVSPost2010Prop36
280
     0
102
RTVSPost2010PropOp36
 70
     1
102
RTVSPost2010Prop37
 90
       50
102
RTVSPost2010PropOp37
 70
     1
102
RTVSPost2010Prop38
140
0.0
102
RTVSPost2010PropOp38
 70
     1
102
RTVSPost2010Prop39
140
1.0
102
RTVSPost2010PropOp39
 70
     1
102
RTVSPost2010Prop40
 90
        0
102
RTVSPost2010PropOp40
 70
     1
102
RTVSPost2010Prop41ColorIndex
 90
       18
102
RTVSPost2010Prop41ColorRGB
 90
        0
102
RTVSPost2010PropOp41
 70
     1
102
RTVSPost2010Prop42
 90
       50
102
RTVSPost2010PropOp42
 70
     1
102
RTVSPost2010Prop43
 90
        3
102
RTVSPost2010PropOp43
 70
     1
102
RTVSPost2010Prop44ColorIndex
 90
        5
102
RTVSPost2010Prop44ColorRGB
 90
      255
102
RTVSPost2010PropOp44
 70
     1
102
RTVSPost2010Prop45
280
     0
102
RTVSPost2010PropOp45
 70
     1
102
RTVSPost2010Prop46
 90
       50
102
RTVSPost2010PropOp46
 70
     1
102
RTVSPost2010Prop47
 90
       50
102
RTVSPost2010PropOp47
 70
     1
102
RTVSPost2010Prop48
 90
       50
102
RTVSPost2010PropOp48
 70
     1
102
RTVSPost2010Prop49
280
     0
102
RTVSPost2010PropOp49
 70
     1
102
RTVSPost2010Prop50
 90
       50
102
RTVSPost2010PropOp50
 70
     1
102
RTVSPost2010Prop51ColorIndex
 90
      256
102
RTVSPost2010Prop51ColorRGB
 90
-16777216
102
RTVSPost2010PropOp51
 70
     0
102
RTVSPost2010Prop52
140
1.0
102
RTVSPost2010PropOp52
 70
     0
102
RTVSPost2010Prop53
 90
        2
102
RTVSPost2010PropOp53
 70
     1
102
RTVSPost2010Prop54
  1
strokes_ogs.tif
102
RTVSPost2010PropOp54
 70
     1
102
RTVSPost2010Prop55
280
     0
102
RTVSPost2010PropOp55
 70
     1
102
RTVSPost2010Prop56
140
1.0
102
RTVSPost2010PropOp56
 70
     1
102
RTVSPost2010Prop57
140
1.0
102
RTVSPost2010PropOp57
 70
     1
102
RTVSPropertyOp0
 70
     1
102
RTVSPropertyOp1
 70
     1
102
RTVSPropertyOp2
 70
     1
102
RTVSPropertyOp3
 70
     1
102
RTVSPropertyOp4
 70
     1
102
RTVSPropertyOp5
 70
     1
102
RTVSPropertyOp6
 70
     1
102
RTVSPropertyOp7
 70
     1
102
RTVSPropertyOp8
 70
     1
102
RTVSPropertyOp9
 70
     1
102
RTVSPropertyOp10
 70
     1
102
RTVSPropertyOp11
 70
     1
102
RTVSPropertyOp12
 70
     1
102
RTVSPropertyOp13
 70
     1
102
RTVSPropertyOp14
 70
     1
102
RTVSPropertyOp15
 70
     1
102
RTVSPropertyOp16
 70
     1
102
RTVSPropertyOp17
 70
     1
102
RTVSPropertyOp18
 70
     1
102
RTVSPropertyOp19
 70
     1
102
RTVSPropertyOp20
 70
     1
102
RTVSPropertyOp21
 70
     1
102
RTVSPropertyOp22
 70
     1
102
RTVSPropertyOp23
 70
     1
102
RTVSPropertyOp24
 70
     1
102
RTVSPropertyOp25
 70
     1
102
RTVSPropertyOp26
 70
     1
102
RTVSPropertyOp27
 70
     1
102
RTVSPropertyOp28
 70
     1
102
RTVSPropertyOp29
 70
     1
102
RTVSPropertyOp30
 70
     1
102
RTVSPropertyOp31
 70
     1
102
RTVSPropertyOp32
 70
     1
102
RTVSPropertyOp33
 70
     1
102
RTVSPropertyOp34
 70
     1
102
RTVSPropertyOp35
 70
     1
102
RTVSPropertyOp36
 70
     1
102
RTVSPropertyOp37
 70
     1
102
RTVSPropertyOp38
 70
     1
102
RTVSPropertyOp39
 70
     1
102
RTVSPropertyOp40
 70
     1
102
RTVSPropertyOp41
 70
     1
102
RTVSPropertyOp42
 70
     1
102
RTVSPropertyOp43
 70
     1
102
RTVSPropertyOp44
 70
     1
102
RTVSPropertyOp45
 70
     1
102
RTVSPropertyOp46
 70
     1
102
RTVSPropertyOp47
 70
     1
102
RTVSPropertyOp48
 70
     1
102
RTVSPropertyOp49
 70
     1
102
RTVSPropertyOp50
 70
     1
102
RTVSPropertyOp51
 70
     0
102
RTVSPropertyOp52
 70
     0
102
RTVSPropertyOp53
 70
     1
102
RTVSPropertyOp54
 70
     1
102
RTVSPropertyOp55
 70
     1
102
RTVSPropertyOp56
 70
     1
102
RTVSPropertyOp57
 70
     1
102
RTVSPropertyOp58
 70
     1
102
RTVSPropertyOp59
 70
     1
102
RTVSPropertyOp60
 70
     1
102
RTVSPropertyOp61
 70
     1
102
RTVSPropertyOp62
 70
     1
  0
XRECORD
  5
260
102
{ACAD_REACTORS
330
25F
102
}
330
25F
100
AcDbXrecord
280
     1
102
RTVSPost2010Prop28
280
     0
102
RTVSPost2010PropOp28
 70
     1
102
RTVSPost2010Prop29
280
     1
102
RTVSPost2010PropOp29
 70
     1
102
RTVSPost2010Prop30
280
     1
102
RTVSPost2010PropOp30
 70
     1
102
RTVSPost2010Prop31
280
     0
102
RTVSPost2010PropOp31
 70
     1
102
RTVSPost2010Prop32
280
     0
102
RTVSPost2010PropOp32
 70
     1
102
RTVSPost2010Prop33
280
     0
102
RTVSPost2010PropOp33
 70
     1
102
RTVSPost2010Prop34
280
     0
102
RTVSPost2010PropOp34
 70
     1
102
RTVSPost2010Prop35
280
     0
102
RTVSPost2010PropOp35
 70
     1
102
RTVSPost2010Prop36
280
     0
102
RTVSPost2010PropOp36
 70
     1
102
RTVSPost2010Prop37
 90
       50
102
RTVSPost2010PropOp37
 70
     1
102
RTVSPost2010Prop38
140
0.0
102
RTVSPost2010PropOp38
 70
     1
102
RTVSPost2010Prop39
140
1.0
102
RTVSPost2010PropOp39
 70
     1
102
RTVSPost2010Prop40
 90
        0
102
RTVSPost2010PropOp40
 70
     1
102
RTVSPost2010Prop41ColorIndex
 90
       18
102
RTVSPost2010Prop41ColorRGB
 90
        0
102
RTVSPost2010PropOp41
 70
     1
102
RTVSPost2010Prop42
 90
       50
102
RTVSPost2010PropOp42
 70
     1
102
RTVSPost2010Prop43
 90
        3
102
RTVSPost2010PropOp43
 70
     1
102
RTVSPost2010Prop44ColorIndex
 90
        5
102
RTVSPost2010Prop44ColorRGB
 90
      255
102
RTVSPost2010PropOp44
 70
     1
102
RTVSPost2010Prop45
280
     0
102
RTVSPost2010PropOp45
 70
     1
102
RTVSPost2010Prop46
 90
       50
102
RTVSPost2010PropOp46
 70
     1
102
RTVSPost2010Prop47
 90
       50
102
RTVSPost2010PropOp47
 70
     1
102
RTVSPost2010Prop48
 90
       50
102
RTVSPost2010PropOp48
 70
     1
102
RTVSPost2010Prop49
280
     0
102
RTVSPost2010PropOp49
 70
     1
102
RTVSPost2010Prop50
 90
       50
102
RTVSPost2010PropOp50
 70
     1
102
RTVSPost2010Prop51ColorIndex
 90
      256
102
RTVSPost2010Prop51ColorRGB
 90
-16777216
102
RTVSPost2010PropOp51
 70
     0
102
RTVSPost2010Prop52
140
1.0
102
RTVSPost2010PropOp52
 70
     0
102
RTVSPost2010Prop53
 90
        2
102
RTVSPost2010PropOp53
 70
     1
102
RTVSPost2010Prop54
  1
strokes_ogs.tif
102
RTVSPost2010PropOp54
 70
     1
102
RTVSPost2010Prop55
280
     0
102
RTVSPost2010PropOp55
 70
     1
102
RTVSPost2010Prop56
140
1.0
102
RTVSPost2010PropOp56
 70
     1
102
RTVSPost2010Prop57
140
1.0
102
RTVSPost2010PropOp57
 70
     1
102
RTVSPropertyOp0
 70
     1
102
RTVSPropertyOp1
 70
     1
102
RTVSPropertyOp2
 70
     1
102
RTVSPropertyOp3
 70
     1
102
RTVSPropertyOp4
 70
     1
102
RTVSPropertyOp5
 70
     1
102
RTVSPropertyOp6
 70
     1
102
RTVSPropertyOp7
 70
     1
102
RTVSPropertyOp8
 70
     1
102
RTVSPropertyOp9
 70
     1
102
RTVSPropertyOp10
 70
     1
102
RTVSPropertyOp11
 70
     1
102
RTVSPropertyOp12
 70
     1
102
RTVSPropertyOp13
 70
     1
102
RTVSPropertyOp14
 70
     1
102
RTVSPropertyOp15
 70
     1
102
RTVSPropertyOp16
 70
     1
102
RTVSPropertyOp17
 70
     1
102
RTVSPropertyOp18
 70
     1
102
RTVSPropertyOp19
 70
     1
102
RTVSPropertyOp20
 70
     1
102
RTVSPropertyOp21
 70
     1
102
RTVSPropertyOp22
 70
     1
102
RTVSPropertyOp23
 70
     1
102
RTVSPropertyOp24
 70
     1
102
RTVSPropertyOp25
 70
     1
102
RTVSPropertyOp26
 70
     1
102
RTVSPropertyOp27
 70
     1
102
RTVSPropertyOp28
 70
     1
102
RTVSPropertyOp29
 70
     1
102
RTVSPropertyOp30
 70
     1
102
RTVSPropertyOp31
 70
     1
102
RTVSPropertyOp32
 70
     1
102
RTVSPropertyOp33
 70
     1
102
RTVSPropertyOp34
 70
     1
102
RTVSPropertyOp35
 70
     1
102
RTVSPropertyOp36
 70
     1
102
RTVSPropertyOp37
 70
     1
102
RTVSPropertyOp38
 70
     1
102
RTVSPropertyOp39
 70
     1
102
RTVSPropertyOp40
 70
     1
102
RTVSPropertyOp41
 70
     1
102
RTVSPropertyOp42
 70
     1
102
RTVSPropertyOp43
 70
     1
102
RTVSPropertyOp44
 70
     1
102
RTVSPropertyOp45
 70
     1
102
RTVSPropertyOp46
 70
     1
102
RTVSPropertyOp47
 70
     1
102
RTVSPropertyOp48
 70
     1
102
RTVSPropertyOp49
 70
     1
102
RTVSPropertyOp50
 70
     1
102
RTVSPropertyOp51
 70
     0
102
RTVSPropertyOp52
 70
     0
102
RTVSPropertyOp53
 70
     1
102
RTVSPropertyOp54
 70
     1
102
RTVSPropertyOp55
 70
     1
102
RTVSPropertyOp56
 70
     1
102
RTVSPropertyOp57
 70
     1
102
RTVSPropertyOp58
 70
     1
102
RTVSPropertyOp59
 70
     1
102
RTVSPropertyOp60
 70
     1
102
RTVSPropertyOp61
 70
     1
102
RTVSPropertyOp62
 70
     1
  0
ENDSEC
  0
EOF
