  0
SECTION
  2
HEADER
  9
$ACADVER
  1
AC1027
  9
$ACADMAINTVER
 70
   125
  9
$DWGCODEPAGE
  3
ANSI_1252
  9
$LASTSAVEDBY
  1
ufficio.tecnico
  9
$REQUIREDVERSIONS
160
                 0
  9
$INSBASE
 10
0.0
 20
0.0
 30
0.0
  9
$EXTMIN
 10
54.93770342947358
 20
29.12754117889176
 30
0.0
  9
$EXTMAX
 10
95.78620059808093
 20
68.68929518375825
 30
0.0
  9
$LIMMIN
 10
0.0
 20
0.0
  9
$LIMMAX
 10
12.0
 20
9.0
  9
$ORTHOMODE
 70
     0
  9
$REGENMODE
 70
     1
  9
$FILLMODE
 70
     1
  9
$QTEXTMODE
 70
     0
  9
$MIRRTEXT
 70
     0
  9
$LTSCALE
 40
1.0
  9
$ATTMODE
 70
     1
  9
$TEXTSIZE
 40
0.2
  9
$TRACEWID
 40
0.05
  9
$TEXTSTYLE
  7
Standard
  9
$CLAYER
  8
0
  9
$CELTYPE
  6
ByLayer
  9
$CECOLOR
 62
   256
  9
$CELTSCALE
 40
1.0
  9
$DISPSILH
 70
     0
  9
$DIMSCALE
 40
1.0
  9
$DIMASZ
 40
0.18
  9
$DIMEXO
 40
0.0625
  9
$DIMDLI
 40
0.38
  9
$DIMRND
 40
0.0
  9
$DIMDLE
 40
0.0
  9
$DIMEXE
 40
0.18
  9
$DIMTP
 40
0.0
  9
$DIMTM
 40
0.0
  9
$DIMTXT
 40
0.18
  9
$DIMCEN
 40
0.09
  9
$DIMTSZ
 40
0.0
  9
$DIMTOL
 70
     0
  9
$DIMLIM
 70
     0
  9
$DIMTIH
 70
     1
  9
$DIMTOH
 70
     1
  9
$DIMSE1
 70
     0
  9
$DIMSE2
 70
     0
  9
$DIMTAD
 70
     0
  9
$DIMZIN
 70
     0
  9
$DIMBLK
  1

  9
$DIMASO
 70
     1
  9
$DIMSHO
 70
     1
  9
$DIMPOST
  1

  9
$DIMAPOST
  1

  9
$DIMALT
 70
     0
  9
$DIMALTD
 70
     2
  9
$DIMALTF
 40
25.4
  9
$DIMLFAC
 40
1.0
  9
$DIMTOFL
 70
     0
  9
$DIMTVP
 40
0.0
  9
$DIMTIX
 70
     0
  9
$DIMSOXD
 70
     0
  9
$DIMSAH
 70
     0
  9
$DIMBLK1
  1

  9
$DIMBLK2
  1

  9
$DIMSTYLE
  2
Standard
  9
$DIMCLRD
 70
     0
  9
$DIMCLRE
 70
     0
  9
$DIMCLRT
 70
     0
  9
$DIMTFAC
 40
1.0
  9
$DIMGAP
 40
0.09
  9
$DIMJUST
 70
     0
  9
$DIMSD1
 70
     0
  9
$DIMSD2
 70
     0
  9
$DIMTOLJ
 70
     1
  9
$DIMTZIN
 70
     0
  9
$DIMALTZ
 70
     0
  9
$DIMALTTZ
 70
     0
  9
$DIMUPT
 70
     0
  9
$DIMDEC
 70
     4
  9
$DIMTDEC
 70
     4
  9
$DIMALTU
 70
     2
  9
$DIMALTTD
 70
     2
  9
$DIMTXSTY
  7
Standard
  9
$DIMAUNIT
 70
     0
  9
$DIMADEC
 70
     0
  9
$DIMALTRND
 40
0.0
  9
$DIMAZIN
 70
     0
  9
$DIMDSEP
 70
    46
  9
$DIMATFIT
 70
     3
  9
$DIMFRAC
 70
     0
  9
$DIMLDRBLK
  1

  9
$DIMLUNIT
 70
     2
  9
$DIMLWD
 70
    -2
  9
$DIMLWE
 70
    -2
  9
$DIMTMOVE
 70
     0
  9
$DIMFXL
 40
1.0
  9
$DIMFXLON
 70
     0
  9
$DIMJOGANG
 40
0.7853981633974483
  9
$DIMTFILL
 70
     0
  9
$DIMTFILLCLR
 70
     0
  9
$DIMARCSYM
 70
     0
  9
$DIMLTYPE
  6

  9
$DIMLTEX1
  6

  9
$DIMLTEX2
  6

  9
$DIMTXTDIRECTION
 70
     0
  9
$LUNITS
 70
     2
  9
$LUPREC
 70
     4
  9
$SKETCHINC
 40
0.1
  9
$FILLETRAD
 40
0.0
  9
$AUNITS
 70
     0
  9
$AUPREC
 70
     0
  9
$MENU
  1
.
  9
$ELEVATION
 40
0.0
  9
$PELEVATION
 40
0.0
  9
$THICKNESS
 40
0.0
  9
$LIMCHECK
 70
     0
  9
$CHAMFERA
 40
0.0
  9
$CHAMFERB
 40
0.0
  9
$CHAMFERC
 40
0.0
  9
$CHAMFERD
 40
0.0
  9
$SKPOLY
 70
     0
  9
$TDCREATE
 40
2459319.706157407
  9
$TDUCREATE
 40
2459319.622824074
  9
$TDUPDATE
 40
2459319.709930555
  9
$TDUUPDATE
 40
2459319.626597222
  9
$TDINDWG
 40
0.0037731481
  9
$TDUSRTIMER
 40
0.0037731481
  9
$USRTIMER
 70
     1
  9
$ANGBASE
 50
0.0
  9
$ANGDIR
 70
     0
  9
$PDMODE
 70
     0
  9
$PDSIZE
 40
0.0
  9
$PLINEWID
 40
0.0
  9
$SPLFRAME
 70
     0
  9
$SPLINETYPE
 70
     6
  9
$SPLINESEGS
 70
     8
  9
$HANDSEED
  5
386
  9
$SURFTAB1
 70
     6
  9
$SURFTAB2
 70
     6
  9
$SURFTYPE
 70
     6
  9
$SURFU
 70
     6
  9
$SURFV
 70
     6
  9
$UCSBASE
  2

  9
$UCSNAME
  2

  9
$UCSORG
 10
0.0
 20
0.0
 30
0.0
  9
$UCSXDIR
 10
1.0
 20
0.0
 30
0.0
  9
$UCSYDIR
 10
0.0
 20
1.0
 30
0.0
  9
$UCSORTHOREF
  2

  9
$UCSORTHOVIEW
 70
     0
  9
$UCSORGTOP
 10
0.0
 20
0.0
 30
0.0
  9
$UCSORGBOTTOM
 10
0.0
 20
0.0
 30
0.0
  9
$UCSORGLEFT
 10
0.0
 20
0.0
 30
0.0
  9
$UCSORGRIGHT
 10
0.0
 20
0.0
 30
0.0
  9
$UCSORGFRONT
 10
0.0
 20
0.0
 30
0.0
  9
$UCSORGBACK
 10
0.0
 20
0.0
 30
0.0
  9
$PUCSBASE
  2

  9
$PUCSNAME
  2

  9
$PUCSORG
 10
0.0
 20
0.0
 30
0.0
  9
$PUCSXDIR
 10
1.0
 20
0.0
 30
0.0
  9
$PUCSYDIR
 10
0.0
 20
1.0
 30
0.0
  9
$PUCSORTHOREF
  2

  9
$PUCSORTHOVIEW
 70
     0
  9
$PUCSORGTOP
 10
0.0
 20
0.0
 30
0.0
  9
$PUCSORGBOTTOM
 10
0.0
 20
0.0
 30
0.0
  9
$PUCSORGLEFT
 10
0.0
 20
0.0
 30
0.0
  9
$PUCSORGRIGHT
 10
0.0
 20
0.0
 30
0.0
  9
$PUCSORGFRONT
 10
0.0
 20
0.0
 30
0.0
  9
$PUCSORGBACK
 10
0.0
 20
0.0
 30
0.0
  9
$USERI1
 70
     0
  9
$USERI2
 70
     0
  9
$USERI3
 70
     0
  9
$USERI4
 70
     0
  9
$USERI5
 70
     0
  9
$USERR1
 40
0.0
  9
$USERR2
 40
0.0
  9
$USERR3
 40
0.0
  9
$USERR4
 40
0.0
  9
$USERR5
 40
0.0
  9
$WORLDVIEW
 70
     1
  9
$SHADEDGE
 70
     3
  9
$SHADEDIF
 70
    70
  9
$TILEMODE
 70
     1
  9
$MAXACTVP
 70
    64
  9
$PINSBASE
 10
0.0
 20
0.0
 30
0.0
  9
$PLIMCHECK
 70
     0
  9
$PEXTMIN
 10
0.0
 20
0.0
 30
0.0
  9
$PEXTMAX
 10
0.0
 20
0.0
 30
0.0
  9
$PLIMMIN
 10
0.0
 20
0.0
  9
$PLIMMAX
 10
12.0
 20
9.0
  9
$UNITMODE
 70
     0
  9
$VISRETAIN
 70
     1
  9
$PLINEGEN
 70
     0
  9
$PSLTSCALE
 70
     1
  9
$TREEDEPTH
 70
  3020
  9
$CMLSTYLE
  2
Standard
  9
$CMLJUST
 70
     0
  9
$CMLSCALE
 40
1.0
  9
$PROXYGRAPHICS
 70
     1
  9
$MEASUREMENT
 70
     0
  9
$CELWEIGHT
370
    -1
  9
$ENDCAPS
280
     0
  9
$JOINSTYLE
280
     0
  9
$LWDISPLAY
290
     0
  9
$INSUNITS
 70
     1
  9
$HYPERLINKBASE
  1

  9
$STYLESHEET
  1

  9
$XEDIT
290
     1
  9
$CEPSNTYPE
380
     0
  9
$PSTYLEMODE
290
     0
  9
$FINGERPRINTGUID
  2
{2CA86485-49F9-7D43-BC80-0C78236FDB40}
  9
$VERSIONGUID
  2
{E9E95400-607C-F743-A67D-81110AC0FB39}
  9
$EXTNAMES
290
     1
  9
$PSVPSCALE
 40
0.0
  9
$OLESTARTUP
290
     0
  9
$SORTENTS
280
   127
  9
$INDEXCTL
280
     0
  9
$HIDETEXT
280
     1
  9
$XCLIPFRAME
280
     2
  9
$HALOGAP
280
     0
  9
$OBSCOLOR
 70
   257
  9
$OBSLTYPE
280
     0
  9
$INTERSECTIONDISPLAY
280
     0
  9
$INTERSECTIONCOLOR
 70
   257
  9
$DIMASSOC
280
     2
  9
$PROJECTNAME
  1

  9
$CAMERADISPLAY
290
     0
  9
$LENSLENGTH
 40
50.0
  9
$CAMERAHEIGHT
 40
60.0
  9
$STEPSPERSEC
 40
2.0
  9
$STEPSIZE
 40
6.0
  9
$3DDWFPREC
 40
2.0
  9
$PSOLWIDTH
 40
0.25
  9
$PSOLHEIGHT
 40
4.0
  9
$LOFTANG1
 40
1.570796326794896
  9
$LOFTANG2
 40
1.570796326794896
  9
$LOFTMAG1
 40
0.0
  9
$LOFTMAG2
 40
0.0
  9
$LOFTPARAM
 70
     7
  9
$LOFTNORMALS
280
     1
  9
$LATITUDE
 40
37.795
  9
$LONGITUDE
 40
-122.394
  9
$NORTHDIRECTION
 40
0.0
  9
$TIMEZONE
 70
 -8000
  9
$LIGHTGLYPHDISPLAY
280
     1
  9
$TILEMODELIGHTSYNCH
280
     1
  9
$CMATERIAL
347
92
  9
$SOLIDHIST
280
     0
  9
$SHOWHIST
280
     1
  9
$DWFFRAME
280
     2
  9
$DGNFRAME
280
     0
  9
$REALWORLDSCALE
290
     1
  9
$INTERFERECOLOR
 62
     1
  9
$INTERFEREOBJVS
345
9F
  9
$INTERFEREVPVS
346
9C
  9
$CSHADOW
280
     0
  9
$SHADOWPLANELOCATION
 40
0.0
  0
ENDSEC
  0
SECTION
  2
CLASSES
  0
CLASS
  1
ACDBDICTIONARYWDFLT
  2
AcDbDictionaryWithDefault
  3
ObjectDBX Classes
 90
        0
 91
        1
280
     0
281
     0
  0
CLASS
  1
DICTIONARYVAR
  2
AcDbDictionaryVar
  3
ObjectDBX Classes
 90
        0
 91
        9
280
     0
281
     0
  0
CLASS
  1
MATERIAL
  2
AcDbMaterial
  3
ObjectDBX Classes
 90
     1153
 91
        3
280
     0
281
     0
  0
CLASS
  1
VISUALSTYLE
  2
AcDbVisualStyle
  3
ObjectDBX Classes
 90
     4095
 91
       24
280
     0
281
     0
  0
CLASS
  1
TABLESTYLE
  2
AcDbTableStyle
  3
ObjectDBX Classes
 90
     4095
 91
        1
280
     0
281
     0
  0
CLASS
  1
SCALE
  2
AcDbScale
  3
ObjectDBX Classes
 90
     1153
 91
       33
280
     0
281
     0
  0
CLASS
  1
MLEADERSTYLE
  2
AcDbMLeaderStyle
  3
ACDB_MLEADERSTYLE_CLASS
 90
     4095
 91
        2
280
     0
281
     0
  0
CLASS
  1
CELLSTYLEMAP
  2
AcDbCellStyleMap
  3
ObjectDBX Classes
 90
     1152
 91
        1
280
     0
281
     0
  0
CLASS
  1
EXACXREFPANELOBJECT
  2
ExAcXREFPanelObject
  3
EXAC_ESW
 90
     1025
 91
        0
280
     0
281
     0
  0
CLASS
  1
NPOCOLLECTION
  2
AcDbImpNonPersistentObjectsCollection
  3
ObjectDBX Classes
 90
     1153
 91
        0
280
     0
281
     0
  0
CLASS
  1
LAYER_INDEX
  2
AcDbLayerIndex
  3
ObjectDBX Classes
 90
        0
 91
        0
280
     0
281
     0
  0
CLASS
  1
SPATIAL_INDEX
  2
AcDbSpatialIndex
  3
ObjectDBX Classes
 90
        0
 91
        0
280
     0
281
     0
  0
CLASS
  1
IDBUFFER
  2
AcDbIdBuffer
  3
ObjectDBX Classes
 90
        0
 91
        0
280
     0
281
     0
  0
CLASS
  1
ACDBSECTIONVIEWSTYLE
  2
AcDbSectionViewStyle
  3
ObjectDBX Classes
 90
     1025
 91
        1
280
     0
281
     0
  0
CLASS
  1
ACDBDETAILVIEWSTYLE
  2
AcDbDetailViewStyle
  3
ObjectDBX Classes
 90
     1025
 91
        1
280
     0
281
     0
  0
CLASS
  1
SORTENTSTABLE
  2
AcDbSortentsTable
  3
ObjectDBX Classes
 90
        0
 91
        1
280
     0
281
     0
  0
ENDSEC
  0
SECTION
  2
TABLES
  0
TABLE
  2
VPORT
  5
8
330
0
100
AcDbSymbolTable
 70
     1
1001
ACAD
1000
DbSaveVer
1071
      105
  0
VPORT
  5
90
330
8
100
AcDbSymbolTableRecord
100
AcDbViewportTableRecord
  2
*Active
 70
     0
 10
0.0
 20
0.0
 11
1.0
 21
1.0
 12
90.61842309870142
 22
42.51345460271504
 13
0.0
 23
0.0
 14
0.5
 24
0.5
 15
0.5
 25
0.5
 16
0.0
 26
0.0
 36
1.0
 17
0.0
 27
0.0
 37
0.0
 40
81.30156207760963
 41
2.113286713286713
 42
50.0
 43
0.0
 44
0.0
 50
0.0
 51
0.0
 71
     0
 72
  1000
 73
     1
 74
     3
 75
     0
 76
     1
 77
     0
 78
     0
281
     0
 65
     1
110
0.0
120
0.0
130
0.0
111
1.0
121
0.0
131
0.0
112
0.0
122
1.0
132
0.0
 79
     0
146
0.0
348
9B
 60
     3
 61
     5
292
     1
282
     1
141
0.0
142
0.0
 63
   250
421
  3355443
1001
ACAD_NAV_VCDISPLAY
1070
     3
  0
ENDTAB
  0
TABLE
  2
LTYPE
  5
5
330
0
100
AcDbSymbolTable
 70
     1
  0
LTYPE
  5
14
330
5
100
AcDbSymbolTableRecord
100
AcDbLinetypeTableRecord
  2
ByBlock
 70
     0
  3

 72
    65
 73
     0
 40
0.0
  0
LTYPE
  5
15
330
5
100
AcDbSymbolTableRecord
100
AcDbLinetypeTableRecord
  2
ByLayer
 70
     0
  3

 72
    65
 73
     0
 40
0.0
  0
LTYPE
  5
16
330
5
100
AcDbSymbolTableRecord
100
AcDbLinetypeTableRecord
  2
Continuous
 70
     0
  3
Solid line
 72
    65
 73
     0
 40
0.0
  0
ENDTAB
  0
TABLE
  2
LAYER
  5
2
102
{ACAD_XDICTIONARY
360
18B
102
}
330
0
100
AcDbSymbolTable
 70
     2
  0
LAYER
  5
10
102
{ACAD_XDICTIONARY
360
E1
102
}
330
2
100
AcDbSymbolTableRecord
100
AcDbLayerTableRecord
  2
0
 70
     0
 62
     7
  6
Continuous
370
    -3
390
F
347
94
348
0
  0
LAYER
  5
2BB
330
2
100
AcDbSymbolTableRecord
100
AcDbLayerTableRecord
  2
Livello 1
 70
     0
 62
     7
  6
Continuous
370
    -3
390
F
347
94
348
0
  0
ENDTAB
  0
TABLE
  2
STYLE
  5
3
330
0
100
AcDbSymbolTable
 70
     2
  0
STYLE
  5
11
330
3
100
AcDbSymbolTableRecord
100
AcDbTextStyleTableRecord
  2
Standard
 70
     0
 40
0.0
 41
1.0
 50
0.0
 71
     0
 42
0.2
  3
arial.ttf
  4

1001
ACAD
1000
Arial
1071
       34
  0
STYLE
  5
D7
330
3
100
AcDbSymbolTableRecord
100
AcDbTextStyleTableRecord
  2
Annotativa
 70
     0
 40
0.0
 41
1.0
 50
0.0
 71
     0
 42
0.2
  3
arial.ttf
  4

1001
AcadAnnotative
1000
AnnotativeData
1002
{
1070
     1
1070
     1
1002
}
1001
ACAD
1000
Arial
1071
       34
  0
ENDTAB
  0
TABLE
  2
VIEW
  5
6
330
0
100
AcDbSymbolTable
 70
     0
  0
ENDTAB
  0
TABLE
  2
UCS
  5
7
330
0
100
AcDbSymbolTable
 70
     0
  0
ENDTAB
  0
TABLE
  2
APPID
  5
9
330
0
100
AcDbSymbolTable
 70
     7
  0
APPID
  5
12
330
9
100
AcDbSymbolTableRecord
100
AcDbRegAppTableRecord
  2
ACAD
 70
     0
  0
APPID
  5
D8
330
9
100
AcDbSymbolTableRecord
100
AcDbRegAppTableRecord
  2
AcadAnnoPO
 70
     0
  0
APPID
  5
D9
330
9
100
AcDbSymbolTableRecord
100
AcDbRegAppTableRecord
  2
AcadAnnotative
 70
     0
  0
APPID
  5
DA
330
9
100
AcDbSymbolTableRecord
100
AcDbRegAppTableRecord
  2
ACAD_DSTYLE_DIMJAG
 70
     0
  0
APPID
  5
DB
330
9
100
AcDbSymbolTableRecord
100
AcDbRegAppTableRecord
  2
ACAD_DSTYLE_DIMTALN
 70
     0
  0
APPID
  5
102
330
9
100
AcDbSymbolTableRecord
100
AcDbRegAppTableRecord
  2
ACAD_MLEADERVER
 70
     0
  0
APPID
  5
1A3
330
9
100
AcDbSymbolTableRecord
100
AcDbRegAppTableRecord
  2
ACAD_NAV_VCDISPLAY
 70
     0
  0
ENDTAB
  0
TABLE
  2
DIMSTYLE
  5
A
330
0
100
AcDbSymbolTable
 70
     2
100
AcDbDimStyleTable
 71
     2
340
DC
340
27
  0
DIMSTYLE
105
27
330
A
100
AcDbSymbolTableRecord
100
AcDbDimStyleTableRecord
  2
Standard
 70
     0
340
11
  0
DIMSTYLE
105
DC
330
A
100
AcDbSymbolTableRecord
100
AcDbDimStyleTableRecord
  2
Annotativa
 70
     0
 40
0.0
340
11
1001
AcadAnnotative
1000
AnnotativeData
1002
{
1070
     1
1070
     1
1002
}
1001
ACAD_DSTYLE_DIMJAG
1070
   388
1040
1.5
1001
ACAD_DSTYLE_DIMTALN
1070
   392
1070
     0
  0
ENDTAB
  0
TABLE
  2
BLOCK_RECORD
  5
1
330
0
100
AcDbSymbolTable
 70
    21
  0
BLOCK_RECORD
  5
1F
102
{ACAD_XDICTIONARY
360
15A
102
}
330
1
100
AcDbSymbolTableRecord
100
AcDbBlockTableRecord
  2
*Model_Space
340
22
 70
     0
280
     1
281
     0
  0
BLOCK_RECORD
  5
73
330
1
100
AcDbSymbolTableRecord
100
AcDbBlockTableRecord
  2
*Paper_Space
340
74
 70
     0
280
     1
281
     0
  0
BLOCK_RECORD
  5
78
330
1
100
AcDbSymbolTableRecord
100
AcDbBlockTableRecord
  2
*Paper_Space0
340
79
 70
     0
280
     1
281
     0
  0
BLOCK_RECORD
  5
20C
330
1
100
AcDbSymbolTableRecord
100
AcDbBlockTableRecord
  2
block 72
340
0
102
{BLKREFS
102
}
 70
     0
280
     1
281
     0
  0
BLOCK_RECORD
  5
215
330
1
100
AcDbSymbolTableRecord
100
AcDbBlockTableRecord
  2
block 73
340
0
102
{BLKREFS
102
}
 70
     0
280
     1
281
     0
  0
BLOCK_RECORD
  5
21D
330
1
100
AcDbSymbolTableRecord
100
AcDbBlockTableRecord
  2
block 74
340
0
102
{BLKREFS
102
}
 70
     0
280
     1
281
     0
  0
BLOCK_RECORD
  5
225
330
1
100
AcDbSymbolTableRecord
100
AcDbBlockTableRecord
  2
block 75
340
0
102
{BLKREFS
102
}
 70
     0
280
     1
281
     0
  0
BLOCK_RECORD
  5
22C
330
1
100
AcDbSymbolTableRecord
100
AcDbBlockTableRecord
  2
block 76
340
0
102
{BLKREFS
102
}
 70
     0
280
     1
281
     0
  0
BLOCK_RECORD
  5
237
330
1
100
AcDbSymbolTableRecord
100
AcDbBlockTableRecord
  2
block 77
340
0
102
{BLKREFS
102
}
 70
     0
280
     1
281
     0
  0
BLOCK_RECORD
  5
241
330
1
100
AcDbSymbolTableRecord
100
AcDbBlockTableRecord
  2
block 78
340
0
102
{BLKREFS
102
}
 70
     0
280
     1
281
     0
  0
BLOCK_RECORD
  5
248
330
1
100
AcDbSymbolTableRecord
100
AcDbBlockTableRecord
  2
block 79
340
0
102
{BLKREFS
102
}
 70
     0
280
     1
281
     0
  0
BLOCK_RECORD
  5
24F
330
1
100
AcDbSymbolTableRecord
100
AcDbBlockTableRecord
  2
block 80
340
0
102
{BLKREFS
102
}
 70
     0
280
     1
281
     0
  0
BLOCK_RECORD
  5
256
330
1
100
AcDbSymbolTableRecord
100
AcDbBlockTableRecord
  2
block 81
340
0
102
{BLKREFS
102
}
 70
     0
280
     1
281
     0
  0
BLOCK_RECORD
  5
25D
330
1
100
AcDbSymbolTableRecord
100
AcDbBlockTableRecord
  2
block 82
340
0
102
{BLKREFS
102
}
 70
     0
280
     1
281
     0
  0
BLOCK_RECORD
  5
264
330
1
100
AcDbSymbolTableRecord
100
AcDbBlockTableRecord
  2
block 83
340
0
102
{BLKREFS
102
}
 70
     0
280
     1
281
     0
  0
BLOCK_RECORD
  5
268
330
1
100
AcDbSymbolTableRecord
100
AcDbBlockTableRecord
  2
block 84
340
0
102
{BLKREFS
102
}
 70
     0
280
     1
281
     0
  0
BLOCK_RECORD
  5
26C
330
1
100
AcDbSymbolTableRecord
100
AcDbBlockTableRecord
  2
block 85
340
0
102
{BLKREFS
102
}
 70
     0
280
     1
281
     0
  0
BLOCK_RECORD
  5
270
330
1
100
AcDbSymbolTableRecord
100
AcDbBlockTableRecord
  2
block 86
340
0
102
{BLKREFS
102
}
 70
     0
280
     1
281
     0
  0
BLOCK_RECORD
  5
274
330
1
100
AcDbSymbolTableRecord
100
AcDbBlockTableRecord
  2
block 87
340
0
102
{BLKREFS
102
}
 70
     0
280
     1
281
     0
  0
BLOCK_RECORD
  5
278
330
1
100
AcDbSymbolTableRecord
100
AcDbBlockTableRecord
  2
block 91
340
0
102
{BLKREFS
102
}
 70
     0
280
     1
281
     0
  0
BLOCK_RECORD
  5
28E
330
1
100
AcDbSymbolTableRecord
100
AcDbBlockTableRecord
  2
block 92
340
0
102
{BLKREFS
102
}
 70
     0
280
     1
281
     0
  0
BLOCK_RECORD
  5
2A5
330
1
100
AcDbSymbolTableRecord
100
AcDbBlockTableRecord
  2
block 93
340
0
102
{BLKREFS
102
}
 70
     0
280
     1
281
     0
  0
ENDTAB
  0
ENDSEC
  0
SECTION
  2
BLOCKS
  0
BLOCK
  5
20
330
1F
100
AcDbEntity
  8
0
100
AcDbBlockBegin
  2
*Model_Space
 70
     0
 10
0.0
 20
0.0
 30
0.0
  3
*Model_Space
  1

  0
ENDBLK
  5
21
330
1F
100
AcDbEntity
  8
0
100
AcDbBlockEnd
  0
BLOCK
  5
75
330
73
100
AcDbEntity
 67
     1
  8
0
100
AcDbBlockBegin
  2
*Paper_Space
 70
     0
 10
0.0
 20
0.0
 30
0.0
  3
*Paper_Space
  1

  0
ENDBLK
  5
76
330
73
100
AcDbEntity
 67
     1
  8
0
100
AcDbBlockEnd
  0
BLOCK
  5
7A
330
78
100
AcDbEntity
 67
     1
  8
0
100
AcDbBlockBegin
  2
*Paper_Space0
 70
     0
 10
0.0
 20
0.0
 30
0.0
  3
*Paper_Space0
  1

  0
ENDBLK
  5
7B
330
78
100
AcDbEntity
 67
     1
  8
0
100
AcDbBlockEnd
  0
BLOCK
  5
20D
330
20C
100
AcDbEntity
  8
0
100
AcDbBlockBegin
  2
block 72
 70
     0
 10
0.0
 20
0.0
 30
0.0
  3
block 72
  1

  0
POLYLINE
  5
20E
330
20C
100
AcDbEntity
  8
Livello 1
 62
   178
420
        1
370
    25
100
AcDb2dPolyline
 66
     1
 10
0.0
 20
0.0
 30
0.0
  0
VERTEX
  5
20F
330
20E
100
AcDbEntity
  8
Livello 1
 62
   178
420
        1
370
    25
100
AcDbVertex
100
AcDb2dVertex
 10
107.6384951795297
 20
-195.703144435339
 30
0.0
  0
VERTEX
  5
210
330
20E
100
AcDbEntity
  8
Livello 1
 62
   178
420
        1
370
    25
100
AcDbVertex
100
AcDb2dVertex
 10
104.689378865879
 20
-195.703144435339
 30
0.0
  0
VERTEX
  5
211
330
20E
100
AcDbEntity
  8
Livello 1
 62
   178
420
        1
370
    25
100
AcDbVertex
100
AcDb2dVertex
 10
104.689378865879
 20
-169.6879352751769
 30
0.0
  0
VERTEX
  5
212
330
20E
100
AcDbEntity
  8
Livello 1
 62
   178
420
        1
370
    25
100
AcDbVertex
100
AcDb2dVertex
 10
106.3184007687637
 20
-169.6879352751769
 30
0.0
  0
SEQEND
  5
213
330
20E
100
AcDbEntity
  8
Livello 1
 62
   178
420
        1
370
    25
  0
ENDBLK
  5
214
330
20C
100
AcDbEntity
  8
0
100
AcDbBlockEnd
  0
BLOCK
  5
216
330
215
100
AcDbEntity
  8
0
100
AcDbBlockBegin
  2
block 73
 70
     0
 10
0.0
 20
0.0
 30
0.0
  3
block 73
  1

  0
POLYLINE
  5
217
330
215
100
AcDbEntity
  8
Livello 1
 62
   178
420
        1
370
    25
100
AcDb2dPolyline
 66
     1
 10
0.0
 20
0.0
 30
0.0
  0
VERTEX
  5
218
330
217
100
AcDbEntity
  8
Livello 1
 62
   178
420
        1
370
    25
100
AcDbVertex
100
AcDb2dVertex
 10
127.4054802307878
 20
-190.1840772144966
 30
0.0
  0
VERTEX
  5
219
330
217
100
AcDbEntity
  8
Livello 1
 62
   178
420
        1
370
    25
100
AcDbVertex
100
AcDb2dVertex
 10
127.4054802307878
 20
-195.703144435339
 30
0.0
  0
VERTEX
  5
21A
330
217
100
AcDbEntity
  8
Livello 1
 62
   178
420
        1
370
    25
100
AcDbVertex
100
AcDb2dVertex
 10
123.1910959540488
 20
-195.703144435339
 30
0.0
  0
SEQEND
  5
21B
330
217
100
AcDbEntity
  8
Livello 1
 62
   178
420
        1
370
    25
  0
ENDBLK
  5
21C
330
215
100
AcDbEntity
  8
0
100
AcDbBlockEnd
  0
BLOCK
  5
21E
330
21D
100
AcDbEntity
  8
0
100
AcDbBlockBegin
  2
block 74
 70
     0
 10
0.0
 20
0.0
 30
0.0
  3
block 74
  1

  0
POLYLINE
  5
21F
330
21D
100
AcDbEntity
  8
Livello 1
 62
   178
420
        1
370
    25
100
AcDb2dPolyline
 66
     1
 10
0.0
 20
0.0
 30
0.0
  0
VERTEX
  5
220
330
21F
100
AcDbEntity
  8
Livello 1
 62
   178
420
        1
370
    25
100
AcDbVertex
100
AcDb2dVertex
 10
114.5465541699571
 20
-190.1245283256228
 30
0.0
  0
VERTEX
  5
221
330
21F
100
AcDbEntity
  8
Livello 1
 62
   178
420
        1
370
    25
100
AcDbVertex
100
AcDb2dVertex
 10
106.3184007687637
 20
-190.1245283256228
 30
0.0
  0
VERTEX
  5
222
330
21F
100
AcDbEntity
  8
Livello 1
 62
   178
420
        1
370
    25
100
AcDbVertex
100
AcDb2dVertex
 10
106.3184007687637
 20
-181.900678605457
 30
0.0
  0
SEQEND
  5
223
330
21F
100
AcDbEntity
  8
Livello 1
 62
   178
420
        1
370
    25
  0
ENDBLK
  5
224
330
21D
100
AcDbEntity
  8
0
100
AcDbBlockEnd
  0
BLOCK
  5
226
330
225
100
AcDbEntity
  8
0
100
AcDbBlockBegin
  2
block 75
 70
     0
 10
0.0
 20
0.0
 30
0.0
  3
block 75
  1

  0
POLYLINE
  5
227
330
225
100
AcDbEntity
  8
Livello 1
 62
   178
420
        1
370
    25
100
AcDb2dPolyline
 66
     1
 10
0.0
 20
0.0
 30
0.0
  0
VERTEX
  5
228
330
227
100
AcDbEntity
  8
Livello 1
 62
   178
420
        1
370
    25
100
AcDbVertex
100
AcDb2dVertex
 10
106.3184007687637
 20
-179.761081383769
 30
0.0
  0
VERTEX
  5
229
330
227
100
AcDbEntity
  8
Livello 1
 62
   178
420
        1
370
    25
100
AcDbVertex
100
AcDb2dVertex
 10
106.3184007687637
 20
-172.5058536078054
 30
0.0
  0
SEQEND
  5
22A
330
227
100
AcDbEntity
  8
Livello 1
 62
   178
420
        1
370
    25
  0
ENDBLK
  5
22B
330
225
100
AcDbEntity
  8
0
100
AcDbBlockEnd
  0
BLOCK
  5
22D
330
22C
100
AcDbEntity
  8
0
100
AcDbBlockBegin
  2
block 76
 70
     0
 10
0.0
 20
0.0
 30
0.0
  3
block 76
  1

  0
POLYLINE
  5
22E
330
22C
100
AcDbEntity
  8
Livello 1
 62
   178
420
        1
370
    25
100
AcDb2dPolyline
 66
     1
 10
0.0
 20
0.0
 30
0.0
  0
VERTEX
  5
22F
330
22E
100
AcDbEntity
  8
Livello 1
 62
   178
420
        1
370
    25
100
AcDbVertex
100
AcDb2dVertex
 10
108.5409007120629
 20
-194.5994791578375
 30
0.0
  0
VERTEX
  5
230
330
22E
100
AcDbEntity
  8
Livello 1
 62
   178
420
        1
370
    25
100
AcDbVertex
100
AcDb2dVertex
 10
106.3184007687637
 20
-194.5994791578375
 30
0.0
  0
VERTEX
  5
231
330
22E
100
AcDbEntity
  8
Livello 1
 62
   178
420
        1
370
    25
100
AcDbVertex
100
AcDb2dVertex
 10
106.3184007687637
 20
-191.8402630474159
 30
0.0
  0
VERTEX
  5
232
330
22E
100
AcDbEntity
  8
Livello 1
 62
   178
420
        1
370
    25
100
AcDbVertex
100
AcDb2dVertex
 10
124.2504876204508
 20
-191.8402630474159
 30
0.0
  0
VERTEX
  5
233
330
22E
100
AcDbEntity
  8
Livello 1
 62
   178
420
        1
370
    25
100
AcDbVertex
100
AcDb2dVertex
 10
124.2504876204508
 20
-194.5994791578375
 30
0.0
  0
VERTEX
  5
234
330
22E
100
AcDbEntity
  8
Livello 1
 62
   178
420
        1
370
    25
100
AcDbVertex
100
AcDb2dVertex
 10
122.4256339689453
 20
-194.5994791578375
 30
0.0
  0
SEQEND
  5
235
330
22E
100
AcDbEntity
  8
Livello 1
 62
   178
420
        1
370
    25
  0
ENDBLK
  5
236
330
22C
100
AcDbEntity
  8
0
100
AcDbBlockEnd
  0
BLOCK
  5
238
330
237
100
AcDbEntity
  8
0
100
AcDbBlockBegin
  2
block 77
 70
     0
 10
0.0
 20
0.0
 30
0.0
  3
block 77
  1

  0
POLYLINE
  5
239
330
237
100
AcDbEntity
  8
Livello 1
 62
   178
420
        1
370
    25
100
AcDb2dPolyline
 66
     1
 10
0.0
 20
0.0
 30
0.0
  0
VERTEX
  5
23A
330
239
100
AcDbEntity
  8
Livello 1
 62
   178
420
        1
370
    25
100
AcDbVertex
100
AcDb2dVertex
 10
106.3047129913351
 20
-190.1245283256228
 30
0.0
  0
VERTEX
  5
23B
330
239
100
AcDbEntity
  8
Livello 1
 62
   178
420
        1
370
    25
100
AcDbVertex
100
AcDb2dVertex
 10
106.3047129913351
 20
-181.886990827682
 30
0.0
  0
VERTEX
  5
23C
330
239
100
AcDbEntity
  8
Livello 1
 62
   178
420
        1
370
    25
100
AcDbVertex
100
AcDb2dVertex
 10
114.5465541699571
 20
-190.1245283256228
 30
0.0
  0
VERTEX
  5
23D
330
239
100
AcDbEntity
  8
Livello 1
 62
   178
420
        1
370
    25
100
AcDbVertex
100
AcDb2dVertex
 10
114.5465541699571
 20
-190.1245283256228
 30
0.0
  0
VERTEX
  5
23E
330
239
100
AcDbEntity
  8
Livello 1
 62
   178
420
        1
370
    25
100
AcDbVertex
100
AcDb2dVertex
 10
106.3047129913351
 20
-190.1245283256228
 30
0.0
  0
SEQEND
  5
23F
330
239
100
AcDbEntity
  8
Livello 1
 62
   178
420
        1
370
    25
  0
ENDBLK
  5
240
330
237
100
AcDbEntity
  8
0
100
AcDbBlockEnd
  0
BLOCK
  5
242
330
241
100
AcDbEntity
  8
0
100
AcDbBlockBegin
  2
block 78
 70
     0
 10
0.0
 20
0.0
 30
0.0
  3
block 78
  1

  0
POLYLINE
  5
243
330
241
100
AcDbEntity
  8
Livello 1
 62
   178
420
        1
370
    25
100
AcDb2dPolyline
 66
     1
 10
0.0
 20
0.0
 30
0.0
  0
VERTEX
  5
244
330
243
100
AcDbEntity
  8
Livello 1
 62
   178
420
        1
370
    25
100
AcDbVertex
100
AcDb2dVertex
 10
116.6872848445644
 20
-190.1245283256228
 30
0.0
  0
VERTEX
  5
245
330
243
100
AcDbEntity
  8
Livello 1
 62
   178
420
        1
370
    25
100
AcDbVertex
100
AcDb2dVertex
 10
125.77649360568
 20
-190.1245283256228
 30
0.0
  0
SEQEND
  5
246
330
243
100
AcDbEntity
  8
Livello 1
 62
   178
420
        1
370
    25
  0
ENDBLK
  5
247
330
241
100
AcDbEntity
  8
0
100
AcDbBlockEnd
  0
BLOCK
  5
249
330
248
100
AcDbEntity
  8
0
100
AcDbBlockBegin
  2
block 79
 70
     0
 10
0.0
 20
0.0
 30
0.0
  3
block 79
  1

  0
POLYLINE
  5
24A
330
248
100
AcDbEntity
  8
Livello 1
 62
   178
420
        1
370
    25
100
AcDb2dPolyline
 66
     1
 10
0.0
 20
0.0
 30
0.0
  0
VERTEX
  5
24B
330
24A
100
AcDbEntity
  8
Livello 1
 62
   178
420
        1
370
    25
100
AcDbVertex
100
AcDb2dVertex
 10
106.3184007687637
 20
-179.761081383769
 30
0.0
  0
VERTEX
  5
24C
330
24A
100
AcDbEntity
  8
Livello 1
 62
   178
420
        1
370
    25
100
AcDbVertex
100
AcDb2dVertex
 10
116.6872848445644
 20
-190.1245283256228
 30
0.0
  0
SEQEND
  5
24D
330
24A
100
AcDbEntity
  8
Livello 1
 62
   178
420
        1
370
    25
  0
ENDBLK
  5
24E
330
248
100
AcDbEntity
  8
0
100
AcDbBlockEnd
  0
BLOCK
  5
250
330
24F
100
AcDbEntity
  8
0
100
AcDbBlockBegin
  2
block 80
 70
     0
 10
0.0
 20
0.0
 30
0.0
  3
block 80
  1

  0
POLYLINE
  5
251
330
24F
100
AcDbEntity
  8
Livello 1
 62
   178
420
        1
370
    25
100
AcDb2dPolyline
 66
     1
 10
0.0
 20
0.0
 30
0.0
  0
VERTEX
  5
252
330
251
100
AcDbEntity
  8
Livello 1
 62
   178
420
        1
370
    25
100
AcDbVertex
100
AcDb2dVertex
 10
122.4256339689453
 20
-194.5994791578375
 30
0.0
  0
VERTEX
  5
253
330
251
100
AcDbEntity
  8
Livello 1
 62
   178
420
        1
370
    25
100
AcDbVertex
100
AcDb2dVertex
 10
123.1910959540488
 20
-195.703144435339
 30
0.0
  0
SEQEND
  5
254
330
251
100
AcDbEntity
  8
Livello 1
 62
   178
420
        1
370
    25
  0
ENDBLK
  5
255
330
24F
100
AcDbEntity
  8
0
100
AcDbBlockEnd
  0
BLOCK
  5
257
330
256
100
AcDbEntity
  8
0
100
AcDbBlockBegin
  2
block 81
 70
     0
 10
0.0
 20
0.0
 30
0.0
  3
block 81
  1

  0
POLYLINE
  5
258
330
256
100
AcDbEntity
  8
Livello 1
 62
   178
420
        1
370
    25
100
AcDb2dPolyline
 66
     1
 10
0.0
 20
0.0
 30
0.0
  0
VERTEX
  5
259
330
258
100
AcDbEntity
  8
Livello 1
 62
   178
420
        1
370
    25
100
AcDbVertex
100
AcDb2dVertex
 10
104.689378865879
 20
-195.703144435339
 30
0.0
  0
VERTEX
  5
25A
330
258
100
AcDbEntity
  8
Livello 1
 62
   178
420
        1
370
    25
100
AcDbVertex
100
AcDb2dVertex
 10
107.6384951795297
 20
-195.703144435339
 30
0.0
  0
SEQEND
  5
25B
330
258
100
AcDbEntity
  8
Livello 1
 62
   178
420
        1
370
    25
  0
ENDBLK
  5
25C
330
256
100
AcDbEntity
  8
0
100
AcDbBlockEnd
  0
BLOCK
  5
25E
330
25D
100
AcDbEntity
  8
0
100
AcDbBlockBegin
  2
block 82
 70
     0
 10
0.0
 20
0.0
 30
0.0
  3
block 82
  1

  0
POLYLINE
  5
25F
330
25D
100
AcDbEntity
  8
Livello 1
 62
   178
420
        1
370
    25
100
AcDb2dPolyline
 66
     1
 10
0.0
 20
0.0
 30
0.0
  0
VERTEX
  5
260
330
25F
100
AcDbEntity
  8
Livello 1
 62
   178
420
        1
370
    25
100
AcDbVertex
100
AcDb2dVertex
 10
108.5409007120629
 20
-194.5994791578375
 30
0.0
  0
VERTEX
  5
261
330
25F
100
AcDbEntity
  8
Livello 1
 62
   178
420
        1
370
    25
100
AcDbVertex
100
AcDb2dVertex
 10
107.6384951795297
 20
-195.703144435339
 30
0.0
  0
SEQEND
  5
262
330
25F
100
AcDbEntity
  8
Livello 1
 62
   178
420
        1
370
    25
  0
ENDBLK
  5
263
330
25D
100
AcDbEntity
  8
0
100
AcDbBlockEnd
  0
BLOCK
  5
265
330
264
100
AcDbEntity
  8
0
100
AcDbBlockBegin
  2
block 83
 70
     0
 10
0.0
 20
0.0
 30
0.0
  3
block 83
  1

  0
SPLINE
  5
266
330
264
100
AcDbEntity
  8
Livello 1
 62
   178
420
        1
370
    25
100
AcDbSpline
210
0.0
220
0.0
230
1.0
 70
     8
 71
     3
 72
    17
 73
    13
 74
     0
 42
0.000000001
 43
0.0000000001
 40
0.0
 40
0.0
 40
0.0
 40
0.0
 40
1.0
 40
1.0
 40
1.0
 40
2.0
 40
2.0
 40
2.0
 40
3.0
 40
3.0
 40
3.0
 40
4.0
 40
4.0
 40
4.0
 40
4.0
 10
106.3184007687637
 20
-171.3169219414355
 30
0.0
 10
106.2674596589521
 20
-171.3247888858782
 30
0.0
 10
106.2156013269418
 20
-171.3247888858782
 30
0.0
 10
106.1646602171303
 20
-171.3169219414355
 30
0.0
 10
105.8890702241612
 20
-171.27448277478
 30
0.0
 10
105.700087173427
 20
-171.016672774844
 30
0.0
 10
105.742526339011
 20
-170.7410827749137
 30
0.0
 10
105.7849655045949
 20
-170.4654927749821
 30
0.0
 10
106.0428107757945
 20
-170.2764744416956
 30
0.0
 10
106.3184007687637
 20
-170.31894888613
 30
0.0
 10
106.3184007687637
 20
-170.31894888613
 30
0.0
 10
106.3184007687637
 20
-169.6879352751769
 30
0.0
 10
106.3184007687637
 20
-169.6879352751769
 30
0.0
  0
ENDBLK
  5
267
330
264
100
AcDbEntity
  8
0
100
AcDbBlockEnd
  0
BLOCK
  5
269
330
268
100
AcDbEntity
  8
0
100
AcDbBlockBegin
  2
block 84
 70
     0
 10
0.0
 20
0.0
 30
0.0
  3
block 84
  1

  0
SPLINE
  5
26A
330
268
100
AcDbEntity
  8
Livello 1
 62
   178
420
        1
370
    25
100
AcDbSpline
210
0.0
220
0.0
230
1.0
 70
     8
 71
     3
 72
    14
 73
    10
 74
     0
 42
0.000000001
 43
0.0000000001
 40
0.0
 40
0.0
 40
0.0
 40
0.0
 40
1.0
 40
1.0
 40
1.0
 40
2.0
 40
2.0
 40
2.0
 40
3.0
 40
3.0
 40
3.0
 40
3.0
 10
106.3184007687637
 20
-172.5058536078054
 30
0.0
 10
106.641545204964
 20
-172.5407433300192
 30
0.0
 10
106.9317754753374
 20
-172.3070986078554
 30
0.0
 10
106.9666651966695
 20
-171.9839541634914
 30
0.0
 10
107.0015549180016
 20
-171.6608097191273
 30
0.0
 10
106.7678792914882
 20
-171.370544163645
 30
0.0
 10
106.4447348471248
 20
-171.3356544414312
 30
0.0
 10
106.4027542915796
 20
-171.3311388858766
 30
0.0
 10
106.3603813232482
 20
-171.3311388858766
 30
0.0
 10
106.3184007687637
 20
-171.3356544414312
 30
0.0
  0
ENDBLK
  5
26B
330
268
100
AcDbEntity
  8
0
100
AcDbBlockEnd
  0
BLOCK
  5
26D
330
26C
100
AcDbEntity
  8
0
100
AcDbBlockBegin
  2
block 85
 70
     0
 10
0.0
 20
0.0
 30
0.0
  3
block 85
  1

  0
SPLINE
  5
26E
330
26C
100
AcDbEntity
  8
Livello 1
 62
   178
420
        1
370
    25
100
AcDbSpline
210
0.0
220
0.0
230
1.0
 70
     8
 71
     3
 72
    20
 73
    16
 74
     0
 42
0.000000001
 43
0.0000000001
 40
0.0
 40
0.0
 40
0.0
 40
0.0
 40
1.0
 40
1.0
 40
1.0
 40
2.0
 40
2.0
 40
2.0
 40
3.0
 40
3.0
 40
3.0
 40
4.0
 40
4.0
 40
4.0
 40
5.0
 40
5.0
 40
5.0
 40
5.0
 10
124.9728658484045
 20
-190.1245283256228
 30
0.0
 10
124.9728658484045
 20
-190.1245283256228
 30
0.0
 10
124.9728658484045
 20
-191.3789355475315
 30
0.0
 10
124.9728658484045
 20
-191.3789355475315
 30
0.0
 10
124.9728658484045
 20
-191.7144977696703
 30
0.0
 10
125.2448575081321
 20
-191.9864894362685
 30
0.0
 10
125.5804197217934
 20
-191.9864894362685
 30
0.0
 10
125.9159515089238
 20
-191.9864894362685
 30
0.0
 10
126.1879735951823
 20
-191.7144977696703
 30
0.0
 10
126.1879735951823
 20
-191.3789355475315
 30
0.0
 10
126.1879735951823
 20
-191.3789355475315
 30
0.0
 10
126.1879735951823
 20
-190.1840772144966
 30
0.0
 10
126.1879735951823
 20
-190.1840772144966
 30
0.0
 10
126.1879735951823
 20
-190.1840772144966
 30
0.0
 10
127.4054802307878
 20
-190.1840772144966
 30
0.0
 10
127.4054802307878
 20
-190.1840772144966
 30
0.0
  0
ENDBLK
  5
26F
330
26C
100
AcDbEntity
  8
0
100
AcDbBlockEnd
  0
BLOCK
  5
271
330
270
100
AcDbEntity
  8
0
100
AcDbBlockBegin
  2
block 86
 70
     0
 10
0.0
 20
0.0
 30
0.0
  3
block 86
  1

  0
SPLINE
  5
272
330
270
100
AcDbEntity
  8
Livello 1
 62
   178
420
        1
370
    25
100
AcDbSpline
210
0.0
220
0.0
230
1.0
 70
     8
 71
     3
 72
     8
 73
     4
 74
     0
 42
0.000000001
 43
0.0000000001
 40
0.0
 40
0.0
 40
0.0
 40
0.0
 40
1.0
 40
1.0
 40
1.0
 40
1.0
 10
106.2543716037305
 20
-171.3143466636593
 30
0.0
 10
116.3537994016282
 20
-172.2607788856444
 30
0.0
 10
124.4556936393764
 20
-180.0671866614704
 30
0.0
 10
125.77649360568
 20
-190.1245283256228
 30
0.0
  0
ENDBLK
  5
273
330
270
100
AcDbEntity
  8
0
100
AcDbBlockEnd
  0
BLOCK
  5
275
330
274
100
AcDbEntity
  8
0
100
AcDbBlockBegin
  2
block 87
 70
     0
 10
0.0
 20
0.0
 30
0.0
  3
block 87
  1

  0
SPLINE
  5
276
330
274
100
AcDbEntity
  8
Livello 1
 62
   178
420
        1
370
    25
100
AcDbSpline
210
0.0
220
0.0
230
1.0
 70
     8
 71
     3
 72
     8
 73
     4
 74
     0
 42
0.000000001
 43
0.0000000001
 40
0.0
 40
0.0
 40
0.0
 40
0.0
 40
1.0
 40
1.0
 40
1.0
 40
1.0
 10
106.406030766528
 20
-169.6961549973967
 30
0.0
 10
117.3623910425639
 20
-170.7168116638084
 30
0.0
 10
126.1149838748222
 20
-179.2562211061181
 30
0.0
 10
127.4054802307878
 20
-190.1840772144966
 30
0.0
  0
ENDBLK
  5
277
330
274
100
AcDbEntity
  8
0
100
AcDbBlockEnd
  0
BLOCK
  5
279
330
278
100
AcDbEntity
  8
0
100
AcDbBlockBegin
  2
block 91
 70
     0
 10
0.0
 20
0.0
 30
0.0
  3
block 91
  1

  0
POLYLINE
  5
27A
330
278
100
AcDbEntity
  8
Livello 1
370
     0
100
AcDb2dPolyline
 66
     1
 10
0.0
 20
0.0
 30
0.0
  0
VERTEX
  5
27B
330
27A
100
AcDbEntity
  8
Livello 1
370
     0
100
AcDbVertex
100
AcDb2dVertex
 10
125.3427367850706
 20
-166.05877003227
 30
0.0
  0
VERTEX
  5
27C
330
27A
100
AcDbEntity
  8
Livello 1
370
     0
100
AcDbVertex
100
AcDb2dVertex
 10
125.3336072820347
 20
-166.0498127840084
 30
0.0
  0
VERTEX
  5
27D
330
27A
100
AcDbEntity
  8
Livello 1
370
     0
100
AcDbVertex
100
AcDb2dVertex
 10
124.55225962598
 20
-165.8162353101085
 30
0.0
  0
VERTEX
  5
27E
330
27A
100
AcDbEntity
  8
Livello 1
370
     0
100
AcDbVertex
100
AcDb2dVertex
 10
124.7770521063925
 20
-165.4389973544736
 30
0.0
  0
VERTEX
  5
27F
330
27A
100
AcDbEntity
  8
Livello 1
370
     0
100
AcDbVertex
100
AcDb2dVertex
 10
125.7561482433006
 20
-165.7356200757536
 30
0.0
  0
VERTEX
  5
280
330
27A
100
AcDbEntity
  8
Livello 1
370
     0
100
AcDbVertex
100
AcDb2dVertex
 10
126.0927340722095
 20
-166.072550414211
 30
0.0
  0
VERTEX
  5
281
330
27A
100
AcDbEntity
  8
Livello 1
370
     0
100
AcDbVertex
100
AcDb2dVertex
 10
123.1724988841374
 20
-168.9912353093147
 30
0.0
  0
VERTEX
  5
282
330
27A
100
AcDbEntity
  8
Livello 1
370
     0
100
AcDbVertex
100
AcDb2dVertex
 10
122.790954559146
 20
-168.609518729549
 30
0.0
  0
VERTEX
  5
283
330
27A
100
AcDbEntity
  8
Livello 1
370
     0
100
AcDbVertex
100
AcDb2dVertex
 10
125.3427367850706
 20
-166.05877003227
 30
0.0
  0
SEQEND
  5
284
330
27A
100
AcDbEntity
  8
Livello 1
370
     0
  0
HATCH
  5
285
330
278
100
AcDbEntity
  8
Livello 1
 62
   250
420
  1842203
100
AcDbHatch
 10
0.0
 20
0.0
 30
0.0
210
0.0
220
0.0
230
1.0
  2
SOLID
 70
     1
 71
     0
 91
        1
 92
        1
 93
        8
 72
     1
 10
125.3427367850706
 20
-166.05877003227
 11
125.3336072820347
 21
-166.0498127840084
 72
     1
 10
125.3336072820347
 20
-166.0498127840084
 11
124.55225962598
 21
-165.8162353101085
 72
     1
 10
124.55225962598
 20
-165.8162353101085
 11
124.7770521063925
 21
-165.4389973544736
 72
     1
 10
124.7770521063925
 20
-165.4389973544736
 11
125.7561482433006
 21
-165.7356200757536
 72
     1
 10
125.7561482433006
 20
-165.7356200757536
 11
126.0927340722095
 21
-166.072550414211
 72
     1
 10
126.0927340722095
 20
-166.072550414211
 11
123.1724988841374
 21
-168.9912353093147
 72
     1
 10
123.1724988841374
 20
-168.9912353093147
 11
122.790954559146
 21
-168.609518729549
 72
     1
 10
122.790954559146
 20
-168.609518729549
 11
125.3427367850706
 21
-166.05877003227
 97
        0
 75
     2
 76
     1
 98
        0
450
        0
451
        0
460
0.0
461
0.0
452
        0
462
0.0
453
        0
470

  0
SPLINE
  5
286
330
278
100
AcDbEntity
  8
Livello 1
370
     0
100
AcDbSpline
210
0.0
220
0.0
230
1.0
 70
     9
 71
     3
 72
    17
 73
    13
 74
     0
 42
0.000000001
 43
0.0000000001
 40
0.0
 40
0.0
 40
0.0
 40
0.0
 40
1.0
 40
1.0
 40
1.0
 40
2.0
 40
2.0
 40
2.0
 40
3.0
 40
3.0
 40
3.0
 40
4.0
 40
4.0
 40
4.0
 40
4.0
 10
127.6674872185172
 20
-170.5050102655335
 30
0.0
 10
126.6746106996682
 20
-171.4978867843825
 30
0.0
 10
125.7582153005917
 20
-171.6770317496155
 30
0.0
 10
125.1115708780103
 20
-171.0300428174856
 30
0.0
 10
124.5412353204272
 20
-170.4595350051282
 30
0.0
 10
124.6898911906157
 20
-169.5390054914694
 30
0.0
 10
125.6467664616439
 20
-168.5643879786923
 30
0.0
 10
126.6260348533261
 20
-167.5856363513328
 30
0.0
 10
127.5872164937108
 20
-167.4691921239313
 30
0.0
 10
128.1799451719481
 20
-168.0620930569428
 30
0.0
 10
128.7952392256137
 20
-168.677731620157
 30
0.0
 10
128.5974907447604
 20
-169.5755235036131
 30
0.0
 10
127.6674872185172
 20
-170.5050102655335
 30
0.0
  0
SPLINE
  5
287
330
278
100
AcDbEntity
  8
Livello 1
370
     0
100
AcDbSpline
210
0.0
220
0.0
230
1.0
 70
     9
 71
     3
 72
    17
 73
    13
 74
     0
 42
0.000000001
 43
0.0000000001
 40
0.0
 40
0.0
 40
0.0
 40
0.0
 40
1.0
 40
1.0
 40
1.0
 40
2.0
 40
2.0
 40
2.0
 40
3.0
 40
3.0
 40
3.0
 40
4.0
 40
4.0
 40
4.0
 40
4.0
 10
126.0372680348969
 20
-168.9643635645297
 30
0.0
 10
125.2779689899479
 20
-169.7229735903818
 30
0.0
 10
125.0802205090945
 20
-170.387877019035
 30
0.0
 10
125.4393717134318
 20
-170.7472004781465
 30
0.0
 10
125.8434814138516
 20
-171.1513101785663
 30
0.0
 10
126.5083848425049
 20
-170.8729464633581
 30
0.0
 10
127.2540757602872
 20
-170.1277723098985
 30
0.0
 10
127.9728949332846
 20
-169.409469901224
 30
0.0
 10
128.2605604063029
 20
-168.7535237208324
 30
0.0
 10
127.8519720817523
 20
-168.3449353962818
 30
0.0
 10
127.5064290045817
 20
-167.9990478095627
 30
0.0
 10
126.8323960728926
 20
-168.1692355265341
 30
0.0
 10
126.0372680348969
 20
-168.9643635645297
 30
0.0
  0
HATCH
  5
288
330
278
100
AcDbEntity
  8
Livello 1
 62
   250
420
  1842203
100
AcDbHatch
 10
0.0
 20
0.0
 30
0.0
210
0.0
220
0.0
230
1.0
  2
SOLID
 70
     1
 71
     0
 91
        2
 92
        1
 93
        1
 72
     4
 94
        3
 73
     0
 74
     0
 95
       17
 96
       13
 40
0.0
 40
0.0
 40
0.0
 40
0.0
 40
1.0
 40
1.0
 40
1.0
 40
2.0
 40
2.0
 40
2.0
 40
3.0
 40
3.0
 40
3.0
 40
4.0
 40
4.0
 40
4.0
 40
4.0
 10
127.6674872185172
 20
-170.5050102655335
 10
126.6746106996682
 20
-171.4978867843825
 10
125.7582153005917
 20
-171.6770317496155
 10
125.1115708780103
 20
-171.0300428174856
 10
124.5412353204272
 20
-170.4595350051282
 10
124.6898911906157
 20
-169.5390054914694
 10
125.6467664616439
 20
-168.5643879786923
 10
126.6260348533261
 20
-167.5856363513328
 10
127.5872164937108
 20
-167.4691921239313
 10
128.1799451719481
 20
-168.0620930569428
 10
128.7952392256137
 20
-168.677731620157
 10
128.5974907447604
 20
-169.5755235036131
 10
127.6674872185172
 20
-170.5050102655335
 97
        0
 97
        0
 92
        1
 93
        1
 72
     4
 94
        3
 73
     0
 74
     0
 95
       17
 96
       13
 40
0.0
 40
0.0
 40
0.0
 40
0.0
 40
1.0
 40
1.0
 40
1.0
 40
2.0
 40
2.0
 40
2.0
 40
3.0
 40
3.0
 40
3.0
 40
4.0
 40
4.0
 40
4.0
 40
4.0
 10
126.0372680348969
 20
-168.9643635645297
 10
125.2779689899479
 20
-169.7229735903818
 10
125.0802205090945
 20
-170.387877019035
 10
125.4393717134318
 20
-170.7472004781465
 10
125.8434814138516
 20
-171.1513101785663
 10
126.5083848425049
 20
-170.8729464633581
 10
127.2540757602872
 20
-170.1277723098985
 10
127.9728949332846
 20
-169.409469901224
 10
128.2605604063029
 20
-168.7535237208324
 10
127.8519720817523
 20
-168.3449353962818
 10
127.5064290045817
 20
-167.9990478095627
 10
126.8323960728926
 20
-168.1692355265341
 10
126.0372680348969
 20
-168.9643635645297
 97
        0
 97
        0
 75
     2
 76
     1
 98
        0
450
        0
451
        0
460
0.0
461
0.0
452
        0
462
0.0
453
        0
470

  0
SPLINE
  5
289
330
278
100
AcDbEntity
  8
Livello 1
370
     0
100
AcDbSpline
210
0.0
220
0.0
230
1.0
 70
     9
 71
     3
 72
    80
 73
    76
 74
     0
 42
0.000000001
 43
0.0000000001
 40
0.0
 40
0.0
 40
0.0
 40
0.0
 40
1.0
 40
1.0
 40
1.0
 40
2.0
 40
2.0
 40
2.0
 40
3.0
 40
3.0
 40
3.0
 40
4.0
 40
4.0
 40
4.0
 40
5.0
 40
5.0
 40
5.0
 40
6.0
 40
6.0
 40
6.0
 40
7.0
 40
7.0
 40
7.0
 40
8.0
 40
8.0
 40
8.0
 40
9.0
 40
9.0
 40
9.0
 40
10.0
 40
10.0
 40
10.0
 40
11.0
 40
11.0
 40
11.0
 40
12.0
 40
12.0
 40
12.0
 40
13.0
 40
13.0
 40
13.0
 40
14.0
 40
14.0
 40
14.0
 40
15.0
 40
15.0
 40
15.0
 40
16.0
 40
16.0
 40
16.0
 40
17.0
 40
17.0
 40
17.0
 40
18.0
 40
18.0
 40
18.0
 40
19.0
 40
19.0
 40
19.0
 40
20.0
 40
20.0
 40
20.0
 40
21.0
 40
21.0
 40
21.0
 40
22.0
 40
22.0
 40
22.0
 40
23.0
 40
23.0
 40
23.0
 40
24.0
 40
24.0
 40
24.0
 40
25.0
 40
25.0
 40
25.0
 40
25.0
 10
129.2021050024217
 20
-171.8520426002662
 30
0.0
 10
129.4268974828342
 20
-171.6274223746279
 30
0.0
 10
129.60655921239
 20
-171.4386311420362
 30
0.0
 10
129.772612814779
 20
-171.2457057948622
 30
0.0
 10
129.772612814779
 20
-171.2457057948622
 30
0.0
 10
130.1185004014982
 20
-171.5915933815813
 30
0.0
 10
130.1185004014982
 20
-171.5915933815813
 30
0.0
 10
130.1185004014982
 20
-171.5915933815813
 30
0.0
 10
129.7858764323973
 20
-171.960218598503
 30
0.0
 10
129.7858764323973
 20
-171.960218598503
 30
0.0
 10
129.7858764323973
 20
-171.960218598503
 30
0.0
 10
129.7993123047898
 20
-171.973309961347
 30
0.0
 10
129.7993123047898
 20
-171.973309961347
 30
0.0
 10
130.1272853949855
 20
-171.8885606124098
 30
0.0
 10
130.5224378471437
 20
-171.8968288415744
 30
0.0
 10
130.8817613062553
 20
-172.2564968102345
 30
0.0
 10
131.1780395179867
 20
-172.552775021966
 30
0.0
 10
131.222825759295
 20
-172.9572292319343
 30
0.0
 10
131.0610785262625
 20
-173.3075954427842
 30
0.0
 10
131.0610785262625
 20
-173.3075954427842
 30
0.0
 10
131.0700357745242
 20
-173.3165526910459
 30
0.0
 10
131.0700357745242
 20
-173.3165526910459
 30
0.0
 10
131.2588270071159
 20
-173.262809201476
 30
0.0
 10
131.4384887366716
 20
-173.2538519532143
 30
0.0
 10
131.5957573455733
 20
-173.2762450738684
 30
0.0
 10
131.8248561953424
 20
-173.3079399523326
 30
0.0
 10
132.0224324214215
 20
-173.3978569444978
 30
0.0
 10
132.2289658957622
 20
-173.6042181640641
 30
0.0
 10
132.5162868592321
 20
-173.8918836370826
 30
0.0
 10
132.7539984477143
 20
-174.5071776907481
 30
0.0
 10
131.9993502816703
 20
-175.2616536020179
 30
0.0
 10
131.9993502816703
 20
-175.2616536020179
 30
0.0
 10
130.7189805445772
 20
-176.5415065747881
 30
0.0
 10
130.7189805445772
 20
-176.5415065747881
 30
0.0
 10
130.7189805445772
 20
-176.5415065747881
 30
0.0
 10
130.332957595455
 20
-176.1549668613431
 30
0.0
 10
130.332957595455
 20
-176.1549668613431
 30
0.0
 10
130.332957595455
 20
-176.1549668613431
 30
0.0
 10
131.5638902123347
 20
-174.9247232635604
 30
0.0
 10
131.5638902123347
 20
-174.9247232635604
 30
0.0
 10
131.9816080399213
 20
-174.5071776907481
 30
0.0
 10
132.0806545351222
 20
-174.1030679903284
 30
0.0
 10
131.7618109479623
 20
-173.7840521483943
 30
0.0
 10
131.5371907223241
 20
-173.559431922756
 30
0.0
 10
131.1959540145101
 20
-173.5504746744943
 30
0.0
 10
130.9351602862766
 20
-173.6758761501574
 30
0.0
 10
130.8635023001834
 20
-173.711705143204
 30
0.0
 10
130.7780639321493
 20
-173.7702717664533
 30
0.0
 10
130.7062336912818
 20
-173.8419297525465
 30
0.0
 10
130.7062336912818
 20
-173.8419297525465
 30
0.0
 10
129.3629909615829
 20
-175.1848279726969
 30
0.0
 10
129.3629909615829
 20
-175.1848279726969
 30
0.0
 10
129.3629909615829
 20
-175.1848279726969
 30
0.0
 10
128.9766235029121
 20
-174.7982882592518
 30
0.0
 10
128.9766235029121
 20
-174.7982882592518
 30
0.0
 10
128.9766235029121
 20
-174.7982882592518
 30
0.0
 10
130.2793863606593
 20
-173.4960421658274
 30
0.0
 10
130.2793863606593
 20
-173.4960421658274
 30
0.0
 10
130.6252739473784
 20
-173.1501545791083
 30
0.0
 10
130.7244926973536
 20
-172.746389388237
 30
0.0
 10
130.423563606717
 20
-172.4452880428262
 30
0.0
 10
130.1765502604246
 20
-172.1979301869851
 30
0.0
 10
129.799484559564
 20
-172.2158446835085
 30
0.0
 10
129.5388630861049
 20
-172.3508924265304
 30
0.0
 10
129.4579033422015
 20
-172.3863769100284
 30
0.0
 10
129.3817667319775
 20
-172.4449435332777
 30
0.0
 10
129.3142428604666
 20
-172.51212289524
 30
0.0
 10
129.3142428604666
 20
-172.51212289524
 30
0.0
 10
128.0025227544577
 20
-173.8233262369261
 30
0.0
 10
128.0025227544577
 20
-173.8233262369261
 30
0.0
 10
128.0025227544577
 20
-173.8233262369261
 30
0.0
 10
127.6163275505612
 20
-173.4371310330296
 30
0.0
 10
127.6163275505612
 20
-173.4371310330296
 30
0.0
 10
127.6163275505612
 20
-173.4371310330296
 30
0.0
 10
129.2021050024217
 20
-171.8520426002662
 30
0.0
 10
129.2021050024217
 20
-171.8520426002662
 30
0.0
  0
HATCH
  5
28A
330
278
100
AcDbEntity
  8
Livello 1
 62
   250
420
  1842203
100
AcDbHatch
 10
0.0
 20
0.0
 30
0.0
210
0.0
220
0.0
230
1.0
  2
SOLID
 70
     1
 71
     0
 91
        1
 92
        1
 93
        1
 72
     4
 94
        3
 73
     0
 74
     0
 95
       80
 96
       76
 40
0.0
 40
0.0
 40
0.0
 40
0.0
 40
1.0
 40
1.0
 40
1.0
 40
2.0
 40
2.0
 40
2.0
 40
3.0
 40
3.0
 40
3.0
 40
4.0
 40
4.0
 40
4.0
 40
5.0
 40
5.0
 40
5.0
 40
6.0
 40
6.0
 40
6.0
 40
7.0
 40
7.0
 40
7.0
 40
8.0
 40
8.0
 40
8.0
 40
9.0
 40
9.0
 40
9.0
 40
10.0
 40
10.0
 40
10.0
 40
11.0
 40
11.0
 40
11.0
 40
12.0
 40
12.0
 40
12.0
 40
13.0
 40
13.0
 40
13.0
 40
14.0
 40
14.0
 40
14.0
 40
15.0
 40
15.0
 40
15.0
 40
16.0
 40
16.0
 40
16.0
 40
17.0
 40
17.0
 40
17.0
 40
18.0
 40
18.0
 40
18.0
 40
19.0
 40
19.0
 40
19.0
 40
20.0
 40
20.0
 40
20.0
 40
21.0
 40
21.0
 40
21.0
 40
22.0
 40
22.0
 40
22.0
 40
23.0
 40
23.0
 40
23.0
 40
24.0
 40
24.0
 40
24.0
 40
25.0
 40
25.0
 40
25.0
 40
25.0
 10
129.2021050024217
 20
-171.8520426002662
 10
129.4268974828342
 20
-171.6274223746279
 10
129.60655921239
 20
-171.4386311420362
 10
129.772612814779
 20
-171.2457057948622
 10
129.772612814779
 20
-171.2457057948622
 10
130.1185004014982
 20
-171.5915933815813
 10
130.1185004014982
 20
-171.5915933815813
 10
130.1185004014982
 20
-171.5915933815813
 10
129.7858764323973
 20
-171.960218598503
 10
129.7858764323973
 20
-171.960218598503
 10
129.7858764323973
 20
-171.960218598503
 10
129.7993123047898
 20
-171.973309961347
 10
129.7993123047898
 20
-171.973309961347
 10
130.1272853949855
 20
-171.8885606124098
 10
130.5224378471437
 20
-171.8968288415744
 10
130.8817613062553
 20
-172.2564968102345
 10
131.1780395179867
 20
-172.552775021966
 10
131.222825759295
 20
-172.9572292319343
 10
131.0610785262625
 20
-173.3075954427842
 10
131.0610785262625
 20
-173.3075954427842
 10
131.0700357745242
 20
-173.3165526910459
 10
131.0700357745242
 20
-173.3165526910459
 10
131.2588270071159
 20
-173.262809201476
 10
131.4384887366716
 20
-173.2538519532143
 10
131.5957573455733
 20
-173.2762450738684
 10
131.8248561953424
 20
-173.3079399523326
 10
132.0224324214215
 20
-173.3978569444978
 10
132.2289658957622
 20
-173.6042181640641
 10
132.5162868592321
 20
-173.8918836370826
 10
132.7539984477143
 20
-174.5071776907481
 10
131.9993502816703
 20
-175.2616536020179
 10
131.9993502816703
 20
-175.2616536020179
 10
130.7189805445772
 20
-176.5415065747881
 10
130.7189805445772
 20
-176.5415065747881
 10
130.7189805445772
 20
-176.5415065747881
 10
130.332957595455
 20
-176.1549668613431
 10
130.332957595455
 20
-176.1549668613431
 10
130.332957595455
 20
-176.1549668613431
 10
131.5638902123347
 20
-174.9247232635604
 10
131.5638902123347
 20
-174.9247232635604
 10
131.9816080399213
 20
-174.5071776907481
 10
132.0806545351222
 20
-174.1030679903284
 10
131.7618109479623
 20
-173.7840521483943
 10
131.5371907223241
 20
-173.559431922756
 10
131.1959540145101
 20
-173.5504746744943
 10
130.9351602862766
 20
-173.6758761501574
 10
130.8635023001834
 20
-173.711705143204
 10
130.7780639321493
 20
-173.7702717664533
 10
130.7062336912818
 20
-173.8419297525465
 10
130.7062336912818
 20
-173.8419297525465
 10
129.3629909615829
 20
-175.1848279726969
 10
129.3629909615829
 20
-175.1848279726969
 10
129.3629909615829
 20
-175.1848279726969
 10
128.9766235029121
 20
-174.7982882592518
 10
128.9766235029121
 20
-174.7982882592518
 10
128.9766235029121
 20
-174.7982882592518
 10
130.2793863606593
 20
-173.4960421658274
 10
130.2793863606593
 20
-173.4960421658274
 10
130.6252739473784
 20
-173.1501545791083
 10
130.7244926973536
 20
-172.746389388237
 10
130.423563606717
 20
-172.4452880428262
 10
130.1765502604246
 20
-172.1979301869851
 10
129.799484559564
 20
-172.2158446835085
 10
129.5388630861049
 20
-172.3508924265304
 10
129.4579033422015
 20
-172.3863769100284
 10
129.3817667319775
 20
-172.4449435332777
 10
129.3142428604666
 20
-172.51212289524
 10
129.3142428604666
 20
-172.51212289524
 10
128.0025227544577
 20
-173.8233262369261
 10
128.0025227544577
 20
-173.8233262369261
 10
128.0025227544577
 20
-173.8233262369261
 10
127.6163275505612
 20
-173.4371310330296
 10
127.6163275505612
 20
-173.4371310330296
 10
127.6163275505612
 20
-173.4371310330296
 10
129.2021050024217
 20
-171.8520426002662
 10
129.2021050024217
 20
-171.8520426002662
 97
        0
 97
        0
 75
     2
 76
     1
 98
        0
450
        0
451
        0
460
0.0
461
0.0
452
        0
462
0.0
453
        0
470

  0
SPLINE
  5
28B
330
278
100
AcDbEntity
  8
Livello 1
370
     0
100
AcDbSpline
210
0.0
220
0.0
230
1.0
 70
     9
 71
     3
 72
    80
 73
    76
 74
     0
 42
0.000000001
 43
0.0000000001
 40
0.0
 40
0.0
 40
0.0
 40
0.0
 40
1.0
 40
1.0
 40
1.0
 40
2.0
 40
2.0
 40
2.0
 40
3.0
 40
3.0
 40
3.0
 40
4.0
 40
4.0
 40
4.0
 40
5.0
 40
5.0
 40
5.0
 40
6.0
 40
6.0
 40
6.0
 40
7.0
 40
7.0
 40
7.0
 40
8.0
 40
8.0
 40
8.0
 40
9.0
 40
9.0
 40
9.0
 40
10.0
 40
10.0
 40
10.0
 40
11.0
 40
11.0
 40
11.0
 40
12.0
 40
12.0
 40
12.0
 40
13.0
 40
13.0
 40
13.0
 40
14.0
 40
14.0
 40
14.0
 40
15.0
 40
15.0
 40
15.0
 40
16.0
 40
16.0
 40
16.0
 40
17.0
 40
17.0
 40
17.0
 40
18.0
 40
18.0
 40
18.0
 40
19.0
 40
19.0
 40
19.0
 40
20.0
 40
20.0
 40
20.0
 40
21.0
 40
21.0
 40
21.0
 40
22.0
 40
22.0
 40
22.0
 40
23.0
 40
23.0
 40
23.0
 40
24.0
 40
24.0
 40
24.0
 40
25.0
 40
25.0
 40
25.0
 40
25.0
 10
132.9457180114684
 20
-175.5975504118298
 30
0.0
 10
133.170510491881
 20
-175.3729301861915
 30
0.0
 10
133.350344476211
 20
-175.1844834631483
 30
0.0
 10
133.5163980786001
 20
-174.9912136064258
 30
0.0
 10
133.5163980786001
 20
-174.9912136064258
 30
0.0
 10
133.8621134105449
 20
-175.3371011931449
 30
0.0
 10
133.8621134105449
 20
-175.3371011931449
 30
0.0
 10
133.8621134105449
 20
-175.3371011931449
 30
0.0
 10
133.5296616962183
 20
-175.7057264100666
 30
0.0
 10
133.5296616962183
 20
-175.7057264100666
 30
0.0
 10
133.5296616962183
 20
-175.7057264100666
 30
0.0
 10
133.5430975686108
 20
-175.7191622824591
 30
0.0
 10
133.5430975686108
 20
-175.7191622824591
 30
0.0
 10
133.8710706588065
 20
-175.6340684239734
 30
0.0
 10
134.2662231109647
 20
-175.6426811626866
 30
0.0
 10
134.625374315302
 20
-176.0020046217981
 30
0.0
 10
134.9218247818077
 20
-176.298627343078
 30
0.0
 10
134.966611023116
 20
-176.7027370434979
 30
0.0
 10
134.8048637900835
 20
-177.0534477638964
 30
0.0
 10
134.8048637900835
 20
-177.0534477638964
 30
0.0
 10
134.8138210383452
 20
-177.062405012158
 30
0.0
 10
134.8138210383452
 20
-177.062405012158
 30
0.0
 10
135.0026122709369
 20
-177.0086615225881
 30
0.0
 10
135.1822740004926
 20
-176.9997042743265
 30
0.0
 10
135.33937035462
 20
-177.0220973949806
 30
0.0
 10
135.5686414591634
 20
-177.0534477638964
 30
0.0
 10
135.7662176852425
 20
-177.1433647560614
 30
0.0
 10
135.9727511595832
 20
-177.3500704851764
 30
0.0
 10
136.260072123053
 20
-177.6377359581948
 30
0.0
 10
136.4977837115353
 20
-178.2530300118604
 30
0.0
 10
135.7431355454913
 20
-179.0075059231301
 30
0.0
 10
135.7431355454913
 20
-179.0075059231301
 30
0.0
 10
134.4627658083982
 20
-180.2870143863519
 30
0.0
 10
134.4627658083982
 20
-180.2870143863519
 30
0.0
 10
134.4627658083982
 20
-180.2870143863519
 30
0.0
 10
134.076742859276
 20
-179.9008191824554
 30
0.0
 10
134.076742859276
 20
-179.9008191824554
 30
0.0
 10
134.076742859276
 20
-179.9008191824554
 30
0.0
 10
135.3076754761557
 20
-178.6705755846726
 30
0.0
 10
135.3076754761557
 20
-178.6705755846726
 30
0.0
 10
135.7253933037423
 20
-178.2530300118604
 30
0.0
 10
135.8244397989432
 20
-177.848575801892
 30
0.0
 10
135.5055962117833
 20
-177.5295599599579
 30
0.0
 10
135.2809759861451
 20
-177.3049397343196
 30
0.0
 10
134.939739278331
 20
-177.295982486058
 30
0.0
 10
134.6789455500976
 20
-177.4213839617211
 30
0.0
 10
134.6071153092301
 20
-177.4572129547676
 30
0.0
 10
134.5218491959702
 20
-177.5157795780169
 30
0.0
 10
134.4500189551028
 20
-177.5874375641101
 30
0.0
 10
134.4500189551028
 20
-177.5874375641101
 30
0.0
 10
133.1067762254039
 20
-178.9303357842604
 30
0.0
 10
133.1067762254039
 20
-178.9303357842604
 30
0.0
 10
133.1067762254039
 20
-178.9303357842604
 30
0.0
 10
132.7204087667331
 20
-178.5437960708155
 30
0.0
 10
132.7204087667331
 20
-178.5437960708155
 30
0.0
 10
132.7204087667331
 20
-178.5437960708155
 30
0.0
 10
134.0231716244803
 20
-177.241549977391
 30
0.0
 10
134.0231716244803
 20
-177.241549977391
 30
0.0
 10
134.3690592111994
 20
-176.8956623906719
 30
0.0
 10
134.4682779611746
 20
-176.4918971998006
 30
0.0
 10
134.167348870538
 20
-176.1907958543898
 30
0.0
 10
133.9203355242456
 20
-175.9434379985489
 30
0.0
 10
133.543269823385
 20
-175.9613524950721
 30
0.0
 10
133.2826483499259
 20
-176.096400238094
 30
0.0
 10
133.2016886060225
 20
-176.1322292311406
 30
0.0
 10
133.1255519957985
 20
-176.1907958543898
 30
0.0
 10
133.0580281242875
 20
-176.2579752163522
 30
0.0
 10
133.0580281242875
 20
-176.2579752163522
 30
0.0
 10
131.7463080182787
 20
-177.5691785580383
 30
0.0
 10
131.7463080182787
 20
-177.5691785580383
 30
0.0
 10
131.7463080182787
 20
-177.5691785580383
 30
0.0
 10
131.3599405596079
 20
-177.1826388445932
 30
0.0
 10
131.3599405596079
 20
-177.1826388445932
 30
0.0
 10
131.3599405596079
 20
-177.1826388445932
 30
0.0
 10
132.9457180114684
 20
-175.5975504118298
 30
0.0
 10
132.9457180114684
 20
-175.5975504118298
 30
0.0
  0
HATCH
  5
28C
330
278
100
AcDbEntity
  8
Livello 1
 62
   250
420
  1842203
100
AcDbHatch
 10
0.0
 20
0.0
 30
0.0
210
0.0
220
0.0
230
1.0
  2
SOLID
 70
     1
 71
     0
 91
        1
 92
        1
 93
        1
 72
     4
 94
        3
 73
     0
 74
     0
 95
       80
 96
       76
 40
0.0
 40
0.0
 40
0.0
 40
0.0
 40
1.0
 40
1.0
 40
1.0
 40
2.0
 40
2.0
 40
2.0
 40
3.0
 40
3.0
 40
3.0
 40
4.0
 40
4.0
 40
4.0
 40
5.0
 40
5.0
 40
5.0
 40
6.0
 40
6.0
 40
6.0
 40
7.0
 40
7.0
 40
7.0
 40
8.0
 40
8.0
 40
8.0
 40
9.0
 40
9.0
 40
9.0
 40
10.0
 40
10.0
 40
10.0
 40
11.0
 40
11.0
 40
11.0
 40
12.0
 40
12.0
 40
12.0
 40
13.0
 40
13.0
 40
13.0
 40
14.0
 40
14.0
 40
14.0
 40
15.0
 40
15.0
 40
15.0
 40
16.0
 40
16.0
 40
16.0
 40
17.0
 40
17.0
 40
17.0
 40
18.0
 40
18.0
 40
18.0
 40
19.0
 40
19.0
 40
19.0
 40
20.0
 40
20.0
 40
20.0
 40
21.0
 40
21.0
 40
21.0
 40
22.0
 40
22.0
 40
22.0
 40
23.0
 40
23.0
 40
23.0
 40
24.0
 40
24.0
 40
24.0
 40
25.0
 40
25.0
 40
25.0
 40
25.0
 10
132.9457180114684
 20
-175.5975504118298
 10
133.170510491881
 20
-175.3729301861915
 10
133.350344476211
 20
-175.1844834631483
 10
133.5163980786001
 20
-174.9912136064258
 10
133.5163980786001
 20
-174.9912136064258
 10
133.8621134105449
 20
-175.3371011931449
 10
133.8621134105449
 20
-175.3371011931449
 10
133.8621134105449
 20
-175.3371011931449
 10
133.5296616962183
 20
-175.7057264100666
 10
133.5296616962183
 20
-175.7057264100666
 10
133.5296616962183
 20
-175.7057264100666
 10
133.5430975686108
 20
-175.7191622824591
 10
133.5430975686108
 20
-175.7191622824591
 10
133.8710706588065
 20
-175.6340684239734
 10
134.2662231109647
 20
-175.6426811626866
 10
134.625374315302
 20
-176.0020046217981
 10
134.9218247818077
 20
-176.298627343078
 10
134.966611023116
 20
-176.7027370434979
 10
134.8048637900835
 20
-177.0534477638964
 10
134.8048637900835
 20
-177.0534477638964
 10
134.8138210383452
 20
-177.062405012158
 10
134.8138210383452
 20
-177.062405012158
 10
135.0026122709369
 20
-177.0086615225881
 10
135.1822740004926
 20
-176.9997042743265
 10
135.33937035462
 20
-177.0220973949806
 10
135.5686414591634
 20
-177.0534477638964
 10
135.7662176852425
 20
-177.1433647560614
 10
135.9727511595832
 20
-177.3500704851764
 10
136.260072123053
 20
-177.6377359581948
 10
136.4977837115353
 20
-178.2530300118604
 10
135.7431355454913
 20
-179.0075059231301
 10
135.7431355454913
 20
-179.0075059231301
 10
134.4627658083982
 20
-180.2870143863519
 10
134.4627658083982
 20
-180.2870143863519
 10
134.4627658083982
 20
-180.2870143863519
 10
134.076742859276
 20
-179.9008191824554
 10
134.076742859276
 20
-179.9008191824554
 10
134.076742859276
 20
-179.9008191824554
 10
135.3076754761557
 20
-178.6705755846726
 10
135.3076754761557
 20
-178.6705755846726
 10
135.7253933037423
 20
-178.2530300118604
 10
135.8244397989432
 20
-177.848575801892
 10
135.5055962117833
 20
-177.5295599599579
 10
135.2809759861451
 20
-177.3049397343196
 10
134.939739278331
 20
-177.295982486058
 10
134.6789455500976
 20
-177.4213839617211
 10
134.6071153092301
 20
-177.4572129547676
 10
134.5218491959702
 20
-177.5157795780169
 10
134.4500189551028
 20
-177.5874375641101
 10
134.4500189551028
 20
-177.5874375641101
 10
133.1067762254039
 20
-178.9303357842604
 10
133.1067762254039
 20
-178.9303357842604
 10
133.1067762254039
 20
-178.9303357842604
 10
132.7204087667331
 20
-178.5437960708155
 10
132.7204087667331
 20
-178.5437960708155
 10
132.7204087667331
 20
-178.5437960708155
 10
134.0231716244803
 20
-177.241549977391
 10
134.0231716244803
 20
-177.241549977391
 10
134.3690592111994
 20
-176.8956623906719
 10
134.4682779611746
 20
-176.4918971998006
 10
134.167348870538
 20
-176.1907958543898
 10
133.9203355242456
 20
-175.9434379985489
 10
133.543269823385
 20
-175.9613524950721
 10
133.2826483499259
 20
-176.096400238094
 10
133.2016886060225
 20
-176.1322292311406
 10
133.1255519957985
 20
-176.1907958543898
 10
133.0580281242875
 20
-176.2579752163522
 10
133.0580281242875
 20
-176.2579752163522
 10
131.7463080182787
 20
-177.5691785580383
 10
131.7463080182787
 20
-177.5691785580383
 10
131.7463080182787
 20
-177.5691785580383
 10
131.3599405596079
 20
-177.1826388445932
 10
131.3599405596079
 20
-177.1826388445932
 10
131.3599405596079
 20
-177.1826388445932
 10
132.9457180114684
 20
-175.5975504118298
 10
132.9457180114684
 20
-175.5975504118298
 97
        0
 97
        0
 75
     2
 76
     1
 98
        0
450
        0
451
        0
460
0.0
461
0.0
452
        0
462
0.0
453
        0
470

  0
ENDBLK
  5
28D
330
278
100
AcDbEntity
  8
0
100
AcDbBlockEnd
  0
BLOCK
  5
28F
330
28E
100
AcDbEntity
  8
0
100
AcDbBlockBegin
  2
block 92
 70
     0
 10
0.0
 20
0.0
 30
0.0
  3
block 92
  1

  0
POLYLINE
  5
290
330
28E
100
AcDbEntity
  8
Livello 1
370
     0
100
AcDb2dPolyline
 66
     1
 10
0.0
 20
0.0
 30
0.0
  0
VERTEX
  5
291
330
290
100
AcDbEntity
  8
Livello 1
370
     0
100
AcDbVertex
100
AcDb2dVertex
 10
96.23994816387407
 20
-191.444989643979
 30
0.0
  0
VERTEX
  5
292
330
290
100
AcDbEntity
  8
Livello 1
370
     0
100
AcDbVertex
100
AcDb2dVertex
 10
96.23994816387407
 20
-191.4577364972745
 30
0.0
  0
VERTEX
  5
293
330
290
100
AcDbEntity
  8
Livello 1
370
     0
100
AcDbVertex
100
AcDb2dVertex
 10
96.62734915119042
 20
-192.175349886852
 30
0.0
  0
VERTEX
  5
294
330
290
100
AcDbEntity
  8
Livello 1
370
     0
100
AcDbVertex
100
AcDb2dVertex
 10
96.20187985876206
 20
-192.2831813755403
 30
0.0
  0
VERTEX
  5
295
330
290
100
AcDbEntity
  8
Livello 1
370
     0
100
AcDbVertex
100
AcDb2dVertex
 10
95.71904972650427
 20
-191.3812553775019
 30
0.0
  0
VERTEX
  5
296
330
290
100
AcDbEntity
  8
Livello 1
370
     0
100
AcDbVertex
100
AcDb2dVertex
 10
95.71904972650427
 20
-190.9051431814404
 30
0.0
  0
VERTEX
  5
297
330
290
100
AcDbEntity
  8
Livello 1
370
     0
100
AcDbVertex
100
AcDb2dVertex
 10
99.84782441080191
 20
-190.9051431814404
 30
0.0
  0
VERTEX
  5
298
330
290
100
AcDbEntity
  8
Livello 1
370
     0
100
AcDbVertex
100
AcDb2dVertex
 10
99.84782441080191
 20
-191.444989643979
 30
0.0
  0
VERTEX
  5
299
330
290
100
AcDbEntity
  8
Livello 1
370
     0
100
AcDbVertex
100
AcDb2dVertex
 10
96.23994816387407
 20
-191.444989643979
 30
0.0
  0
SEQEND
  5
29A
330
290
100
AcDbEntity
  8
Livello 1
370
     0
  0
HATCH
  5
29B
330
28E
100
AcDbEntity
  8
Livello 1
 62
   250
420
  1842203
100
AcDbHatch
 10
0.0
 20
0.0
 30
0.0
210
0.0
220
0.0
230
1.0
  2
SOLID
 70
     1
 71
     0
 91
        1
 92
        1
 93
        8
 72
     1
 10
96.23994816387407
 20
-191.444989643979
 11
96.23994816387407
 21
-191.4577364972745
 72
     1
 10
96.23994816387407
 20
-191.4577364972745
 11
96.62734915119042
 21
-192.175349886852
 72
     1
 10
96.62734915119042
 20
-192.175349886852
 11
96.20187985876206
 21
-192.2831813755403
 72
     1
 10
96.20187985876206
 20
-192.2831813755403
 11
95.71904972650427
 21
-191.3812553775019
 72
     1
 10
95.71904972650427
 20
-191.3812553775019
 11
95.71904972650427
 21
-190.9051431814404
 72
     1
 10
95.71904972650427
 20
-190.9051431814404
 11
99.84782441080191
 21
-190.9051431814404
 72
     1
 10
99.84782441080191
 20
-190.9051431814404
 11
99.84782441080191
 21
-191.444989643979
 72
     1
 10
99.84782441080191
 20
-191.444989643979
 11
96.23994816387407
 21
-191.444989643979
 97
        0
 75
     2
 76
     1
 98
        0
450
        0
451
        0
460
0.0
461
0.0
452
        0
462
0.0
453
        0
470

  0
SPLINE
  5
29C
330
28E
100
AcDbEntity
  8
Livello 1
370
     0
100
AcDbSpline
210
0.0
220
0.0
230
1.0
 70
     9
 71
     3
 72
    35
 73
    31
 74
     0
 42
0.000000001
 43
0.0000000001
 40
0.0
 40
0.0
 40
0.0
 40
0.0
 40
1.0
 40
1.0
 40
1.0
 40
2.0
 40
2.0
 40
2.0
 40
3.0
 40
3.0
 40
3.0
 40
4.0
 40
4.0
 40
4.0
 40
5.0
 40
5.0
 40
5.0
 40
6.0
 40
6.0
 40
6.0
 40
7.0
 40
7.0
 40
7.0
 40
8.0
 40
8.0
 40
8.0
 40
9.0
 40
9.0
 40
9.0
 40
10.0
 40
10.0
 40
10.0
 40
10.0
 10
98.79982636418892
 20
-189.4516573962135
 30
0.0
 10
98.27892792681915
 20
-189.4516573962135
 30
0.0
 10
97.9104749646717
 20
-189.1402207643469
 30
0.0
 10
97.69446747774653
 20
-188.6320691802725
 30
0.0
 10
97.69446747774653
 20
-188.6320691802725
 30
0.0
 10
97.67551945257764
 20
-188.6386148616945
 30
0.0
 10
97.67551945257764
 20
-188.6386148616945
 30
0.0
 10
97.45951196565249
 20
-189.0957790325872
 30
0.0
 10
97.10380585680045
 20
-189.2928384943435
 30
0.0
 10
96.7480997479484
 20
-189.2928384943435
 30
0.0
 10
96.09387611529944
 20
-189.2928384943435
 30
0.0
 10
95.64928654292796
 20
-188.7402451785094
 30
0.0
 10
95.64928654292796
 20
-188.0160861075099
 30
0.0
 10
95.64928654292796
 20
-187.2157904262863
 30
0.0
 10
96.1510647003546
 20
-186.8154703309003
 30
0.0
 10
96.66558971107667
 20
-186.8154703309003
 30
0.0
 10
97.014922393281
 20
-186.8154703309003
 30
0.0
 10
97.38957652730192
 20
-186.9870360860658
 30
0.0
 10
97.63107772081793
 20
-187.49518767014
 30
0.0
 10
97.63107772081793
 20
-187.49518767014
 30
0.0
 10
97.65002574598682
 20
-187.49518767014
 30
0.0
 10
97.65002574598682
 20
-187.49518767014
 30
0.0
 10
97.85328637961656
 20
-186.9808349141923
 30
0.0
 10
98.2153659151163
 20
-186.6631971104523
 30
0.0
 10
98.71714407254295
 20
-186.6631971104523
 30
0.0
 10
99.43492971689474
 20
-186.6631971104523
 30
0.0
 10
99.9177598491525
 20
-187.2791801832149
 30
0.0
 10
99.9177598491525
 20
-188.0667290111431
 30
0.0
 10
99.9177598491525
 20
-188.9307589588437
 30
0.0
 10
99.40323483843044
 20
-189.4516573962135
 30
0.0
 10
98.79982636418892
 20
-189.4516573962135
 30
0.0
  0
SPLINE
  5
29D
330
28E
100
AcDbEntity
  8
Livello 1
370
     0
100
AcDbSpline
210
0.0
220
0.0
230
1.0
 70
     9
 71
     3
 72
    17
 73
    13
 74
     0
 42
0.000000001
 43
0.0000000001
 40
0.0
 40
0.0
 40
0.0
 40
0.0
 40
1.0
 40
1.0
 40
1.0
 40
2.0
 40
2.0
 40
2.0
 40
3.0
 40
3.0
 40
3.0
 40
4.0
 40
4.0
 40
4.0
 40
4.0
 10
96.71003144283638
 20
-188.7657388851001
 30
0.0
 10
97.12292613674357
 20
-188.7657388851001
 30
0.0
 10
97.34513479554221
 20
-188.4543022532337
 30
0.0
 10
97.47225881894792
 20
-187.9778455476236
 30
0.0
 10
97.3515082221899
 20
-187.6223116935458
 30
0.0
 10
97.09743243015275
 20
-187.3491156215655
 30
0.0
 10
96.72260604135756
 20
-187.3491156215655
 30
0.0
 10
96.39239363909636
 20
-187.3491156215655
 30
0.0
 10
96.04943438353972
 20
-187.5461750833218
 30
0.0
 10
96.04943438353972
 20
-188.0477809859742
 30
0.0
 10
96.04943438353972
 20
-188.5114908382888
 30
0.0
 10
96.35432533398432
 20
-188.7657388851001
 30
0.0
 10
96.71003144283638
 20
-188.7657388851001
 30
0.0
  0
SPLINE
  5
29E
330
28E
100
AcDbEntity
  8
Livello 1
370
     0
100
AcDbSpline
210
0.0
220
0.0
230
1.0
 70
     9
 71
     3
 72
    17
 73
    13
 74
     0
 42
0.000000001
 43
0.0000000001
 40
0.0
 40
0.0
 40
0.0
 40
0.0
 40
1.0
 40
1.0
 40
1.0
 40
2.0
 40
2.0
 40
2.0
 40
3.0
 40
3.0
 40
3.0
 40
4.0
 40
4.0
 40
4.0
 40
4.0
 10
98.7743326575981
 20
-187.2285372795818
 30
0.0
 10
98.27255450017144
 20
-187.2285372795818
 30
0.0
 10
98.03122556142971
 20
-187.5778699617861
 30
0.0
 10
97.8724066595597
 20
-188.1366644494936
 30
0.0
 10
98.01210528148658
 20
-188.6196668365257
 30
0.0
 10
98.32974308522659
 20
-188.879771545662
 30
0.0
 10
98.72351749919063
 20
-188.879771545662
 30
0.0
 10
99.14278561974555
 20
-188.8990640803794
 30
0.0
 10
99.51123858189303
 20
-188.5814262766394
 30
0.0
 10
99.51123858189303
 20
-188.054326667396
 30
0.0
 10
99.51123858189303
 20
-187.5523762551951
 30
0.0
 10
99.19997420480072
 20
-187.2285372795818
 30
0.0
 10
98.7743326575981
 20
-187.2285372795818
 30
0.0
  0
HATCH
  5
29F
330
28E
100
AcDbEntity
  8
Livello 1
 62
   250
420
  1842203
100
AcDbHatch
 10
0.0
 20
0.0
 30
0.0
210
0.0
220
0.0
230
1.0
  2
SOLID
 70
     1
 71
     0
 91
        3
 92
        1
 93
        1
 72
     4
 94
        3
 73
     0
 74
     0
 95
       35
 96
       31
 40
0.0
 40
0.0
 40
0.0
 40
0.0
 40
1.0
 40
1.0
 40
1.0
 40
2.0
 40
2.0
 40
2.0
 40
3.0
 40
3.0
 40
3.0
 40
4.0
 40
4.0
 40
4.0
 40
5.0
 40
5.0
 40
5.0
 40
6.0
 40
6.0
 40
6.0
 40
7.0
 40
7.0
 40
7.0
 40
8.0
 40
8.0
 40
8.0
 40
9.0
 40
9.0
 40
9.0
 40
10.0
 40
10.0
 40
10.0
 40
10.0
 10
98.79982636418892
 20
-189.4516573962135
 10
98.27892792681915
 20
-189.4516573962135
 10
97.9104749646717
 20
-189.1402207643469
 10
97.69446747774653
 20
-188.6320691802725
 10
97.69446747774653
 20
-188.6320691802725
 10
97.67551945257764
 20
-188.6386148616945
 10
97.67551945257764
 20
-188.6386148616945
 10
97.45951196565249
 20
-189.0957790325872
 10
97.10380585680045
 20
-189.2928384943435
 10
96.7480997479484
 20
-189.2928384943435
 10
96.09387611529944
 20
-189.2928384943435
 10
95.64928654292796
 20
-188.7402451785094
 10
95.64928654292796
 20
-188.0160861075099
 10
95.64928654292796
 20
-187.2157904262863
 10
96.1510647003546
 20
-186.8154703309003
 10
96.66558971107667
 20
-186.8154703309003
 10
97.014922393281
 20
-186.8154703309003
 10
97.38957652730192
 20
-186.9870360860658
 10
97.63107772081793
 20
-187.49518767014
 10
97.63107772081793
 20
-187.49518767014
 10
97.65002574598682
 20
-187.49518767014
 10
97.65002574598682
 20
-187.49518767014
 10
97.85328637961656
 20
-186.9808349141923
 10
98.2153659151163
 20
-186.6631971104523
 10
98.71714407254295
 20
-186.6631971104523
 10
99.43492971689474
 20
-186.6631971104523
 10
99.9177598491525
 20
-187.2791801832149
 10
99.9177598491525
 20
-188.0667290111431
 10
99.9177598491525
 20
-188.9307589588437
 10
99.40323483843044
 20
-189.4516573962135
 10
98.79982636418892
 20
-189.4516573962135
 97
        0
 97
        0
 92
        1
 93
        1
 72
     4
 94
        3
 73
     0
 74
     0
 95
       17
 96
       13
 40
0.0
 40
0.0
 40
0.0
 40
0.0
 40
1.0
 40
1.0
 40
1.0
 40
2.0
 40
2.0
 40
2.0
 40
3.0
 40
3.0
 40
3.0
 40
4.0
 40
4.0
 40
4.0
 40
4.0
 10
96.71003144283638
 20
-188.7657388851001
 10
97.12292613674357
 20
-188.7657388851001
 10
97.34513479554221
 20
-188.4543022532337
 10
97.47225881894792
 20
-187.9778455476236
 10
97.3515082221899
 20
-187.6223116935458
 10
97.09743243015275
 20
-187.3491156215655
 10
96.72260604135756
 20
-187.3491156215655
 10
96.39239363909636
 20
-187.3491156215655
 10
96.04943438353972
 20
-187.5461750833218
 10
96.04943438353972
 20
-188.0477809859742
 10
96.04943438353972
 20
-188.5114908382888
 10
96.35432533398432
 20
-188.7657388851001
 10
96.71003144283638
 20
-188.7657388851001
 97
        0
 97
        0
 92
        1
 93
        1
 72
     4
 94
        3
 73
     0
 74
     0
 95
       17
 96
       13
 40
0.0
 40
0.0
 40
0.0
 40
0.0
 40
1.0
 40
1.0
 40
1.0
 40
2.0
 40
2.0
 40
2.0
 40
3.0
 40
3.0
 40
3.0
 40
4.0
 40
4.0
 40
4.0
 40
4.0
 10
98.7743326575981
 20
-187.2285372795818
 10
98.27255450017144
 20
-187.2285372795818
 10
98.03122556142971
 20
-187.5778699617861
 10
97.8724066595597
 20
-188.1366644494936
 10
98.01210528148658
 20
-188.6196668365257
 10
98.32974308522659
 20
-188.879771545662
 10
98.72351749919063
 20
-188.879771545662
 10
99.14278561974555
 20
-188.8990640803794
 10
99.51123858189303
 20
-188.5814262766394
 10
99.51123858189303
 20
-188.054326667396
 10
99.51123858189303
 20
-187.5523762551951
 10
99.19997420480072
 20
-187.2285372795818
 10
98.7743326575981
 20
-187.2285372795818
 97
        0
 97
        0
 75
     2
 76
     1
 98
        0
450
        0
451
        0
460
0.0
461
0.0
452
        0
462
0.0
453
        0
470

  0
SPLINE
  5
2A0
330
28E
100
AcDbEntity
  8
Livello 1
370
     0
100
AcDbSpline
210
0.0
220
0.0
230
1.0
 70
     9
 71
     3
 72
    80
 73
    76
 74
     0
 42
0.000000001
 43
0.0000000001
 40
0.0
 40
0.0
 40
0.0
 40
0.0
 40
1.0
 40
1.0
 40
1.0
 40
2.0
 40
2.0
 40
2.0
 40
3.0
 40
3.0
 40
3.0
 40
4.0
 40
4.0
 40
4.0
 40
5.0
 40
5.0
 40
5.0
 40
6.0
 40
6.0
 40
6.0
 40
7.0
 40
7.0
 40
7.0
 40
8.0
 40
8.0
 40
8.0
 40
9.0
 40
9.0
 40
9.0
 40
10.0
 40
10.0
 40
10.0
 40
11.0
 40
11.0
 40
11.0
 40
12.0
 40
12.0
 40
12.0
 40
13.0
 40
13.0
 40
13.0
 40
14.0
 40
14.0
 40
14.0
 40
15.0
 40
15.0
 40
15.0
 40
16.0
 40
16.0
 40
16.0
 40
17.0
 40
17.0
 40
17.0
 40
18.0
 40
18.0
 40
18.0
 40
19.0
 40
19.0
 40
19.0
 40
20.0
 40
20.0
 40
20.0
 40
21.0
 40
21.0
 40
21.0
 40
22.0
 40
22.0
 40
22.0
 40
23.0
 40
23.0
 40
23.0
 40
24.0
 40
24.0
 40
24.0
 40
25.0
 40
25.0
 40
25.0
 40
25.0
 10
97.60558401422709
 20
-184.6192219590535
 30
0.0
 10
97.28794621048704
 20
-184.6192219590535
 30
0.0
 10
97.02749699180216
 20
-184.625423130927
 30
0.0
 10
96.77359345453924
 20
-184.6447156656444
 30
0.0
 10
96.77359345453924
 20
-184.6447156656444
 30
0.0
 10
96.77359345453924
 20
-184.1555121067388
 30
0.0
 10
96.77359345453924
 20
-184.1555121067388
 30
0.0
 10
96.77359345453924
 20
-184.1555121067388
 30
0.0
 10
97.26899818531817
 20
-184.1300184001481
 30
0.0
 10
97.26899818531817
 20
-184.1300184001481
 30
0.0
 10
97.26899818531817
 20
-184.1300184001481
 30
0.0
 10
97.26899818531817
 20
-184.1110703749791
 30
0.0
 10
97.26899818531817
 20
-184.1110703749791
 30
0.0
 10
96.97685408816901
 20
-183.9395046198137
 30
0.0
 10
96.70365801618869
 20
-183.6539062040865
 30
0.0
 10
96.70365801618869
 20
-183.1457546200121
 30
0.0
 10
96.70365801618869
 20
-182.7264864994573
 30
0.0
 10
96.95773380822584
 20
-182.4088486957172
 30
0.0
 10
97.31981334372559
 20
-182.2755235004381
 30
0.0
 10
97.31981334372559
 20
-182.2755235004381
 30
0.0
 10
97.31981334372559
 20
-182.2627766471427
 30
0.0
 10
97.31981334372559
 20
-182.2627766471427
 30
0.0
 10
97.14824758856018
 20
-182.1673475022011
 30
0.0
 10
97.014922393281
 20
-182.0467691602175
 30
0.0
 10
96.91966550311384
 20
-181.9196451368118
 30
0.0
 10
96.77979462641269
 20
-181.7353325283509
 30
0.0
 10
96.70365801618869
 20
-181.5320718947211
 30
0.0
 10
96.70365801618869
 20
-181.239927797572
 30
0.0
 10
96.70365801618869
 20
-180.8334065303125
 30
0.0
 10
96.97048066152127
 20
-180.2301703108452
 30
0.0
 10
98.0375989880774
 20
-180.2301703108452
 30
0.0
 10
98.0375989880774
 20
-180.2301703108452
 30
0.0
 10
99.84782441080191
 20
-180.2301703108452
 30
0.0
 10
99.84782441080191
 20
-180.2301703108452
 30
0.0
 10
99.84782441080191
 20
-180.2301703108452
 30
0.0
 10
99.84782441080191
 20
-180.7762179452573
 30
0.0
 10
99.84782441080191
 20
-180.7762179452573
 30
0.0
 10
99.84782441080191
 20
-180.7762179452573
 30
0.0
 10
98.1073621716537
 20
-180.7762179452573
 30
0.0
 10
98.1073621716537
 20
-180.7762179452573
 30
0.0
 10
97.51670055070764
 20
-180.7762179452573
 30
0.0
 10
97.16099444185561
 20
-180.9922254321825
 30
0.0
 10
97.16099444185561
 20
-181.4431884312017
 30
0.0
 10
97.16099444185561
 20
-181.7608262349418
 30
0.0
 10
97.39594995394963
 20
-182.0085286003312
 30
0.0
 10
97.66914602592994
 20
-182.1039577452726
 30
0.0
 10
97.74528263615394
 20
-182.1294514518635
 30
0.0
 10
97.84691295296886
 20
-182.1483994770323
 30
0.0
 10
97.94854326978372
 20
-182.1483994770323
 30
0.0
 10
97.94854326978372
 20
-182.1483994770323
 30
0.0
 10
99.84782441080191
 20
-182.1483994770323
 30
0.0
 10
99.84782441080191
 20
-182.1483994770323
 30
0.0
 10
99.84782441080191
 20
-182.1483994770323
 30
0.0
 10
99.84782441080191
 20
-182.694791620993
 30
0.0
 10
99.84782441080191
 20
-182.694791620993
 30
0.0
 10
99.84782441080191
 20
-182.694791620993
 30
0.0
 10
98.00573185483884
 20
-182.694791620993
 30
0.0
 10
98.00573185483884
 20
-182.694791620993
 30
0.0
 10
97.51670055070764
 20
-182.694791620993
 30
0.0
 10
97.16099444185561
 20
-182.9104545983696
 30
0.0
 10
97.16099444185561
 20
-183.3362684003465
 30
0.0
 10
97.16099444185561
 20
-183.6856010825508
 30
0.0
 10
97.44039168570935
 20
-183.9395046198137
 30
0.0
 10
97.71996118433737
 20
-184.0283880833332
 30
0.0
 10
97.80247122120909
 20
-184.060427471346
 30
0.0
 10
97.89772811137629
 20
-184.0728298150929
 30
0.0
 10
97.99315725631769
 20
-184.0728298150929
 30
0.0
 10
97.99315725631769
 20
-184.0728298150929
 30
0.0
 10
99.84782441080191
 20
-184.0728298150929
 30
0.0
 10
99.84782441080191
 20
-184.0728298150929
 30
0.0
 10
99.84782441080191
 20
-184.0728298150929
 30
0.0
 10
99.84782441080191
 20
-184.6192219590535
 30
0.0
 10
99.84782441080191
 20
-184.6192219590535
 30
0.0
 10
99.84782441080191
 20
-184.6192219590535
 30
0.0
 10
97.60558401422709
 20
-184.6192219590535
 30
0.0
 10
97.60558401422709
 20
-184.6192219590535
 30
0.0
  0
HATCH
  5
2A1
330
28E
100
AcDbEntity
  8
Livello 1
 62
   250
420
  1842203
100
AcDbHatch
 10
0.0
 20
0.0
 30
0.0
210
0.0
220
0.0
230
1.0
  2
SOLID
 70
     1
 71
     0
 91
        1
 92
        1
 93
        1
 72
     4
 94
        3
 73
     0
 74
     0
 95
       80
 96
       76
 40
0.0
 40
0.0
 40
0.0
 40
0.0
 40
1.0
 40
1.0
 40
1.0
 40
2.0
 40
2.0
 40
2.0
 40
3.0
 40
3.0
 40
3.0
 40
4.0
 40
4.0
 40
4.0
 40
5.0
 40
5.0
 40
5.0
 40
6.0
 40
6.0
 40
6.0
 40
7.0
 40
7.0
 40
7.0
 40
8.0
 40
8.0
 40
8.0
 40
9.0
 40
9.0
 40
9.0
 40
10.0
 40
10.0
 40
10.0
 40
11.0
 40
11.0
 40
11.0
 40
12.0
 40
12.0
 40
12.0
 40
13.0
 40
13.0
 40
13.0
 40
14.0
 40
14.0
 40
14.0
 40
15.0
 40
15.0
 40
15.0
 40
16.0
 40
16.0
 40
16.0
 40
17.0
 40
17.0
 40
17.0
 40
18.0
 40
18.0
 40
18.0
 40
19.0
 40
19.0
 40
19.0
 40
20.0
 40
20.0
 40
20.0
 40
21.0
 40
21.0
 40
21.0
 40
22.0
 40
22.0
 40
22.0
 40
23.0
 40
23.0
 40
23.0
 40
24.0
 40
24.0
 40
24.0
 40
25.0
 40
25.0
 40
25.0
 40
25.0
 10
97.60558401422709
 20
-184.6192219590535
 10
97.28794621048704
 20
-184.6192219590535
 10
97.02749699180216
 20
-184.625423130927
 10
96.77359345453924
 20
-184.6447156656444
 10
96.77359345453924
 20
-184.6447156656444
 10
96.77359345453924
 20
-184.1555121067388
 10
96.77359345453924
 20
-184.1555121067388
 10
96.77359345453924
 20
-184.1555121067388
 10
97.26899818531817
 20
-184.1300184001481
 10
97.26899818531817
 20
-184.1300184001481
 10
97.26899818531817
 20
-184.1300184001481
 10
97.26899818531817
 20
-184.1110703749791
 10
97.26899818531817
 20
-184.1110703749791
 10
96.97685408816901
 20
-183.9395046198137
 10
96.70365801618869
 20
-183.6539062040865
 10
96.70365801618869
 20
-183.1457546200121
 10
96.70365801618869
 20
-182.7264864994573
 10
96.95773380822584
 20
-182.4088486957172
 10
97.31981334372559
 20
-182.2755235004381
 10
97.31981334372559
 20
-182.2755235004381
 10
97.31981334372559
 20
-182.2627766471427
 10
97.31981334372559
 20
-182.2627766471427
 10
97.14824758856018
 20
-182.1673475022011
 10
97.014922393281
 20
-182.0467691602175
 10
96.91966550311384
 20
-181.9196451368118
 10
96.77979462641269
 20
-181.7353325283509
 10
96.70365801618869
 20
-181.5320718947211
 10
96.70365801618869
 20
-181.239927797572
 10
96.70365801618869
 20
-180.8334065303125
 10
96.97048066152127
 20
-180.2301703108452
 10
98.0375989880774
 20
-180.2301703108452
 10
98.0375989880774
 20
-180.2301703108452
 10
99.84782441080191
 20
-180.2301703108452
 10
99.84782441080191
 20
-180.2301703108452
 10
99.84782441080191
 20
-180.2301703108452
 10
99.84782441080191
 20
-180.7762179452573
 10
99.84782441080191
 20
-180.7762179452573
 10
99.84782441080191
 20
-180.7762179452573
 10
98.1073621716537
 20
-180.7762179452573
 10
98.1073621716537
 20
-180.7762179452573
 10
97.51670055070764
 20
-180.7762179452573
 10
97.16099444185561
 20
-180.9922254321825
 10
97.16099444185561
 20
-181.4431884312017
 10
97.16099444185561
 20
-181.7608262349418
 10
97.39594995394963
 20
-182.0085286003312
 10
97.66914602592994
 20
-182.1039577452726
 10
97.74528263615394
 20
-182.1294514518635
 10
97.84691295296886
 20
-182.1483994770323
 10
97.94854326978372
 20
-182.1483994770323
 10
97.94854326978372
 20
-182.1483994770323
 10
99.84782441080191
 20
-182.1483994770323
 10
99.84782441080191
 20
-182.1483994770323
 10
99.84782441080191
 20
-182.1483994770323
 10
99.84782441080191
 20
-182.694791620993
 10
99.84782441080191
 20
-182.694791620993
 10
99.84782441080191
 20
-182.694791620993
 10
98.00573185483884
 20
-182.694791620993
 10
98.00573185483884
 20
-182.694791620993
 10
97.51670055070764
 20
-182.694791620993
 10
97.16099444185561
 20
-182.9104545983696
 10
97.16099444185561
 20
-183.3362684003465
 10
97.16099444185561
 20
-183.6856010825508
 10
97.44039168570935
 20
-183.9395046198137
 10
97.71996118433737
 20
-184.0283880833332
 10
97.80247122120909
 20
-184.060427471346
 10
97.89772811137629
 20
-184.0728298150929
 10
97.99315725631769
 20
-184.0728298150929
 10
97.99315725631769
 20
-184.0728298150929
 10
99.84782441080191
 20
-184.0728298150929
 10
99.84782441080191
 20
-184.0728298150929
 10
99.84782441080191
 20
-184.0728298150929
 10
99.84782441080191
 20
-184.6192219590535
 10
99.84782441080191
 20
-184.6192219590535
 10
99.84782441080191
 20
-184.6192219590535
 10
97.60558401422709
 20
-184.6192219590535
 10
97.60558401422709
 20
-184.6192219590535
 97
        0
 97
        0
 75
     2
 76
     1
 98
        0
450
        0
451
        0
460
0.0
461
0.0
452
        0
462
0.0
453
        0
470

  0
SPLINE
  5
2A2
330
28E
100
AcDbEntity
  8
Livello 1
370
     0
100
AcDbSpline
210
0.0
220
0.0
230
1.0
 70
     9
 71
     3
 72
    80
 73
    76
 74
     0
 42
0.000000001
 43
0.0000000001
 40
0.0
 40
0.0
 40
0.0
 40
0.0
 40
1.0
 40
1.0
 40
1.0
 40
2.0
 40
2.0
 40
2.0
 40
3.0
 40
3.0
 40
3.0
 40
4.0
 40
4.0
 40
4.0
 40
5.0
 40
5.0
 40
5.0
 40
6.0
 40
6.0
 40
6.0
 40
7.0
 40
7.0
 40
7.0
 40
8.0
 40
8.0
 40
8.0
 40
9.0
 40
9.0
 40
9.0
 40
10.0
 40
10.0
 40
10.0
 40
11.0
 40
11.0
 40
11.0
 40
12.0
 40
12.0
 40
12.0
 40
13.0
 40
13.0
 40
13.0
 40
14.0
 40
14.0
 40
14.0
 40
15.0
 40
15.0
 40
15.0
 40
16.0
 40
16.0
 40
16.0
 40
17.0
 40
17.0
 40
17.0
 40
18.0
 40
18.0
 40
18.0
 40
19.0
 40
19.0
 40
19.0
 40
20.0
 40
20.0
 40
20.0
 40
21.0
 40
21.0
 40
21.0
 40
22.0
 40
22.0
 40
22.0
 40
23.0
 40
23.0
 40
23.0
 40
24.0
 40
24.0
 40
24.0
 40
25.0
 40
25.0
 40
25.0
 40
25.0
 10
97.60558401422709
 20
-179.3234211791275
 30
0.0
 10
97.28794621048704
 20
-179.3234211791275
 30
0.0
 10
97.02749699180216
 20
-179.3296223510009
 30
0.0
 10
96.77359345453924
 20
-179.3489148857183
 30
0.0
 10
96.77359345453924
 20
-179.3489148857183
 30
0.0
 10
96.77359345453924
 20
-178.8597113268129
 30
0.0
 10
96.77359345453924
 20
-178.8597113268129
 30
0.0
 10
96.77359345453924
 20
-178.8597113268129
 30
0.0
 10
97.26899818531817
 20
-178.834217620222
 30
0.0
 10
97.26899818531817
 20
-178.834217620222
 30
0.0
 10
97.26899818531817
 20
-178.834217620222
 30
0.0
 10
97.26899818531817
 20
-178.8152695950531
 30
0.0
 10
97.26899818531817
 20
-178.8152695950531
 30
0.0
 10
96.97685408816901
 20
-178.6437038398877
 30
0.0
 10
96.70365801618869
 20
-178.3581054241605
 30
0.0
 10
96.70365801618869
 20
-177.8499538400861
 30
0.0
 10
96.70365801618869
 20
-177.4306857195312
 30
0.0
 10
96.95773380822584
 20
-177.1130479157912
 30
0.0
 10
97.31981334372559
 20
-176.979722720512
 30
0.0
 10
97.31981334372559
 20
-176.979722720512
 30
0.0
 10
97.31981334372559
 20
-176.9669758672166
 30
0.0
 10
97.31981334372559
 20
-176.9669758672166
 30
0.0
 10
97.14824758856018
 20
-176.8715467222752
 30
0.0
 10
97.014922393281
 20
-176.7509683802914
 30
0.0
 10
96.91966550311384
 20
-176.6238443568857
 30
0.0
 10
96.77979462641269
 20
-176.4395317484249
 30
0.0
 10
96.70365801618869
 20
-176.2362711147951
 30
0.0
 10
96.70365801618869
 20
-175.9441270176459
 30
0.0
 10
96.70365801618869
 20
-175.5376057503864
 30
0.0
 10
96.97048066152127
 20
-174.9343695309192
 30
0.0
 10
98.0375989880774
 20
-174.9343695309192
 30
0.0
 10
98.0375989880774
 20
-174.9343695309192
 30
0.0
 10
99.84782441080191
 20
-174.9343695309192
 30
0.0
 10
99.84782441080191
 20
-174.9343695309192
 30
0.0
 10
99.84782441080191
 20
-174.9343695309192
 30
0.0
 10
99.84782441080191
 20
-175.4804171653313
 30
0.0
 10
99.84782441080191
 20
-175.4804171653313
 30
0.0
 10
99.84782441080191
 20
-175.4804171653313
 30
0.0
 10
98.1073621716537
 20
-175.4804171653313
 30
0.0
 10
98.1073621716537
 20
-175.4804171653313
 30
0.0
 10
97.51670055070764
 20
-175.4804171653313
 30
0.0
 10
97.16099444185561
 20
-175.6964246522565
 30
0.0
 10
97.16099444185561
 20
-176.1473876512756
 30
0.0
 10
97.16099444185561
 20
-176.4650254550157
 30
0.0
 10
97.39594995394963
 20
-176.7127278204051
 30
0.0
 10
97.66914602592994
 20
-176.8081569653466
 30
0.0
 10
97.74528263615394
 20
-176.8336506719374
 30
0.0
 10
97.84691295296886
 20
-176.8525986971063
 30
0.0
 10
97.94854326978372
 20
-176.8525986971063
 30
0.0
 10
97.94854326978372
 20
-176.8525986971063
 30
0.0
 10
99.84782441080191
 20
-176.8525986971063
 30
0.0
 10
99.84782441080191
 20
-176.8525986971063
 30
0.0
 10
99.84782441080191
 20
-176.8525986971063
 30
0.0
 10
99.84782441080191
 20
-177.3989908410669
 30
0.0
 10
99.84782441080191
 20
-177.3989908410669
 30
0.0
 10
99.84782441080191
 20
-177.3989908410669
 30
0.0
 10
98.00573185483884
 20
-177.3989908410669
 30
0.0
 10
98.00573185483884
 20
-177.3989908410669
 30
0.0
 10
97.51670055070764
 20
-177.3989908410669
 30
0.0
 10
97.16099444185561
 20
-177.6146538184436
 30
0.0
 10
97.16099444185561
 20
-178.0404676204205
 30
0.0
 10
97.16099444185561
 20
-178.3898003026248
 30
0.0
 10
97.44039168570935
 20
-178.6437038398877
 30
0.0
 10
97.71996118433737
 20
-178.7325873034071
 30
0.0
 10
97.80247122120909
 20
-178.7646266914199
 30
0.0
 10
97.89772811137629
 20
-178.7770290351669
 30
0.0
 10
97.99315725631769
 20
-178.7770290351669
 30
0.0
 10
97.99315725631769
 20
-178.7770290351669
 30
0.0
 10
99.84782441080191
 20
-178.7770290351669
 30
0.0
 10
99.84782441080191
 20
-178.7770290351669
 30
0.0
 10
99.84782441080191
 20
-178.7770290351669
 30
0.0
 10
99.84782441080191
 20
-179.3234211791275
 30
0.0
 10
99.84782441080191
 20
-179.3234211791275
 30
0.0
 10
99.84782441080191
 20
-179.3234211791275
 30
0.0
 10
97.60558401422709
 20
-179.3234211791275
 30
0.0
 10
97.60558401422709
 20
-179.3234211791275
 30
0.0
  0
HATCH
  5
2A3
330
28E
100
AcDbEntity
  8
Livello 1
 62
   250
420
  1842203
100
AcDbHatch
 10
0.0
 20
0.0
 30
0.0
210
0.0
220
0.0
230
1.0
  2
SOLID
 70
     1
 71
     0
 91
        1
 92
        1
 93
        1
 72
     4
 94
        3
 73
     0
 74
     0
 95
       80
 96
       76
 40
0.0
 40
0.0
 40
0.0
 40
0.0
 40
1.0
 40
1.0
 40
1.0
 40
2.0
 40
2.0
 40
2.0
 40
3.0
 40
3.0
 40
3.0
 40
4.0
 40
4.0
 40
4.0
 40
5.0
 40
5.0
 40
5.0
 40
6.0
 40
6.0
 40
6.0
 40
7.0
 40
7.0
 40
7.0
 40
8.0
 40
8.0
 40
8.0
 40
9.0
 40
9.0
 40
9.0
 40
10.0
 40
10.0
 40
10.0
 40
11.0
 40
11.0
 40
11.0
 40
12.0
 40
12.0
 40
12.0
 40
13.0
 40
13.0
 40
13.0
 40
14.0
 40
14.0
 40
14.0
 40
15.0
 40
15.0
 40
15.0
 40
16.0
 40
16.0
 40
16.0
 40
17.0
 40
17.0
 40
17.0
 40
18.0
 40
18.0
 40
18.0
 40
19.0
 40
19.0
 40
19.0
 40
20.0
 40
20.0
 40
20.0
 40
21.0
 40
21.0
 40
21.0
 40
22.0
 40
22.0
 40
22.0
 40
23.0
 40
23.0
 40
23.0
 40
24.0
 40
24.0
 40
24.0
 40
25.0
 40
25.0
 40
25.0
 40
25.0
 10
97.60558401422709
 20
-179.3234211791275
 10
97.28794621048704
 20
-179.3234211791275
 10
97.02749699180216
 20
-179.3296223510009
 10
96.77359345453924
 20
-179.3489148857183
 10
96.77359345453924
 20
-179.3489148857183
 10
96.77359345453924
 20
-178.8597113268129
 10
96.77359345453924
 20
-178.8597113268129
 10
96.77359345453924
 20
-178.8597113268129
 10
97.26899818531817
 20
-178.834217620222
 10
97.26899818531817
 20
-178.834217620222
 10
97.26899818531817
 20
-178.834217620222
 10
97.26899818531817
 20
-178.8152695950531
 10
97.26899818531817
 20
-178.8152695950531
 10
96.97685408816901
 20
-178.6437038398877
 10
96.70365801618869
 20
-178.3581054241605
 10
96.70365801618869
 20
-177.8499538400861
 10
96.70365801618869
 20
-177.4306857195312
 10
96.95773380822584
 20
-177.1130479157912
 10
97.31981334372559
 20
-176.979722720512
 10
97.31981334372559
 20
-176.979722720512
 10
97.31981334372559
 20
-176.9669758672166
 10
97.31981334372559
 20
-176.9669758672166
 10
97.14824758856018
 20
-176.8715467222752
 10
97.014922393281
 20
-176.7509683802914
 10
96.91966550311384
 20
-176.6238443568857
 10
96.77979462641269
 20
-176.4395317484249
 10
96.70365801618869
 20
-176.2362711147951
 10
96.70365801618869
 20
-175.9441270176459
 10
96.70365801618869
 20
-175.5376057503864
 10
96.97048066152127
 20
-174.9343695309192
 10
98.0375989880774
 20
-174.9343695309192
 10
98.0375989880774
 20
-174.9343695309192
 10
99.84782441080191
 20
-174.9343695309192
 10
99.84782441080191
 20
-174.9343695309192
 10
99.84782441080191
 20
-174.9343695309192
 10
99.84782441080191
 20
-175.4804171653313
 10
99.84782441080191
 20
-175.4804171653313
 10
99.84782441080191
 20
-175.4804171653313
 10
98.1073621716537
 20
-175.4804171653313
 10
98.1073621716537
 20
-175.4804171653313
 10
97.51670055070764
 20
-175.4804171653313
 10
97.16099444185561
 20
-175.6964246522565
 10
97.16099444185561
 20
-176.1473876512756
 10
97.16099444185561
 20
-176.4650254550157
 10
97.39594995394963
 20
-176.7127278204051
 10
97.66914602592994
 20
-176.8081569653466
 10
97.74528263615394
 20
-176.8336506719374
 10
97.84691295296886
 20
-176.8525986971063
 10
97.94854326978372
 20
-176.8525986971063
 10
97.94854326978372
 20
-176.8525986971063
 10
99.84782441080191
 20
-176.8525986971063
 10
99.84782441080191
 20
-176.8525986971063
 10
99.84782441080191
 20
-176.8525986971063
 10
99.84782441080191
 20
-177.3989908410669
 10
99.84782441080191
 20
-177.3989908410669
 10
99.84782441080191
 20
-177.3989908410669
 10
98.00573185483884
 20
-177.3989908410669
 10
98.00573185483884
 20
-177.3989908410669
 10
97.51670055070764
 20
-177.3989908410669
 10
97.16099444185561
 20
-177.6146538184436
 10
97.16099444185561
 20
-178.0404676204205
 10
97.16099444185561
 20
-178.3898003026248
 10
97.44039168570935
 20
-178.6437038398877
 10
97.71996118433737
 20
-178.7325873034071
 10
97.80247122120909
 20
-178.7646266914199
 10
97.89772811137629
 20
-178.7770290351669
 10
97.99315725631769
 20
-178.7770290351669
 10
97.99315725631769
 20
-178.7770290351669
 10
99.84782441080191
 20
-178.7770290351669
 10
99.84782441080191
 20
-178.7770290351669
 10
99.84782441080191
 20
-178.7770290351669
 10
99.84782441080191
 20
-179.3234211791275
 10
99.84782441080191
 20
-179.3234211791275
 10
99.84782441080191
 20
-179.3234211791275
 10
97.60558401422709
 20
-179.3234211791275
 10
97.60558401422709
 20
-179.3234211791275
 97
        0
 97
        0
 75
     2
 76
     1
 98
        0
450
        0
451
        0
460
0.0
461
0.0
452
        0
462
0.0
453
        0
470

  0
ENDBLK
  5
2A4
330
28E
100
AcDbEntity
  8
0
100
AcDbBlockEnd
  0
BLOCK
  5
2A6
330
2A5
100
AcDbEntity
  8
0
100
AcDbBlockBegin
  2
block 93
 70
     0
 10
0.0
 20
0.0
 30
0.0
  3
block 93
  1

  0
POLYLINE
  5
2A7
330
2A5
100
AcDbEntity
  8
Livello 1
370
     0
100
AcDb2dPolyline
 66
     1
 10
0.0
 20
0.0
 30
0.0
  0
VERTEX
  5
2A8
330
2A7
100
AcDbEntity
  8
Livello 1
370
     0
100
AcDbVertex
100
AcDb2dVertex
 10
110.0397948943651
 20
-201.3231119288359
 30
0.0
  0
VERTEX
  5
2A9
330
2A7
100
AcDbEntity
  8
Livello 1
370
     0
100
AcDbVertex
100
AcDb2dVertex
 10
110.0270480410696
 20
-201.3231119288359
 30
0.0
  0
VERTEX
  5
2AA
330
2A7
100
AcDbEntity
  8
Livello 1
370
     0
100
AcDbVertex
100
AcDb2dVertex
 10
109.3094346514921
 20
-201.710340661378
 30
0.0
  0
VERTEX
  5
2AB
330
2A7
100
AcDbEntity
  8
Livello 1
370
     0
100
AcDbVertex
100
AcDb2dVertex
 10
109.2016031628038
 20
-201.2848713689496
 30
0.0
  0
VERTEX
  5
2AC
330
2A7
100
AcDbEntity
  8
Livello 1
370
     0
100
AcDbVertex
100
AcDb2dVertex
 10
110.1035291608422
 20
-200.8022134914661
 30
0.0
  0
VERTEX
  5
2AD
330
2A7
100
AcDbEntity
  8
Livello 1
370
     0
100
AcDbVertex
100
AcDb2dVertex
 10
110.5796413569037
 20
-200.8022134914661
 30
0.0
  0
VERTEX
  5
2AE
330
2A7
100
AcDbEntity
  8
Livello 1
370
     0
100
AcDbVertex
100
AcDb2dVertex
 10
110.5796413569037
 20
-204.9308159209895
 30
0.0
  0
VERTEX
  5
2AF
330
2A7
100
AcDbEntity
  8
Livello 1
370
     0
100
AcDbVertex
100
AcDb2dVertex
 10
110.0397948943651
 20
-204.9308159209895
 30
0.0
  0
VERTEX
  5
2B0
330
2A7
100
AcDbEntity
  8
Livello 1
370
     0
100
AcDbVertex
100
AcDb2dVertex
 10
110.0397948943651
 20
-201.3231119288359
 30
0.0
  0
SEQEND
  5
2B1
330
2A7
100
AcDbEntity
  8
Livello 1
370
     0
  0
HATCH
  5
2B2
330
2A5
100
AcDbEntity
  8
Livello 1
 62
   250
420
  1842203
100
AcDbHatch
 10
0.0
 20
0.0
 30
0.0
210
0.0
220
0.0
230
1.0
  2
SOLID
 70
     1
 71
     0
 91
        1
 92
        1
 93
        8
 72
     1
 10
110.0397948943651
 20
-201.3231119288359
 11
110.0270480410696
 21
-201.3231119288359
 72
     1
 10
110.0270480410696
 20
-201.3231119288359
 11
109.3094346514921
 21
-201.710340661378
 72
     1
 10
109.3094346514921
 20
-201.710340661378
 11
109.2016031628038
 21
-201.2848713689496
 72
     1
 10
109.2016031628038
 20
-201.2848713689496
 11
110.1035291608422
 21
-200.8022134914661
 72
     1
 10
110.1035291608422
 20
-200.8022134914661
 11
110.5796413569037
 21
-200.8022134914661
 72
     1
 10
110.5796413569037
 20
-200.8022134914661
 11
110.5796413569037
 21
-204.9308159209895
 72
     1
 10
110.5796413569037
 20
-204.9308159209895
 11
110.0397948943651
 21
-204.9308159209895
 72
     1
 10
110.0397948943651
 20
-204.9308159209895
 11
110.0397948943651
 21
-201.3231119288359
 97
        0
 75
     2
 76
     1
 98
        0
450
        0
451
        0
460
0.0
461
0.0
452
        0
462
0.0
453
        0
470

  0
SPLINE
  5
2B3
330
2A5
100
AcDbEntity
  8
Livello 1
370
     0
100
AcDbSpline
210
0.0
220
0.0
230
1.0
 70
     9
 71
     3
 72
    38
 73
    34
 74
     0
 42
0.000000001
 43
0.0000000001
 40
0.0
 40
0.0
 40
0.0
 40
0.0
 40
1.0
 40
1.0
 40
1.0
 40
2.0
 40
2.0
 40
2.0
 40
3.0
 40
3.0
 40
3.0
 40
4.0
 40
4.0
 40
4.0
 40
5.0
 40
5.0
 40
5.0
 40
6.0
 40
6.0
 40
6.0
 40
7.0
 40
7.0
 40
7.0
 40
8.0
 40
8.0
 40
8.0
 40
9.0
 40
9.0
 40
9.0
 40
10.0
 40
10.0
 40
10.0
 40
11.0
 40
11.0
 40
11.0
 40
11.0
 10
114.4405598672232
 20
-201.1959879054302
 30
0.0
 10
114.3261826971129
 20
-201.1897867335567
 30
0.0
 10
114.1801106485383
 20
-201.1959879054302
 30
0.0
 10
114.0212917466683
 20
-201.221481612021
 30
0.0
 10
113.1448594552207
 20
-201.3675536605956
 30
0.0
 10
112.6811496029061
 20
-202.0090304399491
 30
0.0
 10
112.5857204579647
 20
-202.6887477791889
 30
0.0
 10
112.5857204579647
 20
-202.6887477791889
 30
0.0
 10
112.6050129926821
 20
-202.6887477791889
 30
0.0
 10
112.6050129926821
 20
-202.6887477791889
 30
0.0
 10
112.8017279448898
 20
-202.428298560504
 30
0.0
 10
113.1448594552207
 20
-202.2122910735789
 30
0.0
 10
113.6020236261134
 20
-202.2122910735789
 30
0.0
 10
114.3327283785349
 20
-202.2122910735789
 30
0.0
 10
114.8470811344827
 20
-202.739390682822
 30
0.0
 10
114.8470811344827
 20
-203.5462320454676
 30
0.0
 10
114.8470811344827
 20
-204.3020859949314
 30
0.0
 10
114.3327283785349
 20
-205.0007513593401
 30
0.0
 10
113.4748996027077
 20
-205.0007513593401
 30
0.0
 10
112.5922661393867
 20
-205.0007513593401
 30
0.0
 10
112.0141791169617
 20
-204.3148328482268
 30
0.0
 10
112.0141791169617
 20
-203.241341095023
 30
0.0
 10
112.0141791169617
 20
-202.428298560504
 30
0.0
 10
112.3063232141109
 20
-201.7868217811505
 30
0.0
 10
112.7128444813704
 20
-201.3803005138911
 30
0.0
 10
113.0559759917013
 20
-201.0437146849821
 30
0.0
 10
113.5131401625939
 20
-200.8339083699304
 30
0.0
 10
114.0340385999637
 20
-200.7705186130018
 30
0.0
 10
114.1990586737072
 20
-200.745024906411
 30
0.0
 10
114.3389295504083
 20
-200.7388237345375
 30
0.0
 10
114.4405598672232
 20
-200.7388237345375
 30
0.0
 10
114.4405598672232
 20
-200.7388237345375
 30
0.0
 10
114.4405598672232
 20
-201.1959879054302
 30
0.0
 10
114.4405598672232
 20
-201.1959879054302
 30
0.0
  0
SPLINE
  5
2B4
330
2A5
100
AcDbEntity
  8
Livello 1
370
     0
100
AcDbSpline
210
0.0
220
0.0
230
1.0
 70
    11
 71
     3
 72
    20
 73
    16
 74
     0
 42
0.000000001
 43
0.0000000001
 40
0.0
 40
0.0
 40
0.0
 40
0.0
 40
1.0
 40
1.0
 40
1.0
 40
2.0
 40
2.0
 40
2.0
 40
3.0
 40
3.0
 40
3.0
 40
4.0
 40
4.0
 40
4.0
 40
5.0
 40
5.0
 40
5.0
 40
5.0
 10
114.2817409653532
 20
-203.5779269239319
 30
0.0
 10
114.2817409653532
 20
-202.9870930482116
 30
0.0
 10
113.9451551364443
 20
-202.6315591941338
 30
0.0
 10
113.4304578709479
 20
-202.6315591941338
 30
0.0
 10
113.093872042039
 20
-202.6315591941338
 30
0.0
 10
112.782779919721
 20
-202.841020999637
 30
0.0
 10
112.6301621897244
 20
-203.1397107782081
 30
0.0
 10
112.5922661393867
 20
-203.2031005351367
 30
0.0
 10
112.5667724327958
 20
-203.2857828267827
 30
0.0
 10
112.5667724327958
 20
-203.3874131435976
 30
0.0
 10
112.5795192860912
 20
-204.0671304828374
 30
0.0
 10
112.8906114084093
 20
-204.5687363854898
 30
0.0
 10
113.4748996027077
 20
-204.5687363854898
 30
0.0
 10
113.9579019897397
 20
-204.5687363854898
 30
0.0
 10
114.2817409653532
 20
-204.1687607996523
 30
0.0
 10
114.2817409653532
 20
-203.5779269239319
 30
0.0
  0
HATCH
  5
2B5
330
2A5
100
AcDbEntity
  8
Livello 1
 62
   250
420
  1842203
100
AcDbHatch
 10
0.0
 20
0.0
 30
0.0
210
0.0
220
0.0
230
1.0
  2
SOLID
 70
     1
 71
     0
 91
        2
 92
        1
 93
        1
 72
     4
 94
        3
 73
     0
 74
     0
 95
       38
 96
       34
 40
0.0
 40
0.0
 40
0.0
 40
0.0
 40
1.0
 40
1.0
 40
1.0
 40
2.0
 40
2.0
 40
2.0
 40
3.0
 40
3.0
 40
3.0
 40
4.0
 40
4.0
 40
4.0
 40
5.0
 40
5.0
 40
5.0
 40
6.0
 40
6.0
 40
6.0
 40
7.0
 40
7.0
 40
7.0
 40
8.0
 40
8.0
 40
8.0
 40
9.0
 40
9.0
 40
9.0
 40
10.0
 40
10.0
 40
10.0
 40
11.0
 40
11.0
 40
11.0
 40
11.0
 10
114.4405598672232
 20
-201.1959879054302
 10
114.3261826971129
 20
-201.1897867335567
 10
114.1801106485383
 20
-201.1959879054302
 10
114.0212917466683
 20
-201.221481612021
 10
113.1448594552207
 20
-201.3675536605956
 10
112.6811496029061
 20
-202.0090304399491
 10
112.5857204579647
 20
-202.6887477791889
 10
112.5857204579647
 20
-202.6887477791889
 10
112.6050129926821
 20
-202.6887477791889
 10
112.6050129926821
 20
-202.6887477791889
 10
112.8017279448898
 20
-202.428298560504
 10
113.1448594552207
 20
-202.2122910735789
 10
113.6020236261134
 20
-202.2122910735789
 10
114.3327283785349
 20
-202.2122910735789
 10
114.8470811344827
 20
-202.739390682822
 10
114.8470811344827
 20
-203.5462320454676
 10
114.8470811344827
 20
-204.3020859949314
 10
114.3327283785349
 20
-205.0007513593401
 10
113.4748996027077
 20
-205.0007513593401
 10
112.5922661393867
 20
-205.0007513593401
 10
112.0141791169617
 20
-204.3148328482268
 10
112.0141791169617
 20
-203.241341095023
 10
112.0141791169617
 20
-202.428298560504
 10
112.3063232141109
 20
-201.7868217811505
 10
112.7128444813704
 20
-201.3803005138911
 10
113.0559759917013
 20
-201.0437146849821
 10
113.5131401625939
 20
-200.8339083699304
 10
114.0340385999637
 20
-200.7705186130018
 10
114.1990586737072
 20
-200.745024906411
 10
114.3389295504083
 20
-200.7388237345375
 10
114.4405598672232
 20
-200.7388237345375
 10
114.4405598672232
 20
-200.7388237345375
 10
114.4405598672232
 20
-201.1959879054302
 10
114.4405598672232
 20
-201.1959879054302
 97
        0
 97
        0
 92
        1
 93
        1
 72
     4
 94
        3
 73
     0
 74
     0
 95
       20
 96
       16
 40
0.0
 40
0.0
 40
0.0
 40
0.0
 40
1.0
 40
1.0
 40
1.0
 40
2.0
 40
2.0
 40
2.0
 40
3.0
 40
3.0
 40
3.0
 40
4.0
 40
4.0
 40
4.0
 40
5.0
 40
5.0
 40
5.0
 40
5.0
 10
114.2817409653532
 20
-203.5779269239319
 10
114.2817409653532
 20
-202.9870930482116
 10
113.9451551364443
 20
-202.6315591941338
 10
113.4304578709479
 20
-202.6315591941338
 10
113.093872042039
 20
-202.6315591941338
 10
112.782779919721
 20
-202.841020999637
 10
112.6301621897244
 20
-203.1397107782081
 10
112.5922661393867
 20
-203.2031005351367
 10
112.5667724327958
 20
-203.2857828267827
 10
112.5667724327958
 20
-203.3874131435976
 10
112.5795192860912
 20
-204.0671304828374
 10
112.8906114084093
 20
-204.5687363854898
 10
113.4748996027077
 20
-204.5687363854898
 10
113.9579019897397
 20
-204.5687363854898
 10
114.2817409653532
 20
-204.1687607996523
 10
114.2817409653532
 20
-203.5779269239319
 97
        0
 97
        0
 75
     2
 76
     1
 98
        0
450
        0
451
        0
460
0.0
461
0.0
452
        0
462
0.0
453
        0
470

  0
SPLINE
  5
2B6
330
2A5
100
AcDbEntity
  8
Livello 1
370
     0
100
AcDbSpline
210
0.0
220
0.0
230
1.0
 70
     9
 71
     3
 72
    80
 73
    76
 74
     0
 42
0.000000001
 43
0.0000000001
 40
0.0
 40
0.0
 40
0.0
 40
0.0
 40
1.0
 40
1.0
 40
1.0
 40
2.0
 40
2.0
 40
2.0
 40
3.0
 40
3.0
 40
3.0
 40
4.0
 40
4.0
 40
4.0
 40
5.0
 40
5.0
 40
5.0
 40
6.0
 40
6.0
 40
6.0
 40
7.0
 40
7.0
 40
7.0
 40
8.0
 40
8.0
 40
8.0
 40
9.0
 40
9.0
 40
9.0
 40
10.0
 40
10.0
 40
10.0
 40
11.0
 40
11.0
 40
11.0
 40
12.0
 40
12.0
 40
12.0
 40
13.0
 40
13.0
 40
13.0
 40
14.0
 40
14.0
 40
14.0
 40
15.0
 40
15.0
 40
15.0
 40
16.0
 40
16.0
 40
16.0
 40
17.0
 40
17.0
 40
17.0
 40
18.0
 40
18.0
 40
18.0
 40
19.0
 40
19.0
 40
19.0
 40
20.0
 40
20.0
 40
20.0
 40
21.0
 40
21.0
 40
21.0
 40
22.0
 40
22.0
 40
22.0
 40
23.0
 40
23.0
 40
23.0
 40
24.0
 40
24.0
 40
24.0
 40
25.0
 40
25.0
 40
25.0
 40
25.0
 10
116.8655625792906
 20
-202.6887477791889
 30
0.0
 10
116.8655625792906
 20
-202.3711099754489
 30
0.0
 10
116.8593614074171
 20
-202.110660756764
 30
0.0
 10
116.8400688726997
 20
-201.8567572195011
 30
0.0
 10
116.8400688726997
 20
-201.8567572195011
 30
0.0
 10
117.3292724316052
 20
-201.8567572195011
 30
0.0
 10
117.3292724316052
 20
-201.8567572195011
 30
0.0
 10
117.3292724316052
 20
-201.8567572195011
 30
0.0
 10
117.354766138196
 20
-202.35216195028
 30
0.0
 10
117.354766138196
 20
-202.35216195028
 30
0.0
 10
117.354766138196
 20
-202.35216195028
 30
0.0
 10
117.3737141633649
 20
-202.35216195028
 30
0.0
 10
117.3737141633649
 20
-202.35216195028
 30
0.0
 10
117.5452799185304
 20
-202.0600178531308
 30
0.0
 10
117.8308783342576
 20
-201.7868217811505
 30
0.0
 10
118.3390299183319
 20
-201.7868217811505
 30
0.0
 10
118.7582980388868
 20
-201.7868217811505
 30
0.0
 10
119.0759358426268
 20
-202.0407253184135
 30
0.0
 10
119.209261037906
 20
-202.4028048539132
 30
0.0
 10
119.209261037906
 20
-202.4028048539132
 30
0.0
 10
119.2220078912014
 20
-202.4028048539132
 30
0.0
 10
119.2220078912014
 20
-202.4028048539132
 30
0.0
 10
119.3174370361429
 20
-202.2312390987476
 30
0.0
 10
119.4380153781266
 20
-202.0979139034686
 30
0.0
 10
119.5651394015323
 20
-202.0028292680757
 30
0.0
 10
119.7494520099932
 20
-201.8629583913745
 30
0.0
 10
119.9527126436229
 20
-201.7868217811505
 30
0.0
 10
120.2448567407721
 20
-201.7868217811505
 30
0.0
 10
120.6513780080316
 20
-201.7868217811505
 30
0.0
 10
121.2546142274988
 20
-202.0534721717089
 30
0.0
 10
121.2546142274988
 20
-203.1207627530393
 30
0.0
 10
121.2546142274988
 20
-203.1207627530393
 30
0.0
 10
121.2546142274988
 20
-204.9308159209895
 30
0.0
 10
121.2546142274988
 20
-204.9308159209895
 30
0.0
 10
121.2546142274988
 20
-204.9308159209895
 30
0.0
 10
120.7085665930868
 20
-204.9308159209895
 30
0.0
 10
120.7085665930868
 20
-204.9308159209895
 30
0.0
 10
120.7085665930868
 20
-204.9308159209895
 30
0.0
 10
120.7085665930868
 20
-203.1903536818413
 30
0.0
 10
120.7085665930868
 20
-203.1903536818413
 30
0.0
 10
120.7085665930868
 20
-202.5998643156695
 30
0.0
 10
120.4925591061616
 20
-202.2439859520432
 30
0.0
 10
120.0415961071424
 20
-202.2439859520432
 30
0.0
 10
119.7239583034024
 20
-202.2439859520432
 30
0.0
 10
119.4762559380129
 20
-202.4789414641372
 30
0.0
 10
119.3808267930715
 20
-202.7521375361175
 30
0.0
 10
119.3553330864806
 20
-202.8282741463416
 30
0.0
 10
119.3363850613117
 20
-202.9299044631564
 30
0.0
 10
119.3363850613117
 20
-203.0315347799713
 30
0.0
 10
119.3363850613117
 20
-203.0315347799713
 30
0.0
 10
119.3363850613117
 20
-204.9308159209895
 30
0.0
 10
119.3363850613117
 20
-204.9308159209895
 30
0.0
 10
119.3363850613117
 20
-204.9308159209895
 30
0.0
 10
118.7899929173511
 20
-204.9308159209895
 30
0.0
 10
118.7899929173511
 20
-204.9308159209895
 30
0.0
 10
118.7899929173511
 20
-204.9308159209895
 30
0.0
 10
118.7899929173511
 20
-203.0887233650265
 30
0.0
 10
118.7899929173511
 20
-203.0887233650265
 30
0.0
 10
118.7899929173511
 20
-202.5998643156695
 30
0.0
 10
118.5743299399745
 20
-202.2439859520432
 30
0.0
 10
118.1485161379976
 20
-202.2439859520432
 30
0.0
 10
117.7991834557933
 20
-202.2439859520432
 30
0.0
 10
117.5452799185304
 20
-202.5233831958969
 30
0.0
 10
117.4563964550109
 20
-202.8031249492992
 30
0.0
 10
117.4243570669981
 20
-202.8854627313967
 30
0.0
 10
117.4119547232512
 20
-202.9808918763381
 30
0.0
 10
117.4119547232512
 20
-203.0763210212795
 30
0.0
 10
117.4119547232512
 20
-203.0763210212795
 30
0.0
 10
117.4119547232512
 20
-204.9308159209895
 30
0.0
 10
117.4119547232512
 20
-204.9308159209895
 30
0.0
 10
117.4119547232512
 20
-204.9308159209895
 30
0.0
 10
116.8655625792906
 20
-204.9308159209895
 30
0.0
 10
116.8655625792906
 20
-204.9308159209895
 30
0.0
 10
116.8655625792906
 20
-204.9308159209895
 30
0.0
 10
116.8655625792906
 20
-202.6887477791889
 30
0.0
 10
116.8655625792906
 20
-202.6887477791889
 30
0.0
  0
HATCH
  5
2B7
330
2A5
100
AcDbEntity
  8
Livello 1
 62
   250
420
  1842203
100
AcDbHatch
 10
0.0
 20
0.0
 30
0.0
210
0.0
220
0.0
230
1.0
  2
SOLID
 70
     1
 71
     0
 91
        1
 92
        1
 93
        1
 72
     4
 94
        3
 73
     0
 74
     0
 95
       80
 96
       76
 40
0.0
 40
0.0
 40
0.0
 40
0.0
 40
1.0
 40
1.0
 40
1.0
 40
2.0
 40
2.0
 40
2.0
 40
3.0
 40
3.0
 40
3.0
 40
4.0
 40
4.0
 40
4.0
 40
5.0
 40
5.0
 40
5.0
 40
6.0
 40
6.0
 40
6.0
 40
7.0
 40
7.0
 40
7.0
 40
8.0
 40
8.0
 40
8.0
 40
9.0
 40
9.0
 40
9.0
 40
10.0
 40
10.0
 40
10.0
 40
11.0
 40
11.0
 40
11.0
 40
12.0
 40
12.0
 40
12.0
 40
13.0
 40
13.0
 40
13.0
 40
14.0
 40
14.0
 40
14.0
 40
15.0
 40
15.0
 40
15.0
 40
16.0
 40
16.0
 40
16.0
 40
17.0
 40
17.0
 40
17.0
 40
18.0
 40
18.0
 40
18.0
 40
19.0
 40
19.0
 40
19.0
 40
20.0
 40
20.0
 40
20.0
 40
21.0
 40
21.0
 40
21.0
 40
22.0
 40
22.0
 40
22.0
 40
23.0
 40
23.0
 40
23.0
 40
24.0
 40
24.0
 40
24.0
 40
25.0
 40
25.0
 40
25.0
 40
25.0
 10
116.8655625792906
 20
-202.6887477791889
 10
116.8655625792906
 20
-202.3711099754489
 10
116.8593614074171
 20
-202.110660756764
 10
116.8400688726997
 20
-201.8567572195011
 10
116.8400688726997
 20
-201.8567572195011
 10
117.3292724316052
 20
-201.8567572195011
 10
117.3292724316052
 20
-201.8567572195011
 10
117.3292724316052
 20
-201.8567572195011
 10
117.354766138196
 20
-202.35216195028
 10
117.354766138196
 20
-202.35216195028
 10
117.354766138196
 20
-202.35216195028
 10
117.3737141633649
 20
-202.35216195028
 10
117.3737141633649
 20
-202.35216195028
 10
117.5452799185304
 20
-202.0600178531308
 10
117.8308783342576
 20
-201.7868217811505
 10
118.3390299183319
 20
-201.7868217811505
 10
118.7582980388868
 20
-201.7868217811505
 10
119.0759358426268
 20
-202.0407253184135
 10
119.209261037906
 20
-202.4028048539132
 10
119.209261037906
 20
-202.4028048539132
 10
119.2220078912014
 20
-202.4028048539132
 10
119.2220078912014
 20
-202.4028048539132
 10
119.3174370361429
 20
-202.2312390987476
 10
119.4380153781266
 20
-202.0979139034686
 10
119.5651394015323
 20
-202.0028292680757
 10
119.7494520099932
 20
-201.8629583913745
 10
119.9527126436229
 20
-201.7868217811505
 10
120.2448567407721
 20
-201.7868217811505
 10
120.6513780080316
 20
-201.7868217811505
 10
121.2546142274988
 20
-202.0534721717089
 10
121.2546142274988
 20
-203.1207627530393
 10
121.2546142274988
 20
-203.1207627530393
 10
121.2546142274988
 20
-204.9308159209895
 10
121.2546142274988
 20
-204.9308159209895
 10
121.2546142274988
 20
-204.9308159209895
 10
120.7085665930868
 20
-204.9308159209895
 10
120.7085665930868
 20
-204.9308159209895
 10
120.7085665930868
 20
-204.9308159209895
 10
120.7085665930868
 20
-203.1903536818413
 10
120.7085665930868
 20
-203.1903536818413
 10
120.7085665930868
 20
-202.5998643156695
 10
120.4925591061616
 20
-202.2439859520432
 10
120.0415961071424
 20
-202.2439859520432
 10
119.7239583034024
 20
-202.2439859520432
 10
119.4762559380129
 20
-202.4789414641372
 10
119.3808267930715
 20
-202.7521375361175
 10
119.3553330864806
 20
-202.8282741463416
 10
119.3363850613117
 20
-202.9299044631564
 10
119.3363850613117
 20
-203.0315347799713
 10
119.3363850613117
 20
-203.0315347799713
 10
119.3363850613117
 20
-204.9308159209895
 10
119.3363850613117
 20
-204.9308159209895
 10
119.3363850613117
 20
-204.9308159209895
 10
118.7899929173511
 20
-204.9308159209895
 10
118.7899929173511
 20
-204.9308159209895
 10
118.7899929173511
 20
-204.9308159209895
 10
118.7899929173511
 20
-203.0887233650265
 10
118.7899929173511
 20
-203.0887233650265
 10
118.7899929173511
 20
-202.5998643156695
 10
118.5743299399745
 20
-202.2439859520432
 10
118.1485161379976
 20
-202.2439859520432
 10
117.7991834557933
 20
-202.2439859520432
 10
117.5452799185304
 20
-202.5233831958969
 10
117.4563964550109
 20
-202.8031249492992
 10
117.4243570669981
 20
-202.8854627313967
 10
117.4119547232512
 20
-202.9808918763381
 10
117.4119547232512
 20
-203.0763210212795
 10
117.4119547232512
 20
-203.0763210212795
 10
117.4119547232512
 20
-204.9308159209895
 10
117.4119547232512
 20
-204.9308159209895
 10
117.4119547232512
 20
-204.9308159209895
 10
116.8655625792906
 20
-204.9308159209895
 10
116.8655625792906
 20
-204.9308159209895
 10
116.8655625792906
 20
-204.9308159209895
 10
116.8655625792906
 20
-202.6887477791889
 10
116.8655625792906
 20
-202.6887477791889
 97
        0
 97
        0
 75
     2
 76
     1
 98
        0
450
        0
451
        0
460
0.0
461
0.0
452
        0
462
0.0
453
        0
470

  0
SPLINE
  5
2B8
330
2A5
100
AcDbEntity
  8
Livello 1
370
     0
100
AcDbSpline
210
0.0
220
0.0
230
1.0
 70
     9
 71
     3
 72
    80
 73
    76
 74
     0
 42
0.000000001
 43
0.0000000001
 40
0.0
 40
0.0
 40
0.0
 40
0.0
 40
1.0
 40
1.0
 40
1.0
 40
2.0
 40
2.0
 40
2.0
 40
3.0
 40
3.0
 40
3.0
 40
4.0
 40
4.0
 40
4.0
 40
5.0
 40
5.0
 40
5.0
 40
6.0
 40
6.0
 40
6.0
 40
7.0
 40
7.0
 40
7.0
 40
8.0
 40
8.0
 40
8.0
 40
9.0
 40
9.0
 40
9.0
 40
10.0
 40
10.0
 40
10.0
 40
11.0
 40
11.0
 40
11.0
 40
12.0
 40
12.0
 40
12.0
 40
13.0
 40
13.0
 40
13.0
 40
14.0
 40
14.0
 40
14.0
 40
15.0
 40
15.0
 40
15.0
 40
16.0
 40
16.0
 40
16.0
 40
17.0
 40
17.0
 40
17.0
 40
18.0
 40
18.0
 40
18.0
 40
19.0
 40
19.0
 40
19.0
 40
20.0
 40
20.0
 40
20.0
 40
21.0
 40
21.0
 40
21.0
 40
22.0
 40
22.0
 40
22.0
 40
23.0
 40
23.0
 40
23.0
 40
24.0
 40
24.0
 40
24.0
 40
25.0
 40
25.0
 40
25.0
 40
25.0
 10
122.1613633592166
 20
-202.6887477791889
 30
0.0
 10
122.1613633592166
 20
-202.3711099754489
 30
0.0
 10
122.1551621873432
 20
-202.110660756764
 30
0.0
 10
122.1358696526258
 20
-201.8567572195011
 30
0.0
 10
122.1358696526258
 20
-201.8567572195011
 30
0.0
 10
122.6250732115312
 20
-201.8567572195011
 30
0.0
 10
122.6250732115312
 20
-201.8567572195011
 30
0.0
 10
122.6250732115312
 20
-201.8567572195011
 30
0.0
 10
122.6505669181221
 20
-202.35216195028
 30
0.0
 10
122.6505669181221
 20
-202.35216195028
 30
0.0
 10
122.6505669181221
 20
-202.35216195028
 30
0.0
 10
122.669514943291
 20
-202.35216195028
 30
0.0
 10
122.669514943291
 20
-202.35216195028
 30
0.0
 10
122.8410806984564
 20
-202.0600178531308
 30
0.0
 10
123.1266791141836
 20
-201.7868217811505
 30
0.0
 10
123.634830698258
 20
-201.7868217811505
 30
0.0
 10
124.0540988188129
 20
-201.7868217811505
 30
0.0
 10
124.3717366225529
 20
-202.0407253184135
 30
0.0
 10
124.5050618178321
 20
-202.4028048539132
 30
0.0
 10
124.5050618178321
 20
-202.4028048539132
 30
0.0
 10
124.5178086711275
 20
-202.4028048539132
 30
0.0
 10
124.5178086711275
 20
-202.4028048539132
 30
0.0
 10
124.6132378160689
 20
-202.2312390987476
 30
0.0
 10
124.7338161580527
 20
-202.0979139034686
 30
0.0
 10
124.8609401814584
 20
-202.0028292680757
 30
0.0
 10
125.0452527899192
 20
-201.8629583913745
 30
0.0
 10
125.248513423549
 20
-201.7868217811505
 30
0.0
 10
125.5406575206982
 20
-201.7868217811505
 30
0.0
 10
125.9471787879577
 20
-201.7868217811505
 30
0.0
 10
126.5504150074249
 20
-202.0534721717089
 30
0.0
 10
126.5504150074249
 20
-203.1207627530393
 30
0.0
 10
126.5504150074249
 20
-203.1207627530393
 30
0.0
 10
126.5504150074249
 20
-204.9308159209895
 30
0.0
 10
126.5504150074249
 20
-204.9308159209895
 30
0.0
 10
126.5504150074249
 20
-204.9308159209895
 30
0.0
 10
126.0043673730128
 20
-204.9308159209895
 30
0.0
 10
126.0043673730128
 20
-204.9308159209895
 30
0.0
 10
126.0043673730128
 20
-204.9308159209895
 30
0.0
 10
126.0043673730128
 20
-203.1903536818413
 30
0.0
 10
126.0043673730128
 20
-203.1903536818413
 30
0.0
 10
126.0043673730128
 20
-202.5998643156695
 30
0.0
 10
125.7883598860876
 20
-202.2439859520432
 30
0.0
 10
125.3373968870684
 20
-202.2439859520432
 30
0.0
 10
125.0197590833284
 20
-202.2439859520432
 30
0.0
 10
124.7720567179389
 20
-202.4789414641372
 30
0.0
 10
124.6766275729975
 20
-202.7521375361175
 30
0.0
 10
124.6511338664067
 20
-202.8282741463416
 30
0.0
 10
124.6321858412378
 20
-202.9299044631564
 30
0.0
 10
124.6321858412378
 20
-203.0315347799713
 30
0.0
 10
124.6321858412378
 20
-203.0315347799713
 30
0.0
 10
124.6321858412378
 20
-204.9308159209895
 30
0.0
 10
124.6321858412378
 20
-204.9308159209895
 30
0.0
 10
124.6321858412378
 20
-204.9308159209895
 30
0.0
 10
124.0857936972772
 20
-204.9308159209895
 30
0.0
 10
124.0857936972772
 20
-204.9308159209895
 30
0.0
 10
124.0857936972772
 20
-204.9308159209895
 30
0.0
 10
124.0857936972772
 20
-203.0887233650265
 30
0.0
 10
124.0857936972772
 20
-203.0887233650265
 30
0.0
 10
124.0857936972772
 20
-202.5998643156695
 30
0.0
 10
123.8701307199005
 20
-202.2439859520432
 30
0.0
 10
123.4443169179236
 20
-202.2439859520432
 30
0.0
 10
123.0949842357193
 20
-202.2439859520432
 30
0.0
 10
122.8410806984564
 20
-202.5233831958969
 30
0.0
 10
122.752197234937
 20
-202.8031249492992
 30
0.0
 10
122.7201578469241
 20
-202.8854627313967
 30
0.0
 10
122.7077555031772
 20
-202.9808918763381
 30
0.0
 10
122.7077555031772
 20
-203.0763210212795
 30
0.0
 10
122.7077555031772
 20
-203.0763210212795
 30
0.0
 10
122.7077555031772
 20
-204.9308159209895
 30
0.0
 10
122.7077555031772
 20
-204.9308159209895
 30
0.0
 10
122.7077555031772
 20
-204.9308159209895
 30
0.0
 10
122.1613633592166
 20
-204.9308159209895
 30
0.0
 10
122.1613633592166
 20
-204.9308159209895
 30
0.0
 10
122.1613633592166
 20
-204.9308159209895
 30
0.0
 10
122.1613633592166
 20
-202.6887477791889
 30
0.0
 10
122.1613633592166
 20
-202.6887477791889
 30
0.0
  0
HATCH
  5
2B9
330
2A5
100
AcDbEntity
  8
Livello 1
 62
   250
420
  1842203
100
AcDbHatch
 10
0.0
 20
0.0
 30
0.0
210
0.0
220
0.0
230
1.0
  2
SOLID
 70
     1
 71
     0
 91
        1
 92
        1
 93
        1
 72
     4
 94
        3
 73
     0
 74
     0
 95
       80
 96
       76
 40
0.0
 40
0.0
 40
0.0
 40
0.0
 40
1.0
 40
1.0
 40
1.0
 40
2.0
 40
2.0
 40
2.0
 40
3.0
 40
3.0
 40
3.0
 40
4.0
 40
4.0
 40
4.0
 40
5.0
 40
5.0
 40
5.0
 40
6.0
 40
6.0
 40
6.0
 40
7.0
 40
7.0
 40
7.0
 40
8.0
 40
8.0
 40
8.0
 40
9.0
 40
9.0
 40
9.0
 40
10.0
 40
10.0
 40
10.0
 40
11.0
 40
11.0
 40
11.0
 40
12.0
 40
12.0
 40
12.0
 40
13.0
 40
13.0
 40
13.0
 40
14.0
 40
14.0
 40
14.0
 40
15.0
 40
15.0
 40
15.0
 40
16.0
 40
16.0
 40
16.0
 40
17.0
 40
17.0
 40
17.0
 40
18.0
 40
18.0
 40
18.0
 40
19.0
 40
19.0
 40
19.0
 40
20.0
 40
20.0
 40
20.0
 40
21.0
 40
21.0
 40
21.0
 40
22.0
 40
22.0
 40
22.0
 40
23.0
 40
23.0
 40
23.0
 40
24.0
 40
24.0
 40
24.0
 40
25.0
 40
25.0
 40
25.0
 40
25.0
 10
122.1613633592166
 20
-202.6887477791889
 10
122.1613633592166
 20
-202.3711099754489
 10
122.1551621873432
 20
-202.110660756764
 10
122.1358696526258
 20
-201.8567572195011
 10
122.1358696526258
 20
-201.8567572195011
 10
122.6250732115312
 20
-201.8567572195011
 10
122.6250732115312
 20
-201.8567572195011
 10
122.6250732115312
 20
-201.8567572195011
 10
122.6505669181221
 20
-202.35216195028
 10
122.6505669181221
 20
-202.35216195028
 10
122.6505669181221
 20
-202.35216195028
 10
122.669514943291
 20
-202.35216195028
 10
122.669514943291
 20
-202.35216195028
 10
122.8410806984564
 20
-202.0600178531308
 10
123.1266791141836
 20
-201.7868217811505
 10
123.634830698258
 20
-201.7868217811505
 10
124.0540988188129
 20
-201.7868217811505
 10
124.3717366225529
 20
-202.0407253184135
 10
124.5050618178321
 20
-202.4028048539132
 10
124.5050618178321
 20
-202.4028048539132
 10
124.5178086711275
 20
-202.4028048539132
 10
124.5178086711275
 20
-202.4028048539132
 10
124.6132378160689
 20
-202.2312390987476
 10
124.7338161580527
 20
-202.0979139034686
 10
124.8609401814584
 20
-202.0028292680757
 10
125.0452527899192
 20
-201.8629583913745
 10
125.248513423549
 20
-201.7868217811505
 10
125.5406575206982
 20
-201.7868217811505
 10
125.9471787879577
 20
-201.7868217811505
 10
126.5504150074249
 20
-202.0534721717089
 10
126.5504150074249
 20
-203.1207627530393
 10
126.5504150074249
 20
-203.1207627530393
 10
126.5504150074249
 20
-204.9308159209895
 10
126.5504150074249
 20
-204.9308159209895
 10
126.5504150074249
 20
-204.9308159209895
 10
126.0043673730128
 20
-204.9308159209895
 10
126.0043673730128
 20
-204.9308159209895
 10
126.0043673730128
 20
-204.9308159209895
 10
126.0043673730128
 20
-203.1903536818413
 10
126.0043673730128
 20
-203.1903536818413
 10
126.0043673730128
 20
-202.5998643156695
 10
125.7883598860876
 20
-202.2439859520432
 10
125.3373968870684
 20
-202.2439859520432
 10
125.0197590833284
 20
-202.2439859520432
 10
124.7720567179389
 20
-202.4789414641372
 10
124.6766275729975
 20
-202.7521375361175
 10
124.6511338664067
 20
-202.8282741463416
 10
124.6321858412378
 20
-202.9299044631564
 10
124.6321858412378
 20
-203.0315347799713
 10
124.6321858412378
 20
-203.0315347799713
 10
124.6321858412378
 20
-204.9308159209895
 10
124.6321858412378
 20
-204.9308159209895
 10
124.6321858412378
 20
-204.9308159209895
 10
124.0857936972772
 20
-204.9308159209895
 10
124.0857936972772
 20
-204.9308159209895
 10
124.0857936972772
 20
-204.9308159209895
 10
124.0857936972772
 20
-203.0887233650265
 10
124.0857936972772
 20
-203.0887233650265
 10
124.0857936972772
 20
-202.5998643156695
 10
123.8701307199005
 20
-202.2439859520432
 10
123.4443169179236
 20
-202.2439859520432
 10
123.0949842357193
 20
-202.2439859520432
 10
122.8410806984564
 20
-202.5233831958969
 10
122.752197234937
 20
-202.8031249492992
 10
122.7201578469241
 20
-202.8854627313967
 10
122.7077555031772
 20
-202.9808918763381
 10
122.7077555031772
 20
-203.0763210212795
 10
122.7077555031772
 20
-203.0763210212795
 10
122.7077555031772
 20
-204.9308159209895
 10
122.7077555031772
 20
-204.9308159209895
 10
122.7077555031772
 20
-204.9308159209895
 10
122.1613633592166
 20
-204.9308159209895
 10
122.1613633592166
 20
-204.9308159209895
 10
122.1613633592166
 20
-204.9308159209895
 10
122.1613633592166
 20
-202.6887477791889
 10
122.1613633592166
 20
-202.6887477791889
 97
        0
 97
        0
 75
     2
 76
     1
 98
        0
450
        0
451
        0
460
0.0
461
0.0
452
        0
462
0.0
453
        0
470

  0
ENDBLK
  5
2BA
330
2A5
100
AcDbEntity
  8
0
100
AcDbBlockEnd
  0
ENDSEC
  0
SECTION
  2
ENTITIES
  0
POLYLINE
  5
2FF
330
1F
100
AcDbEntity
  8
Livello 1
100
AcDb2dPolyline
 66
     1
 10
0.0
 20
0.0
 30
0.0
  0
VERTEX
  5
300
330
2FF
100
AcDbEntity
  8
Livello 1
100
AcDbVertex
100
AcDb2dVertex
 10
66.92691206607533
 20
38.42514810289285
 30
0.0
  0
VERTEX
  5
301
330
2FF
100
AcDbEntity
  8
Livello 1
100
AcDbVertex
100
AcDb2dVertex
 10
63.97779575242464
 20
38.42514810289285
 30
0.0
  0
VERTEX
  5
302
330
2FF
100
AcDbEntity
  8
Livello 1
100
AcDbVertex
100
AcDb2dVertex
 10
63.97779575242464
 20
64.44035726305495
 30
0.0
  0
VERTEX
  5
303
330
2FF
100
AcDbEntity
  8
Livello 1
100
AcDbVertex
100
AcDb2dVertex
 10
65.60681765530933
 20
64.44035726305495
 30
0.0
  0
SEQEND
  5
304
330
2FF
100
AcDbEntity
  8
Livello 1
  0
POLYLINE
  5
305
330
1F
100
AcDbEntity
  8
Livello 1
100
AcDb2dPolyline
 66
     1
 10
0.0
 20
0.0
 30
0.0
  0
VERTEX
  5
306
330
305
100
AcDbEntity
  8
Livello 1
100
AcDbVertex
100
AcDb2dVertex
 10
86.69389711733343
 20
43.94421532373522
 30
0.0
  0
VERTEX
  5
307
330
305
100
AcDbEntity
  8
Livello 1
100
AcDbVertex
100
AcDb2dVertex
 10
86.69389711733343
 20
38.42514810289285
 30
0.0
  0
VERTEX
  5
308
330
305
100
AcDbEntity
  8
Livello 1
100
AcDbVertex
100
AcDb2dVertex
 10
82.47951284059444
 20
38.42514810289285
 30
0.0
  0
SEQEND
  5
309
330
305
100
AcDbEntity
  8
Livello 1
  0
POLYLINE
  5
30A
330
1F
100
AcDbEntity
  8
Livello 1
100
AcDb2dPolyline
 66
     1
 10
0.0
 20
0.0
 30
0.0
  0
VERTEX
  5
30B
330
30A
100
AcDbEntity
  8
Livello 1
100
AcDbVertex
100
AcDb2dVertex
 10
73.83497105650272
 20
44.00376421260901
 30
0.0
  0
VERTEX
  5
30C
330
30A
100
AcDbEntity
  8
Livello 1
100
AcDbVertex
100
AcDb2dVertex
 10
65.60681765530933
 20
44.00376421260901
 30
0.0
  0
VERTEX
  5
30D
330
30A
100
AcDbEntity
  8
Livello 1
100
AcDbVertex
100
AcDb2dVertex
 10
65.60681765530933
 20
52.22761393277477
 30
0.0
  0
SEQEND
  5
30E
330
30A
100
AcDbEntity
  8
Livello 1
  0
POLYLINE
  5
30F
330
1F
100
AcDbEntity
  8
Livello 1
100
AcDb2dPolyline
 66
     1
 10
0.0
 20
0.0
 30
0.0
  0
VERTEX
  5
310
330
30F
100
AcDbEntity
  8
Livello 1
100
AcDbVertex
100
AcDb2dVertex
 10
65.60681765530933
 20
54.36721115446284
 30
0.0
  0
VERTEX
  5
311
330
30F
100
AcDbEntity
  8
Livello 1
100
AcDbVertex
100
AcDb2dVertex
 10
65.60681765530933
 20
61.62243893042646
 30
0.0
  0
SEQEND
  5
312
330
30F
100
AcDbEntity
  8
Livello 1
  0
POLYLINE
  5
313
330
1F
100
AcDbEntity
  8
Livello 1
100
AcDb2dPolyline
 66
     1
 10
0.0
 20
0.0
 30
0.0
  0
VERTEX
  5
314
330
313
100
AcDbEntity
  8
Livello 1
100
AcDbVertex
100
AcDb2dVertex
 10
67.82931759860854
 20
39.52881338039436
 30
0.0
  0
VERTEX
  5
315
330
313
100
AcDbEntity
  8
Livello 1
100
AcDbVertex
100
AcDb2dVertex
 10
65.60681765530933
 20
39.52881338039436
 30
0.0
  0
VERTEX
  5
316
330
313
100
AcDbEntity
  8
Livello 1
100
AcDbVertex
100
AcDb2dVertex
 10
65.60681765530933
 20
42.28802949081591
 30
0.0
  0
VERTEX
  5
317
330
313
100
AcDbEntity
  8
Livello 1
100
AcDbVertex
100
AcDb2dVertex
 10
83.53890450699642
 20
42.28802949081591
 30
0.0
  0
VERTEX
  5
318
330
313
100
AcDbEntity
  8
Livello 1
100
AcDbVertex
100
AcDb2dVertex
 10
83.53890450699642
 20
39.52881338039436
 30
0.0
  0
VERTEX
  5
319
330
313
100
AcDbEntity
  8
Livello 1
100
AcDbVertex
100
AcDb2dVertex
 10
81.71405085549093
 20
39.52881338039436
 30
0.0
  0
SEQEND
  5
31A
330
313
100
AcDbEntity
  8
Livello 1
  0
POLYLINE
  5
31B
330
1F
100
AcDbEntity
  8
Livello 1
100
AcDb2dPolyline
 66
     1
 10
0.0
 20
0.0
 30
0.0
  0
VERTEX
  5
31C
330
31B
100
AcDbEntity
  8
Livello 1
100
AcDbVertex
100
AcDb2dVertex
 10
65.59312987788072
 20
44.00376421260901
 30
0.0
  0
VERTEX
  5
31D
330
31B
100
AcDbEntity
  8
Livello 1
100
AcDbVertex
100
AcDb2dVertex
 10
65.59312987788072
 20
52.24130171054984
 30
0.0
  0
VERTEX
  5
31E
330
31B
100
AcDbEntity
  8
Livello 1
100
AcDbVertex
100
AcDb2dVertex
 10
73.83497105650272
 20
44.00376421260901
 30
0.0
  0
VERTEX
  5
31F
330
31B
100
AcDbEntity
  8
Livello 1
100
AcDbVertex
100
AcDb2dVertex
 10
73.83497105650272
 20
44.00376421260901
 30
0.0
  0
VERTEX
  5
320
330
31B
100
AcDbEntity
  8
Livello 1
100
AcDbVertex
100
AcDb2dVertex
 10
65.59312987788072
 20
44.00376421260901
 30
0.0
  0
SEQEND
  5
321
330
31B
100
AcDbEntity
  8
Livello 1
  0
POLYLINE
  5
322
330
1F
100
AcDbEntity
  8
Livello 1
100
AcDb2dPolyline
 66
     1
 10
0.0
 20
0.0
 30
0.0
  0
VERTEX
  5
323
330
322
100
AcDbEntity
  8
Livello 1
100
AcDbVertex
100
AcDb2dVertex
 10
75.97570173111003
 20
44.00376421260901
 30
0.0
  0
VERTEX
  5
324
330
322
100
AcDbEntity
  8
Livello 1
100
AcDbVertex
100
AcDb2dVertex
 10
85.06491049222564
 20
44.00376421260901
 30
0.0
  0
SEQEND
  5
325
330
322
100
AcDbEntity
  8
Livello 1
  0
POLYLINE
  5
326
330
1F
100
AcDbEntity
  8
Livello 1
100
AcDb2dPolyline
 66
     1
 10
0.0
 20
0.0
 30
0.0
  0
VERTEX
  5
327
330
326
100
AcDbEntity
  8
Livello 1
100
AcDbVertex
100
AcDb2dVertex
 10
65.60681765530933
 20
54.36721115446284
 30
0.0
  0
VERTEX
  5
328
330
326
100
AcDbEntity
  8
Livello 1
100
AcDbVertex
100
AcDb2dVertex
 10
75.97570173111003
 20
44.00376421260901
 30
0.0
  0
SEQEND
  5
329
330
326
100
AcDbEntity
  8
Livello 1
  0
POLYLINE
  5
32A
330
1F
100
AcDbEntity
  8
Livello 1
100
AcDb2dPolyline
 66
     1
 10
0.0
 20
0.0
 30
0.0
  0
VERTEX
  5
32B
330
32A
100
AcDbEntity
  8
Livello 1
100
AcDbVertex
100
AcDb2dVertex
 10
81.71405085549093
 20
39.52881338039436
 30
0.0
  0
VERTEX
  5
32C
330
32A
100
AcDbEntity
  8
Livello 1
100
AcDbVertex
100
AcDb2dVertex
 10
82.47951284059444
 20
38.42514810289285
 30
0.0
  0
SEQEND
  5
32D
330
32A
100
AcDbEntity
  8
Livello 1
  0
POLYLINE
  5
32E
330
1F
100
AcDbEntity
  8
Livello 1
100
AcDb2dPolyline
 66
     1
 10
0.0
 20
0.0
 30
0.0
  0
VERTEX
  5
32F
330
32E
100
AcDbEntity
  8
Livello 1
100
AcDbVertex
100
AcDb2dVertex
 10
63.97779575242464
 20
38.42514810289285
 30
0.0
  0
VERTEX
  5
330
330
32E
100
AcDbEntity
  8
Livello 1
100
AcDbVertex
100
AcDb2dVertex
 10
66.92691206607533
 20
38.42514810289285
 30
0.0
  0
SEQEND
  5
331
330
32E
100
AcDbEntity
  8
Livello 1
  0
POLYLINE
  5
332
330
1F
100
AcDbEntity
  8
Livello 1
100
AcDb2dPolyline
 66
     1
 10
0.0
 20
0.0
 30
0.0
  0
VERTEX
  5
333
330
332
100
AcDbEntity
  8
Livello 1
100
AcDbVertex
100
AcDb2dVertex
 10
67.82931759860854
 20
39.52881338039436
 30
0.0
  0
VERTEX
  5
334
330
332
100
AcDbEntity
  8
Livello 1
100
AcDbVertex
100
AcDb2dVertex
 10
66.92691206607533
 20
38.42514810289285
 30
0.0
  0
SEQEND
  5
335
330
332
100
AcDbEntity
  8
Livello 1
  0
SPLINE
  5
336
330
1F
100
AcDbEntity
  8
Livello 1
100
AcDbSpline
210
0.0
220
0.0
230
1.0
 70
     8
 71
     3
 72
    17
 73
    13
 74
     0
 42
0.000000001
 43
0.0000000001
 40
0.0
 40
0.0
 40
0.0
 40
0.0
 40
1.0
 40
1.0
 40
1.0
 40
2.0
 40
2.0
 40
2.0
 40
3.0
 40
3.0
 40
3.0
 40
4.0
 40
4.0
 40
4.0
 40
4.0
 10
65.60681765530933
 20
62.81137059679633
 30
0.0
 10
65.55587654549774
 20
62.80350365235367
 30
0.0
 10
65.50401821348742
 20
62.80350365235367
 30
0.0
 10
65.45307710367594
 20
62.81137059679633
 30
0.0
 10
65.17748711070684
 20
62.85380976345184
 30
0.0
 10
64.98850405997263
 20
63.11161976338784
 30
0.0
 10
65.03094322555664
 20
63.38720976331817
 30
0.0
 10
65.07338239114052
 20
63.66279976324967
 30
0.0
 10
65.33122766234014
 20
63.85181809653625
 30
0.0
 10
65.60681765530933
 20
63.80934365210183
 30
0.0
 10
65.60681765530933
 20
63.80934365210183
 30
0.0
 10
65.60681765530933
 20
64.44035726305495
 30
0.0
 10
65.60681765530933
 20
64.44035726305495
 30
0.0
  0
SPLINE
  5
337
330
1F
100
AcDbEntity
  8
Livello 1
100
AcDbSpline
210
0.0
220
0.0
230
1.0
 70
     8
 71
     3
 72
    14
 73
    10
 74
     0
 42
0.000000001
 43
0.0000000001
 40
0.0
 40
0.0
 40
0.0
 40
0.0
 40
1.0
 40
1.0
 40
1.0
 40
2.0
 40
2.0
 40
2.0
 40
3.0
 40
3.0
 40
3.0
 40
3.0
 10
65.60681765530933
 20
61.62243893042646
 30
0.0
 10
65.92996209150964
 20
61.58754920821266
 30
0.0
 10
66.22019236188304
 20
61.82119393037644
 30
0.0
 10
66.25508208321512
 20
62.14433837474044
 30
0.0
 10
66.28997180454722
 20
62.46748281910453
 30
0.0
 10
66.05629617803384
 20
62.75774837458683
 30
0.0
 10
65.73315173367044
 20
62.79263809680066
 30
0.0
 10
65.69117117812521
 20
62.79715365235523
 30
0.0
 10
65.64879820979382
 20
62.79715365235523
 30
0.0
 10
65.60681765530933
 20
62.79263809680066
 30
0.0
  0
SPLINE
  5
338
330
1F
100
AcDbEntity
  8
Livello 1
100
AcDbSpline
210
0.0
220
0.0
230
1.0
 70
     8
 71
     3
 72
    20
 73
    16
 74
     0
 42
0.000000001
 43
0.0000000001
 40
0.0
 40
0.0
 40
0.0
 40
0.0
 40
1.0
 40
1.0
 40
1.0
 40
2.0
 40
2.0
 40
2.0
 40
3.0
 40
3.0
 40
3.0
 40
4.0
 40
4.0
 40
4.0
 40
5.0
 40
5.0
 40
5.0
 40
5.0
 10
84.26128273495015
 20
44.00376421260901
 30
0.0
 10
84.26128273495015
 20
44.00376421260901
 30
0.0
 10
84.26128273495015
 20
42.74935699070034
 30
0.0
 10
84.26128273495015
 20
42.74935699070034
 30
0.0
 10
84.26128273495015
 20
42.41379476856155
 30
0.0
 10
84.53327439467773
 20
42.14180310196335
 30
0.0
 10
84.86883660833903
 20
42.14180310196335
 30
0.0
 10
85.20436839546944
 20
42.14180310196335
 30
0.0
 10
85.47639048172793
 20
42.41379476856155
 30
0.0
 10
85.47639048172793
 20
42.74935699070034
 30
0.0
 10
85.47639048172793
 20
42.74935699070034
 30
0.0
 10
85.47639048172793
 20
43.94421532373522
 30
0.0
 10
85.47639048172793
 20
43.94421532373522
 30
0.0
 10
85.47639048172793
 20
43.94421532373522
 30
0.0
 10
86.69389711733343
 20
43.94421532373522
 30
0.0
 10
86.69389711733343
 20
43.94421532373522
 30
0.0
  0
SPLINE
  5
339
330
1F
100
AcDbEntity
  8
Livello 1
100
AcDbSpline
210
0.0
220
0.0
230
1.0
 70
     8
 71
     3
 72
     8
 73
     4
 74
     0
 42
0.000000001
 43
0.0000000001
 40
0.0
 40
0.0
 40
0.0
 40
0.0
 40
1.0
 40
1.0
 40
1.0
 40
1.0
 10
65.54278849027614
 20
62.81394587457254
 30
0.0
 10
75.64221628817384
 20
61.86751365258743
 30
0.0
 10
83.74411052592204
 20
54.06110587676136
 30
0.0
 10
85.06491049222564
 20
44.00376421260901
 30
0.0
  0
SPLINE
  5
33A
330
1F
100
AcDbEntity
  8
Livello 1
100
AcDbSpline
210
0.0
220
0.0
230
1.0
 70
     8
 71
     3
 72
     8
 73
     4
 74
     0
 42
0.000000001
 43
0.0000000001
 40
0.0
 40
0.0
 40
0.0
 40
0.0
 40
1.0
 40
1.0
 40
1.0
 40
1.0
 10
65.69444765307363
 20
64.43213754083515
 30
0.0
 10
76.65080792910955
 20
63.41148087442343
 30
0.0
 10
85.40340076136784
 20
54.87207143211375
 30
0.0
 10
86.69389711733343
 20
43.94421532373522
 30
0.0
  0
LINE
  5
33B
330
1F
100
AcDbEntity
  8
Livello 1
100
AcDbLine
 10
77.68759970841343
 20
65.42839175221494
 30
0.0
 11
88.14256202461544
 21
55.39620767215126
 31
0.0
  0
POLYLINE
  5
33C
330
1F
100
AcDbEntity
  8
Livello 1
100
AcDb2dPolyline
 66
     1
 10
0.0
 20
0.0
 30
0.0
  0
VERTEX
  5
33D
330
33C
100
AcDbEntity
  8
Livello 1
100
AcDbVertex
100
AcDb2dVertex
 10
84.63115367161622
 20
68.06952250596186
 30
0.0
  0
VERTEX
  5
33E
330
33C
100
AcDbEntity
  8
Livello 1
100
AcDbVertex
100
AcDb2dVertex
 10
84.62202416858033
 20
68.07847975422345
 30
0.0
  0
VERTEX
  5
33F
330
33C
100
AcDbEntity
  8
Livello 1
100
AcDbVertex
100
AcDb2dVertex
 10
83.84067651252562
 20
68.31205722812334
 30
0.0
  0
VERTEX
  5
340
330
33C
100
AcDbEntity
  8
Livello 1
100
AcDbVertex
100
AcDb2dVertex
 10
84.06546899293813
 20
68.68929518375825
 30
0.0
  0
VERTEX
  5
341
330
33C
100
AcDbEntity
  8
Livello 1
100
AcDbVertex
100
AcDb2dVertex
 10
85.04456512984623
 20
68.39267246247826
 30
0.0
  0
VERTEX
  5
342
330
33C
100
AcDbEntity
  8
Livello 1
100
AcDbVertex
100
AcDb2dVertex
 10
85.38115095875513
 20
68.05574212402084
 30
0.0
  0
VERTEX
  5
343
330
33C
100
AcDbEntity
  8
Livello 1
100
AcDbVertex
100
AcDb2dVertex
 10
82.46091577068304
 20
65.13705722891714
 30
0.0
  0
VERTEX
  5
344
330
33C
100
AcDbEntity
  8
Livello 1
100
AcDbVertex
100
AcDb2dVertex
 10
82.07937144569163
 20
65.51877380868285
 30
0.0
  0
VERTEX
  5
345
330
33C
100
AcDbEntity
  8
Livello 1
100
AcDbVertex
100
AcDb2dVertex
 10
84.63115367161622
 20
68.06952250596186
 30
0.0
  0
SEQEND
  5
346
330
33C
100
AcDbEntity
  8
Livello 1
  0
HATCH
  5
347
330
1F
100
AcDbEntity
  8
Livello 1
100
AcDbHatch
 10
0.0
 20
0.0
 30
0.0
210
0.0
220
0.0
230
1.0
  2
SOLID
 70
     1
 71
     0
 91
        1
 92
        1
 93
        8
 72
     1
 10
84.63115367161622
 20
68.06952250596186
 11
84.62202416858033
 21
68.07847975422345
 72
     1
 10
84.62202416858033
 20
68.07847975422345
 11
83.84067651252562
 21
68.31205722812334
 72
     1
 10
83.84067651252562
 20
68.31205722812334
 11
84.06546899293813
 21
68.68929518375825
 72
     1
 10
84.06546899293813
 20
68.68929518375825
 11
85.04456512984623
 21
68.39267246247826
 72
     1
 10
85.04456512984623
 20
68.39267246247826
 11
85.38115095875513
 21
68.05574212402084
 72
     1
 10
85.38115095875513
 20
68.05574212402084
 11
82.46091577068304
 21
65.13705722891714
 72
     1
 10
82.46091577068304
 20
65.13705722891714
 11
82.07937144569163
 21
65.51877380868285
 72
     1
 10
82.07937144569163
 20
65.51877380868285
 11
84.63115367161622
 21
68.06952250596186
 97
        0
 75
     2
 76
     1
 98
        0
450
        0
451
        0
460
0.0
461
0.0
452
        0
462
0.0
453
        0
470

  0
SPLINE
  5
348
330
1F
100
AcDbEntity
  8
Livello 1
100
AcDbSpline
210
0.0
220
0.0
230
1.0
 70
     9
 71
     3
 72
    17
 73
    13
 74
     0
 42
0.000000001
 43
0.0000000001
 40
0.0
 40
0.0
 40
0.0
 40
0.0
 40
1.0
 40
1.0
 40
1.0
 40
2.0
 40
2.0
 40
2.0
 40
3.0
 40
3.0
 40
3.0
 40
4.0
 40
4.0
 40
4.0
 40
4.0
 10
86.95590410506284
 20
63.62328227269833
 30
0.0
 10
85.96302758621382
 20
62.63040575384934
 30
0.0
 10
85.04663218713734
 20
62.45126078861634
 30
0.0
 10
84.39998776455594
 20
63.09824972074626
 30
0.0
 10
83.82965220697284
 20
63.66875753310364
 30
0.0
 10
83.97830807716134
 20
64.58928704676245
 30
0.0
 10
84.93518334818954
 20
65.56390455953954
 30
0.0
 10
85.91445173987173
 20
66.54265618689902
 30
0.0
 10
86.87563338025643
 20
66.65910041430052
 30
0.0
 10
87.46836205849371
 20
66.06619948128903
 30
0.0
 10
88.08365611215933
 20
65.45056091807484
 30
0.0
 10
87.88590763130603
 20
64.55276903461876
 30
0.0
 10
86.95590410506284
 20
63.62328227269833
 30
0.0
  0
SPLINE
  5
349
330
1F
100
AcDbEntity
  8
Livello 1
100
AcDbSpline
210
0.0
220
0.0
230
1.0
 70
     9
 71
     3
 72
    17
 73
    13
 74
     0
 42
0.000000001
 43
0.0000000001
 40
0.0
 40
0.0
 40
0.0
 40
0.0
 40
1.0
 40
1.0
 40
1.0
 40
2.0
 40
2.0
 40
2.0
 40
3.0
 40
3.0
 40
3.0
 40
4.0
 40
4.0
 40
4.0
 40
4.0
 10
85.32568492144255
 20
65.16392897370216
 30
0.0
 10
84.56638587649354
 20
64.40531894785002
 30
0.0
 10
84.36863739564014
 20
63.74041551919686
 30
0.0
 10
84.72778859997744
 20
63.38109206008536
 30
0.0
 10
85.13189830039722
 20
62.97698235966556
 30
0.0
 10
85.79680172905053
 20
63.25534607487376
 30
0.0
 10
86.54249264683285
 20
64.00052022833327
 30
0.0
 10
87.26131181983022
 20
64.71882263700783
 30
0.0
 10
87.54897729284854
 20
65.37476881739943
 30
0.0
 10
87.14038896829793
 20
65.78335714195003
 30
0.0
 10
86.79484589112734
 20
66.12924472866916
 30
0.0
 10
86.12081295943822
 20
65.95905701169775
 30
0.0
 10
85.32568492144255
 20
65.16392897370216
 30
0.0
  0
HATCH
  5
34A
330
1F
100
AcDbEntity
  8
Livello 1
100
AcDbHatch
 10
0.0
 20
0.0
 30
0.0
210
0.0
220
0.0
230
1.0
  2
SOLID
 70
     1
 71
     0
 91
        2
 92
        1
 93
        1
 72
     4
 94
        3
 73
     0
 74
     0
 95
       17
 96
       13
 40
0.0
 40
0.0
 40
0.0
 40
0.0
 40
1.0
 40
1.0
 40
1.0
 40
2.0
 40
2.0
 40
2.0
 40
3.0
 40
3.0
 40
3.0
 40
4.0
 40
4.0
 40
4.0
 40
4.0
 10
86.95590410506284
 20
63.62328227269833
 10
85.96302758621382
 20
62.63040575384934
 10
85.04663218713734
 20
62.45126078861634
 10
84.39998776455594
 20
63.09824972074626
 10
83.82965220697284
 20
63.66875753310364
 10
83.97830807716134
 20
64.58928704676245
 10
84.93518334818954
 20
65.56390455953954
 10
85.91445173987173
 20
66.54265618689902
 10
86.87563338025643
 20
66.65910041430052
 10
87.46836205849371
 20
66.06619948128903
 10
88.08365611215933
 20
65.45056091807484
 10
87.88590763130603
 20
64.55276903461876
 10
86.95590410506284
 20
63.62328227269833
 97
        0
 97
        0
 92
        1
 93
        1
 72
     4
 94
        3
 73
     0
 74
     0
 95
       17
 96
       13
 40
0.0
 40
0.0
 40
0.0
 40
0.0
 40
1.0
 40
1.0
 40
1.0
 40
2.0
 40
2.0
 40
2.0
 40
3.0
 40
3.0
 40
3.0
 40
4.0
 40
4.0
 40
4.0
 40
4.0
 10
85.32568492144255
 20
65.16392897370216
 10
84.56638587649354
 20
64.40531894785002
 10
84.36863739564014
 20
63.74041551919686
 10
84.72778859997744
 20
63.38109206008536
 10
85.13189830039722
 20
62.97698235966556
 10
85.79680172905053
 20
63.25534607487376
 10
86.54249264683285
 20
64.00052022833327
 10
87.26131181983022
 20
64.71882263700783
 10
87.54897729284854
 20
65.37476881739943
 10
87.14038896829793
 20
65.78335714195003
 10
86.79484589112734
 20
66.12924472866916
 10
86.12081295943822
 20
65.95905701169775
 10
85.32568492144255
 20
65.16392897370216
 97
        0
 97
        0
 75
     2
 76
     1
 98
        0
450
        0
451
        0
460
0.0
461
0.0
452
        0
462
0.0
453
        0
470

  0
SPLINE
  5
34B
330
1F
100
AcDbEntity
  8
Livello 1
100
AcDbSpline
210
0.0
220
0.0
230
1.0
 70
     9
 71
     3
 72
    80
 73
    76
 74
     0
 42
0.000000001
 43
0.0000000001
 40
0.0
 40
0.0
 40
0.0
 40
0.0
 40
1.0
 40
1.0
 40
1.0
 40
2.0
 40
2.0
 40
2.0
 40
3.0
 40
3.0
 40
3.0
 40
4.0
 40
4.0
 40
4.0
 40
5.0
 40
5.0
 40
5.0
 40
6.0
 40
6.0
 40
6.0
 40
7.0
 40
7.0
 40
7.0
 40
8.0
 40
8.0
 40
8.0
 40
9.0
 40
9.0
 40
9.0
 40
10.0
 40
10.0
 40
10.0
 40
11.0
 40
11.0
 40
11.0
 40
12.0
 40
12.0
 40
12.0
 40
13.0
 40
13.0
 40
13.0
 40
14.0
 40
14.0
 40
14.0
 40
15.0
 40
15.0
 40
15.0
 40
16.0
 40
16.0
 40
16.0
 40
17.0
 40
17.0
 40
17.0
 40
18.0
 40
18.0
 40
18.0
 40
19.0
 40
19.0
 40
19.0
 40
20.0
 40
20.0
 40
20.0
 40
21.0
 40
21.0
 40
21.0
 40
22.0
 40
22.0
 40
22.0
 40
23.0
 40
23.0
 40
23.0
 40
24.0
 40
24.0
 40
24.0
 40
25.0
 40
25.0
 40
25.0
 40
25.0
 10
88.49052188896735
 20
62.27624993796564
 30
0.0
 10
88.71531436937983
 20
62.50087016360393
 30
0.0
 10
88.89497609893561
 20
62.68966139619564
 30
0.0
 10
89.0610297013247
 20
62.88258674336964
 30
0.0
 10
89.0610297013247
 20
62.88258674336964
 30
0.0
 10
89.40691728804385
 20
62.53669915665054
 30
0.0
 10
89.40691728804385
 20
62.53669915665054
 30
0.0
 10
89.40691728804385
 20
62.53669915665054
 30
0.0
 10
89.07429331894292
 20
62.16807393972885
 30
0.0
 10
89.07429331894292
 20
62.16807393972885
 30
0.0
 10
89.07429331894292
 20
62.16807393972885
 30
0.0
 10
89.08772919133543
 20
62.15498257688484
 30
0.0
 10
89.08772919133543
 20
62.15498257688484
 30
0.0
 10
89.41570228153114
 20
62.23973192582201
 30
0.0
 10
89.81085473368935
 20
62.23146369665744
 30
0.0
 10
90.17017819280093
 20
61.87179572799735
 30
0.0
 10
90.46645640453233
 20
61.57551751626582
 30
0.0
 10
90.51124264584064
 20
61.17106330629752
 30
0.0
 10
90.34949541280813
 20
60.82069709544765
 30
0.0
 10
90.34949541280813
 20
60.82069709544765
 30
0.0
 10
90.35845266106983
 20
60.81173984718592
 30
0.0
 10
90.35845266106983
 20
60.81173984718592
 30
0.0
 10
90.54724389366155
 20
60.86548333675586
 30
0.0
 10
90.72690562321723
 20
60.87444058501754
 30
0.0
 10
90.88417423211893
 20
60.85204746436343
 30
0.0
 10
91.11327308188805
 20
60.82035258589917
 30
0.0
 10
91.31084930796715
 20
60.73043559373406
 30
0.0
 10
91.51738278230784
 20
60.52407437416767
 30
0.0
 10
91.80470374577774
 20
60.23640890114925
 30
0.0
 10
92.04241533425991
 20
59.62111484748368
 30
0.0
 10
91.28776716821594
 20
58.86663893621395
 30
0.0
 10
91.28776716821594
 20
58.86663893621395
 30
0.0
 10
90.00739743112282
 20
57.58678596344367
 30
0.0
 10
90.00739743112282
 20
57.58678596344367
 30
0.0
 10
90.00739743112282
 20
57.58678596344367
 30
0.0
 10
89.62137448200062
 20
57.97332567688866
 30
0.0
 10
89.62137448200062
 20
57.97332567688866
 30
0.0
 10
89.62137448200062
 20
57.97332567688866
 30
0.0
 10
90.85230709888035
 20
59.20356927467136
 30
0.0
 10
90.85230709888035
 20
59.20356927467136
 30
0.0
 10
91.27002492646694
 20
59.62111484748368
 30
0.0
 10
91.36907142166782
 20
60.02522454790343
 30
0.0
 10
91.05022783450795
 20
60.34424038983752
 30
0.0
 10
90.82560760886972
 20
60.56886061547584
 30
0.0
 10
90.48437090105574
 20
60.57781786373752
 30
0.0
 10
90.22357717282222
 20
60.45241638807445
 30
0.0
 10
90.15191918672902
 20
60.41658739502785
 30
0.0
 10
90.06648081869494
 20
60.35802077177851
 30
0.0
 10
89.99465057782742
 20
60.28636278568535
 30
0.0
 10
89.99465057782742
 20
60.28636278568535
 30
0.0
 10
88.65140784812854
 20
58.94346456553492
 30
0.0
 10
88.65140784812854
 20
58.94346456553492
 30
0.0
 10
88.65140784812854
 20
58.94346456553492
 30
0.0
 10
88.26504038945774
 20
59.33000427898003
 30
0.0
 10
88.26504038945774
 20
59.33000427898003
 30
0.0
 10
88.26504038945774
 20
59.33000427898003
 30
0.0
 10
89.56780324720492
 20
60.63225037240442
 30
0.0
 10
89.56780324720492
 20
60.63225037240442
 30
0.0
 10
89.91369083392404
 20
60.97813795912353
 30
0.0
 10
90.01290958389921
 20
61.38190314999485
 30
0.0
 10
89.71198049326261
 20
61.68300449540564
 30
0.0
 10
89.46496714697023
 20
61.93036235124669
 30
0.0
 10
89.08790144610964
 20
61.91244785472335
 30
0.0
 10
88.82727997265053
 20
61.77740011170143
 30
0.0
 10
88.74632022874711
 20
61.74191562820343
 30
0.0
 10
88.67018361852315
 20
61.68334900495415
 30
0.0
 10
88.60265974701224
 20
61.61616964299188
 30
0.0
 10
88.60265974701224
 20
61.61616964299188
 30
0.0
 10
87.29093964100334
 20
60.30496630130577
 30
0.0
 10
87.29093964100334
 20
60.30496630130577
 30
0.0
 10
87.29093964100334
 20
60.30496630130577
 30
0.0
 10
86.90474443710682
 20
60.69116150520224
 30
0.0
 10
86.90474443710682
 20
60.69116150520224
 30
0.0
 10
86.90474443710682
 20
60.69116150520224
 30
0.0
 10
88.49052188896735
 20
62.27624993796564
 30
0.0
 10
88.49052188896735
 20
62.27624993796564
 30
0.0
  0
HATCH
  5
34C
330
1F
100
AcDbEntity
  8
Livello 1
100
AcDbHatch
 10
0.0
 20
0.0
 30
0.0
210
0.0
220
0.0
230
1.0
  2
SOLID
 70
     1
 71
     0
 91
        1
 92
        1
 93
        1
 72
     4
 94
        3
 73
     0
 74
     0
 95
       80
 96
       76
 40
0.0
 40
0.0
 40
0.0
 40
0.0
 40
1.0
 40
1.0
 40
1.0
 40
2.0
 40
2.0
 40
2.0
 40
3.0
 40
3.0
 40
3.0
 40
4.0
 40
4.0
 40
4.0
 40
5.0
 40
5.0
 40
5.0
 40
6.0
 40
6.0
 40
6.0
 40
7.0
 40
7.0
 40
7.0
 40
8.0
 40
8.0
 40
8.0
 40
9.0
 40
9.0
 40
9.0
 40
10.0
 40
10.0
 40
10.0
 40
11.0
 40
11.0
 40
11.0
 40
12.0
 40
12.0
 40
12.0
 40
13.0
 40
13.0
 40
13.0
 40
14.0
 40
14.0
 40
14.0
 40
15.0
 40
15.0
 40
15.0
 40
16.0
 40
16.0
 40
16.0
 40
17.0
 40
17.0
 40
17.0
 40
18.0
 40
18.0
 40
18.0
 40
19.0
 40
19.0
 40
19.0
 40
20.0
 40
20.0
 40
20.0
 40
21.0
 40
21.0
 40
21.0
 40
22.0
 40
22.0
 40
22.0
 40
23.0
 40
23.0
 40
23.0
 40
24.0
 40
24.0
 40
24.0
 40
25.0
 40
25.0
 40
25.0
 40
25.0
 10
88.49052188896735
 20
62.27624993796564
 10
88.71531436937983
 20
62.50087016360393
 10
88.89497609893561
 20
62.68966139619564
 10
89.0610297013247
 20
62.88258674336964
 10
89.0610297013247
 20
62.88258674336964
 10
89.40691728804385
 20
62.53669915665054
 10
89.40691728804385
 20
62.53669915665054
 10
89.40691728804385
 20
62.53669915665054
 10
89.07429331894292
 20
62.16807393972885
 10
89.07429331894292
 20
62.16807393972885
 10
89.07429331894292
 20
62.16807393972885
 10
89.08772919133543
 20
62.15498257688484
 10
89.08772919133543
 20
62.15498257688484
 10
89.41570228153114
 20
62.23973192582201
 10
89.81085473368935
 20
62.23146369665744
 10
90.17017819280093
 20
61.87179572799735
 10
90.46645640453233
 20
61.57551751626582
 10
90.51124264584064
 20
61.17106330629752
 10
90.34949541280813
 20
60.82069709544765
 10
90.34949541280813
 20
60.82069709544765
 10
90.35845266106983
 20
60.81173984718592
 10
90.35845266106983
 20
60.81173984718592
 10
90.54724389366155
 20
60.86548333675586
 10
90.72690562321723
 20
60.87444058501754
 10
90.88417423211893
 20
60.85204746436343
 10
91.11327308188805
 20
60.82035258589917
 10
91.31084930796715
 20
60.73043559373406
 10
91.51738278230784
 20
60.52407437416767
 10
91.80470374577774
 20
60.23640890114925
 10
92.04241533425991
 20
59.62111484748368
 10
91.28776716821594
 20
58.86663893621395
 10
91.28776716821594
 20
58.86663893621395
 10
90.00739743112282
 20
57.58678596344367
 10
90.00739743112282
 20
57.58678596344367
 10
90.00739743112282
 20
57.58678596344367
 10
89.62137448200062
 20
57.97332567688866
 10
89.62137448200062
 20
57.97332567688866
 10
89.62137448200062
 20
57.97332567688866
 10
90.85230709888035
 20
59.20356927467136
 10
90.85230709888035
 20
59.20356927467136
 10
91.27002492646694
 20
59.62111484748368
 10
91.36907142166782
 20
60.02522454790343
 10
91.05022783450795
 20
60.34424038983752
 10
90.82560760886972
 20
60.56886061547584
 10
90.48437090105574
 20
60.57781786373752
 10
90.22357717282222
 20
60.45241638807445
 10
90.15191918672902
 20
60.41658739502785
 10
90.06648081869494
 20
60.35802077177851
 10
89.99465057782742
 20
60.28636278568535
 10
89.99465057782742
 20
60.28636278568535
 10
88.65140784812854
 20
58.94346456553492
 10
88.65140784812854
 20
58.94346456553492
 10
88.65140784812854
 20
58.94346456553492
 10
88.26504038945774
 20
59.33000427898003
 10
88.26504038945774
 20
59.33000427898003
 10
88.26504038945774
 20
59.33000427898003
 10
89.56780324720492
 20
60.63225037240442
 10
89.56780324720492
 20
60.63225037240442
 10
89.91369083392404
 20
60.97813795912353
 10
90.01290958389921
 20
61.38190314999485
 10
89.71198049326261
 20
61.68300449540564
 10
89.46496714697023
 20
61.93036235124669
 10
89.08790144610964
 20
61.91244785472335
 10
88.82727997265053
 20
61.77740011170143
 10
88.74632022874711
 20
61.74191562820343
 10
88.67018361852315
 20
61.68334900495415
 10
88.60265974701224
 20
61.61616964299188
 10
88.60265974701224
 20
61.61616964299188
 10
87.29093964100334
 20
60.30496630130577
 10
87.29093964100334
 20
60.30496630130577
 10
87.29093964100334
 20
60.30496630130577
 10
86.90474443710682
 20
60.69116150520224
 10
86.90474443710682
 20
60.69116150520224
 10
86.90474443710682
 20
60.69116150520224
 10
88.49052188896735
 20
62.27624993796564
 10
88.49052188896735
 20
62.27624993796564
 97
        0
 97
        0
 75
     2
 76
     1
 98
        0
450
        0
451
        0
460
0.0
461
0.0
452
        0
462
0.0
453
        0
470

  0
SPLINE
  5
34D
330
1F
100
AcDbEntity
  8
Livello 1
100
AcDbSpline
210
0.0
220
0.0
230
1.0
 70
     9
 71
     3
 72
    80
 73
    76
 74
     0
 42
0.000000001
 43
0.0000000001
 40
0.0
 40
0.0
 40
0.0
 40
0.0
 40
1.0
 40
1.0
 40
1.0
 40
2.0
 40
2.0
 40
2.0
 40
3.0
 40
3.0
 40
3.0
 40
4.0
 40
4.0
 40
4.0
 40
5.0
 40
5.0
 40
5.0
 40
6.0
 40
6.0
 40
6.0
 40
7.0
 40
7.0
 40
7.0
 40
8.0
 40
8.0
 40
8.0
 40
9.0
 40
9.0
 40
9.0
 40
10.0
 40
10.0
 40
10.0
 40
11.0
 40
11.0
 40
11.0
 40
12.0
 40
12.0
 40
12.0
 40
13.0
 40
13.0
 40
13.0
 40
14.0
 40
14.0
 40
14.0
 40
15.0
 40
15.0
 40
15.0
 40
16.0
 40
16.0
 40
16.0
 40
17.0
 40
17.0
 40
17.0
 40
18.0
 40
18.0
 40
18.0
 40
19.0
 40
19.0
 40
19.0
 40
20.0
 40
20.0
 40
20.0
 40
21.0
 40
21.0
 40
21.0
 40
22.0
 40
22.0
 40
22.0
 40
23.0
 40
23.0
 40
23.0
 40
24.0
 40
24.0
 40
24.0
 40
25.0
 40
25.0
 40
25.0
 40
25.0
 10
92.23413489801405
 20
58.53074212640206
 30
0.0
 10
92.45892737842664
 20
58.75536235204035
 30
0.0
 10
92.63876136275664
 20
58.94380907508355
 30
0.0
 10
92.80481496514573
 20
59.13707893180603
 30
0.0
 10
92.80481496514573
 20
59.13707893180603
 30
0.0
 10
93.15053029709053
 20
58.79119134508693
 30
0.0
 10
93.15053029709053
 20
58.79119134508693
 30
0.0
 10
93.15053029709053
 20
58.79119134508693
 30
0.0
 10
92.81807858276394
 20
58.42256612816524
 30
0.0
 10
92.81807858276394
 20
58.42256612816524
 30
0.0
 10
92.81807858276394
 20
58.42256612816524
 30
0.0
 10
92.83151445515642
 20
58.40913025577274
 30
0.0
 10
92.83151445515642
 20
58.40913025577274
 30
0.0
 10
93.15948754535213
 20
58.49422411425845
 30
0.0
 10
93.55463999751032
 20
58.48561137554526
 30
0.0
 10
93.91379120184764
 20
58.12628791643374
 30
0.0
 10
94.21024166835335
 20
57.82966519515378
 30
0.0
 10
94.25502790966163
 20
57.42555549473391
 30
0.0
 10
94.09328067662915
 20
57.07484477433545
 30
0.0
 10
94.09328067662915
 20
57.07484477433545
 30
0.0
 10
94.10223792489082
 20
57.06588752607382
 30
0.0
 10
94.10223792489082
 20
57.06588752607382
 30
0.0
 10
94.29102915748254
 20
57.11963101564376
 30
0.0
 10
94.47069088703822
 20
57.12858826390533
 30
0.0
 10
94.62778724116564
 20
57.10619514325125
 30
0.0
 10
94.85705834570902
 20
57.07484477433545
 30
0.0
 10
95.05463457178814
 20
56.98492778217044
 30
0.0
 10
95.26116804612883
 20
56.77822205305545
 30
0.0
 10
95.54848900959862
 20
56.49055658003703
 30
0.0
 10
95.78620059808093
 20
55.87526252637144
 30
0.0
 10
95.03155243203693
 20
55.12078661510173
 30
0.0
 10
95.03155243203693
 20
55.12078661510173
 30
0.0
 10
93.75118269494384
 20
53.84127815187994
 30
0.0
 10
93.75118269494384
 20
53.84127815187994
 30
0.0
 10
93.75118269494384
 20
53.84127815187994
 30
0.0
 10
93.36515974582164
 20
54.22747335577645
 30
0.0
 10
93.36515974582164
 20
54.22747335577645
 30
0.0
 10
93.36515974582164
 20
54.22747335577645
 30
0.0
 10
94.59609236270134
 20
55.45771695355927
 30
0.0
 10
94.59609236270134
 20
55.45771695355927
 30
0.0
 10
95.01381019028793
 20
55.87526252637144
 30
0.0
 10
95.11285668548882
 20
56.27971673633982
 30
0.0
 10
94.79401309832892
 20
56.59873257827391
 30
0.0
 10
94.56939287269074
 20
56.82335280391223
 30
0.0
 10
94.22815616487662
 20
56.83231005217385
 30
0.0
 10
93.96736243664324
 20
56.70690857651075
 30
0.0
 10
93.89553219577582
 20
56.67107958346424
 30
0.0
 10
93.81026608251586
 20
56.61251296021496
 30
0.0
 10
93.73843584164845
 20
56.54085497412174
 30
0.0
 10
93.73843584164845
 20
56.54085497412174
 30
0.0
 10
92.39519311194953
 20
55.19795675397137
 30
0.0
 10
92.39519311194953
 20
55.19795675397137
 30
0.0
 10
92.39519311194953
 20
55.19795675397137
 30
0.0
 10
92.00882565327873
 20
55.58449646741633
 30
0.0
 10
92.00882565327873
 20
55.58449646741633
 30
0.0
 10
92.00882565327873
 20
55.58449646741633
 30
0.0
 10
93.31158851102594
 20
56.88674256084084
 30
0.0
 10
93.31158851102594
 20
56.88674256084084
 30
0.0
 10
93.65747609774501
 20
57.23263014755992
 30
0.0
 10
93.75669484772023
 20
57.63639533843124
 30
0.0
 10
93.45576575708363
 20
57.93749668384205
 30
0.0
 10
93.20875241079122
 20
58.18485453968296
 30
0.0
 10
92.83168670993063
 20
58.16694004315968
 30
0.0
 10
92.57106523647152
 20
58.03189230013785
 30
0.0
 10
92.49010549256812
 20
57.99606330709124
 30
0.0
 10
92.41396888234413
 20
57.93749668384205
 30
0.0
 10
92.34644501083321
 20
57.87031732187964
 30
0.0
 10
92.34644501083321
 20
57.87031732187964
 30
0.0
 10
91.03472490482431
 20
56.55911398019353
 30
0.0
 10
91.03472490482431
 20
56.55911398019353
 30
0.0
 10
91.03472490482431
 20
56.55911398019353
 30
0.0
 10
90.64835744615354
 20
56.94565369363863
 30
0.0
 10
90.64835744615354
 20
56.94565369363863
 30
0.0
 10
90.64835744615354
 20
56.94565369363863
 30
0.0
 10
92.23413489801405
 20
58.53074212640206
 30
0.0
 10
92.23413489801405
 20
58.53074212640206
 30
0.0
  0
HATCH
  5
34E
330
1F
100
AcDbEntity
  8
Livello 1
100
AcDbHatch
 10
0.0
 20
0.0
 30
0.0
210
0.0
220
0.0
230
1.0
  2
SOLID
 70
     1
 71
     0
 91
        1
 92
        1
 93
        1
 72
     4
 94
        3
 73
     0
 74
     0
 95
       80
 96
       76
 40
0.0
 40
0.0
 40
0.0
 40
0.0
 40
1.0
 40
1.0
 40
1.0
 40
2.0
 40
2.0
 40
2.0
 40
3.0
 40
3.0
 40
3.0
 40
4.0
 40
4.0
 40
4.0
 40
5.0
 40
5.0
 40
5.0
 40
6.0
 40
6.0
 40
6.0
 40
7.0
 40
7.0
 40
7.0
 40
8.0
 40
8.0
 40
8.0
 40
9.0
 40
9.0
 40
9.0
 40
10.0
 40
10.0
 40
10.0
 40
11.0
 40
11.0
 40
11.0
 40
12.0
 40
12.0
 40
12.0
 40
13.0
 40
13.0
 40
13.0
 40
14.0
 40
14.0
 40
14.0
 40
15.0
 40
15.0
 40
15.0
 40
16.0
 40
16.0
 40
16.0
 40
17.0
 40
17.0
 40
17.0
 40
18.0
 40
18.0
 40
18.0
 40
19.0
 40
19.0
 40
19.0
 40
20.0
 40
20.0
 40
20.0
 40
21.0
 40
21.0
 40
21.0
 40
22.0
 40
22.0
 40
22.0
 40
23.0
 40
23.0
 40
23.0
 40
24.0
 40
24.0
 40
24.0
 40
25.0
 40
25.0
 40
25.0
 40
25.0
 10
92.23413489801405
 20
58.53074212640206
 10
92.45892737842664
 20
58.75536235204035
 10
92.63876136275664
 20
58.94380907508355
 10
92.80481496514573
 20
59.13707893180603
 10
92.80481496514573
 20
59.13707893180603
 10
93.15053029709053
 20
58.79119134508693
 10
93.15053029709053
 20
58.79119134508693
 10
93.15053029709053
 20
58.79119134508693
 10
92.81807858276394
 20
58.42256612816524
 10
92.81807858276394
 20
58.42256612816524
 10
92.81807858276394
 20
58.42256612816524
 10
92.83151445515642
 20
58.40913025577274
 10
92.83151445515642
 20
58.40913025577274
 10
93.15948754535213
 20
58.49422411425845
 10
93.55463999751032
 20
58.48561137554526
 10
93.91379120184764
 20
58.12628791643374
 10
94.21024166835335
 20
57.82966519515378
 10
94.25502790966163
 20
57.42555549473391
 10
94.09328067662915
 20
57.07484477433545
 10
94.09328067662915
 20
57.07484477433545
 10
94.10223792489082
 20
57.06588752607382
 10
94.10223792489082
 20
57.06588752607382
 10
94.29102915748254
 20
57.11963101564376
 10
94.47069088703822
 20
57.12858826390533
 10
94.62778724116564
 20
57.10619514325125
 10
94.85705834570902
 20
57.07484477433545
 10
95.05463457178814
 20
56.98492778217044
 10
95.26116804612883
 20
56.77822205305545
 10
95.54848900959862
 20
56.49055658003703
 10
95.78620059808093
 20
55.87526252637144
 10
95.03155243203693
 20
55.12078661510173
 10
95.03155243203693
 20
55.12078661510173
 10
93.75118269494384
 20
53.84127815187994
 10
93.75118269494384
 20
53.84127815187994
 10
93.75118269494384
 20
53.84127815187994
 10
93.36515974582164
 20
54.22747335577645
 10
93.36515974582164
 20
54.22747335577645
 10
93.36515974582164
 20
54.22747335577645
 10
94.59609236270134
 20
55.45771695355927
 10
94.59609236270134
 20
55.45771695355927
 10
95.01381019028793
 20
55.87526252637144
 10
95.11285668548882
 20
56.27971673633982
 10
94.79401309832892
 20
56.59873257827391
 10
94.56939287269074
 20
56.82335280391223
 10
94.22815616487662
 20
56.83231005217385
 10
93.96736243664324
 20
56.70690857651075
 10
93.89553219577582
 20
56.67107958346424
 10
93.81026608251586
 20
56.61251296021496
 10
93.73843584164845
 20
56.54085497412174
 10
93.73843584164845
 20
56.54085497412174
 10
92.39519311194953
 20
55.19795675397137
 10
92.39519311194953
 20
55.19795675397137
 10
92.39519311194953
 20
55.19795675397137
 10
92.00882565327873
 20
55.58449646741633
 10
92.00882565327873
 20
55.58449646741633
 10
92.00882565327873
 20
55.58449646741633
 10
93.31158851102594
 20
56.88674256084084
 10
93.31158851102594
 20
56.88674256084084
 10
93.65747609774501
 20
57.23263014755992
 10
93.75669484772023
 20
57.63639533843124
 10
93.45576575708363
 20
57.93749668384205
 10
93.20875241079122
 20
58.18485453968296
 10
92.83168670993063
 20
58.16694004315968
 10
92.57106523647152
 20
58.03189230013785
 10
92.49010549256812
 20
57.99606330709124
 10
92.41396888234413
 20
57.93749668384205
 10
92.34644501083321
 20
57.87031732187964
 10
92.34644501083321
 20
57.87031732187964
 10
91.03472490482431
 20
56.55911398019353
 10
91.03472490482431
 20
56.55911398019353
 10
91.03472490482431
 20
56.55911398019353
 10
90.64835744615354
 20
56.94565369363863
 10
90.64835744615354
 20
56.94565369363863
 10
90.64835744615354
 20
56.94565369363863
 10
92.23413489801405
 20
58.53074212640206
 10
92.23413489801405
 20
58.53074212640206
 97
        0
 97
        0
 75
     2
 76
     1
 98
        0
450
        0
451
        0
460
0.0
461
0.0
452
        0
462
0.0
453
        0
470

  0
LINE
  5
34F
330
1F
100
AcDbEntity
  8
Livello 1
100
AcDbLine
 10
60.12391019881794
 20
64.44035726305495
 30
0.0
 11
60.12391019881794
 21
38.42514810289285
 31
0.0
  0
POLYLINE
  5
350
330
1F
100
AcDbEntity
  8
Livello 1
100
AcDb2dPolyline
 66
     1
 10
0.0
 20
0.0
 30
0.0
  0
VERTEX
  5
351
330
350
100
AcDbEntity
  8
Livello 1
100
AcDbVertex
100
AcDb2dVertex
 10
55.5283650504197
 20
42.68330289425285
 30
0.0
  0
VERTEX
  5
352
330
350
100
AcDbEntity
  8
Livello 1
100
AcDbVertex
100
AcDb2dVertex
 10
55.5283650504197
 20
42.67055604095733
 30
0.0
  0
VERTEX
  5
353
330
350
100
AcDbEntity
  8
Livello 1
100
AcDbVertex
100
AcDb2dVertex
 10
55.91576603773605
 20
41.95294265137985
 30
0.0
  0
VERTEX
  5
354
330
350
100
AcDbEntity
  8
Livello 1
100
AcDbVertex
100
AcDb2dVertex
 10
55.49029674530769
 20
41.84511116269152
 30
0.0
  0
VERTEX
  5
355
330
350
100
AcDbEntity
  8
Livello 1
100
AcDbVertex
100
AcDb2dVertex
 10
55.00746661304991
 20
42.74703716072994
 30
0.0
  0
VERTEX
  5
356
330
350
100
AcDbEntity
  8
Livello 1
100
AcDbVertex
100
AcDb2dVertex
 10
55.00746661304991
 20
43.22314935679145
 30
0.0
  0
VERTEX
  5
357
330
350
100
AcDbEntity
  8
Livello 1
100
AcDbVertex
100
AcDb2dVertex
 10
59.13624129734755
 20
43.22314935679145
 30
0.0
  0
VERTEX
  5
358
330
350
100
AcDbEntity
  8
Livello 1
100
AcDbVertex
100
AcDb2dVertex
 10
59.13624129734755
 20
42.68330289425285
 30
0.0
  0
VERTEX
  5
359
330
350
100
AcDbEntity
  8
Livello 1
100
AcDbVertex
100
AcDb2dVertex
 10
55.5283650504197
 20
42.68330289425285
 30
0.0
  0
SEQEND
  5
35A
330
350
100
AcDbEntity
  8
Livello 1
  0
HATCH
  5
35B
330
1F
100
AcDbEntity
  8
Livello 1
100
AcDbHatch
 10
0.0
 20
0.0
 30
0.0
210
0.0
220
0.0
230
1.0
  2
SOLID
 70
     1
 71
     0
 91
        1
 92
        1
 93
        8
 72
     1
 10
55.5283650504197
 20
42.68330289425285
 11
55.5283650504197
 21
42.67055604095733
 72
     1
 10
55.5283650504197
 20
42.67055604095733
 11
55.91576603773605
 21
41.95294265137985
 72
     1
 10
55.91576603773605
 20
41.95294265137985
 11
55.49029674530769
 21
41.84511116269152
 72
     1
 10
55.49029674530769
 20
41.84511116269152
 11
55.00746661304991
 21
42.74703716072994
 72
     1
 10
55.00746661304991
 20
42.74703716072994
 11
55.00746661304991
 21
43.22314935679145
 72
     1
 10
55.00746661304991
 20
43.22314935679145
 11
59.13624129734755
 21
43.22314935679145
 72
     1
 10
59.13624129734755
 20
43.22314935679145
 11
59.13624129734755
 21
42.68330289425285
 72
     1
 10
59.13624129734755
 20
42.68330289425285
 11
55.5283650504197
 21
42.68330289425285
 97
        0
 75
     2
 76
     1
 98
        0
450
        0
451
        0
460
0.0
461
0.0
452
        0
462
0.0
453
        0
470

  0
SPLINE
  5
35C
330
1F
100
AcDbEntity
  8
Livello 1
100
AcDbSpline
210
0.0
220
0.0
230
1.0
 70
     9
 71
     3
 72
    35
 73
    31
 74
     0
 42
0.000000001
 43
0.0000000001
 40
0.0
 40
0.0
 40
0.0
 40
0.0
 40
1.0
 40
1.0
 40
1.0
 40
2.0
 40
2.0
 40
2.0
 40
3.0
 40
3.0
 40
3.0
 40
4.0
 40
4.0
 40
4.0
 40
5.0
 40
5.0
 40
5.0
 40
6.0
 40
6.0
 40
6.0
 40
7.0
 40
7.0
 40
7.0
 40
8.0
 40
8.0
 40
8.0
 40
9.0
 40
9.0
 40
9.0
 40
10.0
 40
10.0
 40
10.0
 40
10.0
 10
58.08824325073455
 20
44.67663514201833
 30
0.0
 10
57.56734481336478
 20
44.67663514201833
 30
0.0
 10
57.19889185121733
 20
44.98807177388491
 30
0.0
 10
56.98288436429216
 20
45.49622335795937
 30
0.0
 10
56.98288436429216
 20
45.49622335795937
 30
0.0
 10
56.96393633912328
 20
45.48967767653735
 30
0.0
 10
56.96393633912328
 20
45.48967767653735
 30
0.0
 10
56.74792885219812
 20
45.03251350564463
 30
0.0
 10
56.39222274334608
 20
44.83545404388834
 30
0.0
 10
56.03651663449404
 20
44.83545404388834
 30
0.0
 10
55.38229300184507
 20
44.83545404388834
 30
0.0
 10
54.93770342947358
 20
45.38804735972243
 30
0.0
 10
54.93770342947358
 20
46.11220643072193
 30
0.0
 10
54.93770342947358
 20
46.91250211194554
 30
0.0
 10
55.43948158690023
 20
47.31282220733155
 30
0.0
 10
55.9540065976223
 20
47.31282220733155
 30
0.0
 10
56.30333927982663
 20
47.31282220733155
 30
0.0
 10
56.67799341384756
 20
47.14125645216603
 30
0.0
 10
56.91949460736356
 20
46.63310486809177
 30
0.0
 10
56.91949460736356
 20
46.63310486809177
 30
0.0
 10
56.93844263253244
 20
46.63310486809177
 30
0.0
 10
56.93844263253244
 20
46.63310486809177
 30
0.0
 10
57.14170326616219
 20
47.14745762403953
 30
0.0
 10
57.50378280166194
 20
47.46509542777954
 30
0.0
 10
58.00556095908857
 20
47.46509542777954
 30
0.0
 10
58.72334660344037
 20
47.46509542777954
 30
0.0
 10
59.20617673569814
 20
46.84911235501693
 30
0.0
 10
59.20617673569814
 20
46.06156352708874
 30
0.0
 10
59.20617673569814
 20
45.19753357938816
 30
0.0
 10
58.69165172497608
 20
44.67663514201833
 30
0.0
 10
58.08824325073455
 20
44.67663514201833
 30
0.0
  0
SPLINE
  5
35D
330
1F
100
AcDbEntity
  8
Livello 1
100
AcDbSpline
210
0.0
220
0.0
230
1.0
 70
     9
 71
     3
 72
    17
 73
    13
 74
     0
 42
0.000000001
 43
0.0000000001
 40
0.0
 40
0.0
 40
0.0
 40
0.0
 40
1.0
 40
1.0
 40
1.0
 40
2.0
 40
2.0
 40
2.0
 40
3.0
 40
3.0
 40
3.0
 40
4.0
 40
4.0
 40
4.0
 40
4.0
 10
55.99844832938202
 20
45.36255365313166
 30
0.0
 10
56.41134302328919
 20
45.36255365313166
 30
0.0
 10
56.63355168208784
 20
45.67399028499815
 30
0.0
 10
56.76067570549354
 20
46.15044699060826
 30
0.0
 10
56.63992510873554
 20
46.50598084468604
 30
0.0
 10
56.38584931669837
 20
46.77917691666633
 30
0.0
 10
56.01102292790319
 20
46.77917691666633
 30
0.0
 10
55.68081052564199
 20
46.77917691666633
 30
0.0
 10
55.33785127008535
 20
46.58211745491004
 30
0.0
 10
55.33785127008535
 20
46.08051155225766
 30
0.0
 10
55.33785127008535
 20
45.61680169994303
 30
0.0
 10
55.64274222052995
 20
45.36255365313166
 30
0.0
 10
55.99844832938202
 20
45.36255365313166
 30
0.0
  0
SPLINE
  5
35E
330
1F
100
AcDbEntity
  8
Livello 1
100
AcDbSpline
210
0.0
220
0.0
230
1.0
 70
     9
 71
     3
 72
    17
 73
    13
 74
     0
 42
0.000000001
 43
0.0000000001
 40
0.0
 40
0.0
 40
0.0
 40
0.0
 40
1.0
 40
1.0
 40
1.0
 40
2.0
 40
2.0
 40
2.0
 40
3.0
 40
3.0
 40
3.0
 40
4.0
 40
4.0
 40
4.0
 40
4.0
 10
58.06274954414373
 20
46.89975525865006
 30
0.0
 10
57.56097138671707
 20
46.89975525865006
 30
0.0
 10
57.31964244797534
 20
46.55042257644575
 30
0.0
 10
57.16082354610532
 20
45.99162808873825
 30
0.0
 10
57.3005221680322
 20
45.50862570170616
 30
0.0
 10
57.61815997177222
 20
45.24852099256984
 30
0.0
 10
58.01193438573626
 20
45.24852099256984
 30
0.0
 10
58.43120250629119
 20
45.22922845785243
 30
0.0
 10
58.79965546843866
 20
45.54686626159244
 30
0.0
 10
58.79965546843866
 20
46.07396587083576
 30
0.0
 10
58.79965546843866
 20
46.57591628303666
 30
0.0
 10
58.48839109134636
 20
46.89975525865006
 30
0.0
 10
58.06274954414373
 20
46.89975525865006
 30
0.0
  0
HATCH
  5
35F
330
1F
100
AcDbEntity
  8
Livello 1
100
AcDbHatch
 10
0.0
 20
0.0
 30
0.0
210
0.0
220
0.0
230
1.0
  2
SOLID
 70
     1
 71
     0
 91
        3
 92
        1
 93
        1
 72
     4
 94
        3
 73
     0
 74
     0
 95
       35
 96
       31
 40
0.0
 40
0.0
 40
0.0
 40
0.0
 40
1.0
 40
1.0
 40
1.0
 40
2.0
 40
2.0
 40
2.0
 40
3.0
 40
3.0
 40
3.0
 40
4.0
 40
4.0
 40
4.0
 40
5.0
 40
5.0
 40
5.0
 40
6.0
 40
6.0
 40
6.0
 40
7.0
 40
7.0
 40
7.0
 40
8.0
 40
8.0
 40
8.0
 40
9.0
 40
9.0
 40
9.0
 40
10.0
 40
10.0
 40
10.0
 40
10.0
 10
58.08824325073455
 20
44.67663514201833
 10
57.56734481336478
 20
44.67663514201833
 10
57.19889185121733
 20
44.98807177388491
 10
56.98288436429216
 20
45.49622335795937
 10
56.98288436429216
 20
45.49622335795937
 10
56.96393633912328
 20
45.48967767653735
 10
56.96393633912328
 20
45.48967767653735
 10
56.74792885219812
 20
45.03251350564463
 10
56.39222274334608
 20
44.83545404388834
 10
56.03651663449404
 20
44.83545404388834
 10
55.38229300184507
 20
44.83545404388834
 10
54.93770342947358
 20
45.38804735972243
 10
54.93770342947358
 20
46.11220643072193
 10
54.93770342947358
 20
46.91250211194554
 10
55.43948158690023
 20
47.31282220733155
 10
55.9540065976223
 20
47.31282220733155
 10
56.30333927982663
 20
47.31282220733155
 10
56.67799341384756
 20
47.14125645216603
 10
56.91949460736356
 20
46.63310486809177
 10
56.91949460736356
 20
46.63310486809177
 10
56.93844263253244
 20
46.63310486809177
 10
56.93844263253244
 20
46.63310486809177
 10
57.14170326616219
 20
47.14745762403953
 10
57.50378280166194
 20
47.46509542777954
 10
58.00556095908857
 20
47.46509542777954
 10
58.72334660344037
 20
47.46509542777954
 10
59.20617673569814
 20
46.84911235501693
 10
59.20617673569814
 20
46.06156352708874
 10
59.20617673569814
 20
45.19753357938816
 10
58.69165172497608
 20
44.67663514201833
 10
58.08824325073455
 20
44.67663514201833
 97
        0
 97
        0
 92
        1
 93
        1
 72
     4
 94
        3
 73
     0
 74
     0
 95
       17
 96
       13
 40
0.0
 40
0.0
 40
0.0
 40
0.0
 40
1.0
 40
1.0
 40
1.0
 40
2.0
 40
2.0
 40
2.0
 40
3.0
 40
3.0
 40
3.0
 40
4.0
 40
4.0
 40
4.0
 40
4.0
 10
55.99844832938202
 20
45.36255365313166
 10
56.41134302328919
 20
45.36255365313166
 10
56.63355168208784
 20
45.67399028499815
 10
56.76067570549354
 20
46.15044699060826
 10
56.63992510873554
 20
46.50598084468604
 10
56.38584931669837
 20
46.77917691666633
 10
56.01102292790319
 20
46.77917691666633
 10
55.68081052564199
 20
46.77917691666633
 10
55.33785127008535
 20
46.58211745491004
 10
55.33785127008535
 20
46.08051155225766
 10
55.33785127008535
 20
45.61680169994303
 10
55.64274222052995
 20
45.36255365313166
 10
55.99844832938202
 20
45.36255365313166
 97
        0
 97
        0
 92
        1
 93
        1
 72
     4
 94
        3
 73
     0
 74
     0
 95
       17
 96
       13
 40
0.0
 40
0.0
 40
0.0
 40
0.0
 40
1.0
 40
1.0
 40
1.0
 40
2.0
 40
2.0
 40
2.0
 40
3.0
 40
3.0
 40
3.0
 40
4.0
 40
4.0
 40
4.0
 40
4.0
 10
58.06274954414373
 20
46.89975525865006
 10
57.56097138671707
 20
46.89975525865006
 10
57.31964244797534
 20
46.55042257644575
 10
57.16082354610532
 20
45.99162808873825
 10
57.3005221680322
 20
45.50862570170616
 10
57.61815997177222
 20
45.24852099256984
 10
58.01193438573626
 20
45.24852099256984
 10
58.43120250629119
 20
45.22922845785243
 10
58.79965546843866
 20
45.54686626159244
 10
58.79965546843866
 20
46.07396587083576
 10
58.79965546843866
 20
46.57591628303666
 10
58.48839109134636
 20
46.89975525865006
 10
58.06274954414373
 20
46.89975525865006
 97
        0
 97
        0
 75
     2
 76
     1
 98
        0
450
        0
451
        0
460
0.0
461
0.0
452
        0
462
0.0
453
        0
470

  0
SPLINE
  5
360
330
1F
100
AcDbEntity
  8
Livello 1
100
AcDbSpline
210
0.0
220
0.0
230
1.0
 70
     9
 71
     3
 72
    80
 73
    76
 74
     0
 42
0.000000001
 43
0.0000000001
 40
0.0
 40
0.0
 40
0.0
 40
0.0
 40
1.0
 40
1.0
 40
1.0
 40
2.0
 40
2.0
 40
2.0
 40
3.0
 40
3.0
 40
3.0
 40
4.0
 40
4.0
 40
4.0
 40
5.0
 40
5.0
 40
5.0
 40
6.0
 40
6.0
 40
6.0
 40
7.0
 40
7.0
 40
7.0
 40
8.0
 40
8.0
 40
8.0
 40
9.0
 40
9.0
 40
9.0
 40
10.0
 40
10.0
 40
10.0
 40
11.0
 40
11.0
 40
11.0
 40
12.0
 40
12.0
 40
12.0
 40
13.0
 40
13.0
 40
13.0
 40
14.0
 40
14.0
 40
14.0
 40
15.0
 40
15.0
 40
15.0
 40
16.0
 40
16.0
 40
16.0
 40
17.0
 40
17.0
 40
17.0
 40
18.0
 40
18.0
 40
18.0
 40
19.0
 40
19.0
 40
19.0
 40
20.0
 40
20.0
 40
20.0
 40
21.0
 40
21.0
 40
21.0
 40
22.0
 40
22.0
 40
22.0
 40
23.0
 40
23.0
 40
23.0
 40
24.0
 40
24.0
 40
24.0
 40
25.0
 40
25.0
 40
25.0
 40
25.0
 10
56.89400090077272
 20
49.50907057917834
 30
0.0
 10
56.57636309703267
 20
49.50907057917834
 30
0.0
 10
56.31591387834778
 20
49.50286940730484
 30
0.0
 10
56.06201034108487
 20
49.48357687258743
 30
0.0
 10
56.06201034108487
 20
49.48357687258743
 30
0.0
 10
56.06201034108487
 20
49.97278043149297
 30
0.0
 10
56.06201034108487
 20
49.97278043149297
 30
0.0
 10
56.06201034108487
 20
49.97278043149297
 30
0.0
 10
56.5574150718638
 20
49.99827413808375
 30
0.0
 10
56.5574150718638
 20
49.99827413808375
 30
0.0
 10
56.5574150718638
 20
49.99827413808375
 30
0.0
 10
56.5574150718638
 20
50.01722216325268
 30
0.0
 10
56.5574150718638
 20
50.01722216325268
 30
0.0
 10
56.26527097471464
 20
50.18878791841814
 30
0.0
 10
55.99207490273432
 20
50.47438633414535
 30
0.0
 10
55.99207490273432
 20
50.98253791821969
 30
0.0
 10
55.99207490273432
 20
51.40180603877453
 30
0.0
 10
56.24615069477147
 20
51.71944384251464
 30
0.0
 10
56.60823023027122
 20
51.85276903779376
 30
0.0
 10
56.60823023027122
 20
51.85276903779376
 30
0.0
 10
56.60823023027122
 20
51.86551589108916
 30
0.0
 10
56.60823023027122
 20
51.86551589108916
 30
0.0
 10
56.4366644751058
 20
51.96094503603067
 30
0.0
 10
56.30333927982663
 20
52.08152337801434
 30
0.0
 10
56.20808238965948
 20
52.20864740142002
 30
0.0
 10
56.06821151295832
 20
52.39296000988094
 30
0.0
 10
55.99207490273432
 20
52.59622064351066
 30
0.0
 10
55.99207490273432
 20
52.88836474065985
 30
0.0
 10
55.99207490273432
 20
53.29488600791936
 30
0.0
 10
56.25889754806691
 20
53.89812222738666
 30
0.0
 10
57.32601587462304
 20
53.89812222738666
 30
0.0
 10
57.32601587462304
 20
53.89812222738666
 30
0.0
 10
59.13624129734755
 20
53.89812222738666
 30
0.0
 10
59.13624129734755
 20
53.89812222738666
 30
0.0
 10
59.13624129734755
 20
53.89812222738666
 30
0.0
 10
59.13624129734755
 20
53.35207459297453
 30
0.0
 10
59.13624129734755
 20
53.35207459297453
 30
0.0
 10
59.13624129734755
 20
53.35207459297453
 30
0.0
 10
57.39577905819934
 20
53.35207459297453
 30
0.0
 10
57.39577905819934
 20
53.35207459297453
 30
0.0
 10
56.80511743725327
 20
53.35207459297453
 30
0.0
 10
56.44941132840123
 20
53.13606710604935
 30
0.0
 10
56.44941132840123
 20
52.68510410703012
 30
0.0
 10
56.44941132840123
 20
52.36746630329003
 30
0.0
 10
56.68436684049526
 20
52.11976393790064
 30
0.0
 10
56.95756291247557
 20
52.02433479295925
 30
0.0
 10
57.03369952269958
 20
51.99884108636831
 30
0.0
 10
57.13532983951449
 20
51.97989306119954
 30
0.0
 10
57.23696015632935
 20
51.97989306119954
 30
0.0
 10
57.23696015632935
 20
51.97989306119954
 30
0.0
 10
59.13624129734755
 20
51.97989306119954
 30
0.0
 10
59.13624129734755
 20
51.97989306119954
 30
0.0
 10
59.13624129734755
 20
51.97989306119954
 30
0.0
 10
59.13624129734755
 20
51.43350091723883
 30
0.0
 10
59.13624129734755
 20
51.43350091723883
 30
0.0
 10
59.13624129734755
 20
51.43350091723883
 30
0.0
 10
57.29414874138448
 20
51.43350091723883
 30
0.0
 10
57.29414874138448
 20
51.43350091723883
 30
0.0
 10
56.80511743725327
 20
51.43350091723883
 30
0.0
 10
56.44941132840123
 20
51.21783793986224
 30
0.0
 10
56.44941132840123
 20
50.79202413788536
 30
0.0
 10
56.44941132840123
 20
50.44269145568103
 30
0.0
 10
56.72880857225499
 20
50.18878791841814
 30
0.0
 10
57.008378070883
 20
50.09990445489865
 30
0.0
 10
57.09088810775472
 20
50.06786506688584
 30
0.0
 10
57.18614499792192
 20
50.05546272313896
 30
0.0
 10
57.28157414286332
 20
50.05546272313896
 30
0.0
 10
57.28157414286332
 20
50.05546272313896
 30
0.0
 10
59.13624129734755
 20
50.05546272313896
 30
0.0
 10
59.13624129734755
 20
50.05546272313896
 30
0.0
 10
59.13624129734755
 20
50.05546272313896
 30
0.0
 10
59.13624129734755
 20
49.50907057917834
 30
0.0
 10
59.13624129734755
 20
49.50907057917834
 30
0.0
 10
59.13624129734755
 20
49.50907057917834
 30
0.0
 10
56.89400090077272
 20
49.50907057917834
 30
0.0
 10
56.89400090077272
 20
49.50907057917834
 30
0.0
  0
HATCH
  5
361
330
1F
100
AcDbEntity
  8
Livello 1
100
AcDbHatch
 10
0.0
 20
0.0
 30
0.0
210
0.0
220
0.0
230
1.0
  2
SOLID
 70
     1
 71
     0
 91
        1
 92
        1
 93
        1
 72
     4
 94
        3
 73
     0
 74
     0
 95
       80
 96
       76
 40
0.0
 40
0.0
 40
0.0
 40
0.0
 40
1.0
 40
1.0
 40
1.0
 40
2.0
 40
2.0
 40
2.0
 40
3.0
 40
3.0
 40
3.0
 40
4.0
 40
4.0
 40
4.0
 40
5.0
 40
5.0
 40
5.0
 40
6.0
 40
6.0
 40
6.0
 40
7.0
 40
7.0
 40
7.0
 40
8.0
 40
8.0
 40
8.0
 40
9.0
 40
9.0
 40
9.0
 40
10.0
 40
10.0
 40
10.0
 40
11.0
 40
11.0
 40
11.0
 40
12.0
 40
12.0
 40
12.0
 40
13.0
 40
13.0
 40
13.0
 40
14.0
 40
14.0
 40
14.0
 40
15.0
 40
15.0
 40
15.0
 40
16.0
 40
16.0
 40
16.0
 40
17.0
 40
17.0
 40
17.0
 40
18.0
 40
18.0
 40
18.0
 40
19.0
 40
19.0
 40
19.0
 40
20.0
 40
20.0
 40
20.0
 40
21.0
 40
21.0
 40
21.0
 40
22.0
 40
22.0
 40
22.0
 40
23.0
 40
23.0
 40
23.0
 40
24.0
 40
24.0
 40
24.0
 40
25.0
 40
25.0
 40
25.0
 40
25.0
 10
56.89400090077272
 20
49.50907057917834
 10
56.57636309703267
 20
49.50907057917834
 10
56.31591387834778
 20
49.50286940730484
 10
56.06201034108487
 20
49.48357687258743
 10
56.06201034108487
 20
49.48357687258743
 10
56.06201034108487
 20
49.97278043149297
 10
56.06201034108487
 20
49.97278043149297
 10
56.06201034108487
 20
49.97278043149297
 10
56.5574150718638
 20
49.99827413808375
 10
56.5574150718638
 20
49.99827413808375
 10
56.5574150718638
 20
49.99827413808375
 10
56.5574150718638
 20
50.01722216325268
 10
56.5574150718638
 20
50.01722216325268
 10
56.26527097471464
 20
50.18878791841814
 10
55.99207490273432
 20
50.47438633414535
 10
55.99207490273432
 20
50.98253791821969
 10
55.99207490273432
 20
51.40180603877453
 10
56.24615069477147
 20
51.71944384251464
 10
56.60823023027122
 20
51.85276903779376
 10
56.60823023027122
 20
51.85276903779376
 10
56.60823023027122
 20
51.86551589108916
 10
56.60823023027122
 20
51.86551589108916
 10
56.4366644751058
 20
51.96094503603067
 10
56.30333927982663
 20
52.08152337801434
 10
56.20808238965948
 20
52.20864740142002
 10
56.06821151295832
 20
52.39296000988094
 10
55.99207490273432
 20
52.59622064351066
 10
55.99207490273432
 20
52.88836474065985
 10
55.99207490273432
 20
53.29488600791936
 10
56.25889754806691
 20
53.89812222738666
 10
57.32601587462304
 20
53.89812222738666
 10
57.32601587462304
 20
53.89812222738666
 10
59.13624129734755
 20
53.89812222738666
 10
59.13624129734755
 20
53.89812222738666
 10
59.13624129734755
 20
53.89812222738666
 10
59.13624129734755
 20
53.35207459297453
 10
59.13624129734755
 20
53.35207459297453
 10
59.13624129734755
 20
53.35207459297453
 10
57.39577905819934
 20
53.35207459297453
 10
57.39577905819934
 20
53.35207459297453
 10
56.80511743725327
 20
53.35207459297453
 10
56.44941132840123
 20
53.13606710604935
 10
56.44941132840123
 20
52.68510410703012
 10
56.44941132840123
 20
52.36746630329003
 10
56.68436684049526
 20
52.11976393790064
 10
56.95756291247557
 20
52.02433479295925
 10
57.03369952269958
 20
51.99884108636831
 10
57.13532983951449
 20
51.97989306119954
 10
57.23696015632935
 20
51.97989306119954
 10
57.23696015632935
 20
51.97989306119954
 10
59.13624129734755
 20
51.97989306119954
 10
59.13624129734755
 20
51.97989306119954
 10
59.13624129734755
 20
51.97989306119954
 10
59.13624129734755
 20
51.43350091723883
 10
59.13624129734755
 20
51.43350091723883
 10
59.13624129734755
 20
51.43350091723883
 10
57.29414874138448
 20
51.43350091723883
 10
57.29414874138448
 20
51.43350091723883
 10
56.80511743725327
 20
51.43350091723883
 10
56.44941132840123
 20
51.21783793986224
 10
56.44941132840123
 20
50.79202413788536
 10
56.44941132840123
 20
50.44269145568103
 10
56.72880857225499
 20
50.18878791841814
 10
57.008378070883
 20
50.09990445489865
 10
57.09088810775472
 20
50.06786506688584
 10
57.18614499792192
 20
50.05546272313896
 10
57.28157414286332
 20
50.05546272313896
 10
57.28157414286332
 20
50.05546272313896
 10
59.13624129734755
 20
50.05546272313896
 10
59.13624129734755
 20
50.05546272313896
 10
59.13624129734755
 20
50.05546272313896
 10
59.13624129734755
 20
49.50907057917834
 10
59.13624129734755
 20
49.50907057917834
 10
59.13624129734755
 20
49.50907057917834
 10
56.89400090077272
 20
49.50907057917834
 10
56.89400090077272
 20
49.50907057917834
 97
        0
 97
        0
 75
     2
 76
     1
 98
        0
450
        0
451
        0
460
0.0
461
0.0
452
        0
462
0.0
453
        0
470

  0
SPLINE
  5
362
330
1F
100
AcDbEntity
  8
Livello 1
100
AcDbSpline
210
0.0
220
0.0
230
1.0
 70
     9
 71
     3
 72
    80
 73
    76
 74
     0
 42
0.000000001
 43
0.0000000001
 40
0.0
 40
0.0
 40
0.0
 40
0.0
 40
1.0
 40
1.0
 40
1.0
 40
2.0
 40
2.0
 40
2.0
 40
3.0
 40
3.0
 40
3.0
 40
4.0
 40
4.0
 40
4.0
 40
5.0
 40
5.0
 40
5.0
 40
6.0
 40
6.0
 40
6.0
 40
7.0
 40
7.0
 40
7.0
 40
8.0
 40
8.0
 40
8.0
 40
9.0
 40
9.0
 40
9.0
 40
10.0
 40
10.0
 40
10.0
 40
11.0
 40
11.0
 40
11.0
 40
12.0
 40
12.0
 40
12.0
 40
13.0
 40
13.0
 40
13.0
 40
14.0
 40
14.0
 40
14.0
 40
15.0
 40
15.0
 40
15.0
 40
16.0
 40
16.0
 40
16.0
 40
17.0
 40
17.0
 40
17.0
 40
18.0
 40
18.0
 40
18.0
 40
19.0
 40
19.0
 40
19.0
 40
20.0
 40
20.0
 40
20.0
 40
21.0
 40
21.0
 40
21.0
 40
22.0
 40
22.0
 40
22.0
 40
23.0
 40
23.0
 40
23.0
 40
24.0
 40
24.0
 40
24.0
 40
25.0
 40
25.0
 40
25.0
 40
25.0
 10
56.89400090077272
 20
54.80487135910434
 30
0.0
 10
56.57636309703267
 20
54.80487135910434
 30
0.0
 10
56.31591387834778
 20
54.79867018723095
 30
0.0
 10
56.06201034108487
 20
54.77937765251354
 30
0.0
 10
56.06201034108487
 20
54.77937765251354
 30
0.0
 10
56.06201034108487
 20
55.26858121141896
 30
0.0
 10
56.06201034108487
 20
55.26858121141896
 30
0.0
 10
56.06201034108487
 20
55.26858121141896
 30
0.0
 10
56.5574150718638
 20
55.29407491800984
 30
0.0
 10
56.5574150718638
 20
55.29407491800984
 30
0.0
 10
56.5574150718638
 20
55.29407491800984
 30
0.0
 10
56.5574150718638
 20
55.31302294317874
 30
0.0
 10
56.5574150718638
 20
55.31302294317874
 30
0.0
 10
56.26527097471464
 20
55.48458869834414
 30
0.0
 10
55.99207490273432
 20
55.77018711407134
 30
0.0
 10
55.99207490273432
 20
56.27833869814574
 30
0.0
 10
55.99207490273432
 20
56.69760681870068
 30
0.0
 10
56.24615069477147
 20
57.01524462244063
 30
0.0
 10
56.60823023027122
 20
57.14856981771984
 30
0.0
 10
56.60823023027122
 20
57.14856981771984
 30
0.0
 10
56.60823023027122
 20
57.16131667101524
 30
0.0
 10
56.60823023027122
 20
57.16131667101524
 30
0.0
 10
56.4366644751058
 20
57.25674581595663
 30
0.0
 10
56.30333927982663
 20
57.37732415794045
 30
0.0
 10
56.20808238965948
 20
57.50444818134616
 30
0.0
 10
56.06821151295832
 20
57.68876078980693
 30
0.0
 10
55.99207490273432
 20
57.89202142343675
 30
0.0
 10
55.99207490273432
 20
58.18416552058593
 30
0.0
 10
55.99207490273432
 20
58.59068678784544
 30
0.0
 10
56.25889754806691
 20
59.19392300731266
 30
0.0
 10
57.32601587462304
 20
59.19392300731266
 30
0.0
 10
57.32601587462304
 20
59.19392300731266
 30
0.0
 10
59.13624129734755
 20
59.19392300731266
 30
0.0
 10
59.13624129734755
 20
59.19392300731266
 30
0.0
 10
59.13624129734755
 20
59.19392300731266
 30
0.0
 10
59.13624129734755
 20
58.64787537290053
 30
0.0
 10
59.13624129734755
 20
58.64787537290053
 30
0.0
 10
59.13624129734755
 20
58.64787537290053
 30
0.0
 10
57.39577905819934
 20
58.64787537290053
 30
0.0
 10
57.39577905819934
 20
58.64787537290053
 30
0.0
 10
56.80511743725327
 20
58.64787537290053
 30
0.0
 10
56.44941132840123
 20
58.43186788597535
 30
0.0
 10
56.44941132840123
 20
57.98090488695618
 30
0.0
 10
56.44941132840123
 20
57.66326708321617
 30
0.0
 10
56.68436684049526
 20
57.41556471782676
 30
0.0
 10
56.95756291247557
 20
57.32013557288524
 30
0.0
 10
57.03369952269958
 20
57.29464186629442
 30
0.0
 10
57.13532983951449
 20
57.27569384112553
 30
0.0
 10
57.23696015632935
 20
57.27569384112553
 30
0.0
 10
57.23696015632935
 20
57.27569384112553
 30
0.0
 10
59.13624129734755
 20
57.27569384112553
 30
0.0
 10
59.13624129734755
 20
57.27569384112553
 30
0.0
 10
59.13624129734755
 20
57.27569384112553
 30
0.0
 10
59.13624129734755
 20
56.72930169716494
 30
0.0
 10
59.13624129734755
 20
56.72930169716494
 30
0.0
 10
59.13624129734755
 20
56.72930169716494
 30
0.0
 10
57.29414874138448
 20
56.72930169716494
 30
0.0
 10
57.29414874138448
 20
56.72930169716494
 30
0.0
 10
56.80511743725327
 20
56.72930169716494
 30
0.0
 10
56.44941132840123
 20
56.51363871978825
 30
0.0
 10
56.44941132840123
 20
56.08782491781136
 30
0.0
 10
56.44941132840123
 20
55.73849223560703
 30
0.0
 10
56.72880857225499
 20
55.48458869834414
 30
0.0
 10
57.008378070883
 20
55.39570523482476
 30
0.0
 10
57.09088810775472
 20
55.36366584681193
 30
0.0
 10
57.18614499792192
 20
55.35126350306495
 30
0.0
 10
57.28157414286332
 20
55.35126350306495
 30
0.0
 10
57.28157414286332
 20
55.35126350306495
 30
0.0
 10
59.13624129734755
 20
55.35126350306495
 30
0.0
 10
59.13624129734755
 20
55.35126350306495
 30
0.0
 10
59.13624129734755
 20
55.35126350306495
 30
0.0
 10
59.13624129734755
 20
54.80487135910434
 30
0.0
 10
59.13624129734755
 20
54.80487135910434
 30
0.0
 10
59.13624129734755
 20
54.80487135910434
 30
0.0
 10
56.89400090077272
 20
54.80487135910434
 30
0.0
 10
56.89400090077272
 20
54.80487135910434
 30
0.0
  0
HATCH
  5
363
330
1F
100
AcDbEntity
  8
Livello 1
100
AcDbHatch
 10
0.0
 20
0.0
 30
0.0
210
0.0
220
0.0
230
1.0
  2
SOLID
 70
     1
 71
     0
 91
        1
 92
        1
 93
        1
 72
     4
 94
        3
 73
     0
 74
     0
 95
       80
 96
       76
 40
0.0
 40
0.0
 40
0.0
 40
0.0
 40
1.0
 40
1.0
 40
1.0
 40
2.0
 40
2.0
 40
2.0
 40
3.0
 40
3.0
 40
3.0
 40
4.0
 40
4.0
 40
4.0
 40
5.0
 40
5.0
 40
5.0
 40
6.0
 40
6.0
 40
6.0
 40
7.0
 40
7.0
 40
7.0
 40
8.0
 40
8.0
 40
8.0
 40
9.0
 40
9.0
 40
9.0
 40
10.0
 40
10.0
 40
10.0
 40
11.0
 40
11.0
 40
11.0
 40
12.0
 40
12.0
 40
12.0
 40
13.0
 40
13.0
 40
13.0
 40
14.0
 40
14.0
 40
14.0
 40
15.0
 40
15.0
 40
15.0
 40
16.0
 40
16.0
 40
16.0
 40
17.0
 40
17.0
 40
17.0
 40
18.0
 40
18.0
 40
18.0
 40
19.0
 40
19.0
 40
19.0
 40
20.0
 40
20.0
 40
20.0
 40
21.0
 40
21.0
 40
21.0
 40
22.0
 40
22.0
 40
22.0
 40
23.0
 40
23.0
 40
23.0
 40
24.0
 40
24.0
 40
24.0
 40
25.0
 40
25.0
 40
25.0
 40
25.0
 10
56.89400090077272
 20
54.80487135910434
 10
56.57636309703267
 20
54.80487135910434
 10
56.31591387834778
 20
54.79867018723095
 10
56.06201034108487
 20
54.77937765251354
 10
56.06201034108487
 20
54.77937765251354
 10
56.06201034108487
 20
55.26858121141896
 10
56.06201034108487
 20
55.26858121141896
 10
56.06201034108487
 20
55.26858121141896
 10
56.5574150718638
 20
55.29407491800984
 10
56.5574150718638
 20
55.29407491800984
 10
56.5574150718638
 20
55.29407491800984
 10
56.5574150718638
 20
55.31302294317874
 10
56.5574150718638
 20
55.31302294317874
 10
56.26527097471464
 20
55.48458869834414
 10
55.99207490273432
 20
55.77018711407134
 10
55.99207490273432
 20
56.27833869814574
 10
55.99207490273432
 20
56.69760681870068
 10
56.24615069477147
 20
57.01524462244063
 10
56.60823023027122
 20
57.14856981771984
 10
56.60823023027122
 20
57.14856981771984
 10
56.60823023027122
 20
57.16131667101524
 10
56.60823023027122
 20
57.16131667101524
 10
56.4366644751058
 20
57.25674581595663
 10
56.30333927982663
 20
57.37732415794045
 10
56.20808238965948
 20
57.50444818134616
 10
56.06821151295832
 20
57.68876078980693
 10
55.99207490273432
 20
57.89202142343675
 10
55.99207490273432
 20
58.18416552058593
 10
55.99207490273432
 20
58.59068678784544
 10
56.25889754806691
 20
59.19392300731266
 10
57.32601587462304
 20
59.19392300731266
 10
57.32601587462304
 20
59.19392300731266
 10
59.13624129734755
 20
59.19392300731266
 10
59.13624129734755
 20
59.19392300731266
 10
59.13624129734755
 20
59.19392300731266
 10
59.13624129734755
 20
58.64787537290053
 10
59.13624129734755
 20
58.64787537290053
 10
59.13624129734755
 20
58.64787537290053
 10
57.39577905819934
 20
58.64787537290053
 10
57.39577905819934
 20
58.64787537290053
 10
56.80511743725327
 20
58.64787537290053
 10
56.44941132840123
 20
58.43186788597535
 10
56.44941132840123
 20
57.98090488695618
 10
56.44941132840123
 20
57.66326708321617
 10
56.68436684049526
 20
57.41556471782676
 10
56.95756291247557
 20
57.32013557288524
 10
57.03369952269958
 20
57.29464186629442
 10
57.13532983951449
 20
57.27569384112553
 10
57.23696015632935
 20
57.27569384112553
 10
57.23696015632935
 20
57.27569384112553
 10
59.13624129734755
 20
57.27569384112553
 10
59.13624129734755
 20
57.27569384112553
 10
59.13624129734755
 20
57.27569384112553
 10
59.13624129734755
 20
56.72930169716494
 10
59.13624129734755
 20
56.72930169716494
 10
59.13624129734755
 20
56.72930169716494
 10
57.29414874138448
 20
56.72930169716494
 10
57.29414874138448
 20
56.72930169716494
 10
56.80511743725327
 20
56.72930169716494
 10
56.44941132840123
 20
56.51363871978825
 10
56.44941132840123
 20
56.08782491781136
 10
56.44941132840123
 20
55.73849223560703
 10
56.72880857225499
 20
55.48458869834414
 10
57.008378070883
 20
55.39570523482476
 10
57.09088810775472
 20
55.36366584681193
 10
57.18614499792192
 20
55.35126350306495
 10
57.28157414286332
 20
55.35126350306495
 10
57.28157414286332
 20
55.35126350306495
 10
59.13624129734755
 20
55.35126350306495
 10
59.13624129734755
 20
55.35126350306495
 10
59.13624129734755
 20
55.35126350306495
 10
59.13624129734755
 20
54.80487135910434
 10
59.13624129734755
 20
54.80487135910434
 10
59.13624129734755
 20
54.80487135910434
 10
56.89400090077272
 20
54.80487135910434
 10
56.89400090077272
 20
54.80487135910434
 97
        0
 97
        0
 75
     2
 76
     1
 98
        0
450
        0
451
        0
460
0.0
461
0.0
452
        0
462
0.0
453
        0
470

  0
LINE
  5
364
330
1F
100
AcDbEntity
  8
Livello 1
100
AcDbLine
 10
63.97779575242464
 20
35.04203644932124
 30
0.0
 11
86.69389711733343
 21
35.04203644932124
 31
0.0
  0
POLYLINE
  5
365
330
1F
100
AcDbEntity
  8
Livello 1
100
AcDb2dPolyline
 66
     1
 10
0.0
 20
0.0
 30
0.0
  0
VERTEX
  5
366
330
365
100
AcDbEntity
  8
Livello 1
100
AcDbVertex
100
AcDb2dVertex
 10
69.32821178091074
 20
32.80518060939594
 30
0.0
  0
VERTEX
  5
367
330
365
100
AcDbEntity
  8
Livello 1
100
AcDbVertex
100
AcDb2dVertex
 10
69.31546492761524
 20
32.80518060939594
 30
0.0
  0
VERTEX
  5
368
330
365
100
AcDbEntity
  8
Livello 1
100
AcDbVertex
100
AcDb2dVertex
 10
68.59785153803773
 20
32.41795187685386
 30
0.0
  0
VERTEX
  5
369
330
365
100
AcDbEntity
  8
Livello 1
100
AcDbVertex
100
AcDb2dVertex
 10
68.49002004934944
 20
32.84342116928227
 30
0.0
  0
VERTEX
  5
36A
330
365
100
AcDbEntity
  8
Livello 1
100
AcDbVertex
100
AcDb2dVertex
 10
69.39194604738784
 20
33.32607904676576
 30
0.0
  0
VERTEX
  5
36B
330
365
100
AcDbEntity
  8
Livello 1
100
AcDbVertex
100
AcDb2dVertex
 10
69.86805824344934
 20
33.32607904676576
 30
0.0
  0
VERTEX
  5
36C
330
365
100
AcDbEntity
  8
Livello 1
100
AcDbVertex
100
AcDb2dVertex
 10
69.86805824344934
 20
29.19747661724236
 30
0.0
  0
VERTEX
  5
36D
330
365
100
AcDbEntity
  8
Livello 1
100
AcDbVertex
100
AcDb2dVertex
 10
69.32821178091074
 20
29.19747661724236
 30
0.0
  0
VERTEX
  5
36E
330
365
100
AcDbEntity
  8
Livello 1
100
AcDbVertex
100
AcDb2dVertex
 10
69.32821178091074
 20
32.80518060939594
 30
0.0
  0
SEQEND
  5
36F
330
365
100
AcDbEntity
  8
Livello 1
  0
HATCH
  5
370
330
1F
100
AcDbEntity
  8
Livello 1
100
AcDbHatch
 10
0.0
 20
0.0
 30
0.0
210
0.0
220
0.0
230
1.0
  2
SOLID
 70
     1
 71
     0
 91
        1
 92
        1
 93
        8
 72
     1
 10
69.32821178091074
 20
32.80518060939594
 11
69.31546492761524
 21
32.80518060939594
 72
     1
 10
69.31546492761524
 20
32.80518060939594
 11
68.59785153803773
 21
32.41795187685386
 72
     1
 10
68.59785153803773
 20
32.41795187685386
 11
68.49002004934944
 21
32.84342116928227
 72
     1
 10
68.49002004934944
 20
32.84342116928227
 11
69.39194604738784
 21
33.32607904676576
 72
     1
 10
69.39194604738784
 20
33.32607904676576
 11
69.86805824344934
 21
33.32607904676576
 72
     1
 10
69.86805824344934
 20
33.32607904676576
 11
69.86805824344934
 21
29.19747661724236
 72
     1
 10
69.86805824344934
 20
29.19747661724236
 11
69.32821178091074
 21
29.19747661724236
 72
     1
 10
69.32821178091074
 20
29.19747661724236
 11
69.32821178091074
 21
32.80518060939594
 97
        0
 75
     2
 76
     1
 98
        0
450
        0
451
        0
460
0.0
461
0.0
452
        0
462
0.0
453
        0
470

  0
SPLINE
  5
371
330
1F
100
AcDbEntity
  8
Livello 1
100
AcDbSpline
210
0.0
220
0.0
230
1.0
 70
     9
 71
     3
 72
    38
 73
    34
 74
     0
 42
0.000000001
 43
0.0000000001
 40
0.0
 40
0.0
 40
0.0
 40
0.0
 40
1.0
 40
1.0
 40
1.0
 40
2.0
 40
2.0
 40
2.0
 40
3.0
 40
3.0
 40
3.0
 40
4.0
 40
4.0
 40
4.0
 40
5.0
 40
5.0
 40
5.0
 40
6.0
 40
6.0
 40
6.0
 40
7.0
 40
7.0
 40
7.0
 40
8.0
 40
8.0
 40
8.0
 40
9.0
 40
9.0
 40
9.0
 40
10.0
 40
10.0
 40
10.0
 40
11.0
 40
11.0
 40
11.0
 40
11.0
 10
73.72897675376883
 20
32.93230463280167
 30
0.0
 10
73.61459958365853
 20
32.93850580467517
 30
0.0
 10
73.46852753508393
 20
32.93230463280167
 30
0.0
 10
73.30970863321393
 20
32.90681092621085
 30
0.0
 10
72.43327634176633
 20
32.76073887763627
 30
0.0
 10
71.96956648945172
 20
32.11926209828275
 30
0.0
 10
71.87413734451034
 20
31.43954475904292
 30
0.0
 10
71.87413734451034
 20
31.43954475904292
 30
0.0
 10
71.89342987922772
 20
31.43954475904292
 30
0.0
 10
71.89342987922772
 20
31.43954475904292
 30
0.0
 10
72.09014483143542
 20
31.69999397772784
 30
0.0
 10
72.43327634176633
 20
31.91600146465294
 30
0.0
 10
72.89044051265905
 20
31.91600146465294
 30
0.0
 10
73.62114526508054
 20
31.91600146465294
 30
0.0
 10
74.13549802102834
 20
31.38890185540978
 30
0.0
 10
74.13549802102834
 20
30.58206049276424
 30
0.0
 10
74.13549802102834
 20
29.82620654330043
 30
0.0
 10
73.62114526508054
 20
29.12754117889176
 30
0.0
 10
72.76331648925334
 20
29.12754117889176
 30
0.0
 10
71.88068302593234
 20
29.12754117889176
 30
0.0
 10
71.30259600350735
 20
29.81345969000503
 30
0.0
 10
71.30259600350735
 20
30.88695144320886
 30
0.0
 10
71.30259600350735
 20
31.69999397772784
 30
0.0
 10
71.59474010065654
 20
32.34147075708134
 30
0.0
 10
72.00126136791604
 20
32.74799202434073
 30
0.0
 10
72.34439287824693
 20
33.08457785324973
 30
0.0
 10
72.80155704913953
 20
33.29438416830143
 30
0.0
 10
73.32245548650934
 20
33.35777392523002
 30
0.0
 10
73.48747556025283
 20
33.38326763182081
 30
0.0
 10
73.62734643695394
 20
33.38946880369434
 30
0.0
 10
73.72897675376883
 20
33.38946880369434
 30
0.0
 10
73.72897675376883
 20
33.38946880369434
 30
0.0
 10
73.72897675376883
 20
32.93230463280167
 30
0.0
 10
73.72897675376883
 20
32.93230463280167
 30
0.0
  0
SPLINE
  5
372
330
1F
100
AcDbEntity
  8
Livello 1
100
AcDbSpline
210
0.0
220
0.0
230
1.0
 70
    11
 71
     3
 72
    20
 73
    16
 74
     0
 42
0.000000001
 43
0.0000000001
 40
0.0
 40
0.0
 40
0.0
 40
0.0
 40
1.0
 40
1.0
 40
1.0
 40
2.0
 40
2.0
 40
2.0
 40
3.0
 40
3.0
 40
3.0
 40
4.0
 40
4.0
 40
4.0
 40
5.0
 40
5.0
 40
5.0
 40
5.0
 10
73.57015785189884
 20
30.55036561429992
 30
0.0
 10
73.57015785189884
 20
31.14119949002026
 30
0.0
 10
73.23357202298993
 20
31.49673334409806
 30
0.0
 10
72.71887475749355
 20
31.49673334409806
 30
0.0
 10
72.38228892858463
 20
31.49673334409806
 30
0.0
 10
72.07119680626663
 20
31.28727153859486
 30
0.0
 10
71.91857907627003
 20
30.98858176002375
 30
0.0
 10
71.88068302593234
 20
30.92519200309516
 30
0.0
 10
71.85518931934142
 20
30.84250971144917
 30
0.0
 10
71.85518931934142
 20
30.74087939463425
 30
0.0
 10
71.86793617263683
 20
30.06116205539445
 30
0.0
 10
72.17902829495492
 20
29.55955615274204
 30
0.0
 10
72.76331648925334
 20
29.55955615274204
 30
0.0
 10
73.24631887628534
 20
29.55955615274204
 30
0.0
 10
73.57015785189884
 20
29.95953173857953
 30
0.0
 10
73.57015785189884
 20
30.55036561429992
 30
0.0
  0
HATCH
  5
373
330
1F
100
AcDbEntity
  8
Livello 1
100
AcDbHatch
 10
0.0
 20
0.0
 30
0.0
210
0.0
220
0.0
230
1.0
  2
SOLID
 70
     1
 71
     0
 91
        2
 92
        1
 93
        1
 72
     4
 94
        3
 73
     0
 74
     0
 95
       38
 96
       34
 40
0.0
 40
0.0
 40
0.0
 40
0.0
 40
1.0
 40
1.0
 40
1.0
 40
2.0
 40
2.0
 40
2.0
 40
3.0
 40
3.0
 40
3.0
 40
4.0
 40
4.0
 40
4.0
 40
5.0
 40
5.0
 40
5.0
 40
6.0
 40
6.0
 40
6.0
 40
7.0
 40
7.0
 40
7.0
 40
8.0
 40
8.0
 40
8.0
 40
9.0
 40
9.0
 40
9.0
 40
10.0
 40
10.0
 40
10.0
 40
11.0
 40
11.0
 40
11.0
 40
11.0
 10
73.72897675376883
 20
32.93230463280167
 10
73.61459958365853
 20
32.93850580467517
 10
73.46852753508393
 20
32.93230463280167
 10
73.30970863321393
 20
32.90681092621085
 10
72.43327634176633
 20
32.76073887763627
 10
71.96956648945172
 20
32.11926209828275
 10
71.87413734451034
 20
31.43954475904292
 10
71.87413734451034
 20
31.43954475904292
 10
71.89342987922772
 20
31.43954475904292
 10
71.89342987922772
 20
31.43954475904292
 10
72.09014483143542
 20
31.69999397772784
 10
72.43327634176633
 20
31.91600146465294
 10
72.89044051265905
 20
31.91600146465294
 10
73.62114526508054
 20
31.91600146465294
 10
74.13549802102834
 20
31.38890185540978
 10
74.13549802102834
 20
30.58206049276424
 10
74.13549802102834
 20
29.82620654330043
 10
73.62114526508054
 20
29.12754117889176
 10
72.76331648925334
 20
29.12754117889176
 10
71.88068302593234
 20
29.12754117889176
 10
71.30259600350735
 20
29.81345969000503
 10
71.30259600350735
 20
30.88695144320886
 10
71.30259600350735
 20
31.69999397772784
 10
71.59474010065654
 20
32.34147075708134
 10
72.00126136791604
 20
32.74799202434073
 10
72.34439287824693
 20
33.08457785324973
 10
72.80155704913953
 20
33.29438416830143
 10
73.32245548650934
 20
33.35777392523002
 10
73.48747556025283
 20
33.38326763182081
 10
73.62734643695394
 20
33.38946880369434
 10
73.72897675376883
 20
33.38946880369434
 10
73.72897675376883
 20
33.38946880369434
 10
73.72897675376883
 20
32.93230463280167
 10
73.72897675376883
 20
32.93230463280167
 97
        0
 97
        0
 92
        1
 93
        1
 72
     4
 94
        3
 73
     0
 74
     0
 95
       20
 96
       16
 40
0.0
 40
0.0
 40
0.0
 40
0.0
 40
1.0
 40
1.0
 40
1.0
 40
2.0
 40
2.0
 40
2.0
 40
3.0
 40
3.0
 40
3.0
 40
4.0
 40
4.0
 40
4.0
 40
5.0
 40
5.0
 40
5.0
 40
5.0
 10
73.57015785189884
 20
30.55036561429992
 10
73.57015785189884
 20
31.14119949002026
 10
73.23357202298993
 20
31.49673334409806
 10
72.71887475749355
 20
31.49673334409806
 10
72.38228892858463
 20
31.49673334409806
 10
72.07119680626663
 20
31.28727153859486
 10
71.91857907627003
 20
30.98858176002375
 10
71.88068302593234
 20
30.92519200309516
 10
71.85518931934142
 20
30.84250971144917
 10
71.85518931934142
 20
30.74087939463425
 10
71.86793617263683
 20
30.06116205539445
 10
72.17902829495492
 20
29.55955615274204
 10
72.76331648925334
 20
29.55955615274204
 10
73.24631887628534
 20
29.55955615274204
 10
73.57015785189884
 20
29.95953173857953
 10
73.57015785189884
 20
30.55036561429992
 97
        0
 97
        0
 75
     2
 76
     1
 98
        0
450
        0
451
        0
460
0.0
461
0.0
452
        0
462
0.0
453
        0
470

  0
SPLINE
  5
374
330
1F
100
AcDbEntity
  8
Livello 1
100
AcDbSpline
210
0.0
220
0.0
230
1.0
 70
     9
 71
     3
 72
    80
 73
    76
 74
     0
 42
0.000000001
 43
0.0000000001
 40
0.0
 40
0.0
 40
0.0
 40
0.0
 40
1.0
 40
1.0
 40
1.0
 40
2.0
 40
2.0
 40
2.0
 40
3.0
 40
3.0
 40
3.0
 40
4.0
 40
4.0
 40
4.0
 40
5.0
 40
5.0
 40
5.0
 40
6.0
 40
6.0
 40
6.0
 40
7.0
 40
7.0
 40
7.0
 40
8.0
 40
8.0
 40
8.0
 40
9.0
 40
9.0
 40
9.0
 40
10.0
 40
10.0
 40
10.0
 40
11.0
 40
11.0
 40
11.0
 40
12.0
 40
12.0
 40
12.0
 40
13.0
 40
13.0
 40
13.0
 40
14.0
 40
14.0
 40
14.0
 40
15.0
 40
15.0
 40
15.0
 40
16.0
 40
16.0
 40
16.0
 40
17.0
 40
17.0
 40
17.0
 40
18.0
 40
18.0
 40
18.0
 40
19.0
 40
19.0
 40
19.0
 40
20.0
 40
20.0
 40
20.0
 40
21.0
 40
21.0
 40
21.0
 40
22.0
 40
22.0
 40
22.0
 40
23.0
 40
23.0
 40
23.0
 40
24.0
 40
24.0
 40
24.0
 40
25.0
 40
25.0
 40
25.0
 40
25.0
 10
76.15397946583623
 20
31.43954475904292
 30
0.0
 10
76.15397946583623
 20
31.75718256278293
 30
0.0
 10
76.14777829396271
 20
32.01763178146786
 30
0.0
 10
76.12848575924534
 20
32.27153531873077
 30
0.0
 10
76.12848575924534
 20
32.27153531873077
 30
0.0
 10
76.61768931815084
 20
32.27153531873077
 30
0.0
 10
76.61768931815084
 20
32.27153531873077
 30
0.0
 10
76.61768931815084
 20
32.27153531873077
 30
0.0
 10
76.64318302474163
 20
31.77613058795186
 30
0.0
 10
76.64318302474163
 20
31.77613058795186
 30
0.0
 10
76.64318302474163
 20
31.77613058795186
 30
0.0
 10
76.66213104991054
 20
31.77613058795186
 30
0.0
 10
76.66213104991054
 20
31.77613058795186
 30
0.0
 10
76.83369680507604
 20
32.06827468510105
 30
0.0
 10
77.11929522080324
 20
32.34147075708134
 30
0.0
 10
77.62744680487753
 20
32.34147075708134
 30
0.0
 10
78.04671492543242
 20
32.34147075708134
 30
0.0
 10
78.36435272917244
 20
32.08756721981834
 30
0.0
 10
78.49767792445163
 20
31.72548768431866
 30
0.0
 10
78.49767792445163
 20
31.72548768431866
 30
0.0
 10
78.51042477774703
 20
31.72548768431866
 30
0.0
 10
78.51042477774703
 20
31.72548768431866
 30
0.0
 10
78.60585392268854
 20
31.89705343948418
 30
0.0
 10
78.72643226467224
 20
32.03037863476325
 30
0.0
 10
78.85355628807793
 20
32.12546327015616
 30
0.0
 10
79.03786889653884
 20
32.26533414685733
 30
0.0
 10
79.24112953016855
 20
32.34147075708134
 30
0.0
 10
79.53327362731773
 20
32.34147075708134
 30
0.0
 10
79.93979489457723
 20
32.34147075708134
 30
0.0
 10
80.54303111404442
 20
32.07482036652294
 30
0.0
 10
80.54303111404442
 20
31.00752978519253
 30
0.0
 10
80.54303111404442
 20
31.00752978519253
 30
0.0
 10
80.54303111404442
 20
29.19747661724236
 30
0.0
 10
80.54303111404442
 20
29.19747661724236
 30
0.0
 10
80.54303111404442
 20
29.19747661724236
 30
0.0
 10
79.99698347963243
 20
29.19747661724236
 30
0.0
 10
79.99698347963243
 20
29.19747661724236
 30
0.0
 10
79.99698347963243
 20
29.19747661724236
 30
0.0
 10
79.99698347963243
 20
30.93793885639053
 30
0.0
 10
79.99698347963243
 20
30.93793885639053
 30
0.0
 10
79.99698347963243
 20
31.52842822256233
 30
0.0
 10
79.78097599270722
 20
31.88430658618865
 30
0.0
 10
79.33001299368804
 20
31.88430658618865
 30
0.0
 10
79.01237518994803
 20
31.88430658618865
 30
0.0
 10
78.76467282455855
 20
31.64935107409466
 30
0.0
 10
78.66924367961712
 20
31.37615500211433
 30
0.0
 10
78.64374997302623
 20
31.30001839189026
 30
0.0
 10
78.62480194785733
 20
31.19838807507546
 30
0.0
 10
78.62480194785733
 20
31.09675775826054
 30
0.0
 10
78.62480194785733
 20
31.09675775826054
 30
0.0
 10
78.62480194785733
 20
29.19747661724236
 30
0.0
 10
78.62480194785733
 20
29.19747661724236
 30
0.0
 10
78.62480194785733
 20
29.19747661724236
 30
0.0
 10
78.07840980389674
 20
29.19747661724236
 30
0.0
 10
78.07840980389674
 20
29.19747661724236
 30
0.0
 10
78.07840980389674
 20
29.19747661724236
 30
0.0
 10
78.07840980389674
 20
31.03956917320534
 30
0.0
 10
78.07840980389674
 20
31.03956917320534
 30
0.0
 10
78.07840980389674
 20
31.52842822256233
 30
0.0
 10
77.86274682652013
 20
31.88430658618865
 30
0.0
 10
77.43693302454322
 20
31.88430658618865
 30
0.0
 10
77.08760034233893
 20
31.88430658618865
 30
0.0
 10
76.83369680507604
 20
31.60490934233493
 30
0.0
 10
76.74481334155654
 20
31.32516758893266
 30
0.0
 10
76.71277395354373
 20
31.24282980683517
 30
0.0
 10
76.70037160979685
 20
31.14740066189376
 30
0.0
 10
76.70037160979685
 20
31.05197151695236
 30
0.0
 10
76.70037160979685
 20
31.05197151695236
 30
0.0
 10
76.70037160979685
 20
29.19747661724236
 30
0.0
 10
76.70037160979685
 20
29.19747661724236
 30
0.0
 10
76.70037160979685
 20
29.19747661724236
 30
0.0
 10
76.15397946583623
 20
29.19747661724236
 30
0.0
 10
76.15397946583623
 20
29.19747661724236
 30
0.0
 10
76.15397946583623
 20
29.19747661724236
 30
0.0
 10
76.15397946583623
 20
31.43954475904292
 30
0.0
 10
76.15397946583623
 20
31.43954475904292
 30
0.0
  0
HATCH
  5
375
330
1F
100
AcDbEntity
  8
Livello 1
100
AcDbHatch
 10
0.0
 20
0.0
 30
0.0
210
0.0
220
0.0
230
1.0
  2
SOLID
 70
     1
 71
     0
 91
        1
 92
        1
 93
        1
 72
     4
 94
        3
 73
     0
 74
     0
 95
       80
 96
       76
 40
0.0
 40
0.0
 40
0.0
 40
0.0
 40
1.0
 40
1.0
 40
1.0
 40
2.0
 40
2.0
 40
2.0
 40
3.0
 40
3.0
 40
3.0
 40
4.0
 40
4.0
 40
4.0
 40
5.0
 40
5.0
 40
5.0
 40
6.0
 40
6.0
 40
6.0
 40
7.0
 40
7.0
 40
7.0
 40
8.0
 40
8.0
 40
8.0
 40
9.0
 40
9.0
 40
9.0
 40
10.0
 40
10.0
 40
10.0
 40
11.0
 40
11.0
 40
11.0
 40
12.0
 40
12.0
 40
12.0
 40
13.0
 40
13.0
 40
13.0
 40
14.0
 40
14.0
 40
14.0
 40
15.0
 40
15.0
 40
15.0
 40
16.0
 40
16.0
 40
16.0
 40
17.0
 40
17.0
 40
17.0
 40
18.0
 40
18.0
 40
18.0
 40
19.0
 40
19.0
 40
19.0
 40
20.0
 40
20.0
 40
20.0
 40
21.0
 40
21.0
 40
21.0
 40
22.0
 40
22.0
 40
22.0
 40
23.0
 40
23.0
 40
23.0
 40
24.0
 40
24.0
 40
24.0
 40
25.0
 40
25.0
 40
25.0
 40
25.0
 10
76.15397946583623
 20
31.43954475904292
 10
76.15397946583623
 20
31.75718256278293
 10
76.14777829396271
 20
32.01763178146786
 10
76.12848575924534
 20
32.27153531873077
 10
76.12848575924534
 20
32.27153531873077
 10
76.61768931815084
 20
32.27153531873077
 10
76.61768931815084
 20
32.27153531873077
 10
76.61768931815084
 20
32.27153531873077
 10
76.64318302474163
 20
31.77613058795186
 10
76.64318302474163
 20
31.77613058795186
 10
76.64318302474163
 20
31.77613058795186
 10
76.66213104991054
 20
31.77613058795186
 10
76.66213104991054
 20
31.77613058795186
 10
76.83369680507604
 20
32.06827468510105
 10
77.11929522080324
 20
32.34147075708134
 10
77.62744680487753
 20
32.34147075708134
 10
78.04671492543242
 20
32.34147075708134
 10
78.36435272917244
 20
32.08756721981834
 10
78.49767792445163
 20
31.72548768431866
 10
78.49767792445163
 20
31.72548768431866
 10
78.51042477774703
 20
31.72548768431866
 10
78.51042477774703
 20
31.72548768431866
 10
78.60585392268854
 20
31.89705343948418
 10
78.72643226467224
 20
32.03037863476325
 10
78.85355628807793
 20
32.12546327015616
 10
79.03786889653884
 20
32.26533414685733
 10
79.24112953016855
 20
32.34147075708134
 10
79.53327362731773
 20
32.34147075708134
 10
79.93979489457723
 20
32.34147075708134
 10
80.54303111404442
 20
32.07482036652294
 10
80.54303111404442
 20
31.00752978519253
 10
80.54303111404442
 20
31.00752978519253
 10
80.54303111404442
 20
29.19747661724236
 10
80.54303111404442
 20
29.19747661724236
 10
80.54303111404442
 20
29.19747661724236
 10
79.99698347963243
 20
29.19747661724236
 10
79.99698347963243
 20
29.19747661724236
 10
79.99698347963243
 20
29.19747661724236
 10
79.99698347963243
 20
30.93793885639053
 10
79.99698347963243
 20
30.93793885639053
 10
79.99698347963243
 20
31.52842822256233
 10
79.78097599270722
 20
31.88430658618865
 10
79.33001299368804
 20
31.88430658618865
 10
79.01237518994803
 20
31.88430658618865
 10
78.76467282455855
 20
31.64935107409466
 10
78.66924367961712
 20
31.37615500211433
 10
78.64374997302623
 20
31.30001839189026
 10
78.62480194785733
 20
31.19838807507546
 10
78.62480194785733
 20
31.09675775826054
 10
78.62480194785733
 20
31.09675775826054
 10
78.62480194785733
 20
29.19747661724236
 10
78.62480194785733
 20
29.19747661724236
 10
78.62480194785733
 20
29.19747661724236
 10
78.07840980389674
 20
29.19747661724236
 10
78.07840980389674
 20
29.19747661724236
 10
78.07840980389674
 20
29.19747661724236
 10
78.07840980389674
 20
31.03956917320534
 10
78.07840980389674
 20
31.03956917320534
 10
78.07840980389674
 20
31.52842822256233
 10
77.86274682652013
 20
31.88430658618865
 10
77.43693302454322
 20
31.88430658618865
 10
77.08760034233893
 20
31.88430658618865
 10
76.83369680507604
 20
31.60490934233493
 10
76.74481334155654
 20
31.32516758893266
 10
76.71277395354373
 20
31.24282980683517
 10
76.70037160979685
 20
31.14740066189376
 10
76.70037160979685
 20
31.05197151695236
 10
76.70037160979685
 20
31.05197151695236
 10
76.70037160979685
 20
29.19747661724236
 10
76.70037160979685
 20
29.19747661724236
 10
76.70037160979685
 20
29.19747661724236
 10
76.15397946583623
 20
29.19747661724236
 10
76.15397946583623
 20
29.19747661724236
 10
76.15397946583623
 20
29.19747661724236
 10
76.15397946583623
 20
31.43954475904292
 10
76.15397946583623
 20
31.43954475904292
 97
        0
 97
        0
 75
     2
 76
     1
 98
        0
450
        0
451
        0
460
0.0
461
0.0
452
        0
462
0.0
453
        0
470

  0
SPLINE
  5
376
330
1F
100
AcDbEntity
  8
Livello 1
100
AcDbSpline
210
0.0
220
0.0
230
1.0
 70
     9
 71
     3
 72
    80
 73
    76
 74
     0
 42
0.000000001
 43
0.0000000001
 40
0.0
 40
0.0
 40
0.0
 40
0.0
 40
1.0
 40
1.0
 40
1.0
 40
2.0
 40
2.0
 40
2.0
 40
3.0
 40
3.0
 40
3.0
 40
4.0
 40
4.0
 40
4.0
 40
5.0
 40
5.0
 40
5.0
 40
6.0
 40
6.0
 40
6.0
 40
7.0
 40
7.0
 40
7.0
 40
8.0
 40
8.0
 40
8.0
 40
9.0
 40
9.0
 40
9.0
 40
10.0
 40
10.0
 40
10.0
 40
11.0
 40
11.0
 40
11.0
 40
12.0
 40
12.0
 40
12.0
 40
13.0
 40
13.0
 40
13.0
 40
14.0
 40
14.0
 40
14.0
 40
15.0
 40
15.0
 40
15.0
 40
16.0
 40
16.0
 40
16.0
 40
17.0
 40
17.0
 40
17.0
 40
18.0
 40
18.0
 40
18.0
 40
19.0
 40
19.0
 40
19.0
 40
20.0
 40
20.0
 40
20.0
 40
21.0
 40
21.0
 40
21.0
 40
22.0
 40
22.0
 40
22.0
 40
23.0
 40
23.0
 40
23.0
 40
24.0
 40
24.0
 40
24.0
 40
25.0
 40
25.0
 40
25.0
 40
25.0
 10
81.44978024576223
 20
31.43954475904292
 30
0.0
 10
81.44978024576223
 20
31.75718256278293
 30
0.0
 10
81.44357907388883
 20
32.01763178146786
 30
0.0
 10
81.42428653917141
 20
32.27153531873077
 30
0.0
 10
81.42428653917141
 20
32.27153531873077
 30
0.0
 10
81.91349009807684
 20
32.27153531873077
 30
0.0
 10
81.91349009807684
 20
32.27153531873077
 30
0.0
 10
81.91349009807684
 20
32.27153531873077
 30
0.0
 10
81.93898380466773
 20
31.77613058795186
 30
0.0
 10
81.93898380466773
 20
31.77613058795186
 30
0.0
 10
81.93898380466773
 20
31.77613058795186
 30
0.0
 10
81.95793182983662
 20
31.77613058795186
 30
0.0
 10
81.95793182983662
 20
31.77613058795186
 30
0.0
 10
82.12949758500203
 20
32.06827468510105
 30
0.0
 10
82.41509600072923
 20
32.34147075708134
 30
0.0
 10
82.92324758480363
 20
32.34147075708134
 30
0.0
 10
83.34251570535853
 20
32.34147075708134
 30
0.0
 10
83.66015350909854
 20
32.08756721981834
 30
0.0
 10
83.79347870437772
 20
31.72548768431866
 30
0.0
 10
83.79347870437772
 20
31.72548768431866
 30
0.0
 10
83.80622555767313
 20
31.72548768431866
 30
0.0
 10
83.80622555767313
 20
31.72548768431866
 30
0.0
 10
83.90165470261454
 20
31.89705343948418
 30
0.0
 10
84.02223304459836
 20
32.03037863476325
 30
0.0
 10
84.14935706800404
 20
32.12546327015616
 30
0.0
 10
84.33366967646483
 20
32.26533414685733
 30
0.0
 10
84.53693031009462
 20
32.34147075708134
 30
0.0
 10
84.82907440724384
 20
32.34147075708134
 30
0.0
 10
85.23559567450334
 20
32.34147075708134
 30
0.0
 10
85.83883189397054
 20
32.07482036652294
 30
0.0
 10
85.83883189397054
 20
31.00752978519253
 30
0.0
 10
85.83883189397054
 20
31.00752978519253
 30
0.0
 10
85.83883189397054
 20
29.19747661724236
 30
0.0
 10
85.83883189397054
 20
29.19747661724236
 30
0.0
 10
85.83883189397054
 20
29.19747661724236
 30
0.0
 10
85.29278425955842
 20
29.19747661724236
 30
0.0
 10
85.29278425955842
 20
29.19747661724236
 30
0.0
 10
85.29278425955842
 20
29.19747661724236
 30
0.0
 10
85.29278425955842
 20
30.93793885639053
 30
0.0
 10
85.29278425955842
 20
30.93793885639053
 30
0.0
 10
85.29278425955842
 20
31.52842822256233
 30
0.0
 10
85.07677677263322
 20
31.88430658618865
 30
0.0
 10
84.62581377361404
 20
31.88430658618865
 30
0.0
 10
84.30817596987402
 20
31.88430658618865
 30
0.0
 10
84.06047360448452
 20
31.64935107409466
 30
0.0
 10
83.96504445954311
 20
31.37615500211433
 30
0.0
 10
83.93955075295234
 20
31.30001839189026
 30
0.0
 10
83.92060272778342
 20
31.19838807507546
 30
0.0
 10
83.92060272778342
 20
31.09675775826054
 30
0.0
 10
83.92060272778342
 20
31.09675775826054
 30
0.0
 10
83.92060272778342
 20
29.19747661724236
 30
0.0
 10
83.92060272778342
 20
29.19747661724236
 30
0.0
 10
83.92060272778342
 20
29.19747661724236
 30
0.0
 10
83.37421058382282
 20
29.19747661724236
 30
0.0
 10
83.37421058382282
 20
29.19747661724236
 30
0.0
 10
83.37421058382282
 20
29.19747661724236
 30
0.0
 10
83.37421058382282
 20
31.03956917320534
 30
0.0
 10
83.37421058382282
 20
31.03956917320534
 30
0.0
 10
83.37421058382282
 20
31.52842822256233
 30
0.0
 10
83.15854760644612
 20
31.88430658618865
 30
0.0
 10
82.73273380446923
 20
31.88430658618865
 30
0.0
 10
82.38340112226493
 20
31.88430658618865
 30
0.0
 10
82.12949758500203
 20
31.60490934233493
 30
0.0
 10
82.04061412148263
 20
31.32516758893266
 30
0.0
 10
82.00857473346973
 20
31.24282980683517
 30
0.0
 10
81.99617238972285
 20
31.14740066189376
 30
0.0
 10
81.99617238972285
 20
31.05197151695236
 30
0.0
 10
81.99617238972285
 20
31.05197151695236
 30
0.0
 10
81.99617238972285
 20
29.19747661724236
 30
0.0
 10
81.99617238972285
 20
29.19747661724236
 30
0.0
 10
81.99617238972285
 20
29.19747661724236
 30
0.0
 10
81.44978024576223
 20
29.19747661724236
 30
0.0
 10
81.44978024576223
 20
29.19747661724236
 30
0.0
 10
81.44978024576223
 20
29.19747661724236
 30
0.0
 10
81.44978024576223
 20
31.43954475904292
 30
0.0
 10
81.44978024576223
 20
31.43954475904292
 30
0.0
  0
HATCH
  5
377
330
1F
100
AcDbEntity
  8
Livello 1
100
AcDbHatch
 10
0.0
 20
0.0
 30
0.0
210
0.0
220
0.0
230
1.0
  2
SOLID
 70
     1
 71
     0
 91
        1
 92
        1
 93
        1
 72
     4
 94
        3
 73
     0
 74
     0
 95
       80
 96
       76
 40
0.0
 40
0.0
 40
0.0
 40
0.0
 40
1.0
 40
1.0
 40
1.0
 40
2.0
 40
2.0
 40
2.0
 40
3.0
 40
3.0
 40
3.0
 40
4.0
 40
4.0
 40
4.0
 40
5.0
 40
5.0
 40
5.0
 40
6.0
 40
6.0
 40
6.0
 40
7.0
 40
7.0
 40
7.0
 40
8.0
 40
8.0
 40
8.0
 40
9.0
 40
9.0
 40
9.0
 40
10.0
 40
10.0
 40
10.0
 40
11.0
 40
11.0
 40
11.0
 40
12.0
 40
12.0
 40
12.0
 40
13.0
 40
13.0
 40
13.0
 40
14.0
 40
14.0
 40
14.0
 40
15.0
 40
15.0
 40
15.0
 40
16.0
 40
16.0
 40
16.0
 40
17.0
 40
17.0
 40
17.0
 40
18.0
 40
18.0
 40
18.0
 40
19.0
 40
19.0
 40
19.0
 40
20.0
 40
20.0
 40
20.0
 40
21.0
 40
21.0
 40
21.0
 40
22.0
 40
22.0
 40
22.0
 40
23.0
 40
23.0
 40
23.0
 40
24.0
 40
24.0
 40
24.0
 40
25.0
 40
25.0
 40
25.0
 40
25.0
 10
81.44978024576223
 20
31.43954475904292
 10
81.44978024576223
 20
31.75718256278293
 10
81.44357907388883
 20
32.01763178146786
 10
81.42428653917141
 20
32.27153531873077
 10
81.42428653917141
 20
32.27153531873077
 10
81.91349009807684
 20
32.27153531873077
 10
81.91349009807684
 20
32.27153531873077
 10
81.91349009807684
 20
32.27153531873077
 10
81.93898380466773
 20
31.77613058795186
 10
81.93898380466773
 20
31.77613058795186
 10
81.93898380466773
 20
31.77613058795186
 10
81.95793182983662
 20
31.77613058795186
 10
81.95793182983662
 20
31.77613058795186
 10
82.12949758500203
 20
32.06827468510105
 10
82.41509600072923
 20
32.34147075708134
 10
82.92324758480363
 20
32.34147075708134
 10
83.34251570535853
 20
32.34147075708134
 10
83.66015350909854
 20
32.08756721981834
 10
83.79347870437772
 20
31.72548768431866
 10
83.79347870437772
 20
31.72548768431866
 10
83.80622555767313
 20
31.72548768431866
 10
83.80622555767313
 20
31.72548768431866
 10
83.90165470261454
 20
31.89705343948418
 10
84.02223304459836
 20
32.03037863476325
 10
84.14935706800404
 20
32.12546327015616
 10
84.33366967646483
 20
32.26533414685733
 10
84.53693031009462
 20
32.34147075708134
 10
84.82907440724384
 20
32.34147075708134
 10
85.23559567450334
 20
32.34147075708134
 10
85.83883189397054
 20
32.07482036652294
 10
85.83883189397054
 20
31.00752978519253
 10
85.83883189397054
 20
31.00752978519253
 10
85.83883189397054
 20
29.19747661724236
 10
85.83883189397054
 20
29.19747661724236
 10
85.83883189397054
 20
29.19747661724236
 10
85.29278425955842
 20
29.19747661724236
 10
85.29278425955842
 20
29.19747661724236
 10
85.29278425955842
 20
29.19747661724236
 10
85.29278425955842
 20
30.93793885639053
 10
85.29278425955842
 20
30.93793885639053
 10
85.29278425955842
 20
31.52842822256233
 10
85.07677677263322
 20
31.88430658618865
 10
84.62581377361404
 20
31.88430658618865
 10
84.30817596987402
 20
31.88430658618865
 10
84.06047360448452
 20
31.64935107409466
 10
83.96504445954311
 20
31.37615500211433
 10
83.93955075295234
 20
31.30001839189026
 10
83.92060272778342
 20
31.19838807507546
 10
83.92060272778342
 20
31.09675775826054
 10
83.92060272778342
 20
31.09675775826054
 10
83.92060272778342
 20
29.19747661724236
 10
83.92060272778342
 20
29.19747661724236
 10
83.92060272778342
 20
29.19747661724236
 10
83.37421058382282
 20
29.19747661724236
 10
83.37421058382282
 20
29.19747661724236
 10
83.37421058382282
 20
29.19747661724236
 10
83.37421058382282
 20
31.03956917320534
 10
83.37421058382282
 20
31.03956917320534
 10
83.37421058382282
 20
31.52842822256233
 10
83.15854760644612
 20
31.88430658618865
 10
82.73273380446923
 20
31.88430658618865
 10
82.38340112226493
 20
31.88430658618865
 10
82.12949758500203
 20
31.60490934233493
 10
82.04061412148263
 20
31.32516758893266
 10
82.00857473346973
 20
31.24282980683517
 10
81.99617238972285
 20
31.14740066189376
 10
81.99617238972285
 20
31.05197151695236
 10
81.99617238972285
 20
31.05197151695236
 10
81.99617238972285
 20
29.19747661724236
 10
81.99617238972285
 20
29.19747661724236
 10
81.99617238972285
 20
29.19747661724236
 10
81.44978024576223
 20
29.19747661724236
 10
81.44978024576223
 20
29.19747661724236
 10
81.44978024576223
 20
29.19747661724236
 10
81.44978024576223
 20
31.43954475904292
 10
81.44978024576223
 20
31.43954475904292
 97
        0
 97
        0
 75
     2
 76
     1
 98
        0
450
        0
451
        0
460
0.0
461
0.0
452
        0
462
0.0
453
        0
470

  0
ENDSEC
  0
SECTION
  2
OBJECTS
  0
DICTIONARY
  5
C
330
0
100
AcDbDictionary
281
     1
  3
ACAD_CIP_PREVIOUS_PRODUCT_INFO
350
1A2
  3
ACAD_COLOR
350
6C
  3
ACAD_DETAILVIEWSTYLE
350
1A8
  3
ACAD_GROUP
350
D
  3
ACAD_LAYOUT
350
1A
  3
ACAD_MATERIAL
350
6B
  3
ACAD_MLEADERSTYLE
350
D2
  3
ACAD_MLINESTYLE
350
17
  3
ACAD_PLOTSETTINGS
350
19
  3
ACAD_PLOTSTYLENAME
350
E
  3
ACAD_SCALELIST
350
B1
  3
ACAD_SECTIONVIEWSTYLE
350
1A5
  3
ACAD_TABLESTYLE
350
A6
  3
ACAD_VISUALSTYLE
350
95
  3
ACDB_RECOMPOSE_DATA
350
379
  3
AcDbVariableDictionary
350
59
  3
AcDsDecomposeData
350
37F
  0
DICTIONARY
  5
18B
330
2
100
AcDbDictionary
280
     1
281
     1
  3
ACAD_LAYERSTATES
360
18C
  0
DICTIONARY
  5
E1
330
10
100
AcDbDictionary
280
     1
281
     1
  0
DICTIONARY
  5
15A
330
1F
100
AcDbDictionary
280
     1
281
     1
  3
ACAD_SORTENTS
360
2FE
  0
XRECORD
  5
1A2
102
{ACAD_REACTORS
330
C
102
}
330
C
100
AcDbXrecord
280
     1
300
ACD
300
2019
300
ACD_F_S
  0
DICTIONARY
  5
6C
102
{ACAD_REACTORS
330
C
102
}
330
C
100
AcDbDictionary
281
     1
  0
DICTIONARY
  5
1A8
102
{ACAD_REACTORS
330
C
102
}
330
C
100
AcDbDictionary
281
     1
  3
Imperial24
350
1A9
  0
DICTIONARY
  5
D
102
{ACAD_REACTORS
330
C
102
}
330
C
100
AcDbDictionary
281
     1
  0
DICTIONARY
  5
1A
102
{ACAD_REACTORS
330
C
102
}
330
C
100
AcDbDictionary
281
     1
  3
Layout1
350
74
  3
Layout2
350
79
  3
Model
350
22
  0
DICTIONARY
  5
6B
102
{ACAD_REACTORS
330
C
102
}
330
C
100
AcDbDictionary
281
     1
  3
ByBlock
350
93
  3
ByLayer
350
92
  3
Global
350
94
  0
DICTIONARY
  5
D2
102
{ACAD_REACTORS
330
C
102
}
330
C
100
AcDbDictionary
281
     1
  3
Annotativa
350
E0
  3
Standard
350
D3
  0
DICTIONARY
  5
17
102
{ACAD_REACTORS
330
C
102
}
330
C
100
AcDbDictionary
281
     1
  3
Standard
350
18
  0
DICTIONARY
  5
19
102
{ACAD_REACTORS
330
C
102
}
330
C
100
AcDbDictionary
281
     1
  0
ACDBDICTIONARYWDFLT
  5
E
102
{ACAD_REACTORS
330
C
102
}
330
C
100
AcDbDictionary
281
     1
  3
Normal
350
F
100
AcDbDictionaryWithDefault
340
F
  0
DICTIONARY
  5
B1
102
{ACAD_REACTORS
330
C
102
}
330
C
100
AcDbDictionary
281
     1
  3
A0
350
B2
  3
A1
350
124
  3
A2
350
125
  3
A3
350
126
  3
A4
350
127
  3
A5
350
128
  3
A6
350
129
  3
A7
350
12A
  3
A8
350
12B
  3
A9
350
12C
  3
B0
350
12D
  3
B1
350
12E
  3
B2
350
12F
  3
B3
350
130
  3
B4
350
131
  3
B5
350
132
  3
B6
350
133
  3
B7
350
134
  3
B8
350
135
  3
B9
350
136
  3
C0
350
137
  3
C1
350
138
  3
C2
350
139
  3
C3
350
13A
  3
C4
350
13B
  3
C5
350
13C
  3
C6
350
13D
  3
C7
350
13E
  3
C8
350
13F
  3
C9
350
140
  3
D0
350
141
  3
D1
350
142
  3
D2
350
143
  0
DICTIONARY
  5
1A5
102
{ACAD_REACTORS
330
C
102
}
330
C
100
AcDbDictionary
281
     1
  3
Imperial24
350
1A7
  0
DICTIONARY
  5
A6
102
{ACAD_REACTORS
330
C
102
}
330
C
100
AcDbDictionary
281
     1
  3
Standard
350
A7
  0
DICTIONARY
  5
95
102
{ACAD_REACTORS
330
C
102
}
330
C
100
AcDbDictionary
281
     1
  3
2dWireframe
350
9B
  3
Basic
350
9A
  3
Brighten
350
A1
  3
ColorChange
350
A5
  3
Conceptual
350
9E
  3
Dim
350
A0
  3
EdgeColorOff
350
172
  3
Facepattern
350
A4
  3
Flat
350
96
  3
FlatWithEdges
350
97
  3
Gouraud
350
98
  3
GouraudWithEdges
350
99
  3
Hidden
350
9D
  3
JitterOff
350
170
  3
Linepattern
350
A3
  3
OverhangOff
350
171
  3
Realistic
350
9F
  3
Shaded
350
17F
  3
Shaded with edges
350
17E
  3
Shades of Gray
350
17B
  3
Sketchy
350
17C
  3
Thicken
350
A2
  3
Wireframe
350
9C
  3
X-Ray
350
17D
  0
XRECORD
  5
379
102
{ACAD_REACTORS
330
C
102
}
330
C
100
AcDbXrecord
280
     1
 90
        1
330
A7
  0
DICTIONARY
  5
59
102
{ACAD_REACTORS
330
C
102
}
330
C
100
AcDbDictionary
281
     1
  3
CANNOSCALE
350
EB
  3
CMLEADERSTYLE
350
EA
  3
CTABLESTYLE
350
AB
  3
CVIEWDETAILSTYLE
350
1B4
  3
CVIEWSECTIONSTYLE
350
1B5
  3
DIMASSOC
350
5A
  3
HIDETEXT
350
5E
  3
LAYEREVAL
350
14A
  3
LAYERNOTIFY
350
14B
  0
DICTIONARY
  5
37F
102
{ACAD_REACTORS
330
C
102
}
330
C
100
AcDbDictionary
281
     1
  3
AcDsRecords
350
381
  3
AcDsSchemas
350
380
1001
ACAD
1070
     2
  0
DICTIONARY
  5
18C
102
{ACAD_REACTORS
330
18B
102
}
330
18B
100
AcDbDictionary
281
     1
  0
SORTENTSTABLE
  5
2FE
102
{ACAD_REACTORS
330
15A
102
}
330
15A
100
AcDbSortentsTable
330
1F
  0
ACDBDETAILVIEWSTYLE
  5
1A9
102
{ACAD_XDICTIONARY
360
384
102
}
102
{ACAD_REACTORS
330
1A8
102
}
330
1A8
100
AcDbModelDocViewStyle
 70
     0
  3
Imperial24
290
     0
100
AcDbDetailViewStyle
 70
     0
 71
     0
 90
        3
 71
     1
340
11
 62
   256
 40
0.24
340
0
 62
   256
 40
0.24
300

 40
0.36
280
     3
 71
     2
340
16
 90
       25
 62
   256
 71
     3
340
11
 62
   256
 40
0.24
 90
        1
 40
0.75
 90
        1
300
%<\AcVar ViewType \f "%tc1">% %<\AcVar ViewDetailId>%\PSCALE %<\AcVar ViewScale \f "%sn">%
 71
     4
340
16
 90
       25
 62
   256
340
16
 90
       25
 62
   256
280
     0
  0
LAYOUT
  5
74
102
{ACAD_REACTORS
330
1A
102
}
330
1A
100
AcDbPlotSettings
  1

  2
\\ADSCCNDC1\hq601xrx1
  4

  6

 40
0.0
 41
0.0
 42
0.0
 43
0.0
 44
0.0
 45
0.0
 46
0.0
 47
0.0
 48
0.0
 49
0.0
140
0.0
141
0.0
142
1.0
143
1.0
 70
   688
 72
     0
 73
     0
 74
     5
  7

 75
    16
147
1.0
 76
     0
 77
     2
 78
   300
148
0.0
149
0.0
100
AcDbLayout
  1
Layout1
 70
     1
 71
     1
 10
0.0
 20
0.0
 11
12.0
 21
9.0
 12
0.0
 22
0.0
 32
0.0
 14
0.0
 24
0.0
 34
0.0
 15
0.0
 25
0.0
 35
0.0
146
0.0
 13
0.0
 23
0.0
 33
0.0
 16
1.0
 26
0.0
 36
0.0
 17
0.0
 27
1.0
 37
0.0
 76
     0
330
73
  0
LAYOUT
  5
79
102
{ACAD_REACTORS
330
1A
102
}
330
1A
100
AcDbPlotSettings
  1

  2
\\ADSCCNDC1\hq601xrx1
  4

  6

 40
0.0
 41
0.0
 42
0.0
 43
0.0
 44
0.0
 45
0.0
 46
0.0
 47
0.0
 48
0.0
 49
0.0
140
0.0
141
0.0
142
1.0
143
1.0
 70
   688
 72
     0
 73
     0
 74
     5
  7

 75
    16
147
1.0
 76
     0
 77
     2
 78
   300
148
0.0
149
0.0
100
AcDbLayout
  1
Layout2
 70
     1
 71
     2
 10
0.0
 20
0.0
 11
12.0
 21
9.0
 12
0.0
 22
0.0
 32
0.0
 14
0.0
 24
0.0
 34
0.0
 15
0.0
 25
0.0
 35
0.0
146
0.0
 13
0.0
 23
0.0
 33
0.0
 16
1.0
 26
0.0
 36
0.0
 17
0.0
 27
1.0
 37
0.0
 76
     0
330
78
  0
LAYOUT
  5
22
102
{ACAD_XDICTIONARY
360
191
102
}
102
{ACAD_REACTORS
330
1A
102
}
330
1A
100
AcDbPlotSettings
  1

  2
none_device
  4
Letter_(8.50_x_11.00_Inches)
  6

 40
6.349999904632568
 41
6.349999904632568
 42
6.350006103515625
 43
6.350006103515625
 44
215.8999938964844
 45
279.3999938964844
 46
0.0
 47
0.0
 48
0.0
 49
0.0
140
0.0
141
0.0
142
1.0
143
3.560208697428376
 70
 11952
 72
     0
 73
     1
 74
     0
  7

 75
     0
147
0.28088241027059
 76
     0
 77
     2
 78
   300
148
0.1311165230791651
149
0.096403374003771
100
AcDbLayout
  1
Model
 70
     1
 71
     0
 10
0.0
 20
0.0
 11
12.0
 21
9.0
 12
0.0
 22
0.0
 32
0.0
 14
0.0
 24
0.0
 34
0.0
 15
0.0
 25
0.0
 35
0.0
146
0.0
 13
0.0
 23
0.0
 33
0.0
 16
1.0
 26
0.0
 36
0.0
 17
0.0
 27
1.0
 37
0.0
 76
     0
330
1F
331
90
  0
MATERIAL
  5
93
102
{ACAD_XDICTIONARY
360
185
102
}
102
{ACAD_REACTORS
330
6B
102
}
330
6B
100
AcDbMaterial
  1
ByBlock
 94
       63
  0
MATERIAL
  5
92
102
{ACAD_XDICTIONARY
360
183
102
}
102
{ACAD_REACTORS
330
6B
102
}
330
6B
100
AcDbMaterial
  1
ByLayer
 94
       63
  0
MATERIAL
  5
94
102
{ACAD_XDICTIONARY
360
10B
102
}
102
{ACAD_REACTORS
330
6B
102
}
330
6B
100
AcDbMaterial
  1
Global
 43
0.0208000000566244
 43
0.0
 43
0.0
 43
0.0
 43
0.0
 43
0.0208000000566244
 43
0.0
 43
0.0
 43
0.0
 43
0.0
 43
1.0
 43
0.0
 43
0.0
 43
0.0
 43
0.0
 43
1.0
 49
0.0208000000566244
 49
0.0
 49
0.0
 49
0.0
 49
0.0
 49
0.0208000000566244
 49
0.0
 49
0.0
 49
0.0
 49
0.0
 49
1.0
 49
0.0
 49
0.0
 49
0.0
 49
0.0
 49
1.0
142
0.0208000000566244
142
0.0
142
0.0
142
0.0
142
0.0
142
0.0208000000566244
142
0.0
142
0.0
142
0.0
142
0.0
142
1.0
142
0.0
142
0.0
142
0.0
142
0.0
142
1.0
144
0.0208000000566244
144
0.0
144
0.0
144
0.0
144
0.0
144
0.0208000000566244
144
0.0
144
0.0
144
0.0
144
0.0
144
1.0
144
0.0
144
0.0
144
0.0
144
0.0
144
1.0
 94
       63
1001
ACAD
1070
    -1
1070
     3
1070
     0
1000

1071
        0
1070
     0
  0
MLEADERSTYLE
  5
E0
102
{ACAD_REACTORS
330
D2
102
}
330
D2
100
AcDbMLeaderStyle
179
     2
170
     2
171
     1
172
     0
 90
        2
 40
0.0
 41
0.0
173
     1
 91
-1056964608
340
14
 92
       -2
290
     1
 42
0.09
291
     1
 43
0.36
  3
Standard
 44
0.18
300

342
11
174
     1
178
     1
175
     1
176
     0
 93
-1056964608
 45
0.18
292
     0
297
     0
 46
0.18
 94
-1056964608
 47
1.0
 49
1.0
140
1.0
293
     1
141
0.0
294
     1
177
     0
142
1.0
295
     0
296
     1
143
0.125
271
     0
272
     9
273
     9
298
     0
  0
MLEADERSTYLE
  5
D3
102
{ACAD_REACTORS
330
D2
102
}
330
D2
100
AcDbMLeaderStyle
179
     2
170
     2
171
     1
172
     0
 90
        2
 40
0.0
 41
0.0
173
     1
 91
-1056964608
340
14
 92
       -2
290
     1
 42
0.09
291
     1
 43
0.36
  3
Standard
 44
0.18
300

342
11
174
     1
178
     1
175
     1
176
     0
 93
-1056964608
 45
0.18
292
     0
297
     0
 46
0.18
 94
-1056964608
 47
1.0
 49
1.0
140
1.0
293
     1
141
0.0
294
     1
177
     0
142
1.0
295
     0
296
     0
143
0.125
271
     0
272
     9
273
     9
298
     0
  0
MLINESTYLE
  5
18
102
{ACAD_REACTORS
330
17
102
}
330
17
100
AcDbMlineStyle
  2
STANDARD
 70
     0
  3

 62
   256
 51
90.0
 52
90.0
 71
     2
 49
0.5
 62
   256
  6
BYLAYER
 49
-0.5
 62
   256
  6
BYLAYER
  0
ACDBPLACEHOLDER
  5
F
102
{ACAD_REACTORS
330
E
102
}
330
E
  0
SCALE
  5
B2
102
{ACAD_REACTORS
330
B1
102
}
330
B1
100
AcDbScale
 70
     0
300
1:1
140
1.0
141
1.0
290
     1
  0
SCALE
  5
124
102
{ACAD_REACTORS
330
B1
102
}
330
B1
100
AcDbScale
 70
     0
300
1:2
140
1.0
141
2.0
290
     0
  0
SCALE
  5
125
102
{ACAD_REACTORS
330
B1
102
}
330
B1
100
AcDbScale
 70
     0
300
1:4
140
1.0
141
4.0
290
     0
  0
SCALE
  5
126
102
{ACAD_REACTORS
330
B1
102
}
330
B1
100
AcDbScale
 70
     0
300
1:5
140
1.0
141
5.0
290
     0
  0
SCALE
  5
127
102
{ACAD_REACTORS
330
B1
102
}
330
B1
100
AcDbScale
 70
     0
300
1:8
140
1.0
141
8.0
290
     0
  0
SCALE
  5
128
102
{ACAD_REACTORS
330
B1
102
}
330
B1
100
AcDbScale
 70
     0
300
1:10
140
1.0
141
10.0
290
     0
  0
SCALE
  5
129
102
{ACAD_REACTORS
330
B1
102
}
330
B1
100
AcDbScale
 70
     0
300
1:16
140
1.0
141
16.0
290
     0
  0
SCALE
  5
12A
102
{ACAD_REACTORS
330
B1
102
}
330
B1
100
AcDbScale
 70
     0
300
1:20
140
1.0
141
20.0
290
     0
  0
SCALE
  5
12B
102
{ACAD_REACTORS
330
B1
102
}
330
B1
100
AcDbScale
 70
     0
300
1:30
140
1.0
141
30.0
290
     0
  0
SCALE
  5
12C
102
{ACAD_REACTORS
330
B1
102
}
330
B1
100
AcDbScale
 70
     0
300
1:40
140
1.0
141
40.0
290
     0
  0
SCALE
  5
12D
102
{ACAD_REACTORS
330
B1
102
}
330
B1
100
AcDbScale
 70
     0
300
1:50
140
1.0
141
50.0
290
     0
  0
SCALE
  5
12E
102
{ACAD_REACTORS
330
B1
102
}
330
B1
100
AcDbScale
 70
     0
300
1:100
140
1.0
141
100.0
290
     0
  0
SCALE
  5
12F
102
{ACAD_REACTORS
330
B1
102
}
330
B1
100
AcDbScale
 70
     0
300
2:1
140
2.0
141
1.0
290
     0
  0
SCALE
  5
130
102
{ACAD_REACTORS
330
B1
102
}
330
B1
100
AcDbScale
 70
     0
300
4:1
140
4.0
141
1.0
290
     0
  0
SCALE
  5
131
102
{ACAD_REACTORS
330
B1
102
}
330
B1
100
AcDbScale
 70
     0
300
8:1
140
8.0
141
1.0
290
     0
  0
SCALE
  5
132
102
{ACAD_REACTORS
330
B1
102
}
330
B1
100
AcDbScale
 70
     0
300
10:1
140
10.0
141
1.0
290
     0
  0
SCALE
  5
133
102
{ACAD_REACTORS
330
B1
102
}
330
B1
100
AcDbScale
 70
     0
300
100:1
140
100.0
141
1.0
290
     0
  0
SCALE
  5
134
102
{ACAD_REACTORS
330
B1
102
}
330
B1
100
AcDbScale
 70
     0
300
1/128" = 1'-0"
140
0.0078125
141
12.0
290
     0
  0
SCALE
  5
135
102
{ACAD_REACTORS
330
B1
102
}
330
B1
100
AcDbScale
 70
     0
300
1/64" = 1'-0"
140
0.015625
141
12.0
290
     0
  0
SCALE
  5
136
102
{ACAD_REACTORS
330
B1
102
}
330
B1
100
AcDbScale
 70
     0
300
1/32" = 1'-0"
140
0.03125
141
12.0
290
     0
  0
SCALE
  5
137
102
{ACAD_REACTORS
330
B1
102
}
330
B1
100
AcDbScale
 70
     0
300
1/16" = 1'-0"
140
0.0625
141
12.0
290
     0
  0
SCALE
  5
138
102
{ACAD_REACTORS
330
B1
102
}
330
B1
100
AcDbScale
 70
     0
300
3/32" = 1'-0"
140
0.09375
141
12.0
290
     0
  0
SCALE
  5
139
102
{ACAD_REACTORS
330
B1
102
}
330
B1
100
AcDbScale
 70
     0
300
1/8" = 1'-0"
140
0.125
141
12.0
290
     0
  0
SCALE
  5
13A
102
{ACAD_REACTORS
330
B1
102
}
330
B1
100
AcDbScale
 70
     0
300
3/16" = 1'-0"
140
0.1875
141
12.0
290
     0
  0
SCALE
  5
13B
102
{ACAD_REACTORS
330
B1
102
}
330
B1
100
AcDbScale
 70
     0
300
1/4" = 1'-0"
140
0.25
141
12.0
290
     0
  0
SCALE
  5
13C
102
{ACAD_REACTORS
330
B1
102
}
330
B1
100
AcDbScale
 70
     0
300
3/8" = 1'-0"
140
0.375
141
12.0
290
     0
  0
SCALE
  5
13D
102
{ACAD_REACTORS
330
B1
102
}
330
B1
100
AcDbScale
 70
     0
300
1/2" = 1'-0"
140
0.5
141
12.0
290
     0
  0
SCALE
  5
13E
102
{ACAD_REACTORS
330
B1
102
}
330
B1
100
AcDbScale
 70
     0
300
3/4" = 1'-0"
140
0.75
141
12.0
290
     0
  0
SCALE
  5
13F
102
{ACAD_REACTORS
330
B1
102
}
330
B1
100
AcDbScale
 70
     0
300
1" = 1'-0"
140
1.0
141
12.0
290
     0
  0
SCALE
  5
140
102
{ACAD_REACTORS
330
B1
102
}
330
B1
100
AcDbScale
 70
     0
300
1-1/2" = 1'-0"
140
1.5
141
12.0
290
     0
  0
SCALE
  5
141
102
{ACAD_REACTORS
330
B1
102
}
330
B1
100
AcDbScale
 70
     0
300
3" = 1'-0"
140
3.0
141
12.0
290
     0
  0
SCALE
  5
142
102
{ACAD_REACTORS
330
B1
102
}
330
B1
100
AcDbScale
 70
     0
300
6" = 1'-0"
140
6.0
141
12.0
290
     0
  0
SCALE
  5
143
102
{ACAD_REACTORS
330
B1
102
}
330
B1
100
AcDbScale
 70
     0
300
1'-0" = 1'-0"
140
12.0
141
12.0
290
     0
  0
ACDBSECTIONVIEWSTYLE
  5
1A7
102
{ACAD_XDICTIONARY
360
382
102
}
102
{ACAD_REACTORS
330
1A5
102
}
330
1A5
100
AcDbModelDocViewStyle
 70
     0
  3
Imperial24
290
     0
100
AcDbSectionViewStyle
 70
     0
 71
     0
 90
       78
 71
     1
340
11
 62
   256
 40
0.24
340
0
340
0
 62
   256
 40
0.24
300
I, O, Q, S, X, Z
 40
0.48
 90
        3
 40
0.18
 90
        1
 71
     2
340
16
 90
       25
 62
   256
340
16
 90
       50
 62
   256
 40
0.24
 40
0.0
 40
0.24
 71
     3
340
11
 62
   256
 40
0.24
 90
        1
 40
0.75
 90
        1
300
%<\AcVar ViewType \f "%tc1">% %<\AcVar ViewSectionStartId>%-%<\AcVar ViewSectionEndId>%\PSCALE %<\AcVar ViewScale \f "%sn">%
 71
     4
 62
   256
 62
   257
300
ANSI31
 40
1.0
 90
        0
290
     0
290
     0
 90
        6
 40
0.0
 40
1.570796326794896
 40
0.2617993877991494
 40
1.308996938995747
 40
-0.2617993877991494
 40
1.832595714594046
  0
TABLESTYLE
  5
A7
102
{ACAD_XDICTIONARY
360
FF
102
}
102
{ACAD_REACTORS
330
A6
102
}
330
A6
100
AcDbTableStyle
280
     0
  3
Standard
 70
     0
 71
     0
 40
0.06
 41
0.06
280
     0
281
     0
  7
Standard
140
0.18
170
     2
 62
     0
 63
     7
283
     0
 90
      512
 91
        0
  1

274
    -2
284
     1
 64
     0
275
    -2
285
     1
 65
     0
276
    -2
286
     1
 66
     0
277
    -2
287
     1
 67
     0
278
    -2
288
     1
 68
     0
279
    -2
289
     1
 69
     0
  7
Standard
140
0.25
170
     5
 62
     0
 63
     7
283
     0
 90
      512
 91
        0
  1

274
    -2
284
     1
 64
     0
275
    -2
285
     1
 65
     0
276
    -2
286
     1
 66
     0
277
    -2
287
     1
 67
     0
278
    -2
288
     1
 68
     0
279
    -2
289
     1
 69
     0
  7
Standard
140
0.18
170
     5
 62
     0
 63
     7
283
     0
 90
      512
 91
        0
  1

274
    -2
284
     1
 64
     0
275
    -2
285
     1
 65
     0
276
    -2
286
     1
 66
     0
277
    -2
287
     1
 67
     0
278
    -2
288
     1
 68
     0
279
    -2
289
     1
 69
     0
  0
VISUALSTYLE
  5
9B
102
{ACAD_REACTORS
330
95
102
}
330
95
100
AcDbVisualStyle
  2
2dWireframe
 70
     4
177
     3
291
     0
 70
    58
 90
        0
176
     1
 90
        2
176
     1
 90
        1
176
     1
 90
        0
176
     1
 40
0.6
176
     1
 40
30.0
176
     1
 62
     7
420
 16777215
176
     1
 90
        1
176
     1
 90
        4
176
     1
 62
     7
176
     1
 62
   257
176
     1
 90
        1
176
     1
 90
        1
176
     1
 40
1.0
176
     1
 90
        0
176
     1
 62
   257
176
     1
 40
1.0
176
     1
 90
        1
176
     1
 90
        6
176
     1
 90
        2
176
     1
 62
     7
176
     1
 90
        5
176
     1
 90
        0
176
     1
 90
        0
176
     1
290
     0
176
     1
 90
        1
176
     1
 40
0.0
176
     1
 90
        0
176
     1
290
     1
176
     1
290
     1
176
     1
290
     0
176
     1
290
     0
176
     1
290
     0
176
     1
290
     0
176
     1
290
     0
176
     1
290
     0
176
     1
290
     0
176
     1
 90
       50
176
     1
 40
0.0
176
     1
 40
1.0
176
     1
 90
        0
176
     1
 62
    18
420
        0
176
     1
 90
       50
176
     1
 90
        3
176
     1
 62
     5
420
      255
176
     1
290
     0
176
     1
 90
       50
176
     1
 90
       50
176
     1
 90
       50
176
     1
290
     0
176
     1
 90
       50
176
     1
 62
   256
176
     0
 40
1.0
176
     0
 90
        2
176
     1
  1
strokes_ogs.tif
176
     1
290
     0
176
     1
 40
1.0
176
     1
 40
1.0
176
     1
1001
ACAD
1000
AcDbSavedByObjectVersion
1070
     0
  0
VISUALSTYLE
  5
9A
102
{ACAD_REACTORS
330
95
102
}
330
95
100
AcDbVisualStyle
  2
Basic
 70
     7
177
     3
291
     1
 70
    58
 90
        1
176
     1
 90
        0
176
     1
 90
        1
176
     1
 90
        0
176
     1
 40
0.6
176
     1
 40
30.0
176
     1
 62
     7
420
 16777215
176
     1
 90
        0
176
     1
 90
        4
176
     1
 62
     7
176
     1
 62
   257
176
     1
 90
        1
176
     1
 90
        1
176
     1
 40
1.0
176
     1
 90
        8
176
     1
 62
     7
176
     1
 40
1.0
176
     1
 90
        1
176
     1
 90
        6
176
     1
 90
        2
176
     1
 62
     7
176
     1
 90
        5
176
     1
 90
        0
176
     1
 90
        0
176
     1
290
     0
176
     1
 90
        1
176
     1
 40
0.0
176
     1
 90
        0
176
     1
290
     0
176
     1
290
     1
176
     1
290
     1
176
     1
290
     0
176
     1
290
     0
176
     1
290
     0
176
     1
290
     0
176
     1
290
     0
176
     1
290
     0
176
     1
 90
       50
176
     1
 40
0.0
176
     1
 40
1.0
176
     1
 90
        0
176
     1
 62
    18
420
        0
176
     1
 90
       50
176
     1
 90
        3
176
     1
 62
     5
420
      255
176
     1
290
     0
176
     1
 90
       50
176
     1
 90
       50
176
     1
 90
       50
176
     1
290
     0
176
     1
 90
       50
176
     1
 62
   256
176
     0
 40
1.0
176
     0
 90
        2
176
     1
  1
strokes_ogs.tif
176
     1
290
     0
176
     1
 40
1.0
176
     1
 40
1.0
176
     1
1001
ACAD
1000
AcDbSavedByObjectVersion
1070
     0
  0
VISUALSTYLE
  5
A1
102
{ACAD_REACTORS
330
95
102
}
330
95
100
AcDbVisualStyle
  2
Brighten
 70
    12
177
     3
291
     1
 70
    58
 90
        2
176
     1
 90
        2
176
     1
 90
        1
176
     1
 90
        0
176
     1
 40
0.6
176
     1
 40
30.0
176
     1
 62
     7
420
 16777215
176
     1
 90
        1
176
     1
 90
        4
176
     1
 62
     7
176
     1
 62
   257
176
     1
 90
        1
176
     1
 90
        1
176
     1
 40
1.0
176
     1
 90
        8
176
     1
 62
     7
176
     1
 40
1.0
176
     1
 90
        1
176
     1
 90
        6
176
     1
 90
        2
176
     1
 62
     7
176
     1
 90
        5
176
     1
 90
        0
176
     1
 90
        0
176
     1
290
     0
176
     1
 90
        1
176
     1
 40
50.0
176
     1
 90
        0
176
     1
290
     0
176
     1
290
     1
176
     1
290
     1
176
     1
290
     0
176
     1
290
     0
176
     1
290
     0
176
     1
290
     0
176
     1
290
     0
176
     1
290
     0
176
     1
 90
       50
176
     1
 40
0.0
176
     1
 40
1.0
176
     1
 90
        0
176
     1
 62
    18
420
        0
176
     1
 90
       50
176
     1
 90
        3
176
     1
 62
     5
420
      255
176
     1
290
     0
176
     1
 90
       50
176
     1
 90
       50
176
     1
 90
       50
176
     1
290
     0
176
     1
 90
       50
176
     1
 62
   256
176
     0
 40
1.0
176
     0
 90
        2
176
     1
  1
strokes_ogs.tif
176
     1
290
     0
176
     1
 40
1.0
176
     1
 40
1.0
176
     1
1001
ACAD
1000
AcDbSavedByObjectVersion
1070
     0
  0
VISUALSTYLE
  5
A5
102
{ACAD_REACTORS
330
95
102
}
330
95
100
AcDbVisualStyle
  2
ColorChange
 70
    16
177
     3
291
     1
 70
    58
 90
        2
176
     1
 90
        2
176
     1
 90
        3
176
     1
 90
        0
176
     1
 40
0.6
176
     1
 40
30.0
176
     1
 62
     8
420
  8421504
176
     1
 90
        1
176
     1
 90
        4
176
     1
 62
     7
176
     1
 62
   257
176
     1
 90
        1
176
     1
 90
        1
176
     1
 40
1.0
176
     1
 90
        8
176
     1
 62
     8
420
  8421504
176
     1
 40
1.0
176
     1
 90
        1
176
     1
 90
        6
176
     1
 90
        2
176
     1
 62
     7
176
     1
 90
        5
176
     1
 90
        0
176
     1
 90
        0
176
     1
290
     0
176
     1
 90
        1
176
     1
 40
0.0
176
     1
 90
        0
176
     1
290
     0
176
     1
290
     1
176
     1
290
     1
176
     1
290
     0
176
     1
290
     0
176
     1
290
     0
176
     1
290
     0
176
     1
290
     0
176
     1
290
     0
176
     1
 90
       50
176
     1
 40
0.0
176
     1
 40
1.0
176
     1
 90
        0
176
     1
 62
    18
420
        0
176
     1
 90
       50
176
     1
 90
        3
176
     1
 62
     5
420
      255
176
     1
290
     0
176
     1
 90
       50
176
     1
 90
       50
176
     1
 90
       50
176
     1
290
     0
176
     1
 90
       50
176
     1
 62
   256
176
     0
 40
1.0
176
     0
 90
        2
176
     1
  1
strokes_ogs.tif
176
     1
290
     0
176
     1
 40
1.0
176
     1
 40
1.0
176
     1
1001
ACAD
1000
AcDbSavedByObjectVersion
1070
     0
  0
VISUALSTYLE
  5
9E
102
{ACAD_REACTORS
330
95
102
}
330
95
100
AcDbVisualStyle
  2
Conceptual
 70
     9
177
     3
291
     0
 70
    58
 90
        3
176
     1
 90
        2
176
     1
 90
        1
176
     1
 90
        0
176
     1
 40
0.6
176
     1
 40
30.0
176
     1
 62
     7
420
 16777215
176
     1
 90
        2
176
     1
 90
        2
176
     1
 62
     7
176
     1
 62
   257
176
     1
 90
        1
176
     1
 90
        1
176
     1
 40
40.0
176
     1
 90
        8
176
     1
 62
     7
176
     1
 40
1.0
176
     1
 90
        1
176
     1
 90
        6
176
     1
 90
        2
176
     1
 62
     7
176
     1
 90
        3
176
     1
 90
        0
176
     1
 90
        0
176
     1
290
     0
176
     1
 90
        1
176
     1
 40
0.0
176
     1
 90
        0
176
     1
290
     0
176
     1
290
     1
176
     1
290
     1
176
     1
290
     0
176
     1
290
     0
176
     1
290
     0
176
     1
290
     0
176
     1
290
     0
176
     1
290
     0
176
     1
 90
       50
176
     1
 40
0.0
176
     1
 40
1.0
176
     1
 90
        0
176
     1
 62
    18
420
        0
176
     1
 90
       50
176
     1
 90
        3
176
     1
 62
     5
420
      255
176
     1
290
     0
176
     1
 90
       50
176
     1
 90
       50
176
     1
 90
       50
176
     1
290
     0
176
     1
 90
       50
176
     1
 62
   256
176
     0
 40
1.0
176
     0
 90
        2
176
     1
  1
strokes_ogs.tif
176
     1
290
     0
176
     1
 40
1.0
176
     1
 40
1.0
176
     1
1001
ACAD
1000
AcDbSavedByObjectVersion
1070
     0
  0
VISUALSTYLE
  5
A0
102
{ACAD_REACTORS
330
95
102
}
330
95
100
AcDbVisualStyle
  2
Dim
 70
    11
177
     3
291
     1
 70
    58
 90
        2
176
     1
 90
        2
176
     1
 90
        1
176
     1
 90
        0
176
     1
 40
0.6
176
     1
 40
30.0
176
     1
 62
     7
420
 16777215
176
     1
 90
        1
176
     1
 90
        4
176
     1
 62
     7
176
     1
 62
   257
176
     1
 90
        1
176
     1
 90
        1
176
     1
 40
1.0
176
     1
 90
        8
176
     1
 62
     7
176
     1
 40
1.0
176
     1
 90
        1
176
     1
 90
        6
176
     1
 90
        2
176
     1
 62
     7
176
     1
 90
        5
176
     1
 90
        0
176
     1
 90
        0
176
     1
290
     0
176
     1
 90
        1
176
     1
 40
-50.0
176
     1
 90
        0
176
     1
290
     0
176
     1
290
     1
176
     1
290
     1
176
     1
290
     0
176
     1
290
     0
176
     1
290
     0
176
     1
290
     0
176
     1
290
     0
176
     1
290
     0
176
     1
 90
       50
176
     1
 40
0.0
176
     1
 40
1.0
176
     1
 90
        0
176
     1
 62
    18
420
        0
176
     1
 90
       50
176
     1
 90
        3
176
     1
 62
     5
420
      255
176
     1
290
     0
176
     1
 90
       50
176
     1
 90
       50
176
     1
 90
       50
176
     1
290
     0
176
     1
 90
       50
176
     1
 62
   256
176
     0
 40
1.0
176
     0
 90
        2
176
     1
  1
strokes_ogs.tif
176
     1
290
     0
176
     1
 40
1.0
176
     1
 40
1.0
176
     1
1001
ACAD
1000
AcDbSavedByObjectVersion
1070
     0
  0
VISUALSTYLE
  5
172
102
{ACAD_REACTORS
330
95
102
}
330
95
100
AcDbVisualStyle
  2
EdgeColorOff
 70
    22
177
     3
291
     1
 70
    58
 90
        2
176
     0
 90
        2
176
     0
 90
        0
176
     0
 90
        0
176
     0
 40
0.6
176
     0
 40
30.0
176
     0
 62
     7
420
 16777215
176
     0
 90
        1
176
     0
 90
        4
176
     0
 62
     7
176
     0
 62
   257
176
     0
 90
        1
176
     0
 90
        1
176
     0
 40
1.0
176
     0
 90
        8
176
     2
 62
     7
176
     0
 40
1.0
176
     0
 90
        1
176
     0
 90
        6
176
     0
 90
        2
176
     0
 62
     7
176
     0
 90
        5
176
     0
 90
        0
176
     0
 90
        0
176
     0
290
     0
176
     0
 90
        1
176
     0
 40
0.0
176
     0
 90
        0
176
     0
290
     0
176
     1
290
     1
176
     1
290
     1
176
     1
290
     0
176
     1
290
     0
176
     1
290
     0
176
     1
290
     0
176
     1
290
     0
176
     1
290
     0
176
     1
 90
       50
176
     1
 40
0.0
176
     1
 40
1.0
176
     1
 90
        0
176
     1
 62
    18
420
        0
176
     1
 90
       50
176
     1
 90
        3
176
     1
 62
     5
420
      255
176
     1
290
     0
176
     1
 90
       50
176
     1
 90
       50
176
     1
 90
       50
176
     1
290
     0
176
     1
 90
       50
176
     1
 62
   256
176
     0
 40
1.0
176
     0
 90
        2
176
     1
  1
strokes_ogs.tif
176
     1
290
     0
176
     1
 40
1.0
176
     1
 40
1.0
176
     1
1001
ACAD
1000
AcDbSavedByObjectVersion
1070
     0
  0
VISUALSTYLE
  5
A4
102
{ACAD_REACTORS
330
95
102
}
330
95
100
AcDbVisualStyle
  2
Facepattern
 70
    15
177
     3
291
     1
 70
    58
 90
        2
176
     1
 90
        2
176
     1
 90
        1
176
     1
 90
        0
176
     1
 40
0.6
176
     1
 40
30.0
176
     1
 62
     7
420
 16777215
176
     1
 90
        1
176
     1
 90
        4
176
     1
 62
     7
176
     1
 62
   257
176
     1
 90
        1
176
     1
 90
        1
176
     1
 40
1.0
176
     1
 90
        8
176
     1
 62
     7
176
     1
 40
1.0
176
     1
 90
        1
176
     1
 90
        6
176
     1
 90
        2
176
     1
 62
     7
176
     1
 90
        5
176
     1
 90
        0
176
     1
 90
        0
176
     1
290
     0
176
     1
 90
        1
176
     1
 40
0.0
176
     1
 90
        0
176
     1
290
     0
176
     1
290
     1
176
     1
290
     1
176
     1
290
     0
176
     1
290
     0
176
     1
290
     0
176
     1
290
     0
176
     1
290
     0
176
     1
290
     0
176
     1
 90
       50
176
     1
 40
0.0
176
     1
 40
1.0
176
     1
 90
        0
176
     1
 62
    18
420
        0
176
     1
 90
       50
176
     1
 90
        3
176
     1
 62
     5
420
      255
176
     1
290
     0
176
     1
 90
       50
176
     1
 90
       50
176
     1
 90
       50
176
     1
290
     0
176
     1
 90
       50
176
     1
 62
   256
176
     0
 40
1.0
176
     0
 90
        2
176
     1
  1
strokes_ogs.tif
176
     1
290
     0
176
     1
 40
1.0
176
     1
 40
1.0
176
     1
1001
ACAD
1000
AcDbSavedByObjectVersion
1070
     0
  0
VISUALSTYLE
  5
96
102
{ACAD_REACTORS
330
95
102
}
330
95
100
AcDbVisualStyle
  2
Flat
 70
     0
177
     3
291
     1
 70
    58
 90
        2
176
     1
 90
        1
176
     1
 90
        1
176
     1
 90
        2
176
     1
 40
0.6
176
     1
 40
30.0
176
     1
 62
     7
420
 16777215
176
     1
 90
        0
176
     1
 90
        0
176
     1
 62
     7
176
     1
 62
   257
176
     1
 90
        1
176
     1
 90
        1
176
     1
 40
1.0
176
     1
 90
        8
176
     1
 62
     7
176
     1
 40
1.0
176
     1
 90
        1
176
     1
 90
        6
176
     1
 90
        2
176
     1
 62
     7
176
     1
 90
        5
176
     1
 90
        0
176
     1
 90
        0
176
     1
290
     0
176
     1
 90
       13
176
     1
 40
0.0
176
     1
 90
        0
176
     1
290
     0
176
     1
290
     1
176
     1
290
     1
176
     1
290
     0
176
     1
290
     0
176
     1
290
     0
176
     1
290
     0
176
     1
290
     0
176
     1
290
     0
176
     1
 90
       50
176
     1
 40
0.0
176
     1
 40
1.0
176
     1
 90
        0
176
     1
 62
    18
420
        0
176
     1
 90
       50
176
     1
 90
        3
176
     1
 62
     5
420
      255
176
     1
290
     0
176
     1
 90
       50
176
     1
 90
       50
176
     1
 90
       50
176
     1
290
     0
176
     1
 90
       50
176
     1
 62
   256
176
     0
 40
1.0
176
     0
 90
        2
176
     1
  1
strokes_ogs.tif
176
     1
290
     0
176
     1
 40
1.0
176
     1
 40
1.0
176
     1
1001
ACAD
1000
AcDbSavedByObjectVersion
1070
     0
  0
VISUALSTYLE
  5
97
102
{ACAD_REACTORS
330
95
102
}
330
95
100
AcDbVisualStyle
  2
FlatWithEdges
 70
     1
177
     3
291
     1
 70
    58
 90
        2
176
     1
 90
        1
176
     1
 90
        1
176
     1
 90
        2
176
     1
 40
0.6
176
     1
 40
30.0
176
     1
 62
     7
420
 16777215
176
     1
 90
        1
176
     1
 90
        0
176
     1
 62
     7
176
     1
 62
   257
176
     1
 90
        1
176
     1
 90
        1
176
     1
 40
1.0
176
     1
 90
        0
176
     1
 62
   257
176
     1
 40
1.0
176
     1
 90
        1
176
     1
 90
        6
176
     1
 90
        2
176
     1
 62
     7
176
     1
 90
        5
176
     1
 90
        0
176
     1
 90
        0
176
     1
290
     0
176
     1
 90
       13
176
     1
 40
0.0
176
     1
 90
        0
176
     1
290
     0
176
     1
290
     1
176
     1
290
     1
176
     1
290
     0
176
     1
290
     0
176
     1
290
     0
176
     1
290
     0
176
     1
290
     0
176
     1
290
     0
176
     1
 90
       50
176
     1
 40
0.0
176
     1
 40
1.0
176
     1
 90
        0
176
     1
 62
    18
420
        0
176
     1
 90
       50
176
     1
 90
        3
176
     1
 62
     5
420
      255
176
     1
290
     0
176
     1
 90
       50
176
     1
 90
       50
176
     1
 90
       50
176
     1
290
     0
176
     1
 90
       50
176
     1
 62
   256
176
     0
 40
1.0
176
     0
 90
        2
176
     1
  1
strokes_ogs.tif
176
     1
290
     0
176
     1
 40
1.0
176
     1
 40
1.0
176
     1
1001
ACAD
1000
AcDbSavedByObjectVersion
1070
     0
  0
VISUALSTYLE
  5
98
102
{ACAD_REACTORS
330
95
102
}
330
95
100
AcDbVisualStyle
  2
Gouraud
 70
     2
177
     3
291
     1
 70
    58
 90
        2
176
     1
 90
        2
176
     1
 90
        1
176
     1
 90
        2
176
     1
 40
0.6
176
     1
 40
30.0
176
     1
 62
     7
420
 16777215
176
     1
 90
        0
176
     1
 90
        0
176
     1
 62
     7
176
     1
 62
   257
176
     1
 90
        1
176
     1
 90
        1
176
     1
 40
1.0
176
     1
 90
        0
176
     1
 62
     7
176
     1
 40
1.0
176
     1
 90
        1
176
     1
 90
        6
176
     1
 90
        2
176
     1
 62
     7
176
     1
 90
        5
176
     1
 90
        0
176
     1
 90
        0
176
     1
290
     0
176
     1
 90
       13
176
     1
 40
0.0
176
     1
 90
        0
176
     1
290
     0
176
     1
290
     1
176
     1
290
     1
176
     1
290
     0
176
     1
290
     0
176
     1
290
     0
176
     1
290
     0
176
     1
290
     0
176
     1
290
     0
176
     1
 90
       50
176
     1
 40
0.0
176
     1
 40
1.0
176
     1
 90
        0
176
     1
 62
    18
420
        0
176
     1
 90
       50
176
     1
 90
        3
176
     1
 62
     5
420
      255
176
     1
290
     0
176
     1
 90
       50
176
     1
 90
       50
176
     1
 90
       50
176
     1
290
     0
176
     1
 90
       50
176
     1
 62
   256
176
     0
 40
1.0
176
     0
 90
        2
176
     1
  1
strokes_ogs.tif
176
     1
290
     0
176
     1
 40
1.0
176
     1
 40
1.0
176
     1
1001
ACAD
1000
AcDbSavedByObjectVersion
1070
     0
  0
VISUALSTYLE
  5
99
102
{ACAD_REACTORS
330
95
102
}
330
95
100
AcDbVisualStyle
  2
GouraudWithEdges
 70
     3
177
     3
291
     1
 70
    58
 90
        2
176
     1
 90
        2
176
     1
 90
        1
176
     1
 90
        2
176
     1
 40
0.6
176
     1
 40
30.0
176
     1
 62
     7
420
 16777215
176
     1
 90
        1
176
     1
 90
        0
176
     1
 62
     7
176
     1
 62
   257
176
     1
 90
        1
176
     1
 90
        1
176
     1
 40
1.0
176
     1
 90
        0
176
     1
 62
   257
176
     1
 40
1.0
176
     1
 90
        1
176
     1
 90
        6
176
     1
 90
        2
176
     1
 62
     7
176
     1
 90
        5
176
     1
 90
        0
176
     1
 90
        0
176
     1
290
     0
176
     1
 90
       13
176
     1
 40
0.0
176
     1
 90
        0
176
     1
290
     0
176
     1
290
     1
176
     1
290
     1
176
     1
290
     0
176
     1
290
     0
176
     1
290
     0
176
     1
290
     0
176
     1
290
     0
176
     1
290
     0
176
     1
 90
       50
176
     1
 40
0.0
176
     1
 40
1.0
176
     1
 90
        0
176
     1
 62
    18
420
        0
176
     1
 90
       50
176
     1
 90
        3
176
     1
 62
     5
420
      255
176
     1
290
     0
176
     1
 90
       50
176
     1
 90
       50
176
     1
 90
       50
176
     1
290
     0
176
     1
 90
       50
176
     1
 62
   256
176
     0
 40
1.0
176
     0
 90
        2
176
     1
  1
strokes_ogs.tif
176
     1
290
     0
176
     1
 40
1.0
176
     1
 40
1.0
176
     1
1001
ACAD
1000
AcDbSavedByObjectVersion
1070
     0
  0
VISUALSTYLE
  5
9D
102
{ACAD_REACTORS
330
95
102
}
330
95
100
AcDbVisualStyle
  2
Hidden
 70
     6
177
     3
291
     0
 70
    58
 90
        1
176
     1
 90
        2
176
     1
 90
        2
176
     1
 90
        0
176
     1
 40
0.6
176
     1
 40
30.0
176
     1
 62
     7
420
 16777215
176
     1
 90
        2
176
     1
 90
        2
176
     1
 62
     7
176
     1
 62
   257
176
     1
 90
        2
176
     1
 90
        1
176
     1
 40
40.0
176
     1
 90
        0
176
     1
 62
   257
176
     1
 40
1.0
176
     1
 90
        1
176
     1
 90
        6
176
     1
 90
        2
176
     1
 62
     7
176
     1
 90
        3
176
     1
 90
        0
176
     1
 90
        0
176
     1
290
     0
176
     1
 90
        1
176
     1
 40
0.0
176
     1
 90
        0
176
     1
290
     0
176
     1
290
     1
176
     1
290
     1
176
     1
290
     0
176
     1
290
     0
176
     1
290
     0
176
     1
290
     0
176
     1
290
     0
176
     1
290
     0
176
     1
 90
       50
176
     1
 40
0.0
176
     1
 40
1.0
176
     1
 90
        0
176
     1
 62
    18
420
        0
176
     1
 90
       50
176
     1
 90
        3
176
     1
 62
     5
420
      255
176
     1
290
     0
176
     1
 90
       50
176
     1
 90
       50
176
     1
 90
       50
176
     1
290
     0
176
     1
 90
       50
176
     1
 62
   256
176
     0
 40
1.0
176
     0
 90
        2
176
     1
  1
strokes_ogs.tif
176
     1
290
     0
176
     1
 40
1.0
176
     1
 40
1.0
176
     1
1001
ACAD
1000
AcDbSavedByObjectVersion
1070
     0
  0
VISUALSTYLE
  5
170
102
{ACAD_REACTORS
330
95
102
}
330
95
100
AcDbVisualStyle
  2
JitterOff
 70
    20
177
     3
291
     1
 70
    58
 90
        2
176
     0
 90
        2
176
     0
 90
        0
176
     0
 90
        0
176
     0
 40
0.6
176
     0
 40
30.0
176
     0
 62
     7
420
 16777215
176
     0
 90
        1
176
     0
 90
        4
176
     0
 62
     7
176
     0
 62
   257
176
     0
 90
        1
176
     0
 90
        1
176
     0
 40
1.0
176
     0
 90
       10
176
     2
 62
     7
176
     0
 40
1.0
176
     0
 90
        1
176
     0
 90
        6
176
     0
 90
        2
176
     0
 62
     7
176
     0
 90
        5
176
     0
 90
        0
176
     0
 90
        0
176
     0
290
     0
176
     0
 90
        1
176
     0
 40
0.0
176
     0
 90
        0
176
     0
290
     0
176
     1
290
     1
176
     1
290
     1
176
     1
290
     0
176
     1
290
     0
176
     1
290
     0
176
     1
290
     0
176
     1
290
     0
176
     1
290
     0
176
     1
 90
       50
176
     1
 40
0.0
176
     1
 40
1.0
176
     1
 90
        0
176
     1
 62
    18
420
        0
176
     1
 90
       50
176
     1
 90
        3
176
     1
 62
     5
420
      255
176
     1
290
     0
176
     1
 90
       50
176
     1
 90
       50
176
     1
 90
       50
176
     1
290
     0
176
     1
 90
       50
176
     1
 62
   256
176
     0
 40
1.0
176
     0
 90
        2
176
     1
  1
strokes_ogs.tif
176
     1
290
     0
176
     1
 40
1.0
176
     1
 40
1.0
176
     1
1001
ACAD
1000
AcDbSavedByObjectVersion
1070
     0
  0
VISUALSTYLE
  5
A3
102
{ACAD_REACTORS
330
95
102
}
330
95
100
AcDbVisualStyle
  2
Linepattern
 70
    14
177
     3
291
     1
 70
    58
 90
        2
176
     1
 90
        2
176
     1
 90
        1
176
     1
 90
        0
176
     1
 40
0.6
176
     1
 40
30.0
176
     1
 62
     7
420
 16777215
176
     1
 90
        1
176
     1
 90
        4
176
     1
 62
     7
176
     1
 62
   257
176
     1
 90
        7
176
     1
 90
        7
176
     1
 40
1.0
176
     1
 90
        8
176
     1
 62
     7
176
     1
 40
1.0
176
     1
 90
        1
176
     1
 90
        6
176
     1
 90
        2
176
     1
 62
     7
176
     1
 90
        5
176
     1
 90
        0
176
     1
 90
        0
176
     1
290
     0
176
     1
 90
        1
176
     1
 40
0.0
176
     1
 90
        0
176
     1
290
     0
176
     1
290
     1
176
     1
290
     1
176
     1
290
     0
176
     1
290
     0
176
     1
290
     0
176
     1
290
     0
176
     1
290
     0
176
     1
290
     0
176
     1
 90
       50
176
     1
 40
0.0
176
     1
 40
1.0
176
     1
 90
        0
176
     1
 62
    18
420
        0
176
     1
 90
       50
176
     1
 90
        3
176
     1
 62
     5
420
      255
176
     1
290
     0
176
     1
 90
       50
176
     1
 90
       50
176
     1
 90
       50
176
     1
290
     0
176
     1
 90
       50
176
     1
 62
   256
176
     0
 40
1.0
176
     0
 90
        2
176
     1
  1
strokes_ogs.tif
176
     1
290
     0
176
     1
 40
1.0
176
     1
 40
1.0
176
     1
1001
ACAD
1000
AcDbSavedByObjectVersion
1070
     0
  0
VISUALSTYLE
  5
171
102
{ACAD_REACTORS
330
95
102
}
330
95
100
AcDbVisualStyle
  2
OverhangOff
 70
    21
177
     3
291
     1
 70
    58
 90
        2
176
     0
 90
        2
176
     0
 90
        0
176
     0
 90
        0
176
     0
 40
0.6
176
     0
 40
30.0
176
     0
 62
     7
420
 16777215
176
     0
 90
        1
176
     0
 90
        4
176
     0
 62
     7
176
     0
 62
   257
176
     0
 90
        1
176
     0
 90
        1
176
     0
 40
1.0
176
     0
 90
        9
176
     2
 62
     7
176
     0
 40
1.0
176
     0
 90
        1
176
     0
 90
        6
176
     0
 90
        2
176
     0
 62
     7
176
     0
 90
        5
176
     0
 90
        0
176
     0
 90
        0
176
     0
290
     0
176
     0
 90
        1
176
     0
 40
0.0
176
     0
 90
        0
176
     0
290
     0
176
     1
290
     1
176
     1
290
     1
176
     1
290
     0
176
     1
290
     0
176
     1
290
     0
176
     1
290
     0
176
     1
290
     0
176
     1
290
     0
176
     1
 90
       50
176
     1
 40
0.0
176
     1
 40
1.0
176
     1
 90
        0
176
     1
 62
    18
420
        0
176
     1
 90
       50
176
     1
 90
        3
176
     1
 62
     5
420
      255
176
     1
290
     0
176
     1
 90
       50
176
     1
 90
       50
176
     1
 90
       50
176
     1
290
     0
176
     1
 90
       50
176
     1
 62
   256
176
     0
 40
1.0
176
     0
 90
        2
176
     1
  1
strokes_ogs.tif
176
     1
290
     0
176
     1
 40
1.0
176
     1
 40
1.0
176
     1
1001
ACAD
1000
AcDbSavedByObjectVersion
1070
     0
  0
VISUALSTYLE
  5
9F
102
{ACAD_REACTORS
330
95
102
}
330
95
100
AcDbVisualStyle
  2
Realistic
 70
     8
177
     3
291
     0
 70
    58
 90
        2
176
     1
 90
        3
176
     1
 90
        0
176
     1
 90
        2
176
     1
 40
0.6
176
     1
 40
30.0
176
     1
 62
     7
420
 16777215
176
     1
 90
        0
176
     1
 90
        0
176
     1
 62
     7
176
     1
 62
   257
176
     1
 90
        1
176
     1
 90
        1
176
     1
 40
1.0
176
     1
 90
        8
176
     1
 62
   257
176
     1
 40
1.0
176
     1
 90
        1
176
     1
 90
        6
176
     1
 90
        2
176
     1
 62
     7
176
     1
 90
        3
176
     1
 90
        0
176
     1
 90
        0
176
     1
290
     0
176
     1
 90
       13
176
     1
 40
0.0
176
     1
 90
        0
176
     1
290
     0
176
     1
290
     1
176
     1
290
     1
176
     1
290
     0
176
     1
290
     0
176
     1
290
     0
176
     1
290
     0
176
     1
290
     0
176
     1
290
     0
176
     1
 90
       50
176
     1
 40
0.0
176
     1
 40
1.0
176
     1
 90
        0
176
     1
 62
    18
420
        0
176
     1
 90
       50
176
     1
 90
        3
176
     1
 62
     5
420
      255
176
     1
290
     0
176
     1
 90
       50
176
     1
 90
       50
176
     1
 90
       50
176
     1
290
     0
176
     1
 90
       50
176
     1
 62
   256
176
     0
 40
1.0
176
     0
 90
        2
176
     1
  1
strokes_ogs.tif
176
     1
290
     0
176
     1
 40
1.0
176
     1
 40
1.0
176
     1
1001
ACAD
1000
AcDbSavedByObjectVersion
1070
     0
  0
VISUALSTYLE
  5
17F
102
{ACAD_REACTORS
330
95
102
}
330
95
100
AcDbVisualStyle
  2
Shaded
 70
    27
177
     3
291
     0
 70
    58
 90
        2
176
     1
 90
        2
176
     1
 90
        1
176
     1
 90
        2
176
     1
 40
0.6
176
     1
 40
30.0
176
     1
 62
     7
420
 16777215
176
     1
 90
        0
176
     1
 90
        4
176
     1
 62
     7
176
     1
 62
   257
176
     1
 90
        1
176
     1
 90
        1
176
     1
 40
1.0
176
     1
 90
        8
176
     1
 62
   257
176
     1
 40
1.0
176
     1
 90
        1
176
     1
 90
        6
176
     1
 90
        2
176
     1
 62
     8
420
  7895160
176
     1
 90
        3
176
     1
 90
        0
176
     1
 90
        0
176
     1
290
     0
176
     1
 90
        5
176
     1
 40
0.0
176
     1
 90
        0
176
     1
290
     0
176
     1
290
     1
176
     1
290
     1
176
     1
290
     0
176
     1
290
     0
176
     1
290
     0
176
     1
290
     0
176
     1
290
     0
176
     1
290
     0
176
     1
 90
       50
176
     1
 40
0.0
176
     1
 40
1.0
176
     1
 90
        0
176
     1
 62
    18
420
        0
176
     1
 90
       50
176
     1
 90
        3
176
     1
 62
     5
420
      255
176
     1
290
     0
176
     1
 90
       50
176
     1
 90
       50
176
     1
 90
       50
176
     1
290
     0
176
     1
 90
       50
176
     1
 62
   256
176
     0
 40
1.0
176
     0
 90
        2
176
     1
  1
strokes_ogs.tif
176
     1
290
     0
176
     1
 40
1.0
176
     1
 40
1.0
176
     1
1001
ACAD
1000
AcDbSavedByObjectVersion
1070
     0
  0
VISUALSTYLE
  5
17E
102
{ACAD_REACTORS
330
95
102
}
330
95
100
AcDbVisualStyle
  2
Shaded with edges
 70
    26
177
     3
291
     0
 70
    58
 90
        2
176
     1
 90
        2
176
     1
 90
        1
176
     1
 90
        2
176
     1
 40
0.6
176
     1
 40
30.0
176
     1
 62
     7
420
 16777215
176
     1
 90
        1
176
     1
 90
        2
176
     1
 62
     7
176
     1
 62
   257
176
     1
 90
        2
176
     1
 90
        1
176
     1
 40
1.0
176
     1
 90
        8
176
     1
 62
   257
176
     1
 40
1.0
176
     1
 90
        1
176
     1
 90
        6
176
     1
 90
        2
176
     1
 62
     7
176
     1
 90
        3
176
     1
 90
        0
176
     1
 90
        0
176
     1
290
     0
176
     1
 90
        5
176
     1
 40
0.0
176
     1
 90
        0
176
     1
290
     0
176
     1
290
     1
176
     1
290
     1
176
     1
290
     0
176
     1
290
     0
176
     1
290
     0
176
     1
290
     0
176
     1
290
     0
176
     1
290
     0
176
     1
 90
       50
176
     1
 40
0.0
176
     1
 40
1.0
176
     1
 90
        0
176
     1
 62
    18
420
        0
176
     1
 90
       50
176
     1
 90
        3
176
     1
 62
     5
420
      255
176
     1
290
     0
176
     1
 90
       50
176
     1
 90
       50
176
     1
 90
       50
176
     1
290
     0
176
     1
 90
       50
176
     1
 62
   256
176
     0
 40
1.0
176
     0
 90
        2
176
     1
  1
strokes_ogs.tif
176
     1
290
     0
176
     1
 40
1.0
176
     1
 40
1.0
176
     1
1001
ACAD
1000
AcDbSavedByObjectVersion
1070
     0
  0
VISUALSTYLE
  5
17B
102
{ACAD_REACTORS
330
95
102
}
330
95
100
AcDbVisualStyle
  2
Shades of Gray
 70
    23
177
     3
291
     0
 70
    58
 90
        2
176
     1
 90
        2
176
     1
 90
        3
176
     1
 90
        0
176
     1
 40
0.6
176
     1
 40
30.0
176
     1
 62
     7
420
 16777215
176
     1
 90
        2
176
     1
 90
        2
176
     1
 62
     7
176
     1
 62
     7
176
     1
 90
        1
176
     1
 90
        1
176
     1
 40
40.0
176
     1
 90
        8
176
     1
 62
     7
176
     1
 40
1.0
176
     1
 90
        1
176
     1
 90
        6
176
     1
 90
        2
176
     1
 62
     7
176
     1
 90
        3
176
     1
 90
        0
176
     1
 90
        0
176
     1
290
     0
176
     1
 90
        1
176
     1
 40
0.0
176
     1
 90
        0
176
     1
290
     0
176
     1
290
     1
176
     1
290
     1
176
     1
290
     0
176
     1
290
     0
176
     1
290
     0
176
     1
290
     0
176
     1
290
     0
176
     1
290
     0
176
     1
 90
       50
176
     1
 40
0.0
176
     1
 40
1.0
176
     1
 90
        0
176
     1
 62
    18
420
        0
176
     1
 90
       50
176
     1
 90
        3
176
     1
 62
     5
420
      255
176
     1
290
     0
176
     1
 90
       50
176
     1
 90
       50
176
     1
 90
       50
176
     1
290
     0
176
     1
 90
       50
176
     1
 62
   256
176
     0
 40
1.0
176
     0
 90
        2
176
     1
  1
strokes_ogs.tif
176
     1
290
     0
176
     1
 40
1.0
176
     1
 40
1.0
176
     1
1001
ACAD
1000
AcDbSavedByObjectVersion
1070
     0
  0
VISUALSTYLE
  5
17C
102
{ACAD_REACTORS
330
95
102
}
330
95
100
AcDbVisualStyle
  2
Sketchy
 70
    24
177
     3
291
     0
 70
    58
 90
        1
176
     1
 90
        2
176
     1
 90
        2
176
     1
 90
        0
176
     1
 40
0.6
176
     1
 40
30.0
176
     1
 62
     7
420
 16777215
176
     1
 90
        2
176
     1
 90
        2
176
     1
 62
     7
176
     1
 62
     7
176
     1
 90
        1
176
     1
 90
        1
176
     1
 40
40.0
176
     1
 90
       11
176
     1
 62
     7
176
     1
 40
1.0
176
     1
 90
        1
176
     1
 90
        6
176
     1
 90
        2
176
     1
 62
     7
176
     1
 90
        6
176
     1
 90
        0
176
     1
 90
        0
176
     1
290
     0
176
     1
 90
        1
176
     1
 40
0.0
176
     1
 90
        0
176
     1
290
     0
176
     1
290
     1
176
     1
290
     1
176
     1
290
     0
176
     1
290
     0
176
     1
290
     0
176
     1
290
     0
176
     1
290
     0
176
     1
290
     0
176
     1
 90
       50
176
     1
 40
0.0
176
     1
 40
1.0
176
     1
 90
        0
176
     1
 62
    18
420
        0
176
     1
 90
       50
176
     1
 90
        3
176
     1
 62
     5
420
      255
176
     1
290
     0
176
     1
 90
       50
176
     1
 90
       50
176
     1
 90
       50
176
     1
290
     0
176
     1
 90
       50
176
     1
 62
   256
176
     0
 40
1.0
176
     0
 90
        2
176
     1
  1
strokes_ogs.tif
176
     1
290
     0
176
     1
 40
1.0
176
     1
 40
1.0
176
     1
1001
ACAD
1000
AcDbSavedByObjectVersion
1070
     0
  0
VISUALSTYLE
  5
A2
102
{ACAD_REACTORS
330
95
102
}
330
95
100
AcDbVisualStyle
  2
Thicken
 70
    13
177
     3
291
     1
 70
    58
 90
        2
176
     1
 90
        2
176
     1
 90
        1
176
     1
 90
        0
176
     1
 40
0.6
176
     1
 40
30.0
176
     1
 62
     7
420
 16777215
176
     1
 90
        1
176
     1
 90
        4
176
     1
 62
     7
176
     1
 62
   257
176
     1
 90
        1
176
     1
 90
        1
176
     1
 40
1.0
176
     1
 90
       12
176
     1
 62
     7
176
     1
 40
1.0
176
     1
 90
        1
176
     1
 90
        6
176
     1
 90
        2
176
     1
 62
     7
176
     1
 90
        5
176
     1
 90
        0
176
     1
 90
        0
176
     1
290
     0
176
     1
 90
        1
176
     1
 40
0.0
176
     1
 90
        0
176
     1
290
     0
176
     1
290
     1
176
     1
290
     1
176
     1
290
     0
176
     1
290
     0
176
     1
290
     0
176
     1
290
     0
176
     1
290
     0
176
     1
290
     0
176
     1
 90
       50
176
     1
 40
0.0
176
     1
 40
1.0
176
     1
 90
        0
176
     1
 62
    18
420
        0
176
     1
 90
       50
176
     1
 90
        3
176
     1
 62
     5
420
      255
176
     1
290
     0
176
     1
 90
       50
176
     1
 90
       50
176
     1
 90
       50
176
     1
290
     0
176
     1
 90
       50
176
     1
 62
   256
176
     0
 40
1.0
176
     0
 90
        2
176
     1
  1
strokes_ogs.tif
176
     1
290
     0
176
     1
 40
1.0
176
     1
 40
1.0
176
     1
1001
ACAD
1000
AcDbSavedByObjectVersion
1070
     0
  0
VISUALSTYLE
  5
9C
102
{ACAD_REACTORS
330
95
102
}
330
95
100
AcDbVisualStyle
  2
Wireframe
 70
     5
177
     3
291
     0
 70
    58
 90
        0
176
     1
 90
        2
176
     1
 90
        0
176
     1
 90
        0
176
     1
 40
0.6
176
     1
 40
30.0
176
     1
 62
     7
420
 16777215
176
     1
 90
        1
176
     1
 90
        4
176
     1
 62
     7
176
     1
 62
   257
176
     1
 90
        1
176
     1
 90
        1
176
     1
 40
1.0
176
     1
 90
        0
176
     1
 62
   257
176
     1
 40
1.0
176
     1
 90
        1
176
     1
 90
        6
176
     1
 90
        2
176
     1
 62
     7
176
     1
 90
        3
176
     1
 90
        0
176
     1
 90
        0
176
     1
290
     0
176
     1
 90
        1
176
     1
 40
0.0
176
     1
 90
        0
176
     1
290
     0
176
     1
290
     1
176
     1
290
     1
176
     1
290
     0
176
     1
290
     0
176
     1
290
     0
176
     1
290
     0
176
     1
290
     0
176
     1
290
     0
176
     1
 90
       50
176
     1
 40
0.0
176
     1
 40
1.0
176
     1
 90
        0
176
     1
 62
    18
420
        0
176
     1
 90
       50
176
     1
 90
        3
176
     1
 62
     5
420
      255
176
     1
290
     0
176
     1
 90
       50
176
     1
 90
       50
176
     1
 90
       50
176
     1
290
     0
176
     1
 90
       50
176
     1
 62
   256
176
     0
 40
1.0
176
     0
 90
        2
176
     1
  1
strokes_ogs.tif
176
     1
290
     0
176
     1
 40
1.0
176
     1
 40
1.0
176
     1
1001
ACAD
1000
AcDbSavedByObjectVersion
1070
     0
  0
VISUALSTYLE
  5
17D
102
{ACAD_REACTORS
330
95
102
}
330
95
100
AcDbVisualStyle
  2
X-Ray
 70
    25
177
     3
291
     0
 70
    58
 90
        2
176
     1
 90
        2
176
     1
 90
        1
176
     1
 90
        1
176
     1
 40
0.5
176
     1
 40
30.0
176
     1
 62
     7
420
 16777215
176
     1
 90
        1
176
     1
 90
        0
176
     1
 62
     7
176
     1
 62
   257
176
     1
 90
        1
176
     1
 90
        1
176
     1
 40
1.0
176
     1
 90
        8
176
     1
 62
     7
176
     1
 40
1.0
176
     1
 90
        1
176
     1
 90
        6
176
     1
 90
        2
176
     1
 62
     7
176
     1
 90
        3
176
     1
 90
        0
176
     1
 90
        0
176
     1
290
     0
176
     1
 90
       13
176
     1
 40
0.0
176
     1
 90
        0
176
     1
290
     0
176
     1
290
     1
176
     1
290
     1
176
     1
290
     0
176
     1
290
     0
176
     1
290
     0
176
     1
290
     0
176
     1
290
     0
176
     1
290
     0
176
     1
 90
       50
176
     1
 40
0.0
176
     1
 40
1.0
176
     1
 90
        0
176
     1
 62
    18
420
        0
176
     1
 90
       50
176
     1
 90
        3
176
     1
 62
     5
420
      255
176
     1
290
     0
176
     1
 90
       50
176
     1
 90
       50
176
     1
 90
       50
176
     1
290
     0
176
     1
 90
       50
176
     1
 62
   256
176
     0
 40
1.0
176
     0
 90
        2
176
     1
  1
strokes_ogs.tif
176
     1
290
     0
176
     1
 40
1.0
176
     1
 40
1.0
176
     1
1001
ACAD
1000
AcDbSavedByObjectVersion
1070
     0
  0
DICTIONARYVAR
  5
EB
102
{ACAD_REACTORS
330
59
102
}
330
59
100
DictionaryVariables
280
     0
  1
1:1
  0
DICTIONARYVAR
  5
EA
102
{ACAD_REACTORS
330
59
102
}
330
59
100
DictionaryVariables
280
     0
  1
STANDARD
  0
DICTIONARYVAR
  5
AB
102
{ACAD_REACTORS
330
59
102
}
330
59
100
DictionaryVariables
280
     0
  1
STANDARD
  0
DICTIONARYVAR
  5
1B4
102
{ACAD_REACTORS
330
59
102
}
330
59
100
DictionaryVariables
280
     0
  1
Imperial24
  0
DICTIONARYVAR
  5
1B5
102
{ACAD_REACTORS
330
59
102
}
330
59
100
DictionaryVariables
280
     0
  1
Imperial24
  0
DICTIONARYVAR
  5
5A
102
{ACAD_REACTORS
330
59
102
}
330
59
100
DictionaryVariables
280
     0
  1
2
  0
DICTIONARYVAR
  5
5E
102
{ACAD_REACTORS
330
59
102
}
330
59
100
DictionaryVariables
280
     0
  1
1
  0
DICTIONARYVAR
  5
14A
102
{ACAD_REACTORS
330
59
102
}
330
59
100
DictionaryVariables
280
     0
  1
0
  0
DICTIONARYVAR
  5
14B
102
{ACAD_REACTORS
330
59
102
}
330
59
100
DictionaryVariables
280
     0
  1
0
  0
DICTIONARY
  5
381
102
{ACAD_REACTORS
330
37F
102
}
330
37F
100
AcDbDictionary
281
     1
  0
DICTIONARY
  5
380
102
{ACAD_REACTORS
330
37F
102
}
330
37F
100
AcDbDictionary
281
     1
  3
2273636109216
350
37A
  3
2273636109232
350
37B
  3
2273636109248
350
37C
  3
2273636109264
350
37D
  3
2273636109280
350
37E
  0
DICTIONARY
  5
384
330
1A9
100
AcDbDictionary
280
     1
281
     1
  3
ACAD_XREC_ROUNDTRIP
360
385
  0
DICTIONARY
  5
191
330
22
100
AcDbDictionary
280
     1
281
     1
  0
DICTIONARY
  5
185
330
93
100
AcDbDictionary
280
     1
281
     1
  3
FBXASSET
360
186
  0
DICTIONARY
  5
183
330
92
100
AcDbDictionary
280
     1
281
     1
  3
FBXASSET
360
184
  0
DICTIONARY
  5
10B
330
94
100
AcDbDictionary
280
     1
281
     1
  3
BUMPTILE
360
10D
  3
DIFFUSETILE
360
10C
  3
FBXASSET
360
187
  3
OPACITYTILE
360
10E
  3
REFLECTIONTILE
360
10F
  0
DICTIONARY
  5
382
330
1A7
100
AcDbDictionary
280
     1
281
     1
  3
ACAD_XREC_ROUNDTRIP
360
383
  0
DICTIONARY
  5
FF
330
A7
100
AcDbDictionary
280
     1
281
     1
  3
ACAD_ROUNDTRIP_2008_TABLESTYLE_CELLSTYLEMAP
360
378
  0
XRECORD
  5
37A
102
{ACAD_REACTORS
330
380
102
}
330
380
100
AcDbXrecord
280
     1
  1
AcDb_Thumbnail_Schema
102
{ATTRRECORD
341
37B
  2
AcDbDs::TreatedAsObjectData
280
     1
291
     1
102
ATTRRECORD}
102
{ATTRRECORD
341
37C
  2
AcDbDs::Legacy
280
     1
291
     1
102
ATTRRECORD}
  2
AcDbDs::ID
280
    10
 91
        8
102
{ATTRRECORD
341
37D
  2
AcDs:Indexable
280
     1
291
     1
102
ATTRRECORD}
102
{ATTRRECORD
341
37E
  2
AcDbDs::HandleAttribute
280
     7
282
     1
102
ATTRRECORD}
  2
Thumbnail_Data
280
    15
 91
        0
  0
XRECORD
  5
37B
102
{ACAD_REACTORS
330
380
102
}
330
380
100
AcDbXrecord
280
     1
  1
AcDbDs::TreatedAsObjectDataSchema
  2
AcDbDs::TreatedAsObjectData
280
     1
 91
        0
  0
XRECORD
  5
37C
102
{ACAD_REACTORS
330
380
102
}
330
380
100
AcDbXrecord
280
     1
  1
AcDbDs::LegacySchema
  2
AcDbDs::Legacy
280
     1
 91
        0
  0
XRECORD
  5
37D
102
{ACAD_REACTORS
330
380
102
}
330
380
100
AcDbXrecord
280
     1
  1
AcDbDs::IndexedPropertySchema
  2
AcDs:Indexable
280
     1
 91
        0
  0
XRECORD
  5
37E
102
{ACAD_REACTORS
330
380
102
}
330
380
100
AcDbXrecord
280
     1
  1
AcDbDs::HandleAttributeSchema
  2
AcDbDs::HandleAttribute
280
     7
 91
        1
284
     1
  0
XRECORD
  5
385
102
{ACAD_REACTORS
330
384
102
}
330
384
100
AcDbXrecord
280
     1
102
DISPLAYNAME
  1
Imperial24
102
FLAGS
 90
        0
  0
XRECORD
  5
186
102
{ACAD_REACTORS
330
185
102
}
330
185
100
AcDbXrecord
280
     1
 70
     1
 90
429727718
  1
7581DE8E-A623-425F-9BF4-B3F4BE6C4F9A
310
504B03040A0000080000AC70623B3DEE336E79000000790000001B0000006175746F6465736B2D64657369676E2D7061636B6167652E786D6C3C3F786D6C2076657273696F6E3D22312E302220656E636F64696E673D227574662D3822203F3E3C666F726D6174733E3C666F726D61743E687474703A2F2F736368656D612E
310
6175746F6465736B2E636F6D2F64657369676E2D7061636B6167652F323030393C2F666F726D61743E3C2F666F726D6174733E504B0304140006080800AC70623BD486FD9CA0000000F4000000130000005B436F6E74656E745F54797065735D2E786D6C7D8EC10E82300C865F65E91D8A1E8C310C0EEA1BF002731658846E
310
D98AC1B77784ABF1D8FE5FBFBF75BBCE937A534CCEB38643598122B6FEE978D0B0485F9C41B54DDD7D022595594E1A469170414C76A4D9A4D207E29CF43ECE46F218070CC6BECC4078ACAA135ACF422C856C0E68EA1BF5669944DDD7BCDE7B1F8E415D77AECB980613C2E4AC91FC167A2B244592486606FC29C8FD7F045B9A
310
EF7053A7E60B504B0304140006080800AC70623B9A2F3B5FEC0000007C01000008000000636F72652E786D6C8D90416E83301045AF62CDB632D8040820E328B4E204BD80653BC44AB011B6AB1EBF262152BBEB6A467FFE9B197D76FA9EEFE84BAFDE38DB03CD08206DA553C64E3DC470C10DA01367AB73E1970D9015B3EE61
310
9381B3697571D925E96CD03624D53AA5775178AF0320794F4D0F5E5EF52C32114372F85BB608791393CEE8AB4B708C46A1E711A3D23E73317A055E0D4D53D6C71A9FC7A1C6657D18703354232ECFED4731B6B43CBED72CDF60CE82995FF7E5AA45D00A7841488B29C5A4F8A46547AAAEA8DE48D311C2F2CDFE078A8BFA2714
310
8D0D87627FF78979E0343DF21870966F59A4F2082AD52D37FE03504B0304140006080800AC70623B55019EA25F0000007C00000007000000636E782E786D6C4DCB3B0E80201045D1AD90E915ED2CF8AC45050C11660C8261F98AB1B07AC9C97D42D718D865D3E909258CFD00CCE24AC6E326A164D74DC0B4128928FF326038
310
472BA13128B1252AC747C6BAB984FC68F0B87FE8960A5C09FE86CFB69FBA01504B0304140006080800AC70623B6E137E0172010000D40300000C0000006662782F636F72652E786D6CC5535B6E833010BC8AE5DF0A6C0810121947A1554ED00B38E05014B091B1518EDFE511A5A9D22AFD2A1F60CDEC7A67C698ED2E6D8306
310
69FA5AAB0C073EC548AA4297B5AA32ECECC94B31DA7166B4B65FCA3052A295191E61CC5965B4EB16A8D0CA4A650155BA940B28FA5E5A8C8A061619EE8B0FD90A5F380B15FDD9EF44711695F4031F68A8E3ACB70604A079C8F8C6FC74BC3032E39C3957970B5B9730AD3ED5D2601EE7691A25EBC4DB1FF2C48B9255EEA5797C
310
F0A2FDE62D3C6C8268FD9A3032367366EBF6AAAE30525859621E52BAF182C0A3E17B106D69BC0DE3179A6E2965642CBF6B725DF96493AB955D858BDCB9ADC73C002113F1CD2D4464512F06D04338236388F09912BE0F1A028190AD3836571F67800659586D22604AED6ED4201A27612AF5E9F4A09F178CCC9D3075DA1C5C3F
310
9C113E3DE3F71DE1A885AAC084B0B03C3A3BEA64B38625B44E1A6FB017A4B46945F39C8D5F1CFE89BA897F28A9D08D36FFA5882C074496DF838CF7917F02504B0304140006080800AC70623BE001BAC07D0000009D0000000B0000006662782F636E782E786D6C4DCCD10AC2201886E15B91FFDCA6536B037548D87D8CE686
310
E4344CA3CB6F8B1D74F4C1C3C72B87CF1AD0DBE5974F51013D11402EDED3E4E3A2A096197780062D734AE5EF06288EAB53B03368B9E4549F074D6E1E6B289B061F1F07124689687987B9601C7373BD60C36E065B6A6DDF7341A93843A365F32B6DBB87F517504B0304140006080800AC70623B8E5068122901000012020000
310
310000006662782F30333130353234382D343533342D344143372D413346412D4531454539393435313135362F636F72652E786D6C8D515B6EC32010BC0AE22B55850D364E93081345557A825E801892A2C460F1A872FC2EB523B57FF961D1EECCECECAED8DFC71BFA36215AEF7ACC2A8A917183D7D65D7A9CD3996C30DA4B
310
11BC4F7F601839359A1E973496E2127C9E96D4E05D322E41D6796D96A48AD1248C861B7C7A1C872F33AA4AE5048878AD26355CD5C554AC8232E0A4882980013437292F96B465B46BF886F0AEE5841FDEDFC8A1FD3890233B1EB75BDE31D6AD453D13A5C8D9EA856E35D8B1676BC2B322852C45B2E3C3FE108C4A4663D950BA
310
258C11DA7C32BEA3DDAEE95EE96647A9A80BFC1F294FFA4952B62EB5CD6277A6452C99A8E78214DAE7D3ED61C6DC271F122AFD56D10C2F305545CB6A60FC1908E383E29A2F8A31F900EB5D5D4F8065DD2CBBE652D4E542107ECF07B15C53FE00504B0304140006080800AC70623B503B51794E010000330300003000000066
310
62782F30333130353234382D343533342D344143372D413346412D4531454539393435313135362F636E782E786D6CD593C16EC32010447F0571AD6CE3D489D20813A9877E410FBD62D82434182CC055F3F75D1292E692438FBD206B7698593D61BEFD1E2DF982108D773D6D6B460938E5B571FB9ECE6957AD29D90A1EBC4F
310
77364A9C1CA1A759A682EF839FA72269D8C9D92654AD71C72206887E0E0A22CAF926B15E498B01E0AA19451807D01A34B919F16B070157417138917400F2F6FA41FCF0092A45DEE414C19BDC21783E4BD39D891265658C3D8DEA00A3ACE59CBC8678ACB54CB26EEB6BD7839D7E9348BE70AD9C8321B9BCA7F9A4A26C542347
310
DEE050F09802D22BA6749A800A394DD62899107273365E3C82CFC6A55557BC06C10774B7ABE7AEC3B0F34CF06446280E154026D0542C187BA9DAB6628BF7B6DBB0E566B17C62EB0D63BCC976C107EF6DB9843110FC449477095CA2A2E54D1E3FC2577C449B80AC7D38FD01240228AD173AB78CFFCCA739BF6FC415F02F103F
310
504B0304140006080800AC70623B38FA165F680500003C100000340000006662782F30333130353234382D343533342D344143372D413346412D4531454539393435313135362F6F626A656374732E786D6CAD575D6FA33814FD2B887D0E8424EDB42BCAA8499A2A1A756634D18CF6A15264C0A16CC146B6E9A4FBEBF7180C
310
019276B21F7908D8D8F7F3DCE36BFFE33ECFAC172A64CAD98DED3963DBA22CE271CA921BBB54BBD1956D7D0C7CC1B9EA2CB32D46727A63EB693BF013C1CBC24CC57447CA4C0D6657F33F2C1951466D2BCA889437B68C9E684E1C522A1E53F9ECC4441127D9ED1DCFA917F6C52682144F03A105119429588A790629566D94D7
310
1F8E6D37F05DFD3DF0F5BF59357D7B955BF9D3D79F32A9088B8E940DC44CBDD9F26E72713DBA98CDA6A3D9E5C41BCD57F3E5C8FB301D2F2E178BEBDBBB6B28964A4092B144D09D1DDC2336228D7CB7FED45A6C0C3F6552C419A351E53F3CAC6C3612635A5016238F2995D0D6F17ADC1F7A3A369DCF533D362ABBD3E779D5DD
310
D111D4D8DE3CBB96F2F04FB820CF41859054A3AA8E8F71B4C6DFF810B590F3CC7C4BA5951345454A322B4B4341C4AB1D60A95E12F83D311A9D42235C7B6007DE415ED75694C6AFB17BCACA5D99651A9A7650217B0BFC53252BCBD2BFA838AD0D36215765CAD4957148BD16D40EAE7DB79A0C7CFD984ECCC73A90D62E230952
310
0E37EBAF034717BAF6D64B3BF8B40AF71B5D8FA79517821754280D1F40AB495CF3D451326ABDB332A737C0995ECC0F41F986C87F46F91E4C41DE44BA9FED67468B1284C91D173972E38CAB9F356E5E46EDDBF10BF86CB0FA784D3BF3AF16FB6E6B6C9F30DECA1FC0A55373F5DFF3D78F5917A99DF405FE0B0A8C8BA909E526
310
2219A8E72165488806A595714C81CB77E1DE0ED6604A303B76912C680372F4E2BB2FF88EFF5A36D8AA52DF79322474C0B767303F625995056C7B032C473C592936CEBD15F38BFFA5666E979B4F9B52EC48441F0CB12CE92E65A9C2D979006FD7A05E227A1E3DD3D79F5CC470F438099B6E1272A34A22DA3AE63AF0497358E8
310
C141734F41847D09D79CE7FF42C3432A239A6584515E365ADA634863B52519D327A00AEB804E2703140BFA92EA4EA2B7A26716CEFA48A4850E597BE8B53CEDBCE1CBF7F56780D20EE6AF73A0F5F9B02A3CD07DC4332EB6E1EBB666421BE0C39E3EBA7FF4E16D22EA6A29407C85E586724C88B771BADB9512BC7B228A3FD68B
310
6EA65A22397E690AA8D158D7E40CEC8CDA23C2C0B7D1898640101CEC9C6D531CE328CB93CABBBA870A6425F70DF96199175B92F392A973C2346EFC69AC6F8577BB18F993A8E8C90E36D573340765C7343EA4AA87027D049DF0A9979E0F1757DEF2EEEA6E747B39412B35B9588DAEE7ABD9683E5DCDE677978BD9EAFAB6B5A8
310
B224F09B13AA5B8388264E44BF14A909F3F7F5A16CEDE08128E9DED705E526F5F3FBDA415BECBBD80380B71BD77991D19C3245347C1FF44BF68DA0ABE8C9A8E7D73949E81952BEDC6F063660E68C7D5F75A9D19F83BD6676A16BE1A410F554E621236936D8681C770A9618B79B50B6CF9AD19BA11E9978A20F953C4B63104E
310
6C2594E7548176CE607B915309C474BBF2D8DC1ECED8FD52F7838A84196D2C79226889330954036E65A4FAF3D66F68E174177563E3B0739EF1670AD1B690EA1B1BFCA6D2884A27C4F1A81B9F4A3820802EAC2541408DB02443675D6F6AC7ED2E1D1BD00F4E40A3BF5D724EB764FCEA116F4E8A02A7768F562BDB8C82E81F39
310
DE98631185D7B054AD2F8789D6994A0D2AAB76CADC0DD0423C1BD57BD4D7FB6E794EB5A61791B3EE49EF82A0963A524424D5BD40DB674CBA5D7E75D10A58EB2F569195097279BEA491A00073A90B1C28022A8CCC82284075F1FBE357C17117CDAD550A083C2E789E736606B7E62E6B6D9E70338D1F410B545F3FE464EC798F
310
55D76F2E22DB9048EA90583E63A22938EDC1006B00E4D1716A52E0EA1C0C96AF9796393066105A81F6A829ADAFE1168A47DF1C75A974C9B278B7F177ABA5008340CB1EFC0D504B0304140006080000AC70623B000000000000000000000000350000006662782F30333130353234382D343533342D344143372D413346412D
310
4531454539393435313135362F76657274696365732E62696E504B0304140006080800AC70623BF270F1330600000004000000360000006662782F30333130353234382D343533342D344143372D413346412D4531454539393435313135362F747269616E676C65732E62696E636660600000504B0304140006080000AC70
310
623B000000000000000000000000370000006662782F30333130353234382D343533342D344143372D413346412D4531454539393435313135362F617474726962757465732E62696E504B0304140006080800AC70623B08DA0BD19000000041010000360000006662782F30333130353234382D343533342D344143372D41
310
3346412D4531454539393435313135362F6469726563746F72792E786D6C858F410AC3201045AF22B36F53E9A60B35CBEEBAE80D244E44489C6234F4F835464A48035D0DF398FF9F8AF63D0E6CC63039F212F8F9020C7D47C6792B21C5FE7403D62A1188E2E60C98D7234A5830286103A55745067B9D86B8A3CF9C7F90C11D
310
E607FB144396D7B6A82D282E9A152AD114D5EF2CB866EEE831B8EEA07A7BB5A8D7D61A2BAAEB7FD5F70921FF497D00504B0304140006080800AC70623BF2C5666EFF000000A00100003B0000006662782F30333130353234382D343533342D344143372D413346412D4531454539393435313135362F7265736F7572636573
310
2F636F72652E786D6C8D504B6E833010BD0A9A6D65B00910888CA3D02A27E8052C33A156821DF953F5F8B5132AB5BB6E6646EFA3797AFCF8B5DE8A4F745E5B33022B291468949DB5594688E1427A288E823B6BC32F191446AE38428641F0C5D978DF20654D4013126AEC8C1B28BDC70085BAA56304AF3E7095A58C2129FCB5
310
BC4B75950B96AC4C74D209EE834B018AE7933C4138F4363A859E574F56F018F5BC69F49C7EEA8B4607A29DFABEE9F62D399DA78E34DD6E22FDD49E49731ADEEAF3C09AFD6BC7AB6C163CE8F527A3722803CE206A4A07C218A1F53B6B0EB43DD4ED0BED0F94F22ACBFF98E27DFEA7296A1376F516F769F320580AF22004AF72
310
5F693DCA4C3B772BBE01504B010214000A0000080000AC70623B3DEE336E79000000790000001B00000000000000000000000000000000006175746F6465736B2D64657369676E2D7061636B6167652E786D6C504B01021400140006080800AC70623BD486FD9CA0000000F40000001300000000000000000000000000B200
310
00005B436F6E74656E745F54797065735D2E786D6C504B01021400140006080800AC70623B9A2F3B5FEC0000007C010000080000000000000000000000000083010000636F72652E786D6C504B01021400140006080800AC70623B55019EA25F0000007C000000070000000000000000000000000095020000636E782E786D
310
6C504B01021400140006080800AC70623B6E137E0172010000D40300000C00000000000000000000000000190300006662782F636F72652E786D6C504B01021400140006080800AC70623BE001BAC07D0000009D0000000B00000000000000000000000000B50400006662782F636E782E786D6C504B010214001400060808
310
00AC70623B8E506812290100001202000031000000000000000000000000005B0500006662782F30333130353234382D343533342D344143372D413346412D4531454539393435313135362F636F72652E786D6C504B01021400140006080800AC70623B503B51794E010000330300003000000000000000000000000000D3
310
0600006662782F30333130353234382D343533342D344143372D413346412D4531454539393435313135362F636E782E786D6C504B01021400140006080800AC70623B38FA165F680500003C10000034000000000000000000000000006F0800006662782F30333130353234382D343533342D344143372D413346412D4531
310
454539393435313135362F6F626A656374732E786D6C504B01021400140006080000AC70623B0000000000000000000000003500000000000000000000000000290E00006662782F30333130353234382D343533342D344143372D413346412D4531454539393435313135362F76657274696365732E62696E504B01021400
310
140006080800AC70623BF270F133060000000400000036000000000000000000000000007C0E00006662782F30333130353234382D343533342D344143372D413346412D4531454539393435313135362F747269616E676C65732E62696E504B01021400140006080000AC70623B0000000000000000000000003700000000
310
000000000000000000D60E00006662782F30333130353234382D343533342D344143372D413346412D4531454539393435313135362F617474726962757465732E62696E504B01021400140006080800AC70623B08DA0BD1900000004101000036000000000000000000000000002B0F00006662782F30333130353234382D
310
343533342D344143372D413346412D4531454539393435313135362F6469726563746F72792E786D6C504B01021400140006080800AC70623BF2C5666EFF000000A00100003B000000000000000000000000000F1000006662782F30333130353234382D343533342D344143372D413346412D453145453939343531313536
310
2F7265736F75726365732F636F72652E786D6C504B0506000000000E000E0080040000671100000000
  0
XRECORD
  5
184
102
{ACAD_REACTORS
330
183
102
}
330
183
100
AcDbXrecord
280
     1
 70
     1
 90
429727718
  1
778E3A9F-1AF3-452F-85C1-1BC15BD3F630
310
504B03040A0000080000AC70623B3DEE336E79000000790000001B0000006175746F6465736B2D64657369676E2D7061636B6167652E786D6C3C3F786D6C2076657273696F6E3D22312E302220656E636F64696E673D227574662D3822203F3E3C666F726D6174733E3C666F726D61743E687474703A2F2F736368656D612E
310
6175746F6465736B2E636F6D2F64657369676E2D7061636B6167652F323030393C2F666F726D61743E3C2F666F726D6174733E504B0304140006080800AC70623BD486FD9CA0000000F4000000130000005B436F6E74656E745F54797065735D2E786D6C7D8EC10E82300C865F65E91D8A1E8C310C0EEA1BF002731658846E
310
D98AC1B77784ABF1D8FE5FBFBF75BBCE937A534CCEB38643598122B6FEE978D0B0485F9C41B54DDD7D022595594E1A469170414C76A4D9A4D207E29CF43ECE46F218070CC6BECC4078ACAA135ACF422C856C0E68EA1BF5669944DDD7BCDE7B1F8E415D77AECB980613C2E4AC91FC167A2B244592486606FC29C8FD7F045B9A
310
EF7053A7E60B504B0304140006080800AC70623BFD5588D4EC0000007C01000008000000636F72652E786D6C8D90416EC3201045AF82665B6103891DC7C24471939CA01740405C94182C03558F5F9C3852BBEB6A467FFE9B197D7EF81EEFE8CBCCC17AD7012D0820E394D7D60D1DA478C50DA083E0B3F7F1970D9093A3E960
310
9141F061F6695A25E55D342E66D5796D56518660222075CF4D07417D9A511632C5EC08B76292EA260753D05797E194AC46CF2356E77DF66ACD0C62C768BD63971E5727D2E06DDF9C71BF7B3FE10BABF79BFA488FE4DCF07281058F767CDD57B391D168108C903DA61413F641B72DA95A56BD91A62584978BFD0F9426FD4F28
310
5917376C7DF7890510343FF218085E2E59E4F2082AD72537F103504B0304140006080800AC70623B55019EA25F0000007C00000007000000636E782E786D6C4DCB3B0E80201045D1AD90E915ED2CF8AC45050C11660C8261F98AB1B07AC9C97D42D718D865D3E909258CFD00CCE24AC6E326A164D74DC0B4128928FF326038
310
472BA13128B1252AC747C6BAB984FC68F0B87FE8960A5C09FE86CFB69FBA01504B0304140006080800AC70623BB5D38BAD72010000D40300000C0000006662782F636F72652E786D6CC553DB8E823014FC95A6AF1B68C11B9A52A3AB7EC1FE4085CA36424B4A4BFCFC3D5C8CEBC635EED3F200CDCC393D3353CAD697AA44AD
310
B48D323AC5514831923A33B9D2458ABD3B0509466BCEAC31EE5B19465A5432C51D8C392BACF1F50865463BA91DA0DAE4720445D348875156C222C54DF6292B110AEFA0A23987B5C8CEA2906114020D759C35CE8200340CE9DE989F8E1746069C33EF553EB22A8769EAA4A4C57C1147F3457CD806B31D4D82E936D907DBC5FB
310
2E38C4F3E564BE8936749F30D23573E65475559759299CCC318F295D065114D0F8239AAEE86C15CFDE68B2A29491AEFCAEC9D7F98B4D5E69378947B9435B837904427AE2875B88C8A146B4A0877046BA10E1D3277C1F340402213B712CAF3ECE00B53273C64E81C98DBF51AD28BD84A934A4FD837E5F303274C2D47E7370FD
310
7046FCF28CE73BC2510B5D8009E16079F4AED3C9060D6368B5B441EB2E481B5B89F2351B4F1CFE89BA897F282933A5B1FFA5888C0744C6DF8374F7917F01504B0304140006080800AC70623B09885E1C7E0000009D0000000B0000006662782F636E782E786D6C4DCCDF0A83201C86E15B91DFB9CBA6FD11D41063F711CB42
310
663A9C8E5DFE6A74B0A30F1E3E5E317C368FDE36BD5C0C12EA0B0164C33DCE2EAC124A5E700F685022C598FF6E80C2B459090783126B8AE579D26C97A9F8BCAB77E17122E586D5843498B3EE8699D114F39E5E713D76EDA84DCBB569A052A2FA95F63DC2EA0B504B0304140006080800AC70623B961D28872A010000120200
310
00310000006662782F33394334313030352D393437462D344341332D393833322D3144373644414336394143352F636F72652E786D6C8D515B6EC32010BC8AC557AA0A1BFC4A1C61A2C8514FD00B10435294182C1E558EDFA576A4F62F3F80666766875D76784CF7EC5B39AFADE911CD09CA9419ADD4E6DAA3182E7887B203
310
67CEDAF08786322326D5A30423CEAECEC67985466B8232015063A55A41E1BD0A281BEFF0E8911FBFD42472110330FC2D9FC578135795D31CCAC0E3CC070701B2A5493A11AFBAA1A68434B8ABB71FB81E8E15EE765589E969DB9E8E43DB1D8786158B90B318B55CE55A421C7DD1CABD6A92C49C053D3DE38F4E89A024E22521
310
1DA61493F293D67BD2ECCBE69DECF684B022D1FF89E22C5F14456D4255AE711799479CB2622970266D3CDF9F61D463B62E64A9DFC6ABF10D7192C35CCA0A040B11BE0F8E6DBD3AFA601D8C77733B0397C290926D5B7356A40DC1F5BB3EB8D336F90F504B0304140006080800AC70623B503B51794E01000033030000300000
310
006662782F33394334313030352D393437462D344341332D393833322D3144373644414336394143352F636E782E786D6CD593C16EC32010447F0571AD6CE3D489D20813A9877E410FBD62D82434182CC055F3F75D1292E692438FBD206B7698593D61BEFD1E2DF982108D773D6D6B460938E5B571FB9ECE6957AD29D90A1E
310
BC4F77364A9C1CA1A759A682EF839FA72269D8C9D92654AD71C72206887E0E0A22CAF926B15E498B01E0AA19451807D01A34B919F16B070157417138917400F2F6FA41FCF0092A45DEE414C19BDC21783E4BD39D891265658C3D8DEA00A3ACE59CBC8678ACB54CB26EEB6BD7839D7E9348BE70AD9C8321B9BCA7F9A4A26C54
310
2347DEE050F09802D22BA6749A800A394DD62899107273365E3C82CFC6A55557BC06C10774B7ABE7AEC3B0F34CF06446280E154026D0542C187BA9DAB6628BF7B6DBB0E566B17C62EB0D63BCC976C107EF6DB9843110FC449477095CA2A2E54D1E3FC2577C449B80AC7D38FD01240228AD173AB78CFFCCA739BF6FC415F02F
310
103F504B0304140006080800AC70623B2EA4D28F640500003C100000340000006662782F33394334313030352D393437462D344341332D393833322D3144373644414336394143352F6F626A656374732E786D6CAD575D739B3814FD2B0CFB6C30B1D3263B844E6CC71D4F376DA79E76F621331E01326103122389C4E9AFDF
310
231018B09D7A3FFC609090EEE7B94757FE875D9E59CF54C894B31BDB73C6B64559C4E394253776A9B6A32BDBFA10F88273D559665B8CE4F4C6D6D376E027829785998AE99694991ACC2E677F5A32A28CDA569411296F6C193DD29C38A4543CA6F2C98989224EB2DD399E532FEC8B4D04291E07420B222853B014F30C52ACDA
310
28AF3F1CDB6EE0BBFA7BE0EB7FB36A727A955BF9D3D79F32A9088B0E940DC44CBCE9E2EEE2F27A74399D4E46D37717DE68B69C2D46DEFBC978FE6E3EBFBEBDBB8662A90424194B04DDDAC147C446A491EFD69F5A8B8DE1C74C8A386334AAFC878795CD46624C0BCA62E431A512DA3A5E8FFB434FC7A6F379A2C7466577FA3C
310
AFBA3B3A821ADB9B67D7521EFE0517E439A810926A54D5F1318ED6F81BEFA316729E996FA9B472A2A84849666569288878B5032CD54B02BF2746A35368846B0FECC0DBCBEBDA8AD2F835768F59B92DB34C43D30E2A646F807FAA646559FA938AE3DA60137255A64C5D1987D46B41EDE0DA77ABC9C0D78FC985F95807D2DA66
310
2441CAE166FD75E0E85CD7DE6A61079F96E16EADEBF1B8F242F0820AA5E1036835896B9E3A4A46AD7756E6F40638D38BF93E28DF10F9CF28DFBD29C89B4877D3DDD468518230B9E522476E9C71F5B3C6CDCBA87D3B7C019F0D561FAE6967FED562DF6D8DED13C6A9FC015C3A3557FF3D7FFD987591DA495FE03FA3C0B89898
310
50AE2392817AEE53868468505A19C714B87C1BEEEC6005A604B36317C9823620072FBEFB8CEFF8AF6583AD2AF59D274342077C7B06F323965559C0B6136039E0C94AB171EE54CC2FFF979AB95DAC3FAD4BB12511BD37C4B2A0DB94A50A67E71EBC5D837A89E879F4445F5FB888E1E86112D6DD24E4469544B475CC75E093E6
310
B0D083BDE69E8208FB12AE39CFFF8586FB544634CB08A3BC6CB4B4C790C66A4B32A64F4015D6019D5C0C502CE873AA3B89DE8A9E5938EB2391163A64EDA1D7F2B473C297EFABCF00A51DCC5EFF20AF5DC20CF7741FF18C8B4DF8BAA999D006F8B0A78FEE1F7D789B88BA5A0A105F61B9A11C13E24D9C6EB7A504EF1E89E28F
310
D5BC9BA996480E5F9A026A34D63539053BA3F68830F06D74A2211004073B679B14C738CAF2A8F2AEEEA10259C93D213F2CF36243725E32754E98C68D3F8DF5ADF06E17235F888A1EED605D3D473350764CE31309D547D0119F7AE979FFFEEA6E727BBD1C79B74BB4529717CBD1D5E5DC1B79B3B977395B4C96EF2638E6FA15
310
D09C50DD1A44347122FAA5484D98BFAFF6656B07F74449F7635D506E523FBFAF1CB4C5BE8B3D0078BB71951719CD295344C3F75EBF64DF08BA8A9E8C7A7E9593849E21E5CBC7F5C006CC9CB1EFAB2E35FA32D86B66E7BA168E0A518F651E329266838DC671A7608971BB0965FBAC19BD19EA918927FA50C9B33406E1C45642
310
794E1568E70CB6173995404CB72B8FCDEDE18CDDCF753FA84898D1C6924782963893403548A78C547FDEFA0D2D9CEEA26E6C1C76CE13FE4C21DA16527D6383DF541A51E984381E75E353090704D085B52408D0139664E8ACEB4DEDB8DDA56303FAC10968F4B74BCEE9968C5F3DE2CD4951E0D4EED16A659B5110FD23C71B73
310
2CA2F01A96AAF5653FD13A53A909C03570A77DA0857832AA77A8AFB7DDF29C6A4D2F2267DD93DE04412D75A48848AA7B810EBA31E976F1D5452B60ADBE58455626C8E5F992468202CCA52E70A008A830320BA200D5F9EF0F5F05C75D34B7962920F030E779CE9919DC9ABBACB57EC4CD347E002D507DFD901763CF7BA8BA7E
310
7311D984445287C4F209134DC1690F065803200F8E53733D73750E06CB570BCB1C185308AD407BD094D6D7700BC5A36F8EBA54BA6459BCD9F8BBD552A040A0650FFE06504B0304140006080000AC70623B000000000000000000000000350000006662782F33394334313030352D393437462D344341332D393833322D3144
310
373644414336394143352F76657274696365732E62696E504B0304140006080800AC70623BF270F1330600000004000000360000006662782F33394334313030352D393437462D344341332D393833322D3144373644414336394143352F747269616E676C65732E62696E636660600000504B0304140006080000AC70623B
310
000000000000000000000000370000006662782F33394334313030352D393437462D344341332D393833322D3144373644414336394143352F617474726962757465732E62696E504B0304140006080800AC70623B08DA0BD19000000041010000360000006662782F33394334313030352D393437462D344341332D393833
310
322D3144373644414336394143352F6469726563746F72792E786D6C858F410AC3201045AF22B36F53E9A60B35CBEEBAE80D244E44489C6234F4F835464A48035D0DF398FF9F8AF63D0E6CC63039F212F8F9020C7D47C6792B21C5FE7403D62A1188E2E60C98D7234A5830286103A55745067B9D86B8A3CF9C7F90C11DE607
310
FB144396D7B6A82D282E9A152AD114D5EF2CB866EEE831B8EEA07A7BB5A8D7D61A2BAAEB7FD5F70921FF497D00504B0304140006080800AC70623B95BFD5E5FE000000A00100003B0000006662782F33394334313030352D393437462D344341332D393833322D3144373644414336394143352F7265736F75726365732F63
310
6F72652E786D6C8D50596E833010BD0A9ADFCA603B1B41C611699213F40296992456828DBC543D7E4DA052FBD79F99D15B344F4F1CBE8667F1893E18675B60258502AD76BDB1B71652BC921A8A8314DEB9F84B06855503B630C120C5CDBB342E907636A28D19B5AEC70554216084423FF3D142D0771C54A952CC8AF02847A5
310
1FEA86252B339D755284E87380627E324D901E834B5E6310D5CC4A9192E9178DE9F34F7335E841EE38DBEEF8A5239B13ADC9FA589FC971F77E2217BEDDAFB61DEBE8B916D56496229AE127A3F6A822F62039A57BC218A1FC83AD1BBA69F8E68DD60DA5A29AE47F4C69ECFF694AC6C6155FE2CEB60092E5202F428A6AEA2BAF
310
5799794FDDCA6F504B010214000A0000080000AC70623B3DEE336E79000000790000001B00000000000000000000000000000000006175746F6465736B2D64657369676E2D7061636B6167652E786D6C504B01021400140006080800AC70623BD486FD9CA0000000F40000001300000000000000000000000000B20000005B
310
436F6E74656E745F54797065735D2E786D6C504B01021400140006080800AC70623BFD5588D4EC0000007C010000080000000000000000000000000083010000636F72652E786D6C504B01021400140006080800AC70623B55019EA25F0000007C000000070000000000000000000000000095020000636E782E786D6C504B
310
01021400140006080800AC70623BB5D38BAD72010000D40300000C00000000000000000000000000190300006662782F636F72652E786D6C504B01021400140006080800AC70623B09885E1C7E0000009D0000000B00000000000000000000000000B50400006662782F636E782E786D6C504B01021400140006080800AC70
310
623B961D28872A0100001202000031000000000000000000000000005C0500006662782F33394334313030352D393437462D344341332D393833322D3144373644414336394143352F636F72652E786D6C504B01021400140006080800AC70623B503B51794E010000330300003000000000000000000000000000D5060000
310
6662782F33394334313030352D393437462D344341332D393833322D3144373644414336394143352F636E782E786D6C504B01021400140006080800AC70623B2EA4D28F640500003C1000003400000000000000000000000000710800006662782F33394334313030352D393437462D344341332D393833322D3144373644
310
414336394143352F6F626A656374732E786D6C504B01021400140006080000AC70623B0000000000000000000000003500000000000000000000000000270E00006662782F33394334313030352D393437462D344341332D393833322D3144373644414336394143352F76657274696365732E62696E504B01021400140006
310
080800AC70623BF270F133060000000400000036000000000000000000000000007A0E00006662782F33394334313030352D393437462D344341332D393833322D3144373644414336394143352F747269616E676C65732E62696E504B01021400140006080000AC70623B0000000000000000000000003700000000000000
310
000000000000D40E00006662782F33394334313030352D393437462D344341332D393833322D3144373644414336394143352F617474726962757465732E62696E504B01021400140006080800AC70623B08DA0BD190000000410100003600000000000000000000000000290F00006662782F33394334313030352D393437
310
462D344341332D393833322D3144373644414336394143352F6469726563746F72792E786D6C504B01021400140006080800AC70623B95BFD5E5FE000000A00100003B000000000000000000000000000D1000006662782F33394334313030352D393437462D344341332D393833322D3144373644414336394143352F7265
310
736F75726365732F636F72652E786D6C504B0506000000000E000E0080040000641100000000
  0
XRECORD
  5
10D
102
{ACAD_REACTORS
330
10B
102
}
330
10B
100
AcDbXrecord
280
     1
270
     1
271
     1
  0
XRECORD
  5
10C
102
{ACAD_REACTORS
330
10B
102
}
330
10B
100
AcDbXrecord
280
     1
270
     1
271
     1
  0
XRECORD
  5
187
102
{ACAD_REACTORS
330
10B
102
}
330
10B
100
AcDbXrecord
280
     1
 70
     0
 90
1778669749
  1
7E355024-1ABF-47F9-966E-F2159FBE82AB
310
504B03040A0000080000AC70623B3DEE336E79000000790000001B0000006175746F6465736B2D64657369676E2D7061636B6167652E786D6C3C3F786D6C2076657273696F6E3D22312E302220656E636F64696E673D227574662D3822203F3E3C666F726D6174733E3C666F726D61743E687474703A2F2F736368656D612E
310
6175746F6465736B2E636F6D2F64657369676E2D7061636B6167652F323030393C2F666F726D61743E3C2F666F726D6174733E504B0304140006080800AC70623BD486FD9CA0000000F4000000130000005B436F6E74656E745F54797065735D2E786D6C7D8EC10E82300C865F65E91D8A1E8C310C0EEA1BF002731658846E
310
D98AC1B77784ABF1D8FE5FBFBF75BBCE937A534CCEB38643598122B6FEE978D0B0485F9C41B54DDD7D022595594E1A469170414C76A4D9A4D207E29CF43ECE46F218070CC6BECC4078ACAA135ACF422C856C0E68EA1BF5669944DDD7BCDE7B1F8E415D77AECB980613C2E4AC91FC167A2B244592486606FC29C8FD7F045B9A
310
EF7053A7E60B504B0304140006080800AC70623BDCE527C8EB0000007C01000008000000636F72652E786D6C8D90416EC3201045AF82665B6103B15DC7C24471249FA01740405C94182C03558F5F9C3852BBEB6A467FFE9B197D7EFA9EEFE8CBACC17AD7032D0820E394D7D64D3DA478C52DA093E0ABF7F1970D9093B3E961
310
9341F069F569D925E55D342E66D5796D76518660222075CF4D0F417D9A591632C5EC08B76291EA262753D05797E194AC46CF2356E77DF66ACD0A621C9B73335C463C5E0E1457EC9DE2A1612D3E9233A92BD2D66333F07283058F767EDD57AB91D168108C9023A61413F641AB8ED41DABDF48DB11C2CBCDFE074A8BFE2794AC
310
8B07B6BFFBC402089A1F790C042FB72C72790495EB969BF801504B0304140006080800AC70623B55019EA25F0000007C00000007000000636E782E786D6C4DCB3B0E80201045D1AD90E915ED2CF8AC45050C11660C8261F98AB1B07AC9C97D42D718D865D3E909258CFD00CCE24AC6E326A164D74DC0B4128928FF32603847
310
2BA13128B1252AC747C6BAB984FC68F0B87FE8960A5C09FE86CFB69FBA01504B0304140006080800AC70623BB24894EB71010000D40300000C0000006662782F636F72652E786D6CC5535B6E833010BC8AE5DF0A6C085012194749244ED00B38E05014B091B1518EDFE511A5A9D228FD2A1F60CDEC7A67C6986D2F6D830669
310
FA5AAB0C073EC548AA4297B5AA32ECECC94B31DA7266B4B6DFCA3052A295191E61CC5965B4EB16A8D0CA4A650155BA940B28FA5E5A8C8A061619EE8B4FD90A5F380B15FDD9EF44711695F4031F68A8E3ACB70604A079C8F8C6FC74BC3032E39C3957970B5B9730AD3ED5D2609EE7C92ED91F722F3FAC022F0ADF036F9F84A9
310
B7A63B1A47348DF364CFC8D8CC99ADDBABBAC2486165897948E9DA0B028F861F41B4A1F1268CDF68BAA19491B1FCAEC975E58B4DAE5676152E72E7B61EF300844CC40FB7109145BD18400FE18C8C21C2674AF83E68080442B6E2D85C7D9C011A6461B5898029B5BB5183689C84A9D4A7D3837E5F303277C2D4697370FD7046
310
F8F28CE73BC2510B5581096161797476D4C9660D4B689D34DE602F4869D38AE6351B4F1CFE89BA897F28A9D08D36FFA5882C074496DF838CF7917F01504B0304140006080800AC70623B3A54DFB77D0000009D0000000B0000006662782F636E782E786D6C4DCCD10A83201805E05791FFDEA5EBA76DA046A37C8F581632D3
310
613AF6F8B3D1C52E0E073E0E47B49FD591B7899B0D5E023F3120C63FC264FD2221A7995E81B44AC410D2DF0C881F5723616750628921BF0E9ACC3C66978A3AEB9F07B2A6D77AB87514F95953EC39D20EEF9C6AD60C88BC2EB940A544F57B2ABD1FAB2F504B0304140006080800AC70623B4A17098729010000120200003100
310
00006662782F30364446464539412D343132462D344431342D413442312D4630364534343133343431372F636F72652E786D6C8D515B6EC32010BC0AE22B55850D0E76930813A54A7C825E80DA244589C1E251E5F85D6A476AFFF2018B7667666759B1BF8F37F4AD7D30CEB6981514236D7B37187B69718A67B2C1682F8577
310
2EFE816164D5A85B9CD3588A8B77695A52BDB351DB0859EB06BD2455083A62D4DFE0D1E2D07FE951152A4540846B31A9FEAA2EBA600594012745881E0CA0B949BEB1A4CDB1EB4EDB03E1ACEA083F324E0EFC9D918E3627CED91ACE9B2867A214299961A19B01EC98B3D1FE59914C96229AF161BFF75A453D605951BA258C11
310
5A7D30BEA3F5AEAA5FE96647A92833FC1F294DC393A4646C5C578BDD9916B064A29C0B520C2E7DDE1E66F47D723EA2DC6F1574FF02531594D6AC69443903617C506CF8A218A2F3F0BDABEB2760593DCB365C8A326F08C2EFFA20E66DCA1F504B0304140006080800AC70623B503B51794E0100003303000030000000666278
310
2F30364446464539412D343132462D344431342D413442312D4630364534343133343431372F636E782E786D6CD593C16EC32010447F0571AD6CE3D489D20813A9877E410FBD62D82434182CC055F3F75D1292E692438FBD206B7698593D61BEFD1E2DF982108D773D6D6B460938E5B571FB9ECE6957AD29D90A1EBC4F7736
310
4A9C1CA1A759A682EF839FA72269D8C9D92654AD71C72206887E0E0A22CAF926B15E498B01E0AA19451807D01A34B919F16B070157417138917400F2F6FA41FCF0092A45DEE414C19BDC21783E4BD39D891265658C3D8DEA00A3ACE59CBC8678ACB54CB26EEB6BD7839D7E9348BE70AD9C8321B9BCA7F9A4A26C542347DEE0
310
50F09802D22BA6749A800A394DD62899107273365E3C82CFC6A55557BC06C10774B7ABE7AEC3B0F34CF06446280E154026D0542C187BA9DAB6628BF7B6DBB0E566B17C62EB0D63BCC976C107EF6DB9843110FC449477095CA2A2E54D1E3FC2577C449B80AC7D38FD01240228AD173AB78CFFCCA739BF6FC415F02F103F504B
310
0304140006080800AC70623BD8F6D0D5660500003B100000340000006662782F30364446464539412D343132462D344431342D413442312D4630364534343133343431372F6F626A656374732E786D6CAD575B8F9B3814FE2B887D064292B964C5504D92491555D3568D5AEDC348910187610730B2CD4C667FFD7E06438024
310
6DF6928780CDF1B97EE762EFC33E4B8D57CA45C2F23BD3B547A641F39045491EDF99A5DC59B7A6F1C1F73863B243661A39C9E89DA9B64DDF8B392B0BBD15D11D295339D85DCDFF304448736A1A614A84B83345F84C33629352B2888A173B2292D8F16E6FBB764DD8671B73523C0F981684D35C4253ECE7E062D44AB9FDE5C8
310
747CCF51DF7D4FFD6BAAC9792AA7B2A72F3FC985247978246CC066E24E970FE3AB9975359D4EACE9F5D8B5E6ABF9D2726F26A3C5F56231BB7F9841B0901C9CB4269CEE4CFF237CC393D073EA4FADC65AF1532A852CCF6958D90F0B2B9D35C78816348F10C7840A48EB583DEA2F5DE59BCEE7895A6B91DDEDCBACEA9EE8306A
310
746F9E5D4D59F0274C1097A0820BAA5055FB471B5AE36F74F05AC058AABF25C2C888A43C21A991260127FCDDF441AA487CAFC746A1932B842B0B4CDF3DF0EBEA8AD4F835764F69B92BD35441D3F42B646F817F2A45A559F217E5A7A54127C4AA4C7279AB0D92EF0535FD99E7549BBEA71E93B1FE583BD2D8A52446C86166FD
310
7560E842E5DE7A69FA9F56C17EA3F2F1B4F082B38272A9E0036835816B9ECA4B5AAC7B51E4D40118D3F3F9C129DFE0F9CF48DF832A881B4FF6D3FD544B919CE462C77886D8D8A3EA678C9A17AB7D3B7E413D1B501FD3B43BFF8AD8735A65FB05E35CFC002E159ADBFF1EBFBECFBA48ED84CFF75E91608C4FB42B372149517A
310
1E931C0151A03452862DD4F25DB037FD352A252A3B4E91D46F1D72F4E239AFF88EFF9A37AA5525BEF3CC11D041BDBDA0F2C397555A40B7336039AA9395606DDC399F5FFD2F3973BFDC7CDA947C4742FAA80BCB92EE923C91E89D07F07615EA05A267D10B7D7F633C82A1C741D8748390695102DE563E578E8F9B66A11607C9
310
3D0121CEC54CD53CEF17121E1311D2342539656523A56D430AAB6D91D17302B2B076E8643C4031A7AF899A247A143DB5D0EB439E14CA656DD36BEBB47DC696EFEBCF0025E8531690F440141CAA7DC852C6B7C1FBB62E8426B087237D70FFE8A35B3BD4515C00F80ACA4DC5D11EDE46C96E570A94DD134EFCB15E7403D5D691
310
E397267F1A89754A4E519C917A846BF43632310F7082BECEF26D822E8EAC3C29BC2B7B2840547CCFF00FCAACD8928C95B9BCC44DA3C69E46FB96797788116F4486CFA6BFA99ED61C153BA2D121543D10A80E74C2A65E786E1E265757A3F1D472EFE72B6B7AB39A59B3EBEB076B3576AF66ABF9C3EDF87EDE6A5469E27B4D83
310
EAA620BC8986E8953CD16EFEBE3E64ADE93F12299C8F753E3971FDFCBEB631157B0ECE00DFEDC17556A434A3B9240ABD8FEA25FD463054F478D4FBEB8CC4F4022E5F3E6E063A60E782735F55A6D1B7C159BDBB50B97092897C2EB32027493A38A80DB78B3CD66637AE6C9F75416F966AA5FD893154B03489506F2223A62CA3
310
1255E78262CF332A8098EE501EE9CBC305A75FEB71509220A58D26CF0413712A806AC0AD0C657FDFF80D139C1AA2EE4CF43AFB057F3A114D03A1BE3351DE6412526107E88E6AEEA998030218C2DA1A08A8913C4E3158D787DA757B4AF906E5070D50CB6F492E1996B45DBDBA9B91A240D3EE55D54A372D20FC478637EA1844
310
E23528656BCB61A335A61283CCAA8DD257034C102F5AF41EF9F573B35CBBA2E979E4A26BD24F415073B524E171752D50FA6995EE975F1D4C02C6FA8B51A4658C585ECEC9E214602E558203454085E6591009A82E7E7FFACA19AEA299B14A0081A705CB3296EBC5BDBECA1A9B675C4CA3279405AA6E1F623C72DDA76AE8D7F7
310
906D4004B549245EB0D1249CB260803500F2A89BEA10382A0603F2F5D2D00D630AA615688F66D2FA166E2079D4C551A54AB758163F9DFB9D8A1460E098D8FDBF01504B0304140006080000AC70623B000000000000000000000000350000006662782F30364446464539412D343132462D344431342D413442312D46303645
310
34343133343431372F76657274696365732E62696E504B0304140006080800AC70623BF270F1330600000004000000360000006662782F30364446464539412D343132462D344431342D413442312D4630364534343133343431372F747269616E676C65732E62696E636660600000504B0304140006080000AC70623B0000
310
00000000000000000000370000006662782F30364446464539412D343132462D344431342D413442312D4630364534343133343431372F617474726962757465732E62696E504B0304140006080800AC70623B08DA0BD19000000041010000360000006662782F30364446464539412D343132462D344431342D413442312D
310
4630364534343133343431372F6469726563746F72792E786D6C858F410AC3201045AF22B36F53E9A60B35CBEEBAE80D244E44489C6234F4F835464A48035D0DF398FF9F8AF63D0E6CC63039F212F8F9020C7D47C6792B21C5FE7403D62A1188E2E60C98D7234A5830286103A55745067B9D86B8A3CF9C7F90C11DE607FB14
310
4396D7B6A82D282E9A152AD114D5EF2CB866EEE831B8EEA07A7BB5A8D7D61A2BAAEB7FD5F70921FF497D00504B0304140006080800AC70623BB40F7AF9FE000000A00100003B0000006662782F30364446464539412D343132462D344431342D413442312D4630364534343133343431372F7265736F75726365732F636F72
310
652E786D6C8D504B6E833010BD0A9A6D65B00950828CA3109513F4029699502BC146FE543D7E4D42A576D7CDCCE87D344F8F9FBE967BF689CE6B6B7A6039850C8DB29336730F315C490BD94970676DF82583CCC8057BD860107C7636AE3BA4AC096842428D9D7007A5F7182053F774F4E0D5072E3297312485BFE5AB543739
310
63CEF244279DE03EB814207B3ED9260887DE46A7D0F3E2C90A1EA39E768D9ED24F7DD5E8408C63736E86CB1B192F0746AAF29591A1295B72A4675A57B4ADC766E0C566163CE8E527A37228034E204A4A8F843142CB775675B4EECAFA85B61DA5BCD8E47F4C719DFE698ADA8443B9C77DDA3C0896823C08C18BADAFB41E65A6
310
BD752BBE01504B010214000A0000080000AC70623B3DEE336E79000000790000001B00000000000000000000000000000000006175746F6465736B2D64657369676E2D7061636B6167652E786D6C504B01021400140006080800AC70623BD486FD9CA0000000F40000001300000000000000000000000000B20000005B436F
310
6E74656E745F54797065735D2E786D6C504B01021400140006080800AC70623BDCE527C8EB0000007C010000080000000000000000000000000083010000636F72652E786D6C504B01021400140006080800AC70623B55019EA25F0000007C000000070000000000000000000000000094020000636E782E786D6C504B0102
310
1400140006080800AC70623BB24894EB71010000D40300000C00000000000000000000000000180300006662782F636F72652E786D6C504B01021400140006080800AC70623B3A54DFB77D0000009D0000000B00000000000000000000000000B30400006662782F636E782E786D6C504B01021400140006080800AC70623B
310
4A17098729010000120200003100000000000000000000000000590500006662782F30364446464539412D343132462D344431342D413442312D4630364534343133343431372F636F72652E786D6C504B01021400140006080800AC70623B503B51794E010000330300003000000000000000000000000000D10600006662
310
782F30364446464539412D343132462D344431342D413442312D4630364534343133343431372F636E782E786D6C504B01021400140006080800AC70623BD8F6D0D5660500003B10000034000000000000000000000000006D0800006662782F30364446464539412D343132462D344431342D413442312D46303645343431
310
33343431372F6F626A656374732E786D6C504B01021400140006080000AC70623B0000000000000000000000003500000000000000000000000000250E00006662782F30364446464539412D343132462D344431342D413442312D4630364534343133343431372F76657274696365732E62696E504B010214001400060808
310
00AC70623BF270F13306000000040000003600000000000000000000000000780E00006662782F30364446464539412D343132462D344431342D413442312D4630364534343133343431372F747269616E676C65732E62696E504B01021400140006080000AC70623B00000000000000000000000037000000000000000000
310
00000000D20E00006662782F30364446464539412D343132462D344431342D413442312D4630364534343133343431372F617474726962757465732E62696E504B01021400140006080800AC70623B08DA0BD190000000410100003600000000000000000000000000270F00006662782F30364446464539412D343132462D
310
344431342D413442312D4630364534343133343431372F6469726563746F72792E786D6C504B01021400140006080800AC70623BB40F7AF9FE000000A00100003B000000000000000000000000000B1000006662782F30364446464539412D343132462D344431342D413442312D4630364534343133343431372F7265736F
310
75726365732F636F72652E786D6C504B0506000000000E000E0080040000621100000000
  0
XRECORD
  5
10E
102
{ACAD_REACTORS
330
10B
102
}
330
10B
100
AcDbXrecord
280
     1
270
     1
271
     1
  0
XRECORD
  5
10F
102
{ACAD_REACTORS
330
10B
102
}
330
10B
100
AcDbXrecord
280
     1
270
     1
271
     1
  0
XRECORD
  5
383
102
{ACAD_REACTORS
330
382
102
}
330
382
100
AcDbXrecord
280
     1
102
DISPLAYNAME
  1
Imperial24
102
FLAGS
 90
        0
  0
CELLSTYLEMAP
  5
378
102
{ACAD_REACTORS
330
FF
102
}
330
FF
100
AcDbCellStyleMap
 90
        3
300
CELLSTYLE
  1
TABLEFORMAT_BEGIN
 90
        5
170
     1
 91
        0
 92
    32768
 62
   257
 93
        1
300
CONTENTFORMAT
  1
CONTENTFORMAT_BEGIN
 90
        0
 91
        0
 92
      512
 93
        0
300

 40
0.0
140
1.0
 94
        5
 62
     0
340
11
144
0.25
309
CONTENTFORMAT_END
171
     1
301
MARGIN
  1
CELLMARGIN_BEGIN
 40
0.06
 40
0.06
 40
0.06
 40
0.06
 40
0.18
 40
0.18
309
CELLMARGIN_END
 94
        6
 95
        1
302
GRIDFORMAT
  1
GRIDFORMAT_BEGIN
 90
        0
 91
        1
 62
     0
 92
       -2
340
0
 93
        0
 40
0.045
309
GRIDFORMAT_END
 95
        2
302
GRIDFORMAT
  1
GRIDFORMAT_BEGIN
 90
        0
 91
        1
 62
     0
 92
       -2
340
0
 93
        0
 40
0.045
309
GRIDFORMAT_END
 95
        4
302
GRIDFORMAT
  1
GRIDFORMAT_BEGIN
 90
        0
 91
        1
 62
     0
 92
       -2
340
0
 93
        0
 40
0.045
309
GRIDFORMAT_END
 95
        8
302
GRIDFORMAT
  1
GRIDFORMAT_BEGIN
 90
        0
 91
        1
 62
     0
 92
       -2
340
0
 93
        0
 40
0.045
309
GRIDFORMAT_END
 95
       16
302
GRIDFORMAT
  1
GRIDFORMAT_BEGIN
 90
        0
 91
        1
 62
     0
 92
       -2
340
0
 93
        0
 40
0.045
309
GRIDFORMAT_END
 95
       32
302
GRIDFORMAT
  1
GRIDFORMAT_BEGIN
 90
        0
 91
        1
 62
     0
 92
       -2
340
0
 93
        0
 40
0.045
309
GRIDFORMAT_END
309
TABLEFORMAT_END
  1
CELLSTYLE_BEGIN
 90
        1
 91
        1
300
_TITLE
309
CELLSTYLE_END
300
CELLSTYLE
  1
TABLEFORMAT_BEGIN
 90
        5
170
     1
 91
        0
 92
        0
 62
   257
 93
        1
300
CONTENTFORMAT
  1
CONTENTFORMAT_BEGIN
 90
        0
 91
        0
 92
      512
 93
        0
300

 40
0.0
140
1.0
 94
        5
 62
     0
340
11
144
0.18
309
CONTENTFORMAT_END
171
     1
301
MARGIN
  1
CELLMARGIN_BEGIN
 40
0.06
 40
0.06
 40
0.06
 40
0.06
 40
0.18
 40
0.18
309
CELLMARGIN_END
 94
        6
 95
        1
302
GRIDFORMAT
  1
GRIDFORMAT_BEGIN
 90
        0
 91
        1
 62
     0
 92
       -2
340
0
 93
        0
 40
0.045
309
GRIDFORMAT_END
 95
        2
302
GRIDFORMAT
  1
GRIDFORMAT_BEGIN
 90
        0
 91
        1
 62
     0
 92
       -2
340
0
 93
        0
 40
0.045
309
GRIDFORMAT_END
 95
        4
302
GRIDFORMAT
  1
GRIDFORMAT_BEGIN
 90
        0
 91
        1
 62
     0
 92
       -2
340
0
 93
        0
 40
0.045
309
GRIDFORMAT_END
 95
        8
302
GRIDFORMAT
  1
GRIDFORMAT_BEGIN
 90
        0
 91
        1
 62
     0
 92
       -2
340
0
 93
        0
 40
0.045
309
GRIDFORMAT_END
 95
       16
302
GRIDFORMAT
  1
GRIDFORMAT_BEGIN
 90
        0
 91
        1
 62
     0
 92
       -2
340
0
 93
        0
 40
0.045
309
GRIDFORMAT_END
 95
       32
302
GRIDFORMAT
  1
GRIDFORMAT_BEGIN
 90
        0
 91
        1
 62
     0
 92
       -2
340
0
 93
        0
 40
0.045
309
GRIDFORMAT_END
309
TABLEFORMAT_END
  1
CELLSTYLE_BEGIN
 90
        2
 91
        1
300
_HEADER
309
CELLSTYLE_END
300
CELLSTYLE
  1
TABLEFORMAT_BEGIN
 90
        5
170
     1
 91
        0
 92
        0
 62
   257
 93
        1
300
CONTENTFORMAT
  1
CONTENTFORMAT_BEGIN
 90
        0
 91
        0
 92
      512
 93
        0
300

 40
0.0
140
1.0
 94
        2
 62
     0
340
11
144
0.18
309
CONTENTFORMAT_END
171
     1
301
MARGIN
  1
CELLMARGIN_BEGIN
 40
0.06
 40
0.06
 40
0.06
 40
0.06
 40
0.18
 40
0.18
309
CELLMARGIN_END
 94
        6
 95
        1
302
GRIDFORMAT
  1
GRIDFORMAT_BEGIN
 90
        0
 91
        1
 62
     0
 92
       -2
340
0
 93
        0
 40
0.045
309
GRIDFORMAT_END
 95
        2
302
GRIDFORMAT
  1
GRIDFORMAT_BEGIN
 90
        0
 91
        1
 62
     0
 92
       -2
340
0
 93
        0
 40
0.045
309
GRIDFORMAT_END
 95
        4
302
GRIDFORMAT
  1
GRIDFORMAT_BEGIN
 90
        0
 91
        1
 62
     0
 92
       -2
340
0
 93
        0
 40
0.045
309
GRIDFORMAT_END
 95
        8
302
GRIDFORMAT
  1
GRIDFORMAT_BEGIN
 90
        0
 91
        1
 62
     0
 92
       -2
340
0
 93
        0
 40
0.045
309
GRIDFORMAT_END
 95
       16
302
GRIDFORMAT
  1
GRIDFORMAT_BEGIN
 90
        0
 91
        1
 62
     0
 92
       -2
340
0
 93
        0
 40
0.045
309
GRIDFORMAT_END
 95
       32
302
GRIDFORMAT
  1
GRIDFORMAT_BEGIN
 90
        0
 91
        1
 62
     0
 92
       -2
340
0
 93
        0
 40
0.045
309
GRIDFORMAT_END
309
TABLEFORMAT_END
  1
CELLSTYLE_BEGIN
 90
        3
 91
        2
300
_DATA
309
CELLSTYLE_END
  0
ENDSEC
  0
SECTION
  2
ACDSDATA
 70
     2
 71
     8
  0
ACDSSCHEMA
 90
        0
  1
AcDb_Thumbnail_Schema
  2
AcDbDs::ID
280
    10
 91
        8
  2
Thumbnail_Data
280
    15
 91
        0
101
ACDSRECORD
 95
        0
 90
        1
  2
AcDbDs::TreatedAsObjectData
280
     1
291
     1
101
ACDSRECORD
 95
        0
 90
        2
  2
AcDbDs::Legacy
280
     1
291
     1
101
ACDSRECORD
  1
AcDbDs::ID
 90
        3
  2
AcDs:Indexable
280
     1
291
     1
101
ACDSRECORD
  1
AcDbDs::ID
 90
        4
  2
AcDbDs::HandleAttribute
280
     7
282
     1
  0
ACDSSCHEMA
 90
        1
  1
AcDbDs::TreatedAsObjectDataSchema
  2
AcDbDs::TreatedAsObjectData
280
     1
 91
        0
  0
ACDSSCHEMA
 90
        2
  1
AcDbDs::LegacySchema
  2
AcDbDs::Legacy
280
     1
 91
        0
  0
ACDSSCHEMA
 90
        3
  1
AcDbDs::IndexedPropertySchema
  2
AcDs:Indexable
280
     1
 91
        0
  0
ACDSSCHEMA
 90
        4
  1
AcDbDs::HandleAttributeSchema
  2
AcDbDs::HandleAttribute
280
     7
 91
        1
284
     1
  0
ACDSRECORD
 90
        0
  2
AcDbDs::ID
280
    10
320
22
  2
Thumbnail_Data
280
    15
 94
      896
310
89504E470D0A1A0A0000000D49484452000001000000009108030000001BE1960600000300504C5445212830FFFFFF2128300000000000000000000000000000000000000000000000000000330000660000990000CC0000FF0033000033330033660033990033CC0033FF0066000066330066660066990066CC0066FF0099
310
000099330099660099990099CC0099FF00CC0000CC3300CC6600CC9900CCCC00CCFF00FF0000FF3300FF6600FF9900FFCC00FFFF3300003300333300663300993300CC3300FF3333003333333333663333993333CC3333FF3366003366333366663366993366CC3366FF3399003399333399663399993399CC3399FF33CC00
310
33CC3333CC6633CC9933CCCC33CCFF33FF0033FF3333FF6633FF9933FFCC33FFFF6600006600336600666600996600CC6600FF6633006633336633666633996633CC6633FF6666006666336666666666996666CC6666FF6699006699336699666699996699CC6699FF66CC0066CC3366CC6666CC9966CCCC66CCFF66FF0066
310
FF3366FF6666FF9966FFCC66FFFF9900009900339900669900999900CC9900FF9933009933339933669933999933CC9933FF9966009966339966669966999966CC9966FF9999009999339999669999999999CC9999FF99CC0099CC3399CC6699CC9999CCCC99CCFF99FF0099FF3399FF6699FF9999FFCC99FFFFCC0000CC00
310
33CC0066CC0099CC00CCCC00FFCC3300CC3333CC3366CC3399CC33CCCC33FFCC6600CC6633CC6666CC6699CC66CCCC66FFCC9900CC9933CC9966CC9999CC99CCCC99FFCCCC00CCCC33CCCC66CCCC99CCCCCCCCCCFFCCFF00CCFF33CCFF66CCFF99CCFFCCCCFFFFFF0000FF0033FF0066FF0099FF00CCFF00FFFF3300FF3333
310
FF3366FF3399FF33CCFF33FFFF6600FF6633FF6666FF6699FF66CCFF66FFFF9900FF9933FF9966FF9999FF99CCFF99FFFFCC00FFCC33FFCC66FFCC99FFCCCCFFCCFFFFFF00FFFF33FFFF66FFFF99FFFFCCFFFFFF0000000D0D0D1A1A1A2828283535354343435050505D5D5D6B6B6B787878868686939393A1A1A1AEAEAEBB
310
BBBBC9C9C9D6D6D6E4E4E4F1F1F1FFFFFF0000000000000000000000000000000000000000000000000000000000002E4550F10000003B4944415478DAEDC13101000000C2A0F54F6D0B2FA0000000000000000000000000000000000000000000000000000000000000000000000000CE06919100016C9A5B1B0000000049
310
454E44AE426082
  0
ENDSEC
  0
EOF
