  0
SECTION
  2
HEADER
  9
$ACADVER
  1
AC1027
  9
$ACADMAINTVER
 70
   125
  9
$DWGCODEPAGE
  3
ANSI_1252
  9
$LASTSAVEDBY
  1
ufficio.tecnico
  9
$REQUIREDVERSIONS
160
                 0
  9
$INSBASE
 10
0.0
 20
0.0
 30
0.0
  9
$EXTMIN
 10
62.20756362932513
 20
31.05716557613896
 30
0.0
  9
$EXTMAX
 10
110.1489956377392
 20
77.02076826647098
 30
0.0
  9
$LIMMIN
 10
0.0
 20
0.0
  9
$LIMMAX
 10
12.0
 20
9.0
  9
$ORTHOMODE
 70
     0
  9
$REGENMODE
 70
     1
  9
$FILLMODE
 70
     1
  9
$QTEXTMODE
 70
     0
  9
$MIRRTEXT
 70
     0
  9
$LTSCALE
 40
1.0
  9
$ATTMODE
 70
     1
  9
$TEXTSIZE
 40
0.2
  9
$TRACEWID
 40
0.05
  9
$TEXTSTYLE
  7
Standard
  9
$CLAYER
  8
0
  9
$CELTYPE
  6
ByLayer
  9
$CECOLOR
 62
   256
  9
$CELTSCALE
 40
1.0
  9
$DISPSILH
 70
     0
  9
$DIMSCALE
 40
1.0
  9
$DIMASZ
 40
0.18
  9
$DIMEXO
 40
0.0625
  9
$DIMDLI
 40
0.38
  9
$DIMRND
 40
0.0
  9
$DIMDLE
 40
0.0
  9
$DIMEXE
 40
0.18
  9
$DIMTP
 40
0.0
  9
$DIMTM
 40
0.0
  9
$DIMTXT
 40
0.18
  9
$DIMCEN
 40
0.09
  9
$DIMTSZ
 40
0.0
  9
$DIMTOL
 70
     0
  9
$DIMLIM
 70
     0
  9
$DIMTIH
 70
     1
  9
$DIMTOH
 70
     1
  9
$DIMSE1
 70
     0
  9
$DIMSE2
 70
     0
  9
$DIMTAD
 70
     0
  9
$DIMZIN
 70
     0
  9
$DIMBLK
  1

  9
$DIMASO
 70
     1
  9
$DIMSHO
 70
     1
  9
$DIMPOST
  1

  9
$DIMAPOST
  1

  9
$DIMALT
 70
     0
  9
$DIMALTD
 70
     2
  9
$DIMALTF
 40
25.4
  9
$DIMLFAC
 40
1.0
  9
$DIMTOFL
 70
     0
  9
$DIMTVP
 40
0.0
  9
$DIMTIX
 70
     0
  9
$DIMSOXD
 70
     0
  9
$DIMSAH
 70
     0
  9
$DIMBLK1
  1

  9
$DIMBLK2
  1

  9
$DIMSTYLE
  2
Standard
  9
$DIMCLRD
 70
     0
  9
$DIMCLRE
 70
     0
  9
$DIMCLRT
 70
     0
  9
$DIMTFAC
 40
1.0
  9
$DIMGAP
 40
0.09
  9
$DIMJUST
 70
     0
  9
$DIMSD1
 70
     0
  9
$DIMSD2
 70
     0
  9
$DIMTOLJ
 70
     1
  9
$DIMTZIN
 70
     0
  9
$DIMALTZ
 70
     0
  9
$DIMALTTZ
 70
     0
  9
$DIMUPT
 70
     0
  9
$DIMDEC
 70
     4
  9
$DIMTDEC
 70
     4
  9
$DIMALTU
 70
     2
  9
$DIMALTTD
 70
     2
  9
$DIMTXSTY
  7
Standard
  9
$DIMAUNIT
 70
     0
  9
$DIMADEC
 70
     0
  9
$DIMALTRND
 40
0.0
  9
$DIMAZIN
 70
     0
  9
$DIMDSEP
 70
    46
  9
$DIMATFIT
 70
     3
  9
$DIMFRAC
 70
     0
  9
$DIMLDRBLK
  1

  9
$DIMLUNIT
 70
     2
  9
$DIMLWD
 70
    -2
  9
$DIMLWE
 70
    -2
  9
$DIMTMOVE
 70
     0
  9
$DIMFXL
 40
1.0
  9
$DIMFXLON
 70
     0
  9
$DIMJOGANG
 40
0.7853981633974483
  9
$DIMTFILL
 70
     0
  9
$DIMTFILLCLR
 70
     0
  9
$DIMARCSYM
 70
     0
  9
$DIMLTYPE
  6

  9
$DIMLTEX1
  6

  9
$DIMLTEX2
  6

  9
$DIMTXTDIRECTION
 70
     0
  9
$LUNITS
 70
     2
  9
$LUPREC
 70
     4
  9
$SKETCHINC
 40
0.1
  9
$FILLETRAD
 40
0.0
  9
$AUNITS
 70
     0
  9
$AUPREC
 70
     0
  9
$MENU
  1
.
  9
$ELEVATION
 40
0.0
  9
$PELEVATION
 40
0.0
  9
$THICKNESS
 40
0.0
  9
$LIMCHECK
 70
     0
  9
$CHAMFERA
 40
0.0
  9
$CHAMFERB
 40
0.0
  9
$CHAMFERC
 40
0.0
  9
$CHAMFERD
 40
0.0
  9
$SKPOLY
 70
     0
  9
$TDCREATE
 40
2459319.706284722
  9
$TDUCREATE
 40
2459319.622951389
  9
$TDUPDATE
 40
2459319.712118056
  9
$TDUUPDATE
 40
2459319.628784722
  9
$TDINDWG
 40
0.0058333333
  9
$TDUSRTIMER
 40
0.0058333333
  9
$USRTIMER
 70
     1
  9
$ANGBASE
 50
0.0
  9
$ANGDIR
 70
     0
  9
$PDMODE
 70
     0
  9
$PDSIZE
 40
0.0
  9
$PLINEWID
 40
0.0
  9
$SPLFRAME
 70
     0
  9
$SPLINETYPE
 70
     6
  9
$SPLINESEGS
 70
     8
  9
$HANDSEED
  5
38E
  9
$SURFTAB1
 70
     6
  9
$SURFTAB2
 70
     6
  9
$SURFTYPE
 70
     6
  9
$SURFU
 70
     6
  9
$SURFV
 70
     6
  9
$UCSBASE
  2

  9
$UCSNAME
  2

  9
$UCSORG
 10
0.0
 20
0.0
 30
0.0
  9
$UCSXDIR
 10
1.0
 20
0.0
 30
0.0
  9
$UCSYDIR
 10
0.0
 20
1.0
 30
0.0
  9
$UCSORTHOREF
  2

  9
$UCSORTHOVIEW
 70
     0
  9
$UCSORGTOP
 10
0.0
 20
0.0
 30
0.0
  9
$UCSORGBOTTOM
 10
0.0
 20
0.0
 30
0.0
  9
$UCSORGLEFT
 10
0.0
 20
0.0
 30
0.0
  9
$UCSORGRIGHT
 10
0.0
 20
0.0
 30
0.0
  9
$UCSORGFRONT
 10
0.0
 20
0.0
 30
0.0
  9
$UCSORGBACK
 10
0.0
 20
0.0
 30
0.0
  9
$PUCSBASE
  2

  9
$PUCSNAME
  2

  9
$PUCSORG
 10
0.0
 20
0.0
 30
0.0
  9
$PUCSXDIR
 10
1.0
 20
0.0
 30
0.0
  9
$PUCSYDIR
 10
0.0
 20
1.0
 30
0.0
  9
$PUCSORTHOREF
  2

  9
$PUCSORTHOVIEW
 70
     0
  9
$PUCSORGTOP
 10
0.0
 20
0.0
 30
0.0
  9
$PUCSORGBOTTOM
 10
0.0
 20
0.0
 30
0.0
  9
$PUCSORGLEFT
 10
0.0
 20
0.0
 30
0.0
  9
$PUCSORGRIGHT
 10
0.0
 20
0.0
 30
0.0
  9
$PUCSORGFRONT
 10
0.0
 20
0.0
 30
0.0
  9
$PUCSORGBACK
 10
0.0
 20
0.0
 30
0.0
  9
$USERI1
 70
     0
  9
$USERI2
 70
     0
  9
$USERI3
 70
     0
  9
$USERI4
 70
     0
  9
$USERI5
 70
     0
  9
$USERR1
 40
0.0
  9
$USERR2
 40
0.0
  9
$USERR3
 40
0.0
  9
$USERR4
 40
0.0
  9
$USERR5
 40
0.0
  9
$WORLDVIEW
 70
     1
  9
$SHADEDGE
 70
     3
  9
$SHADEDIF
 70
    70
  9
$TILEMODE
 70
     1
  9
$MAXACTVP
 70
    64
  9
$PINSBASE
 10
0.0
 20
0.0
 30
0.0
  9
$PLIMCHECK
 70
     0
  9
$PEXTMIN
 10
0.0
 20
0.0
 30
0.0
  9
$PEXTMAX
 10
0.0
 20
0.0
 30
0.0
  9
$PLIMMIN
 10
0.0
 20
0.0
  9
$PLIMMAX
 10
12.0
 20
9.0
  9
$UNITMODE
 70
     0
  9
$VISRETAIN
 70
     1
  9
$PLINEGEN
 70
     0
  9
$PSLTSCALE
 70
     1
  9
$TREEDEPTH
 70
  3020
  9
$CMLSTYLE
  2
Standard
  9
$CMLJUST
 70
     0
  9
$CMLSCALE
 40
1.0
  9
$PROXYGRAPHICS
 70
     1
  9
$MEASUREMENT
 70
     0
  9
$CELWEIGHT
370
    -1
  9
$ENDCAPS
280
     0
  9
$JOINSTYLE
280
     0
  9
$LWDISPLAY
290
     0
  9
$INSUNITS
 70
     1
  9
$HYPERLINKBASE
  1

  9
$STYLESHEET
  1

  9
$XEDIT
290
     1
  9
$CEPSNTYPE
380
     0
  9
$PSTYLEMODE
290
     0
  9
$FINGERPRINTGUID
  2
{2D1BAD95-A94C-8C41-8AD8-2FDF18F4F588}
  9
$VERSIONGUID
  2
{26D7A9FE-1919-7E4B-A793-BE19FE9CEA2A}
  9
$EXTNAMES
290
     1
  9
$PSVPSCALE
 40
0.0
  9
$OLESTARTUP
290
     0
  9
$SORTENTS
280
   127
  9
$INDEXCTL
280
     0
  9
$HIDETEXT
280
     1
  9
$XCLIPFRAME
280
     2
  9
$HALOGAP
280
     0
  9
$OBSCOLOR
 70
   257
  9
$OBSLTYPE
280
     0
  9
$INTERSECTIONDISPLAY
280
     0
  9
$INTERSECTIONCOLOR
 70
   257
  9
$DIMASSOC
280
     2
  9
$PROJECTNAME
  1

  9
$CAMERADISPLAY
290
     0
  9
$LENSLENGTH
 40
50.0
  9
$CAMERAHEIGHT
 40
60.0
  9
$STEPSPERSEC
 40
2.0
  9
$STEPSIZE
 40
6.0
  9
$3DDWFPREC
 40
2.0
  9
$PSOLWIDTH
 40
0.25
  9
$PSOLHEIGHT
 40
4.0
  9
$LOFTANG1
 40
1.570796326794896
  9
$LOFTANG2
 40
1.570796326794896
  9
$LOFTMAG1
 40
0.0
  9
$LOFTMAG2
 40
0.0
  9
$LOFTPARAM
 70
     7
  9
$LOFTNORMALS
280
     1
  9
$LATITUDE
 40
37.795
  9
$LONGITUDE
 40
-122.394
  9
$NORTHDIRECTION
 40
0.0
  9
$TIMEZONE
 70
 -8000
  9
$LIGHTGLYPHDISPLAY
280
     1
  9
$TILEMODELIGHTSYNCH
280
     1
  9
$CMATERIAL
347
92
  9
$SOLIDHIST
280
     0
  9
$SHOWHIST
280
     1
  9
$DWFFRAME
280
     2
  9
$DGNFRAME
280
     0
  9
$REALWORLDSCALE
290
     1
  9
$INTERFERECOLOR
 62
     1
  9
$INTERFEREOBJVS
345
9F
  9
$INTERFEREVPVS
346
9C
  9
$CSHADOW
280
     0
  9
$SHADOWPLANELOCATION
 40
0.0
  0
ENDSEC
  0
SECTION
  2
CLASSES
  0
CLASS
  1
ACDBDICTIONARYWDFLT
  2
AcDbDictionaryWithDefault
  3
ObjectDBX Classes
 90
        0
 91
        1
280
     0
281
     0
  0
CLASS
  1
DICTIONARYVAR
  2
AcDbDictionaryVar
  3
ObjectDBX Classes
 90
        0
 91
        9
280
     0
281
     0
  0
CLASS
  1
MATERIAL
  2
AcDbMaterial
  3
ObjectDBX Classes
 90
     1153
 91
        3
280
     0
281
     0
  0
CLASS
  1
VISUALSTYLE
  2
AcDbVisualStyle
  3
ObjectDBX Classes
 90
     4095
 91
       24
280
     0
281
     0
  0
CLASS
  1
TABLESTYLE
  2
AcDbTableStyle
  3
ObjectDBX Classes
 90
     4095
 91
        1
280
     0
281
     0
  0
CLASS
  1
SCALE
  2
AcDbScale
  3
ObjectDBX Classes
 90
     1153
 91
       33
280
     0
281
     0
  0
CLASS
  1
MLEADERSTYLE
  2
AcDbMLeaderStyle
  3
ACDB_MLEADERSTYLE_CLASS
 90
     4095
 91
        2
280
     0
281
     0
  0
CLASS
  1
CELLSTYLEMAP
  2
AcDbCellStyleMap
  3
ObjectDBX Classes
 90
     1152
 91
        2
280
     0
281
     0
  0
CLASS
  1
EXACXREFPANELOBJECT
  2
ExAcXREFPanelObject
  3
EXAC_ESW
 90
     1025
 91
        0
280
     0
281
     0
  0
CLASS
  1
NPOCOLLECTION
  2
AcDbImpNonPersistentObjectsCollection
  3
ObjectDBX Classes
 90
     1153
 91
        0
280
     0
281
     0
  0
CLASS
  1
LAYER_INDEX
  2
AcDbLayerIndex
  3
ObjectDBX Classes
 90
        0
 91
        0
280
     0
281
     0
  0
CLASS
  1
SPATIAL_INDEX
  2
AcDbSpatialIndex
  3
ObjectDBX Classes
 90
        0
 91
        0
280
     0
281
     0
  0
CLASS
  1
IDBUFFER
  2
AcDbIdBuffer
  3
ObjectDBX Classes
 90
        0
 91
        0
280
     0
281
     0
  0
CLASS
  1
ACDBSECTIONVIEWSTYLE
  2
AcDbSectionViewStyle
  3
ObjectDBX Classes
 90
     1025
 91
        1
280
     0
281
     0
  0
CLASS
  1
ACDBDETAILVIEWSTYLE
  2
AcDbDetailViewStyle
  3
ObjectDBX Classes
 90
     1025
 91
        1
280
     0
281
     0
  0
CLASS
  1
SORTENTSTABLE
  2
AcDbSortentsTable
  3
ObjectDBX Classes
 90
        0
 91
        1
280
     0
281
     0
  0
ENDSEC
  0
SECTION
  2
TABLES
  0
TABLE
  2
VPORT
  5
8
330
0
100
AcDbSymbolTable
 70
     1
1001
ACAD
1000
DbSaveVer
1071
      105
  0
VPORT
  5
90
330
8
100
AcDbSymbolTableRecord
100
AcDbViewportTableRecord
  2
*Active
 70
     0
 10
0.0
 20
0.0
 11
1.0
 21
1.0
 12
90.61842309870142
 22
42.51345460271504
 13
0.0
 23
0.0
 14
0.5
 24
0.5
 15
0.5
 25
0.5
 16
0.0
 26
0.0
 36
1.0
 17
0.0
 27
0.0
 37
0.0
 40
81.30789053014963
 41
2.113286713286713
 42
50.0
 43
0.0
 44
0.0
 50
0.0
 51
0.0
 71
     0
 72
  1000
 73
     1
 74
     3
 75
     0
 76
     1
 77
     0
 78
     0
281
     0
 65
     1
110
0.0
120
0.0
130
0.0
111
1.0
121
0.0
131
0.0
112
0.0
122
1.0
132
0.0
 79
     0
146
0.0
348
9B
 60
     3
 61
     5
292
     1
282
     1
141
0.0
142
0.0
 63
   250
421
  3355443
1001
ACAD_NAV_VCDISPLAY
1070
     3
  0
ENDTAB
  0
TABLE
  2
LTYPE
  5
5
330
0
100
AcDbSymbolTable
 70
     1
  0
LTYPE
  5
14
330
5
100
AcDbSymbolTableRecord
100
AcDbLinetypeTableRecord
  2
ByBlock
 70
     0
  3

 72
    65
 73
     0
 40
0.0
  0
LTYPE
  5
15
330
5
100
AcDbSymbolTableRecord
100
AcDbLinetypeTableRecord
  2
ByLayer
 70
     0
  3

 72
    65
 73
     0
 40
0.0
  0
LTYPE
  5
16
330
5
100
AcDbSymbolTableRecord
100
AcDbLinetypeTableRecord
  2
Continuous
 70
     0
  3
Solid line
 72
    65
 73
     0
 40
0.0
  0
ENDTAB
  0
TABLE
  2
LAYER
  5
2
102
{ACAD_XDICTIONARY
360
18B
102
}
330
0
100
AcDbSymbolTable
 70
     2
  0
LAYER
  5
10
102
{ACAD_XDICTIONARY
360
E1
102
}
330
2
100
AcDbSymbolTableRecord
100
AcDbLayerTableRecord
  2
0
 70
     0
 62
     7
  6
Continuous
370
    -3
390
F
347
94
348
0
  0
LAYER
  5
2B7
330
2
100
AcDbSymbolTableRecord
100
AcDbLayerTableRecord
  2
Livello 1
 70
     0
 62
     7
  6
Continuous
370
    -3
390
F
347
94
348
0
  0
ENDTAB
  0
TABLE
  2
STYLE
  5
3
330
0
100
AcDbSymbolTable
 70
     2
  0
STYLE
  5
11
330
3
100
AcDbSymbolTableRecord
100
AcDbTextStyleTableRecord
  2
Standard
 70
     0
 40
0.0
 41
1.0
 50
0.0
 71
     0
 42
0.2
  3
arial.ttf
  4

1001
ACAD
1000
Arial
1071
       34
  0
STYLE
  5
D7
330
3
100
AcDbSymbolTableRecord
100
AcDbTextStyleTableRecord
  2
Annotativa
 70
     0
 40
0.0
 41
1.0
 50
0.0
 71
     0
 42
0.2
  3
arial.ttf
  4

1001
AcadAnnotative
1000
AnnotativeData
1002
{
1070
     1
1070
     1
1002
}
1001
ACAD
1000
Arial
1071
       34
  0
ENDTAB
  0
TABLE
  2
VIEW
  5
6
330
0
100
AcDbSymbolTable
 70
     0
  0
ENDTAB
  0
TABLE
  2
UCS
  5
7
330
0
100
AcDbSymbolTable
 70
     0
  0
ENDTAB
  0
TABLE
  2
APPID
  5
9
330
0
100
AcDbSymbolTable
 70
     7
  0
APPID
  5
12
330
9
100
AcDbSymbolTableRecord
100
AcDbRegAppTableRecord
  2
ACAD
 70
     0
  0
APPID
  5
D8
330
9
100
AcDbSymbolTableRecord
100
AcDbRegAppTableRecord
  2
AcadAnnoPO
 70
     0
  0
APPID
  5
D9
330
9
100
AcDbSymbolTableRecord
100
AcDbRegAppTableRecord
  2
AcadAnnotative
 70
     0
  0
APPID
  5
DA
330
9
100
AcDbSymbolTableRecord
100
AcDbRegAppTableRecord
  2
ACAD_DSTYLE_DIMJAG
 70
     0
  0
APPID
  5
DB
330
9
100
AcDbSymbolTableRecord
100
AcDbRegAppTableRecord
  2
ACAD_DSTYLE_DIMTALN
 70
     0
  0
APPID
  5
102
330
9
100
AcDbSymbolTableRecord
100
AcDbRegAppTableRecord
  2
ACAD_MLEADERVER
 70
     0
  0
APPID
  5
1A3
330
9
100
AcDbSymbolTableRecord
100
AcDbRegAppTableRecord
  2
ACAD_NAV_VCDISPLAY
 70
     0
  0
ENDTAB
  0
TABLE
  2
DIMSTYLE
  5
A
330
0
100
AcDbSymbolTable
 70
     2
100
AcDbDimStyleTable
 71
     2
340
DC
340
27
  0
DIMSTYLE
105
27
330
A
100
AcDbSymbolTableRecord
100
AcDbDimStyleTableRecord
  2
Standard
 70
     0
340
11
  0
DIMSTYLE
105
DC
330
A
100
AcDbSymbolTableRecord
100
AcDbDimStyleTableRecord
  2
Annotativa
 70
     0
 40
0.0
340
11
1001
AcadAnnotative
1000
AnnotativeData
1002
{
1070
     1
1070
     1
1002
}
1001
ACAD_DSTYLE_DIMJAG
1070
   388
1040
1.5
1001
ACAD_DSTYLE_DIMTALN
1070
   392
1070
     0
  0
ENDTAB
  0
TABLE
  2
BLOCK_RECORD
  5
1
330
0
100
AcDbSymbolTable
 70
    19
  0
BLOCK_RECORD
  5
1F
102
{ACAD_XDICTIONARY
360
15A
102
}
330
1
100
AcDbSymbolTableRecord
100
AcDbBlockTableRecord
  2
*Model_Space
340
22
 70
     0
280
     1
281
     0
  0
BLOCK_RECORD
  5
73
330
1
100
AcDbSymbolTableRecord
100
AcDbBlockTableRecord
  2
*Paper_Space
340
74
 70
     0
280
     1
281
     0
  0
BLOCK_RECORD
  5
78
330
1
100
AcDbSymbolTableRecord
100
AcDbBlockTableRecord
  2
*Paper_Space0
340
79
 70
     0
280
     1
281
     0
  0
BLOCK_RECORD
  5
20C
330
1
100
AcDbSymbolTableRecord
100
AcDbBlockTableRecord
  2
block 58
340
0
102
{BLKREFS
102
}
 70
     0
280
     1
281
     0
  0
BLOCK_RECORD
  5
217
330
1
100
AcDbSymbolTableRecord
100
AcDbBlockTableRecord
  2
block 59
340
0
102
{BLKREFS
102
}
 70
     0
280
     1
281
     0
  0
BLOCK_RECORD
  5
21F
330
1
100
AcDbSymbolTableRecord
100
AcDbBlockTableRecord
  2
block 60
340
0
102
{BLKREFS
102
}
 70
     0
280
     1
281
     0
  0
BLOCK_RECORD
  5
226
330
1
100
AcDbSymbolTableRecord
100
AcDbBlockTableRecord
  2
block 61
340
0
102
{BLKREFS
102
}
 70
     0
280
     1
281
     0
  0
BLOCK_RECORD
  5
230
330
1
100
AcDbSymbolTableRecord
100
AcDbBlockTableRecord
  2
block 62
340
0
102
{BLKREFS
102
}
 70
     0
280
     1
281
     0
  0
BLOCK_RECORD
  5
23B
330
1
100
AcDbSymbolTableRecord
100
AcDbBlockTableRecord
  2
block 63
340
0
102
{BLKREFS
102
}
 70
     0
280
     1
281
     0
  0
BLOCK_RECORD
  5
245
330
1
100
AcDbSymbolTableRecord
100
AcDbBlockTableRecord
  2
block 64
340
0
102
{BLKREFS
102
}
 70
     0
280
     1
281
     0
  0
BLOCK_RECORD
  5
24C
330
1
100
AcDbSymbolTableRecord
100
AcDbBlockTableRecord
  2
block 65
340
0
102
{BLKREFS
102
}
 70
     0
280
     1
281
     0
  0
BLOCK_RECORD
  5
253
330
1
100
AcDbSymbolTableRecord
100
AcDbBlockTableRecord
  2
block 66
340
0
102
{BLKREFS
102
}
 70
     0
280
     1
281
     0
  0
BLOCK_RECORD
  5
25A
330
1
100
AcDbSymbolTableRecord
100
AcDbBlockTableRecord
  2
block 67
340
0
102
{BLKREFS
102
}
 70
     0
280
     1
281
     0
  0
BLOCK_RECORD
  5
261
330
1
100
AcDbSymbolTableRecord
100
AcDbBlockTableRecord
  2
block 68
340
0
102
{BLKREFS
102
}
 70
     0
280
     1
281
     0
  0
BLOCK_RECORD
  5
268
330
1
100
AcDbSymbolTableRecord
100
AcDbBlockTableRecord
  2
block 69
340
0
102
{BLKREFS
102
}
 70
     0
280
     1
281
     0
  0
BLOCK_RECORD
  5
26C
330
1
100
AcDbSymbolTableRecord
100
AcDbBlockTableRecord
  2
block 70
340
0
102
{BLKREFS
102
}
 70
     0
280
     1
281
     0
  0
BLOCK_RECORD
  5
270
330
1
100
AcDbSymbolTableRecord
100
AcDbBlockTableRecord
  2
block 71
340
0
102
{BLKREFS
102
}
 70
     0
280
     1
281
     0
  0
BLOCK_RECORD
  5
274
330
1
100
AcDbSymbolTableRecord
100
AcDbBlockTableRecord
  2
block 94
340
0
102
{BLKREFS
102
}
 70
     0
280
     1
281
     0
  0
BLOCK_RECORD
  5
28A
330
1
100
AcDbSymbolTableRecord
100
AcDbBlockTableRecord
  2
block 97
340
0
102
{BLKREFS
102
}
 70
     0
280
     1
281
     0
  0
BLOCK_RECORD
  5
2A0
330
1
100
AcDbSymbolTableRecord
100
AcDbBlockTableRecord
  2
block 98
340
0
102
{BLKREFS
102
}
 70
     0
280
     1
281
     0
  0
ENDTAB
  0
ENDSEC
  0
SECTION
  2
BLOCKS
  0
BLOCK
  5
20
330
1F
100
AcDbEntity
  8
0
100
AcDbBlockBegin
  2
*Model_Space
 70
     0
 10
0.0
 20
0.0
 30
0.0
  3
*Model_Space
  1

  0
ENDBLK
  5
21
330
1F
100
AcDbEntity
  8
0
100
AcDbBlockEnd
  0
BLOCK
  5
75
330
73
100
AcDbEntity
 67
     1
  8
0
100
AcDbBlockBegin
  2
*Paper_Space
 70
     0
 10
0.0
 20
0.0
 30
0.0
  3
*Paper_Space
  1

  0
ENDBLK
  5
76
330
73
100
AcDbEntity
 67
     1
  8
0
100
AcDbBlockEnd
  0
BLOCK
  5
7A
330
78
100
AcDbEntity
 67
     1
  8
0
100
AcDbBlockBegin
  2
*Paper_Space0
 70
     0
 10
0.0
 20
0.0
 30
0.0
  3
*Paper_Space0
  1

  0
ENDBLK
  5
7B
330
78
100
AcDbEntity
 67
     1
  8
0
100
AcDbBlockEnd
  0
BLOCK
  5
20D
330
20C
100
AcDbEntity
  8
0
100
AcDbBlockBegin
  2
block 58
 70
     0
 10
0.0
 20
0.0
 30
0.0
  3
block 58
  1

  0
POLYLINE
  5
20E
330
20C
100
AcDbEntity
  8
Livello 1
 62
   178
420
        1
370
    25
100
AcDb2dPolyline
 66
     1
 10
0.0
 20
0.0
 30
0.0
  0
VERTEX
  5
20F
330
20E
100
AcDbEntity
  8
Livello 1
 62
   178
420
        1
370
    25
100
AcDbVertex
100
AcDb2dVertex
 10
299.1877010635552
 20
-95.51340636979963
 30
0.0
  0
VERTEX
  5
210
330
20E
100
AcDbEntity
  8
Livello 1
 62
   178
420
        1
370
    25
100
AcDbVertex
100
AcDb2dVertex
 10
296.2652194714472
 20
-95.51340636979963
 30
0.0
  0
VERTEX
  5
211
330
20E
100
AcDbEntity
  8
Livello 1
 62
   178
420
        1
370
    25
100
AcDbVertex
100
AcDb2dVertex
 10
296.2652194714472
 20
-69.73335887624435
 30
0.0
  0
VERTEX
  5
212
330
20E
100
AcDbEntity
  8
Livello 1
 62
   178
420
        1
370
    25
100
AcDbVertex
100
AcDb2dVertex
 10
318.7759688971508
 20
-69.73335887624435
 30
0.0
  0
VERTEX
  5
213
330
20E
100
AcDbEntity
  8
Livello 1
 62
   178
420
        1
370
    25
100
AcDbVertex
100
AcDb2dVertex
 10
318.7759688971508
 20
-95.51340636979963
 30
0.0
  0
VERTEX
  5
214
330
20E
100
AcDbEntity
  8
Livello 1
 62
   178
420
        1
370
    25
100
AcDbVertex
100
AcDb2dVertex
 10
314.5996798370301
 20
-95.51340636979963
 30
0.0
  0
SEQEND
  5
215
330
20E
100
AcDbEntity
  8
Livello 1
 62
   178
420
        1
370
    25
  0
ENDBLK
  5
216
330
20C
100
AcDbEntity
  8
0
100
AcDbBlockEnd
  0
BLOCK
  5
218
330
217
100
AcDbEntity
  8
0
100
AcDbBlockBegin
  2
block 59
 70
     0
 10
0.0
 20
0.0
 30
0.0
  3
block 59
  1

  0
POLYLINE
  5
219
330
217
100
AcDbEntity
  8
Livello 1
 62
   178
420
        1
370
    25
100
AcDb2dPolyline
 66
     1
 10
0.0
 20
0.0
 30
0.0
  0
VERTEX
  5
21A
330
219
100
AcDbEntity
  8
Livello 1
 62
   178
420
        1
370
    25
100
AcDbVertex
100
AcDb2dVertex
 10
306.033283111132
 20
-89.98520220451496
 30
0.0
  0
VERTEX
  5
21B
330
219
100
AcDbEntity
  8
Livello 1
 62
   178
420
        1
370
    25
100
AcDbVertex
100
AcDb2dVertex
 10
297.8794952635969
 20
-89.98520220451496
 30
0.0
  0
VERTEX
  5
21C
330
219
100
AcDbEntity
  8
Livello 1
 62
   178
420
        1
370
    25
100
AcDbVertex
100
AcDb2dVertex
 10
297.8794952635969
 20
-81.83568276210737
 30
0.0
  0
SEQEND
  5
21D
330
219
100
AcDbEntity
  8
Livello 1
 62
   178
420
        1
370
    25
  0
ENDBLK
  5
21E
330
217
100
AcDbEntity
  8
0
100
AcDbBlockEnd
  0
BLOCK
  5
220
330
21F
100
AcDbEntity
  8
0
100
AcDbBlockBegin
  2
block 60
 70
     0
 10
0.0
 20
0.0
 30
0.0
  3
block 60
  1

  0
POLYLINE
  5
221
330
21F
100
AcDbEntity
  8
Livello 1
 62
   178
420
        1
370
    25
100
AcDb2dPolyline
 66
     1
 10
0.0
 20
0.0
 30
0.0
  0
VERTEX
  5
222
330
221
100
AcDbEntity
  8
Livello 1
 62
   178
420
        1
370
    25
100
AcDbVertex
100
AcDb2dVertex
 10
297.8794952635969
 20
-79.71545304041537
 30
0.0
  0
VERTEX
  5
223
330
221
100
AcDbEntity
  8
Livello 1
 62
   178
420
        1
370
    25
100
AcDbVertex
100
AcDb2dVertex
 10
297.8794952635969
 20
-72.52584193110163
 30
0.0
  0
SEQEND
  5
224
330
221
100
AcDbEntity
  8
Livello 1
 62
   178
420
        1
370
    25
  0
ENDBLK
  5
225
330
21F
100
AcDbEntity
  8
0
100
AcDbBlockEnd
  0
BLOCK
  5
227
330
226
100
AcDbEntity
  8
0
100
AcDbBlockBegin
  2
block 61
 70
     0
 10
0.0
 20
0.0
 30
0.0
  3
block 61
  1

  0
POLYLINE
  5
228
330
226
100
AcDbEntity
  8
Livello 1
 62
   178
420
        1
370
    25
100
AcDb2dPolyline
 66
     1
 10
0.0
 20
0.0
 30
0.0
  0
VERTEX
  5
229
330
228
100
AcDbEntity
  8
Livello 1
 62
   178
420
        1
370
    25
100
AcDbVertex
100
AcDb2dVertex
 10
297.8794952635969
 20
-71.36622609805835
 30
0.0
  0
VERTEX
  5
22A
330
228
100
AcDbEntity
  8
Livello 1
 62
   178
420
        1
370
    25
100
AcDbVertex
100
AcDb2dVertex
 10
297.8794952635969
 20
-71.34763470917405
 30
0.0
  0
VERTEX
  5
22B
330
228
100
AcDbEntity
  8
Livello 1
 62
   178
420
        1
370
    25
100
AcDbVertex
100
AcDb2dVertex
 10
317.1616931050011
 20
-71.34763470917405
 30
0.0
  0
VERTEX
  5
22C
330
228
100
AcDbEntity
  8
Livello 1
 62
   178
420
        1
370
    25
100
AcDbVertex
100
AcDb2dVertex
 10
317.1616931050011
 20
-89.98520220451496
 30
0.0
  0
VERTEX
  5
22D
330
228
100
AcDbEntity
  8
Livello 1
 62
   178
420
        1
370
    25
100
AcDbVertex
100
AcDb2dVertex
 10
308.1546455221974
 20
-89.98520220451496
 30
0.0
  0
SEQEND
  5
22E
330
228
100
AcDbEntity
  8
Livello 1
 62
   178
420
        1
370
    25
  0
ENDBLK
  5
22F
330
226
100
AcDbEntity
  8
0
100
AcDbBlockEnd
  0
BLOCK
  5
231
330
230
100
AcDbEntity
  8
0
100
AcDbBlockBegin
  2
block 62
 70
     0
 10
0.0
 20
0.0
 30
0.0
  3
block 62
  1

  0
POLYLINE
  5
232
330
230
100
AcDbEntity
  8
Livello 1
 62
   178
420
        1
370
    25
100
AcDb2dPolyline
 66
     1
 10
0.0
 20
0.0
 30
0.0
  0
VERTEX
  5
233
330
232
100
AcDbEntity
  8
Livello 1
 62
   178
420
        1
370
    25
100
AcDbVertex
100
AcDb2dVertex
 10
300.0819221518528
 20
-94.41968942562795
 30
0.0
  0
VERTEX
  5
234
330
232
100
AcDbEntity
  8
Livello 1
 62
   178
420
        1
370
    25
100
AcDbVertex
100
AcDb2dVertex
 10
297.8794952635969
 20
-94.41968942562795
 30
0.0
  0
VERTEX
  5
235
330
232
100
AcDbEntity
  8
Livello 1
 62
   178
420
        1
370
    25
100
AcDbVertex
100
AcDb2dVertex
 10
297.8794952635969
 20
-91.68544998186728
 30
0.0
  0
VERTEX
  5
236
330
232
100
AcDbEntity
  8
Livello 1
 62
   178
420
        1
370
    25
100
AcDbVertex
100
AcDb2dVertex
 10
315.6494759213587
 20
-91.68544998186728
 30
0.0
  0
VERTEX
  5
237
330
232
100
AcDbEntity
  8
Livello 1
 62
   178
420
        1
370
    25
100
AcDbVertex
100
AcDb2dVertex
 10
315.6494759213587
 20
-94.41968942562795
 30
0.0
  0
VERTEX
  5
238
330
232
100
AcDbEntity
  8
Livello 1
 62
   178
420
        1
370
    25
100
AcDbVertex
100
AcDb2dVertex
 10
313.8411370786044
 20
-94.41968942562795
 30
0.0
  0
SEQEND
  5
239
330
232
100
AcDbEntity
  8
Livello 1
 62
   178
420
        1
370
    25
  0
ENDBLK
  5
23A
330
230
100
AcDbEntity
  8
0
100
AcDbBlockEnd
  0
BLOCK
  5
23C
330
23B
100
AcDbEntity
  8
0
100
AcDbBlockBegin
  2
block 63
 70
     0
 10
0.0
 20
0.0
 30
0.0
  3
block 63
  1

  0
POLYLINE
  5
23D
330
23B
100
AcDbEntity
  8
Livello 1
 62
   178
420
        1
370
    25
100
AcDb2dPolyline
 66
     1
 10
0.0
 20
0.0
 30
0.0
  0
VERTEX
  5
23E
330
23D
100
AcDbEntity
  8
Livello 1
 62
   178
420
        1
370
    25
100
AcDbVertex
100
AcDb2dVertex
 10
297.8659485972759
 20
-89.98520220451496
 30
0.0
  0
VERTEX
  5
23F
330
23D
100
AcDbEntity
  8
Livello 1
 62
   178
420
        1
370
    25
100
AcDbVertex
100
AcDb2dVertex
 10
297.8659485972759
 20
-81.82213609544428
 30
0.0
  0
VERTEX
  5
240
330
23D
100
AcDbEntity
  8
Livello 1
 62
   178
420
        1
370
    25
100
AcDbVertex
100
AcDb2dVertex
 10
306.033283111132
 20
-89.98520220451496
 30
0.0
  0
VERTEX
  5
241
330
23D
100
AcDbEntity
  8
Livello 1
 62
   178
420
        1
370
    25
100
AcDbVertex
100
AcDb2dVertex
 10
306.033283111132
 20
-89.98520220451496
 30
0.0
  0
VERTEX
  5
242
330
23D
100
AcDbEntity
  8
Livello 1
 62
   178
420
        1
370
    25
100
AcDbVertex
100
AcDb2dVertex
 10
297.8659485972759
 20
-89.98520220451496
 30
0.0
  0
SEQEND
  5
243
330
23D
100
AcDbEntity
  8
Livello 1
 62
   178
420
        1
370
    25
  0
ENDBLK
  5
244
330
23B
100
AcDbEntity
  8
0
100
AcDbBlockEnd
  0
BLOCK
  5
246
330
245
100
AcDbEntity
  8
0
100
AcDbBlockBegin
  2
block 64
 70
     0
 10
0.0
 20
0.0
 30
0.0
  3
block 64
  1

  0
POLYLINE
  5
247
330
245
100
AcDbEntity
  8
Livello 1
 62
   178
420
        1
370
    25
100
AcDb2dPolyline
 66
     1
 10
0.0
 20
0.0
 30
0.0
  0
VERTEX
  5
248
330
247
100
AcDbEntity
  8
Livello 1
 62
   178
420
        1
370
    25
100
AcDbVertex
100
AcDb2dVertex
 10
308.1546455221974
 20
-89.98520220451496
 30
0.0
  0
VERTEX
  5
249
330
247
100
AcDbEntity
  8
Livello 1
 62
   178
420
        1
370
    25
100
AcDbVertex
100
AcDb2dVertex
 10
317.1616931050011
 20
-89.98520220451496
 30
0.0
  0
SEQEND
  5
24A
330
247
100
AcDbEntity
  8
Livello 1
 62
   178
420
        1
370
    25
  0
ENDBLK
  5
24B
330
245
100
AcDbEntity
  8
0
100
AcDbBlockEnd
  0
BLOCK
  5
24D
330
24C
100
AcDbEntity
  8
0
100
AcDbBlockBegin
  2
block 65
 70
     0
 10
0.0
 20
0.0
 30
0.0
  3
block 65
  1

  0
POLYLINE
  5
24E
330
24C
100
AcDbEntity
  8
Livello 1
 62
   178
420
        1
370
    25
100
AcDb2dPolyline
 66
     1
 10
0.0
 20
0.0
 30
0.0
  0
VERTEX
  5
24F
330
24E
100
AcDbEntity
  8
Livello 1
 62
   178
420
        1
370
    25
100
AcDbVertex
100
AcDb2dVertex
 10
297.8794952635969
 20
-79.71545304041537
 30
0.0
  0
VERTEX
  5
250
330
24E
100
AcDbEntity
  8
Livello 1
 62
   178
420
        1
370
    25
100
AcDbVertex
100
AcDb2dVertex
 10
308.1546455221974
 20
-89.98520220451496
 30
0.0
  0
SEQEND
  5
251
330
24E
100
AcDbEntity
  8
Livello 1
 62
   178
420
        1
370
    25
  0
ENDBLK
  5
252
330
24C
100
AcDbEntity
  8
0
100
AcDbBlockEnd
  0
BLOCK
  5
254
330
253
100
AcDbEntity
  8
0
100
AcDbBlockBegin
  2
block 66
 70
     0
 10
0.0
 20
0.0
 30
0.0
  3
block 66
  1

  0
POLYLINE
  5
255
330
253
100
AcDbEntity
  8
Livello 1
 62
   178
420
        1
370
    25
100
AcDb2dPolyline
 66
     1
 10
0.0
 20
0.0
 30
0.0
  0
VERTEX
  5
256
330
255
100
AcDbEntity
  8
Livello 1
 62
   178
420
        1
370
    25
100
AcDbVertex
100
AcDb2dVertex
 10
313.8411370786044
 20
-94.41968942562795
 30
0.0
  0
VERTEX
  5
257
330
255
100
AcDbEntity
  8
Livello 1
 62
   178
420
        1
370
    25
100
AcDbVertex
100
AcDb2dVertex
 10
314.5996798370301
 20
-95.51340636979963
 30
0.0
  0
SEQEND
  5
258
330
255
100
AcDbEntity
  8
Livello 1
 62
   178
420
        1
370
    25
  0
ENDBLK
  5
259
330
253
100
AcDbEntity
  8
0
100
AcDbBlockEnd
  0
BLOCK
  5
25B
330
25A
100
AcDbEntity
  8
0
100
AcDbBlockBegin
  2
block 67
 70
     0
 10
0.0
 20
0.0
 30
0.0
  3
block 67
  1

  0
POLYLINE
  5
25C
330
25A
100
AcDbEntity
  8
Livello 1
 62
   178
420
        1
370
    25
100
AcDb2dPolyline
 66
     1
 10
0.0
 20
0.0
 30
0.0
  0
VERTEX
  5
25D
330
25C
100
AcDbEntity
  8
Livello 1
 62
   178
420
        1
370
    25
100
AcDbVertex
100
AcDb2dVertex
 10
296.2652194714472
 20
-95.51340636979963
 30
0.0
  0
VERTEX
  5
25E
330
25C
100
AcDbEntity
  8
Livello 1
 62
   178
420
        1
370
    25
100
AcDbVertex
100
AcDb2dVertex
 10
299.1877010635552
 20
-95.51340636979963
 30
0.0
  0
SEQEND
  5
25F
330
25C
100
AcDbEntity
  8
Livello 1
 62
   178
420
        1
370
    25
  0
ENDBLK
  5
260
330
25A
100
AcDbEntity
  8
0
100
AcDbBlockEnd
  0
BLOCK
  5
262
330
261
100
AcDbEntity
  8
0
100
AcDbBlockBegin
  2
block 68
 70
     0
 10
0.0
 20
0.0
 30
0.0
  3
block 68
  1

  0
POLYLINE
  5
263
330
261
100
AcDbEntity
  8
Livello 1
 62
   178
420
        1
370
    25
100
AcDb2dPolyline
 66
     1
 10
0.0
 20
0.0
 30
0.0
  0
VERTEX
  5
264
330
263
100
AcDbEntity
  8
Livello 1
 62
   178
420
        1
370
    25
100
AcDbVertex
100
AcDb2dVertex
 10
300.0819221518528
 20
-94.41968942562795
 30
0.0
  0
VERTEX
  5
265
330
263
100
AcDbEntity
  8
Livello 1
 62
   178
420
        1
370
    25
100
AcDbVertex
100
AcDb2dVertex
 10
299.1877010635552
 20
-95.51340636979963
 30
0.0
  0
SEQEND
  5
266
330
263
100
AcDbEntity
  8
Livello 1
 62
   178
420
        1
370
    25
  0
ENDBLK
  5
267
330
261
100
AcDbEntity
  8
0
100
AcDbBlockEnd
  0
BLOCK
  5
269
330
268
100
AcDbEntity
  8
0
100
AcDbBlockBegin
  2
block 69
 70
     0
 10
0.0
 20
0.0
 30
0.0
  3
block 69
  1

  0
SPLINE
  5
26A
330
268
100
AcDbEntity
  8
Livello 1
 62
   178
420
        1
370
    25
100
AcDbSpline
210
0.0
220
0.0
230
1.0
 70
     8
 71
     3
 72
    17
 73
    13
 74
     0
 42
0.000000001
 43
0.0000000001
 40
0.0
 40
0.0
 40
0.0
 40
0.0
 40
1.0
 40
1.0
 40
1.0
 40
2.0
 40
2.0
 40
2.0
 40
3.0
 40
3.0
 40
3.0
 40
4.0
 40
4.0
 40
4.0
 40
4.0
 10
297.8794952635969
 20
-71.34763470917405
 30
0.0
 10
297.8290127648849
 20
-71.35543109806103
 30
0.0
 10
297.7776483217508
 20
-71.35543109806103
 30
0.0
 10
297.7271658230387
 20
-71.34763470917405
 30
0.0
 10
297.4540805522279
 20
-71.30558359807341
 30
0.0
 10
297.2667908347839
 20
-71.05010193147073
 30
0.0
 10
297.3088455249087
 20
-70.7769813759832
 30
0.0
 10
297.3509283326373
 20
-70.50389609827383
 30
0.0
 10
297.6064099927862
 20
-70.31660637609853
 30
0.0
 10
297.8794952635969
 20
-70.35865748719882
 30
0.0
 10
297.8794952635969
 20
-70.35865748719882
 30
0.0
 10
297.8794952635969
 20
-69.73335887624435
 30
0.0
 10
297.8794952635969
 20
-69.73335887624435
 30
0.0
  0
ENDBLK
  5
26B
330
268
100
AcDbEntity
  8
0
100
AcDbBlockEnd
  0
BLOCK
  5
26D
330
26C
100
AcDbEntity
  8
0
100
AcDbBlockBegin
  2
block 70
 70
     0
 10
0.0
 20
0.0
 30
0.0
  3
block 70
  1

  0
SPLINE
  5
26E
330
26C
100
AcDbEntity
  8
Livello 1
 62
   178
420
        1
370
    25
100
AcDbSpline
210
0.0
220
0.0
230
1.0
 70
     8
 71
     3
 72
    14
 73
    10
 74
     0
 42
0.000000001
 43
0.0000000001
 40
0.0
 40
0.0
 40
0.0
 40
0.0
 40
1.0
 40
1.0
 40
1.0
 40
2.0
 40
2.0
 40
2.0
 40
3.0
 40
3.0
 40
3.0
 40
3.0
 10
297.8794952635969
 20
-72.52584193110163
 30
0.0
 10
298.1997116443164
 20
-72.5604141533152
 30
0.0
 10
298.4873313592008
 20
-72.32885082003979
 30
0.0
 10
298.521903580541
 20
-72.00863443123106
 30
0.0
 10
298.5565110796582
 20
-71.68841804242198
 30
0.0
 10
298.3249477522325
 20
-71.40079832027192
 30
0.0
 10
298.004731371513
 20
-71.36622609805835
 30
0.0
 10
297.9631035947972
 20
-71.36171054250377
 30
0.0
 10
297.9211230403127
 20
-71.36171054250377
 30
0.0
 10
297.8794952635969
 20
-71.36622609805835
 30
0.0
  0
ENDBLK
  5
26F
330
26C
100
AcDbEntity
  8
0
100
AcDbBlockEnd
  0
BLOCK
  5
271
330
270
100
AcDbEntity
  8
0
100
AcDbBlockBegin
  2
block 71
 70
     0
 10
0.0
 20
0.0
 30
0.0
  3
block 71
  1

  0
SPLINE
  5
272
330
270
100
AcDbEntity
  8
Livello 1
 62
   178
420
        1
370
    25
100
AcDbSpline
210
0.0
220
0.0
230
1.0
 70
     8
 71
     3
 72
    20
 73
    16
 74
     0
 42
0.000000001
 43
0.0000000001
 40
0.0
 40
0.0
 40
0.0
 40
0.0
 40
1.0
 40
1.0
 40
1.0
 40
2.0
 40
2.0
 40
2.0
 40
3.0
 40
3.0
 40
3.0
 40
4.0
 40
4.0
 40
4.0
 40
5.0
 40
5.0
 40
5.0
 40
5.0
 10
316.3653325697624
 20
-89.93623664897143
 30
0.0
 10
316.3653325697624
 20
-89.93623664897143
 30
0.0
 10
316.3653325697624
 20
-91.22828525975901
 30
0.0
 10
316.3653325697624
 20
-91.22828525975901
 30
0.0
 10
316.3653325697624
 20
-91.56081359300996
 30
0.0
 10
316.6348900628853
 20
-91.8303358151645
 30
0.0
 10
316.9673871866607
 20
-91.8303358151645
 30
0.0
 10
317.2998761570312
 20
-91.8303358151645
 30
0.0
 10
317.5694336501543
 20
-91.56081359300996
 30
0.0
 10
317.5694336501543
 20
-91.22828525975901
 30
0.0
 10
317.5694336501543
 20
-91.22828525975901
 30
0.0
 10
317.5694336501543
 20
-90.04422192672214
 30
0.0
 10
317.5694336501543
 20
-90.04422192672214
 30
0.0
 10
317.5694336501543
 20
-90.04422192672214
 30
0.0
 10
318.7759688971508
 20
-90.04422192672214
 30
0.0
 10
318.7759688971508
 20
-90.04422192672214
 30
0.0
  0
ENDBLK
  5
273
330
270
100
AcDbEntity
  8
0
100
AcDbBlockEnd
  0
BLOCK
  5
275
330
274
100
AcDbEntity
  8
0
100
AcDbBlockBegin
  2
block 94
 70
     0
 10
0.0
 20
0.0
 30
0.0
  3
block 94
  1

  0
POLYLINE
  5
276
330
274
100
AcDbEntity
  8
Livello 1
370
     0
100
AcDb2dPolyline
 66
     1
 10
0.0
 20
0.0
 30
0.0
  0
VERTEX
  5
277
330
276
100
AcDbEntity
  8
Livello 1
370
     0
100
AcDbVertex
100
AcDb2dVertex
 10
324.1063150231401
 20
-60.52447101351472
 30
0.0
  0
VERTEX
  5
278
330
276
100
AcDbEntity
  8
Livello 1
370
     0
100
AcDbVertex
100
AcDb2dVertex
 10
324.0973577748784
 20
-60.51551376525306
 30
0.0
  0
VERTEX
  5
279
330
276
100
AcDbEntity
  8
Livello 1
370
     0
100
AcDbVertex
100
AcDb2dVertex
 10
323.3160101188238
 20
-60.28193629135313
 30
0.0
  0
VERTEX
  5
27A
330
276
100
AcDbEntity
  8
Livello 1
370
     0
100
AcDbVertex
100
AcDb2dVertex
 10
323.5406303444621
 20
-59.90469833571827
 30
0.0
  0
VERTEX
  5
27B
330
276
100
AcDbEntity
  8
Livello 1
370
     0
100
AcDbVertex
100
AcDb2dVertex
 10
324.5197264813701
 20
-60.20132105699828
 30
0.0
  0
VERTEX
  5
27C
330
276
100
AcDbEntity
  8
Livello 1
370
     0
100
AcDbVertex
100
AcDb2dVertex
 10
324.8566568198275
 20
-60.53825139545573
 30
0.0
  0
VERTEX
  5
27D
330
276
100
AcDbEntity
  8
Livello 1
370
     0
100
AcDbVertex
100
AcDb2dVertex
 10
321.9362493769812
 20
-63.45693629055939
 30
0.0
  0
VERTEX
  5
27E
330
276
100
AcDbEntity
  8
Livello 1
370
     0
100
AcDbVertex
100
AcDb2dVertex
 10
321.5548773067641
 20
-63.07521971079371
 30
0.0
  0
VERTEX
  5
27F
330
276
100
AcDbEntity
  8
Livello 1
370
     0
100
AcDbVertex
100
AcDb2dVertex
 10
324.1063150231401
 20
-60.52447101351472
 30
0.0
  0
SEQEND
  5
280
330
276
100
AcDbEntity
  8
Livello 1
370
     0
  0
HATCH
  5
281
330
274
100
AcDbEntity
  8
Livello 1
 62
   250
420
  1842203
100
AcDbHatch
 10
0.0
 20
0.0
 30
0.0
210
0.0
220
0.0
230
1.0
  2
SOLID
 70
     1
 71
     0
 91
        1
 92
        1
 93
        8
 72
     1
 10
324.1063150231401
 20
-60.52447101351472
 11
324.0973577748784
 21
-60.51551376525306
 72
     1
 10
324.0973577748784
 20
-60.51551376525306
 11
323.3160101188238
 21
-60.28193629135313
 72
     1
 10
323.3160101188238
 20
-60.28193629135313
 11
323.5406303444621
 21
-59.90469833571827
 72
     1
 10
323.5406303444621
 20
-59.90469833571827
 11
324.5197264813701
 21
-60.20132105699828
 72
     1
 10
324.5197264813701
 20
-60.20132105699828
 11
324.8566568198275
 21
-60.53825139545573
 72
     1
 10
324.8566568198275
 20
-60.53825139545573
 11
321.9362493769812
 21
-63.45693629055939
 72
     1
 10
321.9362493769812
 20
-63.45693629055939
 11
321.5548773067641
 21
-63.07521971079371
 72
     1
 10
321.5548773067641
 20
-63.07521971079371
 11
324.1063150231401
 21
-60.52447101351472
 97
        0
 75
     2
 76
     1
 98
        0
450
        0
451
        0
460
0.0
461
0.0
452
        0
462
0.0
453
        0
470

  0
SPLINE
  5
282
330
274
100
AcDbEntity
  8
Livello 1
370
     0
100
AcDbSpline
210
0.0
220
0.0
230
1.0
 70
     9
 71
     3
 72
    17
 73
    13
 74
     0
 42
0.000000001
 43
0.0000000001
 40
0.0
 40
0.0
 40
0.0
 40
0.0
 40
1.0
 40
1.0
 40
1.0
 40
2.0
 40
2.0
 40
2.0
 40
3.0
 40
3.0
 40
3.0
 40
4.0
 40
4.0
 40
4.0
 40
4.0
 10
326.4310654565867
 20
-64.97071124677818
 30
0.0
 10
325.4381889377377
 20
-65.96358776562716
 30
0.0
 10
324.5217935386613
 20
-66.14273273086014
 30
0.0
 10
323.8754936256283
 20
-65.49574379873023
 30
0.0
 10
323.304985813271
 20
-64.92523598637285
 30
0.0
 10
323.4538139382338
 20
-64.00470647271411
 30
0.0
 10
324.4105169544877
 20
-63.03008895993693
 30
0.0
 10
325.3899576009442
 20
-62.05133733257746
 30
0.0
 10
326.3511392413289
 20
-61.934893105176
 30
0.0
 10
326.9436956647918
 20
-62.5277940381875
 30
0.0
 10
327.5589897184575
 20
-63.14343260140164
 30
0.0
 10
327.3612412376041
 20
-64.04122448485775
 30
0.0
 10
326.4310654565867
 20
-64.97071124677818
 30
0.0
  0
SPLINE
  5
283
330
274
100
AcDbEntity
  8
Livello 1
370
     0
100
AcDbSpline
210
0.0
220
0.0
230
1.0
 70
     9
 71
     3
 72
    17
 73
    13
 74
     0
 42
0.000000001
 43
0.0000000001
 40
0.0
 40
0.0
 40
0.0
 40
0.0
 40
1.0
 40
1.0
 40
1.0
 40
2.0
 40
2.0
 40
2.0
 40
3.0
 40
3.0
 40
3.0
 40
4.0
 40
4.0
 40
4.0
 40
4.0
 10
324.8008462729665
 20
-63.43006454577443
 30
0.0
 10
324.0415472280174
 20
-64.18867457162645
 30
0.0
 10
323.843798747164
 20
-64.85357800027967
 30
0.0
 10
324.2031222062756
 20
-65.21290145939122
 30
0.0
 10
324.6072319066954
 20
-65.61701115981103
 30
0.0
 10
325.2721353353487
 20
-65.33864744460284
 30
0.0
 10
326.0176539983567
 20
-64.59347329114329
 30
0.0
 10
326.7366454261283
 20
-63.87517088246871
 30
0.0
 10
327.0243108991467
 20
-63.21922470207714
 30
0.0
 10
326.6157225745961
 20
-62.81063637752652
 30
0.0
 10
326.2701794974255
 20
-62.46474879080743
 30
0.0
 10
325.5959743109622
 20
-62.63493650777878
 30
0.0
 10
324.8008462729665
 20
-63.43006454577443
 30
0.0
  0
HATCH
  5
284
330
274
100
AcDbEntity
  8
Livello 1
 62
   250
420
  1842203
100
AcDbHatch
 10
0.0
 20
0.0
 30
0.0
210
0.0
220
0.0
230
1.0
  2
SOLID
 70
     1
 71
     0
 91
        2
 92
        1
 93
        1
 72
     4
 94
        3
 73
     0
 74
     0
 95
       17
 96
       13
 40
0.0
 40
0.0
 40
0.0
 40
0.0
 40
1.0
 40
1.0
 40
1.0
 40
2.0
 40
2.0
 40
2.0
 40
3.0
 40
3.0
 40
3.0
 40
4.0
 40
4.0
 40
4.0
 40
4.0
 10
326.4310654565867
 20
-64.97071124677818
 10
325.4381889377377
 20
-65.96358776562716
 10
324.5217935386613
 20
-66.14273273086014
 10
323.8754936256283
 20
-65.49574379873023
 10
323.304985813271
 20
-64.92523598637285
 10
323.4538139382338
 20
-64.00470647271411
 10
324.4105169544877
 20
-63.03008895993693
 10
325.3899576009442
 20
-62.05133733257746
 10
326.3511392413289
 20
-61.934893105176
 10
326.9436956647918
 20
-62.5277940381875
 10
327.5589897184575
 20
-63.14343260140164
 10
327.3612412376041
 20
-64.04122448485775
 10
326.4310654565867
 20
-64.97071124677818
 97
        0
 97
        0
 92
        1
 93
        1
 72
     4
 94
        3
 73
     0
 74
     0
 95
       17
 96
       13
 40
0.0
 40
0.0
 40
0.0
 40
0.0
 40
1.0
 40
1.0
 40
1.0
 40
2.0
 40
2.0
 40
2.0
 40
3.0
 40
3.0
 40
3.0
 40
4.0
 40
4.0
 40
4.0
 40
4.0
 10
324.8008462729665
 20
-63.43006454577443
 10
324.0415472280174
 20
-64.18867457162645
 10
323.843798747164
 20
-64.85357800027967
 10
324.2031222062756
 20
-65.21290145939122
 10
324.6072319066954
 20
-65.61701115981103
 10
325.2721353353487
 20
-65.33864744460284
 10
326.0176539983567
 20
-64.59347329114329
 10
326.7366454261283
 20
-63.87517088246871
 10
327.0243108991467
 20
-63.21922470207714
 10
326.6157225745961
 20
-62.81063637752652
 10
326.2701794974255
 20
-62.46474879080743
 10
325.5959743109622
 20
-62.63493650777878
 10
324.8008462729665
 20
-63.43006454577443
 97
        0
 97
        0
 75
     2
 76
     1
 98
        0
450
        0
451
        0
460
0.0
461
0.0
452
        0
462
0.0
453
        0
470

  0
SPLINE
  5
285
330
274
100
AcDbEntity
  8
Livello 1
370
     0
100
AcDbSpline
210
0.0
220
0.0
230
1.0
 70
     9
 71
     3
 72
    80
 73
    76
 74
     0
 42
0.000000001
 43
0.0000000001
 40
0.0
 40
0.0
 40
0.0
 40
0.0
 40
1.0
 40
1.0
 40
1.0
 40
2.0
 40
2.0
 40
2.0
 40
3.0
 40
3.0
 40
3.0
 40
4.0
 40
4.0
 40
4.0
 40
5.0
 40
5.0
 40
5.0
 40
6.0
 40
6.0
 40
6.0
 40
7.0
 40
7.0
 40
7.0
 40
8.0
 40
8.0
 40
8.0
 40
9.0
 40
9.0
 40
9.0
 40
10.0
 40
10.0
 40
10.0
 40
11.0
 40
11.0
 40
11.0
 40
12.0
 40
12.0
 40
12.0
 40
13.0
 40
13.0
 40
13.0
 40
14.0
 40
14.0
 40
14.0
 40
15.0
 40
15.0
 40
15.0
 40
16.0
 40
16.0
 40
16.0
 40
17.0
 40
17.0
 40
17.0
 40
18.0
 40
18.0
 40
18.0
 40
19.0
 40
19.0
 40
19.0
 40
20.0
 40
20.0
 40
20.0
 40
21.0
 40
21.0
 40
21.0
 40
22.0
 40
22.0
 40
22.0
 40
23.0
 40
23.0
 40
23.0
 40
24.0
 40
24.0
 40
24.0
 40
25.0
 40
25.0
 40
25.0
 40
25.0
 10
327.9658554952655
 20
-66.31774358151083
 30
0.0
 10
328.1908202304523
 20
-66.09312335587254
 30
0.0
 10
328.3703097052338
 20
-65.90433212328086
 30
0.0
 10
328.5363633076229
 20
-65.71140677610687
 30
0.0
 10
328.5363633076229
 20
-65.71140677610687
 30
0.0
 10
328.882250894342
 20
-66.05729436282596
 30
0.0
 10
328.882250894342
 20
-66.05729436282596
 30
0.0
 10
328.882250894342
 20
-66.05729436282596
 30
0.0
 10
328.5497991800153
 20
-66.42591957974767
 30
0.0
 10
328.5497991800153
 20
-66.42591957974767
 30
0.0
 10
328.5497991800153
 20
-66.42591957974767
 30
0.0
 10
328.5628905428593
 20
-66.43901094259163
 30
0.0
 10
328.5628905428593
 20
-66.43901094259163
 30
0.0
 10
328.8908636330551
 20
-66.3542615936545
 30
0.0
 10
329.2863605947617
 20
-66.36252982281909
 30
0.0
 10
329.6453395443248
 20
-66.72219779147917
 30
0.0
 10
329.9416177560563
 20
-67.01847600321066
 30
0.0
 10
329.9864039973645
 20
-67.42293021317898
 30
0.0
 10
329.8248290191064
 20
-67.77329642402889
 30
0.0
 10
329.8248290191064
 20
-67.77329642402889
 30
0.0
 10
329.8337862673679
 20
-67.78225367229055
 30
0.0
 10
329.8337862673679
 20
-67.78225367229055
 30
0.0
 10
330.0225774999597
 20
-67.72851018272065
 30
0.0
 10
330.2020669747412
 20
-67.719552934459
 30
0.0
 10
330.3595078384171
 20
-67.74194605511313
 30
0.0
 10
330.5886066881862
 20
-67.77364093357744
 30
0.0
 10
330.7863551690396
 20
-67.86355792574244
 30
0.0
 10
330.992716388606
 20
-68.06991914530893
 30
0.0
 10
331.2800373520759
 20
-68.35758461832728
 30
0.0
 10
331.5177489405581
 20
-68.97287867199288
 30
0.0
 10
330.7629285197398
 20
-69.72735458326261
 30
0.0
 10
330.7629285197398
 20
-69.72735458326261
 30
0.0
 10
329.482731037421
 20
-71.00720755603292
 30
0.0
 10
329.482731037421
 20
-71.00720755603292
 30
0.0
 10
329.482731037421
 20
-71.00720755603292
 30
0.0
 10
329.096880343073
 20
-70.62066784258789
 30
0.0
 10
329.096880343073
 20
-70.62066784258789
 30
0.0
 10
329.096880343073
 20
-70.62066784258789
 30
0.0
 10
330.3274684504042
 20
-69.39042424480518
 30
0.0
 10
330.3274684504042
 20
-69.39042424480518
 30
0.0
 10
330.7453585327651
 20
-68.97287867199288
 30
0.0
 10
330.8442327731917
 20
-68.56876897157309
 30
0.0
 10
330.5255614408062
 20
-68.24975312963895
 30
0.0
 10
330.3009412151678
 20
-68.02513290400067
 30
0.0
 10
329.9595322525795
 20
-68.01617565573902
 30
0.0
 10
329.6990830338947
 20
-68.14157713140211
 30
0.0
 10
329.6274250478015
 20
-68.17740612444871
 30
0.0
 10
329.5419866797673
 20
-68.23597274769795
 30
0.0
 10
329.4699841841256
 20
-68.30763073379116
 30
0.0
 10
329.4699841841256
 20
-68.30763073379116
 30
0.0
 10
328.1267414544267
 20
-69.65052895394153
 30
0.0
 10
328.1267414544267
 20
-69.65052895394153
 30
0.0
 10
328.1267414544267
 20
-69.65052895394153
 30
0.0
 10
327.7402017409817
 20
-69.26398924049649
 30
0.0
 10
327.7402017409817
 20
-69.26398924049649
 30
0.0
 10
327.7402017409817
 20
-69.26398924049649
 30
0.0
 10
329.0431368535031
 20
-67.96174314707207
 30
0.0
 10
329.0431368535031
 20
-67.96174314707207
 30
0.0
 10
329.3890244402222
 20
-67.61585556035297
 30
0.0
 10
329.4882431901974
 20
-67.2120903694817
 30
0.0
 10
329.1871418447865
 20
-66.91098902407086
 30
0.0
 10
328.9404730080426
 20
-66.66363116822992
 30
0.0
 10
328.5632350524078
 20
-66.68154566475323
 30
0.0
 10
328.3024413241744
 20
-66.81659340777502
 30
0.0
 10
328.2218260898196
 20
-66.8520778912731
 30
0.0
 10
328.145344970047
 20
-66.91064451452234
 30
0.0
 10
328.0778210985361
 20
-66.97782387648472
 30
0.0
 10
328.0778210985361
 20
-66.97782387648472
 30
0.0
 10
326.7662732473015
 20
-68.2890272181708
 30
0.0
 10
326.7662732473015
 20
-68.2890272181708
 30
0.0
 10
326.7662732473015
 20
-68.2890272181708
 30
0.0
 10
326.380078043405
 20
-67.90283201427429
 30
0.0
 10
326.380078043405
 20
-67.90283201427429
 30
0.0
 10
326.380078043405
 20
-67.90283201427429
 30
0.0
 10
327.9658554952655
 20
-66.31774358151083
 30
0.0
 10
327.9658554952655
 20
-66.31774358151083
 30
0.0
  0
HATCH
  5
286
330
274
100
AcDbEntity
  8
Livello 1
 62
   250
420
  1842203
100
AcDbHatch
 10
0.0
 20
0.0
 30
0.0
210
0.0
220
0.0
230
1.0
  2
SOLID
 70
     1
 71
     0
 91
        1
 92
        1
 93
        1
 72
     4
 94
        3
 73
     0
 74
     0
 95
       80
 96
       76
 40
0.0
 40
0.0
 40
0.0
 40
0.0
 40
1.0
 40
1.0
 40
1.0
 40
2.0
 40
2.0
 40
2.0
 40
3.0
 40
3.0
 40
3.0
 40
4.0
 40
4.0
 40
4.0
 40
5.0
 40
5.0
 40
5.0
 40
6.0
 40
6.0
 40
6.0
 40
7.0
 40
7.0
 40
7.0
 40
8.0
 40
8.0
 40
8.0
 40
9.0
 40
9.0
 40
9.0
 40
10.0
 40
10.0
 40
10.0
 40
11.0
 40
11.0
 40
11.0
 40
12.0
 40
12.0
 40
12.0
 40
13.0
 40
13.0
 40
13.0
 40
14.0
 40
14.0
 40
14.0
 40
15.0
 40
15.0
 40
15.0
 40
16.0
 40
16.0
 40
16.0
 40
17.0
 40
17.0
 40
17.0
 40
18.0
 40
18.0
 40
18.0
 40
19.0
 40
19.0
 40
19.0
 40
20.0
 40
20.0
 40
20.0
 40
21.0
 40
21.0
 40
21.0
 40
22.0
 40
22.0
 40
22.0
 40
23.0
 40
23.0
 40
23.0
 40
24.0
 40
24.0
 40
24.0
 40
25.0
 40
25.0
 40
25.0
 40
25.0
 10
327.9658554952655
 20
-66.31774358151083
 10
328.1908202304523
 20
-66.09312335587254
 10
328.3703097052338
 20
-65.90433212328086
 10
328.5363633076229
 20
-65.71140677610687
 10
328.5363633076229
 20
-65.71140677610687
 10
328.882250894342
 20
-66.05729436282596
 10
328.882250894342
 20
-66.05729436282596
 10
328.882250894342
 20
-66.05729436282596
 10
328.5497991800153
 20
-66.42591957974767
 10
328.5497991800153
 20
-66.42591957974767
 10
328.5497991800153
 20
-66.42591957974767
 10
328.5628905428593
 20
-66.43901094259163
 10
328.5628905428593
 20
-66.43901094259163
 10
328.8908636330551
 20
-66.3542615936545
 10
329.2863605947617
 20
-66.36252982281909
 10
329.6453395443248
 20
-66.72219779147917
 10
329.9416177560563
 20
-67.01847600321066
 10
329.9864039973645
 20
-67.42293021317898
 10
329.8248290191064
 20
-67.77329642402889
 10
329.8248290191064
 20
-67.77329642402889
 10
329.8337862673679
 20
-67.78225367229055
 10
329.8337862673679
 20
-67.78225367229055
 10
330.0225774999597
 20
-67.72851018272065
 10
330.2020669747412
 20
-67.719552934459
 10
330.3595078384171
 20
-67.74194605511313
 10
330.5886066881862
 20
-67.77364093357744
 10
330.7863551690396
 20
-67.86355792574244
 10
330.992716388606
 20
-68.06991914530893
 10
331.2800373520759
 20
-68.35758461832728
 10
331.5177489405581
 20
-68.97287867199288
 10
330.7629285197398
 20
-69.72735458326261
 10
330.7629285197398
 20
-69.72735458326261
 10
329.482731037421
 20
-71.00720755603292
 10
329.482731037421
 20
-71.00720755603292
 10
329.482731037421
 20
-71.00720755603292
 10
329.096880343073
 20
-70.62066784258789
 10
329.096880343073
 20
-70.62066784258789
 10
329.096880343073
 20
-70.62066784258789
 10
330.3274684504042
 20
-69.39042424480518
 10
330.3274684504042
 20
-69.39042424480518
 10
330.7453585327651
 20
-68.97287867199288
 10
330.8442327731917
 20
-68.56876897157309
 10
330.5255614408062
 20
-68.24975312963895
 10
330.3009412151678
 20
-68.02513290400067
 10
329.9595322525795
 20
-68.01617565573902
 10
329.6990830338947
 20
-68.14157713140211
 10
329.6274250478015
 20
-68.17740612444871
 10
329.5419866797673
 20
-68.23597274769795
 10
329.4699841841256
 20
-68.30763073379116
 10
329.4699841841256
 20
-68.30763073379116
 10
328.1267414544267
 20
-69.65052895394153
 10
328.1267414544267
 20
-69.65052895394153
 10
328.1267414544267
 20
-69.65052895394153
 10
327.7402017409817
 20
-69.26398924049649
 10
327.7402017409817
 20
-69.26398924049649
 10
327.7402017409817
 20
-69.26398924049649
 10
329.0431368535031
 20
-67.96174314707207
 10
329.0431368535031
 20
-67.96174314707207
 10
329.3890244402222
 20
-67.61585556035297
 10
329.4882431901974
 20
-67.2120903694817
 10
329.1871418447865
 20
-66.91098902407086
 10
328.9404730080426
 20
-66.66363116822992
 10
328.5632350524078
 20
-66.68154566475323
 10
328.3024413241744
 20
-66.81659340777502
 10
328.2218260898196
 20
-66.8520778912731
 10
328.145344970047
 20
-66.91064451452234
 10
328.0778210985361
 20
-66.97782387648472
 10
328.0778210985361
 20
-66.97782387648472
 10
326.7662732473015
 20
-68.2890272181708
 10
326.7662732473015
 20
-68.2890272181708
 10
326.7662732473015
 20
-68.2890272181708
 10
326.380078043405
 20
-67.90283201427429
 10
326.380078043405
 20
-67.90283201427429
 10
326.380078043405
 20
-67.90283201427429
 10
327.9658554952655
 20
-66.31774358151083
 10
327.9658554952655
 20
-66.31774358151083
 97
        0
 97
        0
 75
     2
 76
     1
 98
        0
450
        0
451
        0
460
0.0
461
0.0
452
        0
462
0.0
453
        0
470

  0
SPLINE
  5
287
330
274
100
AcDbEntity
  8
Livello 1
370
     0
100
AcDbSpline
210
0.0
220
0.0
230
1.0
 70
     9
 71
     3
 72
    80
 73
    76
 74
     0
 42
0.000000001
 43
0.0000000001
 40
0.0
 40
0.0
 40
0.0
 40
0.0
 40
1.0
 40
1.0
 40
1.0
 40
2.0
 40
2.0
 40
2.0
 40
3.0
 40
3.0
 40
3.0
 40
4.0
 40
4.0
 40
4.0
 40
5.0
 40
5.0
 40
5.0
 40
6.0
 40
6.0
 40
6.0
 40
7.0
 40
7.0
 40
7.0
 40
8.0
 40
8.0
 40
8.0
 40
9.0
 40
9.0
 40
9.0
 40
10.0
 40
10.0
 40
10.0
 40
11.0
 40
11.0
 40
11.0
 40
12.0
 40
12.0
 40
12.0
 40
13.0
 40
13.0
 40
13.0
 40
14.0
 40
14.0
 40
14.0
 40
15.0
 40
15.0
 40
15.0
 40
16.0
 40
16.0
 40
16.0
 40
17.0
 40
17.0
 40
17.0
 40
18.0
 40
18.0
 40
18.0
 40
19.0
 40
19.0
 40
19.0
 40
20.0
 40
20.0
 40
20.0
 40
21.0
 40
21.0
 40
21.0
 40
22.0
 40
22.0
 40
22.0
 40
23.0
 40
23.0
 40
23.0
 40
24.0
 40
24.0
 40
24.0
 40
25.0
 40
25.0
 40
25.0
 40
25.0
 10
331.7096407590865
 20
-70.06325139307446
 30
0.0
 10
331.9342609847248
 20
-69.83863116743617
 30
0.0
 10
332.1140949690548
 20
-69.65018444439301
 30
0.0
 10
332.2801485714439
 20
-69.4569145876705
 30
0.0
 10
332.2801485714439
 20
-69.4569145876705
 30
0.0
 10
332.6260361581629
 20
-69.80280217438958
 30
0.0
 10
332.6260361581629
 20
-69.80280217438958
 30
0.0
 10
332.6260361581629
 20
-69.80280217438958
 30
0.0
 10
332.2932399342878
 20
-70.17142739131131
 30
0.0
 10
332.2932399342878
 20
-70.17142739131131
 30
0.0
 10
332.2932399342878
 20
-70.17142739131131
 30
0.0
 10
332.3070203162288
 20
-70.18486326370378
 30
0.0
 10
332.3070203162288
 20
-70.18486326370378
 30
0.0
 10
332.6349934064247
 20
-70.09976940521811
 30
0.0
 10
333.0298013490342
 20
-70.10838214393125
 30
0.0
 10
333.3891248081458
 20
-70.46770560304278
 30
0.0
 10
333.6857475294258
 20
-70.76432832432279
 30
0.0
 10
333.730533770734
 20
-71.16843802474261
 30
0.0
 10
333.5686142829274
 20
-71.51914874514105
 30
0.0
 10
333.5686142829274
 20
-71.51914874514105
 30
0.0
 10
333.5775715311889
 20
-71.5281059934027
 30
0.0
 10
333.5775715311889
 20
-71.5281059934027
 30
0.0
 10
333.7663627637807
 20
-71.47436250383282
 30
0.0
 10
333.9461967481107
 20
-71.46540525557115
 30
0.0
 10
334.1032931022381
 20
-71.48779837622526
 30
0.0
 10
334.3323919520072
 20
-71.51914874514105
 30
0.0
 10
334.529795923312
 20
-71.60906573730605
 30
0.0
 10
334.736501652427
 20
-71.81577146642105
 30
0.0
 10
335.0238226158968
 20
-72.10343693943942
 30
0.0
 10
335.2615342043791
 20
-72.71873099310505
 30
0.0
 10
334.5070582931094
 20
-73.47320690437476
 30
0.0
 10
334.5070582931094
 20
-73.47320690437476
 30
0.0
 10
333.226516301242
 20
-74.75271536759655
 30
0.0
 10
333.226516301242
 20
-74.75271536759655
 30
0.0
 10
333.226516301242
 20
-74.75271536759655
 30
0.0
 10
332.8403210973455
 20
-74.36652016370004
 30
0.0
 10
332.8403210973455
 20
-74.36652016370004
 30
0.0
 10
332.8403210973455
 20
-74.36652016370004
 30
0.0
 10
334.0715982237738
 20
-73.13627656591733
 30
0.0
 10
334.0715982237738
 20
-73.13627656591733
 30
0.0
 10
334.4891437965861
 20
-72.71873099310505
 30
0.0
 10
334.5883625465613
 20
-72.31427678313671
 30
0.0
 10
334.2693467046272
 20
-71.99526094120256
 30
0.0
 10
334.0447264789888
 20
-71.77064071556428
 30
0.0
 10
333.7036620259492
 20
-71.76168346730263
 30
0.0
 10
333.4425237881671
 20
-71.88708494296574
 30
0.0
 10
333.370865802074
 20
-71.92291393601235
 30
0.0
 10
333.2854274340398
 20
-71.98148055926158
 30
0.0
 10
333.2137694479466
 20
-72.05313854535477
 30
0.0
 10
333.2137694479466
 20
-72.05313854535477
 30
0.0
 10
331.8705267182477
 20
-73.39603676550516
 30
0.0
 10
331.8705267182477
 20
-73.39603676550516
 30
0.0
 10
331.8705267182477
 20
-73.39603676550516
 30
0.0
 10
331.4843315143511
 20
-73.00949705206012
 30
0.0
 10
331.4843315143511
 20
-73.00949705206012
 30
0.0
 10
331.4843315143511
 20
-73.00949705206012
 30
0.0
 10
332.7869221173241
 20
-71.7072509586357
 30
0.0
 10
332.7869221173241
 20
-71.7072509586357
 30
0.0
 10
333.1328097040432
 20
-71.36136337191661
 30
0.0
 10
333.2320284540184
 20
-70.95759818104532
 30
0.0
 10
332.9312716181561
 20
-70.65649683563449
 30
0.0
 10
332.6839137623152
 20
-70.40913897979355
 30
0.0
 10
332.3070203162288
 20
-70.42705347631685
 30
0.0
 10
332.0465710975438
 20
-70.56210121933864
 30
0.0
 10
331.965266844092
 20
-70.59793021238523
 30
0.0
 10
331.8894747434165
 20
-70.65649683563449
 30
0.0
 10
331.8219508719057
 20
-70.72367619759686
 30
0.0
 10
331.8219508719057
 20
-70.72367619759686
 30
0.0
 10
330.5100585111225
 20
-72.03487953928295
 30
0.0
 10
330.5100585111225
 20
-72.03487953928295
 30
0.0
 10
330.5100585111225
 20
-72.03487953928295
 30
0.0
 10
330.1235187976775
 20
-71.64833982583792
 30
0.0
 10
330.1235187976775
 20
-71.64833982583792
 30
0.0
 10
330.1235187976775
 20
-71.64833982583792
 30
0.0
 10
331.7096407590865
 20
-70.06325139307446
 30
0.0
 10
331.7096407590865
 20
-70.06325139307446
 30
0.0
  0
HATCH
  5
288
330
274
100
AcDbEntity
  8
Livello 1
 62
   250
420
  1842203
100
AcDbHatch
 10
0.0
 20
0.0
 30
0.0
210
0.0
220
0.0
230
1.0
  2
SOLID
 70
     1
 71
     0
 91
        1
 92
        1
 93
        1
 72
     4
 94
        3
 73
     0
 74
     0
 95
       80
 96
       76
 40
0.0
 40
0.0
 40
0.0
 40
0.0
 40
1.0
 40
1.0
 40
1.0
 40
2.0
 40
2.0
 40
2.0
 40
3.0
 40
3.0
 40
3.0
 40
4.0
 40
4.0
 40
4.0
 40
5.0
 40
5.0
 40
5.0
 40
6.0
 40
6.0
 40
6.0
 40
7.0
 40
7.0
 40
7.0
 40
8.0
 40
8.0
 40
8.0
 40
9.0
 40
9.0
 40
9.0
 40
10.0
 40
10.0
 40
10.0
 40
11.0
 40
11.0
 40
11.0
 40
12.0
 40
12.0
 40
12.0
 40
13.0
 40
13.0
 40
13.0
 40
14.0
 40
14.0
 40
14.0
 40
15.0
 40
15.0
 40
15.0
 40
16.0
 40
16.0
 40
16.0
 40
17.0
 40
17.0
 40
17.0
 40
18.0
 40
18.0
 40
18.0
 40
19.0
 40
19.0
 40
19.0
 40
20.0
 40
20.0
 40
20.0
 40
21.0
 40
21.0
 40
21.0
 40
22.0
 40
22.0
 40
22.0
 40
23.0
 40
23.0
 40
23.0
 40
24.0
 40
24.0
 40
24.0
 40
25.0
 40
25.0
 40
25.0
 40
25.0
 10
331.7096407590865
 20
-70.06325139307446
 10
331.9342609847248
 20
-69.83863116743617
 10
332.1140949690548
 20
-69.65018444439301
 10
332.2801485714439
 20
-69.4569145876705
 10
332.2801485714439
 20
-69.4569145876705
 10
332.6260361581629
 20
-69.80280217438958
 10
332.6260361581629
 20
-69.80280217438958
 10
332.6260361581629
 20
-69.80280217438958
 10
332.2932399342878
 20
-70.17142739131131
 10
332.2932399342878
 20
-70.17142739131131
 10
332.2932399342878
 20
-70.17142739131131
 10
332.3070203162288
 20
-70.18486326370378
 10
332.3070203162288
 20
-70.18486326370378
 10
332.6349934064247
 20
-70.09976940521811
 10
333.0298013490342
 20
-70.10838214393125
 10
333.3891248081458
 20
-70.46770560304278
 10
333.6857475294258
 20
-70.76432832432279
 10
333.730533770734
 20
-71.16843802474261
 10
333.5686142829274
 20
-71.51914874514105
 10
333.5686142829274
 20
-71.51914874514105
 10
333.5775715311889
 20
-71.5281059934027
 10
333.5775715311889
 20
-71.5281059934027
 10
333.7663627637807
 20
-71.47436250383282
 10
333.9461967481107
 20
-71.46540525557115
 10
334.1032931022381
 20
-71.48779837622526
 10
334.3323919520072
 20
-71.51914874514105
 10
334.529795923312
 20
-71.60906573730605
 10
334.736501652427
 20
-71.81577146642105
 10
335.0238226158968
 20
-72.10343693943942
 10
335.2615342043791
 20
-72.71873099310505
 10
334.5070582931094
 20
-73.47320690437476
 10
334.5070582931094
 20
-73.47320690437476
 10
333.226516301242
 20
-74.75271536759655
 10
333.226516301242
 20
-74.75271536759655
 10
333.226516301242
 20
-74.75271536759655
 10
332.8403210973455
 20
-74.36652016370004
 10
332.8403210973455
 20
-74.36652016370004
 10
332.8403210973455
 20
-74.36652016370004
 10
334.0715982237738
 20
-73.13627656591733
 10
334.0715982237738
 20
-73.13627656591733
 10
334.4891437965861
 20
-72.71873099310505
 10
334.5883625465613
 20
-72.31427678313671
 10
334.2693467046272
 20
-71.99526094120256
 10
334.0447264789888
 20
-71.77064071556428
 10
333.7036620259492
 20
-71.76168346730263
 10
333.4425237881671
 20
-71.88708494296574
 10
333.370865802074
 20
-71.92291393601235
 10
333.2854274340398
 20
-71.98148055926158
 10
333.2137694479466
 20
-72.05313854535477
 10
333.2137694479466
 20
-72.05313854535477
 10
331.8705267182477
 20
-73.39603676550516
 10
331.8705267182477
 20
-73.39603676550516
 10
331.8705267182477
 20
-73.39603676550516
 10
331.4843315143511
 20
-73.00949705206012
 10
331.4843315143511
 20
-73.00949705206012
 10
331.4843315143511
 20
-73.00949705206012
 10
332.7869221173241
 20
-71.7072509586357
 10
332.7869221173241
 20
-71.7072509586357
 10
333.1328097040432
 20
-71.36136337191661
 10
333.2320284540184
 20
-70.95759818104532
 10
332.9312716181561
 20
-70.65649683563449
 10
332.6839137623152
 20
-70.40913897979355
 10
332.3070203162288
 20
-70.42705347631685
 10
332.0465710975438
 20
-70.56210121933864
 10
331.965266844092
 20
-70.59793021238523
 10
331.8894747434165
 20
-70.65649683563449
 10
331.8219508719057
 20
-70.72367619759686
 10
331.8219508719057
 20
-70.72367619759686
 10
330.5100585111225
 20
-72.03487953928295
 10
330.5100585111225
 20
-72.03487953928295
 10
330.5100585111225
 20
-72.03487953928295
 10
330.1235187976775
 20
-71.64833982583792
 10
330.1235187976775
 20
-71.64833982583792
 10
330.1235187976775
 20
-71.64833982583792
 10
331.7096407590865
 20
-70.06325139307446
 10
331.7096407590865
 20
-70.06325139307446
 97
        0
 97
        0
 75
     2
 76
     1
 98
        0
450
        0
451
        0
460
0.0
461
0.0
452
        0
462
0.0
453
        0
470

  0
ENDBLK
  5
289
330
274
100
AcDbEntity
  8
0
100
AcDbBlockEnd
  0
BLOCK
  5
28B
330
28A
100
AcDbEntity
  8
0
100
AcDbBlockBegin
  2
block 97
 70
     0
 10
0.0
 20
0.0
 30
0.0
  3
block 97
  1

  0
POLYLINE
  5
28C
330
28A
100
AcDbEntity
  8
Livello 1
370
     0
100
AcDb2dPolyline
 66
     1
 10
0.0
 20
0.0
 30
0.0
  0
VERTEX
  5
28D
330
28C
100
AcDbEntity
  8
Livello 1
370
     0
100
AcDbVertex
100
AcDb2dVertex
 10
302.8311278539798
 20
-102.1904893407718
 30
0.0
  0
VERTEX
  5
28E
330
28C
100
AcDbEntity
  8
Livello 1
370
     0
100
AcDbVertex
100
AcDb2dVertex
 10
302.8183810006843
 20
-102.1904893407718
 30
0.0
  0
VERTEX
  5
28F
330
28C
100
AcDbEntity
  8
Livello 1
370
     0
100
AcDbVertex
100
AcDb2dVertex
 10
302.1007676111068
 20
-102.5778903280882
 30
0.0
  0
VERTEX
  5
290
330
28C
100
AcDbEntity
  8
Livello 1
370
     0
100
AcDbVertex
100
AcDb2dVertex
 10
301.9929361224184
 20
-102.1524210356598
 30
0.0
  0
VERTEX
  5
291
330
28C
100
AcDbEntity
  8
Livello 1
370
     0
100
AcDbVertex
100
AcDb2dVertex
 10
302.8948621204569
 20
-101.6695909034021
 30
0.0
  0
VERTEX
  5
292
330
28C
100
AcDbEntity
  8
Livello 1
370
     0
100
AcDbVertex
100
AcDb2dVertex
 10
303.3709743165184
 20
-101.6695909034021
 30
0.0
  0
VERTEX
  5
293
330
28C
100
AcDbEntity
  8
Livello 1
370
     0
100
AcDbVertex
100
AcDb2dVertex
 10
303.3709743165184
 20
-105.7983655876997
 30
0.0
  0
VERTEX
  5
294
330
28C
100
AcDbEntity
  8
Livello 1
370
     0
100
AcDbVertex
100
AcDb2dVertex
 10
302.8311278539798
 20
-105.7983655876997
 30
0.0
  0
VERTEX
  5
295
330
28C
100
AcDbEntity
  8
Livello 1
370
     0
100
AcDbVertex
100
AcDb2dVertex
 10
302.8311278539798
 20
-102.1904893407718
 30
0.0
  0
SEQEND
  5
296
330
28C
100
AcDbEntity
  8
Livello 1
370
     0
  0
HATCH
  5
297
330
28A
100
AcDbEntity
  8
Livello 1
 62
   250
420
  1842203
100
AcDbHatch
 10
0.0
 20
0.0
 30
0.0
210
0.0
220
0.0
230
1.0
  2
SOLID
 70
     1
 71
     0
 91
        1
 92
        1
 93
        8
 72
     1
 10
302.8311278539798
 20
-102.1904893407718
 11
302.8183810006843
 21
-102.1904893407718
 72
     1
 10
302.8183810006843
 20
-102.1904893407718
 11
302.1007676111068
 21
-102.5778903280882
 72
     1
 10
302.1007676111068
 20
-102.5778903280882
 11
301.9929361224184
 21
-102.1524210356598
 72
     1
 10
301.9929361224184
 20
-102.1524210356598
 11
302.8948621204569
 21
-101.6695909034021
 72
     1
 10
302.8948621204569
 20
-101.6695909034021
 11
303.3709743165184
 21
-101.6695909034021
 72
     1
 10
303.3709743165184
 20
-101.6695909034021
 11
303.3709743165184
 21
-105.7983655876997
 72
     1
 10
303.3709743165184
 20
-105.7983655876997
 11
302.8311278539798
 21
-105.7983655876997
 72
     1
 10
302.8311278539798
 20
-105.7983655876997
 11
302.8311278539798
 21
-102.1904893407718
 97
        0
 75
     2
 76
     1
 98
        0
450
        0
451
        0
460
0.0
461
0.0
452
        0
462
0.0
453
        0
470

  0
SPLINE
  5
298
330
28A
100
AcDbEntity
  8
Livello 1
370
     0
100
AcDbSpline
210
0.0
220
0.0
230
1.0
 70
     9
 71
     3
 72
    38
 73
    34
 74
     0
 42
0.000000001
 43
0.0000000001
 40
0.0
 40
0.0
 40
0.0
 40
0.0
 40
1.0
 40
1.0
 40
1.0
 40
2.0
 40
2.0
 40
2.0
 40
3.0
 40
3.0
 40
3.0
 40
4.0
 40
4.0
 40
4.0
 40
5.0
 40
5.0
 40
5.0
 40
6.0
 40
6.0
 40
6.0
 40
7.0
 40
7.0
 40
7.0
 40
8.0
 40
8.0
 40
8.0
 40
9.0
 40
9.0
 40
9.0
 40
10.0
 40
10.0
 40
10.0
 40
11.0
 40
11.0
 40
11.0
 40
11.0
 10
307.2318928268378
 20
-102.0633653173661
 30
0.0
 10
307.1175156567276
 20
-102.0571641454927
 30
0.0
 10
306.971443608153
 20
-102.0633653173661
 30
0.0
 10
306.812624706283
 20
-102.088859023957
 30
0.0
 10
305.9361924148354
 20
-102.2349310725316
 30
0.0
 10
305.4724825625208
 20
-102.8764078518851
 30
0.0
 10
305.3770534175793
 20
-103.5561251911249
 30
0.0
 10
305.3770534175793
 20
-103.5561251911249
 30
0.0
 10
305.3963459522968
 20
-103.5561251911249
 30
0.0
 10
305.3963459522968
 20
-103.5561251911249
 30
0.0
 10
305.5930609045045
 20
-103.29567597244
 30
0.0
 10
305.9361924148354
 20
-103.0796684855148
 30
0.0
 10
306.393356585728
 20
-103.0796684855148
 30
0.0
 10
307.1240613381495
 20
-103.0796684855148
 30
0.0
 10
307.6384140940974
 20
-103.6069403495323
 30
0.0
 10
307.6384140940974
 20
-104.4136094574036
 30
0.0
 10
307.6384140940974
 20
-105.1694634068674
 30
0.0
 10
307.1240613381495
 20
-105.8683010260503
 30
0.0
 10
306.2662325623223
 20
-105.8683010260503
 30
0.0
 10
305.3835990990013
 20
-105.8683010260503
 30
0.0
 10
304.8055120765764
 20
-105.1822102601628
 30
0.0
 10
304.8055120765764
 20
-104.1087185069589
 30
0.0
 10
304.8055120765764
 20
-103.29567597244
 30
0.0
 10
305.0976561737256
 20
-102.6541991930865
 30
0.0
 10
305.5041774409851
 20
-102.247677925827
 30
0.0
 10
305.8473089513159
 20
-101.9110920969181
 30
0.0
 10
306.3044731222086
 20
-101.7014580366406
 30
0.0
 10
306.8253715595783
 20
-101.6378960249378
 30
0.0
 10
306.9903916333218
 20
-101.6124023183469
 30
0.0
 10
307.130262510023
 20
-101.6062011464735
 30
0.0
 10
307.2318928268378
 20
-101.6062011464735
 30
0.0
 10
307.2318928268378
 20
-101.6062011464735
 30
0.0
 10
307.2318928268378
 20
-102.0633653173661
 30
0.0
 10
307.2318928268378
 20
-102.0633653173661
 30
0.0
  0
SPLINE
  5
299
330
28A
100
AcDbEntity
  8
Livello 1
370
     0
100
AcDbSpline
210
0.0
220
0.0
230
1.0
 70
     9
 71
     3
 72
    20
 73
    16
 74
     0
 42
0.000000001
 43
0.0000000001
 40
0.0
 40
0.0
 40
0.0
 40
0.0
 40
1.0
 40
1.0
 40
1.0
 40
2.0
 40
2.0
 40
2.0
 40
3.0
 40
3.0
 40
3.0
 40
4.0
 40
4.0
 40
4.0
 40
5.0
 40
5.0
 40
5.0
 40
5.0
 10
307.0730739249678
 20
-104.4454765906421
 30
0.0
 10
307.0730739249678
 20
-103.8546427149218
 30
0.0
 10
306.736488096059
 20
-103.4989366060697
 30
0.0
 10
306.2217908305626
 20
-103.4989366060697
 30
0.0
 10
305.8852050016537
 20
-103.4989366060697
 30
0.0
 10
305.5741128793357
 20
-103.7085706663472
 30
0.0
 10
305.4214951493392
 20
-104.0070881901441
 30
0.0
 10
305.3835990990013
 20
-104.0706502018469
 30
0.0
 10
305.3581053924105
 20
-104.1531602387187
 30
0.0
 10
305.3581053924105
 20
-104.2547905555335
 30
0.0
 10
305.3708522457059
 20
-104.9345078947733
 30
0.0
 10
305.6819443680239
 20
-105.4362860522
 30
0.0
 10
306.2662325623223
 20
-105.4362860522
 30
0.0
 10
306.7492349493544
 20
-105.4362860522
 30
0.0
 10
307.0730739249678
 20
-105.0361382115882
 30
0.0
 10
307.0730739249678
 20
-104.4454765906421
 30
0.0
  0
HATCH
  5
29A
330
28A
100
AcDbEntity
  8
Livello 1
 62
   250
420
  1842203
100
AcDbHatch
 10
0.0
 20
0.0
 30
0.0
210
0.0
220
0.0
230
1.0
  2
SOLID
 70
     1
 71
     0
 91
        2
 92
        1
 93
        1
 72
     4
 94
        3
 73
     0
 74
     0
 95
       38
 96
       34
 40
0.0
 40
0.0
 40
0.0
 40
0.0
 40
1.0
 40
1.0
 40
1.0
 40
2.0
 40
2.0
 40
2.0
 40
3.0
 40
3.0
 40
3.0
 40
4.0
 40
4.0
 40
4.0
 40
5.0
 40
5.0
 40
5.0
 40
6.0
 40
6.0
 40
6.0
 40
7.0
 40
7.0
 40
7.0
 40
8.0
 40
8.0
 40
8.0
 40
9.0
 40
9.0
 40
9.0
 40
10.0
 40
10.0
 40
10.0
 40
11.0
 40
11.0
 40
11.0
 40
11.0
 10
307.2318928268378
 20
-102.0633653173661
 10
307.1175156567276
 20
-102.0571641454927
 10
306.971443608153
 20
-102.0633653173661
 10
306.812624706283
 20
-102.088859023957
 10
305.9361924148354
 20
-102.2349310725316
 10
305.4724825625208
 20
-102.8764078518851
 10
305.3770534175793
 20
-103.5561251911249
 10
305.3770534175793
 20
-103.5561251911249
 10
305.3963459522968
 20
-103.5561251911249
 10
305.3963459522968
 20
-103.5561251911249
 10
305.5930609045045
 20
-103.29567597244
 10
305.9361924148354
 20
-103.0796684855148
 10
306.393356585728
 20
-103.0796684855148
 10
307.1240613381495
 20
-103.0796684855148
 10
307.6384140940974
 20
-103.6069403495323
 10
307.6384140940974
 20
-104.4136094574036
 10
307.6384140940974
 20
-105.1694634068674
 10
307.1240613381495
 20
-105.8683010260503
 10
306.2662325623223
 20
-105.8683010260503
 10
305.3835990990013
 20
-105.8683010260503
 10
304.8055120765764
 20
-105.1822102601628
 10
304.8055120765764
 20
-104.1087185069589
 10
304.8055120765764
 20
-103.29567597244
 10
305.0976561737256
 20
-102.6541991930865
 10
305.5041774409851
 20
-102.247677925827
 10
305.8473089513159
 20
-101.9110920969181
 10
306.3044731222086
 20
-101.7014580366406
 10
306.8253715595783
 20
-101.6378960249378
 10
306.9903916333218
 20
-101.6124023183469
 10
307.130262510023
 20
-101.6062011464735
 10
307.2318928268378
 20
-101.6062011464735
 10
307.2318928268378
 20
-101.6062011464735
 10
307.2318928268378
 20
-102.0633653173661
 10
307.2318928268378
 20
-102.0633653173661
 97
        0
 97
        0
 92
        1
 93
        1
 72
     4
 94
        3
 73
     0
 74
     0
 95
       20
 96
       16
 40
0.0
 40
0.0
 40
0.0
 40
0.0
 40
1.0
 40
1.0
 40
1.0
 40
2.0
 40
2.0
 40
2.0
 40
3.0
 40
3.0
 40
3.0
 40
4.0
 40
4.0
 40
4.0
 40
5.0
 40
5.0
 40
5.0
 40
5.0
 10
307.0730739249678
 20
-104.4454765906421
 10
307.0730739249678
 20
-103.8546427149218
 10
306.736488096059
 20
-103.4989366060697
 10
306.2217908305626
 20
-103.4989366060697
 10
305.8852050016537
 20
-103.4989366060697
 10
305.5741128793357
 20
-103.7085706663472
 10
305.4214951493392
 20
-104.0070881901441
 10
305.3835990990013
 20
-104.0706502018469
 10
305.3581053924105
 20
-104.1531602387187
 10
305.3581053924105
 20
-104.2547905555335
 10
305.3708522457059
 20
-104.9345078947733
 10
305.6819443680239
 20
-105.4362860522
 10
306.2662325623223
 20
-105.4362860522
 10
306.7492349493544
 20
-105.4362860522
 10
307.0730739249678
 20
-105.0361382115882
 10
307.0730739249678
 20
-104.4454765906421
 97
        0
 97
        0
 75
     2
 76
     1
 98
        0
450
        0
451
        0
460
0.0
461
0.0
452
        0
462
0.0
453
        0
470

  0
SPLINE
  5
29B
330
28A
100
AcDbEntity
  8
Livello 1
370
     0
100
AcDbSpline
210
0.0
220
0.0
230
1.0
 70
     9
 71
     3
 72
    80
 73
    76
 74
     0
 42
0.000000001
 43
0.0000000001
 40
0.0
 40
0.0
 40
0.0
 40
0.0
 40
1.0
 40
1.0
 40
1.0
 40
2.0
 40
2.0
 40
2.0
 40
3.0
 40
3.0
 40
3.0
 40
4.0
 40
4.0
 40
4.0
 40
5.0
 40
5.0
 40
5.0
 40
6.0
 40
6.0
 40
6.0
 40
7.0
 40
7.0
 40
7.0
 40
8.0
 40
8.0
 40
8.0
 40
9.0
 40
9.0
 40
9.0
 40
10.0
 40
10.0
 40
10.0
 40
11.0
 40
11.0
 40
11.0
 40
12.0
 40
12.0
 40
12.0
 40
13.0
 40
13.0
 40
13.0
 40
14.0
 40
14.0
 40
14.0
 40
15.0
 40
15.0
 40
15.0
 40
16.0
 40
16.0
 40
16.0
 40
17.0
 40
17.0
 40
17.0
 40
18.0
 40
18.0
 40
18.0
 40
19.0
 40
19.0
 40
19.0
 40
20.0
 40
20.0
 40
20.0
 40
21.0
 40
21.0
 40
21.0
 40
22.0
 40
22.0
 40
22.0
 40
23.0
 40
23.0
 40
23.0
 40
24.0
 40
24.0
 40
24.0
 40
25.0
 40
25.0
 40
25.0
 40
25.0
 10
309.6568955389052
 20
-103.5561251911249
 30
0.0
 10
309.6568955389052
 20
-103.2384873873848
 30
0.0
 10
309.6506943670318
 20
-102.9780381686999
 30
0.0
 10
309.6314018323144
 20
-102.724134631437
 30
0.0
 10
309.6314018323144
 20
-102.724134631437
 30
0.0
 10
310.1206053912199
 20
-102.724134631437
 30
0.0
 10
310.1206053912199
 20
-102.724134631437
 30
0.0
 10
310.1206053912199
 20
-102.724134631437
 30
0.0
 10
310.1460990978107
 20
-103.219539362216
 30
0.0
 10
310.1460990978107
 20
-103.219539362216
 30
0.0
 10
310.1460990978107
 20
-103.219539362216
 30
0.0
 10
310.1650471229796
 20
-103.219539362216
 30
0.0
 10
310.1650471229796
 20
-103.219539362216
 30
0.0
 10
310.336612878145
 20
-102.9273952650668
 30
0.0
 10
310.6222112938722
 20
-102.6541991930865
 30
0.0
 10
311.1303628779467
 20
-102.6541991930865
 30
0.0
 10
311.5496309985015
 20
-102.6541991930865
 30
0.0
 10
311.8672688022416
 20
-102.9082749851236
 30
0.0
 10
312.0005939975207
 20
-103.2703545206234
 30
0.0
 10
312.0005939975207
 20
-103.2703545206234
 30
0.0
 10
312.0133408508161
 20
-103.2703545206234
 30
0.0
 10
312.0133408508161
 20
-103.2703545206234
 30
0.0
 10
312.1087699957575
 20
-103.0987887654579
 30
0.0
 10
312.2293483377413
 20
-102.9654635701788
 30
0.0
 10
312.356472361147
 20
-102.8702066800116
 30
0.0
 10
312.5407849696079
 20
-102.7303358033105
 30
0.0
 10
312.7440456032376
 20
-102.6541991930865
 30
0.0
 10
313.0361897003868
 20
-102.6541991930865
 30
0.0
 10
313.4427109676463
 20
-102.6541991930865
 30
0.0
 10
314.0459471871135
 20
-102.9210218384191
 30
0.0
 10
314.0459471871135
 20
-103.9881401649752
 30
0.0
 10
314.0459471871135
 20
-103.9881401649752
 30
0.0
 10
314.0459471871135
 20
-105.7983655876997
 30
0.0
 10
314.0459471871135
 20
-105.7983655876997
 30
0.0
 10
314.0459471871135
 20
-105.7983655876997
 30
0.0
 10
313.4998995527014
 20
-105.7983655876997
 30
0.0
 10
313.4998995527014
 20
-105.7983655876997
 30
0.0
 10
313.4998995527014
 20
-105.7983655876997
 30
0.0
 10
313.4998995527014
 20
-104.0579033485515
 30
0.0
 10
313.4998995527014
 20
-104.0579033485515
 30
0.0
 10
313.4998995527014
 20
-103.4672417276054
 30
0.0
 10
313.2838920657763
 20
-103.1115356187534
 30
0.0
 10
312.8329290667571
 20
-103.1115356187534
 30
0.0
 10
312.515291263017
 20
-103.1115356187534
 30
0.0
 10
312.2675888976275
 20
-103.3464911308474
 30
0.0
 10
312.1721597526861
 20
-103.6196872028277
 30
0.0
 10
312.1466660460953
 20
-103.6958238130517
 30
0.0
 10
312.1277180209264
 20
-103.7974541298666
 30
0.0
 10
312.1277180209264
 20
-103.8990844466815
 30
0.0
 10
312.1277180209264
 20
-103.8990844466815
 30
0.0
 10
312.1277180209264
 20
-105.7983655876997
 30
0.0
 10
312.1277180209264
 20
-105.7983655876997
 30
0.0
 10
312.1277180209264
 20
-105.7983655876997
 30
0.0
 10
311.5813258769658
 20
-105.7983655876997
 30
0.0
 10
311.5813258769658
 20
-105.7983655876997
 30
0.0
 10
311.5813258769658
 20
-105.7983655876997
 30
0.0
 10
311.5813258769658
 20
-103.9562730317366
 30
0.0
 10
311.5813258769658
 20
-103.9562730317366
 30
0.0
 10
311.5813258769658
 20
-103.4672417276054
 30
0.0
 10
311.3656628995892
 20
-103.1115356187534
 30
0.0
 10
310.9398490976123
 20
-103.1115356187534
 30
0.0
 10
310.5905164154079
 20
-103.1115356187534
 30
0.0
 10
310.336612878145
 20
-103.3909328626071
 30
0.0
 10
310.2477294146256
 20
-103.6705023612352
 30
0.0
 10
310.2156900266128
 20
-103.7530123981069
 30
0.0
 10
310.2032876828658
 20
-103.8482692882741
 30
0.0
 10
310.2032876828658
 20
-103.9436984332155
 30
0.0
 10
310.2032876828658
 20
-103.9436984332155
 30
0.0
 10
310.2032876828658
 20
-105.7983655876997
 30
0.0
 10
310.2032876828658
 20
-105.7983655876997
 30
0.0
 10
310.2032876828658
 20
-105.7983655876997
 30
0.0
 10
309.6568955389052
 20
-105.7983655876997
 30
0.0
 10
309.6568955389052
 20
-105.7983655876997
 30
0.0
 10
309.6568955389052
 20
-105.7983655876997
 30
0.0
 10
309.6568955389052
 20
-103.5561251911249
 30
0.0
 10
309.6568955389052
 20
-103.5561251911249
 30
0.0
  0
HATCH
  5
29C
330
28A
100
AcDbEntity
  8
Livello 1
 62
   250
420
  1842203
100
AcDbHatch
 10
0.0
 20
0.0
 30
0.0
210
0.0
220
0.0
230
1.0
  2
SOLID
 70
     1
 71
     0
 91
        1
 92
        1
 93
        1
 72
     4
 94
        3
 73
     0
 74
     0
 95
       80
 96
       76
 40
0.0
 40
0.0
 40
0.0
 40
0.0
 40
1.0
 40
1.0
 40
1.0
 40
2.0
 40
2.0
 40
2.0
 40
3.0
 40
3.0
 40
3.0
 40
4.0
 40
4.0
 40
4.0
 40
5.0
 40
5.0
 40
5.0
 40
6.0
 40
6.0
 40
6.0
 40
7.0
 40
7.0
 40
7.0
 40
8.0
 40
8.0
 40
8.0
 40
9.0
 40
9.0
 40
9.0
 40
10.0
 40
10.0
 40
10.0
 40
11.0
 40
11.0
 40
11.0
 40
12.0
 40
12.0
 40
12.0
 40
13.0
 40
13.0
 40
13.0
 40
14.0
 40
14.0
 40
14.0
 40
15.0
 40
15.0
 40
15.0
 40
16.0
 40
16.0
 40
16.0
 40
17.0
 40
17.0
 40
17.0
 40
18.0
 40
18.0
 40
18.0
 40
19.0
 40
19.0
 40
19.0
 40
20.0
 40
20.0
 40
20.0
 40
21.0
 40
21.0
 40
21.0
 40
22.0
 40
22.0
 40
22.0
 40
23.0
 40
23.0
 40
23.0
 40
24.0
 40
24.0
 40
24.0
 40
25.0
 40
25.0
 40
25.0
 40
25.0
 10
309.6568955389052
 20
-103.5561251911249
 10
309.6568955389052
 20
-103.2384873873848
 10
309.6506943670318
 20
-102.9780381686999
 10
309.6314018323144
 20
-102.724134631437
 10
309.6314018323144
 20
-102.724134631437
 10
310.1206053912199
 20
-102.724134631437
 10
310.1206053912199
 20
-102.724134631437
 10
310.1206053912199
 20
-102.724134631437
 10
310.1460990978107
 20
-103.219539362216
 10
310.1460990978107
 20
-103.219539362216
 10
310.1460990978107
 20
-103.219539362216
 10
310.1650471229796
 20
-103.219539362216
 10
310.1650471229796
 20
-103.219539362216
 10
310.336612878145
 20
-102.9273952650668
 10
310.6222112938722
 20
-102.6541991930865
 10
311.1303628779467
 20
-102.6541991930865
 10
311.5496309985015
 20
-102.6541991930865
 10
311.8672688022416
 20
-102.9082749851236
 10
312.0005939975207
 20
-103.2703545206234
 10
312.0005939975207
 20
-103.2703545206234
 10
312.0133408508161
 20
-103.2703545206234
 10
312.0133408508161
 20
-103.2703545206234
 10
312.1087699957575
 20
-103.0987887654579
 10
312.2293483377413
 20
-102.9654635701788
 10
312.356472361147
 20
-102.8702066800116
 10
312.5407849696079
 20
-102.7303358033105
 10
312.7440456032376
 20
-102.6541991930865
 10
313.0361897003868
 20
-102.6541991930865
 10
313.4427109676463
 20
-102.6541991930865
 10
314.0459471871135
 20
-102.9210218384191
 10
314.0459471871135
 20
-103.9881401649752
 10
314.0459471871135
 20
-103.9881401649752
 10
314.0459471871135
 20
-105.7983655876997
 10
314.0459471871135
 20
-105.7983655876997
 10
314.0459471871135
 20
-105.7983655876997
 10
313.4998995527014
 20
-105.7983655876997
 10
313.4998995527014
 20
-105.7983655876997
 10
313.4998995527014
 20
-105.7983655876997
 10
313.4998995527014
 20
-104.0579033485515
 10
313.4998995527014
 20
-104.0579033485515
 10
313.4998995527014
 20
-103.4672417276054
 10
313.2838920657763
 20
-103.1115356187534
 10
312.8329290667571
 20
-103.1115356187534
 10
312.515291263017
 20
-103.1115356187534
 10
312.2675888976275
 20
-103.3464911308474
 10
312.1721597526861
 20
-103.6196872028277
 10
312.1466660460953
 20
-103.6958238130517
 10
312.1277180209264
 20
-103.7974541298666
 10
312.1277180209264
 20
-103.8990844466815
 10
312.1277180209264
 20
-103.8990844466815
 10
312.1277180209264
 20
-105.7983655876997
 10
312.1277180209264
 20
-105.7983655876997
 10
312.1277180209264
 20
-105.7983655876997
 10
311.5813258769658
 20
-105.7983655876997
 10
311.5813258769658
 20
-105.7983655876997
 10
311.5813258769658
 20
-105.7983655876997
 10
311.5813258769658
 20
-103.9562730317366
 10
311.5813258769658
 20
-103.9562730317366
 10
311.5813258769658
 20
-103.4672417276054
 10
311.3656628995892
 20
-103.1115356187534
 10
310.9398490976123
 20
-103.1115356187534
 10
310.5905164154079
 20
-103.1115356187534
 10
310.336612878145
 20
-103.3909328626071
 10
310.2477294146256
 20
-103.6705023612352
 10
310.2156900266128
 20
-103.7530123981069
 10
310.2032876828658
 20
-103.8482692882741
 10
310.2032876828658
 20
-103.9436984332155
 10
310.2032876828658
 20
-103.9436984332155
 10
310.2032876828658
 20
-105.7983655876997
 10
310.2032876828658
 20
-105.7983655876997
 10
310.2032876828658
 20
-105.7983655876997
 10
309.6568955389052
 20
-105.7983655876997
 10
309.6568955389052
 20
-105.7983655876997
 10
309.6568955389052
 20
-105.7983655876997
 10
309.6568955389052
 20
-103.5561251911249
 10
309.6568955389052
 20
-103.5561251911249
 97
        0
 97
        0
 75
     2
 76
     1
 98
        0
450
        0
451
        0
460
0.0
461
0.0
452
        0
462
0.0
453
        0
470

  0
SPLINE
  5
29D
330
28A
100
AcDbEntity
  8
Livello 1
370
     0
100
AcDbSpline
210
0.0
220
0.0
230
1.0
 70
     9
 71
     3
 72
    80
 73
    76
 74
     0
 42
0.000000001
 43
0.0000000001
 40
0.0
 40
0.0
 40
0.0
 40
0.0
 40
1.0
 40
1.0
 40
1.0
 40
2.0
 40
2.0
 40
2.0
 40
3.0
 40
3.0
 40
3.0
 40
4.0
 40
4.0
 40
4.0
 40
5.0
 40
5.0
 40
5.0
 40
6.0
 40
6.0
 40
6.0
 40
7.0
 40
7.0
 40
7.0
 40
8.0
 40
8.0
 40
8.0
 40
9.0
 40
9.0
 40
9.0
 40
10.0
 40
10.0
 40
10.0
 40
11.0
 40
11.0
 40
11.0
 40
12.0
 40
12.0
 40
12.0
 40
13.0
 40
13.0
 40
13.0
 40
14.0
 40
14.0
 40
14.0
 40
15.0
 40
15.0
 40
15.0
 40
16.0
 40
16.0
 40
16.0
 40
17.0
 40
17.0
 40
17.0
 40
18.0
 40
18.0
 40
18.0
 40
19.0
 40
19.0
 40
19.0
 40
20.0
 40
20.0
 40
20.0
 40
21.0
 40
21.0
 40
21.0
 40
22.0
 40
22.0
 40
22.0
 40
23.0
 40
23.0
 40
23.0
 40
24.0
 40
24.0
 40
24.0
 40
25.0
 40
25.0
 40
25.0
 40
25.0
 10
314.9526963188313
 20
-103.5561251911249
 30
0.0
 10
314.9526963188313
 20
-103.2384873873848
 30
0.0
 10
314.9464951469578
 20
-102.9780381686999
 30
0.0
 10
314.9272026122404
 20
-102.724134631437
 30
0.0
 10
314.9272026122404
 20
-102.724134631437
 30
0.0
 10
315.4164061711459
 20
-102.724134631437
 30
0.0
 10
315.4164061711459
 20
-102.724134631437
 30
0.0
 10
315.4164061711459
 20
-102.724134631437
 30
0.0
 10
315.4418998777368
 20
-103.219539362216
 30
0.0
 10
315.4418998777368
 20
-103.219539362216
 30
0.0
 10
315.4418998777368
 20
-103.219539362216
 30
0.0
 10
315.4608479029056
 20
-103.219539362216
 30
0.0
 10
315.4608479029056
 20
-103.219539362216
 30
0.0
 10
315.6324136580711
 20
-102.9273952650668
 30
0.0
 10
315.9180120737983
 20
-102.6541991930865
 30
0.0
 10
316.4261636578726
 20
-102.6541991930865
 30
0.0
 10
316.8454317784276
 20
-102.6541991930865
 30
0.0
 10
317.1630695821676
 20
-102.9082749851236
 30
0.0
 10
317.2963947774467
 20
-103.2703545206234
 30
0.0
 10
317.2963947774467
 20
-103.2703545206234
 30
0.0
 10
317.3091416307421
 20
-103.2703545206234
 30
0.0
 10
317.3091416307421
 20
-103.2703545206234
 30
0.0
 10
317.4045707756836
 20
-103.0987887654579
 30
0.0
 10
317.5251491176674
 20
-102.9654635701788
 30
0.0
 10
317.6522731410731
 20
-102.8702066800116
 30
0.0
 10
317.8365857495339
 20
-102.7303358033105
 30
0.0
 10
318.0398463831636
 20
-102.6541991930865
 30
0.0
 10
318.3319904803129
 20
-102.6541991930865
 30
0.0
 10
318.7385117475723
 20
-102.6541991930865
 30
0.0
 10
319.3417479670396
 20
-102.9210218384191
 30
0.0
 10
319.3417479670396
 20
-103.9881401649752
 30
0.0
 10
319.3417479670396
 20
-103.9881401649752
 30
0.0
 10
319.3417479670396
 20
-105.7983655876997
 30
0.0
 10
319.3417479670396
 20
-105.7983655876997
 30
0.0
 10
319.3417479670396
 20
-105.7983655876997
 30
0.0
 10
318.7957003326275
 20
-105.7983655876997
 30
0.0
 10
318.7957003326275
 20
-105.7983655876997
 30
0.0
 10
318.7957003326275
 20
-105.7983655876997
 30
0.0
 10
318.7957003326275
 20
-104.0579033485515
 30
0.0
 10
318.7957003326275
 20
-104.0579033485515
 30
0.0
 10
318.7957003326275
 20
-103.4672417276054
 30
0.0
 10
318.5796928457023
 20
-103.1115356187534
 30
0.0
 10
318.1287298466831
 20
-103.1115356187534
 30
0.0
 10
317.8110920429431
 20
-103.1115356187534
 30
0.0
 10
317.5633896775536
 20
-103.3464911308474
 30
0.0
 10
317.4679605326122
 20
-103.6196872028277
 30
0.0
 10
317.4424668260213
 20
-103.6958238130517
 30
0.0
 10
317.4235188008525
 20
-103.7974541298666
 30
0.0
 10
317.4235188008525
 20
-103.8990844466815
 30
0.0
 10
317.4235188008525
 20
-103.8990844466815
 30
0.0
 10
317.4235188008525
 20
-105.7983655876997
 30
0.0
 10
317.4235188008525
 20
-105.7983655876997
 30
0.0
 10
317.4235188008525
 20
-105.7983655876997
 30
0.0
 10
316.8771266568918
 20
-105.7983655876997
 30
0.0
 10
316.8771266568918
 20
-105.7983655876997
 30
0.0
 10
316.8771266568918
 20
-105.7983655876997
 30
0.0
 10
316.8771266568918
 20
-103.9562730317366
 30
0.0
 10
316.8771266568918
 20
-103.9562730317366
 30
0.0
 10
316.8771266568918
 20
-103.4672417276054
 30
0.0
 10
316.6614636795152
 20
-103.1115356187534
 30
0.0
 10
316.2356498775383
 20
-103.1115356187534
 30
0.0
 10
315.886317195334
 20
-103.1115356187534
 30
0.0
 10
315.6324136580711
 20
-103.3909328626071
 30
0.0
 10
315.5435301945516
 20
-103.6705023612352
 30
0.0
 10
315.5114908065388
 20
-103.7530123981069
 30
0.0
 10
315.4990884627919
 20
-103.8482692882741
 30
0.0
 10
315.4990884627919
 20
-103.9436984332155
 30
0.0
 10
315.4990884627919
 20
-103.9436984332155
 30
0.0
 10
315.4990884627919
 20
-105.7983655876997
 30
0.0
 10
315.4990884627919
 20
-105.7983655876997
 30
0.0
 10
315.4990884627919
 20
-105.7983655876997
 30
0.0
 10
314.9526963188313
 20
-105.7983655876997
 30
0.0
 10
314.9526963188313
 20
-105.7983655876997
 30
0.0
 10
314.9526963188313
 20
-105.7983655876997
 30
0.0
 10
314.9526963188313
 20
-103.5561251911249
 30
0.0
 10
314.9526963188313
 20
-103.5561251911249
 30
0.0
  0
HATCH
  5
29E
330
28A
100
AcDbEntity
  8
Livello 1
 62
   250
420
  1842203
100
AcDbHatch
 10
0.0
 20
0.0
 30
0.0
210
0.0
220
0.0
230
1.0
  2
SOLID
 70
     1
 71
     0
 91
        1
 92
        1
 93
        1
 72
     4
 94
        3
 73
     0
 74
     0
 95
       80
 96
       76
 40
0.0
 40
0.0
 40
0.0
 40
0.0
 40
1.0
 40
1.0
 40
1.0
 40
2.0
 40
2.0
 40
2.0
 40
3.0
 40
3.0
 40
3.0
 40
4.0
 40
4.0
 40
4.0
 40
5.0
 40
5.0
 40
5.0
 40
6.0
 40
6.0
 40
6.0
 40
7.0
 40
7.0
 40
7.0
 40
8.0
 40
8.0
 40
8.0
 40
9.0
 40
9.0
 40
9.0
 40
10.0
 40
10.0
 40
10.0
 40
11.0
 40
11.0
 40
11.0
 40
12.0
 40
12.0
 40
12.0
 40
13.0
 40
13.0
 40
13.0
 40
14.0
 40
14.0
 40
14.0
 40
15.0
 40
15.0
 40
15.0
 40
16.0
 40
16.0
 40
16.0
 40
17.0
 40
17.0
 40
17.0
 40
18.0
 40
18.0
 40
18.0
 40
19.0
 40
19.0
 40
19.0
 40
20.0
 40
20.0
 40
20.0
 40
21.0
 40
21.0
 40
21.0
 40
22.0
 40
22.0
 40
22.0
 40
23.0
 40
23.0
 40
23.0
 40
24.0
 40
24.0
 40
24.0
 40
25.0
 40
25.0
 40
25.0
 40
25.0
 10
314.9526963188313
 20
-103.5561251911249
 10
314.9526963188313
 20
-103.2384873873848
 10
314.9464951469578
 20
-102.9780381686999
 10
314.9272026122404
 20
-102.724134631437
 10
314.9272026122404
 20
-102.724134631437
 10
315.4164061711459
 20
-102.724134631437
 10
315.4164061711459
 20
-102.724134631437
 10
315.4164061711459
 20
-102.724134631437
 10
315.4418998777368
 20
-103.219539362216
 10
315.4418998777368
 20
-103.219539362216
 10
315.4418998777368
 20
-103.219539362216
 10
315.4608479029056
 20
-103.219539362216
 10
315.4608479029056
 20
-103.219539362216
 10
315.6324136580711
 20
-102.9273952650668
 10
315.9180120737983
 20
-102.6541991930865
 10
316.4261636578726
 20
-102.6541991930865
 10
316.8454317784276
 20
-102.6541991930865
 10
317.1630695821676
 20
-102.9082749851236
 10
317.2963947774467
 20
-103.2703545206234
 10
317.2963947774467
 20
-103.2703545206234
 10
317.3091416307421
 20
-103.2703545206234
 10
317.3091416307421
 20
-103.2703545206234
 10
317.4045707756836
 20
-103.0987887654579
 10
317.5251491176674
 20
-102.9654635701788
 10
317.6522731410731
 20
-102.8702066800116
 10
317.8365857495339
 20
-102.7303358033105
 10
318.0398463831636
 20
-102.6541991930865
 10
318.3319904803129
 20
-102.6541991930865
 10
318.7385117475723
 20
-102.6541991930865
 10
319.3417479670396
 20
-102.9210218384191
 10
319.3417479670396
 20
-103.9881401649752
 10
319.3417479670396
 20
-103.9881401649752
 10
319.3417479670396
 20
-105.7983655876997
 10
319.3417479670396
 20
-105.7983655876997
 10
319.3417479670396
 20
-105.7983655876997
 10
318.7957003326275
 20
-105.7983655876997
 10
318.7957003326275
 20
-105.7983655876997
 10
318.7957003326275
 20
-105.7983655876997
 10
318.7957003326275
 20
-104.0579033485515
 10
318.7957003326275
 20
-104.0579033485515
 10
318.7957003326275
 20
-103.4672417276054
 10
318.5796928457023
 20
-103.1115356187534
 10
318.1287298466831
 20
-103.1115356187534
 10
317.8110920429431
 20
-103.1115356187534
 10
317.5633896775536
 20
-103.3464911308474
 10
317.4679605326122
 20
-103.6196872028277
 10
317.4424668260213
 20
-103.6958238130517
 10
317.4235188008525
 20
-103.7974541298666
 10
317.4235188008525
 20
-103.8990844466815
 10
317.4235188008525
 20
-103.8990844466815
 10
317.4235188008525
 20
-105.7983655876997
 10
317.4235188008525
 20
-105.7983655876997
 10
317.4235188008525
 20
-105.7983655876997
 10
316.8771266568918
 20
-105.7983655876997
 10
316.8771266568918
 20
-105.7983655876997
 10
316.8771266568918
 20
-105.7983655876997
 10
316.8771266568918
 20
-103.9562730317366
 10
316.8771266568918
 20
-103.9562730317366
 10
316.8771266568918
 20
-103.4672417276054
 10
316.6614636795152
 20
-103.1115356187534
 10
316.2356498775383
 20
-103.1115356187534
 10
315.886317195334
 20
-103.1115356187534
 10
315.6324136580711
 20
-103.3909328626071
 10
315.5435301945516
 20
-103.6705023612352
 10
315.5114908065388
 20
-103.7530123981069
 10
315.4990884627919
 20
-103.8482692882741
 10
315.4990884627919
 20
-103.9436984332155
 10
315.4990884627919
 20
-103.9436984332155
 10
315.4990884627919
 20
-105.7983655876997
 10
315.4990884627919
 20
-105.7983655876997
 10
315.4990884627919
 20
-105.7983655876997
 10
314.9526963188313
 20
-105.7983655876997
 10
314.9526963188313
 20
-105.7983655876997
 10
314.9526963188313
 20
-105.7983655876997
 10
314.9526963188313
 20
-103.5561251911249
 10
314.9526963188313
 20
-103.5561251911249
 97
        0
 97
        0
 75
     2
 76
     1
 98
        0
450
        0
451
        0
460
0.0
461
0.0
452
        0
462
0.0
453
        0
470

  0
ENDBLK
  5
29F
330
28A
100
AcDbEntity
  8
0
100
AcDbBlockEnd
  0
BLOCK
  5
2A1
330
2A0
100
AcDbEntity
  8
0
100
AcDbBlockBegin
  2
block 98
 70
     0
 10
0.0
 20
0.0
 30
0.0
  3
block 98
  1

  0
POLYLINE
  5
2A2
330
2A0
100
AcDbEntity
  8
Livello 1
370
     0
100
AcDb2dPolyline
 66
     1
 10
0.0
 20
0.0
 30
0.0
  0
VERTEX
  5
2A3
330
2A2
100
AcDbEntity
  8
Livello 1
370
     0
100
AcDbVertex
100
AcDb2dVertex
 10
287.9107638169112
 20
-87.20087888444979
 30
0.0
  0
VERTEX
  5
2A4
330
2A2
100
AcDbEntity
  8
Livello 1
370
     0
100
AcDbVertex
100
AcDb2dVertex
 10
287.9107638169112
 20
-87.2136257377452
 30
0.0
  0
VERTEX
  5
2A5
330
2A2
100
AcDbEntity
  8
Livello 1
370
     0
100
AcDbVertex
100
AcDb2dVertex
 10
288.2981648042276
 20
-87.93123912732275
 30
0.0
  0
VERTEX
  5
2A6
330
2A2
100
AcDbEntity
  8
Livello 1
370
     0
100
AcDbVertex
100
AcDb2dVertex
 10
287.8726955117992
 20
-88.03907061601107
 30
0.0
  0
VERTEX
  5
2A7
330
2A2
100
AcDbEntity
  8
Livello 1
370
     0
100
AcDbVertex
100
AcDb2dVertex
 10
287.3898653795413
 20
-87.13714461797268
 30
0.0
  0
VERTEX
  5
2A8
330
2A2
100
AcDbEntity
  8
Livello 1
370
     0
100
AcDbVertex
100
AcDb2dVertex
 10
287.3898653795413
 20
-86.66103242191113
 30
0.0
  0
VERTEX
  5
2A9
330
2A2
100
AcDbEntity
  8
Livello 1
370
     0
100
AcDbVertex
100
AcDb2dVertex
 10
291.5186400638391
 20
-86.66103242191113
 30
0.0
  0
VERTEX
  5
2AA
330
2A2
100
AcDbEntity
  8
Livello 1
370
     0
100
AcDbVertex
100
AcDb2dVertex
 10
291.5186400638391
 20
-87.20087888444979
 30
0.0
  0
VERTEX
  5
2AB
330
2A2
100
AcDbEntity
  8
Livello 1
370
     0
100
AcDbVertex
100
AcDb2dVertex
 10
287.9107638169112
 20
-87.20087888444979
 30
0.0
  0
SEQEND
  5
2AC
330
2A2
100
AcDbEntity
  8
Livello 1
370
     0
  0
HATCH
  5
2AD
330
2A0
100
AcDbEntity
  8
Livello 1
 62
   250
420
  1842203
100
AcDbHatch
 10
0.0
 20
0.0
 30
0.0
210
0.0
220
0.0
230
1.0
  2
SOLID
 70
     1
 71
     0
 91
        1
 92
        1
 93
        8
 72
     1
 10
287.9107638169112
 20
-87.20087888444979
 11
287.9107638169112
 21
-87.2136257377452
 72
     1
 10
287.9107638169112
 20
-87.2136257377452
 11
288.2981648042276
 21
-87.93123912732275
 72
     1
 10
288.2981648042276
 20
-87.93123912732275
 11
287.8726955117992
 21
-88.03907061601107
 72
     1
 10
287.8726955117992
 20
-88.03907061601107
 11
287.3898653795413
 21
-87.13714461797268
 72
     1
 10
287.3898653795413
 20
-87.13714461797268
 11
287.3898653795413
 21
-86.66103242191113
 72
     1
 10
287.3898653795413
 20
-86.66103242191113
 11
291.5186400638391
 21
-86.66103242191113
 72
     1
 10
291.5186400638391
 20
-86.66103242191113
 11
291.5186400638391
 21
-87.20087888444979
 72
     1
 10
291.5186400638391
 20
-87.20087888444979
 11
287.9107638169112
 21
-87.20087888444979
 97
        0
 75
     2
 76
     1
 98
        0
450
        0
451
        0
460
0.0
461
0.0
452
        0
462
0.0
453
        0
470

  0
SPLINE
  5
2AE
330
2A0
100
AcDbEntity
  8
Livello 1
370
     0
100
AcDbSpline
210
0.0
220
0.0
230
1.0
 70
     9
 71
     3
 72
    35
 73
    31
 74
     0
 42
0.000000001
 43
0.0000000001
 40
0.0
 40
0.0
 40
0.0
 40
0.0
 40
1.0
 40
1.0
 40
1.0
 40
2.0
 40
2.0
 40
2.0
 40
3.0
 40
3.0
 40
3.0
 40
4.0
 40
4.0
 40
4.0
 40
5.0
 40
5.0
 40
5.0
 40
6.0
 40
6.0
 40
6.0
 40
7.0
 40
7.0
 40
7.0
 40
8.0
 40
8.0
 40
8.0
 40
9.0
 40
9.0
 40
9.0
 40
10.0
 40
10.0
 40
10.0
 40
10.0
 10
290.4706420172262
 20
-85.20754663668425
 30
0.0
 10
289.9497435798563
 20
-85.20754663668425
 30
0.0
 10
289.5812906177089
 20
-84.89611000481763
 30
0.0
 10
289.3652831307837
 20
-84.38795842074329
 30
0.0
 10
289.3652831307837
 20
-84.38795842074329
 30
0.0
 10
289.3463351056148
 20
-84.39450410216528
 30
0.0
 10
289.3463351056148
 20
-84.39450410216528
 30
0.0
 10
289.1303276186896
 20
-84.85166827305793
 30
0.0
 10
288.7746215098376
 20
-85.04872773481421
 30
0.0
 10
288.4189154009856
 20
-85.04872773481421
 30
0.0
 10
287.7646917683367
 20
-85.04872773481421
 30
0.0
 10
287.3201021959651
 20
-84.49613441898012
 30
0.0
 10
287.3201021959651
 20
-83.77197534798062
 30
0.0
 10
287.3201021959651
 20
-82.97167966675708
 30
0.0
 10
287.8218803533917
 20
-82.57135957137105
 30
0.0
 10
288.3364053641138
 20
-82.57135957137105
 30
0.0
 10
288.6857380463181
 20
-82.57135957137105
 30
0.0
 10
289.0603921803391
 20
-82.74292532653651
 30
0.0
 10
289.3018933738551
 20
-83.25107691061084
 30
0.0
 10
289.3018933738551
 20
-83.25107691061084
 30
0.0
 10
289.3208413990238
 20
-83.25107691061084
 30
0.0
 10
289.3208413990238
 20
-83.25107691061084
 30
0.0
 10
289.5241020326537
 20
-82.73672415466306
 30
0.0
 10
289.8861815681535
 20
-82.419086350923
 30
0.0
 10
290.3879597255801
 20
-82.419086350923
 30
0.0
 10
291.1057453699319
 20
-82.419086350923
 30
0.0
 10
291.5885755021896
 20
-83.03506942368569
 30
0.0
 10
291.5885755021896
 20
-83.8226182516138
 30
0.0
 10
291.5885755021896
 20
-84.68664819931445
 30
0.0
 10
291.0740504914676
 20
-85.20754663668425
 30
0.0
 10
290.4706420172262
 20
-85.20754663668425
 30
0.0
  0
SPLINE
  5
2AF
330
2A0
100
AcDbEntity
  8
Livello 1
370
     0
100
AcDbSpline
210
0.0
220
0.0
230
1.0
 70
     9
 71
     3
 72
    17
 73
    13
 74
     0
 42
0.000000001
 43
0.0000000001
 40
0.0
 40
0.0
 40
0.0
 40
0.0
 40
1.0
 40
1.0
 40
1.0
 40
2.0
 40
2.0
 40
2.0
 40
3.0
 40
3.0
 40
3.0
 40
4.0
 40
4.0
 40
4.0
 40
4.0
 10
288.3808470958735
 20
-84.52162812557098
 30
0.0
 10
288.7937417897808
 20
-84.52162812557098
 30
0.0
 10
289.0159504485794
 20
-84.2101914937044
 30
0.0
 10
289.1430744719851
 20
-83.73373478809433
 30
0.0
 10
289.0223238752271
 20
-83.37820093401656
 30
0.0
 10
288.7682480831898
 20
-83.10500486203626
 30
0.0
 10
288.3934216943947
 20
-83.10500486203626
 30
0.0
 10
288.0632092921335
 20
-83.10500486203626
 30
0.0
 10
287.7202500365769
 20
-83.30206432379254
 30
0.0
 10
287.7202500365769
 20
-83.80367022644492
 30
0.0
 10
287.7202500365769
 20
-84.26738007875954
 30
0.0
 10
288.0251409870215
 20
-84.52162812557098
 30
0.0
 10
288.3808470958735
 20
-84.52162812557098
 30
0.0
  0
SPLINE
  5
2B0
330
2A0
100
AcDbEntity
  8
Livello 1
370
     0
100
AcDbSpline
210
0.0
220
0.0
230
1.0
 70
     9
 71
     3
 72
    17
 73
    13
 74
     0
 42
0.000000001
 43
0.0000000001
 40
0.0
 40
0.0
 40
0.0
 40
0.0
 40
1.0
 40
1.0
 40
1.0
 40
2.0
 40
2.0
 40
2.0
 40
3.0
 40
3.0
 40
3.0
 40
4.0
 40
4.0
 40
4.0
 40
4.0
 10
290.4451483106353
 20
-82.98442652005252
 30
0.0
 10
289.9433701532086
 20
-82.98442652005252
 30
0.0
 10
289.7020412144669
 20
-83.33375920225684
 30
0.0
 10
289.5432223125969
 20
-83.89255368996435
 30
0.0
 10
289.6829209345237
 20
-84.37555607699639
 30
0.0
 10
290.0005587382637
 20
-84.63566078613276
 30
0.0
 10
290.3943331522278
 20
-84.63566078613276
 30
0.0
 10
290.8136012727826
 20
-84.65495332085016
 30
0.0
 10
291.1820542349302
 20
-84.3373155171101
 30
0.0
 10
291.1820542349302
 20
-83.81021590786689
 30
0.0
 10
291.1820542349302
 20
-83.308265495666
 30
0.0
 10
290.8707898578379
 20
-82.98442652005252
 30
0.0
 10
290.4451483106353
 20
-82.98442652005252
 30
0.0
  0
HATCH
  5
2B1
330
2A0
100
AcDbEntity
  8
Livello 1
 62
   250
420
  1842203
100
AcDbHatch
 10
0.0
 20
0.0
 30
0.0
210
0.0
220
0.0
230
1.0
  2
SOLID
 70
     1
 71
     0
 91
        3
 92
        1
 93
        1
 72
     4
 94
        3
 73
     0
 74
     0
 95
       35
 96
       31
 40
0.0
 40
0.0
 40
0.0
 40
0.0
 40
1.0
 40
1.0
 40
1.0
 40
2.0
 40
2.0
 40
2.0
 40
3.0
 40
3.0
 40
3.0
 40
4.0
 40
4.0
 40
4.0
 40
5.0
 40
5.0
 40
5.0
 40
6.0
 40
6.0
 40
6.0
 40
7.0
 40
7.0
 40
7.0
 40
8.0
 40
8.0
 40
8.0
 40
9.0
 40
9.0
 40
9.0
 40
10.0
 40
10.0
 40
10.0
 40
10.0
 10
290.4706420172262
 20
-85.20754663668425
 10
289.9497435798563
 20
-85.20754663668425
 10
289.5812906177089
 20
-84.89611000481763
 10
289.3652831307837
 20
-84.38795842074329
 10
289.3652831307837
 20
-84.38795842074329
 10
289.3463351056148
 20
-84.39450410216528
 10
289.3463351056148
 20
-84.39450410216528
 10
289.1303276186896
 20
-84.85166827305793
 10
288.7746215098376
 20
-85.04872773481421
 10
288.4189154009856
 20
-85.04872773481421
 10
287.7646917683367
 20
-85.04872773481421
 10
287.3201021959651
 20
-84.49613441898012
 10
287.3201021959651
 20
-83.77197534798062
 10
287.3201021959651
 20
-82.97167966675708
 10
287.8218803533917
 20
-82.57135957137105
 10
288.3364053641138
 20
-82.57135957137105
 10
288.6857380463181
 20
-82.57135957137105
 10
289.0603921803391
 20
-82.74292532653651
 10
289.3018933738551
 20
-83.25107691061084
 10
289.3018933738551
 20
-83.25107691061084
 10
289.3208413990238
 20
-83.25107691061084
 10
289.3208413990238
 20
-83.25107691061084
 10
289.5241020326537
 20
-82.73672415466306
 10
289.8861815681535
 20
-82.419086350923
 10
290.3879597255801
 20
-82.419086350923
 10
291.1057453699319
 20
-82.419086350923
 10
291.5885755021896
 20
-83.03506942368569
 10
291.5885755021896
 20
-83.8226182516138
 10
291.5885755021896
 20
-84.68664819931445
 10
291.0740504914676
 20
-85.20754663668425
 10
290.4706420172262
 20
-85.20754663668425
 97
        0
 97
        0
 92
        1
 93
        1
 72
     4
 94
        3
 73
     0
 74
     0
 95
       17
 96
       13
 40
0.0
 40
0.0
 40
0.0
 40
0.0
 40
1.0
 40
1.0
 40
1.0
 40
2.0
 40
2.0
 40
2.0
 40
3.0
 40
3.0
 40
3.0
 40
4.0
 40
4.0
 40
4.0
 40
4.0
 10
288.3808470958735
 20
-84.52162812557098
 10
288.7937417897808
 20
-84.52162812557098
 10
289.0159504485794
 20
-84.2101914937044
 10
289.1430744719851
 20
-83.73373478809433
 10
289.0223238752271
 20
-83.37820093401656
 10
288.7682480831898
 20
-83.10500486203626
 10
288.3934216943947
 20
-83.10500486203626
 10
288.0632092921335
 20
-83.10500486203626
 10
287.7202500365769
 20
-83.30206432379254
 10
287.7202500365769
 20
-83.80367022644492
 10
287.7202500365769
 20
-84.26738007875954
 10
288.0251409870215
 20
-84.52162812557098
 10
288.3808470958735
 20
-84.52162812557098
 97
        0
 97
        0
 92
        1
 93
        1
 72
     4
 94
        3
 73
     0
 74
     0
 95
       17
 96
       13
 40
0.0
 40
0.0
 40
0.0
 40
0.0
 40
1.0
 40
1.0
 40
1.0
 40
2.0
 40
2.0
 40
2.0
 40
3.0
 40
3.0
 40
3.0
 40
4.0
 40
4.0
 40
4.0
 40
4.0
 10
290.4451483106353
 20
-82.98442652005252
 10
289.9433701532086
 20
-82.98442652005252
 10
289.7020412144669
 20
-83.33375920225684
 10
289.5432223125969
 20
-83.89255368996435
 10
289.6829209345237
 20
-84.37555607699639
 10
290.0005587382637
 20
-84.63566078613276
 10
290.3943331522278
 20
-84.63566078613276
 10
290.8136012727826
 20
-84.65495332085016
 10
291.1820542349302
 20
-84.3373155171101
 10
291.1820542349302
 20
-83.81021590786689
 10
291.1820542349302
 20
-83.308265495666
 10
290.8707898578379
 20
-82.98442652005252
 10
290.4451483106353
 20
-82.98442652005252
 97
        0
 97
        0
 75
     2
 76
     1
 98
        0
450
        0
451
        0
460
0.0
461
0.0
452
        0
462
0.0
453
        0
470

  0
SPLINE
  5
2B2
330
2A0
100
AcDbEntity
  8
Livello 1
370
     0
100
AcDbSpline
210
0.0
220
0.0
230
1.0
 70
     9
 71
     3
 72
    80
 73
    76
 74
     0
 42
0.000000001
 43
0.0000000001
 40
0.0
 40
0.0
 40
0.0
 40
0.0
 40
1.0
 40
1.0
 40
1.0
 40
2.0
 40
2.0
 40
2.0
 40
3.0
 40
3.0
 40
3.0
 40
4.0
 40
4.0
 40
4.0
 40
5.0
 40
5.0
 40
5.0
 40
6.0
 40
6.0
 40
6.0
 40
7.0
 40
7.0
 40
7.0
 40
8.0
 40
8.0
 40
8.0
 40
9.0
 40
9.0
 40
9.0
 40
10.0
 40
10.0
 40
10.0
 40
11.0
 40
11.0
 40
11.0
 40
12.0
 40
12.0
 40
12.0
 40
13.0
 40
13.0
 40
13.0
 40
14.0
 40
14.0
 40
14.0
 40
15.0
 40
15.0
 40
15.0
 40
16.0
 40
16.0
 40
16.0
 40
17.0
 40
17.0
 40
17.0
 40
18.0
 40
18.0
 40
18.0
 40
19.0
 40
19.0
 40
19.0
 40
20.0
 40
20.0
 40
20.0
 40
21.0
 40
21.0
 40
21.0
 40
22.0
 40
22.0
 40
22.0
 40
23.0
 40
23.0
 40
23.0
 40
24.0
 40
24.0
 40
24.0
 40
25.0
 40
25.0
 40
25.0
 40
25.0
 10
289.2763996672642
 20
-80.37511119952428
 30
0.0
 10
288.9587618635242
 20
-80.37511119952428
 30
0.0
 10
288.6983126448393
 20
-80.38131237139774
 30
0.0
 10
288.4444091075764
 20
-80.40060490611512
 30
0.0
 10
288.4444091075764
 20
-80.40060490611512
 30
0.0
 10
288.4444091075764
 20
-79.91140134720964
 30
0.0
 10
288.4444091075764
 20
-79.91140134720964
 30
0.0
 10
288.4444091075764
 20
-79.91140134720964
 30
0.0
 10
288.9398138383553
 20
-79.88590764061881
 30
0.0
 10
288.9398138383553
 20
-79.88590764061881
 30
0.0
 10
288.9398138383553
 20
-79.88590764061881
 30
0.0
 10
288.9398138383553
 20
-79.86695961544993
 30
0.0
 10
288.9398138383553
 20
-79.86695961544993
 30
0.0
 10
288.6476697412062
 20
-79.69539386028448
 30
0.0
 10
288.3744736692258
 20
-79.40979544455728
 30
0.0
 10
288.3744736692258
 20
-78.90164386048292
 30
0.0
 10
288.3744736692258
 20
-78.48237573992801
 30
0.0
 10
288.628549461263
 20
-78.16473793618797
 30
0.0
 10
288.9906289967628
 20
-78.03141274090882
 30
0.0
 10
288.9906289967628
 20
-78.03141274090882
 30
0.0
 10
288.9906289967628
 20
-78.01866588761341
 30
0.0
 10
288.9906289967628
 20
-78.01866588761341
 30
0.0
 10
288.8190632415973
 20
-77.92323674267196
 30
0.0
 10
288.6857380463181
 20
-77.80265840068825
 30
0.0
 10
288.590481156151
 20
-77.67553437728249
 30
0.0
 10
288.4506102794498
 20
-77.49122176882166
 30
0.0
 10
288.3744736692258
 20
-77.28796113519191
 30
0.0
 10
288.3744736692258
 20
-76.99581703804271
 30
0.0
 10
288.3744736692258
 20
-76.58929577078324
 30
0.0
 10
288.6412963145584
 20
-75.98605955131599
 30
0.0
 10
289.7084146411146
 20
-75.98605955131599
 30
0.0
 10
289.7084146411146
 20
-75.98605955131599
 30
0.0
 10
291.5186400638391
 20
-75.98605955131599
 30
0.0
 10
291.5186400638391
 20
-75.98605955131599
 30
0.0
 10
291.5186400638391
 20
-75.98605955131599
 30
0.0
 10
291.5186400638391
 20
-76.53210718572809
 30
0.0
 10
291.5186400638391
 20
-76.53210718572809
 30
0.0
 10
291.5186400638391
 20
-76.53210718572809
 30
0.0
 10
289.7781778246908
 20
-76.53210718572809
 30
0.0
 10
289.7781778246908
 20
-76.53210718572809
 30
0.0
 10
289.1875162037448
 20
-76.53210718572809
 30
0.0
 10
288.8318100948928
 20
-76.74811467265326
 30
0.0
 10
288.8318100948928
 20
-77.19907767167246
 30
0.0
 10
288.8318100948928
 20
-77.51671547541249
 30
0.0
 10
289.0667656069868
 20
-77.76441784080195
 30
0.0
 10
289.3399616789671
 20
-77.85984698574337
 30
0.0
 10
289.4160982891912
 20
-77.88534069233422
 30
0.0
 10
289.517728606006
 20
-77.90428871750309
 30
0.0
 10
289.6193589228209
 20
-77.90428871750309
 30
0.0
 10
289.6193589228209
 20
-77.90428871750309
 30
0.0
 10
291.5186400638391
 20
-77.90428871750309
 30
0.0
 10
291.5186400638391
 20
-77.90428871750309
 30
0.0
 10
291.5186400638391
 20
-77.90428871750309
 30
0.0
 10
291.5186400638391
 20
-78.45068086146373
 30
0.0
 10
291.5186400638391
 20
-78.45068086146373
 30
0.0
 10
291.5186400638391
 20
-78.45068086146373
 30
0.0
 10
289.676547507876
 20
-78.45068086146373
 30
0.0
 10
289.676547507876
 20
-78.45068086146373
 30
0.0
 10
289.1875162037448
 20
-78.45068086146373
 30
0.0
 10
288.8318100948928
 20
-78.66634383884036
 30
0.0
 10
288.8318100948928
 20
-79.09215764081725
 30
0.0
 10
288.8318100948928
 20
-79.44149032302156
 30
0.0
 10
289.1112073387465
 20
-79.69539386028448
 30
0.0
 10
289.3907768373745
 20
-79.78427732380393
 30
0.0
 10
289.4732868742464
 20
-79.81631671181675
 30
0.0
 10
289.5685437644134
 20
-79.82871905556365
 30
0.0
 10
289.6639729093548
 20
-79.82871905556365
 30
0.0
 10
289.6639729093548
 20
-79.82871905556365
 30
0.0
 10
291.5186400638391
 20
-79.82871905556365
 30
0.0
 10
291.5186400638391
 20
-79.82871905556365
 30
0.0
 10
291.5186400638391
 20
-79.82871905556365
 30
0.0
 10
291.5186400638391
 20
-80.37511119952428
 30
0.0
 10
291.5186400638391
 20
-80.37511119952428
 30
0.0
 10
291.5186400638391
 20
-80.37511119952428
 30
0.0
 10
289.2763996672642
 20
-80.37511119952428
 30
0.0
 10
289.2763996672642
 20
-80.37511119952428
 30
0.0
  0
HATCH
  5
2B3
330
2A0
100
AcDbEntity
  8
Livello 1
 62
   250
420
  1842203
100
AcDbHatch
 10
0.0
 20
0.0
 30
0.0
210
0.0
220
0.0
230
1.0
  2
SOLID
 70
     1
 71
     0
 91
        1
 92
        1
 93
        1
 72
     4
 94
        3
 73
     0
 74
     0
 95
       80
 96
       76
 40
0.0
 40
0.0
 40
0.0
 40
0.0
 40
1.0
 40
1.0
 40
1.0
 40
2.0
 40
2.0
 40
2.0
 40
3.0
 40
3.0
 40
3.0
 40
4.0
 40
4.0
 40
4.0
 40
5.0
 40
5.0
 40
5.0
 40
6.0
 40
6.0
 40
6.0
 40
7.0
 40
7.0
 40
7.0
 40
8.0
 40
8.0
 40
8.0
 40
9.0
 40
9.0
 40
9.0
 40
10.0
 40
10.0
 40
10.0
 40
11.0
 40
11.0
 40
11.0
 40
12.0
 40
12.0
 40
12.0
 40
13.0
 40
13.0
 40
13.0
 40
14.0
 40
14.0
 40
14.0
 40
15.0
 40
15.0
 40
15.0
 40
16.0
 40
16.0
 40
16.0
 40
17.0
 40
17.0
 40
17.0
 40
18.0
 40
18.0
 40
18.0
 40
19.0
 40
19.0
 40
19.0
 40
20.0
 40
20.0
 40
20.0
 40
21.0
 40
21.0
 40
21.0
 40
22.0
 40
22.0
 40
22.0
 40
23.0
 40
23.0
 40
23.0
 40
24.0
 40
24.0
 40
24.0
 40
25.0
 40
25.0
 40
25.0
 40
25.0
 10
289.2763996672642
 20
-80.37511119952428
 10
288.9587618635242
 20
-80.37511119952428
 10
288.6983126448393
 20
-80.38131237139774
 10
288.4444091075764
 20
-80.40060490611512
 10
288.4444091075764
 20
-80.40060490611512
 10
288.4444091075764
 20
-79.91140134720964
 10
288.4444091075764
 20
-79.91140134720964
 10
288.4444091075764
 20
-79.91140134720964
 10
288.9398138383553
 20
-79.88590764061881
 10
288.9398138383553
 20
-79.88590764061881
 10
288.9398138383553
 20
-79.88590764061881
 10
288.9398138383553
 20
-79.86695961544993
 10
288.9398138383553
 20
-79.86695961544993
 10
288.6476697412062
 20
-79.69539386028448
 10
288.3744736692258
 20
-79.40979544455728
 10
288.3744736692258
 20
-78.90164386048292
 10
288.3744736692258
 20
-78.48237573992801
 10
288.628549461263
 20
-78.16473793618797
 10
288.9906289967628
 20
-78.03141274090882
 10
288.9906289967628
 20
-78.03141274090882
 10
288.9906289967628
 20
-78.01866588761341
 10
288.9906289967628
 20
-78.01866588761341
 10
288.8190632415973
 20
-77.92323674267196
 10
288.6857380463181
 20
-77.80265840068825
 10
288.590481156151
 20
-77.67553437728249
 10
288.4506102794498
 20
-77.49122176882166
 10
288.3744736692258
 20
-77.28796113519191
 10
288.3744736692258
 20
-76.99581703804271
 10
288.3744736692258
 20
-76.58929577078324
 10
288.6412963145584
 20
-75.98605955131599
 10
289.7084146411146
 20
-75.98605955131599
 10
289.7084146411146
 20
-75.98605955131599
 10
291.5186400638391
 20
-75.98605955131599
 10
291.5186400638391
 20
-75.98605955131599
 10
291.5186400638391
 20
-75.98605955131599
 10
291.5186400638391
 20
-76.53210718572809
 10
291.5186400638391
 20
-76.53210718572809
 10
291.5186400638391
 20
-76.53210718572809
 10
289.7781778246908
 20
-76.53210718572809
 10
289.7781778246908
 20
-76.53210718572809
 10
289.1875162037448
 20
-76.53210718572809
 10
288.8318100948928
 20
-76.74811467265326
 10
288.8318100948928
 20
-77.19907767167246
 10
288.8318100948928
 20
-77.51671547541249
 10
289.0667656069868
 20
-77.76441784080195
 10
289.3399616789671
 20
-77.85984698574337
 10
289.4160982891912
 20
-77.88534069233422
 10
289.517728606006
 20
-77.90428871750309
 10
289.6193589228209
 20
-77.90428871750309
 10
289.6193589228209
 20
-77.90428871750309
 10
291.5186400638391
 20
-77.90428871750309
 10
291.5186400638391
 20
-77.90428871750309
 10
291.5186400638391
 20
-77.90428871750309
 10
291.5186400638391
 20
-78.45068086146373
 10
291.5186400638391
 20
-78.45068086146373
 10
291.5186400638391
 20
-78.45068086146373
 10
289.676547507876
 20
-78.45068086146373
 10
289.676547507876
 20
-78.45068086146373
 10
289.1875162037448
 20
-78.45068086146373
 10
288.8318100948928
 20
-78.66634383884036
 10
288.8318100948928
 20
-79.09215764081725
 10
288.8318100948928
 20
-79.44149032302156
 10
289.1112073387465
 20
-79.69539386028448
 10
289.3907768373745
 20
-79.78427732380393
 10
289.4732868742464
 20
-79.81631671181675
 10
289.5685437644134
 20
-79.82871905556365
 10
289.6639729093548
 20
-79.82871905556365
 10
289.6639729093548
 20
-79.82871905556365
 10
291.5186400638391
 20
-79.82871905556365
 10
291.5186400638391
 20
-79.82871905556365
 10
291.5186400638391
 20
-79.82871905556365
 10
291.5186400638391
 20
-80.37511119952428
 10
291.5186400638391
 20
-80.37511119952428
 10
291.5186400638391
 20
-80.37511119952428
 10
289.2763996672642
 20
-80.37511119952428
 10
289.2763996672642
 20
-80.37511119952428
 97
        0
 97
        0
 75
     2
 76
     1
 98
        0
450
        0
451
        0
460
0.0
461
0.0
452
        0
462
0.0
453
        0
470

  0
SPLINE
  5
2B4
330
2A0
100
AcDbEntity
  8
Livello 1
370
     0
100
AcDbSpline
210
0.0
220
0.0
230
1.0
 70
     9
 71
     3
 72
    80
 73
    76
 74
     0
 42
0.000000001
 43
0.0000000001
 40
0.0
 40
0.0
 40
0.0
 40
0.0
 40
1.0
 40
1.0
 40
1.0
 40
2.0
 40
2.0
 40
2.0
 40
3.0
 40
3.0
 40
3.0
 40
4.0
 40
4.0
 40
4.0
 40
5.0
 40
5.0
 40
5.0
 40
6.0
 40
6.0
 40
6.0
 40
7.0
 40
7.0
 40
7.0
 40
8.0
 40
8.0
 40
8.0
 40
9.0
 40
9.0
 40
9.0
 40
10.0
 40
10.0
 40
10.0
 40
11.0
 40
11.0
 40
11.0
 40
12.0
 40
12.0
 40
12.0
 40
13.0
 40
13.0
 40
13.0
 40
14.0
 40
14.0
 40
14.0
 40
15.0
 40
15.0
 40
15.0
 40
16.0
 40
16.0
 40
16.0
 40
17.0
 40
17.0
 40
17.0
 40
18.0
 40
18.0
 40
18.0
 40
19.0
 40
19.0
 40
19.0
 40
20.0
 40
20.0
 40
20.0
 40
21.0
 40
21.0
 40
21.0
 40
22.0
 40
22.0
 40
22.0
 40
23.0
 40
23.0
 40
23.0
 40
24.0
 40
24.0
 40
24.0
 40
25.0
 40
25.0
 40
25.0
 40
25.0
 10
289.2763996672642
 20
-75.07931041959823
 30
0.0
 10
288.9587618635242
 20
-75.07931041959823
 30
0.0
 10
288.6983126448393
 20
-75.08551159147168
 30
0.0
 10
288.4444091075764
 20
-75.10480412618908
 30
0.0
 10
288.4444091075764
 20
-75.10480412618908
 30
0.0
 10
288.4444091075764
 20
-74.61560056728361
 30
0.0
 10
288.4444091075764
 20
-74.61560056728361
 30
0.0
 10
288.4444091075764
 20
-74.61560056728361
 30
0.0
 10
288.9398138383553
 20
-74.59010686069277
 30
0.0
 10
288.9398138383553
 20
-74.59010686069277
 30
0.0
 10
288.9398138383553
 20
-74.59010686069277
 30
0.0
 10
288.9398138383553
 20
-74.57115883552387
 30
0.0
 10
288.9398138383553
 20
-74.57115883552387
 30
0.0
 10
288.6476697412062
 20
-74.39959308035844
 30
0.0
 10
288.3744736692258
 20
-74.11399466463122
 30
0.0
 10
288.3744736692258
 20
-73.60584308055688
 30
0.0
 10
288.3744736692258
 20
-73.18657496000198
 30
0.0
 10
288.628549461263
 20
-72.86893715626193
 30
0.0
 10
288.9906289967628
 20
-72.73561196098277
 30
0.0
 10
288.9906289967628
 20
-72.73561196098277
 30
0.0
 10
288.9906289967628
 20
-72.72286510768734
 30
0.0
 10
288.9906289967628
 20
-72.72286510768734
 30
0.0
 10
288.8190632415973
 20
-72.62743596274592
 30
0.0
 10
288.6857380463181
 20
-72.50685762076219
 30
0.0
 10
288.590481156151
 20
-72.37973359735645
 30
0.0
 10
288.4506102794498
 20
-72.19542098889559
 30
0.0
 10
288.3744736692258
 20
-71.99216035526585
 30
0.0
 10
288.3744736692258
 20
-71.70001625811666
 30
0.0
 10
288.3744736692258
 20
-71.29349499085719
 30
0.0
 10
288.6412963145584
 20
-70.69025877138994
 30
0.0
 10
289.7084146411146
 20
-70.69025877138994
 30
0.0
 10
289.7084146411146
 20
-70.69025877138994
 30
0.0
 10
291.5186400638391
 20
-70.69025877138994
 30
0.0
 10
291.5186400638391
 20
-70.69025877138994
 30
0.0
 10
291.5186400638391
 20
-70.69025877138994
 30
0.0
 10
291.5186400638391
 20
-71.23630640580206
 30
0.0
 10
291.5186400638391
 20
-71.23630640580206
 30
0.0
 10
291.5186400638391
 20
-71.23630640580206
 30
0.0
 10
289.7781778246908
 20
-71.23630640580206
 30
0.0
 10
289.7781778246908
 20
-71.23630640580206
 30
0.0
 10
289.1875162037448
 20
-71.23630640580206
 30
0.0
 10
288.8318100948928
 20
-71.4523138927272
 30
0.0
 10
288.8318100948928
 20
-71.9032768917464
 30
0.0
 10
288.8318100948928
 20
-72.22091469548644
 30
0.0
 10
289.0667656069868
 20
-72.4686170608759
 30
0.0
 10
289.3399616789671
 20
-72.5640462058173
 30
0.0
 10
289.4160982891912
 20
-72.58953991240817
 30
0.0
 10
289.517728606006
 20
-72.60848793757705
 30
0.0
 10
289.6193589228209
 20
-72.60848793757705
 30
0.0
 10
289.6193589228209
 20
-72.60848793757705
 30
0.0
 10
291.5186400638391
 20
-72.60848793757705
 30
0.0
 10
291.5186400638391
 20
-72.60848793757705
 30
0.0
 10
291.5186400638391
 20
-72.60848793757705
 30
0.0
 10
291.5186400638391
 20
-73.15488008153767
 30
0.0
 10
291.5186400638391
 20
-73.15488008153767
 30
0.0
 10
291.5186400638391
 20
-73.15488008153767
 30
0.0
 10
289.676547507876
 20
-73.15488008153767
 30
0.0
 10
289.676547507876
 20
-73.15488008153767
 30
0.0
 10
289.1875162037448
 20
-73.15488008153767
 30
0.0
 10
288.8318100948928
 20
-73.37054305891431
 30
0.0
 10
288.8318100948928
 20
-73.7963568608912
 30
0.0
 10
288.8318100948928
 20
-74.14568954309553
 30
0.0
 10
289.1112073387465
 20
-74.39959308035844
 30
0.0
 10
289.3907768373745
 20
-74.48847654387788
 30
0.0
 10
289.4732868742464
 20
-74.52051593189072
 30
0.0
 10
289.5685437644134
 20
-74.53291827563761
 30
0.0
 10
289.6639729093548
 20
-74.53291827563761
 30
0.0
 10
289.6639729093548
 20
-74.53291827563761
 30
0.0
 10
291.5186400638391
 20
-74.53291827563761
 30
0.0
 10
291.5186400638391
 20
-74.53291827563761
 30
0.0
 10
291.5186400638391
 20
-74.53291827563761
 30
0.0
 10
291.5186400638391
 20
-75.07931041959823
 30
0.0
 10
291.5186400638391
 20
-75.07931041959823
 30
0.0
 10
291.5186400638391
 20
-75.07931041959823
 30
0.0
 10
289.2763996672642
 20
-75.07931041959823
 30
0.0
 10
289.2763996672642
 20
-75.07931041959823
 30
0.0
  0
HATCH
  5
2B5
330
2A0
100
AcDbEntity
  8
Livello 1
 62
   250
420
  1842203
100
AcDbHatch
 10
0.0
 20
0.0
 30
0.0
210
0.0
220
0.0
230
1.0
  2
SOLID
 70
     1
 71
     0
 91
        1
 92
        1
 93
        1
 72
     4
 94
        3
 73
     0
 74
     0
 95
       80
 96
       76
 40
0.0
 40
0.0
 40
0.0
 40
0.0
 40
1.0
 40
1.0
 40
1.0
 40
2.0
 40
2.0
 40
2.0
 40
3.0
 40
3.0
 40
3.0
 40
4.0
 40
4.0
 40
4.0
 40
5.0
 40
5.0
 40
5.0
 40
6.0
 40
6.0
 40
6.0
 40
7.0
 40
7.0
 40
7.0
 40
8.0
 40
8.0
 40
8.0
 40
9.0
 40
9.0
 40
9.0
 40
10.0
 40
10.0
 40
10.0
 40
11.0
 40
11.0
 40
11.0
 40
12.0
 40
12.0
 40
12.0
 40
13.0
 40
13.0
 40
13.0
 40
14.0
 40
14.0
 40
14.0
 40
15.0
 40
15.0
 40
15.0
 40
16.0
 40
16.0
 40
16.0
 40
17.0
 40
17.0
 40
17.0
 40
18.0
 40
18.0
 40
18.0
 40
19.0
 40
19.0
 40
19.0
 40
20.0
 40
20.0
 40
20.0
 40
21.0
 40
21.0
 40
21.0
 40
22.0
 40
22.0
 40
22.0
 40
23.0
 40
23.0
 40
23.0
 40
24.0
 40
24.0
 40
24.0
 40
25.0
 40
25.0
 40
25.0
 40
25.0
 10
289.2763996672642
 20
-75.07931041959823
 10
288.9587618635242
 20
-75.07931041959823
 10
288.6983126448393
 20
-75.08551159147168
 10
288.4444091075764
 20
-75.10480412618908
 10
288.4444091075764
 20
-75.10480412618908
 10
288.4444091075764
 20
-74.61560056728361
 10
288.4444091075764
 20
-74.61560056728361
 10
288.4444091075764
 20
-74.61560056728361
 10
288.9398138383553
 20
-74.59010686069277
 10
288.9398138383553
 20
-74.59010686069277
 10
288.9398138383553
 20
-74.59010686069277
 10
288.9398138383553
 20
-74.57115883552387
 10
288.9398138383553
 20
-74.57115883552387
 10
288.6476697412062
 20
-74.39959308035844
 10
288.3744736692258
 20
-74.11399466463122
 10
288.3744736692258
 20
-73.60584308055688
 10
288.3744736692258
 20
-73.18657496000198
 10
288.628549461263
 20
-72.86893715626193
 10
288.9906289967628
 20
-72.73561196098277
 10
288.9906289967628
 20
-72.73561196098277
 10
288.9906289967628
 20
-72.72286510768734
 10
288.9906289967628
 20
-72.72286510768734
 10
288.8190632415973
 20
-72.62743596274592
 10
288.6857380463181
 20
-72.50685762076219
 10
288.590481156151
 20
-72.37973359735645
 10
288.4506102794498
 20
-72.19542098889559
 10
288.3744736692258
 20
-71.99216035526585
 10
288.3744736692258
 20
-71.70001625811666
 10
288.3744736692258
 20
-71.29349499085719
 10
288.6412963145584
 20
-70.69025877138994
 10
289.7084146411146
 20
-70.69025877138994
 10
289.7084146411146
 20
-70.69025877138994
 10
291.5186400638391
 20
-70.69025877138994
 10
291.5186400638391
 20
-70.69025877138994
 10
291.5186400638391
 20
-70.69025877138994
 10
291.5186400638391
 20
-71.23630640580206
 10
291.5186400638391
 20
-71.23630640580206
 10
291.5186400638391
 20
-71.23630640580206
 10
289.7781778246908
 20
-71.23630640580206
 10
289.7781778246908
 20
-71.23630640580206
 10
289.1875162037448
 20
-71.23630640580206
 10
288.8318100948928
 20
-71.4523138927272
 10
288.8318100948928
 20
-71.9032768917464
 10
288.8318100948928
 20
-72.22091469548644
 10
289.0667656069868
 20
-72.4686170608759
 10
289.3399616789671
 20
-72.5640462058173
 10
289.4160982891912
 20
-72.58953991240817
 10
289.517728606006
 20
-72.60848793757705
 10
289.6193589228209
 20
-72.60848793757705
 10
289.6193589228209
 20
-72.60848793757705
 10
291.5186400638391
 20
-72.60848793757705
 10
291.5186400638391
 20
-72.60848793757705
 10
291.5186400638391
 20
-72.60848793757705
 10
291.5186400638391
 20
-73.15488008153767
 10
291.5186400638391
 20
-73.15488008153767
 10
291.5186400638391
 20
-73.15488008153767
 10
289.676547507876
 20
-73.15488008153767
 10
289.676547507876
 20
-73.15488008153767
 10
289.1875162037448
 20
-73.15488008153767
 10
288.8318100948928
 20
-73.37054305891431
 10
288.8318100948928
 20
-73.7963568608912
 10
288.8318100948928
 20
-74.14568954309553
 10
289.1112073387465
 20
-74.39959308035844
 10
289.3907768373745
 20
-74.48847654387788
 10
289.4732868742464
 20
-74.52051593189072
 10
289.5685437644134
 20
-74.53291827563761
 10
289.6639729093548
 20
-74.53291827563761
 10
289.6639729093548
 20
-74.53291827563761
 10
291.5186400638391
 20
-74.53291827563761
 10
291.5186400638391
 20
-74.53291827563761
 10
291.5186400638391
 20
-74.53291827563761
 10
291.5186400638391
 20
-75.07931041959823
 10
291.5186400638391
 20
-75.07931041959823
 10
291.5186400638391
 20
-75.07931041959823
 10
289.2763996672642
 20
-75.07931041959823
 10
289.2763996672642
 20
-75.07931041959823
 97
        0
 97
        0
 75
     2
 76
     1
 98
        0
450
        0
451
        0
460
0.0
461
0.0
452
        0
462
0.0
453
        0
470

  0
ENDBLK
  5
2B6
330
2A0
100
AcDbEntity
  8
0
100
AcDbBlockEnd
  0
ENDSEC
  0
SECTION
  2
ENTITIES
  0
POLYLINE
  5
2F7
330
1F
100
AcDbEntity
  8
Livello 1
100
AcDb2dPolyline
 66
     1
 10
0.0
 20
0.0
 30
0.0
  0
VERTEX
  5
2F8
330
2F7
100
AcDbEntity
  8
Livello 1
100
AcDbVertex
100
AcDb2dVertex
 10
74.07516249691525
 20
41.41206023238962
 30
0.0
  0
VERTEX
  5
2F9
330
2F7
100
AcDbEntity
  8
Livello 1
100
AcDbVertex
100
AcDb2dVertex
 10
71.1526809048072
 20
41.41206023238962
 30
0.0
  0
VERTEX
  5
2FA
330
2F7
100
AcDbEntity
  8
Livello 1
100
AcDbVertex
100
AcDb2dVertex
 10
71.1526809048072
 20
67.1921077259449
 30
0.0
  0
VERTEX
  5
2FB
330
2F7
100
AcDbEntity
  8
Livello 1
100
AcDbVertex
100
AcDb2dVertex
 10
93.66343033051084
 20
67.1921077259449
 30
0.0
  0
VERTEX
  5
2FC
330
2F7
100
AcDbEntity
  8
Livello 1
100
AcDbVertex
100
AcDb2dVertex
 10
93.66343033051084
 20
41.41206023238962
 30
0.0
  0
VERTEX
  5
2FD
330
2F7
100
AcDbEntity
  8
Livello 1
100
AcDbVertex
100
AcDb2dVertex
 10
89.48714127039016
 20
41.41206023238962
 30
0.0
  0
SEQEND
  5
2FE
330
2F7
100
AcDbEntity
  8
Livello 1
  0
POLYLINE
  5
2FF
330
1F
100
AcDbEntity
  8
Livello 1
100
AcDb2dPolyline
 66
     1
 10
0.0
 20
0.0
 30
0.0
  0
VERTEX
  5
300
330
2FF
100
AcDbEntity
  8
Livello 1
100
AcDbVertex
100
AcDb2dVertex
 10
80.92074454449203
 20
46.94026439767429
 30
0.0
  0
VERTEX
  5
301
330
2FF
100
AcDbEntity
  8
Livello 1
100
AcDbVertex
100
AcDb2dVertex
 10
72.76695669695692
 20
46.94026439767429
 30
0.0
  0
VERTEX
  5
302
330
2FF
100
AcDbEntity
  8
Livello 1
100
AcDbVertex
100
AcDb2dVertex
 10
72.76695669695692
 20
55.08978384008189
 30
0.0
  0
SEQEND
  5
303
330
2FF
100
AcDbEntity
  8
Livello 1
  0
POLYLINE
  5
304
330
1F
100
AcDbEntity
  8
Livello 1
100
AcDb2dPolyline
 66
     1
 10
0.0
 20
0.0
 30
0.0
  0
VERTEX
  5
305
330
304
100
AcDbEntity
  8
Livello 1
100
AcDbVertex
100
AcDb2dVertex
 10
72.76695669695692
 20
57.21001356177389
 30
0.0
  0
VERTEX
  5
306
330
304
100
AcDbEntity
  8
Livello 1
100
AcDbVertex
100
AcDb2dVertex
 10
72.76695669695692
 20
64.39962467108763
 30
0.0
  0
SEQEND
  5
307
330
304
100
AcDbEntity
  8
Livello 1
  0
POLYLINE
  5
308
330
1F
100
AcDbEntity
  8
Livello 1
100
AcDb2dPolyline
 66
     1
 10
0.0
 20
0.0
 30
0.0
  0
VERTEX
  5
309
330
308
100
AcDbEntity
  8
Livello 1
100
AcDbVertex
100
AcDb2dVertex
 10
72.76695669695692
 20
65.55924050413091
 30
0.0
  0
VERTEX
  5
30A
330
308
100
AcDbEntity
  8
Livello 1
100
AcDbVertex
100
AcDb2dVertex
 10
72.76695669695692
 20
65.57783189301521
 30
0.0
  0
VERTEX
  5
30B
330
308
100
AcDbEntity
  8
Livello 1
100
AcDbVertex
100
AcDb2dVertex
 10
92.04915453836116
 20
65.57783189301521
 30
0.0
  0
VERTEX
  5
30C
330
308
100
AcDbEntity
  8
Livello 1
100
AcDbVertex
100
AcDb2dVertex
 10
92.04915453836116
 20
46.94026439767429
 30
0.0
  0
VERTEX
  5
30D
330
308
100
AcDbEntity
  8
Livello 1
100
AcDbVertex
100
AcDb2dVertex
 10
83.04210695555742
 20
46.94026439767429
 30
0.0
  0
SEQEND
  5
30E
330
308
100
AcDbEntity
  8
Livello 1
  0
POLYLINE
  5
30F
330
1F
100
AcDbEntity
  8
Livello 1
100
AcDb2dPolyline
 66
     1
 10
0.0
 20
0.0
 30
0.0
  0
VERTEX
  5
310
330
30F
100
AcDbEntity
  8
Livello 1
100
AcDbVertex
100
AcDb2dVertex
 10
74.96938358521282
 20
42.5057771765613
 30
0.0
  0
VERTEX
  5
311
330
30F
100
AcDbEntity
  8
Livello 1
100
AcDbVertex
100
AcDb2dVertex
 10
72.76695669695692
 20
42.5057771765613
 30
0.0
  0
VERTEX
  5
312
330
30F
100
AcDbEntity
  8
Livello 1
100
AcDbVertex
100
AcDb2dVertex
 10
72.76695669695692
 20
45.24001662032198
 30
0.0
  0
VERTEX
  5
313
330
30F
100
AcDbEntity
  8
Livello 1
100
AcDbVertex
100
AcDb2dVertex
 10
90.5369373547187
 20
45.24001662032198
 30
0.0
  0
VERTEX
  5
314
330
30F
100
AcDbEntity
  8
Livello 1
100
AcDbVertex
100
AcDb2dVertex
 10
90.5369373547187
 20
42.5057771765613
 30
0.0
  0
VERTEX
  5
315
330
30F
100
AcDbEntity
  8
Livello 1
100
AcDbVertex
100
AcDb2dVertex
 10
88.72859851196443
 20
42.5057771765613
 30
0.0
  0
SEQEND
  5
316
330
30F
100
AcDbEntity
  8
Livello 1
  0
POLYLINE
  5
317
330
1F
100
AcDbEntity
  8
Livello 1
100
AcDb2dPolyline
 66
     1
 10
0.0
 20
0.0
 30
0.0
  0
VERTEX
  5
318
330
317
100
AcDbEntity
  8
Livello 1
100
AcDbVertex
100
AcDb2dVertex
 10
72.75341003063591
 20
46.94026439767429
 30
0.0
  0
VERTEX
  5
319
330
317
100
AcDbEntity
  8
Livello 1
100
AcDbVertex
100
AcDb2dVertex
 10
72.75341003063591
 20
55.10333050674498
 30
0.0
  0
VERTEX
  5
31A
330
317
100
AcDbEntity
  8
Livello 1
100
AcDbVertex
100
AcDb2dVertex
 10
80.92074454449203
 20
46.94026439767429
 30
0.0
  0
VERTEX
  5
31B
330
317
100
AcDbEntity
  8
Livello 1
100
AcDbVertex
100
AcDb2dVertex
 10
80.92074454449203
 20
46.94026439767429
 30
0.0
  0
VERTEX
  5
31C
330
317
100
AcDbEntity
  8
Livello 1
100
AcDbVertex
100
AcDb2dVertex
 10
72.75341003063591
 20
46.94026439767429
 30
0.0
  0
SEQEND
  5
31D
330
317
100
AcDbEntity
  8
Livello 1
  0
POLYLINE
  5
31E
330
1F
100
AcDbEntity
  8
Livello 1
100
AcDb2dPolyline
 66
     1
 10
0.0
 20
0.0
 30
0.0
  0
VERTEX
  5
31F
330
31E
100
AcDbEntity
  8
Livello 1
100
AcDbVertex
100
AcDb2dVertex
 10
83.04210695555742
 20
46.94026439767429
 30
0.0
  0
VERTEX
  5
320
330
31E
100
AcDbEntity
  8
Livello 1
100
AcDbVertex
100
AcDb2dVertex
 10
92.04915453836116
 20
46.94026439767429
 30
0.0
  0
SEQEND
  5
321
330
31E
100
AcDbEntity
  8
Livello 1
  0
POLYLINE
  5
322
330
1F
100
AcDbEntity
  8
Livello 1
100
AcDb2dPolyline
 66
     1
 10
0.0
 20
0.0
 30
0.0
  0
VERTEX
  5
323
330
322
100
AcDbEntity
  8
Livello 1
100
AcDbVertex
100
AcDb2dVertex
 10
72.76695669695692
 20
57.21001356177389
 30
0.0
  0
VERTEX
  5
324
330
322
100
AcDbEntity
  8
Livello 1
100
AcDbVertex
100
AcDb2dVertex
 10
83.04210695555742
 20
46.94026439767429
 30
0.0
  0
SEQEND
  5
325
330
322
100
AcDbEntity
  8
Livello 1
  0
POLYLINE
  5
326
330
1F
100
AcDbEntity
  8
Livello 1
100
AcDb2dPolyline
 66
     1
 10
0.0
 20
0.0
 30
0.0
  0
VERTEX
  5
327
330
326
100
AcDbEntity
  8
Livello 1
100
AcDbVertex
100
AcDb2dVertex
 10
88.72859851196443
 20
42.5057771765613
 30
0.0
  0
VERTEX
  5
328
330
326
100
AcDbEntity
  8
Livello 1
100
AcDbVertex
100
AcDb2dVertex
 10
89.48714127039016
 20
41.41206023238962
 30
0.0
  0
SEQEND
  5
329
330
326
100
AcDbEntity
  8
Livello 1
  0
POLYLINE
  5
32A
330
1F
100
AcDbEntity
  8
Livello 1
100
AcDb2dPolyline
 66
     1
 10
0.0
 20
0.0
 30
0.0
  0
VERTEX
  5
32B
330
32A
100
AcDbEntity
  8
Livello 1
100
AcDbVertex
100
AcDb2dVertex
 10
71.1526809048072
 20
41.41206023238962
 30
0.0
  0
VERTEX
  5
32C
330
32A
100
AcDbEntity
  8
Livello 1
100
AcDbVertex
100
AcDb2dVertex
 10
74.07516249691525
 20
41.41206023238962
 30
0.0
  0
SEQEND
  5
32D
330
32A
100
AcDbEntity
  8
Livello 1
  0
POLYLINE
  5
32E
330
1F
100
AcDbEntity
  8
Livello 1
100
AcDb2dPolyline
 66
     1
 10
0.0
 20
0.0
 30
0.0
  0
VERTEX
  5
32F
330
32E
100
AcDbEntity
  8
Livello 1
100
AcDbVertex
100
AcDb2dVertex
 10
74.96938358521282
 20
42.5057771765613
 30
0.0
  0
VERTEX
  5
330
330
32E
100
AcDbEntity
  8
Livello 1
100
AcDbVertex
100
AcDb2dVertex
 10
74.07516249691525
 20
41.41206023238962
 30
0.0
  0
SEQEND
  5
331
330
32E
100
AcDbEntity
  8
Livello 1
  0
SPLINE
  5
332
330
1F
100
AcDbEntity
  8
Livello 1
100
AcDbSpline
210
0.0
220
0.0
230
1.0
 70
     8
 71
     3
 72
    17
 73
    13
 74
     0
 42
0.000000001
 43
0.0000000001
 40
0.0
 40
0.0
 40
0.0
 40
0.0
 40
1.0
 40
1.0
 40
1.0
 40
2.0
 40
2.0
 40
2.0
 40
3.0
 40
3.0
 40
3.0
 40
4.0
 40
4.0
 40
4.0
 40
4.0
 10
72.76695669695692
 20
65.57783189301521
 30
0.0
 10
72.71647419824489
 20
65.57003550412822
 30
0.0
 10
72.66510975511085
 20
65.57003550412822
 30
0.0
 10
72.6146272563987
 20
65.57783189301521
 30
0.0
 10
72.34154198558792
 20
65.61988300411584
 30
0.0
 10
72.15425226814392
 20
65.87536467071853
 30
0.0
 10
72.19630695826868
 20
66.14848522620606
 30
0.0
 10
72.2383897659974
 20
66.42157050391543
 30
0.0
 10
72.4938714261462
 20
66.60886022609073
 30
0.0
 10
72.76695669695692
 20
66.56680911499043
 30
0.0
 10
72.76695669695692
 20
66.56680911499043
 30
0.0
 10
72.76695669695692
 20
67.1921077259449
 30
0.0
 10
72.76695669695692
 20
67.1921077259449
 30
0.0
  0
SPLINE
  5
333
330
1F
100
AcDbEntity
  8
Livello 1
100
AcDbSpline
210
0.0
220
0.0
230
1.0
 70
     8
 71
     3
 72
    14
 73
    10
 74
     0
 42
0.000000001
 43
0.0000000001
 40
0.0
 40
0.0
 40
0.0
 40
0.0
 40
1.0
 40
1.0
 40
1.0
 40
2.0
 40
2.0
 40
2.0
 40
3.0
 40
3.0
 40
3.0
 40
3.0
 10
72.76695669695692
 20
64.39962467108763
 30
0.0
 10
73.08717307767643
 20
64.36505244887405
 30
0.0
 10
73.37479279256086
 20
64.59661578214947
 30
0.0
 10
73.40936501390103
 20
64.9168321709582
 30
0.0
 10
73.44397251301825
 20
65.23704855976728
 30
0.0
 10
73.21240918559254
 20
65.52466828191734
 30
0.0
 10
72.89219280487305
 20
65.55924050413091
 30
0.0
 10
72.85056502815724
 20
65.56375605968549
 30
0.0
 10
72.80858447367274
 20
65.56375605968549
 30
0.0
 10
72.76695669695692
 20
65.55924050413091
 30
0.0
  0
SPLINE
  5
334
330
1F
100
AcDbEntity
  8
Livello 1
100
AcDbSpline
210
0.0
220
0.0
230
1.0
 70
     8
 71
     3
 72
    20
 73
    16
 74
     0
 42
0.000000001
 43
0.0000000001
 40
0.0
 40
0.0
 40
0.0
 40
0.0
 40
1.0
 40
1.0
 40
1.0
 40
2.0
 40
2.0
 40
2.0
 40
3.0
 40
3.0
 40
3.0
 40
4.0
 40
4.0
 40
4.0
 40
5.0
 40
5.0
 40
5.0
 40
5.0
 10
91.25279400312241
 20
46.98922995321782
 30
0.0
 10
91.25279400312241
 20
46.98922995321782
 30
0.0
 10
91.25279400312241
 20
45.69718134243025
 30
0.0
 10
91.25279400312241
 20
45.69718134243025
 30
0.0
 10
91.25279400312241
 20
45.36465300917931
 30
0.0
 10
91.52235149624539
 20
45.09513078702475
 30
0.0
 10
91.85484862002073
 20
45.09513078702475
 30
0.0
 10
92.18733759039123
 20
45.09513078702475
 30
0.0
 10
92.45689508351432
 20
45.36465300917931
 30
0.0
 10
92.45689508351432
 20
45.69718134243025
 30
0.0
 10
92.45689508351432
 20
45.69718134243025
 30
0.0
 10
92.45689508351432
 20
46.88124467546713
 30
0.0
 10
92.45689508351432
 20
46.88124467546713
 30
0.0
 10
92.45689508351432
 20
46.88124467546713
 30
0.0
 10
93.66343033051084
 20
46.88124467546713
 30
0.0
 10
93.66343033051084
 20
46.88124467546713
 30
0.0
  0
LINE
  5
335
330
1F
100
AcDbEntity
  8
Livello 1
100
AcDbLine
 10
91.25279400312241
 20
74.52477678296768
 30
0.0
 11
99.73867714647008
 21
66.38204616364753
 31
0.0
  0
POLYLINE
  5
336
330
1F
100
AcDbEntity
  8
Livello 1
100
AcDb2dPolyline
 66
     1
 10
0.0
 20
0.0
 30
0.0
  0
VERTEX
  5
337
330
336
100
AcDbEntity
  8
Livello 1
100
AcDbVertex
100
AcDb2dVertex
 10
98.99377645650014
 20
76.40099558867453
 30
0.0
  0
VERTEX
  5
338
330
336
100
AcDbEntity
  8
Livello 1
100
AcDbVertex
100
AcDb2dVertex
 10
98.98481920823844
 20
76.40995283693619
 30
0.0
  0
VERTEX
  5
339
330
336
100
AcDbEntity
  8
Livello 1
100
AcDbVertex
100
AcDb2dVertex
 10
98.20347155218389
 20
76.64353031083613
 30
0.0
  0
VERTEX
  5
33A
330
336
100
AcDbEntity
  8
Livello 1
100
AcDbVertex
100
AcDb2dVertex
 10
98.42809177782214
 20
77.02076826647098
 30
0.0
  0
VERTEX
  5
33B
330
336
100
AcDbEntity
  8
Livello 1
100
AcDbVertex
100
AcDb2dVertex
 10
99.40718791473017
 20
76.72414554519098
 30
0.0
  0
VERTEX
  5
33C
330
336
100
AcDbEntity
  8
Livello 1
100
AcDbVertex
100
AcDb2dVertex
 10
99.74411825318753
 20
76.38721520673354
 30
0.0
  0
VERTEX
  5
33D
330
336
100
AcDbEntity
  8
Livello 1
100
AcDbVertex
100
AcDb2dVertex
 10
96.82371081034126
 20
73.46853031162988
 30
0.0
  0
VERTEX
  5
33E
330
336
100
AcDbEntity
  8
Livello 1
100
AcDbVertex
100
AcDb2dVertex
 10
96.44233874012417
 20
73.85024689139555
 30
0.0
  0
VERTEX
  5
33F
330
336
100
AcDbEntity
  8
Livello 1
100
AcDbVertex
100
AcDb2dVertex
 10
98.99377645650014
 20
76.40099558867453
 30
0.0
  0
SEQEND
  5
340
330
336
100
AcDbEntity
  8
Livello 1
  0
HATCH
  5
341
330
1F
100
AcDbEntity
  8
Livello 1
100
AcDbHatch
 10
0.0
 20
0.0
 30
0.0
210
0.0
220
0.0
230
1.0
  2
SOLID
 70
     1
 71
     0
 91
        1
 92
        1
 93
        8
 72
     1
 10
98.99377645650014
 20
76.40099558867453
 11
98.98481920823844
 21
76.40995283693619
 72
     1
 10
98.98481920823844
 20
76.40995283693619
 11
98.20347155218389
 21
76.64353031083613
 72
     1
 10
98.20347155218389
 20
76.64353031083613
 11
98.42809177782214
 21
77.02076826647098
 72
     1
 10
98.42809177782214
 20
77.02076826647098
 11
99.40718791473017
 21
76.72414554519097
 72
     1
 10
99.40718791473017
 20
76.72414554519098
 11
99.74411825318753
 21
76.38721520673354
 72
     1
 10
99.74411825318753
 20
76.38721520673354
 11
96.82371081034126
 21
73.46853031162988
 72
     1
 10
96.82371081034126
 20
73.46853031162988
 11
96.44233874012417
 21
73.85024689139555
 72
     1
 10
96.44233874012417
 20
73.85024689139555
 11
98.99377645650014
 21
76.40099558867453
 97
        0
 75
     2
 76
     1
 98
        0
450
        0
451
        0
460
0.0
461
0.0
452
        0
462
0.0
453
        0
470

  0
SPLINE
  5
342
330
1F
100
AcDbEntity
  8
Livello 1
100
AcDbSpline
210
0.0
220
0.0
230
1.0
 70
     9
 71
     3
 72
    17
 73
    13
 74
     0
 42
0.000000001
 43
0.0000000001
 40
0.0
 40
0.0
 40
0.0
 40
0.0
 40
1.0
 40
1.0
 40
1.0
 40
2.0
 40
2.0
 40
2.0
 40
3.0
 40
3.0
 40
3.0
 40
4.0
 40
4.0
 40
4.0
 40
4.0
 10
101.3185268899467
 20
71.95475535541108
 30
0.0
 10
100.3256503710977
 20
70.9618788365621
 30
0.0
 10
99.40925497202137
 20
70.78273387132911
 30
0.0
 10
98.76295505898838
 20
71.42972280345903
 30
0.0
 10
98.19244724663105
 20
72.0002306158164
 30
0.0
 10
98.34127537159384
 20
72.92076012947515
 30
0.0
 10
99.29797838784772
 20
73.89537764225233
 30
0.0
 10
100.2774190343042
 20
74.8741292696118
 30
0.0
 10
101.2386006746889
 20
74.99057349701326
 30
0.0
 10
101.8311570981518
 20
74.39767256400177
 30
0.0
 10
102.4464511518175
 20
73.78203400078762
 30
0.0
 10
102.2487026709641
 20
72.88424211733151
 30
0.0
 10
101.3185268899467
 20
71.95475535541108
 30
0.0
  0
SPLINE
  5
343
330
1F
100
AcDbEntity
  8
Livello 1
100
AcDbSpline
210
0.0
220
0.0
230
1.0
 70
     9
 71
     3
 72
    17
 73
    13
 74
     0
 42
0.000000001
 43
0.0000000001
 40
0.0
 40
0.0
 40
0.0
 40
0.0
 40
1.0
 40
1.0
 40
1.0
 40
2.0
 40
2.0
 40
2.0
 40
3.0
 40
3.0
 40
3.0
 40
4.0
 40
4.0
 40
4.0
 40
4.0
 10
99.68830770632656
 20
73.49540205641483
 30
0.0
 10
98.92900866137745
 20
72.73679203056281
 30
0.0
 10
98.73126018052403
 20
72.07188860190959
 30
0.0
 10
99.09058363963566
 20
71.71256514279804
 30
0.0
 10
99.4946933400554
 20
71.30845544237823
 30
0.0
 10
100.1595967687087
 20
71.58681915758641
 30
0.0
 10
100.9051154317167
 20
72.33199331104597
 30
0.0
 10
101.6241068594883
 20
73.05029571972055
 30
0.0
 10
101.9117723325067
 20
73.70624190011212
 30
0.0
 10
101.5031840079561
 20
74.11483022466274
 30
0.0
 10
101.1576409307855
 20
74.46071781138184
 30
0.0
 10
100.4834357443222
 20
74.29053009441048
 30
0.0
 10
99.68830770632656
 20
73.49540205641483
 30
0.0
  0
HATCH
  5
344
330
1F
100
AcDbEntity
  8
Livello 1
100
AcDbHatch
 10
0.0
 20
0.0
 30
0.0
210
0.0
220
0.0
230
1.0
  2
SOLID
 70
     1
 71
     0
 91
        2
 92
        1
 93
        1
 72
     4
 94
        3
 73
     0
 74
     0
 95
       17
 96
       13
 40
0.0
 40
0.0
 40
0.0
 40
0.0
 40
1.0
 40
1.0
 40
1.0
 40
2.0
 40
2.0
 40
2.0
 40
3.0
 40
3.0
 40
3.0
 40
4.0
 40
4.0
 40
4.0
 40
4.0
 10
101.3185268899467
 20
71.95475535541108
 10
100.3256503710977
 20
70.9618788365621
 10
99.40925497202137
 20
70.78273387132911
 10
98.76295505898838
 20
71.42972280345903
 10
98.19244724663105
 20
72.0002306158164
 10
98.34127537159384
 20
72.92076012947515
 10
99.29797838784772
 20
73.89537764225233
 10
100.2774190343042
 20
74.8741292696118
 10
101.2386006746889
 20
74.99057349701326
 10
101.8311570981518
 20
74.39767256400177
 10
102.4464511518175
 20
73.78203400078762
 10
102.2487026709641
 20
72.88424211733151
 10
101.3185268899467
 20
71.95475535541108
 97
        0
 97
        0
 92
        1
 93
        1
 72
     4
 94
        3
 73
     0
 74
     0
 95
       17
 96
       13
 40
0.0
 40
0.0
 40
0.0
 40
0.0
 40
1.0
 40
1.0
 40
1.0
 40
2.0
 40
2.0
 40
2.0
 40
3.0
 40
3.0
 40
3.0
 40
4.0
 40
4.0
 40
4.0
 40
4.0
 10
99.68830770632656
 20
73.49540205641483
 10
98.92900866137745
 20
72.73679203056281
 10
98.73126018052403
 20
72.07188860190959
 10
99.09058363963566
 20
71.71256514279804
 10
99.4946933400554
 20
71.30845544237823
 10
100.1595967687087
 20
71.58681915758641
 10
100.9051154317167
 20
72.33199331104597
 10
101.6241068594883
 20
73.05029571972055
 10
101.9117723325067
 20
73.70624190011212
 10
101.5031840079561
 20
74.11483022466274
 10
101.1576409307855
 20
74.46071781138184
 10
100.4834357443222
 20
74.29053009441048
 10
99.68830770632656
 20
73.49540205641483
 97
        0
 97
        0
 75
     2
 76
     1
 98
        0
450
        0
451
        0
460
0.0
461
0.0
452
        0
462
0.0
453
        0
470

  0
SPLINE
  5
345
330
1F
100
AcDbEntity
  8
Livello 1
100
AcDbSpline
210
0.0
220
0.0
230
1.0
 70
     9
 71
     3
 72
    80
 73
    76
 74
     0
 42
0.000000001
 43
0.0000000001
 40
0.0
 40
0.0
 40
0.0
 40
0.0
 40
1.0
 40
1.0
 40
1.0
 40
2.0
 40
2.0
 40
2.0
 40
3.0
 40
3.0
 40
3.0
 40
4.0
 40
4.0
 40
4.0
 40
5.0
 40
5.0
 40
5.0
 40
6.0
 40
6.0
 40
6.0
 40
7.0
 40
7.0
 40
7.0
 40
8.0
 40
8.0
 40
8.0
 40
9.0
 40
9.0
 40
9.0
 40
10.0
 40
10.0
 40
10.0
 40
11.0
 40
11.0
 40
11.0
 40
12.0
 40
12.0
 40
12.0
 40
13.0
 40
13.0
 40
13.0
 40
14.0
 40
14.0
 40
14.0
 40
15.0
 40
15.0
 40
15.0
 40
16.0
 40
16.0
 40
16.0
 40
17.0
 40
17.0
 40
17.0
 40
18.0
 40
18.0
 40
18.0
 40
19.0
 40
19.0
 40
19.0
 40
20.0
 40
20.0
 40
20.0
 40
21.0
 40
21.0
 40
21.0
 40
22.0
 40
22.0
 40
22.0
 40
23.0
 40
23.0
 40
23.0
 40
24.0
 40
24.0
 40
24.0
 40
25.0
 40
25.0
 40
25.0
 40
25.0
 10
102.8533169286255
 20
70.60772302067842
 30
0.0
 10
103.0782816638123
 20
70.83234324631671
 30
0.0
 10
103.2577711385938
 20
71.0211344789084
 30
0.0
 10
103.4238247409829
 20
71.21405982608239
 30
0.0
 10
103.4238247409829
 20
71.21405982608239
 30
0.0
 10
103.769712327702
 20
70.8681722393633
 30
0.0
 10
103.769712327702
 20
70.8681722393633
 30
0.0
 10
103.769712327702
 20
70.8681722393633
 30
0.0
 10
103.4372606133753
 20
70.49954702244159
 30
0.0
 10
103.4372606133753
 20
70.49954702244159
 30
0.0
 10
103.4372606133753
 20
70.49954702244159
 30
0.0
 10
103.4503519762193
 20
70.48645565959763
 30
0.0
 10
103.4503519762193
 20
70.48645565959763
 30
0.0
 10
103.7783250664151
 20
70.57120500853476
 30
0.0
 10
104.1738220281217
 20
70.56293677937016
 30
0.0
 10
104.5328009776848
 20
70.20326881071008
 30
0.0
 10
104.8290791894163
 20
69.9069905989786
 30
0.0
 10
104.8738654307245
 20
69.50253638901028
 30
0.0
 10
104.7122904524664
 20
69.15217017816036
 30
0.0
 10
104.7122904524664
 20
69.15217017816036
 30
0.0
 10
104.7212477007279
 20
69.14321292989871
 30
0.0
 10
104.7212477007279
 20
69.14321292989871
 30
0.0
 10
104.9100389333197
 20
69.1969564194686
 30
0.0
 10
105.0895284081012
 20
69.20591366773026
 30
0.0
 10
105.2469692717771
 20
69.18352054707613
 30
0.0
 10
105.4760681215462
 20
69.15182566861182
 30
0.0
 10
105.6738166023996
 20
69.06190867644681
 30
0.0
 10
105.880177821966
 20
68.85554745688033
 30
0.0
 10
106.1674987854359
 20
68.56788198386198
 30
0.0
 10
106.4052103739182
 20
67.95258793019637
 30
0.0
 10
105.6503899530998
 20
67.19811201892665
 30
0.0
 10
105.6503899530998
 20
67.19811201892665
 30
0.0
 10
104.370192470781
 20
65.91825904615634
 30
0.0
 10
104.370192470781
 20
65.91825904615634
 30
0.0
 10
104.370192470781
 20
65.91825904615634
 30
0.0
 10
103.984341776433
 20
66.30479875960137
 30
0.0
 10
103.984341776433
 20
66.30479875960137
 30
0.0
 10
103.984341776433
 20
66.30479875960137
 30
0.0
 10
105.2149298837642
 20
67.53504235738408
 30
0.0
 10
105.2149298837642
 20
67.53504235738408
 30
0.0
 10
105.6328199661251
 20
67.95258793019637
 30
0.0
 10
105.7316942065517
 20
68.35669763061616
 30
0.0
 10
105.4130228741662
 20
68.67571347255031
 30
0.0
 10
105.1884026485278
 20
68.90033369818858
 30
0.0
 10
104.8469936859395
 20
68.90929094645024
 30
0.0
 10
104.5865444672547
 20
68.78388947078715
 30
0.0
 10
104.5148864811615
 20
68.74806047774055
 30
0.0
 10
104.4294481131273
 20
68.68949385449131
 30
0.0
 10
104.3574456174857
 20
68.6178358683981
 30
0.0
 10
104.3574456174857
 20
68.6178358683981
 30
0.0
 10
103.0142028877867
 20
67.27493764824773
 30
0.0
 10
103.0142028877867
 20
67.27493764824773
 30
0.0
 10
103.0142028877867
 20
67.27493764824773
 30
0.0
 10
102.6276631743417
 20
67.66147736169276
 30
0.0
 10
102.6276631743417
 20
67.66147736169276
 30
0.0
 10
102.6276631743417
 20
67.66147736169276
 30
0.0
 10
103.9305982868631
 20
68.96372345511719
 30
0.0
 10
103.9305982868631
 20
68.96372345511719
 30
0.0
 10
104.2764858735822
 20
69.30961104183629
 30
0.0
 10
104.3757046235574
 20
69.71337623270756
 30
0.0
 10
104.0746032781465
 20
70.0144775781184
 30
0.0
 10
103.8279344414027
 20
70.26183543395934
 30
0.0
 10
103.4506964857678
 20
70.24392093743603
 30
0.0
 10
103.1899027575344
 20
70.10887319441424
 30
0.0
 10
103.1092875231796
 20
70.07338871091616
 30
0.0
 10
103.032806403407
 20
70.01482208766692
 30
0.0
 10
102.9652825318961
 20
69.94764272570454
 30
0.0
 10
102.9652825318961
 20
69.94764272570454
 30
0.0
 10
101.6537346806615
 20
68.63643938401846
 30
0.0
 10
101.6537346806615
 20
68.63643938401846
 30
0.0
 10
101.6537346806615
 20
68.63643938401846
 30
0.0
 10
101.267539476765
 20
69.02263458791496
 30
0.0
 10
101.267539476765
 20
69.02263458791496
 30
0.0
 10
101.267539476765
 20
69.02263458791496
 30
0.0
 10
102.8533169286255
 20
70.60772302067842
 30
0.0
 10
102.8533169286255
 20
70.60772302067842
 30
0.0
  0
HATCH
  5
346
330
1F
100
AcDbEntity
  8
Livello 1
100
AcDbHatch
 10
0.0
 20
0.0
 30
0.0
210
0.0
220
0.0
230
1.0
  2
SOLID
 70
     1
 71
     0
 91
        1
 92
        1
 93
        1
 72
     4
 94
        3
 73
     0
 74
     0
 95
       80
 96
       76
 40
0.0
 40
0.0
 40
0.0
 40
0.0
 40
1.0
 40
1.0
 40
1.0
 40
2.0
 40
2.0
 40
2.0
 40
3.0
 40
3.0
 40
3.0
 40
4.0
 40
4.0
 40
4.0
 40
5.0
 40
5.0
 40
5.0
 40
6.0
 40
6.0
 40
6.0
 40
7.0
 40
7.0
 40
7.0
 40
8.0
 40
8.0
 40
8.0
 40
9.0
 40
9.0
 40
9.0
 40
10.0
 40
10.0
 40
10.0
 40
11.0
 40
11.0
 40
11.0
 40
12.0
 40
12.0
 40
12.0
 40
13.0
 40
13.0
 40
13.0
 40
14.0
 40
14.0
 40
14.0
 40
15.0
 40
15.0
 40
15.0
 40
16.0
 40
16.0
 40
16.0
 40
17.0
 40
17.0
 40
17.0
 40
18.0
 40
18.0
 40
18.0
 40
19.0
 40
19.0
 40
19.0
 40
20.0
 40
20.0
 40
20.0
 40
21.0
 40
21.0
 40
21.0
 40
22.0
 40
22.0
 40
22.0
 40
23.0
 40
23.0
 40
23.0
 40
24.0
 40
24.0
 40
24.0
 40
25.0
 40
25.0
 40
25.0
 40
25.0
 10
102.8533169286255
 20
70.60772302067842
 10
103.0782816638123
 20
70.83234324631671
 10
103.2577711385938
 20
71.0211344789084
 10
103.4238247409829
 20
71.21405982608239
 10
103.4238247409829
 20
71.21405982608239
 10
103.769712327702
 20
70.8681722393633
 10
103.769712327702
 20
70.8681722393633
 10
103.769712327702
 20
70.8681722393633
 10
103.4372606133753
 20
70.49954702244159
 10
103.4372606133753
 20
70.49954702244159
 10
103.4372606133753
 20
70.49954702244159
 10
103.4503519762193
 20
70.48645565959763
 10
103.4503519762193
 20
70.48645565959763
 10
103.7783250664151
 20
70.57120500853476
 10
104.1738220281217
 20
70.56293677937016
 10
104.5328009776848
 20
70.20326881071008
 10
104.8290791894163
 20
69.9069905989786
 10
104.8738654307245
 20
69.50253638901028
 10
104.7122904524664
 20
69.15217017816036
 10
104.7122904524664
 20
69.15217017816036
 10
104.7212477007279
 20
69.14321292989871
 10
104.7212477007279
 20
69.14321292989871
 10
104.9100389333197
 20
69.1969564194686
 10
105.0895284081012
 20
69.20591366773026
 10
105.2469692717771
 20
69.18352054707613
 10
105.4760681215462
 20
69.15182566861182
 10
105.6738166023996
 20
69.06190867644681
 10
105.880177821966
 20
68.85554745688033
 10
106.1674987854359
 20
68.56788198386198
 10
106.4052103739182
 20
67.95258793019637
 10
105.6503899530998
 20
67.19811201892665
 10
105.6503899530998
 20
67.19811201892665
 10
104.370192470781
 20
65.91825904615634
 10
104.370192470781
 20
65.91825904615634
 10
104.370192470781
 20
65.91825904615634
 10
103.984341776433
 20
66.30479875960137
 10
103.984341776433
 20
66.30479875960137
 10
103.984341776433
 20
66.30479875960137
 10
105.2149298837642
 20
67.53504235738408
 10
105.2149298837642
 20
67.53504235738408
 10
105.6328199661251
 20
67.95258793019637
 10
105.7316942065517
 20
68.35669763061616
 10
105.4130228741662
 20
68.67571347255031
 10
105.1884026485278
 20
68.90033369818858
 10
104.8469936859395
 20
68.90929094645024
 10
104.5865444672547
 20
68.78388947078715
 10
104.5148864811615
 20
68.74806047774055
 10
104.4294481131273
 20
68.68949385449131
 10
104.3574456174857
 20
68.6178358683981
 10
104.3574456174857
 20
68.6178358683981
 10
103.0142028877867
 20
67.27493764824773
 10
103.0142028877867
 20
67.27493764824773
 10
103.0142028877867
 20
67.27493764824773
 10
102.6276631743417
 20
67.66147736169276
 10
102.6276631743417
 20
67.66147736169276
 10
102.6276631743417
 20
67.66147736169276
 10
103.9305982868631
 20
68.96372345511719
 10
103.9305982868631
 20
68.96372345511719
 10
104.2764858735822
 20
69.30961104183629
 10
104.3757046235574
 20
69.71337623270756
 10
104.0746032781465
 20
70.0144775781184
 10
103.8279344414027
 20
70.26183543395934
 10
103.4506964857678
 20
70.24392093743603
 10
103.1899027575344
 20
70.10887319441424
 10
103.1092875231796
 20
70.07338871091616
 10
103.032806403407
 20
70.01482208766692
 10
102.9652825318961
 20
69.94764272570454
 10
102.9652825318961
 20
69.94764272570454
 10
101.6537346806615
 20
68.63643938401846
 10
101.6537346806615
 20
68.63643938401846
 10
101.6537346806615
 20
68.63643938401846
 10
101.267539476765
 20
69.02263458791496
 10
101.267539476765
 20
69.02263458791496
 10
101.267539476765
 20
69.02263458791496
 10
102.8533169286255
 20
70.60772302067842
 10
102.8533169286255
 20
70.60772302067842
 97
        0
 97
        0
 75
     2
 76
     1
 98
        0
450
        0
451
        0
460
0.0
461
0.0
452
        0
462
0.0
453
        0
470

  0
SPLINE
  5
347
330
1F
100
AcDbEntity
  8
Livello 1
100
AcDbSpline
210
0.0
220
0.0
230
1.0
 70
     9
 71
     3
 72
    80
 73
    76
 74
     0
 42
0.000000001
 43
0.0000000001
 40
0.0
 40
0.0
 40
0.0
 40
0.0
 40
1.0
 40
1.0
 40
1.0
 40
2.0
 40
2.0
 40
2.0
 40
3.0
 40
3.0
 40
3.0
 40
4.0
 40
4.0
 40
4.0
 40
5.0
 40
5.0
 40
5.0
 40
6.0
 40
6.0
 40
6.0
 40
7.0
 40
7.0
 40
7.0
 40
8.0
 40
8.0
 40
8.0
 40
9.0
 40
9.0
 40
9.0
 40
10.0
 40
10.0
 40
10.0
 40
11.0
 40
11.0
 40
11.0
 40
12.0
 40
12.0
 40
12.0
 40
13.0
 40
13.0
 40
13.0
 40
14.0
 40
14.0
 40
14.0
 40
15.0
 40
15.0
 40
15.0
 40
16.0
 40
16.0
 40
16.0
 40
17.0
 40
17.0
 40
17.0
 40
18.0
 40
18.0
 40
18.0
 40
19.0
 40
19.0
 40
19.0
 40
20.0
 40
20.0
 40
20.0
 40
21.0
 40
21.0
 40
21.0
 40
22.0
 40
22.0
 40
22.0
 40
23.0
 40
23.0
 40
23.0
 40
24.0
 40
24.0
 40
24.0
 40
25.0
 40
25.0
 40
25.0
 40
25.0
 10
106.5971021924465
 20
66.86221520911479
 30
0.0
 10
106.8217224180848
 20
67.08683543475308
 30
0.0
 10
107.0015564024148
 20
67.27528215779624
 30
0.0
 10
107.1676100048039
 20
67.46855201451876
 30
0.0
 10
107.1676100048039
 20
67.46855201451876
 30
0.0
 10
107.5134975915229
 20
67.12266442779967
 30
0.0
 10
107.5134975915229
 20
67.12266442779967
 30
0.0
 10
107.5134975915229
 20
67.12266442779967
 30
0.0
 10
107.1807013676478
 20
66.75403921087795
 30
0.0
 10
107.1807013676478
 20
66.75403921087795
 30
0.0
 10
107.1807013676478
 20
66.75403921087795
 30
0.0
 10
107.1944817495888
 20
66.74060333848547
 30
0.0
 10
107.1944817495888
 20
66.74060333848547
 30
0.0
 10
107.5224548397847
 20
66.82569719697115
 30
0.0
 10
107.9172627823942
 20
66.81708445825801
 30
0.0
 10
108.2765862415058
 20
66.45776099914647
 30
0.0
 10
108.5732089627859
 20
66.16113827786647
 30
0.0
 10
108.617995204094
 20
65.75702857744665
 30
0.0
 10
108.4560757162874
 20
65.40631785704821
 30
0.0
 10
108.4560757162874
 20
65.40631785704821
 30
0.0
 10
108.4650329645489
 20
65.39736060878656
 30
0.0
 10
108.4650329645489
 20
65.39736060878656
 30
0.0
 10
108.6538241971407
 20
65.45110409835643
 30
0.0
 10
108.8336581814707
 20
65.4600613466181
 30
0.0
 10
108.9907545355981
 20
65.437668225964
 30
0.0
 10
109.2198533853672
 20
65.40631785704821
 30
0.0
 10
109.417257356672
 20
65.3164008648832
 30
0.0
 10
109.623963085787
 20
65.10969513576821
 30
0.0
 10
109.9112840492568
 20
64.82202966274984
 30
0.0
 10
110.1489956377392
 20
64.2067356090842
 30
0.0
 10
109.3945197264694
 20
63.45225969781449
 30
0.0
 10
109.3945197264694
 20
63.45225969781449
 30
0.0
 10
108.113977734602
 20
62.17275123459271
 30
0.0
 10
108.113977734602
 20
62.17275123459271
 30
0.0
 10
108.113977734602
 20
62.17275123459271
 30
0.0
 10
107.7277825307055
 20
62.55894643848922
 30
0.0
 10
107.7277825307055
 20
62.55894643848922
 30
0.0
 10
107.7277825307055
 20
62.55894643848922
 30
0.0
 10
108.9590596571338
 20
63.78919003627193
 30
0.0
 10
108.9590596571338
 20
63.78919003627193
 30
0.0
 10
109.3766052299461
 20
64.2067356090842
 30
0.0
 10
109.4758239799213
 20
64.61118981905255
 30
0.0
 10
109.1568081379872
 20
64.9302056609867
 30
0.0
 10
108.9321879123488
 20
65.15482588662497
 30
0.0
 10
108.5911234593092
 20
65.16378313488663
 30
0.0
 10
108.3299852215272
 20
65.03838165922352
 30
0.0
 10
108.2583272354341
 20
65.00255266617691
 30
0.0
 10
108.1728888673998
 20
64.94398604292768
 30
0.0
 10
108.1012308813066
 20
64.87232805683449
 30
0.0
 10
108.1012308813066
 20
64.87232805683449
 30
0.0
 10
106.7579881516077
 20
63.5294298366841
 30
0.0
 10
106.7579881516077
 20
63.5294298366841
 30
0.0
 10
106.7579881516077
 20
63.5294298366841
 30
0.0
 10
106.3717929477112
 20
63.91596955012913
 30
0.0
 10
106.3717929477112
 20
63.91596955012913
 30
0.0
 10
106.3717929477112
 20
63.91596955012913
 30
0.0
 10
107.6743835506842
 20
65.21821564355356
 30
0.0
 10
107.6743835506842
 20
65.21821564355356
 30
0.0
 10
108.0202711374032
 20
65.56410323027265
 30
0.0
 10
108.1194898873784
 20
65.96786842114394
 30
0.0
 10
107.8187330515161
 20
66.26896976655477
 30
0.0
 10
107.5713751956752
 20
66.51632762239571
 30
0.0
 10
107.1944817495888
 20
66.4984131258724
 30
0.0
 10
106.9340325309039
 20
66.36336538285061
 30
0.0
 10
106.852728277452
 20
66.32753638980402
 30
0.0
 10
106.7769361767765
 20
66.26896976655477
 30
0.0
 10
106.7094123052657
 20
66.2017904045924
 30
0.0
 10
106.7094123052657
 20
66.2017904045924
 30
0.0
 10
105.3975199444825
 20
64.89058706290631
 30
0.0
 10
105.3975199444825
 20
64.89058706290631
 30
0.0
 10
105.3975199444825
 20
64.89058706290631
 30
0.0
 10
105.0109802310375
 20
65.27712677635133
 30
0.0
 10
105.0109802310375
 20
65.27712677635133
 30
0.0
 10
105.0109802310375
 20
65.27712677635133
 30
0.0
 10
106.5971021924465
 20
66.86221520911479
 30
0.0
 10
106.5971021924465
 20
66.86221520911479
 30
0.0
  0
HATCH
  5
348
330
1F
100
AcDbEntity
  8
Livello 1
100
AcDbHatch
 10
0.0
 20
0.0
 30
0.0
210
0.0
220
0.0
230
1.0
  2
SOLID
 70
     1
 71
     0
 91
        1
 92
        1
 93
        1
 72
     4
 94
        3
 73
     0
 74
     0
 95
       80
 96
       76
 40
0.0
 40
0.0
 40
0.0
 40
0.0
 40
1.0
 40
1.0
 40
1.0
 40
2.0
 40
2.0
 40
2.0
 40
3.0
 40
3.0
 40
3.0
 40
4.0
 40
4.0
 40
4.0
 40
5.0
 40
5.0
 40
5.0
 40
6.0
 40
6.0
 40
6.0
 40
7.0
 40
7.0
 40
7.0
 40
8.0
 40
8.0
 40
8.0
 40
9.0
 40
9.0
 40
9.0
 40
10.0
 40
10.0
 40
10.0
 40
11.0
 40
11.0
 40
11.0
 40
12.0
 40
12.0
 40
12.0
 40
13.0
 40
13.0
 40
13.0
 40
14.0
 40
14.0
 40
14.0
 40
15.0
 40
15.0
 40
15.0
 40
16.0
 40
16.0
 40
16.0
 40
17.0
 40
17.0
 40
17.0
 40
18.0
 40
18.0
 40
18.0
 40
19.0
 40
19.0
 40
19.0
 40
20.0
 40
20.0
 40
20.0
 40
21.0
 40
21.0
 40
21.0
 40
22.0
 40
22.0
 40
22.0
 40
23.0
 40
23.0
 40
23.0
 40
24.0
 40
24.0
 40
24.0
 40
25.0
 40
25.0
 40
25.0
 40
25.0
 10
106.5971021924465
 20
66.86221520911479
 10
106.8217224180848
 20
67.08683543475308
 10
107.0015564024148
 20
67.27528215779624
 10
107.1676100048039
 20
67.46855201451876
 10
107.1676100048039
 20
67.46855201451876
 10
107.5134975915229
 20
67.12266442779967
 10
107.5134975915229
 20
67.12266442779967
 10
107.5134975915229
 20
67.12266442779967
 10
107.1807013676478
 20
66.75403921087795
 10
107.1807013676478
 20
66.75403921087795
 10
107.1807013676478
 20
66.75403921087795
 10
107.1944817495888
 20
66.74060333848547
 10
107.1944817495888
 20
66.74060333848547
 10
107.5224548397847
 20
66.82569719697115
 10
107.9172627823942
 20
66.81708445825801
 10
108.2765862415058
 20
66.45776099914647
 10
108.5732089627859
 20
66.16113827786647
 10
108.617995204094
 20
65.75702857744665
 10
108.4560757162874
 20
65.40631785704821
 10
108.4560757162874
 20
65.40631785704821
 10
108.4650329645489
 20
65.39736060878656
 10
108.4650329645489
 20
65.39736060878656
 10
108.6538241971407
 20
65.45110409835643
 10
108.8336581814707
 20
65.4600613466181
 10
108.9907545355981
 20
65.437668225964
 10
109.2198533853672
 20
65.40631785704821
 10
109.417257356672
 20
65.3164008648832
 10
109.623963085787
 20
65.10969513576821
 10
109.9112840492568
 20
64.82202966274984
 10
110.1489956377392
 20
64.2067356090842
 10
109.3945197264694
 20
63.45225969781449
 10
109.3945197264694
 20
63.45225969781449
 10
108.113977734602
 20
62.17275123459271
 10
108.113977734602
 20
62.17275123459271
 10
108.113977734602
 20
62.17275123459271
 10
107.7277825307055
 20
62.55894643848922
 10
107.7277825307055
 20
62.55894643848922
 10
107.7277825307055
 20
62.55894643848922
 10
108.9590596571338
 20
63.78919003627193
 10
108.9590596571338
 20
63.78919003627193
 10
109.3766052299461
 20
64.2067356090842
 10
109.4758239799213
 20
64.61118981905255
 10
109.1568081379872
 20
64.9302056609867
 10
108.9321879123488
 20
65.15482588662497
 10
108.5911234593092
 20
65.16378313488663
 10
108.3299852215272
 20
65.03838165922352
 10
108.2583272354341
 20
65.00255266617691
 10
108.1728888673998
 20
64.94398604292768
 10
108.1012308813066
 20
64.87232805683449
 10
108.1012308813066
 20
64.87232805683449
 10
106.7579881516077
 20
63.5294298366841
 10
106.7579881516077
 20
63.5294298366841
 10
106.7579881516077
 20
63.5294298366841
 10
106.3717929477112
 20
63.91596955012913
 10
106.3717929477112
 20
63.91596955012913
 10
106.3717929477112
 20
63.91596955012913
 10
107.6743835506842
 20
65.21821564355356
 10
107.6743835506842
 20
65.21821564355356
 10
108.0202711374032
 20
65.56410323027265
 10
108.1194898873784
 20
65.96786842114394
 10
107.8187330515161
 20
66.26896976655477
 10
107.5713751956752
 20
66.51632762239571
 10
107.1944817495888
 20
66.4984131258724
 10
106.9340325309039
 20
66.36336538285061
 10
106.852728277452
 20
66.32753638980402
 10
106.7769361767765
 20
66.26896976655477
 10
106.7094123052657
 20
66.2017904045924
 10
106.7094123052657
 20
66.2017904045924
 10
105.3975199444825
 20
64.89058706290631
 10
105.3975199444825
 20
64.89058706290631
 10
105.3975199444825
 20
64.89058706290631
 10
105.0109802310375
 20
65.27712677635133
 10
105.0109802310375
 20
65.27712677635133
 10
105.0109802310375
 20
65.27712677635133
 10
106.5971021924465
 20
66.86221520911479
 10
106.5971021924465
 20
66.86221520911479
 97
        0
 97
        0
 75
     2
 76
     1
 98
        0
450
        0
451
        0
460
0.0
461
0.0
452
        0
462
0.0
453
        0
470

  0
LINE
  5
349
330
1F
100
AcDbEntity
  8
Livello 1
100
AcDbLine
 10
68.38140548763624
 20
67.1921077259449
 30
0.0
 11
68.38140548763624
 21
41.41206023238962
 31
0.0
  0
LINE
  5
34A
330
1F
100
AcDbEntity
  8
Livello 1
100
AcDbLine
 10
70.73680710196686
 20
37.31038953634975
 30
0.0
 11
93.66343033051084
 21
37.31038953634975
 31
0.0
  0
POLYLINE
  5
34B
330
1F
100
AcDbEntity
  8
Livello 1
100
AcDb2dPolyline
 66
     1
 10
0.0
 20
0.0
 30
0.0
  0
VERTEX
  5
34C
330
34B
100
AcDbEntity
  8
Livello 1
100
AcDbVertex
100
AcDb2dVertex
 10
77.71858928733985
 20
34.73497726141747
 30
0.0
  0
VERTEX
  5
34D
330
34B
100
AcDbEntity
  8
Livello 1
100
AcDbVertex
100
AcDb2dVertex
 10
77.70584243404437
 20
34.73497726141747
 30
0.0
  0
VERTEX
  5
34E
330
34B
100
AcDbEntity
  8
Livello 1
100
AcDbVertex
100
AcDb2dVertex
 10
76.98822904446683
 20
34.34757627410106
 30
0.0
  0
VERTEX
  5
34F
330
34B
100
AcDbEntity
  8
Livello 1
100
AcDbVertex
100
AcDb2dVertex
 10
76.88039755577841
 20
34.77304556652948
 30
0.0
  0
VERTEX
  5
350
330
34B
100
AcDbEntity
  8
Livello 1
100
AcDbVertex
100
AcDb2dVertex
 10
77.78232355381692
 20
35.25587569878716
 30
0.0
  0
VERTEX
  5
351
330
34B
100
AcDbEntity
  8
Livello 1
100
AcDbVertex
100
AcDb2dVertex
 10
78.2584357498784
 20
35.25587569878716
 30
0.0
  0
VERTEX
  5
352
330
34B
100
AcDbEntity
  8
Livello 1
100
AcDbVertex
100
AcDb2dVertex
 10
78.2584357498784
 20
31.12710101448956
 30
0.0
  0
VERTEX
  5
353
330
34B
100
AcDbEntity
  8
Livello 1
100
AcDbVertex
100
AcDb2dVertex
 10
77.71858928733985
 20
31.12710101448956
 30
0.0
  0
VERTEX
  5
354
330
34B
100
AcDbEntity
  8
Livello 1
100
AcDbVertex
100
AcDb2dVertex
 10
77.71858928733985
 20
34.73497726141747
 30
0.0
  0
SEQEND
  5
355
330
34B
100
AcDbEntity
  8
Livello 1
  0
HATCH
  5
356
330
1F
100
AcDbEntity
  8
Livello 1
100
AcDbHatch
 10
0.0
 20
0.0
 30
0.0
210
0.0
220
0.0
230
1.0
  2
SOLID
 70
     1
 71
     0
 91
        1
 92
        1
 93
        8
 72
     1
 10
77.71858928733985
 20
34.73497726141747
 11
77.70584243404437
 21
34.73497726141747
 72
     1
 10
77.70584243404437
 20
34.73497726141747
 11
76.98822904446683
 21
34.34757627410106
 72
     1
 10
76.98822904446683
 20
34.34757627410106
 11
76.88039755577841
 21
34.77304556652948
 72
     1
 10
76.88039755577841
 20
34.77304556652948
 11
77.78232355381692
 21
35.25587569878716
 72
     1
 10
77.78232355381692
 20
35.25587569878716
 11
78.2584357498784
 21
35.25587569878716
 72
     1
 10
78.2584357498784
 20
35.25587569878716
 11
78.2584357498784
 21
31.12710101448956
 72
     1
 10
78.2584357498784
 20
31.12710101448956
 11
77.71858928733985
 21
31.12710101448956
 72
     1
 10
77.71858928733985
 20
31.12710101448956
 11
77.71858928733985
 21
34.73497726141747
 97
        0
 75
     2
 76
     1
 98
        0
450
        0
451
        0
460
0.0
461
0.0
452
        0
462
0.0
453
        0
470

  0
SPLINE
  5
357
330
1F
100
AcDbEntity
  8
Livello 1
100
AcDbSpline
210
0.0
220
0.0
230
1.0
 70
     9
 71
     3
 72
    38
 73
    34
 74
     0
 42
0.000000001
 43
0.0000000001
 40
0.0
 40
0.0
 40
0.0
 40
0.0
 40
1.0
 40
1.0
 40
1.0
 40
2.0
 40
2.0
 40
2.0
 40
3.0
 40
3.0
 40
3.0
 40
4.0
 40
4.0
 40
4.0
 40
5.0
 40
5.0
 40
5.0
 40
6.0
 40
6.0
 40
6.0
 40
7.0
 40
7.0
 40
7.0
 40
8.0
 40
8.0
 40
8.0
 40
9.0
 40
9.0
 40
9.0
 40
10.0
 40
10.0
 40
10.0
 40
11.0
 40
11.0
 40
11.0
 40
11.0
 10
82.11935426019783
 20
34.86210128482317
 30
0.0
 10
82.00497709008766
 20
34.86830245669656
 30
0.0
 10
81.85890504151302
 20
34.86210128482317
 30
0.0
 10
81.70008613964302
 20
34.83660757823226
 30
0.0
 10
80.82365384819542
 20
34.69053552965768
 30
0.0
 10
80.35994399588089
 20
34.04905875030417
 30
0.0
 10
80.26451485093941
 20
33.36934141106437
 30
0.0
 10
80.26451485093941
 20
33.36934141106437
 30
0.0
 10
80.28380738565687
 20
33.36934141106437
 30
0.0
 10
80.28380738565687
 20
33.36934141106437
 30
0.0
 10
80.48052233786455
 20
33.62979062974927
 30
0.0
 10
80.82365384819542
 20
33.84579811667447
 30
0.0
 10
81.28081801908804
 20
33.84579811667447
 30
0.0
 10
82.01152277150953
 20
33.84579811667447
 30
0.0
 10
82.5258755274574
 20
33.31852625265697
 30
0.0
 10
82.5258755274574
 20
32.51185714478565
 30
0.0
 10
82.5258755274574
 20
31.75600319532185
 30
0.0
 10
82.01152277150953
 20
31.05716557613896
 30
0.0
 10
81.15369399568237
 20
31.05716557613896
 30
0.0
 10
80.27106053236133
 20
31.05716557613896
 30
0.0
 10
79.69297350993645
 20
31.74325634202647
 30
0.0
 10
79.69297350993645
 20
32.81674809523035
 30
0.0
 10
79.69297350993645
 20
33.62979062974927
 30
0.0
 10
79.98511760708566
 20
34.27126740910278
 30
0.0
 10
80.39163887434517
 20
34.67778867636226
 30
0.0
 10
80.73477038467592
 20
35.01437450527118
 30
0.0
 10
81.19193455556866
 20
35.22400856554867
 30
0.0
 10
81.71283299293838
 20
35.28757057725146
 30
0.0
 10
81.87785306668184
 20
35.31306428384237
 30
0.0
 10
82.01772394338304
 20
35.31926545571575
 30
0.0
 10
82.11935426019783
 20
35.31926545571575
 30
0.0
 10
82.11935426019783
 20
35.31926545571575
 30
0.0
 10
82.11935426019783
 20
34.86210128482317
 30
0.0
 10
82.11935426019783
 20
34.86210128482317
 30
0.0
  0
SPLINE
  5
358
330
1F
100
AcDbEntity
  8
Livello 1
100
AcDbSpline
210
0.0
220
0.0
230
1.0
 70
     9
 71
     3
 72
    20
 73
    16
 74
     0
 42
0.000000001
 43
0.0000000001
 40
0.0
 40
0.0
 40
0.0
 40
0.0
 40
1.0
 40
1.0
 40
1.0
 40
2.0
 40
2.0
 40
2.0
 40
3.0
 40
3.0
 40
3.0
 40
4.0
 40
4.0
 40
4.0
 40
5.0
 40
5.0
 40
5.0
 40
5.0
 10
81.96053535832783
 20
32.47999001154717
 30
0.0
 10
81.96053535832783
 20
33.07082388726747
 30
0.0
 10
81.62394952941907
 20
33.42652999611956
 30
0.0
 10
81.10925226392266
 20
33.42652999611956
 30
0.0
 10
80.77266643501372
 20
33.42652999611956
 30
0.0
 10
80.46157431269568
 20
33.21689593584206
 30
0.0
 10
80.30895658269917
 20
32.91837841204516
 30
0.0
 10
80.27106053236133
 20
32.85481640034236
 30
0.0
 10
80.24556682577054
 20
32.77230636347056
 30
0.0
 10
80.24556682577054
 20
32.67067604665576
 30
0.0
 10
80.2583136790659
 20
31.99095870741597
 30
0.0
 10
80.56940580138393
 20
31.48918054998927
 30
0.0
 10
81.15369399568237
 20
31.48918054998927
 30
0.0
 10
81.63669638271443
 20
31.48918054998927
 30
0.0
 10
81.96053535832783
 20
31.88932839060105
 30
0.0
 10
81.96053535832783
 20
32.47999001154717
 30
0.0
  0
HATCH
  5
359
330
1F
100
AcDbEntity
  8
Livello 1
100
AcDbHatch
 10
0.0
 20
0.0
 30
0.0
210
0.0
220
0.0
230
1.0
  2
SOLID
 70
     1
 71
     0
 91
        2
 92
        1
 93
        1
 72
     4
 94
        3
 73
     0
 74
     0
 95
       38
 96
       34
 40
0.0
 40
0.0
 40
0.0
 40
0.0
 40
1.0
 40
1.0
 40
1.0
 40
2.0
 40
2.0
 40
2.0
 40
3.0
 40
3.0
 40
3.0
 40
4.0
 40
4.0
 40
4.0
 40
5.0
 40
5.0
 40
5.0
 40
6.0
 40
6.0
 40
6.0
 40
7.0
 40
7.0
 40
7.0
 40
8.0
 40
8.0
 40
8.0
 40
9.0
 40
9.0
 40
9.0
 40
10.0
 40
10.0
 40
10.0
 40
11.0
 40
11.0
 40
11.0
 40
11.0
 10
82.11935426019783
 20
34.86210128482317
 10
82.00497709008766
 20
34.86830245669656
 10
81.85890504151302
 20
34.86210128482317
 10
81.70008613964302
 20
34.83660757823226
 10
80.82365384819542
 20
34.69053552965768
 10
80.35994399588089
 20
34.04905875030417
 10
80.26451485093941
 20
33.36934141106437
 10
80.26451485093941
 20
33.36934141106437
 10
80.28380738565687
 20
33.36934141106437
 10
80.28380738565687
 20
33.36934141106437
 10
80.48052233786455
 20
33.62979062974927
 10
80.82365384819542
 20
33.84579811667447
 10
81.28081801908804
 20
33.84579811667447
 10
82.01152277150953
 20
33.84579811667447
 10
82.5258755274574
 20
33.31852625265697
 10
82.5258755274574
 20
32.51185714478565
 10
82.5258755274574
 20
31.75600319532185
 10
82.01152277150953
 20
31.05716557613896
 10
81.15369399568237
 20
31.05716557613896
 10
80.27106053236133
 20
31.05716557613896
 10
79.69297350993645
 20
31.74325634202647
 10
79.69297350993645
 20
32.81674809523035
 10
79.69297350993645
 20
33.62979062974927
 10
79.98511760708566
 20
34.27126740910278
 10
80.39163887434517
 20
34.67778867636226
 10
80.73477038467592
 20
35.01437450527118
 10
81.19193455556866
 20
35.22400856554867
 10
81.71283299293838
 20
35.28757057725146
 10
81.87785306668184
 20
35.31306428384237
 10
82.01772394338304
 20
35.31926545571575
 10
82.11935426019783
 20
35.31926545571575
 10
82.11935426019783
 20
35.31926545571575
 10
82.11935426019783
 20
34.86210128482317
 10
82.11935426019783
 20
34.86210128482317
 97
        0
 97
        0
 92
        1
 93
        1
 72
     4
 94
        3
 73
     0
 74
     0
 95
       20
 96
       16
 40
0.0
 40
0.0
 40
0.0
 40
0.0
 40
1.0
 40
1.0
 40
1.0
 40
2.0
 40
2.0
 40
2.0
 40
3.0
 40
3.0
 40
3.0
 40
4.0
 40
4.0
 40
4.0
 40
5.0
 40
5.0
 40
5.0
 40
5.0
 10
81.96053535832783
 20
32.47999001154717
 10
81.96053535832783
 20
33.07082388726747
 10
81.62394952941907
 20
33.42652999611956
 10
81.10925226392266
 20
33.42652999611956
 10
80.77266643501372
 20
33.42652999611956
 10
80.46157431269568
 20
33.21689593584206
 10
80.30895658269917
 20
32.91837841204516
 10
80.27106053236133
 20
32.85481640034236
 10
80.24556682577054
 20
32.77230636347056
 10
80.24556682577054
 20
32.67067604665576
 10
80.2583136790659
 20
31.99095870741597
 10
80.56940580138393
 20
31.48918054998927
 10
81.15369399568237
 20
31.48918054998927
 10
81.63669638271443
 20
31.48918054998927
 10
81.96053535832783
 20
31.88932839060105
 10
81.96053535832783
 20
32.47999001154717
 97
        0
 97
        0
 75
     2
 76
     1
 98
        0
450
        0
451
        0
460
0.0
461
0.0
452
        0
462
0.0
453
        0
470

  0
SPLINE
  5
35A
330
1F
100
AcDbEntity
  8
Livello 1
100
AcDbSpline
210
0.0
220
0.0
230
1.0
 70
     9
 71
     3
 72
    80
 73
    76
 74
     0
 42
0.000000001
 43
0.0000000001
 40
0.0
 40
0.0
 40
0.0
 40
0.0
 40
1.0
 40
1.0
 40
1.0
 40
2.0
 40
2.0
 40
2.0
 40
3.0
 40
3.0
 40
3.0
 40
4.0
 40
4.0
 40
4.0
 40
5.0
 40
5.0
 40
5.0
 40
6.0
 40
6.0
 40
6.0
 40
7.0
 40
7.0
 40
7.0
 40
8.0
 40
8.0
 40
8.0
 40
9.0
 40
9.0
 40
9.0
 40
10.0
 40
10.0
 40
10.0
 40
11.0
 40
11.0
 40
11.0
 40
12.0
 40
12.0
 40
12.0
 40
13.0
 40
13.0
 40
13.0
 40
14.0
 40
14.0
 40
14.0
 40
15.0
 40
15.0
 40
15.0
 40
16.0
 40
16.0
 40
16.0
 40
17.0
 40
17.0
 40
17.0
 40
18.0
 40
18.0
 40
18.0
 40
19.0
 40
19.0
 40
19.0
 40
20.0
 40
20.0
 40
20.0
 40
21.0
 40
21.0
 40
21.0
 40
22.0
 40
22.0
 40
22.0
 40
23.0
 40
23.0
 40
23.0
 40
24.0
 40
24.0
 40
24.0
 40
25.0
 40
25.0
 40
25.0
 40
25.0
 10
84.54435697226523
 20
33.36934141106437
 30
0.0
 10
84.54435697226523
 20
33.68697921480447
 30
0.0
 10
84.53815580039185
 20
33.94742843348935
 30
0.0
 10
84.51886326567445
 20
34.20133197075227
 30
0.0
 10
84.51886326567445
 20
34.20133197075227
 30
0.0
 10
85.00806682457989
 20
34.20133197075227
 30
0.0
 10
85.00806682457989
 20
34.20133197075227
 30
0.0
 10
85.00806682457989
 20
34.20133197075227
 30
0.0
 10
85.03356053117073
 20
33.70592723997326
 30
0.0
 10
85.03356053117073
 20
33.70592723997326
 30
0.0
 10
85.03356053117073
 20
33.70592723997326
 30
0.0
 10
85.05250855633965
 20
33.70592723997326
 30
0.0
 10
85.05250855633965
 20
33.70592723997326
 30
0.0
 10
85.22407431150503
 20
33.99807133712247
 30
0.0
 10
85.50967272723221
 20
34.27126740910278
 30
0.0
 10
86.0178243113067
 20
34.27126740910278
 30
0.0
 10
86.43709243186156
 20
34.27126740910278
 30
0.0
 10
86.75473023560158
 20
34.01719161706566
 30
0.0
 10
86.88805543088074
 20
33.65511208156586
 30
0.0
 10
86.88805543088074
 20
33.65511208156586
 30
0.0
 10
86.90080228417617
 20
33.65511208156586
 30
0.0
 10
86.90080228417617
 20
33.65511208156586
 30
0.0
 10
86.99623142911752
 20
33.82667783673137
 30
0.0
 10
87.11680977110138
 20
33.96000303201046
 30
0.0
 10
87.24393379450702
 20
34.05525992217767
 30
0.0
 10
87.42824640296793
 20
34.19513079887875
 30
0.0
 10
87.63150703659766
 20
34.27126740910278
 30
0.0
 10
87.92365113374684
 20
34.27126740910278
 30
0.0
 10
88.33017240100634
 20
34.27126740910278
 30
0.0
 10
88.93340862047352
 20
34.00444476377017
 30
0.0
 10
88.93340862047352
 20
32.93732643721405
 30
0.0
 10
88.93340862047352
 20
32.93732643721405
 30
0.0
 10
88.93340862047352
 20
31.12710101448956
 30
0.0
 10
88.93340862047352
 20
31.12710101448956
 30
0.0
 10
88.93340862047352
 20
31.12710101448956
 30
0.0
 10
88.38736098606142
 20
31.12710101448956
 30
0.0
 10
88.38736098606142
 20
31.12710101448956
 30
0.0
 10
88.38736098606142
 20
31.12710101448956
 30
0.0
 10
88.38736098606142
 20
32.86756325363775
 30
0.0
 10
88.38736098606142
 20
32.86756325363775
 30
0.0
 10
88.38736098606142
 20
33.45822487458387
 30
0.0
 10
88.17135349913639
 20
33.81393098343585
 30
0.0
 10
87.72039050011716
 20
33.81393098343585
 30
0.0
 10
87.40275269637704
 20
33.81393098343585
 30
0.0
 10
87.15505033098754
 20
33.57897547134186
 30
0.0
 10
87.05962118604617
 20
33.30577939936155
 30
0.0
 10
87.03412747945538
 20
33.22964278913756
 30
0.0
 10
87.01517945428639
 20
33.12801247232267
 30
0.0
 10
87.01517945428639
 20
33.02638215550776
 30
0.0
 10
87.01517945428639
 20
33.02638215550776
 30
0.0
 10
87.01517945428639
 20
31.12710101448956
 30
0.0
 10
87.01517945428639
 20
31.12710101448956
 30
0.0
 10
87.01517945428639
 20
31.12710101448956
 30
0.0
 10
86.46878731032586
 20
31.12710101448956
 30
0.0
 10
86.46878731032586
 20
31.12710101448956
 30
0.0
 10
86.46878731032586
 20
31.12710101448956
 30
0.0
 10
86.46878731032586
 20
32.96919357045266
 30
0.0
 10
86.46878731032586
 20
32.96919357045266
 30
0.0
 10
86.46878731032586
 20
33.45822487458387
 30
0.0
 10
86.25312433294926
 20
33.81393098343585
 30
0.0
 10
85.82731053097234
 20
33.81393098343585
 30
0.0
 10
85.47797784876792
 20
33.81393098343585
 30
0.0
 10
85.22407431150503
 20
33.53453373958216
 30
0.0
 10
85.13519084798565
 20
33.25496424095407
 30
0.0
 10
85.10315145997287
 20
33.17245420408236
 30
0.0
 10
85.09074911622588
 20
33.07719731391517
 30
0.0
 10
85.09074911622588
 20
32.98176816897376
 30
0.0
 10
85.09074911622588
 20
32.98176816897376
 30
0.0
 10
85.09074911622588
 20
31.12710101448956
 30
0.0
 10
85.09074911622588
 20
31.12710101448956
 30
0.0
 10
85.09074911622588
 20
31.12710101448956
 30
0.0
 10
84.54435697226523
 20
31.12710101448956
 30
0.0
 10
84.54435697226523
 20
31.12710101448956
 30
0.0
 10
84.54435697226523
 20
31.12710101448956
 30
0.0
 10
84.54435697226523
 20
33.36934141106437
 30
0.0
 10
84.54435697226523
 20
33.36934141106437
 30
0.0
  0
HATCH
  5
35B
330
1F
100
AcDbEntity
  8
Livello 1
100
AcDbHatch
 10
0.0
 20
0.0
 30
0.0
210
0.0
220
0.0
230
1.0
  2
SOLID
 70
     1
 71
     0
 91
        1
 92
        1
 93
        1
 72
     4
 94
        3
 73
     0
 74
     0
 95
       80
 96
       76
 40
0.0
 40
0.0
 40
0.0
 40
0.0
 40
1.0
 40
1.0
 40
1.0
 40
2.0
 40
2.0
 40
2.0
 40
3.0
 40
3.0
 40
3.0
 40
4.0
 40
4.0
 40
4.0
 40
5.0
 40
5.0
 40
5.0
 40
6.0
 40
6.0
 40
6.0
 40
7.0
 40
7.0
 40
7.0
 40
8.0
 40
8.0
 40
8.0
 40
9.0
 40
9.0
 40
9.0
 40
10.0
 40
10.0
 40
10.0
 40
11.0
 40
11.0
 40
11.0
 40
12.0
 40
12.0
 40
12.0
 40
13.0
 40
13.0
 40
13.0
 40
14.0
 40
14.0
 40
14.0
 40
15.0
 40
15.0
 40
15.0
 40
16.0
 40
16.0
 40
16.0
 40
17.0
 40
17.0
 40
17.0
 40
18.0
 40
18.0
 40
18.0
 40
19.0
 40
19.0
 40
19.0
 40
20.0
 40
20.0
 40
20.0
 40
21.0
 40
21.0
 40
21.0
 40
22.0
 40
22.0
 40
22.0
 40
23.0
 40
23.0
 40
23.0
 40
24.0
 40
24.0
 40
24.0
 40
25.0
 40
25.0
 40
25.0
 40
25.0
 10
84.54435697226523
 20
33.36934141106437
 10
84.54435697226523
 20
33.68697921480447
 10
84.53815580039185
 20
33.94742843348935
 10
84.51886326567445
 20
34.20133197075227
 10
84.51886326567445
 20
34.20133197075227
 10
85.00806682457989
 20
34.20133197075227
 10
85.00806682457989
 20
34.20133197075227
 10
85.00806682457989
 20
34.20133197075227
 10
85.03356053117073
 20
33.70592723997326
 10
85.03356053117073
 20
33.70592723997326
 10
85.03356053117073
 20
33.70592723997326
 10
85.05250855633965
 20
33.70592723997326
 10
85.05250855633965
 20
33.70592723997326
 10
85.22407431150503
 20
33.99807133712247
 10
85.50967272723221
 20
34.27126740910278
 10
86.0178243113067
 20
34.27126740910278
 10
86.43709243186156
 20
34.27126740910278
 10
86.75473023560158
 20
34.01719161706566
 10
86.88805543088074
 20
33.65511208156586
 10
86.88805543088074
 20
33.65511208156586
 10
86.90080228417617
 20
33.65511208156586
 10
86.90080228417617
 20
33.65511208156586
 10
86.99623142911752
 20
33.82667783673137
 10
87.11680977110138
 20
33.96000303201046
 10
87.24393379450702
 20
34.05525992217767
 10
87.42824640296793
 20
34.19513079887875
 10
87.63150703659766
 20
34.27126740910278
 10
87.92365113374684
 20
34.27126740910278
 10
88.33017240100634
 20
34.27126740910278
 10
88.93340862047352
 20
34.00444476377017
 10
88.93340862047352
 20
32.93732643721405
 10
88.93340862047352
 20
32.93732643721405
 10
88.93340862047352
 20
31.12710101448956
 10
88.93340862047352
 20
31.12710101448956
 10
88.93340862047352
 20
31.12710101448956
 10
88.38736098606142
 20
31.12710101448956
 10
88.38736098606142
 20
31.12710101448956
 10
88.38736098606142
 20
31.12710101448956
 10
88.38736098606142
 20
32.86756325363775
 10
88.38736098606142
 20
32.86756325363775
 10
88.38736098606142
 20
33.45822487458387
 10
88.17135349913639
 20
33.81393098343585
 10
87.72039050011716
 20
33.81393098343585
 10
87.40275269637704
 20
33.81393098343585
 10
87.15505033098754
 20
33.57897547134186
 10
87.05962118604617
 20
33.30577939936155
 10
87.03412747945538
 20
33.22964278913756
 10
87.01517945428639
 20
33.12801247232267
 10
87.01517945428639
 20
33.02638215550776
 10
87.01517945428639
 20
33.02638215550776
 10
87.01517945428639
 20
31.12710101448956
 10
87.01517945428639
 20
31.12710101448956
 10
87.01517945428639
 20
31.12710101448956
 10
86.46878731032586
 20
31.12710101448956
 10
86.46878731032586
 20
31.12710101448956
 10
86.46878731032586
 20
31.12710101448956
 10
86.46878731032586
 20
32.96919357045266
 10
86.46878731032586
 20
32.96919357045266
 10
86.46878731032586
 20
33.45822487458387
 10
86.25312433294926
 20
33.81393098343585
 10
85.82731053097234
 20
33.81393098343585
 10
85.47797784876792
 20
33.81393098343585
 10
85.22407431150503
 20
33.53453373958216
 10
85.13519084798565
 20
33.25496424095407
 10
85.10315145997287
 20
33.17245420408236
 10
85.09074911622588
 20
33.07719731391517
 10
85.09074911622588
 20
32.98176816897376
 10
85.09074911622588
 20
32.98176816897376
 10
85.09074911622588
 20
31.12710101448956
 10
85.09074911622588
 20
31.12710101448956
 10
85.09074911622588
 20
31.12710101448956
 10
84.54435697226523
 20
31.12710101448956
 10
84.54435697226523
 20
31.12710101448956
 10
84.54435697226523
 20
31.12710101448956
 10
84.54435697226523
 20
33.36934141106437
 10
84.54435697226523
 20
33.36934141106437
 97
        0
 97
        0
 75
     2
 76
     1
 98
        0
450
        0
451
        0
460
0.0
461
0.0
452
        0
462
0.0
453
        0
470

  0
SPLINE
  5
35C
330
1F
100
AcDbEntity
  8
Livello 1
100
AcDbSpline
210
0.0
220
0.0
230
1.0
 70
     9
 71
     3
 72
    80
 73
    76
 74
     0
 42
0.000000001
 43
0.0000000001
 40
0.0
 40
0.0
 40
0.0
 40
0.0
 40
1.0
 40
1.0
 40
1.0
 40
2.0
 40
2.0
 40
2.0
 40
3.0
 40
3.0
 40
3.0
 40
4.0
 40
4.0
 40
4.0
 40
5.0
 40
5.0
 40
5.0
 40
6.0
 40
6.0
 40
6.0
 40
7.0
 40
7.0
 40
7.0
 40
8.0
 40
8.0
 40
8.0
 40
9.0
 40
9.0
 40
9.0
 40
10.0
 40
10.0
 40
10.0
 40
11.0
 40
11.0
 40
11.0
 40
12.0
 40
12.0
 40
12.0
 40
13.0
 40
13.0
 40
13.0
 40
14.0
 40
14.0
 40
14.0
 40
15.0
 40
15.0
 40
15.0
 40
16.0
 40
16.0
 40
16.0
 40
17.0
 40
17.0
 40
17.0
 40
18.0
 40
18.0
 40
18.0
 40
19.0
 40
19.0
 40
19.0
 40
20.0
 40
20.0
 40
20.0
 40
21.0
 40
21.0
 40
21.0
 40
22.0
 40
22.0
 40
22.0
 40
23.0
 40
23.0
 40
23.0
 40
24.0
 40
24.0
 40
24.0
 40
25.0
 40
25.0
 40
25.0
 40
25.0
 10
89.84015775219138
 20
33.36934141106437
 30
0.0
 10
89.84015775219138
 20
33.68697921480447
 30
0.0
 10
89.83395658031787
 20
33.94742843348935
 30
0.0
 10
89.81466404560041
 20
34.20133197075227
 30
0.0
 10
89.81466404560041
 20
34.20133197075227
 30
0.0
 10
90.30386760450591
 20
34.20133197075227
 30
0.0
 10
90.30386760450591
 20
34.20133197075227
 30
0.0
 10
90.30386760450591
 20
34.20133197075227
 30
0.0
 10
90.32936131109687
 20
33.70592723997326
 30
0.0
 10
90.32936131109687
 20
33.70592723997326
 30
0.0
 10
90.32936131109687
 20
33.70592723997326
 30
0.0
 10
90.34830933626569
 20
33.70592723997326
 30
0.0
 10
90.34830933626569
 20
33.70592723997326
 30
0.0
 10
90.51987509143117
 20
33.99807133712247
 30
0.0
 10
90.80547350715836
 20
34.27126740910278
 30
0.0
 10
91.31362509123267
 20
34.27126740910278
 30
0.0
 10
91.73289321178765
 20
34.27126740910278
 30
0.0
 10
92.05053101552767
 20
34.01719161706566
 30
0.0
 10
92.1838562108067
 20
33.65511208156586
 30
0.0
 10
92.1838562108067
 20
33.65511208156586
 30
0.0
 10
92.19660306410213
 20
33.65511208156586
 30
0.0
 10
92.19660306410213
 20
33.65511208156586
 30
0.0
 10
92.29203220904366
 20
33.82667783673137
 30
0.0
 10
92.41261055102745
 20
33.96000303201046
 30
0.0
 10
92.53973457443317
 20
34.05525992217767
 30
0.0
 10
92.72404718289392
 20
34.19513079887875
 30
0.0
 10
92.9273078165237
 20
34.27126740910278
 30
0.0
 10
93.21945191367291
 20
34.27126740910278
 30
0.0
 10
93.62597318093236
 20
34.27126740910278
 30
0.0
 10
94.22920940039967
 20
34.00444476377017
 30
0.0
 10
94.22920940039967
 20
32.93732643721405
 30
0.0
 10
94.22920940039967
 20
32.93732643721405
 30
0.0
 10
94.22920940039967
 20
31.12710101448956
 30
0.0
 10
94.22920940039967
 20
31.12710101448956
 30
0.0
 10
94.22920940039967
 20
31.12710101448956
 30
0.0
 10
93.68316176598751
 20
31.12710101448956
 30
0.0
 10
93.68316176598751
 20
31.12710101448956
 30
0.0
 10
93.68316176598751
 20
31.12710101448956
 30
0.0
 10
93.68316176598751
 20
32.86756325363775
 30
0.0
 10
93.68316176598751
 20
32.86756325363775
 30
0.0
 10
93.68316176598751
 20
33.45822487458387
 30
0.0
 10
93.46715427906236
 20
33.81393098343585
 30
0.0
 10
93.01619128004318
 20
33.81393098343585
 30
0.0
 10
92.69855347630317
 20
33.81393098343585
 30
0.0
 10
92.45085111091368
 20
33.57897547134186
 30
0.0
 10
92.35542196597226
 20
33.30577939936155
 30
0.0
 10
92.3299282593814
 20
33.22964278913756
 30
0.0
 10
92.31098023421253
 20
33.12801247232267
 30
0.0
 10
92.31098023421253
 20
33.02638215550776
 30
0.0
 10
92.31098023421253
 20
33.02638215550776
 30
0.0
 10
92.31098023421253
 20
31.12710101448956
 30
0.0
 10
92.31098023421253
 20
31.12710101448956
 30
0.0
 10
92.31098023421253
 20
31.12710101448956
 30
0.0
 10
91.7645880902519
 20
31.12710101448956
 30
0.0
 10
91.7645880902519
 20
31.12710101448956
 30
0.0
 10
91.7645880902519
 20
31.12710101448956
 30
0.0
 10
91.7645880902519
 20
32.96919357045266
 30
0.0
 10
91.7645880902519
 20
32.96919357045266
 30
0.0
 10
91.7645880902519
 20
33.45822487458387
 30
0.0
 10
91.54892511287522
 20
33.81393098343585
 30
0.0
 10
91.12311131089837
 20
33.81393098343585
 30
0.0
 10
90.77377862869406
 20
33.81393098343585
 30
0.0
 10
90.51987509143117
 20
33.53453373958216
 30
0.0
 10
90.43099162791168
 20
33.25496424095407
 30
0.0
 10
90.39895223989885
 20
33.17245420408236
 30
0.0
 10
90.3865498961519
 20
33.07719731391517
 30
0.0
 10
90.3865498961519
 20
32.98176816897376
 30
0.0
 10
90.3865498961519
 20
32.98176816897376
 30
0.0
 10
90.3865498961519
 20
31.12710101448956
 30
0.0
 10
90.3865498961519
 20
31.12710101448956
 30
0.0
 10
90.3865498961519
 20
31.12710101448956
 30
0.0
 10
89.84015775219138
 20
31.12710101448956
 30
0.0
 10
89.84015775219138
 20
31.12710101448956
 30
0.0
 10
89.84015775219138
 20
31.12710101448956
 30
0.0
 10
89.84015775219138
 20
33.36934141106437
 30
0.0
 10
89.84015775219138
 20
33.36934141106437
 30
0.0
  0
HATCH
  5
35D
330
1F
100
AcDbEntity
  8
Livello 1
100
AcDbHatch
 10
0.0
 20
0.0
 30
0.0
210
0.0
220
0.0
230
1.0
  2
SOLID
 70
     1
 71
     0
 91
        1
 92
        1
 93
        1
 72
     4
 94
        3
 73
     0
 74
     0
 95
       80
 96
       76
 40
0.0
 40
0.0
 40
0.0
 40
0.0
 40
1.0
 40
1.0
 40
1.0
 40
2.0
 40
2.0
 40
2.0
 40
3.0
 40
3.0
 40
3.0
 40
4.0
 40
4.0
 40
4.0
 40
5.0
 40
5.0
 40
5.0
 40
6.0
 40
6.0
 40
6.0
 40
7.0
 40
7.0
 40
7.0
 40
8.0
 40
8.0
 40
8.0
 40
9.0
 40
9.0
 40
9.0
 40
10.0
 40
10.0
 40
10.0
 40
11.0
 40
11.0
 40
11.0
 40
12.0
 40
12.0
 40
12.0
 40
13.0
 40
13.0
 40
13.0
 40
14.0
 40
14.0
 40
14.0
 40
15.0
 40
15.0
 40
15.0
 40
16.0
 40
16.0
 40
16.0
 40
17.0
 40
17.0
 40
17.0
 40
18.0
 40
18.0
 40
18.0
 40
19.0
 40
19.0
 40
19.0
 40
20.0
 40
20.0
 40
20.0
 40
21.0
 40
21.0
 40
21.0
 40
22.0
 40
22.0
 40
22.0
 40
23.0
 40
23.0
 40
23.0
 40
24.0
 40
24.0
 40
24.0
 40
25.0
 40
25.0
 40
25.0
 40
25.0
 10
89.84015775219138
 20
33.36934141106437
 10
89.84015775219138
 20
33.68697921480447
 10
89.83395658031787
 20
33.94742843348935
 10
89.81466404560041
 20
34.20133197075227
 10
89.81466404560041
 20
34.20133197075227
 10
90.30386760450591
 20
34.20133197075227
 10
90.30386760450591
 20
34.20133197075227
 10
90.30386760450591
 20
34.20133197075227
 10
90.32936131109687
 20
33.70592723997326
 10
90.32936131109687
 20
33.70592723997326
 10
90.32936131109687
 20
33.70592723997326
 10
90.34830933626569
 20
33.70592723997326
 10
90.34830933626569
 20
33.70592723997326
 10
90.51987509143117
 20
33.99807133712247
 10
90.80547350715836
 20
34.27126740910278
 10
91.31362509123267
 20
34.27126740910278
 10
91.73289321178765
 20
34.27126740910278
 10
92.05053101552767
 20
34.01719161706566
 10
92.1838562108067
 20
33.65511208156586
 10
92.1838562108067
 20
33.65511208156586
 10
92.19660306410213
 20
33.65511208156586
 10
92.19660306410213
 20
33.65511208156586
 10
92.29203220904366
 20
33.82667783673137
 10
92.41261055102745
 20
33.96000303201046
 10
92.53973457443317
 20
34.05525992217767
 10
92.72404718289392
 20
34.19513079887875
 10
92.9273078165237
 20
34.27126740910278
 10
93.21945191367291
 20
34.27126740910278
 10
93.62597318093236
 20
34.27126740910278
 10
94.22920940039967
 20
34.00444476377017
 10
94.22920940039967
 20
32.93732643721405
 10
94.22920940039967
 20
32.93732643721405
 10
94.22920940039967
 20
31.12710101448956
 10
94.22920940039967
 20
31.12710101448956
 10
94.22920940039967
 20
31.12710101448956
 10
93.68316176598751
 20
31.12710101448956
 10
93.68316176598751
 20
31.12710101448956
 10
93.68316176598751
 20
31.12710101448956
 10
93.68316176598751
 20
32.86756325363775
 10
93.68316176598751
 20
32.86756325363775
 10
93.68316176598751
 20
33.45822487458387
 10
93.46715427906236
 20
33.81393098343585
 10
93.01619128004318
 20
33.81393098343585
 10
92.69855347630317
 20
33.81393098343585
 10
92.45085111091368
 20
33.57897547134186
 10
92.35542196597226
 20
33.30577939936155
 10
92.3299282593814
 20
33.22964278913756
 10
92.31098023421253
 20
33.12801247232267
 10
92.31098023421253
 20
33.02638215550776
 10
92.31098023421253
 20
33.02638215550776
 10
92.31098023421253
 20
31.12710101448956
 10
92.31098023421253
 20
31.12710101448956
 10
92.31098023421253
 20
31.12710101448956
 10
91.7645880902519
 20
31.12710101448956
 10
91.7645880902519
 20
31.12710101448956
 10
91.7645880902519
 20
31.12710101448956
 10
91.7645880902519
 20
32.96919357045266
 10
91.7645880902519
 20
32.96919357045266
 10
91.7645880902519
 20
33.45822487458387
 10
91.54892511287522
 20
33.81393098343585
 10
91.12311131089837
 20
33.81393098343585
 10
90.77377862869406
 20
33.81393098343585
 10
90.51987509143117
 20
33.53453373958216
 10
90.43099162791168
 20
33.25496424095407
 10
90.39895223989885
 20
33.17245420408236
 10
90.3865498961519
 20
33.07719731391517
 10
90.3865498961519
 20
32.98176816897376
 10
90.3865498961519
 20
32.98176816897376
 10
90.3865498961519
 20
31.12710101448956
 10
90.3865498961519
 20
31.12710101448956
 10
90.3865498961519
 20
31.12710101448956
 10
89.84015775219138
 20
31.12710101448956
 10
89.84015775219138
 20
31.12710101448956
 10
89.84015775219138
 20
31.12710101448956
 10
89.84015775219138
 20
33.36934141106437
 10
89.84015775219138
 20
33.36934141106437
 97
        0
 97
        0
 75
     2
 76
     1
 98
        0
450
        0
451
        0
460
0.0
461
0.0
452
        0
462
0.0
453
        0
470

  0
POLYLINE
  5
35E
330
1F
100
AcDbEntity
  8
Livello 1
100
AcDb2dPolyline
 66
     1
 10
0.0
 20
0.0
 30
0.0
  0
VERTEX
  5
35F
330
35E
100
AcDbEntity
  8
Livello 1
100
AcDbVertex
100
AcDb2dVertex
 10
62.79822525027123
 20
49.72458771773947
 30
0.0
  0
VERTEX
  5
360
330
35E
100
AcDbEntity
  8
Livello 1
100
AcDbVertex
100
AcDb2dVertex
 10
62.79822525027123
 20
49.71184086444406
 30
0.0
  0
VERTEX
  5
361
330
35E
100
AcDbEntity
  8
Livello 1
100
AcDbVertex
100
AcDb2dVertex
 10
63.18562623758765
 20
48.9942274748665
 30
0.0
  0
VERTEX
  5
362
330
35E
100
AcDbEntity
  8
Livello 1
100
AcDbVertex
100
AcDb2dVertex
 10
62.76015694515923
 20
48.8863959861782
 30
0.0
  0
VERTEX
  5
363
330
35E
100
AcDbEntity
  8
Livello 1
100
AcDbVertex
100
AcDb2dVertex
 10
62.27732681290138
 20
49.78832198421658
 30
0.0
  0
VERTEX
  5
364
330
35E
100
AcDbEntity
  8
Livello 1
100
AcDbVertex
100
AcDb2dVertex
 10
62.27732681290138
 20
50.26443418027813
 30
0.0
  0
VERTEX
  5
365
330
35E
100
AcDbEntity
  8
Livello 1
100
AcDbVertex
100
AcDb2dVertex
 10
66.40610149719913
 20
50.26443418027813
 30
0.0
  0
VERTEX
  5
366
330
35E
100
AcDbEntity
  8
Livello 1
100
AcDbVertex
100
AcDb2dVertex
 10
66.40610149719913
 20
49.72458771773947
 30
0.0
  0
VERTEX
  5
367
330
35E
100
AcDbEntity
  8
Livello 1
100
AcDbVertex
100
AcDb2dVertex
 10
62.79822525027123
 20
49.72458771773947
 30
0.0
  0
SEQEND
  5
368
330
35E
100
AcDbEntity
  8
Livello 1
  0
HATCH
  5
369
330
1F
100
AcDbEntity
  8
Livello 1
100
AcDbHatch
 10
0.0
 20
0.0
 30
0.0
210
0.0
220
0.0
230
1.0
  2
SOLID
 70
     1
 71
     0
 91
        1
 92
        1
 93
        8
 72
     1
 10
62.79822525027123
 20
49.72458771773947
 11
62.79822525027123
 21
49.71184086444406
 72
     1
 10
62.79822525027123
 20
49.71184086444406
 11
63.18562623758765
 21
48.9942274748665
 72
     1
 10
63.18562623758765
 20
48.9942274748665
 11
62.76015694515923
 21
48.8863959861782
 72
     1
 10
62.76015694515923
 20
48.8863959861782
 11
62.27732681290138
 21
49.78832198421658
 72
     1
 10
62.27732681290138
 20
49.78832198421658
 11
62.27732681290138
 21
50.26443418027813
 72
     1
 10
62.27732681290138
 20
50.26443418027813
 11
66.40610149719913
 21
50.26443418027813
 72
     1
 10
66.40610149719913
 20
50.26443418027813
 11
66.40610149719913
 21
49.72458771773947
 72
     1
 10
66.40610149719913
 20
49.72458771773947
 11
62.79822525027123
 21
49.72458771773947
 97
        0
 75
     2
 76
     1
 98
        0
450
        0
451
        0
460
0.0
461
0.0
452
        0
462
0.0
453
        0
470

  0
SPLINE
  5
36A
330
1F
100
AcDbEntity
  8
Livello 1
100
AcDbSpline
210
0.0
220
0.0
230
1.0
 70
     9
 71
     3
 72
    35
 73
    31
 74
     0
 42
0.000000001
 43
0.0000000001
 40
0.0
 40
0.0
 40
0.0
 40
0.0
 40
1.0
 40
1.0
 40
1.0
 40
2.0
 40
2.0
 40
2.0
 40
3.0
 40
3.0
 40
3.0
 40
4.0
 40
4.0
 40
4.0
 40
5.0
 40
5.0
 40
5.0
 40
6.0
 40
6.0
 40
6.0
 40
7.0
 40
7.0
 40
7.0
 40
8.0
 40
8.0
 40
8.0
 40
9.0
 40
9.0
 40
9.0
 40
10.0
 40
10.0
 40
10.0
 40
10.0
 10
65.35810345058621
 20
51.71791996550502
 30
0.0
 10
64.83720501321636
 20
51.71791996550502
 30
0.0
 10
64.46875205106891
 20
52.02935659737161
 30
0.0
 10
64.25274456414371
 20
52.53750818144597
 30
0.0
 10
64.25274456414371
 20
52.53750818144597
 30
0.0
 10
64.23379653897484
 20
52.53096250002399
 30
0.0
 10
64.23379653897484
 20
52.53096250002399
 30
0.0
 10
64.01778905204963
 20
52.07379832913133
 30
0.0
 10
63.66208294319767
 20
51.87673886737505
 30
0.0
 10
63.30637683434571
 20
51.87673886737505
 30
0.0
 10
62.6521532016967
 20
51.87673886737505
 30
0.0
 10
62.20756362932513
 20
52.42933218320914
 30
0.0
 10
62.20756362932513
 20
53.15349125420865
 30
0.0
 10
62.20756362932513
 20
53.95378693543218
 30
0.0
 10
62.70934178675173
 20
54.35410703081821
 30
0.0
 10
63.22386679747387
 20
54.35410703081821
 30
0.0
 10
63.57319947967818
 20
54.35410703081821
 30
0.0
 10
63.94785361369918
 20
54.18254127565275
 30
0.0
 10
64.18935480721518
 20
53.67438969157841
 30
0.0
 10
64.18935480721518
 20
53.67438969157841
 30
0.0
 10
64.20830283238387
 20
53.67438969157841
 30
0.0
 10
64.20830283238387
 20
53.67438969157841
 30
0.0
 10
64.41156346601371
 20
54.18874244752621
 30
0.0
 10
64.77364300151356
 20
54.50638025126625
 30
0.0
 10
65.27542115894016
 20
54.50638025126625
 30
0.0
 10
65.99320680329191
 20
54.50638025126625
 30
0.0
 10
66.4760369355497
 20
53.89039717850358
 30
0.0
 10
66.4760369355497
 20
53.10284835057546
 30
0.0
 10
66.4760369355497
 20
52.23881840287481
 30
0.0
 10
65.96151192482768
 20
51.71791996550502
 30
0.0
 10
65.35810345058621
 20
51.71791996550502
 30
0.0
  0
SPLINE
  5
36B
330
1F
100
AcDbEntity
  8
Livello 1
100
AcDbSpline
210
0.0
220
0.0
230
1.0
 70
     9
 71
     3
 72
    17
 73
    13
 74
     0
 42
0.000000001
 43
0.0000000001
 40
0.0
 40
0.0
 40
0.0
 40
0.0
 40
1.0
 40
1.0
 40
1.0
 40
2.0
 40
2.0
 40
2.0
 40
3.0
 40
3.0
 40
3.0
 40
4.0
 40
4.0
 40
4.0
 40
4.0
 10
63.26830852923354
 20
52.40383847661828
 30
0.0
 10
63.68120322314087
 20
52.40383847661828
 30
0.0
 10
63.9034118819394
 20
52.71527510848486
 30
0.0
 10
64.03053590534518
 20
53.19173181409492
 30
0.0
 10
63.90978530858717
 20
53.54726566817269
 30
0.0
 10
63.65570951654991
 20
53.820461740153
 30
0.0
 10
63.28088312775475
 20
53.820461740153
 30
0.0
 10
62.95067072549352
 20
53.820461740153
 30
0.0
 10
62.60771146993693
 20
53.62340227839671
 30
0.0
 10
62.60771146993693
 20
53.12179637574434
 30
0.0
 10
62.60771146993693
 20
52.65808652342972
 30
0.0
 10
62.91260242038152
 20
52.40383847661828
 30
0.0
 10
63.26830852923354
 20
52.40383847661828
 30
0.0
  0
SPLINE
  5
36C
330
1F
100
AcDbEntity
  8
Livello 1
100
AcDbSpline
210
0.0
220
0.0
230
1.0
 70
     9
 71
     3
 72
    17
 73
    13
 74
     0
 42
0.000000001
 43
0.0000000001
 40
0.0
 40
0.0
 40
0.0
 40
0.0
 40
1.0
 40
1.0
 40
1.0
 40
2.0
 40
2.0
 40
2.0
 40
3.0
 40
3.0
 40
3.0
 40
4.0
 40
4.0
 40
4.0
 40
4.0
 10
65.33260974399536
 20
53.94104008213673
 30
0.0
 10
64.83083158656865
 20
53.94104008213673
 30
0.0
 10
64.58950264782692
 20
53.59170739993242
 30
0.0
 10
64.43068374595691
 20
53.0329129122249
 30
0.0
 10
64.57038236788372
 20
52.54991052519287
 30
0.0
 10
64.88802017162374
 20
52.2898058160565
 30
0.0
 10
65.28179458558788
 20
52.2898058160565
 30
0.0
 10
65.70106270614269
 20
52.2705132813391
 30
0.0
 10
66.06951566829025
 20
52.58815108507914
 30
0.0
 10
66.06951566829025
 20
53.11525069432237
 30
0.0
 10
66.06951566829025
 20
53.61720110652327
 30
0.0
 10
65.75825129119789
 20
53.94104008213673
 30
0.0
 10
65.33260974399536
 20
53.94104008213673
 30
0.0
  0
HATCH
  5
36D
330
1F
100
AcDbEntity
  8
Livello 1
100
AcDbHatch
 10
0.0
 20
0.0
 30
0.0
210
0.0
220
0.0
230
1.0
  2
SOLID
 70
     1
 71
     0
 91
        3
 92
        1
 93
        1
 72
     4
 94
        3
 73
     0
 74
     0
 95
       35
 96
       31
 40
0.0
 40
0.0
 40
0.0
 40
0.0
 40
1.0
 40
1.0
 40
1.0
 40
2.0
 40
2.0
 40
2.0
 40
3.0
 40
3.0
 40
3.0
 40
4.0
 40
4.0
 40
4.0
 40
5.0
 40
5.0
 40
5.0
 40
6.0
 40
6.0
 40
6.0
 40
7.0
 40
7.0
 40
7.0
 40
8.0
 40
8.0
 40
8.0
 40
9.0
 40
9.0
 40
9.0
 40
10.0
 40
10.0
 40
10.0
 40
10.0
 10
65.35810345058621
 20
51.71791996550502
 10
64.83720501321636
 20
51.71791996550502
 10
64.46875205106891
 20
52.02935659737161
 10
64.25274456414371
 20
52.53750818144597
 10
64.25274456414371
 20
52.53750818144597
 10
64.23379653897484
 20
52.53096250002399
 10
64.23379653897484
 20
52.53096250002399
 10
64.01778905204963
 20
52.07379832913133
 10
63.66208294319767
 20
51.87673886737505
 10
63.30637683434571
 20
51.87673886737505
 10
62.6521532016967
 20
51.87673886737505
 10
62.20756362932513
 20
52.42933218320914
 10
62.20756362932513
 20
53.15349125420865
 10
62.20756362932513
 20
53.95378693543218
 10
62.70934178675173
 20
54.35410703081821
 10
63.22386679747387
 20
54.35410703081821
 10
63.57319947967818
 20
54.35410703081821
 10
63.94785361369918
 20
54.18254127565275
 10
64.18935480721518
 20
53.67438969157841
 10
64.18935480721518
 20
53.67438969157841
 10
64.20830283238387
 20
53.67438969157841
 10
64.20830283238387
 20
53.67438969157841
 10
64.41156346601371
 20
54.18874244752621
 10
64.77364300151356
 20
54.50638025126625
 10
65.27542115894016
 20
54.50638025126625
 10
65.99320680329191
 20
54.50638025126625
 10
66.4760369355497
 20
53.89039717850358
 10
66.4760369355497
 20
53.10284835057546
 10
66.4760369355497
 20
52.23881840287481
 10
65.96151192482768
 20
51.71791996550502
 10
65.35810345058621
 20
51.71791996550502
 97
        0
 97
        0
 92
        1
 93
        1
 72
     4
 94
        3
 73
     0
 74
     0
 95
       17
 96
       13
 40
0.0
 40
0.0
 40
0.0
 40
0.0
 40
1.0
 40
1.0
 40
1.0
 40
2.0
 40
2.0
 40
2.0
 40
3.0
 40
3.0
 40
3.0
 40
4.0
 40
4.0
 40
4.0
 40
4.0
 10
63.26830852923354
 20
52.40383847661828
 10
63.68120322314087
 20
52.40383847661828
 10
63.9034118819394
 20
52.71527510848486
 10
64.03053590534518
 20
53.19173181409492
 10
63.90978530858717
 20
53.54726566817269
 10
63.65570951654991
 20
53.820461740153
 10
63.28088312775475
 20
53.820461740153
 10
62.95067072549352
 20
53.820461740153
 10
62.60771146993693
 20
53.62340227839671
 10
62.60771146993693
 20
53.12179637574434
 10
62.60771146993693
 20
52.65808652342972
 10
62.91260242038152
 20
52.40383847661828
 10
63.26830852923354
 20
52.40383847661828
 97
        0
 97
        0
 92
        1
 93
        1
 72
     4
 94
        3
 73
     0
 74
     0
 95
       17
 96
       13
 40
0.0
 40
0.0
 40
0.0
 40
0.0
 40
1.0
 40
1.0
 40
1.0
 40
2.0
 40
2.0
 40
2.0
 40
3.0
 40
3.0
 40
3.0
 40
4.0
 40
4.0
 40
4.0
 40
4.0
 10
65.33260974399536
 20
53.94104008213673
 10
64.83083158656865
 20
53.94104008213673
 10
64.58950264782692
 20
53.59170739993242
 10
64.43068374595691
 20
53.0329129122249
 10
64.57038236788372
 20
52.54991052519287
 10
64.88802017162374
 20
52.2898058160565
 10
65.28179458558788
 20
52.2898058160565
 10
65.70106270614269
 20
52.2705132813391
 10
66.06951566829025
 20
52.58815108507914
 10
66.06951566829025
 20
53.11525069432237
 10
66.06951566829025
 20
53.61720110652327
 10
65.75825129119789
 20
53.94104008213673
 10
65.33260974399536
 20
53.94104008213673
 97
        0
 97
        0
 75
     2
 76
     1
 98
        0
450
        0
451
        0
460
0.0
461
0.0
452
        0
462
0.0
453
        0
470

  0
SPLINE
  5
36E
330
1F
100
AcDbEntity
  8
Livello 1
100
AcDbSpline
210
0.0
220
0.0
230
1.0
 70
     9
 71
     3
 72
    80
 73
    76
 74
     0
 42
0.000000001
 43
0.0000000001
 40
0.0
 40
0.0
 40
0.0
 40
0.0
 40
1.0
 40
1.0
 40
1.0
 40
2.0
 40
2.0
 40
2.0
 40
3.0
 40
3.0
 40
3.0
 40
4.0
 40
4.0
 40
4.0
 40
5.0
 40
5.0
 40
5.0
 40
6.0
 40
6.0
 40
6.0
 40
7.0
 40
7.0
 40
7.0
 40
8.0
 40
8.0
 40
8.0
 40
9.0
 40
9.0
 40
9.0
 40
10.0
 40
10.0
 40
10.0
 40
11.0
 40
11.0
 40
11.0
 40
12.0
 40
12.0
 40
12.0
 40
13.0
 40
13.0
 40
13.0
 40
14.0
 40
14.0
 40
14.0
 40
15.0
 40
15.0
 40
15.0
 40
16.0
 40
16.0
 40
16.0
 40
17.0
 40
17.0
 40
17.0
 40
18.0
 40
18.0
 40
18.0
 40
19.0
 40
19.0
 40
19.0
 40
20.0
 40
20.0
 40
20.0
 40
21.0
 40
21.0
 40
21.0
 40
22.0
 40
22.0
 40
22.0
 40
23.0
 40
23.0
 40
23.0
 40
24.0
 40
24.0
 40
24.0
 40
25.0
 40
25.0
 40
25.0
 40
25.0
 10
64.16386110062422
 20
56.55035540266498
 30
0.0
 10
63.8462232968842
 20
56.55035540266498
 30
0.0
 10
63.58577407819939
 20
56.54415423079152
 30
0.0
 10
63.33187054093639
 20
56.52486169607414
 30
0.0
 10
63.33187054093639
 20
56.52486169607414
 30
0.0
 10
63.33187054093639
 20
57.01406525497962
 30
0.0
 10
63.33187054093639
 20
57.01406525497962
 30
0.0
 10
63.33187054093639
 20
57.01406525497962
 30
0.0
 10
63.82727527171539
 20
57.03955896157045
 30
0.0
 10
63.82727527171539
 20
57.03955896157045
 30
0.0
 10
63.82727527171539
 20
57.03955896157045
 30
0.0
 10
63.82727527171539
 20
57.05850698673933
 30
0.0
 10
63.82727527171539
 20
57.05850698673933
 30
0.0
 10
63.53513117456618
 20
57.23007274190478
 30
0.0
 10
63.26193510258582
 20
57.51567115763197
 30
0.0
 10
63.26193510258582
 20
58.02382274170634
 30
0.0
 10
63.26193510258582
 20
58.44309086226124
 30
0.0
 10
63.51601089462303
 20
58.76072866600129
 30
0.0
 10
63.87809043012288
 20
58.89405386128044
 30
0.0
 10
63.87809043012288
 20
58.89405386128044
 30
0.0
 10
63.87809043012288
 20
58.90680071457585
 30
0.0
 10
63.87809043012288
 20
58.90680071457585
 30
0.0
 10
63.70652467495739
 20
59.0022298595173
 30
0.0
 10
63.57319947967818
 20
59.12280820150101
 30
0.0
 10
63.47794258951103
 20
59.24993222490677
 30
0.0
 10
63.33807171280984
 20
59.4342448333676
 30
0.0
 10
63.26193510258582
 20
59.63750546699735
 30
0.0
 10
63.26193510258582
 20
59.92964956414654
 30
0.0
 10
63.26193510258582
 20
60.33617083140602
 30
0.0
 10
63.5287577479184
 20
60.93940705087327
 30
0.0
 10
64.59587607447469
 20
60.93940705087327
 30
0.0
 10
64.59587607447469
 20
60.93940705087327
 30
0.0
 10
66.40610149719913
 20
60.93940705087327
 30
0.0
 10
66.40610149719913
 20
60.93940705087327
 30
0.0
 10
66.40610149719913
 20
60.93940705087327
 30
0.0
 10
66.40610149719913
 20
60.39335941646116
 30
0.0
 10
66.40610149719913
 20
60.39335941646116
 30
0.0
 10
66.40610149719913
 20
60.39335941646116
 30
0.0
 10
64.66563925805087
 20
60.39335941646116
 30
0.0
 10
64.66563925805087
 20
60.39335941646116
 30
0.0
 10
64.07497763710484
 20
60.39335941646116
 30
0.0
 10
63.71927152825287
 20
60.177351929536
 30
0.0
 10
63.71927152825287
 20
59.7263889305168
 30
0.0
 10
63.71927152825287
 20
59.40875112677677
 30
0.0
 10
63.95422704034683
 20
59.16104876138731
 30
0.0
 10
64.22742311232719
 20
59.06561961644588
 30
0.0
 10
64.3035597225512
 20
59.04012590985503
 30
0.0
 10
64.40519003936606
 20
59.02117788468617
 30
0.0
 10
64.50682035618092
 20
59.02117788468617
 30
0.0
 10
64.50682035618092
 20
59.02117788468617
 30
0.0
 10
66.40610149719913
 20
59.02117788468617
 30
0.0
 10
66.40610149719913
 20
59.02117788468617
 30
0.0
 10
66.40610149719913
 20
59.02117788468617
 30
0.0
 10
66.40610149719913
 20
58.47478574072553
 30
0.0
 10
66.40610149719913
 20
58.47478574072553
 30
0.0
 10
66.40610149719913
 20
58.47478574072553
 30
0.0
 10
64.56400894123607
 20
58.47478574072553
 30
0.0
 10
64.56400894123607
 20
58.47478574072553
 30
0.0
 10
64.07497763710484
 20
58.47478574072553
 30
0.0
 10
63.71927152825287
 20
58.25912276334889
 30
0.0
 10
63.71927152825287
 20
57.83330896137201
 30
0.0
 10
63.71927152825287
 20
57.48397627916769
 30
0.0
 10
63.99866877210655
 20
57.23007274190478
 30
0.0
 10
64.27823827073456
 20
57.14118927838533
 30
0.0
 10
64.3607483076064
 20
57.10914989037251
 30
0.0
 10
64.45600519777343
 20
57.09674754662561
 30
0.0
 10
64.55143434271491
 20
57.09674754662561
 30
0.0
 10
64.55143434271491
 20
57.09674754662561
 30
0.0
 10
66.40610149719913
 20
57.09674754662561
 30
0.0
 10
66.40610149719913
 20
57.09674754662561
 30
0.0
 10
66.40610149719913
 20
57.09674754662561
 30
0.0
 10
66.40610149719913
 20
56.55035540266498
 30
0.0
 10
66.40610149719913
 20
56.55035540266498
 30
0.0
 10
66.40610149719913
 20
56.55035540266498
 30
0.0
 10
64.16386110062422
 20
56.55035540266498
 30
0.0
 10
64.16386110062422
 20
56.55035540266498
 30
0.0
  0
HATCH
  5
36F
330
1F
100
AcDbEntity
  8
Livello 1
100
AcDbHatch
 10
0.0
 20
0.0
 30
0.0
210
0.0
220
0.0
230
1.0
  2
SOLID
 70
     1
 71
     0
 91
        1
 92
        1
 93
        1
 72
     4
 94
        3
 73
     0
 74
     0
 95
       80
 96
       76
 40
0.0
 40
0.0
 40
0.0
 40
0.0
 40
1.0
 40
1.0
 40
1.0
 40
2.0
 40
2.0
 40
2.0
 40
3.0
 40
3.0
 40
3.0
 40
4.0
 40
4.0
 40
4.0
 40
5.0
 40
5.0
 40
5.0
 40
6.0
 40
6.0
 40
6.0
 40
7.0
 40
7.0
 40
7.0
 40
8.0
 40
8.0
 40
8.0
 40
9.0
 40
9.0
 40
9.0
 40
10.0
 40
10.0
 40
10.0
 40
11.0
 40
11.0
 40
11.0
 40
12.0
 40
12.0
 40
12.0
 40
13.0
 40
13.0
 40
13.0
 40
14.0
 40
14.0
 40
14.0
 40
15.0
 40
15.0
 40
15.0
 40
16.0
 40
16.0
 40
16.0
 40
17.0
 40
17.0
 40
17.0
 40
18.0
 40
18.0
 40
18.0
 40
19.0
 40
19.0
 40
19.0
 40
20.0
 40
20.0
 40
20.0
 40
21.0
 40
21.0
 40
21.0
 40
22.0
 40
22.0
 40
22.0
 40
23.0
 40
23.0
 40
23.0
 40
24.0
 40
24.0
 40
24.0
 40
25.0
 40
25.0
 40
25.0
 40
25.0
 10
64.16386110062422
 20
56.55035540266498
 10
63.8462232968842
 20
56.55035540266498
 10
63.58577407819939
 20
56.54415423079152
 10
63.33187054093639
 20
56.52486169607414
 10
63.33187054093639
 20
56.52486169607414
 10
63.33187054093639
 20
57.01406525497962
 10
63.33187054093639
 20
57.01406525497962
 10
63.33187054093639
 20
57.01406525497962
 10
63.82727527171539
 20
57.03955896157045
 10
63.82727527171539
 20
57.03955896157045
 10
63.82727527171539
 20
57.03955896157045
 10
63.82727527171539
 20
57.05850698673933
 10
63.82727527171539
 20
57.05850698673933
 10
63.53513117456618
 20
57.23007274190478
 10
63.26193510258582
 20
57.51567115763197
 10
63.26193510258582
 20
58.02382274170634
 10
63.26193510258582
 20
58.44309086226124
 10
63.51601089462303
 20
58.76072866600129
 10
63.87809043012288
 20
58.89405386128044
 10
63.87809043012288
 20
58.89405386128044
 10
63.87809043012288
 20
58.90680071457585
 10
63.87809043012288
 20
58.90680071457585
 10
63.70652467495739
 20
59.0022298595173
 10
63.57319947967818
 20
59.12280820150101
 10
63.47794258951103
 20
59.24993222490677
 10
63.33807171280984
 20
59.4342448333676
 10
63.26193510258582
 20
59.63750546699735
 10
63.26193510258582
 20
59.92964956414654
 10
63.26193510258582
 20
60.33617083140602
 10
63.5287577479184
 20
60.93940705087327
 10
64.59587607447469
 20
60.93940705087327
 10
64.59587607447469
 20
60.93940705087327
 10
66.40610149719913
 20
60.93940705087327
 10
66.40610149719913
 20
60.93940705087327
 10
66.40610149719913
 20
60.93940705087327
 10
66.40610149719913
 20
60.39335941646116
 10
66.40610149719913
 20
60.39335941646116
 10
66.40610149719913
 20
60.39335941646116
 10
64.66563925805087
 20
60.39335941646116
 10
64.66563925805087
 20
60.39335941646116
 10
64.07497763710484
 20
60.39335941646116
 10
63.71927152825287
 20
60.177351929536
 10
63.71927152825287
 20
59.7263889305168
 10
63.71927152825287
 20
59.40875112677677
 10
63.95422704034683
 20
59.16104876138731
 10
64.22742311232719
 20
59.06561961644588
 10
64.3035597225512
 20
59.04012590985503
 10
64.40519003936606
 20
59.02117788468617
 10
64.50682035618092
 20
59.02117788468617
 10
64.50682035618092
 20
59.02117788468617
 10
66.40610149719913
 20
59.02117788468617
 10
66.40610149719913
 20
59.02117788468617
 10
66.40610149719913
 20
59.02117788468617
 10
66.40610149719913
 20
58.47478574072553
 10
66.40610149719913
 20
58.47478574072553
 10
66.40610149719913
 20
58.47478574072553
 10
64.56400894123607
 20
58.47478574072553
 10
64.56400894123607
 20
58.47478574072553
 10
64.07497763710484
 20
58.47478574072553
 10
63.71927152825287
 20
58.25912276334889
 10
63.71927152825287
 20
57.83330896137201
 10
63.71927152825287
 20
57.48397627916769
 10
63.99866877210655
 20
57.23007274190478
 10
64.27823827073456
 20
57.14118927838533
 10
64.3607483076064
 20
57.10914989037251
 10
64.45600519777343
 20
57.09674754662561
 10
64.55143434271491
 20
57.09674754662561
 10
64.55143434271491
 20
57.09674754662561
 10
66.40610149719913
 20
57.09674754662561
 10
66.40610149719913
 20
57.09674754662561
 10
66.40610149719913
 20
57.09674754662561
 10
66.40610149719913
 20
56.55035540266498
 10
66.40610149719913
 20
56.55035540266498
 10
66.40610149719913
 20
56.55035540266498
 10
64.16386110062422
 20
56.55035540266498
 10
64.16386110062422
 20
56.55035540266498
 97
        0
 97
        0
 75
     2
 76
     1
 98
        0
450
        0
451
        0
460
0.0
461
0.0
452
        0
462
0.0
453
        0
470

  0
SPLINE
  5
370
330
1F
100
AcDbEntity
  8
Livello 1
100
AcDbSpline
210
0.0
220
0.0
230
1.0
 70
     9
 71
     3
 72
    80
 73
    76
 74
     0
 42
0.000000001
 43
0.0000000001
 40
0.0
 40
0.0
 40
0.0
 40
0.0
 40
1.0
 40
1.0
 40
1.0
 40
2.0
 40
2.0
 40
2.0
 40
3.0
 40
3.0
 40
3.0
 40
4.0
 40
4.0
 40
4.0
 40
5.0
 40
5.0
 40
5.0
 40
6.0
 40
6.0
 40
6.0
 40
7.0
 40
7.0
 40
7.0
 40
8.0
 40
8.0
 40
8.0
 40
9.0
 40
9.0
 40
9.0
 40
10.0
 40
10.0
 40
10.0
 40
11.0
 40
11.0
 40
11.0
 40
12.0
 40
12.0
 40
12.0
 40
13.0
 40
13.0
 40
13.0
 40
14.0
 40
14.0
 40
14.0
 40
15.0
 40
15.0
 40
15.0
 40
16.0
 40
16.0
 40
16.0
 40
17.0
 40
17.0
 40
17.0
 40
18.0
 40
18.0
 40
18.0
 40
19.0
 40
19.0
 40
19.0
 40
20.0
 40
20.0
 40
20.0
 40
21.0
 40
21.0
 40
21.0
 40
22.0
 40
22.0
 40
22.0
 40
23.0
 40
23.0
 40
23.0
 40
24.0
 40
24.0
 40
24.0
 40
25.0
 40
25.0
 40
25.0
 40
25.0
 10
64.16386110062422
 20
61.84615618259103
 30
0.0
 10
63.8462232968842
 20
61.84615618259103
 30
0.0
 10
63.58577407819939
 20
61.83995501071757
 30
0.0
 10
63.33187054093639
 20
61.82066247600018
 30
0.0
 10
63.33187054093639
 20
61.82066247600018
 30
0.0
 10
63.33187054093639
 20
62.30986603490565
 30
0.0
 10
63.33187054093639
 20
62.30986603490565
 30
0.0
 10
63.33187054093639
 20
62.30986603490565
 30
0.0
 10
63.82727527171539
 20
62.33535974149649
 30
0.0
 10
63.82727527171539
 20
62.33535974149649
 30
0.0
 10
63.82727527171539
 20
62.33535974149649
 30
0.0
 10
63.82727527171539
 20
62.35430776666539
 30
0.0
 10
63.82727527171539
 20
62.35430776666539
 30
0.0
 10
63.53513117456618
 20
62.52587352183081
 30
0.0
 10
63.26193510258582
 20
62.81147193755804
 30
0.0
 10
63.26193510258582
 20
63.31962352163237
 30
0.0
 10
63.26193510258582
 20
63.73889164218728
 30
0.0
 10
63.51601089462303
 20
64.05652944592732
 30
0.0
 10
63.87809043012288
 20
64.18985464120649
 30
0.0
 10
63.87809043012288
 20
64.18985464120649
 30
0.0
 10
63.87809043012288
 20
64.20260149450192
 30
0.0
 10
63.87809043012288
 20
64.20260149450192
 30
0.0
 10
63.70652467495739
 20
64.29803063944333
 30
0.0
 10
63.57319947967818
 20
64.41860898142707
 30
0.0
 10
63.47794258951103
 20
64.54573300483281
 30
0.0
 10
63.33807171280984
 20
64.73004561329367
 30
0.0
 10
63.26193510258582
 20
64.9333062469234
 30
0.0
 10
63.26193510258582
 20
65.2254503440726
 30
0.0
 10
63.26193510258582
 20
65.63197161133206
 30
0.0
 10
63.5287577479184
 20
66.23520783079932
 30
0.0
 10
64.59587607447469
 20
66.23520783079932
 30
0.0
 10
64.59587607447469
 20
66.23520783079932
 30
0.0
 10
66.40610149719913
 20
66.23520783079932
 30
0.0
 10
66.40610149719913
 20
66.23520783079932
 30
0.0
 10
66.40610149719913
 20
66.23520783079932
 30
0.0
 10
66.40610149719913
 20
65.6891601963872
 30
0.0
 10
66.40610149719913
 20
65.6891601963872
 30
0.0
 10
66.40610149719913
 20
65.6891601963872
 30
0.0
 10
64.66563925805087
 20
65.6891601963872
 30
0.0
 10
64.66563925805087
 20
65.6891601963872
 30
0.0
 10
64.07497763710484
 20
65.6891601963872
 30
0.0
 10
63.71927152825287
 20
65.47315270946206
 30
0.0
 10
63.71927152825287
 20
65.02218971044285
 30
0.0
 10
63.71927152825287
 20
64.70455190670282
 30
0.0
 10
63.95422704034683
 20
64.45684954131336
 30
0.0
 10
64.22742311232719
 20
64.36142039637195
 30
0.0
 10
64.3035597225512
 20
64.33592668978109
 30
0.0
 10
64.40519003936606
 20
64.3169786646122
 30
0.0
 10
64.50682035618092
 20
64.3169786646122
 30
0.0
 10
64.50682035618092
 20
64.3169786646122
 30
0.0
 10
66.40610149719913
 20
64.3169786646122
 30
0.0
 10
66.40610149719913
 20
64.3169786646122
 30
0.0
 10
66.40610149719913
 20
64.3169786646122
 30
0.0
 10
66.40610149719913
 20
63.77058652065159
 30
0.0
 10
66.40610149719913
 20
63.77058652065159
 30
0.0
 10
66.40610149719913
 20
63.77058652065159
 30
0.0
 10
64.56400894123607
 20
63.77058652065159
 30
0.0
 10
64.56400894123607
 20
63.77058652065159
 30
0.0
 10
64.07497763710484
 20
63.77058652065159
 30
0.0
 10
63.71927152825287
 20
63.55492354327495
 30
0.0
 10
63.71927152825287
 20
63.12910974129806
 30
0.0
 10
63.71927152825287
 20
62.77977705909373
 30
0.0
 10
63.99866877210655
 20
62.52587352183081
 30
0.0
 10
64.27823827073456
 20
62.43699005831138
 30
0.0
 10
64.3607483076064
 20
62.40495067029854
 30
0.0
 10
64.45600519777343
 20
62.39254832655165
 30
0.0
 10
64.55143434271491
 20
62.39254832655165
 30
0.0
 10
64.55143434271491
 20
62.39254832655165
 30
0.0
 10
66.40610149719913
 20
62.39254832655165
 30
0.0
 10
66.40610149719913
 20
62.39254832655165
 30
0.0
 10
66.40610149719913
 20
62.39254832655165
 30
0.0
 10
66.40610149719913
 20
61.84615618259103
 30
0.0
 10
66.40610149719913
 20
61.84615618259103
 30
0.0
 10
66.40610149719913
 20
61.84615618259103
 30
0.0
 10
64.16386110062422
 20
61.84615618259103
 30
0.0
 10
64.16386110062422
 20
61.84615618259103
 30
0.0
  0
HATCH
  5
371
330
1F
100
AcDbEntity
  8
Livello 1
100
AcDbHatch
 10
0.0
 20
0.0
 30
0.0
210
0.0
220
0.0
230
1.0
  2
SOLID
 70
     1
 71
     0
 91
        1
 92
        1
 93
        1
 72
     4
 94
        3
 73
     0
 74
     0
 95
       80
 96
       76
 40
0.0
 40
0.0
 40
0.0
 40
0.0
 40
1.0
 40
1.0
 40
1.0
 40
2.0
 40
2.0
 40
2.0
 40
3.0
 40
3.0
 40
3.0
 40
4.0
 40
4.0
 40
4.0
 40
5.0
 40
5.0
 40
5.0
 40
6.0
 40
6.0
 40
6.0
 40
7.0
 40
7.0
 40
7.0
 40
8.0
 40
8.0
 40
8.0
 40
9.0
 40
9.0
 40
9.0
 40
10.0
 40
10.0
 40
10.0
 40
11.0
 40
11.0
 40
11.0
 40
12.0
 40
12.0
 40
12.0
 40
13.0
 40
13.0
 40
13.0
 40
14.0
 40
14.0
 40
14.0
 40
15.0
 40
15.0
 40
15.0
 40
16.0
 40
16.0
 40
16.0
 40
17.0
 40
17.0
 40
17.0
 40
18.0
 40
18.0
 40
18.0
 40
19.0
 40
19.0
 40
19.0
 40
20.0
 40
20.0
 40
20.0
 40
21.0
 40
21.0
 40
21.0
 40
22.0
 40
22.0
 40
22.0
 40
23.0
 40
23.0
 40
23.0
 40
24.0
 40
24.0
 40
24.0
 40
25.0
 40
25.0
 40
25.0
 40
25.0
 10
64.16386110062422
 20
61.84615618259103
 10
63.8462232968842
 20
61.84615618259103
 10
63.58577407819939
 20
61.83995501071757
 10
63.33187054093639
 20
61.82066247600018
 10
63.33187054093639
 20
61.82066247600018
 10
63.33187054093639
 20
62.30986603490565
 10
63.33187054093639
 20
62.30986603490565
 10
63.33187054093639
 20
62.30986603490565
 10
63.82727527171539
 20
62.33535974149649
 10
63.82727527171539
 20
62.33535974149649
 10
63.82727527171539
 20
62.33535974149649
 10
63.82727527171539
 20
62.35430776666539
 10
63.82727527171539
 20
62.35430776666539
 10
63.53513117456618
 20
62.52587352183081
 10
63.26193510258582
 20
62.81147193755804
 10
63.26193510258582
 20
63.31962352163237
 10
63.26193510258582
 20
63.73889164218728
 10
63.51601089462303
 20
64.05652944592732
 10
63.87809043012288
 20
64.18985464120649
 10
63.87809043012288
 20
64.18985464120649
 10
63.87809043012288
 20
64.20260149450192
 10
63.87809043012288
 20
64.20260149450192
 10
63.70652467495739
 20
64.29803063944333
 10
63.57319947967818
 20
64.41860898142707
 10
63.47794258951103
 20
64.54573300483281
 10
63.33807171280984
 20
64.73004561329367
 10
63.26193510258582
 20
64.9333062469234
 10
63.26193510258582
 20
65.2254503440726
 10
63.26193510258582
 20
65.63197161133206
 10
63.5287577479184
 20
66.23520783079932
 10
64.59587607447469
 20
66.23520783079932
 10
64.59587607447469
 20
66.23520783079932
 10
66.40610149719913
 20
66.23520783079932
 10
66.40610149719913
 20
66.23520783079932
 10
66.40610149719913
 20
66.23520783079932
 10
66.40610149719913
 20
65.6891601963872
 10
66.40610149719913
 20
65.6891601963872
 10
66.40610149719913
 20
65.6891601963872
 10
64.66563925805087
 20
65.6891601963872
 10
64.66563925805087
 20
65.6891601963872
 10
64.07497763710484
 20
65.6891601963872
 10
63.71927152825287
 20
65.47315270946206
 10
63.71927152825287
 20
65.02218971044285
 10
63.71927152825287
 20
64.70455190670282
 10
63.95422704034683
 20
64.45684954131336
 10
64.22742311232719
 20
64.36142039637195
 10
64.3035597225512
 20
64.33592668978109
 10
64.40519003936606
 20
64.3169786646122
 10
64.50682035618092
 20
64.3169786646122
 10
64.50682035618092
 20
64.3169786646122
 10
66.40610149719913
 20
64.3169786646122
 10
66.40610149719913
 20
64.3169786646122
 10
66.40610149719913
 20
64.3169786646122
 10
66.40610149719913
 20
63.77058652065159
 10
66.40610149719913
 20
63.77058652065159
 10
66.40610149719913
 20
63.77058652065159
 10
64.56400894123607
 20
63.77058652065159
 10
64.56400894123607
 20
63.77058652065159
 10
64.07497763710484
 20
63.77058652065159
 10
63.71927152825287
 20
63.55492354327495
 10
63.71927152825287
 20
63.12910974129806
 10
63.71927152825287
 20
62.77977705909373
 10
63.99866877210655
 20
62.52587352183081
 10
64.27823827073456
 20
62.43699005831138
 10
64.3607483076064
 20
62.40495067029854
 10
64.45600519777343
 20
62.39254832655165
 10
64.55143434271491
 20
62.39254832655165
 10
64.55143434271491
 20
62.39254832655165
 10
66.40610149719913
 20
62.39254832655165
 10
66.40610149719913
 20
62.39254832655165
 10
66.40610149719913
 20
62.39254832655165
 10
66.40610149719913
 20
61.84615618259103
 10
66.40610149719913
 20
61.84615618259103
 10
66.40610149719913
 20
61.84615618259103
 10
64.16386110062422
 20
61.84615618259103
 10
64.16386110062422
 20
61.84615618259103
 97
        0
 97
        0
 75
     2
 76
     1
 98
        0
450
        0
451
        0
460
0.0
461
0.0
452
        0
462
0.0
453
        0
470

  0
ENDSEC
  0
SECTION
  2
OBJECTS
  0
DICTIONARY
  5
C
330
0
100
AcDbDictionary
281
     1
  3
ACAD_CIP_PREVIOUS_PRODUCT_INFO
350
1A2
  3
ACAD_COLOR
350
6C
  3
ACAD_DETAILVIEWSTYLE
350
1A8
  3
ACAD_GROUP
350
D
  3
ACAD_LAYOUT
350
1A
  3
ACAD_MATERIAL
350
6B
  3
ACAD_MLEADERSTYLE
350
D2
  3
ACAD_MLINESTYLE
350
17
  3
ACAD_PLOTSETTINGS
350
19
  3
ACAD_PLOTSTYLENAME
350
E
  3
ACAD_SCALELIST
350
B1
  3
ACAD_SECTIONVIEWSTYLE
350
1A5
  3
ACAD_TABLESTYLE
350
A6
  3
ACAD_VISUALSTYLE
350
95
  3
ACDB_RECOMPOSE_DATA
350
381
  3
AcDbVariableDictionary
350
59
  3
AcDsDecomposeData
350
387
  0
DICTIONARY
  5
18B
330
2
100
AcDbDictionary
280
     1
281
     1
  3
ACAD_LAYERSTATES
360
18C
  0
DICTIONARY
  5
E1
330
10
100
AcDbDictionary
280
     1
281
     1
  0
DICTIONARY
  5
15A
330
1F
100
AcDbDictionary
280
     1
281
     1
  3
ACAD_SORTENTS
360
2F6
  0
XRECORD
  5
1A2
102
{ACAD_REACTORS
330
C
102
}
330
C
100
AcDbXrecord
280
     1
300
ACD
300
2019
300
ACD_F_S
  0
DICTIONARY
  5
6C
102
{ACAD_REACTORS
330
C
102
}
330
C
100
AcDbDictionary
281
     1
  0
DICTIONARY
  5
1A8
102
{ACAD_REACTORS
330
C
102
}
330
C
100
AcDbDictionary
281
     1
  3
Imperial24
350
1A9
  0
DICTIONARY
  5
D
102
{ACAD_REACTORS
330
C
102
}
330
C
100
AcDbDictionary
281
     1
  0
DICTIONARY
  5
1A
102
{ACAD_REACTORS
330
C
102
}
330
C
100
AcDbDictionary
281
     1
  3
Layout1
350
74
  3
Layout2
350
79
  3
Model
350
22
  0
DICTIONARY
  5
6B
102
{ACAD_REACTORS
330
C
102
}
330
C
100
AcDbDictionary
281
     1
  3
ByBlock
350
93
  3
ByLayer
350
92
  3
Global
350
94
  0
DICTIONARY
  5
D2
102
{ACAD_REACTORS
330
C
102
}
330
C
100
AcDbDictionary
281
     1
  3
Annotativa
350
E0
  3
Standard
350
D3
  0
DICTIONARY
  5
17
102
{ACAD_REACTORS
330
C
102
}
330
C
100
AcDbDictionary
281
     1
  3
Standard
350
18
  0
DICTIONARY
  5
19
102
{ACAD_REACTORS
330
C
102
}
330
C
100
AcDbDictionary
281
     1
  0
ACDBDICTIONARYWDFLT
  5
E
102
{ACAD_REACTORS
330
C
102
}
330
C
100
AcDbDictionary
281
     1
  3
Normal
350
F
100
AcDbDictionaryWithDefault
340
F
  0
DICTIONARY
  5
B1
102
{ACAD_REACTORS
330
C
102
}
330
C
100
AcDbDictionary
281
     1
  3
A0
350
B2
  3
A1
350
124
  3
A2
350
125
  3
A3
350
126
  3
A4
350
127
  3
A5
350
128
  3
A6
350
129
  3
A7
350
12A
  3
A8
350
12B
  3
A9
350
12C
  3
B0
350
12D
  3
B1
350
12E
  3
B2
350
12F
  3
B3
350
130
  3
B4
350
131
  3
B5
350
132
  3
B6
350
133
  3
B7
350
134
  3
B8
350
135
  3
B9
350
136
  3
C0
350
137
  3
C1
350
138
  3
C2
350
139
  3
C3
350
13A
  3
C4
350
13B
  3
C5
350
13C
  3
C6
350
13D
  3
C7
350
13E
  3
C8
350
13F
  3
C9
350
140
  3
D0
350
141
  3
D1
350
142
  3
D2
350
143
  0
DICTIONARY
  5
1A5
102
{ACAD_REACTORS
330
C
102
}
330
C
100
AcDbDictionary
281
     1
  3
Imperial24
350
1A7
  0
DICTIONARY
  5
A6
102
{ACAD_REACTORS
330
C
102
}
330
C
100
AcDbDictionary
281
     1
  3
Standard
350
A7
  0
DICTIONARY
  5
95
102
{ACAD_REACTORS
330
C
102
}
330
C
100
AcDbDictionary
281
     1
  3
2dWireframe
350
9B
  3
Basic
350
9A
  3
Brighten
350
A1
  3
ColorChange
350
A5
  3
Conceptual
350
9E
  3
Dim
350
A0
  3
EdgeColorOff
350
172
  3
Facepattern
350
A4
  3
Flat
350
96
  3
FlatWithEdges
350
97
  3
Gouraud
350
98
  3
GouraudWithEdges
350
99
  3
Hidden
350
9D
  3
JitterOff
350
170
  3
Linepattern
350
A3
  3
OverhangOff
350
171
  3
Realistic
350
9F
  3
Shaded
350
17F
  3
Shaded with edges
350
17E
  3
Shades of Gray
350
17B
  3
Sketchy
350
17C
  3
Thicken
350
A2
  3
Wireframe
350
9C
  3
X-Ray
350
17D
  0
XRECORD
  5
381
102
{ACAD_REACTORS
330
C
102
}
330
C
100
AcDbXrecord
280
     1
 90
        1
330
A7
  0
DICTIONARY
  5
59
102
{ACAD_REACTORS
330
C
102
}
330
C
100
AcDbDictionary
281
     1
  3
CANNOSCALE
350
EB
  3
CMLEADERSTYLE
350
EA
  3
CTABLESTYLE
350
AB
  3
CVIEWDETAILSTYLE
350
1B4
  3
CVIEWSECTIONSTYLE
350
1B5
  3
DIMASSOC
350
5A
  3
HIDETEXT
350
5E
  3
LAYEREVAL
350
14A
  3
LAYERNOTIFY
350
14B
  0
DICTIONARY
  5
387
102
{ACAD_REACTORS
330
C
102
}
330
C
100
AcDbDictionary
281
     1
  3
AcDsRecords
350
389
  3
AcDsSchemas
350
388
1001
ACAD
1070
     2
  0
DICTIONARY
  5
18C
102
{ACAD_REACTORS
330
18B
102
}
330
18B
100
AcDbDictionary
281
     1
  0
SORTENTSTABLE
  5
2F6
102
{ACAD_REACTORS
330
15A
102
}
330
15A
100
AcDbSortentsTable
330
1F
  0
ACDBDETAILVIEWSTYLE
  5
1A9
102
{ACAD_XDICTIONARY
360
38C
102
}
102
{ACAD_REACTORS
330
1A8
102
}
330
1A8
100
AcDbModelDocViewStyle
 70
     0
  3
Imperial24
290
     0
100
AcDbDetailViewStyle
 70
     0
 71
     0
 90
        3
 71
     1
340
11
 62
   256
 40
0.24
340
0
 62
   256
 40
0.24
300

 40
0.36
280
     3
 71
     2
340
16
 90
       25
 62
   256
 71
     3
340
11
 62
   256
 40
0.24
 90
        1
 40
0.75
 90
        1
300
%<\AcVar ViewType \f "%tc1">% %<\AcVar ViewDetailId>%\PSCALE %<\AcVar ViewScale \f "%sn">%
 71
     4
340
16
 90
       25
 62
   256
340
16
 90
       25
 62
   256
280
     0
  0
LAYOUT
  5
74
102
{ACAD_REACTORS
330
1A
102
}
330
1A
100
AcDbPlotSettings
  1

  2
\\ADSCCNDC1\hq601xrx1
  4

  6

 40
0.0
 41
0.0
 42
0.0
 43
0.0
 44
0.0
 45
0.0
 46
0.0
 47
0.0
 48
0.0
 49
0.0
140
0.0
141
0.0
142
1.0
143
1.0
 70
   688
 72
     0
 73
     0
 74
     5
  7

 75
    16
147
1.0
 76
     0
 77
     2
 78
   300
148
0.0
149
0.0
100
AcDbLayout
  1
Layout1
 70
     1
 71
     1
 10
0.0
 20
0.0
 11
12.0
 21
9.0
 12
0.0
 22
0.0
 32
0.0
 14
0.0
 24
0.0
 34
0.0
 15
0.0
 25
0.0
 35
0.0
146
0.0
 13
0.0
 23
0.0
 33
0.0
 16
1.0
 26
0.0
 36
0.0
 17
0.0
 27
1.0
 37
0.0
 76
     0
330
73
  0
LAYOUT
  5
79
102
{ACAD_REACTORS
330
1A
102
}
330
1A
100
AcDbPlotSettings
  1

  2
\\ADSCCNDC1\hq601xrx1
  4

  6

 40
0.0
 41
0.0
 42
0.0
 43
0.0
 44
0.0
 45
0.0
 46
0.0
 47
0.0
 48
0.0
 49
0.0
140
0.0
141
0.0
142
1.0
143
1.0
 70
   688
 72
     0
 73
     0
 74
     5
  7

 75
    16
147
1.0
 76
     0
 77
     2
 78
   300
148
0.0
149
0.0
100
AcDbLayout
  1
Layout2
 70
     1
 71
     2
 10
0.0
 20
0.0
 11
12.0
 21
9.0
 12
0.0
 22
0.0
 32
0.0
 14
0.0
 24
0.0
 34
0.0
 15
0.0
 25
0.0
 35
0.0
146
0.0
 13
0.0
 23
0.0
 33
0.0
 16
1.0
 26
0.0
 36
0.0
 17
0.0
 27
1.0
 37
0.0
 76
     0
330
78
  0
LAYOUT
  5
22
102
{ACAD_XDICTIONARY
360
191
102
}
102
{ACAD_REACTORS
330
1A
102
}
330
1A
100
AcDbPlotSettings
  1

  2
none_device
  4
Letter_(8.50_x_11.00_Inches)
  6

 40
6.349999904632568
 41
6.349999904632568
 42
6.350006103515625
 43
6.350006103515625
 44
215.8999938964844
 45
279.3999938964844
 46
0.0
 47
0.0
 48
0.0
 49
0.0
140
0.0
141
0.0
142
1.0
143
3.560208697428376
 70
 11952
 72
     0
 73
     1
 74
     0
  7

 75
     0
147
0.28088241027059
 76
     0
 77
     2
 78
   300
148
0.1311165230791651
149
0.096403374003771
100
AcDbLayout
  1
Model
 70
     1
 71
     0
 10
0.0
 20
0.0
 11
12.0
 21
9.0
 12
0.0
 22
0.0
 32
0.0
 14
0.0
 24
0.0
 34
0.0
 15
0.0
 25
0.0
 35
0.0
146
0.0
 13
0.0
 23
0.0
 33
0.0
 16
1.0
 26
0.0
 36
0.0
 17
0.0
 27
1.0
 37
0.0
 76
     0
330
1F
331
90
  0
MATERIAL
  5
93
102
{ACAD_XDICTIONARY
360
185
102
}
102
{ACAD_REACTORS
330
6B
102
}
330
6B
100
AcDbMaterial
  1
ByBlock
 94
       63
  0
MATERIAL
  5
92
102
{ACAD_XDICTIONARY
360
183
102
}
102
{ACAD_REACTORS
330
6B
102
}
330
6B
100
AcDbMaterial
  1
ByLayer
 94
       63
  0
MATERIAL
  5
94
102
{ACAD_XDICTIONARY
360
10B
102
}
102
{ACAD_REACTORS
330
6B
102
}
330
6B
100
AcDbMaterial
  1
Global
 43
0.0208000000566244
 43
0.0
 43
0.0
 43
0.0
 43
0.0
 43
0.0208000000566244
 43
0.0
 43
0.0
 43
0.0
 43
0.0
 43
1.0
 43
0.0
 43
0.0
 43
0.0
 43
0.0
 43
1.0
 49
0.0208000000566244
 49
0.0
 49
0.0
 49
0.0
 49
0.0
 49
0.0208000000566244
 49
0.0
 49
0.0
 49
0.0
 49
0.0
 49
1.0
 49
0.0
 49
0.0
 49
0.0
 49
0.0
 49
1.0
142
0.0208000000566244
142
0.0
142
0.0
142
0.0
142
0.0
142
0.0208000000566244
142
0.0
142
0.0
142
0.0
142
0.0
142
1.0
142
0.0
142
0.0
142
0.0
142
0.0
142
1.0
144
0.0208000000566244
144
0.0
144
0.0
144
0.0
144
0.0
144
0.0208000000566244
144
0.0
144
0.0
144
0.0
144
0.0
144
1.0
144
0.0
144
0.0
144
0.0
144
0.0
144
1.0
 94
       63
1001
ACAD
1070
    -1
1070
     3
1070
     0
1000

1071
        0
1070
     0
  0
MLEADERSTYLE
  5
E0
102
{ACAD_REACTORS
330
D2
102
}
330
D2
100
AcDbMLeaderStyle
179
     2
170
     2
171
     1
172
     0
 90
        2
 40
0.0
 41
0.0
173
     1
 91
-1056964608
340
14
 92
       -2
290
     1
 42
0.09
291
     1
 43
0.36
  3
Standard
 44
0.18
300

342
11
174
     1
178
     1
175
     1
176
     0
 93
-1056964608
 45
0.18
292
     0
297
     0
 46
0.18
 94
-1056964608
 47
1.0
 49
1.0
140
1.0
293
     1
141
0.0
294
     1
177
     0
142
1.0
295
     0
296
     1
143
0.125
271
     0
272
     9
273
     9
298
     0
  0
MLEADERSTYLE
  5
D3
102
{ACAD_REACTORS
330
D2
102
}
330
D2
100
AcDbMLeaderStyle
179
     2
170
     2
171
     1
172
     0
 90
        2
 40
0.0
 41
0.0
173
     1
 91
-1056964608
340
14
 92
       -2
290
     1
 42
0.09
291
     1
 43
0.36
  3
Standard
 44
0.18
300

342
11
174
     1
178
     1
175
     1
176
     0
 93
-1056964608
 45
0.18
292
     0
297
     0
 46
0.18
 94
-1056964608
 47
1.0
 49
1.0
140
1.0
293
     1
141
0.0
294
     1
177
     0
142
1.0
295
     0
296
     0
143
0.125
271
     0
272
     9
273
     9
298
     0
  0
MLINESTYLE
  5
18
102
{ACAD_REACTORS
330
17
102
}
330
17
100
AcDbMlineStyle
  2
STANDARD
 70
     0
  3

 62
   256
 51
90.0
 52
90.0
 71
     2
 49
0.5
 62
   256
  6
BYLAYER
 49
-0.5
 62
   256
  6
BYLAYER
  0
ACDBPLACEHOLDER
  5
F
102
{ACAD_REACTORS
330
E
102
}
330
E
  0
SCALE
  5
B2
102
{ACAD_REACTORS
330
B1
102
}
330
B1
100
AcDbScale
 70
     0
300
1:1
140
1.0
141
1.0
290
     1
  0
SCALE
  5
124
102
{ACAD_REACTORS
330
B1
102
}
330
B1
100
AcDbScale
 70
     0
300
1:2
140
1.0
141
2.0
290
     0
  0
SCALE
  5
125
102
{ACAD_REACTORS
330
B1
102
}
330
B1
100
AcDbScale
 70
     0
300
1:4
140
1.0
141
4.0
290
     0
  0
SCALE
  5
126
102
{ACAD_REACTORS
330
B1
102
}
330
B1
100
AcDbScale
 70
     0
300
1:5
140
1.0
141
5.0
290
     0
  0
SCALE
  5
127
102
{ACAD_REACTORS
330
B1
102
}
330
B1
100
AcDbScale
 70
     0
300
1:8
140
1.0
141
8.0
290
     0
  0
SCALE
  5
128
102
{ACAD_REACTORS
330
B1
102
}
330
B1
100
AcDbScale
 70
     0
300
1:10
140
1.0
141
10.0
290
     0
  0
SCALE
  5
129
102
{ACAD_REACTORS
330
B1
102
}
330
B1
100
AcDbScale
 70
     0
300
1:16
140
1.0
141
16.0
290
     0
  0
SCALE
  5
12A
102
{ACAD_REACTORS
330
B1
102
}
330
B1
100
AcDbScale
 70
     0
300
1:20
140
1.0
141
20.0
290
     0
  0
SCALE
  5
12B
102
{ACAD_REACTORS
330
B1
102
}
330
B1
100
AcDbScale
 70
     0
300
1:30
140
1.0
141
30.0
290
     0
  0
SCALE
  5
12C
102
{ACAD_REACTORS
330
B1
102
}
330
B1
100
AcDbScale
 70
     0
300
1:40
140
1.0
141
40.0
290
     0
  0
SCALE
  5
12D
102
{ACAD_REACTORS
330
B1
102
}
330
B1
100
AcDbScale
 70
     0
300
1:50
140
1.0
141
50.0
290
     0
  0
SCALE
  5
12E
102
{ACAD_REACTORS
330
B1
102
}
330
B1
100
AcDbScale
 70
     0
300
1:100
140
1.0
141
100.0
290
     0
  0
SCALE
  5
12F
102
{ACAD_REACTORS
330
B1
102
}
330
B1
100
AcDbScale
 70
     0
300
2:1
140
2.0
141
1.0
290
     0
  0
SCALE
  5
130
102
{ACAD_REACTORS
330
B1
102
}
330
B1
100
AcDbScale
 70
     0
300
4:1
140
4.0
141
1.0
290
     0
  0
SCALE
  5
131
102
{ACAD_REACTORS
330
B1
102
}
330
B1
100
AcDbScale
 70
     0
300
8:1
140
8.0
141
1.0
290
     0
  0
SCALE
  5
132
102
{ACAD_REACTORS
330
B1
102
}
330
B1
100
AcDbScale
 70
     0
300
10:1
140
10.0
141
1.0
290
     0
  0
SCALE
  5
133
102
{ACAD_REACTORS
330
B1
102
}
330
B1
100
AcDbScale
 70
     0
300
100:1
140
100.0
141
1.0
290
     0
  0
SCALE
  5
134
102
{ACAD_REACTORS
330
B1
102
}
330
B1
100
AcDbScale
 70
     0
300
1/128" = 1'-0"
140
0.0078125
141
12.0
290
     0
  0
SCALE
  5
135
102
{ACAD_REACTORS
330
B1
102
}
330
B1
100
AcDbScale
 70
     0
300
1/64" = 1'-0"
140
0.015625
141
12.0
290
     0
  0
SCALE
  5
136
102
{ACAD_REACTORS
330
B1
102
}
330
B1
100
AcDbScale
 70
     0
300
1/32" = 1'-0"
140
0.03125
141
12.0
290
     0
  0
SCALE
  5
137
102
{ACAD_REACTORS
330
B1
102
}
330
B1
100
AcDbScale
 70
     0
300
1/16" = 1'-0"
140
0.0625
141
12.0
290
     0
  0
SCALE
  5
138
102
{ACAD_REACTORS
330
B1
102
}
330
B1
100
AcDbScale
 70
     0
300
3/32" = 1'-0"
140
0.09375
141
12.0
290
     0
  0
SCALE
  5
139
102
{ACAD_REACTORS
330
B1
102
}
330
B1
100
AcDbScale
 70
     0
300
1/8" = 1'-0"
140
0.125
141
12.0
290
     0
  0
SCALE
  5
13A
102
{ACAD_REACTORS
330
B1
102
}
330
B1
100
AcDbScale
 70
     0
300
3/16" = 1'-0"
140
0.1875
141
12.0
290
     0
  0
SCALE
  5
13B
102
{ACAD_REACTORS
330
B1
102
}
330
B1
100
AcDbScale
 70
     0
300
1/4" = 1'-0"
140
0.25
141
12.0
290
     0
  0
SCALE
  5
13C
102
{ACAD_REACTORS
330
B1
102
}
330
B1
100
AcDbScale
 70
     0
300
3/8" = 1'-0"
140
0.375
141
12.0
290
     0
  0
SCALE
  5
13D
102
{ACAD_REACTORS
330
B1
102
}
330
B1
100
AcDbScale
 70
     0
300
1/2" = 1'-0"
140
0.5
141
12.0
290
     0
  0
SCALE
  5
13E
102
{ACAD_REACTORS
330
B1
102
}
330
B1
100
AcDbScale
 70
     0
300
3/4" = 1'-0"
140
0.75
141
12.0
290
     0
  0
SCALE
  5
13F
102
{ACAD_REACTORS
330
B1
102
}
330
B1
100
AcDbScale
 70
     0
300
1" = 1'-0"
140
1.0
141
12.0
290
     0
  0
SCALE
  5
140
102
{ACAD_REACTORS
330
B1
102
}
330
B1
100
AcDbScale
 70
     0
300
1-1/2" = 1'-0"
140
1.5
141
12.0
290
     0
  0
SCALE
  5
141
102
{ACAD_REACTORS
330
B1
102
}
330
B1
100
AcDbScale
 70
     0
300
3" = 1'-0"
140
3.0
141
12.0
290
     0
  0
SCALE
  5
142
102
{ACAD_REACTORS
330
B1
102
}
330
B1
100
AcDbScale
 70
     0
300
6" = 1'-0"
140
6.0
141
12.0
290
     0
  0
SCALE
  5
143
102
{ACAD_REACTORS
330
B1
102
}
330
B1
100
AcDbScale
 70
     0
300
1'-0" = 1'-0"
140
12.0
141
12.0
290
     0
  0
ACDBSECTIONVIEWSTYLE
  5
1A7
102
{ACAD_XDICTIONARY
360
38A
102
}
102
{ACAD_REACTORS
330
1A5
102
}
330
1A5
100
AcDbModelDocViewStyle
 70
     0
  3
Imperial24
290
     0
100
AcDbSectionViewStyle
 70
     0
 71
     0
 90
       78
 71
     1
340
11
 62
   256
 40
0.24
340
0
340
0
 62
   256
 40
0.24
300
I, O, Q, S, X, Z
 40
0.48
 90
        3
 40
0.18
 90
        1
 71
     2
340
16
 90
       25
 62
   256
340
16
 90
       50
 62
   256
 40
0.24
 40
0.0
 40
0.24
 71
     3
340
11
 62
   256
 40
0.24
 90
        1
 40
0.75
 90
        1
300
%<\AcVar ViewType \f "%tc1">% %<\AcVar ViewSectionStartId>%-%<\AcVar ViewSectionEndId>%\PSCALE %<\AcVar ViewScale \f "%sn">%
 71
     4
 62
   256
 62
   257
300
ANSI31
 40
1.0
 90
        0
290
     0
290
     0
 90
        6
 40
0.0
 40
1.570796326794896
 40
0.2617993877991494
 40
1.308996938995747
 40
-0.2617993877991494
 40
1.832595714594046
  0
TABLESTYLE
  5
A7
102
{ACAD_XDICTIONARY
360
FF
102
}
102
{ACAD_REACTORS
330
A6
102
}
330
A6
100
AcDbTableStyle
280
     0
  3
Standard
 70
     0
 71
     0
 40
0.06
 41
0.06
280
     0
281
     0
  7
Standard
140
0.18
170
     2
 62
     0
 63
     7
283
     0
 90
      512
 91
        0
  1

274
    -2
284
     1
 64
     0
275
    -2
285
     1
 65
     0
276
    -2
286
     1
 66
     0
277
    -2
287
     1
 67
     0
278
    -2
288
     1
 68
     0
279
    -2
289
     1
 69
     0
  7
Standard
140
0.25
170
     5
 62
     0
 63
     7
283
     0
 90
      512
 91
        0
  1

274
    -2
284
     1
 64
     0
275
    -2
285
     1
 65
     0
276
    -2
286
     1
 66
     0
277
    -2
287
     1
 67
     0
278
    -2
288
     1
 68
     0
279
    -2
289
     1
 69
     0
  7
Standard
140
0.18
170
     5
 62
     0
 63
     7
283
     0
 90
      512
 91
        0
  1

274
    -2
284
     1
 64
     0
275
    -2
285
     1
 65
     0
276
    -2
286
     1
 66
     0
277
    -2
287
     1
 67
     0
278
    -2
288
     1
 68
     0
279
    -2
289
     1
 69
     0
  0
VISUALSTYLE
  5
9B
102
{ACAD_REACTORS
330
95
102
}
330
95
100
AcDbVisualStyle
  2
2dWireframe
 70
     4
177
     3
291
     0
 70
    58
 90
        0
176
     1
 90
        2
176
     1
 90
        1
176
     1
 90
        0
176
     1
 40
0.6
176
     1
 40
30.0
176
     1
 62
     7
420
 16777215
176
     1
 90
        1
176
     1
 90
        4
176
     1
 62
     7
176
     1
 62
   257
176
     1
 90
        1
176
     1
 90
        1
176
     1
 40
1.0
176
     1
 90
        0
176
     1
 62
   257
176
     1
 40
1.0
176
     1
 90
        1
176
     1
 90
        6
176
     1
 90
        2
176
     1
 62
     7
176
     1
 90
        5
176
     1
 90
        0
176
     1
 90
        0
176
     1
290
     0
176
     1
 90
        1
176
     1
 40
0.0
176
     1
 90
        0
176
     1
290
     1
176
     1
290
     1
176
     1
290
     0
176
     1
290
     0
176
     1
290
     0
176
     1
290
     0
176
     1
290
     0
176
     1
290
     0
176
     1
290
     0
176
     1
 90
       50
176
     1
 40
0.0
176
     1
 40
1.0
176
     1
 90
        0
176
     1
 62
    18
420
        0
176
     1
 90
       50
176
     1
 90
        3
176
     1
 62
     5
420
      255
176
     1
290
     0
176
     1
 90
       50
176
     1
 90
       50
176
     1
 90
       50
176
     1
290
     0
176
     1
 90
       50
176
     1
 62
   256
176
     0
 40
1.0
176
     0
 90
        2
176
     1
  1
strokes_ogs.tif
176
     1
290
     0
176
     1
 40
1.0
176
     1
 40
1.0
176
     1
1001
ACAD
1000
AcDbSavedByObjectVersion
1070
     0
  0
VISUALSTYLE
  5
9A
102
{ACAD_REACTORS
330
95
102
}
330
95
100
AcDbVisualStyle
  2
Basic
 70
     7
177
     3
291
     1
 70
    58
 90
        1
176
     1
 90
        0
176
     1
 90
        1
176
     1
 90
        0
176
     1
 40
0.6
176
     1
 40
30.0
176
     1
 62
     7
420
 16777215
176
     1
 90
        0
176
     1
 90
        4
176
     1
 62
     7
176
     1
 62
   257
176
     1
 90
        1
176
     1
 90
        1
176
     1
 40
1.0
176
     1
 90
        8
176
     1
 62
     7
176
     1
 40
1.0
176
     1
 90
        1
176
     1
 90
        6
176
     1
 90
        2
176
     1
 62
     7
176
     1
 90
        5
176
     1
 90
        0
176
     1
 90
        0
176
     1
290
     0
176
     1
 90
        1
176
     1
 40
0.0
176
     1
 90
        0
176
     1
290
     0
176
     1
290
     1
176
     1
290
     1
176
     1
290
     0
176
     1
290
     0
176
     1
290
     0
176
     1
290
     0
176
     1
290
     0
176
     1
290
     0
176
     1
 90
       50
176
     1
 40
0.0
176
     1
 40
1.0
176
     1
 90
        0
176
     1
 62
    18
420
        0
176
     1
 90
       50
176
     1
 90
        3
176
     1
 62
     5
420
      255
176
     1
290
     0
176
     1
 90
       50
176
     1
 90
       50
176
     1
 90
       50
176
     1
290
     0
176
     1
 90
       50
176
     1
 62
   256
176
     0
 40
1.0
176
     0
 90
        2
176
     1
  1
strokes_ogs.tif
176
     1
290
     0
176
     1
 40
1.0
176
     1
 40
1.0
176
     1
1001
ACAD
1000
AcDbSavedByObjectVersion
1070
     0
  0
VISUALSTYLE
  5
A1
102
{ACAD_REACTORS
330
95
102
}
330
95
100
AcDbVisualStyle
  2
Brighten
 70
    12
177
     3
291
     1
 70
    58
 90
        2
176
     1
 90
        2
176
     1
 90
        1
176
     1
 90
        0
176
     1
 40
0.6
176
     1
 40
30.0
176
     1
 62
     7
420
 16777215
176
     1
 90
        1
176
     1
 90
        4
176
     1
 62
     7
176
     1
 62
   257
176
     1
 90
        1
176
     1
 90
        1
176
     1
 40
1.0
176
     1
 90
        8
176
     1
 62
     7
176
     1
 40
1.0
176
     1
 90
        1
176
     1
 90
        6
176
     1
 90
        2
176
     1
 62
     7
176
     1
 90
        5
176
     1
 90
        0
176
     1
 90
        0
176
     1
290
     0
176
     1
 90
        1
176
     1
 40
50.0
176
     1
 90
        0
176
     1
290
     0
176
     1
290
     1
176
     1
290
     1
176
     1
290
     0
176
     1
290
     0
176
     1
290
     0
176
     1
290
     0
176
     1
290
     0
176
     1
290
     0
176
     1
 90
       50
176
     1
 40
0.0
176
     1
 40
1.0
176
     1
 90
        0
176
     1
 62
    18
420
        0
176
     1
 90
       50
176
     1
 90
        3
176
     1
 62
     5
420
      255
176
     1
290
     0
176
     1
 90
       50
176
     1
 90
       50
176
     1
 90
       50
176
     1
290
     0
176
     1
 90
       50
176
     1
 62
   256
176
     0
 40
1.0
176
     0
 90
        2
176
     1
  1
strokes_ogs.tif
176
     1
290
     0
176
     1
 40
1.0
176
     1
 40
1.0
176
     1
1001
ACAD
1000
AcDbSavedByObjectVersion
1070
     0
  0
VISUALSTYLE
  5
A5
102
{ACAD_REACTORS
330
95
102
}
330
95
100
AcDbVisualStyle
  2
ColorChange
 70
    16
177
     3
291
     1
 70
    58
 90
        2
176
     1
 90
        2
176
     1
 90
        3
176
     1
 90
        0
176
     1
 40
0.6
176
     1
 40
30.0
176
     1
 62
     8
420
  8421504
176
     1
 90
        1
176
     1
 90
        4
176
     1
 62
     7
176
     1
 62
   257
176
     1
 90
        1
176
     1
 90
        1
176
     1
 40
1.0
176
     1
 90
        8
176
     1
 62
     8
420
  8421504
176
     1
 40
1.0
176
     1
 90
        1
176
     1
 90
        6
176
     1
 90
        2
176
     1
 62
     7
176
     1
 90
        5
176
     1
 90
        0
176
     1
 90
        0
176
     1
290
     0
176
     1
 90
        1
176
     1
 40
0.0
176
     1
 90
        0
176
     1
290
     0
176
     1
290
     1
176
     1
290
     1
176
     1
290
     0
176
     1
290
     0
176
     1
290
     0
176
     1
290
     0
176
     1
290
     0
176
     1
290
     0
176
     1
 90
       50
176
     1
 40
0.0
176
     1
 40
1.0
176
     1
 90
        0
176
     1
 62
    18
420
        0
176
     1
 90
       50
176
     1
 90
        3
176
     1
 62
     5
420
      255
176
     1
290
     0
176
     1
 90
       50
176
     1
 90
       50
176
     1
 90
       50
176
     1
290
     0
176
     1
 90
       50
176
     1
 62
   256
176
     0
 40
1.0
176
     0
 90
        2
176
     1
  1
strokes_ogs.tif
176
     1
290
     0
176
     1
 40
1.0
176
     1
 40
1.0
176
     1
1001
ACAD
1000
AcDbSavedByObjectVersion
1070
     0
  0
VISUALSTYLE
  5
9E
102
{ACAD_REACTORS
330
95
102
}
330
95
100
AcDbVisualStyle
  2
Conceptual
 70
     9
177
     3
291
     0
 70
    58
 90
        3
176
     1
 90
        2
176
     1
 90
        1
176
     1
 90
        0
176
     1
 40
0.6
176
     1
 40
30.0
176
     1
 62
     7
420
 16777215
176
     1
 90
        2
176
     1
 90
        2
176
     1
 62
     7
176
     1
 62
   257
176
     1
 90
        1
176
     1
 90
        1
176
     1
 40
40.0
176
     1
 90
        8
176
     1
 62
     7
176
     1
 40
1.0
176
     1
 90
        1
176
     1
 90
        6
176
     1
 90
        2
176
     1
 62
     7
176
     1
 90
        3
176
     1
 90
        0
176
     1
 90
        0
176
     1
290
     0
176
     1
 90
        1
176
     1
 40
0.0
176
     1
 90
        0
176
     1
290
     0
176
     1
290
     1
176
     1
290
     1
176
     1
290
     0
176
     1
290
     0
176
     1
290
     0
176
     1
290
     0
176
     1
290
     0
176
     1
290
     0
176
     1
 90
       50
176
     1
 40
0.0
176
     1
 40
1.0
176
     1
 90
        0
176
     1
 62
    18
420
        0
176
     1
 90
       50
176
     1
 90
        3
176
     1
 62
     5
420
      255
176
     1
290
     0
176
     1
 90
       50
176
     1
 90
       50
176
     1
 90
       50
176
     1
290
     0
176
     1
 90
       50
176
     1
 62
   256
176
     0
 40
1.0
176
     0
 90
        2
176
     1
  1
strokes_ogs.tif
176
     1
290
     0
176
     1
 40
1.0
176
     1
 40
1.0
176
     1
1001
ACAD
1000
AcDbSavedByObjectVersion
1070
     0
  0
VISUALSTYLE
  5
A0
102
{ACAD_REACTORS
330
95
102
}
330
95
100
AcDbVisualStyle
  2
Dim
 70
    11
177
     3
291
     1
 70
    58
 90
        2
176
     1
 90
        2
176
     1
 90
        1
176
     1
 90
        0
176
     1
 40
0.6
176
     1
 40
30.0
176
     1
 62
     7
420
 16777215
176
     1
 90
        1
176
     1
 90
        4
176
     1
 62
     7
176
     1
 62
   257
176
     1
 90
        1
176
     1
 90
        1
176
     1
 40
1.0
176
     1
 90
        8
176
     1
 62
     7
176
     1
 40
1.0
176
     1
 90
        1
176
     1
 90
        6
176
     1
 90
        2
176
     1
 62
     7
176
     1
 90
        5
176
     1
 90
        0
176
     1
 90
        0
176
     1
290
     0
176
     1
 90
        1
176
     1
 40
-50.0
176
     1
 90
        0
176
     1
290
     0
176
     1
290
     1
176
     1
290
     1
176
     1
290
     0
176
     1
290
     0
176
     1
290
     0
176
     1
290
     0
176
     1
290
     0
176
     1
290
     0
176
     1
 90
       50
176
     1
 40
0.0
176
     1
 40
1.0
176
     1
 90
        0
176
     1
 62
    18
420
        0
176
     1
 90
       50
176
     1
 90
        3
176
     1
 62
     5
420
      255
176
     1
290
     0
176
     1
 90
       50
176
     1
 90
       50
176
     1
 90
       50
176
     1
290
     0
176
     1
 90
       50
176
     1
 62
   256
176
     0
 40
1.0
176
     0
 90
        2
176
     1
  1
strokes_ogs.tif
176
     1
290
     0
176
     1
 40
1.0
176
     1
 40
1.0
176
     1
1001
ACAD
1000
AcDbSavedByObjectVersion
1070
     0
  0
VISUALSTYLE
  5
172
102
{ACAD_REACTORS
330
95
102
}
330
95
100
AcDbVisualStyle
  2
EdgeColorOff
 70
    22
177
     3
291
     1
 70
    58
 90
        2
176
     0
 90
        2
176
     0
 90
        0
176
     0
 90
        0
176
     0
 40
0.6
176
     0
 40
30.0
176
     0
 62
     7
420
 16777215
176
     0
 90
        1
176
     0
 90
        4
176
     0
 62
     7
176
     0
 62
   257
176
     0
 90
        1
176
     0
 90
        1
176
     0
 40
1.0
176
     0
 90
        8
176
     2
 62
     7
176
     0
 40
1.0
176
     0
 90
        1
176
     0
 90
        6
176
     0
 90
        2
176
     0
 62
     7
176
     0
 90
        5
176
     0
 90
        0
176
     0
 90
        0
176
     0
290
     0
176
     0
 90
        1
176
     0
 40
0.0
176
     0
 90
        0
176
     0
290
     0
176
     1
290
     1
176
     1
290
     1
176
     1
290
     0
176
     1
290
     0
176
     1
290
     0
176
     1
290
     0
176
     1
290
     0
176
     1
290
     0
176
     1
 90
       50
176
     1
 40
0.0
176
     1
 40
1.0
176
     1
 90
        0
176
     1
 62
    18
420
        0
176
     1
 90
       50
176
     1
 90
        3
176
     1
 62
     5
420
      255
176
     1
290
     0
176
     1
 90
       50
176
     1
 90
       50
176
     1
 90
       50
176
     1
290
     0
176
     1
 90
       50
176
     1
 62
   256
176
     0
 40
1.0
176
     0
 90
        2
176
     1
  1
strokes_ogs.tif
176
     1
290
     0
176
     1
 40
1.0
176
     1
 40
1.0
176
     1
1001
ACAD
1000
AcDbSavedByObjectVersion
1070
     0
  0
VISUALSTYLE
  5
A4
102
{ACAD_REACTORS
330
95
102
}
330
95
100
AcDbVisualStyle
  2
Facepattern
 70
    15
177
     3
291
     1
 70
    58
 90
        2
176
     1
 90
        2
176
     1
 90
        1
176
     1
 90
        0
176
     1
 40
0.6
176
     1
 40
30.0
176
     1
 62
     7
420
 16777215
176
     1
 90
        1
176
     1
 90
        4
176
     1
 62
     7
176
     1
 62
   257
176
     1
 90
        1
176
     1
 90
        1
176
     1
 40
1.0
176
     1
 90
        8
176
     1
 62
     7
176
     1
 40
1.0
176
     1
 90
        1
176
     1
 90
        6
176
     1
 90
        2
176
     1
 62
     7
176
     1
 90
        5
176
     1
 90
        0
176
     1
 90
        0
176
     1
290
     0
176
     1
 90
        1
176
     1
 40
0.0
176
     1
 90
        0
176
     1
290
     0
176
     1
290
     1
176
     1
290
     1
176
     1
290
     0
176
     1
290
     0
176
     1
290
     0
176
     1
290
     0
176
     1
290
     0
176
     1
290
     0
176
     1
 90
       50
176
     1
 40
0.0
176
     1
 40
1.0
176
     1
 90
        0
176
     1
 62
    18
420
        0
176
     1
 90
       50
176
     1
 90
        3
176
     1
 62
     5
420
      255
176
     1
290
     0
176
     1
 90
       50
176
     1
 90
       50
176
     1
 90
       50
176
     1
290
     0
176
     1
 90
       50
176
     1
 62
   256
176
     0
 40
1.0
176
     0
 90
        2
176
     1
  1
strokes_ogs.tif
176
     1
290
     0
176
     1
 40
1.0
176
     1
 40
1.0
176
     1
1001
ACAD
1000
AcDbSavedByObjectVersion
1070
     0
  0
VISUALSTYLE
  5
96
102
{ACAD_REACTORS
330
95
102
}
330
95
100
AcDbVisualStyle
  2
Flat
 70
     0
177
     3
291
     1
 70
    58
 90
        2
176
     1
 90
        1
176
     1
 90
        1
176
     1
 90
        2
176
     1
 40
0.6
176
     1
 40
30.0
176
     1
 62
     7
420
 16777215
176
     1
 90
        0
176
     1
 90
        0
176
     1
 62
     7
176
     1
 62
   257
176
     1
 90
        1
176
     1
 90
        1
176
     1
 40
1.0
176
     1
 90
        8
176
     1
 62
     7
176
     1
 40
1.0
176
     1
 90
        1
176
     1
 90
        6
176
     1
 90
        2
176
     1
 62
     7
176
     1
 90
        5
176
     1
 90
        0
176
     1
 90
        0
176
     1
290
     0
176
     1
 90
       13
176
     1
 40
0.0
176
     1
 90
        0
176
     1
290
     0
176
     1
290
     1
176
     1
290
     1
176
     1
290
     0
176
     1
290
     0
176
     1
290
     0
176
     1
290
     0
176
     1
290
     0
176
     1
290
     0
176
     1
 90
       50
176
     1
 40
0.0
176
     1
 40
1.0
176
     1
 90
        0
176
     1
 62
    18
420
        0
176
     1
 90
       50
176
     1
 90
        3
176
     1
 62
     5
420
      255
176
     1
290
     0
176
     1
 90
       50
176
     1
 90
       50
176
     1
 90
       50
176
     1
290
     0
176
     1
 90
       50
176
     1
 62
   256
176
     0
 40
1.0
176
     0
 90
        2
176
     1
  1
strokes_ogs.tif
176
     1
290
     0
176
     1
 40
1.0
176
     1
 40
1.0
176
     1
1001
ACAD
1000
AcDbSavedByObjectVersion
1070
     0
  0
VISUALSTYLE
  5
97
102
{ACAD_REACTORS
330
95
102
}
330
95
100
AcDbVisualStyle
  2
FlatWithEdges
 70
     1
177
     3
291
     1
 70
    58
 90
        2
176
     1
 90
        1
176
     1
 90
        1
176
     1
 90
        2
176
     1
 40
0.6
176
     1
 40
30.0
176
     1
 62
     7
420
 16777215
176
     1
 90
        1
176
     1
 90
        0
176
     1
 62
     7
176
     1
 62
   257
176
     1
 90
        1
176
     1
 90
        1
176
     1
 40
1.0
176
     1
 90
        0
176
     1
 62
   257
176
     1
 40
1.0
176
     1
 90
        1
176
     1
 90
        6
176
     1
 90
        2
176
     1
 62
     7
176
     1
 90
        5
176
     1
 90
        0
176
     1
 90
        0
176
     1
290
     0
176
     1
 90
       13
176
     1
 40
0.0
176
     1
 90
        0
176
     1
290
     0
176
     1
290
     1
176
     1
290
     1
176
     1
290
     0
176
     1
290
     0
176
     1
290
     0
176
     1
290
     0
176
     1
290
     0
176
     1
290
     0
176
     1
 90
       50
176
     1
 40
0.0
176
     1
 40
1.0
176
     1
 90
        0
176
     1
 62
    18
420
        0
176
     1
 90
       50
176
     1
 90
        3
176
     1
 62
     5
420
      255
176
     1
290
     0
176
     1
 90
       50
176
     1
 90
       50
176
     1
 90
       50
176
     1
290
     0
176
     1
 90
       50
176
     1
 62
   256
176
     0
 40
1.0
176
     0
 90
        2
176
     1
  1
strokes_ogs.tif
176
     1
290
     0
176
     1
 40
1.0
176
     1
 40
1.0
176
     1
1001
ACAD
1000
AcDbSavedByObjectVersion
1070
     0
  0
VISUALSTYLE
  5
98
102
{ACAD_REACTORS
330
95
102
}
330
95
100
AcDbVisualStyle
  2
Gouraud
 70
     2
177
     3
291
     1
 70
    58
 90
        2
176
     1
 90
        2
176
     1
 90
        1
176
     1
 90
        2
176
     1
 40
0.6
176
     1
 40
30.0
176
     1
 62
     7
420
 16777215
176
     1
 90
        0
176
     1
 90
        0
176
     1
 62
     7
176
     1
 62
   257
176
     1
 90
        1
176
     1
 90
        1
176
     1
 40
1.0
176
     1
 90
        0
176
     1
 62
     7
176
     1
 40
1.0
176
     1
 90
        1
176
     1
 90
        6
176
     1
 90
        2
176
     1
 62
     7
176
     1
 90
        5
176
     1
 90
        0
176
     1
 90
        0
176
     1
290
     0
176
     1
 90
       13
176
     1
 40
0.0
176
     1
 90
        0
176
     1
290
     0
176
     1
290
     1
176
     1
290
     1
176
     1
290
     0
176
     1
290
     0
176
     1
290
     0
176
     1
290
     0
176
     1
290
     0
176
     1
290
     0
176
     1
 90
       50
176
     1
 40
0.0
176
     1
 40
1.0
176
     1
 90
        0
176
     1
 62
    18
420
        0
176
     1
 90
       50
176
     1
 90
        3
176
     1
 62
     5
420
      255
176
     1
290
     0
176
     1
 90
       50
176
     1
 90
       50
176
     1
 90
       50
176
     1
290
     0
176
     1
 90
       50
176
     1
 62
   256
176
     0
 40
1.0
176
     0
 90
        2
176
     1
  1
strokes_ogs.tif
176
     1
290
     0
176
     1
 40
1.0
176
     1
 40
1.0
176
     1
1001
ACAD
1000
AcDbSavedByObjectVersion
1070
     0
  0
VISUALSTYLE
  5
99
102
{ACAD_REACTORS
330
95
102
}
330
95
100
AcDbVisualStyle
  2
GouraudWithEdges
 70
     3
177
     3
291
     1
 70
    58
 90
        2
176
     1
 90
        2
176
     1
 90
        1
176
     1
 90
        2
176
     1
 40
0.6
176
     1
 40
30.0
176
     1
 62
     7
420
 16777215
176
     1
 90
        1
176
     1
 90
        0
176
     1
 62
     7
176
     1
 62
   257
176
     1
 90
        1
176
     1
 90
        1
176
     1
 40
1.0
176
     1
 90
        0
176
     1
 62
   257
176
     1
 40
1.0
176
     1
 90
        1
176
     1
 90
        6
176
     1
 90
        2
176
     1
 62
     7
176
     1
 90
        5
176
     1
 90
        0
176
     1
 90
        0
176
     1
290
     0
176
     1
 90
       13
176
     1
 40
0.0
176
     1
 90
        0
176
     1
290
     0
176
     1
290
     1
176
     1
290
     1
176
     1
290
     0
176
     1
290
     0
176
     1
290
     0
176
     1
290
     0
176
     1
290
     0
176
     1
290
     0
176
     1
 90
       50
176
     1
 40
0.0
176
     1
 40
1.0
176
     1
 90
        0
176
     1
 62
    18
420
        0
176
     1
 90
       50
176
     1
 90
        3
176
     1
 62
     5
420
      255
176
     1
290
     0
176
     1
 90
       50
176
     1
 90
       50
176
     1
 90
       50
176
     1
290
     0
176
     1
 90
       50
176
     1
 62
   256
176
     0
 40
1.0
176
     0
 90
        2
176
     1
  1
strokes_ogs.tif
176
     1
290
     0
176
     1
 40
1.0
176
     1
 40
1.0
176
     1
1001
ACAD
1000
AcDbSavedByObjectVersion
1070
     0
  0
VISUALSTYLE
  5
9D
102
{ACAD_REACTORS
330
95
102
}
330
95
100
AcDbVisualStyle
  2
Hidden
 70
     6
177
     3
291
     0
 70
    58
 90
        1
176
     1
 90
        2
176
     1
 90
        2
176
     1
 90
        0
176
     1
 40
0.6
176
     1
 40
30.0
176
     1
 62
     7
420
 16777215
176
     1
 90
        2
176
     1
 90
        2
176
     1
 62
     7
176
     1
 62
   257
176
     1
 90
        2
176
     1
 90
        1
176
     1
 40
40.0
176
     1
 90
        0
176
     1
 62
   257
176
     1
 40
1.0
176
     1
 90
        1
176
     1
 90
        6
176
     1
 90
        2
176
     1
 62
     7
176
     1
 90
        3
176
     1
 90
        0
176
     1
 90
        0
176
     1
290
     0
176
     1
 90
        1
176
     1
 40
0.0
176
     1
 90
        0
176
     1
290
     0
176
     1
290
     1
176
     1
290
     1
176
     1
290
     0
176
     1
290
     0
176
     1
290
     0
176
     1
290
     0
176
     1
290
     0
176
     1
290
     0
176
     1
 90
       50
176
     1
 40
0.0
176
     1
 40
1.0
176
     1
 90
        0
176
     1
 62
    18
420
        0
176
     1
 90
       50
176
     1
 90
        3
176
     1
 62
     5
420
      255
176
     1
290
     0
176
     1
 90
       50
176
     1
 90
       50
176
     1
 90
       50
176
     1
290
     0
176
     1
 90
       50
176
     1
 62
   256
176
     0
 40
1.0
176
     0
 90
        2
176
     1
  1
strokes_ogs.tif
176
     1
290
     0
176
     1
 40
1.0
176
     1
 40
1.0
176
     1
1001
ACAD
1000
AcDbSavedByObjectVersion
1070
     0
  0
VISUALSTYLE
  5
170
102
{ACAD_REACTORS
330
95
102
}
330
95
100
AcDbVisualStyle
  2
JitterOff
 70
    20
177
     3
291
     1
 70
    58
 90
        2
176
     0
 90
        2
176
     0
 90
        0
176
     0
 90
        0
176
     0
 40
0.6
176
     0
 40
30.0
176
     0
 62
     7
420
 16777215
176
     0
 90
        1
176
     0
 90
        4
176
     0
 62
     7
176
     0
 62
   257
176
     0
 90
        1
176
     0
 90
        1
176
     0
 40
1.0
176
     0
 90
       10
176
     2
 62
     7
176
     0
 40
1.0
176
     0
 90
        1
176
     0
 90
        6
176
     0
 90
        2
176
     0
 62
     7
176
     0
 90
        5
176
     0
 90
        0
176
     0
 90
        0
176
     0
290
     0
176
     0
 90
        1
176
     0
 40
0.0
176
     0
 90
        0
176
     0
290
     0
176
     1
290
     1
176
     1
290
     1
176
     1
290
     0
176
     1
290
     0
176
     1
290
     0
176
     1
290
     0
176
     1
290
     0
176
     1
290
     0
176
     1
 90
       50
176
     1
 40
0.0
176
     1
 40
1.0
176
     1
 90
        0
176
     1
 62
    18
420
        0
176
     1
 90
       50
176
     1
 90
        3
176
     1
 62
     5
420
      255
176
     1
290
     0
176
     1
 90
       50
176
     1
 90
       50
176
     1
 90
       50
176
     1
290
     0
176
     1
 90
       50
176
     1
 62
   256
176
     0
 40
1.0
176
     0
 90
        2
176
     1
  1
strokes_ogs.tif
176
     1
290
     0
176
     1
 40
1.0
176
     1
 40
1.0
176
     1
1001
ACAD
1000
AcDbSavedByObjectVersion
1070
     0
  0
VISUALSTYLE
  5
A3
102
{ACAD_REACTORS
330
95
102
}
330
95
100
AcDbVisualStyle
  2
Linepattern
 70
    14
177
     3
291
     1
 70
    58
 90
        2
176
     1
 90
        2
176
     1
 90
        1
176
     1
 90
        0
176
     1
 40
0.6
176
     1
 40
30.0
176
     1
 62
     7
420
 16777215
176
     1
 90
        1
176
     1
 90
        4
176
     1
 62
     7
176
     1
 62
   257
176
     1
 90
        7
176
     1
 90
        7
176
     1
 40
1.0
176
     1
 90
        8
176
     1
 62
     7
176
     1
 40
1.0
176
     1
 90
        1
176
     1
 90
        6
176
     1
 90
        2
176
     1
 62
     7
176
     1
 90
        5
176
     1
 90
        0
176
     1
 90
        0
176
     1
290
     0
176
     1
 90
        1
176
     1
 40
0.0
176
     1
 90
        0
176
     1
290
     0
176
     1
290
     1
176
     1
290
     1
176
     1
290
     0
176
     1
290
     0
176
     1
290
     0
176
     1
290
     0
176
     1
290
     0
176
     1
290
     0
176
     1
 90
       50
176
     1
 40
0.0
176
     1
 40
1.0
176
     1
 90
        0
176
     1
 62
    18
420
        0
176
     1
 90
       50
176
     1
 90
        3
176
     1
 62
     5
420
      255
176
     1
290
     0
176
     1
 90
       50
176
     1
 90
       50
176
     1
 90
       50
176
     1
290
     0
176
     1
 90
       50
176
     1
 62
   256
176
     0
 40
1.0
176
     0
 90
        2
176
     1
  1
strokes_ogs.tif
176
     1
290
     0
176
     1
 40
1.0
176
     1
 40
1.0
176
     1
1001
ACAD
1000
AcDbSavedByObjectVersion
1070
     0
  0
VISUALSTYLE
  5
171
102
{ACAD_REACTORS
330
95
102
}
330
95
100
AcDbVisualStyle
  2
OverhangOff
 70
    21
177
     3
291
     1
 70
    58
 90
        2
176
     0
 90
        2
176
     0
 90
        0
176
     0
 90
        0
176
     0
 40
0.6
176
     0
 40
30.0
176
     0
 62
     7
420
 16777215
176
     0
 90
        1
176
     0
 90
        4
176
     0
 62
     7
176
     0
 62
   257
176
     0
 90
        1
176
     0
 90
        1
176
     0
 40
1.0
176
     0
 90
        9
176
     2
 62
     7
176
     0
 40
1.0
176
     0
 90
        1
176
     0
 90
        6
176
     0
 90
        2
176
     0
 62
     7
176
     0
 90
        5
176
     0
 90
        0
176
     0
 90
        0
176
     0
290
     0
176
     0
 90
        1
176
     0
 40
0.0
176
     0
 90
        0
176
     0
290
     0
176
     1
290
     1
176
     1
290
     1
176
     1
290
     0
176
     1
290
     0
176
     1
290
     0
176
     1
290
     0
176
     1
290
     0
176
     1
290
     0
176
     1
 90
       50
176
     1
 40
0.0
176
     1
 40
1.0
176
     1
 90
        0
176
     1
 62
    18
420
        0
176
     1
 90
       50
176
     1
 90
        3
176
     1
 62
     5
420
      255
176
     1
290
     0
176
     1
 90
       50
176
     1
 90
       50
176
     1
 90
       50
176
     1
290
     0
176
     1
 90
       50
176
     1
 62
   256
176
     0
 40
1.0
176
     0
 90
        2
176
     1
  1
strokes_ogs.tif
176
     1
290
     0
176
     1
 40
1.0
176
     1
 40
1.0
176
     1
1001
ACAD
1000
AcDbSavedByObjectVersion
1070
     0
  0
VISUALSTYLE
  5
9F
102
{ACAD_REACTORS
330
95
102
}
330
95
100
AcDbVisualStyle
  2
Realistic
 70
     8
177
     3
291
     0
 70
    58
 90
        2
176
     1
 90
        3
176
     1
 90
        0
176
     1
 90
        2
176
     1
 40
0.6
176
     1
 40
30.0
176
     1
 62
     7
420
 16777215
176
     1
 90
        0
176
     1
 90
        0
176
     1
 62
     7
176
     1
 62
   257
176
     1
 90
        1
176
     1
 90
        1
176
     1
 40
1.0
176
     1
 90
        8
176
     1
 62
   257
176
     1
 40
1.0
176
     1
 90
        1
176
     1
 90
        6
176
     1
 90
        2
176
     1
 62
     7
176
     1
 90
        3
176
     1
 90
        0
176
     1
 90
        0
176
     1
290
     0
176
     1
 90
       13
176
     1
 40
0.0
176
     1
 90
        0
176
     1
290
     0
176
     1
290
     1
176
     1
290
     1
176
     1
290
     0
176
     1
290
     0
176
     1
290
     0
176
     1
290
     0
176
     1
290
     0
176
     1
290
     0
176
     1
 90
       50
176
     1
 40
0.0
176
     1
 40
1.0
176
     1
 90
        0
176
     1
 62
    18
420
        0
176
     1
 90
       50
176
     1
 90
        3
176
     1
 62
     5
420
      255
176
     1
290
     0
176
     1
 90
       50
176
     1
 90
       50
176
     1
 90
       50
176
     1
290
     0
176
     1
 90
       50
176
     1
 62
   256
176
     0
 40
1.0
176
     0
 90
        2
176
     1
  1
strokes_ogs.tif
176
     1
290
     0
176
     1
 40
1.0
176
     1
 40
1.0
176
     1
1001
ACAD
1000
AcDbSavedByObjectVersion
1070
     0
  0
VISUALSTYLE
  5
17F
102
{ACAD_REACTORS
330
95
102
}
330
95
100
AcDbVisualStyle
  2
Shaded
 70
    27
177
     3
291
     0
 70
    58
 90
        2
176
     1
 90
        2
176
     1
 90
        1
176
     1
 90
        2
176
     1
 40
0.6
176
     1
 40
30.0
176
     1
 62
     7
420
 16777215
176
     1
 90
        0
176
     1
 90
        4
176
     1
 62
     7
176
     1
 62
   257
176
     1
 90
        1
176
     1
 90
        1
176
     1
 40
1.0
176
     1
 90
        8
176
     1
 62
   257
176
     1
 40
1.0
176
     1
 90
        1
176
     1
 90
        6
176
     1
 90
        2
176
     1
 62
     8
420
  7895160
176
     1
 90
        3
176
     1
 90
        0
176
     1
 90
        0
176
     1
290
     0
176
     1
 90
        5
176
     1
 40
0.0
176
     1
 90
        0
176
     1
290
     0
176
     1
290
     1
176
     1
290
     1
176
     1
290
     0
176
     1
290
     0
176
     1
290
     0
176
     1
290
     0
176
     1
290
     0
176
     1
290
     0
176
     1
 90
       50
176
     1
 40
0.0
176
     1
 40
1.0
176
     1
 90
        0
176
     1
 62
    18
420
        0
176
     1
 90
       50
176
     1
 90
        3
176
     1
 62
     5
420
      255
176
     1
290
     0
176
     1
 90
       50
176
     1
 90
       50
176
     1
 90
       50
176
     1
290
     0
176
     1
 90
       50
176
     1
 62
   256
176
     0
 40
1.0
176
     0
 90
        2
176
     1
  1
strokes_ogs.tif
176
     1
290
     0
176
     1
 40
1.0
176
     1
 40
1.0
176
     1
1001
ACAD
1000
AcDbSavedByObjectVersion
1070
     0
  0
VISUALSTYLE
  5
17E
102
{ACAD_REACTORS
330
95
102
}
330
95
100
AcDbVisualStyle
  2
Shaded with edges
 70
    26
177
     3
291
     0
 70
    58
 90
        2
176
     1
 90
        2
176
     1
 90
        1
176
     1
 90
        2
176
     1
 40
0.6
176
     1
 40
30.0
176
     1
 62
     7
420
 16777215
176
     1
 90
        1
176
     1
 90
        2
176
     1
 62
     7
176
     1
 62
   257
176
     1
 90
        2
176
     1
 90
        1
176
     1
 40
1.0
176
     1
 90
        8
176
     1
 62
   257
176
     1
 40
1.0
176
     1
 90
        1
176
     1
 90
        6
176
     1
 90
        2
176
     1
 62
     7
176
     1
 90
        3
176
     1
 90
        0
176
     1
 90
        0
176
     1
290
     0
176
     1
 90
        5
176
     1
 40
0.0
176
     1
 90
        0
176
     1
290
     0
176
     1
290
     1
176
     1
290
     1
176
     1
290
     0
176
     1
290
     0
176
     1
290
     0
176
     1
290
     0
176
     1
290
     0
176
     1
290
     0
176
     1
 90
       50
176
     1
 40
0.0
176
     1
 40
1.0
176
     1
 90
        0
176
     1
 62
    18
420
        0
176
     1
 90
       50
176
     1
 90
        3
176
     1
 62
     5
420
      255
176
     1
290
     0
176
     1
 90
       50
176
     1
 90
       50
176
     1
 90
       50
176
     1
290
     0
176
     1
 90
       50
176
     1
 62
   256
176
     0
 40
1.0
176
     0
 90
        2
176
     1
  1
strokes_ogs.tif
176
     1
290
     0
176
     1
 40
1.0
176
     1
 40
1.0
176
     1
1001
ACAD
1000
AcDbSavedByObjectVersion
1070
     0
  0
VISUALSTYLE
  5
17B
102
{ACAD_REACTORS
330
95
102
}
330
95
100
AcDbVisualStyle
  2
Shades of Gray
 70
    23
177
     3
291
     0
 70
    58
 90
        2
176
     1
 90
        2
176
     1
 90
        3
176
     1
 90
        0
176
     1
 40
0.6
176
     1
 40
30.0
176
     1
 62
     7
420
 16777215
176
     1
 90
        2
176
     1
 90
        2
176
     1
 62
     7
176
     1
 62
     7
176
     1
 90
        1
176
     1
 90
        1
176
     1
 40
40.0
176
     1
 90
        8
176
     1
 62
     7
176
     1
 40
1.0
176
     1
 90
        1
176
     1
 90
        6
176
     1
 90
        2
176
     1
 62
     7
176
     1
 90
        3
176
     1
 90
        0
176
     1
 90
        0
176
     1
290
     0
176
     1
 90
        1
176
     1
 40
0.0
176
     1
 90
        0
176
     1
290
     0
176
     1
290
     1
176
     1
290
     1
176
     1
290
     0
176
     1
290
     0
176
     1
290
     0
176
     1
290
     0
176
     1
290
     0
176
     1
290
     0
176
     1
 90
       50
176
     1
 40
0.0
176
     1
 40
1.0
176
     1
 90
        0
176
     1
 62
    18
420
        0
176
     1
 90
       50
176
     1
 90
        3
176
     1
 62
     5
420
      255
176
     1
290
     0
176
     1
 90
       50
176
     1
 90
       50
176
     1
 90
       50
176
     1
290
     0
176
     1
 90
       50
176
     1
 62
   256
176
     0
 40
1.0
176
     0
 90
        2
176
     1
  1
strokes_ogs.tif
176
     1
290
     0
176
     1
 40
1.0
176
     1
 40
1.0
176
     1
1001
ACAD
1000
AcDbSavedByObjectVersion
1070
     0
  0
VISUALSTYLE
  5
17C
102
{ACAD_REACTORS
330
95
102
}
330
95
100
AcDbVisualStyle
  2
Sketchy
 70
    24
177
     3
291
     0
 70
    58
 90
        1
176
     1
 90
        2
176
     1
 90
        2
176
     1
 90
        0
176
     1
 40
0.6
176
     1
 40
30.0
176
     1
 62
     7
420
 16777215
176
     1
 90
        2
176
     1
 90
        2
176
     1
 62
     7
176
     1
 62
     7
176
     1
 90
        1
176
     1
 90
        1
176
     1
 40
40.0
176
     1
 90
       11
176
     1
 62
     7
176
     1
 40
1.0
176
     1
 90
        1
176
     1
 90
        6
176
     1
 90
        2
176
     1
 62
     7
176
     1
 90
        6
176
     1
 90
        0
176
     1
 90
        0
176
     1
290
     0
176
     1
 90
        1
176
     1
 40
0.0
176
     1
 90
        0
176
     1
290
     0
176
     1
290
     1
176
     1
290
     1
176
     1
290
     0
176
     1
290
     0
176
     1
290
     0
176
     1
290
     0
176
     1
290
     0
176
     1
290
     0
176
     1
 90
       50
176
     1
 40
0.0
176
     1
 40
1.0
176
     1
 90
        0
176
     1
 62
    18
420
        0
176
     1
 90
       50
176
     1
 90
        3
176
     1
 62
     5
420
      255
176
     1
290
     0
176
     1
 90
       50
176
     1
 90
       50
176
     1
 90
       50
176
     1
290
     0
176
     1
 90
       50
176
     1
 62
   256
176
     0
 40
1.0
176
     0
 90
        2
176
     1
  1
strokes_ogs.tif
176
     1
290
     0
176
     1
 40
1.0
176
     1
 40
1.0
176
     1
1001
ACAD
1000
AcDbSavedByObjectVersion
1070
     0
  0
VISUALSTYLE
  5
A2
102
{ACAD_REACTORS
330
95
102
}
330
95
100
AcDbVisualStyle
  2
Thicken
 70
    13
177
     3
291
     1
 70
    58
 90
        2
176
     1
 90
        2
176
     1
 90
        1
176
     1
 90
        0
176
     1
 40
0.6
176
     1
 40
30.0
176
     1
 62
     7
420
 16777215
176
     1
 90
        1
176
     1
 90
        4
176
     1
 62
     7
176
     1
 62
   257
176
     1
 90
        1
176
     1
 90
        1
176
     1
 40
1.0
176
     1
 90
       12
176
     1
 62
     7
176
     1
 40
1.0
176
     1
 90
        1
176
     1
 90
        6
176
     1
 90
        2
176
     1
 62
     7
176
     1
 90
        5
176
     1
 90
        0
176
     1
 90
        0
176
     1
290
     0
176
     1
 90
        1
176
     1
 40
0.0
176
     1
 90
        0
176
     1
290
     0
176
     1
290
     1
176
     1
290
     1
176
     1
290
     0
176
     1
290
     0
176
     1
290
     0
176
     1
290
     0
176
     1
290
     0
176
     1
290
     0
176
     1
 90
       50
176
     1
 40
0.0
176
     1
 40
1.0
176
     1
 90
        0
176
     1
 62
    18
420
        0
176
     1
 90
       50
176
     1
 90
        3
176
     1
 62
     5
420
      255
176
     1
290
     0
176
     1
 90
       50
176
     1
 90
       50
176
     1
 90
       50
176
     1
290
     0
176
     1
 90
       50
176
     1
 62
   256
176
     0
 40
1.0
176
     0
 90
        2
176
     1
  1
strokes_ogs.tif
176
     1
290
     0
176
     1
 40
1.0
176
     1
 40
1.0
176
     1
1001
ACAD
1000
AcDbSavedByObjectVersion
1070
     0
  0
VISUALSTYLE
  5
9C
102
{ACAD_REACTORS
330
95
102
}
330
95
100
AcDbVisualStyle
  2
Wireframe
 70
     5
177
     3
291
     0
 70
    58
 90
        0
176
     1
 90
        2
176
     1
 90
        0
176
     1
 90
        0
176
     1
 40
0.6
176
     1
 40
30.0
176
     1
 62
     7
420
 16777215
176
     1
 90
        1
176
     1
 90
        4
176
     1
 62
     7
176
     1
 62
   257
176
     1
 90
        1
176
     1
 90
        1
176
     1
 40
1.0
176
     1
 90
        0
176
     1
 62
   257
176
     1
 40
1.0
176
     1
 90
        1
176
     1
 90
        6
176
     1
 90
        2
176
     1
 62
     7
176
     1
 90
        3
176
     1
 90
        0
176
     1
 90
        0
176
     1
290
     0
176
     1
 90
        1
176
     1
 40
0.0
176
     1
 90
        0
176
     1
290
     0
176
     1
290
     1
176
     1
290
     1
176
     1
290
     0
176
     1
290
     0
176
     1
290
     0
176
     1
290
     0
176
     1
290
     0
176
     1
290
     0
176
     1
 90
       50
176
     1
 40
0.0
176
     1
 40
1.0
176
     1
 90
        0
176
     1
 62
    18
420
        0
176
     1
 90
       50
176
     1
 90
        3
176
     1
 62
     5
420
      255
176
     1
290
     0
176
     1
 90
       50
176
     1
 90
       50
176
     1
 90
       50
176
     1
290
     0
176
     1
 90
       50
176
     1
 62
   256
176
     0
 40
1.0
176
     0
 90
        2
176
     1
  1
strokes_ogs.tif
176
     1
290
     0
176
     1
 40
1.0
176
     1
 40
1.0
176
     1
1001
ACAD
1000
AcDbSavedByObjectVersion
1070
     0
  0
VISUALSTYLE
  5
17D
102
{ACAD_REACTORS
330
95
102
}
330
95
100
AcDbVisualStyle
  2
X-Ray
 70
    25
177
     3
291
     0
 70
    58
 90
        2
176
     1
 90
        2
176
     1
 90
        1
176
     1
 90
        1
176
     1
 40
0.5
176
     1
 40
30.0
176
     1
 62
     7
420
 16777215
176
     1
 90
        1
176
     1
 90
        0
176
     1
 62
     7
176
     1
 62
   257
176
     1
 90
        1
176
     1
 90
        1
176
     1
 40
1.0
176
     1
 90
        8
176
     1
 62
     7
176
     1
 40
1.0
176
     1
 90
        1
176
     1
 90
        6
176
     1
 90
        2
176
     1
 62
     7
176
     1
 90
        3
176
     1
 90
        0
176
     1
 90
        0
176
     1
290
     0
176
     1
 90
       13
176
     1
 40
0.0
176
     1
 90
        0
176
     1
290
     0
176
     1
290
     1
176
     1
290
     1
176
     1
290
     0
176
     1
290
     0
176
     1
290
     0
176
     1
290
     0
176
     1
290
     0
176
     1
290
     0
176
     1
 90
       50
176
     1
 40
0.0
176
     1
 40
1.0
176
     1
 90
        0
176
     1
 62
    18
420
        0
176
     1
 90
       50
176
     1
 90
        3
176
     1
 62
     5
420
      255
176
     1
290
     0
176
     1
 90
       50
176
     1
 90
       50
176
     1
 90
       50
176
     1
290
     0
176
     1
 90
       50
176
     1
 62
   256
176
     0
 40
1.0
176
     0
 90
        2
176
     1
  1
strokes_ogs.tif
176
     1
290
     0
176
     1
 40
1.0
176
     1
 40
1.0
176
     1
1001
ACAD
1000
AcDbSavedByObjectVersion
1070
     0
  0
DICTIONARYVAR
  5
EB
102
{ACAD_REACTORS
330
59
102
}
330
59
100
DictionaryVariables
280
     0
  1
1:1
  0
DICTIONARYVAR
  5
EA
102
{ACAD_REACTORS
330
59
102
}
330
59
100
DictionaryVariables
280
     0
  1
STANDARD
  0
DICTIONARYVAR
  5
AB
102
{ACAD_REACTORS
330
59
102
}
330
59
100
DictionaryVariables
280
     0
  1
STANDARD
  0
DICTIONARYVAR
  5
1B4
102
{ACAD_REACTORS
330
59
102
}
330
59
100
DictionaryVariables
280
     0
  1
Imperial24
  0
DICTIONARYVAR
  5
1B5
102
{ACAD_REACTORS
330
59
102
}
330
59
100
DictionaryVariables
280
     0
  1
Imperial24
  0
DICTIONARYVAR
  5
5A
102
{ACAD_REACTORS
330
59
102
}
330
59
100
DictionaryVariables
280
     0
  1
2
  0
DICTIONARYVAR
  5
5E
102
{ACAD_REACTORS
330
59
102
}
330
59
100
DictionaryVariables
280
     0
  1
1
  0
DICTIONARYVAR
  5
14A
102
{ACAD_REACTORS
330
59
102
}
330
59
100
DictionaryVariables
280
     0
  1
0
  0
DICTIONARYVAR
  5
14B
102
{ACAD_REACTORS
330
59
102
}
330
59
100
DictionaryVariables
280
     0
  1
0
  0
DICTIONARY
  5
389
102
{ACAD_REACTORS
330
387
102
}
330
387
100
AcDbDictionary
281
     1
  0
DICTIONARY
  5
388
102
{ACAD_REACTORS
330
387
102
}
330
387
100
AcDbDictionary
281
     1
  3
2273636084768
350
382
  3
2273636084784
350
383
  3
2273636084800
350
384
  3
2273636084816
350
385
  3
2273636084832
350
386
  0
DICTIONARY
  5
38C
330
1A9
100
AcDbDictionary
280
     1
281
     1
  3
ACAD_XREC_ROUNDTRIP
360
38D
  0
DICTIONARY
  5
191
330
22
100
AcDbDictionary
280
     1
281
     1
  0
DICTIONARY
  5
185
330
93
100
AcDbDictionary
280
     1
281
     1
  3
FBXASSET
360
186
  0
DICTIONARY
  5
183
330
92
100
AcDbDictionary
280
     1
281
     1
  3
FBXASSET
360
184
  0
DICTIONARY
  5
10B
330
94
100
AcDbDictionary
280
     1
281
     1
  3
BUMPTILE
360
10D
  3
DIFFUSETILE
360
10C
  3
FBXASSET
360
187
  3
OPACITYTILE
360
10E
  3
REFLECTIONTILE
360
10F
  0
DICTIONARY
  5
38A
330
1A7
100
AcDbDictionary
280
     1
281
     1
  3
ACAD_XREC_ROUNDTRIP
360
38B
  0
DICTIONARY
  5
FF
330
A7
100
AcDbDictionary
280
     1
281
     1
  3
ACAD_ROUNDTRIP_2008_TABLESTYLE_CELLSTYLEMAP
360
380
  0
XRECORD
  5
382
102
{ACAD_REACTORS
330
388
102
}
330
388
100
AcDbXrecord
280
     1
  1
AcDb_Thumbnail_Schema
102
{ATTRRECORD
341
383
  2
AcDbDs::TreatedAsObjectData
280
     1
291
     1
102
ATTRRECORD}
102
{ATTRRECORD
341
384
  2
AcDbDs::Legacy
280
     1
291
     1
102
ATTRRECORD}
  2
AcDbDs::ID
280
    10
 91
        8
102
{ATTRRECORD
341
385
  2
AcDs:Indexable
280
     1
291
     1
102
ATTRRECORD}
102
{ATTRRECORD
341
386
  2
AcDbDs::HandleAttribute
280
     7
282
     1
102
ATTRRECORD}
  2
Thumbnail_Data
280
    15
 91
        0
  0
XRECORD
  5
383
102
{ACAD_REACTORS
330
388
102
}
330
388
100
AcDbXrecord
280
     1
  1
AcDbDs::TreatedAsObjectDataSchema
  2
AcDbDs::TreatedAsObjectData
280
     1
 91
        0
  0
XRECORD
  5
384
102
{ACAD_REACTORS
330
388
102
}
330
388
100
AcDbXrecord
280
     1
  1
AcDbDs::LegacySchema
  2
AcDbDs::Legacy
280
     1
 91
        0
  0
XRECORD
  5
385
102
{ACAD_REACTORS
330
388
102
}
330
388
100
AcDbXrecord
280
     1
  1
AcDbDs::IndexedPropertySchema
  2
AcDs:Indexable
280
     1
 91
        0
  0
XRECORD
  5
386
102
{ACAD_REACTORS
330
388
102
}
330
388
100
AcDbXrecord
280
     1
  1
AcDbDs::HandleAttributeSchema
  2
AcDbDs::HandleAttribute
280
     7
 91
        1
284
     1
  0
XRECORD
  5
38D
102
{ACAD_REACTORS
330
38C
102
}
330
38C
100
AcDbXrecord
280
     1
102
DISPLAYNAME
  1
Imperial24
102
FLAGS
 90
        0
  0
XRECORD
  5
186
102
{ACAD_REACTORS
330
185
102
}
330
185
100
AcDbXrecord
280
     1
 70
     1
 90
429727718
  1
7581DE8E-A623-425F-9BF4-B3F4BE6C4F9A
310
504B03040A0000080000AC70623B3DEE336E79000000790000001B0000006175746F6465736B2D64657369676E2D7061636B6167652E786D6C3C3F786D6C2076657273696F6E3D22312E302220656E636F64696E673D227574662D3822203F3E3C666F726D6174733E3C666F726D61743E687474703A2F2F736368656D612E
310
6175746F6465736B2E636F6D2F64657369676E2D7061636B6167652F323030393C2F666F726D61743E3C2F666F726D6174733E504B0304140006080800AC70623BD486FD9CA0000000F4000000130000005B436F6E74656E745F54797065735D2E786D6C7D8EC10E82300C865F65E91D8A1E8C310C0EEA1BF002731658846E
310
D98AC1B77784ABF1D8FE5FBFBF75BBCE937A534CCEB38643598122B6FEE978D0B0485F9C41B54DDD7D022595594E1A469170414C76A4D9A4D207E29CF43ECE46F218070CC6BECC4078ACAA135ACF422C856C0E68EA1BF5669944DDD7BCDE7B1F8E415D77AECB980613C2E4AC91FC167A2B244592486606FC29C8FD7F045B9A
310
EF7053A7E60B504B0304140006080800AC70623B9A2F3B5FEC0000007C01000008000000636F72652E786D6C8D90416E83301045AF62CDB632D8040820E328B4E204BD80653BC44AB011B6AB1EBF262152BBEB6A467FFE9B197D76FA9EEFE84BAFDE38DB03CD08206DA553C64E3DC470C10DA01367AB73E1970D9015B3EE61
310
9381B3697571D925E96CD03624D53AA5775178AF0320794F4D0F5E5EF52C32114372F85BB608791393CEE8AB4B708C46A1E711A3D23E73317A055E0D4D53D6C71A9FC7A1C6657D18703354232ECFED4731B6B43CBED72CDF60CE82995FF7E5AA45D00A7841488B29C5A4F8A46547AAAEA8DE48D311C2F2CDFE078A8BFA2714
310
8D0D87627FF78979E0343DF21870966F59A4F2082AD52D37FE03504B0304140006080800AC70623B55019EA25F0000007C00000007000000636E782E786D6C4DCB3B0E80201045D1AD90E915ED2CF8AC45050C11660C8261F98AB1B07AC9C97D42D718D865D3E909258CFD00CCE24AC6E326A164D74DC0B4128928FF326038
310
472BA13128B1252AC747C6BAB984FC68F0B87FE8960A5C09FE86CFB69FBA01504B0304140006080800AC70623B6E137E0172010000D40300000C0000006662782F636F72652E786D6CC5535B6E833010BC8AE5DF0A6C0810121947A1554ED00B38E05014B091B1518EDFE511A5A9D22AFD2A1F60CDEC7A67C698ED2E6D8306
310
69FA5AAB0C073EC548AA4297B5AA32ECECC94B31DA7166B4B65FCA3052A295191E61CC5965B4EB16A8D0CA4A650155BA940B28FA5E5A8C8A061619EE8B0FD90A5F380B15FDD9EF44711695F4031F68A8E3ACB70604A079C8F8C6FC74BC3032E39C3957970B5B9730AD3ED5D2601EE7691A25EBC4DB1FF2C48B9255EEA5797C
310
F0A2FDE62D3C6C8268FD9A3032367366EBF6AAAE30525859621E52BAF182C0A3E17B106D69BC0DE3179A6E2965642CBF6B725DF96493AB955D858BDCB9ADC73C002113F1CD2D4464512F06D04338236388F09912BE0F1A028190AD3836571F67800659586D22604AED6ED4201A27612AF5E9F4A09F178CCC9D3075DA1C5C3F
310
9C113E3DE3F71DE1A885AAC084B0B03C3A3BEA64B38625B44E1A6FB017A4B46945F39C8D5F1CFE89BA897F28A9D08D36FFA5882C074496DF838CF7917F02504B0304140006080800AC70623BE001BAC07D0000009D0000000B0000006662782F636E782E786D6C4DCCD10AC2201886E15B91FFDCA6536B037548D87D8CE686
310
E4344CA3CB6F8B1D74F4C1C3C72B87CF1AD0DBE5974F51013D11402EDED3E4E3A2A096197780062D734AE5EF06288EAB53B03368B9E4549F074D6E1E6B289B061F1F07124689687987B9601C7373BD60C36E065B6A6DDF7341A93843A365F32B6DBB87F517504B0304140006080800AC70623B8E5068122901000012020000
310
310000006662782F30333130353234382D343533342D344143372D413346412D4531454539393435313135362F636F72652E786D6C8D515B6EC32010BC0AE22B55850D364E93081345557A825E801892A2C460F1A872FC2EB523B57FF961D1EECCECECAED8DFC71BFA36215AEF7ACC2A8A917183D7D65D7A9CD3996C30DA4B
310
11BC4F7F601839359A1E973496E2127C9E96D4E05D322E41D6796D96A48AD1248C861B7C7A1C872F33AA4AE5048878AD26355CD5C554AC8232E0A4882980013437292F96B465B46BF886F0AEE5841FDEDFC8A1FD3890233B1EB75BDE31D6AD453D13A5C8D9EA856E35D8B1676BC2B322852C45B2E3C3FE108C4A4663D950BA
310
258C11DA7C32BEA3DDAEE95EE96647A9A80BFC1F294FFA4952B62EB5CD6277A6452C99A8E78214DAE7D3ED61C6DC271F122AFD56D10C2F305545CB6A60FC1908E383E29A2F8A31F900EB5D5D4F8065DD2CBBE652D4E542107ECF07B15C53FE00504B0304140006080800AC70623B503B51794E010000330300003000000066
310
62782F30333130353234382D343533342D344143372D413346412D4531454539393435313135362F636E782E786D6CD593C16EC32010447F0571AD6CE3D489D20813A9877E410FBD62D82434182CC055F3F75D1292E692438FBD206B7698593D61BEFD1E2DF982108D773D6D6B460938E5B571FB9ECE6957AD29D90A1EBC4F
310
77364A9C1CA1A759A682EF839FA72269D8C9D92654AD71C72206887E0E0A22CAF926B15E498B01E0AA19451807D01A34B919F16B070157417138917400F2F6FA41FCF0092A45DEE414C19BDC21783E4BD39D891265658C3D8DEA00A3ACE59CBC8678ACB54CB26EEB6BD7839D7E9348BE70AD9C8321B9BCA7F9A4A26C542347
310
DEE050F09802D22BA6749A800A394DD62899107273365E3C82CFC6A55557BC06C10774B7ABE7AEC3B0F34CF06446280E154026D0542C187BA9DAB6628BF7B6DBB0E566B17C62EB0D63BCC976C107EF6DB9843110FC449477095CA2A2E54D1E3FC2577C449B80AC7D38FD01240228AD173AB78CFFCCA739BF6FC415F02F103F
310
504B0304140006080800AC70623B38FA165F680500003C100000340000006662782F30333130353234382D343533342D344143372D413346412D4531454539393435313135362F6F626A656374732E786D6CAD575D6FA33814FD2B887D0E8424EDB42BCAA8499A2A1A756634D18CF6A15264C0A16CC146B6E9A4FBEBF7180C
310
019276B21F7908D8D8F7F3DCE36BFFE33ECFAC172A64CAD98DED3963DBA22CE271CA921BBB54BBD1956D7D0C7CC1B9EA2CB32D46727A63EB693BF013C1CBC24CC57447CA4C0D6657F33F2C1951466D2BCA889437B68C9E684E1C522A1E53F9ECC4441127D9ED1DCFA917F6C52682144F03A105119429588A790629566D94D7
310
1F8E6D37F05DFD3DF0F5BF59357D7B955BF9D3D79F32A9088B8E940DC44CBDD9F26E72713DBA98CDA6A3D9E5C41BCD57F3E5C8FB301D2F2E178BEBDBBB6B28964A4092B144D09D1DDC2336228D7CB7FED45A6C0C3F6552C419A351E53F3CAC6C3612635A5016238F2995D0D6F17ADC1F7A3A369DCF533D362ABBD3E779D5DD
310
D111D4D8DE3CBB96F2F04FB820CF41859054A3AA8E8F71B4C6DFF810B590F3CC7C4BA5951345454A322B4B4341C4AB1D60A95E12F83D311A9D42235C7B6007DE415ED75694C6AFB17BCACA5D99651A9A7650217B0BFC53252BCBD2BFA838AD0D36215765CAD4957148BD16D40EAE7DB79A0C7CFD984ECCC73A90D62E230952
310
0E37EBAF034717BAF6D64B3BF8B40AF71B5D8FA79517821754280D1F40AB495CF3D451326ABDB332A737C0995ECC0F41F986C87F46F91E4C41DE44BA9FED67468B1284C91D173972E38CAB9F356E5E46EDDBF10BF86CB0FA784D3BF3AF16FB6E6B6C9F30DECA1FC0A55373F5DFF3D78F5917A99DF405FE0B0A8C8BA909E526
310
2219A8E72165488806A595714C81CB77E1DE0ED6604A303B76912C680372F4E2BB2FF88EFF5A36D8AA52DF79322474C0B767303F625995056C7B032C473C592936CEBD15F38BFFA5666E979B4F9B52EC48441F0CB12CE92E65A9C2D979006FD7A05E227A1E3DD3D79F5CC470F438099B6E1272A34A22DA3AE63AF0497358E8
310
C141734F41847D09D79CE7FF42C3432A239A6584515E365ADA634863B52519D327A00AEB804E2703140BFA92EA4EA2B7A26716CEFA48A4850E597BE8B53CEDBCE1CBF7F56780D20EE6AF73A0F5F9B02A3CD07DC4332EB6E1EBB666421BE0C39E3EBA7FF4E16D22EA6A29407C85E586724C88B771BADB9512BC7B228A3FD68B
310
6EA65A22397E690AA8D158D7E40CEC8CDA23C2C0B7D1898640101CEC9C6D531CE328CB93CABBBA870A6425F70DF96199175B92F392A973C2346EFC69AC6F8577BB18F993A8E8C90E36D573340765C7343EA4AA87027D049DF0A9979E0F1757DEF2EEEA6E747B39412B35B9588DAEE7ABD9683E5DCDE677978BD9EAFAB6B5A8
310
B224F09B13AA5B8388264E44BF14A909F3F7F5A16CEDE08128E9DED705E526F5F3FBDA415BECBBD80380B71BD77991D19C3245347C1FF44BF68DA0ABE8C9A8E7D73949E81952BEDC6F063660E68C7D5F75A9D19F83BD6676A16BE1A410F554E621236936D8681C770A9618B79B50B6CF9AD19BA11E9978A20F953C4B63104E
310
6C2594E7548176CE607B915309C474BBF2D8DC1ECED8FD52F7838A84196D2C79226889330954036E65A4FAF3D66F68E174177563E3B0739EF1670AD1B690EA1B1BFCA6D2884A27C4F1A81B9F4A3820802EAC2541408DB02443675D6F6AC7ED2E1D1BD00F4E40A3BF5D724EB764FCEA116F4E8A02A7768F562BDB8C82E81F39
310
DE98631185D7B054AD2F8789D6994A0D2AAB76CADC0DD0423C1BD57BD4D7FB6E794EB5A61791B3EE49EF82A0963A524424D5BD40DB674CBA5D7E75D10A58EB2F569195097279BEA491A00073A90B1C28022A8CCC82284075F1FBE357C17117CDAD550A083C2E789E736606B7E62E6B6D9E70338D1F410B545F3FE464EC798F
310
55D76F2E22DB9048EA90583E63A22938EDC1006B00E4D1716A52E0EA1C0C96AF9796393066105A81F6A829ADAFE1168A47DF1C75A974C9B278B7F177ABA5008340CB1EFC0D504B0304140006080000AC70623B000000000000000000000000350000006662782F30333130353234382D343533342D344143372D413346412D
310
4531454539393435313135362F76657274696365732E62696E504B0304140006080800AC70623BF270F1330600000004000000360000006662782F30333130353234382D343533342D344143372D413346412D4531454539393435313135362F747269616E676C65732E62696E636660600000504B0304140006080000AC70
310
623B000000000000000000000000370000006662782F30333130353234382D343533342D344143372D413346412D4531454539393435313135362F617474726962757465732E62696E504B0304140006080800AC70623B08DA0BD19000000041010000360000006662782F30333130353234382D343533342D344143372D41
310
3346412D4531454539393435313135362F6469726563746F72792E786D6C858F410AC3201045AF22B36F53E9A60B35CBEEBAE80D244E44489C6234F4F835464A48035D0DF398FF9F8AF63D0E6CC63039F212F8F9020C7D47C6792B21C5FE7403D62A1188E2E60C98D7234A5830286103A55745067B9D86B8A3CF9C7F90C11D
310
E607FB144396D7B6A82D282E9A152AD114D5EF2CB866EEE831B8EEA07A7BB5A8D7D61A2BAAEB7FD5F70921FF497D00504B0304140006080800AC70623BF2C5666EFF000000A00100003B0000006662782F30333130353234382D343533342D344143372D413346412D4531454539393435313135362F7265736F7572636573
310
2F636F72652E786D6C8D504B6E833010BD0A9A6D65B00910888CA3D02A27E8052C33A156821DF953F5F8B5132AB5BB6E6646EFA3797AFCF8B5DE8A4F745E5B33022B291468949DB5594688E1427A288E823B6BC32F191446AE38428641F0C5D978DF20654D4013126AEC8C1B28BDC70085BAA56304AF3E7095A58C2129FCB5
310
BC4B75950B96AC4C74D209EE834B018AE7933C4138F4363A859E574F56F018F5BC69F49C7EEA8B4607A29DFABEE9F62D399DA78E34DD6E22FDD49E49731ADEEAF3C09AFD6BC7AB6C163CE8F527A3722803CE206A4A07C218A1F53B6B0EB43DD4ED0BED0F94F22ACBFF98E27DFEA7296A1376F516F769F320580AF22004AF72
310
5F693DCA4C3B772BBE01504B010214000A0000080000AC70623B3DEE336E79000000790000001B00000000000000000000000000000000006175746F6465736B2D64657369676E2D7061636B6167652E786D6C504B01021400140006080800AC70623BD486FD9CA0000000F40000001300000000000000000000000000B200
310
00005B436F6E74656E745F54797065735D2E786D6C504B01021400140006080800AC70623B9A2F3B5FEC0000007C010000080000000000000000000000000083010000636F72652E786D6C504B01021400140006080800AC70623B55019EA25F0000007C000000070000000000000000000000000095020000636E782E786D
310
6C504B01021400140006080800AC70623B6E137E0172010000D40300000C00000000000000000000000000190300006662782F636F72652E786D6C504B01021400140006080800AC70623BE001BAC07D0000009D0000000B00000000000000000000000000B50400006662782F636E782E786D6C504B010214001400060808
310
00AC70623B8E506812290100001202000031000000000000000000000000005B0500006662782F30333130353234382D343533342D344143372D413346412D4531454539393435313135362F636F72652E786D6C504B01021400140006080800AC70623B503B51794E010000330300003000000000000000000000000000D3
310
0600006662782F30333130353234382D343533342D344143372D413346412D4531454539393435313135362F636E782E786D6C504B01021400140006080800AC70623B38FA165F680500003C10000034000000000000000000000000006F0800006662782F30333130353234382D343533342D344143372D413346412D4531
310
454539393435313135362F6F626A656374732E786D6C504B01021400140006080000AC70623B0000000000000000000000003500000000000000000000000000290E00006662782F30333130353234382D343533342D344143372D413346412D4531454539393435313135362F76657274696365732E62696E504B01021400
310
140006080800AC70623BF270F133060000000400000036000000000000000000000000007C0E00006662782F30333130353234382D343533342D344143372D413346412D4531454539393435313135362F747269616E676C65732E62696E504B01021400140006080000AC70623B0000000000000000000000003700000000
310
000000000000000000D60E00006662782F30333130353234382D343533342D344143372D413346412D4531454539393435313135362F617474726962757465732E62696E504B01021400140006080800AC70623B08DA0BD1900000004101000036000000000000000000000000002B0F00006662782F30333130353234382D
310
343533342D344143372D413346412D4531454539393435313135362F6469726563746F72792E786D6C504B01021400140006080800AC70623BF2C5666EFF000000A00100003B000000000000000000000000000F1000006662782F30333130353234382D343533342D344143372D413346412D453145453939343531313536
310
2F7265736F75726365732F636F72652E786D6C504B0506000000000E000E0080040000671100000000
  0
XRECORD
  5
184
102
{ACAD_REACTORS
330
183
102
}
330
183
100
AcDbXrecord
280
     1
 70
     1
 90
429727718
  1
778E3A9F-1AF3-452F-85C1-1BC15BD3F630
310
504B03040A0000080000AC70623B3DEE336E79000000790000001B0000006175746F6465736B2D64657369676E2D7061636B6167652E786D6C3C3F786D6C2076657273696F6E3D22312E302220656E636F64696E673D227574662D3822203F3E3C666F726D6174733E3C666F726D61743E687474703A2F2F736368656D612E
310
6175746F6465736B2E636F6D2F64657369676E2D7061636B6167652F323030393C2F666F726D61743E3C2F666F726D6174733E504B0304140006080800AC70623BD486FD9CA0000000F4000000130000005B436F6E74656E745F54797065735D2E786D6C7D8EC10E82300C865F65E91D8A1E8C310C0EEA1BF002731658846E
310
D98AC1B77784ABF1D8FE5FBFBF75BBCE937A534CCEB38643598122B6FEE978D0B0485F9C41B54DDD7D022595594E1A469170414C76A4D9A4D207E29CF43ECE46F218070CC6BECC4078ACAA135ACF422C856C0E68EA1BF5669944DDD7BCDE7B1F8E415D77AECB980613C2E4AC91FC167A2B244592486606FC29C8FD7F045B9A
310
EF7053A7E60B504B0304140006080800AC70623BFD5588D4EC0000007C01000008000000636F72652E786D6C8D90416EC3201045AF82665B6103891DC7C24471939CA01740405C94182C03558F5F9C3852BBEB6A467FFE9B197D7EF81EEFE8CBCCC17AD7012D0820E394D7D60D1DA478C50DA083E0B3F7F1970D9093A3E960
310
9141F061F6695A25E55D342E66D5796D56518660222075CF4D07417D9A511632C5EC08B76292EA260753D05797E194AC46CF2356E77DF66ACD0C62C768BD63971E5727D2E06DDF9C71BF7B3FE10BABF79BFA488FE4DCF07281058F767CDD57B391D168108C903DA61413F641B72DA95A56BD91A62584978BFD0F9426FD4F28
310
5917376C7DF7890510343FF218085E2E59E4F2082AD72537F103504B0304140006080800AC70623B55019EA25F0000007C00000007000000636E782E786D6C4DCB3B0E80201045D1AD90E915ED2CF8AC45050C11660C8261F98AB1B07AC9C97D42D718D865D3E909258CFD00CCE24AC6E326A164D74DC0B4128928FF326038
310
472BA13128B1252AC747C6BAB984FC68F0B87FE8960A5C09FE86CFB69FBA01504B0304140006080800AC70623BB5D38BAD72010000D40300000C0000006662782F636F72652E786D6CC553DB8E823014FC95A6AF1B68C11B9A52A3AB7EC1FE4085CA36424B4A4BFCFC3D5C8CEBC635EED3F200CDCC393D3353CAD697AA44AD
310
B48D323AC5514831923A33B9D2458ABD3B0509466BCEAC31EE5B19465A5432C51D8C392BACF1F50865463BA91DA0DAE4720445D348875156C222C54DF6292B110AEFA0A23987B5C8CEA2906114020D759C35CE8200340CE9DE989F8E1746069C33EF553EB22A8769EAA4A4C57C1147F3457CD806B31D4D82E936D907DBC5FB
310
2E38C4F3E564BE8936749F30D23573E65475559759299CCC318F295D065114D0F8239AAEE86C15CFDE68B2A29491AEFCAEC9D7F98B4D5E69378947B9435B837904427AE2875B88C8A146B4A0877046BA10E1D3277C1F340402213B712CAF3ECE00B53273C64E81C98DBF51AD28BD84A934A4FD837E5F303274C2D47E7370FD
310
7046FCF28CE73BC2510B5D8009E16079F4AED3C9060D6368B5B441EB2E481B5B89F2351B4F1CFE89BA897F282933A5B1FFA5888C0744C6DF8374F7917F01504B0304140006080800AC70623B09885E1C7E0000009D0000000B0000006662782F636E782E786D6C4DCCDF0A83201C86E15B91DFB9CBA6FD11D41063F711CB42
310
663A9C8E5DFE6A74B0A30F1E3E5E317C368FDE36BD5C0C12EA0B0164C33DCE2EAC124A5E700F685022C598FF6E80C2B459090783126B8AE579D26C97A9F8BCAB77E17122E586D5843498B3EE8699D114F39E5E713D76EDA84DCBB569A052A2FA95F63DC2EA0B504B0304140006080800AC70623B961D28872A010000120200
310
00310000006662782F33394334313030352D393437462D344341332D393833322D3144373644414336394143352F636F72652E786D6C8D515B6EC32010BC8AC557AA0A1BFC4A1C61A2C8514FD00B10435294182C1E558EDFA576A4F62F3F80666766875D76784CF7EC5B39AFADE911CD09CA9419ADD4E6DAA3182E7887B203
310
67CEDAF08786322326D5A30423CEAECEC67985466B8232015063A55A41E1BD0A281BEFF0E8911FBFD42472110330FC2D9FC578135795D31CCAC0E3CC070701B2A5493A11AFBAA1A68434B8ABB71FB81E8E15EE765589E969DB9E8E43DB1D8786158B90B318B55CE55A421C7DD1CABD6A92C49C053D3DE38F4E89A024E22521
310
1DA61493F293D67BD2ECCBE69DECF684B022D1FF89E22C5F14456D4255AE711799479CB2622970266D3CDF9F61D463B62E64A9DFC6ABF10D7192C35CCA0A040B11BE0F8E6DBD3AFA601D8C77733B0397C290926D5B7356A40DC1F5BB3EB8D336F90F504B0304140006080800AC70623B503B51794E01000033030000300000
310
006662782F33394334313030352D393437462D344341332D393833322D3144373644414336394143352F636E782E786D6CD593C16EC32010447F0571AD6CE3D489D20813A9877E410FBD62D82434182CC055F3F75D1292E692438FBD206B7698593D61BEFD1E2DF982108D773D6D6B460938E5B571FB9ECE6957AD29D90A1E
310
BC4F77364A9C1CA1A759A682EF839FA72269D8C9D92654AD71C72206887E0E0A22CAF926B15E498B01E0AA19451807D01A34B919F16B070157417138917400F2F6FA41FCF0092A45DEE414C19BDC21783E4BD39D891265658C3D8DEA00A3ACE59CBC8678ACB54CB26EEB6BD7839D7E9348BE70AD9C8321B9BCA7F9A4A26C54
310
2347DEE050F09802D22BA6749A800A394DD62899107273365E3C82CFC6A55557BC06C10774B7ABE7AEC3B0F34CF06446280E154026D0542C187BA9DAB6628BF7B6DBB0E566B17C62EB0D63BCC976C107EF6DB9843110FC449477095CA2A2E54D1E3FC2577C449B80AC7D38FD01240228AD173AB78CFFCCA739BF6FC415F02F
310
103F504B0304140006080800AC70623B2EA4D28F640500003C100000340000006662782F33394334313030352D393437462D344341332D393833322D3144373644414336394143352F6F626A656374732E786D6CAD575D739B3814FD2B0CFB6C30B1D3263B844E6CC71D4F376DA79E76F621331E01326103122389C4E9AFDF
310
231018B09D7A3FFC609090EEE7B94757FE875D9E59CF54C894B31BDB73C6B64559C4E394253776A9B6A32BDBFA10F88273D559665B8CE4F4C6D6D376E027829785998AE99694991ACC2E677F5A32A28CDA569411296F6C193DD29C38A4543CA6F2C98989224EB2DD399E532FEC8B4D04291E07420B222853B014F30C52ACDA
310
28AF3F1CDB6EE0BBFA7BE0EB7FB36A727A955BF9D3D79F32A9088B0E940DC44CBCE9E2EEE2F27A74399D4E46D37717DE68B69C2D46DEFBC978FE6E3EBFBEBDBB8662A90424194B04DDDAC147C446A491EFD69F5A8B8DE1C74C8A386334AAFC878795CD46624C0BCA62E431A512DA3A5E8FFB434FC7A6F379A2C7466577FA3C
310
AFBA3B3A821ADB9B67D7521EFE0517E439A810926A54D5F1318ED6F81BEFA316729E996FA9B472A2A84849666569288878B5032CD54B02BF2746A35368846B0FECC0DBCBEBDA8AD2F835768F59B92DB34C43D30E2A646F807FAA646559FA938AE3DA60137255A64C5D1987D46B41EDE0DA77ABC9C0D78FC985F95807D2DA66
310
2441CAE166FD75E0E85CD7DE6A61079F96E16EADEBF1B8F242F0820AA5E1036835896B9E3A4A46AD7756E6F40638D38BF93E28DF10F9CF28DFBD29C89B4877D3DDD468518230B9E522476E9C71F5B3C6CDCBA87D3B7C019F0D561FAE6967FED562DF6D8DED13C6A9FC015C3A3557FF3D7FFD987591DA495FE03FA3C0B89898
310
50AE2392817AEE53868468505A19C714B87C1BEEEC6005A604B36317C9823620072FBEFB8CEFF8AF6583AD2AF59D274342077C7B06F323965559C0B6136039E0C94AB171EE54CC2FFF979AB95DAC3FAD4BB12511BD37C4B2A0DB94A50A67E71EBC5D837A89E879F4445F5FB888E1E86112D6DD24E4469544B475CC75E093E6
310
B0D083BDE69E8208FB12AE39CFFF8586FB544634CB08A3BC6CB4B4C790C66A4B32A64F4015D6019D5C0C502CE873AA3B89DE8A9E5938EB2391163A64EDA1D7F2B473C297EFABCF00A51DCC5EFF20AF5DC20CF7741FF18C8B4DF8BAA999D006F8B0A78FEE1F7D789B88BA5A0A105F61B9A11C13E24D9C6EB7A504EF1E89E28F
310
D5BC9BA996480E5F9A026A34D63539053BA3F68830F06D74A2211004073B679B14C738CAF2A8F2AEEEA10259C93D213F2CF36243725E32754E98C68D3F8DF5ADF06E17235F888A1EED605D3D473350764CE31309D547D0119F7AE979FFFEEA6E727BBD1C79B74BB4529717CBD1D5E5DC1B79B3B977395B4C96EF2638E6FA15
310
D09C50DD1A44347122FAA5484D98BFAFF6656B07F74449F7635D506E523FBFAF1CB4C5BE8B3D0078BB71951719CD295344C3F75EBF64DF08BA8A9E8C7A7E9593849E21E5CBC7F5C006CC9CB1EFAB2E35FA32D86B66E7BA168E0A518F651E329266838DC671A7608971BB0965FBAC19BD19EA918927FA50C9B33406E1C45642
310
794E1568E70CB6173995404CB72B8FCDEDE18CDDCF753FA84898D1C6924782963893403548A78C547FDEFA0D2D9CEEA26E6C1C76CE13FE4C21DA16527D6383DF541A51E984381E75E353090704D085B52408D0139664E8ACEB4DEDB8DDA56303FAC10968F4B74BCEE9968C5F3DE2CD4951E0D4EED16A659B5110FD23C71B73
310
2CA2F01A96AAF5653FD13A53A909C03570A77DA0857832AA77A8AFB7DDF29C6A4D2F2267DD93DE04412D75A48848AA7B810EBA31E976F1D5452B60ADBE58455626C8E5F992468202CCA52E70A008A830320BA200D5F9EF0F5F05C75D34B7962920F030E779CE9919DC9ABBACB57EC4CD347E002D507DFD901763CF7BA8BA7E
310
7311D984445287C4F209134DC1690F065803200F8E53733D73750E06CB570BCB1C185308AD407BD094D6D7700BC5A36F8EBA54BA6459BCD9F8BBD552A040A0650FFE06504B0304140006080000AC70623B000000000000000000000000350000006662782F33394334313030352D393437462D344341332D393833322D3144
310
373644414336394143352F76657274696365732E62696E504B0304140006080800AC70623BF270F1330600000004000000360000006662782F33394334313030352D393437462D344341332D393833322D3144373644414336394143352F747269616E676C65732E62696E636660600000504B0304140006080000AC70623B
310
000000000000000000000000370000006662782F33394334313030352D393437462D344341332D393833322D3144373644414336394143352F617474726962757465732E62696E504B0304140006080800AC70623B08DA0BD19000000041010000360000006662782F33394334313030352D393437462D344341332D393833
310
322D3144373644414336394143352F6469726563746F72792E786D6C858F410AC3201045AF22B36F53E9A60B35CBEEBAE80D244E44489C6234F4F835464A48035D0DF398FF9F8AF63D0E6CC63039F212F8F9020C7D47C6792B21C5FE7403D62A1188E2E60C98D7234A5830286103A55745067B9D86B8A3CF9C7F90C11DE607
310
FB144396D7B6A82D282E9A152AD114D5EF2CB866EEE831B8EEA07A7BB5A8D7D61A2BAAEB7FD5F70921FF497D00504B0304140006080800AC70623B95BFD5E5FE000000A00100003B0000006662782F33394334313030352D393437462D344341332D393833322D3144373644414336394143352F7265736F75726365732F63
310
6F72652E786D6C8D50596E833010BD0A9ADFCA603B1B41C611699213F40296992456828DBC543D7E4DA052FBD79F99D15B344F4F1CBE8667F1893E18675B60258502AD76BDB1B71652BC921A8A8314DEB9F84B06855503B630C120C5CDBB342E907636A28D19B5AEC70554216084423FF3D142D0771C54A952CC8AF02847A5
310
1FEA86252B339D755284E87380627E324D901E834B5E6310D5CC4A9192E9178DE9F34F7335E841EE38DBEEF8A5239B13ADC9FA589FC971F77E2217BEDDAFB61DEBE8B916D56496229AE127A3F6A822F62039A57BC218A1FC83AD1BBA69F8E68DD60DA5A29AE47F4C69ECFF694AC6C6155FE2CEB60092E5202F428A6AEA2BAF
310
5799794FDDCA6F504B010214000A0000080000AC70623B3DEE336E79000000790000001B00000000000000000000000000000000006175746F6465736B2D64657369676E2D7061636B6167652E786D6C504B01021400140006080800AC70623BD486FD9CA0000000F40000001300000000000000000000000000B20000005B
310
436F6E74656E745F54797065735D2E786D6C504B01021400140006080800AC70623BFD5588D4EC0000007C010000080000000000000000000000000083010000636F72652E786D6C504B01021400140006080800AC70623B55019EA25F0000007C000000070000000000000000000000000095020000636E782E786D6C504B
310
01021400140006080800AC70623BB5D38BAD72010000D40300000C00000000000000000000000000190300006662782F636F72652E786D6C504B01021400140006080800AC70623B09885E1C7E0000009D0000000B00000000000000000000000000B50400006662782F636E782E786D6C504B01021400140006080800AC70
310
623B961D28872A0100001202000031000000000000000000000000005C0500006662782F33394334313030352D393437462D344341332D393833322D3144373644414336394143352F636F72652E786D6C504B01021400140006080800AC70623B503B51794E010000330300003000000000000000000000000000D5060000
310
6662782F33394334313030352D393437462D344341332D393833322D3144373644414336394143352F636E782E786D6C504B01021400140006080800AC70623B2EA4D28F640500003C1000003400000000000000000000000000710800006662782F33394334313030352D393437462D344341332D393833322D3144373644
310
414336394143352F6F626A656374732E786D6C504B01021400140006080000AC70623B0000000000000000000000003500000000000000000000000000270E00006662782F33394334313030352D393437462D344341332D393833322D3144373644414336394143352F76657274696365732E62696E504B01021400140006
310
080800AC70623BF270F133060000000400000036000000000000000000000000007A0E00006662782F33394334313030352D393437462D344341332D393833322D3144373644414336394143352F747269616E676C65732E62696E504B01021400140006080000AC70623B0000000000000000000000003700000000000000
310
000000000000D40E00006662782F33394334313030352D393437462D344341332D393833322D3144373644414336394143352F617474726962757465732E62696E504B01021400140006080800AC70623B08DA0BD190000000410100003600000000000000000000000000290F00006662782F33394334313030352D393437
310
462D344341332D393833322D3144373644414336394143352F6469726563746F72792E786D6C504B01021400140006080800AC70623B95BFD5E5FE000000A00100003B000000000000000000000000000D1000006662782F33394334313030352D393437462D344341332D393833322D3144373644414336394143352F7265
310
736F75726365732F636F72652E786D6C504B0506000000000E000E0080040000641100000000
  0
XRECORD
  5
10D
102
{ACAD_REACTORS
330
10B
102
}
330
10B
100
AcDbXrecord
280
     1
270
     1
271
     1
  0
XRECORD
  5
10C
102
{ACAD_REACTORS
330
10B
102
}
330
10B
100
AcDbXrecord
280
     1
270
     1
271
     1
  0
XRECORD
  5
187
102
{ACAD_REACTORS
330
10B
102
}
330
10B
100
AcDbXrecord
280
     1
 70
     0
 90
1778669749
  1
7E355024-1ABF-47F9-966E-F2159FBE82AB
310
504B03040A0000080000AC70623B3DEE336E79000000790000001B0000006175746F6465736B2D64657369676E2D7061636B6167652E786D6C3C3F786D6C2076657273696F6E3D22312E302220656E636F64696E673D227574662D3822203F3E3C666F726D6174733E3C666F726D61743E687474703A2F2F736368656D612E
310
6175746F6465736B2E636F6D2F64657369676E2D7061636B6167652F323030393C2F666F726D61743E3C2F666F726D6174733E504B0304140006080800AC70623BD486FD9CA0000000F4000000130000005B436F6E74656E745F54797065735D2E786D6C7D8EC10E82300C865F65E91D8A1E8C310C0EEA1BF002731658846E
310
D98AC1B77784ABF1D8FE5FBFBF75BBCE937A534CCEB38643598122B6FEE978D0B0485F9C41B54DDD7D022595594E1A469170414C76A4D9A4D207E29CF43ECE46F218070CC6BECC4078ACAA135ACF422C856C0E68EA1BF5669944DDD7BCDE7B1F8E415D77AECB980613C2E4AC91FC167A2B244592486606FC29C8FD7F045B9A
310
EF7053A7E60B504B0304140006080800AC70623BDCE527C8EB0000007C01000008000000636F72652E786D6C8D90416EC3201045AF82665B6103B15DC7C24471249FA01740405C94182C03558F5F9C3852BBEB6A467FFE9B197D7EFA9EEFE8CBACC17AD7032D0820E394D7D64D3DA478C52DA093E0ABF7F1970D9093B3E961
310
9341F069F569D925E55D342E66D5796D76518660222075CF4D0F417D9A591632C5EC08B76291EA262753D05797E194AC46CF2356E77DF66ACD0A621C9B73335C463C5E0E1457EC9DE2A1612D3E9233A92BD2D66333F07283058F767EDD57AB91D168108C9023A61413F641AB8ED41DABDF48DB11C2CBCDFE074A8BFE2794AC
310
8B07B6BFFBC402089A1F790C042FB72C72790495EB969BF801504B0304140006080800AC70623B55019EA25F0000007C00000007000000636E782E786D6C4DCB3B0E80201045D1AD90E915ED2CF8AC45050C11660C8261F98AB1B07AC9C97D42D718D865D3E909258CFD00CCE24AC6E326A164D74DC0B4128928FF32603847
310
2BA13128B1252AC747C6BAB984FC68F0B87FE8960A5C09FE86CFB69FBA01504B0304140006080800AC70623BB24894EB71010000D40300000C0000006662782F636F72652E786D6CC5535B6E833010BC8AE5DF0A6C085012194749244ED00B38E05014B091B1518EDFE511A5A9D228FD2A1F60CDEC7A67C6986D2F6D830669
310
FA5AAB0C073EC548AA4297B5AA32ECECC94B31DA7266B4B6DFCA3052A295191E61CC5965B4EB16A8D0CA4A650155BA940B28FA5E5A8C8A061619EE8B4FD90A5F380B15FDD9EF44711695F4031F68A8E3ACB70604A079C8F8C6FC74BC3032E39C3957970B5B9730AD3ED5D2609EE7C92ED91F722F3FAC022F0ADF036F9F84A9
310
B7A63B1A47348DF364CFC8D8CC99ADDBABBAC2486165897948E9DA0B028F861F41B4A1F1268CDF68BAA19491B1FCAEC975E58B4DAE5676152E72E7B61EF300844CC40FB7109145BD18400FE18C8C21C2674AF83E68080442B6E2D85C7D9C011A6461B5898029B5BB5183689C84A9D4A7D3837E5F303277C2D4697370FD7046
310
F8F28CE73BC2510B5581096161797476D4C9660D4B689D34DE602F4869D38AE6351B4F1CFE89BA897F28A9D08D36FFA5882C074496DF838CF7917F01504B0304140006080800AC70623B3A54DFB77D0000009D0000000B0000006662782F636E782E786D6C4DCCD10A83201805E05791FFDEA5EBA76DA046A37C8F581632D3
310
613AF6F8B3D1C52E0E073E0E47B49FD591B7899B0D5E023F3120C63FC264FD2221A7995E81B44AC410D2DF0C881F5723616750628921BF0E9ACC3C66978A3AEB9F07B2A6D77AB87514F95953EC39D20EEF9C6AD60C88BC2EB940A544F57B2ABD1FAB2F504B0304140006080800AC70623B4A17098729010000120200003100
310
00006662782F30364446464539412D343132462D344431342D413442312D4630364534343133343431372F636F72652E786D6C8D515B6EC32010BC0AE22B55850D0E76930813A54A7C825E80DA244589C1E251E5F85D6A476AFFF2018B7667666759B1BF8F37F4AD7D30CEB6981514236D7B37187B69718A67B2C1682F8577
310
2EFE816164D5A85B9CD3588A8B77695A52BDB351DB0859EB06BD2455083A62D4DFE0D1E2D07FE951152A4540846B31A9FEAA2EBA600594012745881E0CA0B949BEB1A4CDB1EB4EDB03E1ACEA083F324E0EFC9D918E3627CED91ACE9B2867A214299961A19B01EC98B3D1FE59914C96229AF161BFF75A453D605951BA258C11
310
5A7D30BEA3F5AEAA5FE96647A92833FC1F294DC393A4646C5C578BDD9916B064A29C0B520C2E7DDE1E66F47D723EA2DC6F1574FF02531594D6AC69443903617C506CF8A218A2F3F0BDABEB2760593DCB365C8A326F08C2EFFA20E66DCA1F504B0304140006080800AC70623B503B51794E0100003303000030000000666278
310
2F30364446464539412D343132462D344431342D413442312D4630364534343133343431372F636E782E786D6CD593C16EC32010447F0571AD6CE3D489D20813A9877E410FBD62D82434182CC055F3F75D1292E692438FBD206B7698593D61BEFD1E2DF982108D773D6D6B460938E5B571FB9ECE6957AD29D90A1EBC4F7736
310
4A9C1CA1A759A682EF839FA72269D8C9D92654AD71C72206887E0E0A22CAF926B15E498B01E0AA19451807D01A34B919F16B070157417138917400F2F6FA41FCF0092A45DEE414C19BDC21783E4BD39D891265658C3D8DEA00A3ACE59CBC8678ACB54CB26EEB6BD7839D7E9348BE70AD9C8321B9BCA7F9A4A26C542347DEE0
310
50F09802D22BA6749A800A394DD62899107273365E3C82CFC6A55557BC06C10774B7ABE7AEC3B0F34CF06446280E154026D0542C187BA9DAB6628BF7B6DBB0E566B17C62EB0D63BCC976C107EF6DB9843110FC449477095CA2A2E54D1E3FC2577C449B80AC7D38FD01240228AD173AB78CFFCCA739BF6FC415F02F103F504B
310
0304140006080800AC70623BD8F6D0D5660500003B100000340000006662782F30364446464539412D343132462D344431342D413442312D4630364534343133343431372F6F626A656374732E786D6CAD575B8F9B3814FE2B887D064292B964C5504D92491555D3568D5AEDC348910187610730B2CD4C667FFD7E06438024
310
6DF6928780CDF1B97EE762EFC33E4B8D57CA45C2F23BD3B547A641F39045491EDF99A5DC59B7A6F1C1F73863B243661A39C9E89DA9B64DDF8B392B0BBD15D11D295339D85DCDFF304448736A1A614A84B83345F84C33629352B2888A173B2292D8F16E6FBB764DD8671B73523C0F981684D35C4253ECE7E062D44AB9FDE5C8
310
747CCF51DF7D4FFD6BAAC9792AA7B2A72F3FC985247978246CC066E24E970FE3AB9975359D4EACE9F5D8B5E6ABF9D2726F26A3C5F56231BB7F9841B0901C9CB4269CEE4CFF237CC393D073EA4FADC65AF1532A852CCF6958D90F0B2B9D35C78816348F10C7840A48EB583DEA2F5DE59BCEE7895A6B91DDEDCBACEA9EE8306A
310
746F9E5D4D59F0274C1097A0820BAA5055FB471B5AE36F74F05AC058AABF25C2C888A43C21A991260127FCDDF441AA487CAFC746A1932B842B0B4CDF3DF0EBEA8AD4F835764F69B92BD35441D3F42B646F817F2A45A559F217E5A7A54127C4AA4C7279AB0D92EF0535FD99E7549BBEA71E93B1FE583BD2D8A52446C86166FD
310
7560E842E5DE7A69FA9F56C17EA3F2F1B4F082B38272A9E0036835816B9ECA4B5AAC7B51E4D40118D3F3F9C129DFE0F9CF48DF832A881B4FF6D3FD544B919CE462C77886D8D8A3EA678C9A17AB7D3B7E413D1B501FD3B43BFF8AD8735A65FB05E35CFC002E159ADBFF1EBFBECFBA48ED84CFF75E91608C4FB42B372149517A
310
1E931C0151A03452862DD4F25DB037FD352A252A3B4E91D46F1D72F4E239AFF88EFF9A37AA5525BEF3CC11D041BDBDA0F2C397555A40B7336039AA9395606DDC399F5FFD2F3973BFDC7CDA947C4742FAA80BCB92EE923C91E89D07F07615EA05A267D10B7D7F633C82A1C741D8748390695102DE563E578E8F9B66A11607C9
310
3D0121CEC54CD53CEF17121E1311D2342539656523A56D430AAB6D91D17302B2B076E8643C4031A7AF899A247A143DB5D0EB439E14CA656DD36BEBB47DC696EFEBCF0025E8531690F440141CAA7DC852C6B7C1FBB62E8426B087237D70FFE8A35B3BD4515C00F80ACA4DC5D11EDE46C96E570A94DD134EFCB15E7403D5D691
310
E397267F1A89754A4E519C917A846BF43632310F7082BECEF26D822E8EAC3C29BC2B7B2840547CCFF00FCAACD8928C95B9BCC44DA3C69E46FB96797788116F4486CFA6BFA99ED61C153BA2D121543D10A80E74C2A65E786E1E265757A3F1D472EFE72B6B7AB39A59B3EBEB076B3576AF66ABF9C3EDF87EDE6A5469E27B4D83
310
EAA620BC8986E8953CD16EFEBE3E64ADE93F12299C8F753E3971FDFCBEB631157B0ECE00DFEDC17556A434A3B9240ABD8FEA25FD463054F478D4FBEB8CC4F4022E5F3E6E063A60E782735F55A6D1B7C159BDBB50B97092897C2EB32027493A38A80DB78B3CD66637AE6C9F75416F966AA5FD893154B03489506F2223A62CA3
310
1255E78262CF332A8098EE501EE9CBC305A75FEB71509220A58D26CF0413712A806AC0AD0C657FDFF80D139C1AA2EE4CF43AFB057F3A114D03A1BE3351DE6412526107E88E6AEEA998030218C2DA1A08A8913C4E3158D787DA757B4AF906E5070D50CB6F492E1996B45DBDBA9B91A240D3EE55D54A372D20FC478637EA1844
310
E23528656BCB61A335A61283CCAA8DD257034C102F5AF41EF9F573B35CBBA2E979E4A26BD24F415073B524E171752D50FA6995EE975F1D4C02C6FA8B51A4658C585ECEC9E214602E558203454085E6591009A82E7E7FFACA19AEA299B14A0081A705CB3296EBC5BDBECA1A9B675C4CA3279405AA6E1F623C72DDA76AE8D7F7
310
906D4004B549245EB0D1249CB260803500F2A89BEA10382A0603F2F5D2D00D630AA615688F66D2FA166E2079D4C551A54AB758163F9DFB9D8A1460E098D8FDBF01504B0304140006080000AC70623B000000000000000000000000350000006662782F30364446464539412D343132462D344431342D413442312D46303645
310
34343133343431372F76657274696365732E62696E504B0304140006080800AC70623BF270F1330600000004000000360000006662782F30364446464539412D343132462D344431342D413442312D4630364534343133343431372F747269616E676C65732E62696E636660600000504B0304140006080000AC70623B0000
310
00000000000000000000370000006662782F30364446464539412D343132462D344431342D413442312D4630364534343133343431372F617474726962757465732E62696E504B0304140006080800AC70623B08DA0BD19000000041010000360000006662782F30364446464539412D343132462D344431342D413442312D
310
4630364534343133343431372F6469726563746F72792E786D6C858F410AC3201045AF22B36F53E9A60B35CBEEBAE80D244E44489C6234F4F835464A48035D0DF398FF9F8AF63D0E6CC63039F212F8F9020C7D47C6792B21C5FE7403D62A1188E2E60C98D7234A5830286103A55745067B9D86B8A3CF9C7F90C11DE607FB14
310
4396D7B6A82D282E9A152AD114D5EF2CB866EEE831B8EEA07A7BB5A8D7D61A2BAAEB7FD5F70921FF497D00504B0304140006080800AC70623BB40F7AF9FE000000A00100003B0000006662782F30364446464539412D343132462D344431342D413442312D4630364534343133343431372F7265736F75726365732F636F72
310
652E786D6C8D504B6E833010BD0A9A6D65B00950828CA3109513F4029699502BC146FE543D7E4D42A576D7CDCCE87D344F8F9FBE967BF689CE6B6B7A6039850C8DB29336730F315C490BD94970676DF82583CCC8057BD860107C7636AE3BA4AC096842428D9D7007A5F7182053F774F4E0D5072E3297312485BFE5AB543739
310
63CEF244279DE03EB814207B3ED9260887DE46A7D0F3E2C90A1EA39E768D9ED24F7DD5E8408C63736E86CB1B192F0746AAF29591A1295B72A4675A57B4ADC766E0C566163CE8E527A37228034E204A4A8F843142CB775675B4EECAFA85B61DA5BCD8E47F4C719DFE698ADA8443B9C77DDA3C0896823C08C18BADAFB41E65A6
310
BD752BBE01504B010214000A0000080000AC70623B3DEE336E79000000790000001B00000000000000000000000000000000006175746F6465736B2D64657369676E2D7061636B6167652E786D6C504B01021400140006080800AC70623BD486FD9CA0000000F40000001300000000000000000000000000B20000005B436F
310
6E74656E745F54797065735D2E786D6C504B01021400140006080800AC70623BDCE527C8EB0000007C010000080000000000000000000000000083010000636F72652E786D6C504B01021400140006080800AC70623B55019EA25F0000007C000000070000000000000000000000000094020000636E782E786D6C504B0102
310
1400140006080800AC70623BB24894EB71010000D40300000C00000000000000000000000000180300006662782F636F72652E786D6C504B01021400140006080800AC70623B3A54DFB77D0000009D0000000B00000000000000000000000000B30400006662782F636E782E786D6C504B01021400140006080800AC70623B
310
4A17098729010000120200003100000000000000000000000000590500006662782F30364446464539412D343132462D344431342D413442312D4630364534343133343431372F636F72652E786D6C504B01021400140006080800AC70623B503B51794E010000330300003000000000000000000000000000D10600006662
310
782F30364446464539412D343132462D344431342D413442312D4630364534343133343431372F636E782E786D6C504B01021400140006080800AC70623BD8F6D0D5660500003B10000034000000000000000000000000006D0800006662782F30364446464539412D343132462D344431342D413442312D46303645343431
310
33343431372F6F626A656374732E786D6C504B01021400140006080000AC70623B0000000000000000000000003500000000000000000000000000250E00006662782F30364446464539412D343132462D344431342D413442312D4630364534343133343431372F76657274696365732E62696E504B010214001400060808
310
00AC70623BF270F13306000000040000003600000000000000000000000000780E00006662782F30364446464539412D343132462D344431342D413442312D4630364534343133343431372F747269616E676C65732E62696E504B01021400140006080000AC70623B00000000000000000000000037000000000000000000
310
00000000D20E00006662782F30364446464539412D343132462D344431342D413442312D4630364534343133343431372F617474726962757465732E62696E504B01021400140006080800AC70623B08DA0BD190000000410100003600000000000000000000000000270F00006662782F30364446464539412D343132462D
310
344431342D413442312D4630364534343133343431372F6469726563746F72792E786D6C504B01021400140006080800AC70623BB40F7AF9FE000000A00100003B000000000000000000000000000B1000006662782F30364446464539412D343132462D344431342D413442312D4630364534343133343431372F7265736F
310
75726365732F636F72652E786D6C504B0506000000000E000E0080040000621100000000
  0
XRECORD
  5
10E
102
{ACAD_REACTORS
330
10B
102
}
330
10B
100
AcDbXrecord
280
     1
270
     1
271
     1
  0
XRECORD
  5
10F
102
{ACAD_REACTORS
330
10B
102
}
330
10B
100
AcDbXrecord
280
     1
270
     1
271
     1
  0
XRECORD
  5
38B
102
{ACAD_REACTORS
330
38A
102
}
330
38A
100
AcDbXrecord
280
     1
102
DISPLAYNAME
  1
Imperial24
102
FLAGS
 90
        0
  0
CELLSTYLEMAP
  5
380
102
{ACAD_REACTORS
330
FF
102
}
330
FF
100
AcDbCellStyleMap
 90
        3
300
CELLSTYLE
  1
TABLEFORMAT_BEGIN
 90
        5
170
     1
 91
        0
 92
    32768
 62
   257
 93
        1
300
CONTENTFORMAT
  1
CONTENTFORMAT_BEGIN
 90
        0
 91
        0
 92
      512
 93
        0
300

 40
0.0
140
1.0
 94
        5
 62
     0
340
11
144
0.25
309
CONTENTFORMAT_END
171
     1
301
MARGIN
  1
CELLMARGIN_BEGIN
 40
0.06
 40
0.06
 40
0.06
 40
0.06
 40
0.18
 40
0.18
309
CELLMARGIN_END
 94
        6
 95
        1
302
GRIDFORMAT
  1
GRIDFORMAT_BEGIN
 90
        0
 91
        1
 62
     0
 92
       -2
340
0
 93
        0
 40
0.045
309
GRIDFORMAT_END
 95
        2
302
GRIDFORMAT
  1
GRIDFORMAT_BEGIN
 90
        0
 91
        1
 62
     0
 92
       -2
340
0
 93
        0
 40
0.045
309
GRIDFORMAT_END
 95
        4
302
GRIDFORMAT
  1
GRIDFORMAT_BEGIN
 90
        0
 91
        1
 62
     0
 92
       -2
340
0
 93
        0
 40
0.045
309
GRIDFORMAT_END
 95
        8
302
GRIDFORMAT
  1
GRIDFORMAT_BEGIN
 90
        0
 91
        1
 62
     0
 92
       -2
340
0
 93
        0
 40
0.045
309
GRIDFORMAT_END
 95
       16
302
GRIDFORMAT
  1
GRIDFORMAT_BEGIN
 90
        0
 91
        1
 62
     0
 92
       -2
340
0
 93
        0
 40
0.045
309
GRIDFORMAT_END
 95
       32
302
GRIDFORMAT
  1
GRIDFORMAT_BEGIN
 90
        0
 91
        1
 62
     0
 92
       -2
340
0
 93
        0
 40
0.045
309
GRIDFORMAT_END
309
TABLEFORMAT_END
  1
CELLSTYLE_BEGIN
 90
        1
 91
        1
300
_TITLE
309
CELLSTYLE_END
300
CELLSTYLE
  1
TABLEFORMAT_BEGIN
 90
        5
170
     1
 91
        0
 92
        0
 62
   257
 93
        1
300
CONTENTFORMAT
  1
CONTENTFORMAT_BEGIN
 90
        0
 91
        0
 92
      512
 93
        0
300

 40
0.0
140
1.0
 94
        5
 62
     0
340
11
144
0.18
309
CONTENTFORMAT_END
171
     1
301
MARGIN
  1
CELLMARGIN_BEGIN
 40
0.06
 40
0.06
 40
0.06
 40
0.06
 40
0.18
 40
0.18
309
CELLMARGIN_END
 94
        6
 95
        1
302
GRIDFORMAT
  1
GRIDFORMAT_BEGIN
 90
        0
 91
        1
 62
     0
 92
       -2
340
0
 93
        0
 40
0.045
309
GRIDFORMAT_END
 95
        2
302
GRIDFORMAT
  1
GRIDFORMAT_BEGIN
 90
        0
 91
        1
 62
     0
 92
       -2
340
0
 93
        0
 40
0.045
309
GRIDFORMAT_END
 95
        4
302
GRIDFORMAT
  1
GRIDFORMAT_BEGIN
 90
        0
 91
        1
 62
     0
 92
       -2
340
0
 93
        0
 40
0.045
309
GRIDFORMAT_END
 95
        8
302
GRIDFORMAT
  1
GRIDFORMAT_BEGIN
 90
        0
 91
        1
 62
     0
 92
       -2
340
0
 93
        0
 40
0.045
309
GRIDFORMAT_END
 95
       16
302
GRIDFORMAT
  1
GRIDFORMAT_BEGIN
 90
        0
 91
        1
 62
     0
 92
       -2
340
0
 93
        0
 40
0.045
309
GRIDFORMAT_END
 95
       32
302
GRIDFORMAT
  1
GRIDFORMAT_BEGIN
 90
        0
 91
        1
 62
     0
 92
       -2
340
0
 93
        0
 40
0.045
309
GRIDFORMAT_END
309
TABLEFORMAT_END
  1
CELLSTYLE_BEGIN
 90
        2
 91
        1
300
_HEADER
309
CELLSTYLE_END
300
CELLSTYLE
  1
TABLEFORMAT_BEGIN
 90
        5
170
     1
 91
        0
 92
        0
 62
   257
 93
        1
300
CONTENTFORMAT
  1
CONTENTFORMAT_BEGIN
 90
        0
 91
        0
 92
      512
 93
        0
300

 40
0.0
140
1.0
 94
        2
 62
     0
340
11
144
0.18
309
CONTENTFORMAT_END
171
     1
301
MARGIN
  1
CELLMARGIN_BEGIN
 40
0.06
 40
0.06
 40
0.06
 40
0.06
 40
0.18
 40
0.18
309
CELLMARGIN_END
 94
        6
 95
        1
302
GRIDFORMAT
  1
GRIDFORMAT_BEGIN
 90
        0
 91
        1
 62
     0
 92
       -2
340
0
 93
        0
 40
0.045
309
GRIDFORMAT_END
 95
        2
302
GRIDFORMAT
  1
GRIDFORMAT_BEGIN
 90
        0
 91
        1
 62
     0
 92
       -2
340
0
 93
        0
 40
0.045
309
GRIDFORMAT_END
 95
        4
302
GRIDFORMAT
  1
GRIDFORMAT_BEGIN
 90
        0
 91
        1
 62
     0
 92
       -2
340
0
 93
        0
 40
0.045
309
GRIDFORMAT_END
 95
        8
302
GRIDFORMAT
  1
GRIDFORMAT_BEGIN
 90
        0
 91
        1
 62
     0
 92
       -2
340
0
 93
        0
 40
0.045
309
GRIDFORMAT_END
 95
       16
302
GRIDFORMAT
  1
GRIDFORMAT_BEGIN
 90
        0
 91
        1
 62
     0
 92
       -2
340
0
 93
        0
 40
0.045
309
GRIDFORMAT_END
 95
       32
302
GRIDFORMAT
  1
GRIDFORMAT_BEGIN
 90
        0
 91
        1
 62
     0
 92
       -2
340
0
 93
        0
 40
0.045
309
GRIDFORMAT_END
309
TABLEFORMAT_END
  1
CELLSTYLE_BEGIN
 90
        3
 91
        2
300
_DATA
309
CELLSTYLE_END
  0
ENDSEC
  0
SECTION
  2
ACDSDATA
 70
     2
 71
     8
  0
ACDSSCHEMA
 90
        0
  1
AcDb_Thumbnail_Schema
  2
AcDbDs::ID
280
    10
 91
        8
  2
Thumbnail_Data
280
    15
 91
        0
101
ACDSRECORD
 95
        0
 90
        1
  2
AcDbDs::TreatedAsObjectData
280
     1
291
     1
101
ACDSRECORD
 95
        0
 90
        2
  2
AcDbDs::Legacy
280
     1
291
     1
101
ACDSRECORD
  1
AcDbDs::ID
 90
        3
  2
AcDs:Indexable
280
     1
291
     1
101
ACDSRECORD
  1
AcDbDs::ID
 90
        4
  2
AcDbDs::HandleAttribute
280
     7
282
     1
  0
ACDSSCHEMA
 90
        1
  1
AcDbDs::TreatedAsObjectDataSchema
  2
AcDbDs::TreatedAsObjectData
280
     1
 91
        0
  0
ACDSSCHEMA
 90
        2
  1
AcDbDs::LegacySchema
  2
AcDbDs::Legacy
280
     1
 91
        0
  0
ACDSSCHEMA
 90
        3
  1
AcDbDs::IndexedPropertySchema
  2
AcDs:Indexable
280
     1
 91
        0
  0
ACDSSCHEMA
 90
        4
  1
AcDbDs::HandleAttributeSchema
  2
AcDbDs::HandleAttribute
280
     7
 91
        1
284
     1
  0
ACDSRECORD
 90
        0
  2
AcDbDs::ID
280
    10
320
22
  2
Thumbnail_Data
280
    15
 94
      896
310
89504E470D0A1A0A0000000D49484452000001000000009108030000001BE1960600000300504C5445212830FFFFFF2128300000000000000000000000000000000000000000000000000000330000660000990000CC0000FF0033000033330033660033990033CC0033FF0066000066330066660066990066CC0066FF0099
310
000099330099660099990099CC0099FF00CC0000CC3300CC6600CC9900CCCC00CCFF00FF0000FF3300FF6600FF9900FFCC00FFFF3300003300333300663300993300CC3300FF3333003333333333663333993333CC3333FF3366003366333366663366993366CC3366FF3399003399333399663399993399CC3399FF33CC00
310
33CC3333CC6633CC9933CCCC33CCFF33FF0033FF3333FF6633FF9933FFCC33FFFF6600006600336600666600996600CC6600FF6633006633336633666633996633CC6633FF6666006666336666666666996666CC6666FF6699006699336699666699996699CC6699FF66CC0066CC3366CC6666CC9966CCCC66CCFF66FF0066
310
FF3366FF6666FF9966FFCC66FFFF9900009900339900669900999900CC9900FF9933009933339933669933999933CC9933FF9966009966339966669966999966CC9966FF9999009999339999669999999999CC9999FF99CC0099CC3399CC6699CC9999CCCC99CCFF99FF0099FF3399FF6699FF9999FFCC99FFFFCC0000CC00
310
33CC0066CC0099CC00CCCC00FFCC3300CC3333CC3366CC3399CC33CCCC33FFCC6600CC6633CC6666CC6699CC66CCCC66FFCC9900CC9933CC9966CC9999CC99CCCC99FFCCCC00CCCC33CCCC66CCCC99CCCCCCCCCCFFCCFF00CCFF33CCFF66CCFF99CCFFCCCCFFFFFF0000FF0033FF0066FF0099FF00CCFF00FFFF3300FF3333
310
FF3366FF3399FF33CCFF33FFFF6600FF6633FF6666FF6699FF66CCFF66FFFF9900FF9933FF9966FF9999FF99CCFF99FFFFCC00FFCC33FFCC66FFCC99FFCCCCFFCCFFFFFF00FFFF33FFFF66FFFF99FFFFCCFFFFFF0000000D0D0D1A1A1A2828283535354343435050505D5D5D6B6B6B787878868686939393A1A1A1AEAEAEBB
310
BBBBC9C9C9D6D6D6E4E4E4F1F1F1FFFFFF0000000000000000000000000000000000000000000000000000000000002E4550F10000003B4944415478DAEDC13101000000C2A0F54F6D0B2FA0000000000000000000000000000000000000000000000000000000000000000000000000CE06919100016C9A5B1B0000000049
310
454E44AE426082
  0
ENDSEC
  0
EOF
