  0
SECTION
  2
HEADER
  9
$ACADVER
  1
AC1027
  9
$ACADMAINTVER
 70
   125
  9
$DWGCODEPAGE
  3
ANSI_1252
  9
$LASTSAVEDBY
  1
ufficio.tecnico
  9
$REQUIREDVERSIONS
160
                 0
  9
$INSBASE
 10
0.0
 20
0.0
 30
0.0
  9
$EXTMIN
 10
8.003871391488525
 20
-20.29512114048306
 30
0.0
  9
$EXTMAX
 10
23.1346122146283
 20
-5.595033970465319
 30
0.0
  9
$LIMMIN
 10
0.0
 20
0.0
  9
$LIMMAX
 10
12.0
 20
9.0
  9
$ORTHOMODE
 70
     1
  9
$REGENMODE
 70
     1
  9
$FILLMODE
 70
     1
  9
$QTEXTMODE
 70
     0
  9
$MIRRTEXT
 70
     1
  9
$LTSCALE
 40
1.0
  9
$ATTMODE
 70
     1
  9
$TEXTSIZE
 40
0.2
  9
$TRACEWID
 40
0.05
  9
$TEXTSTYLE
  7
Standard
  9
$CLAYER
  8
0
  9
$CELTYPE
  6
ByLayer
  9
$CECOLOR
 62
   256
  9
$CELTSCALE
 40
1.0
  9
$DISPSILH
 70
     0
  9
$DIMSCALE
 40
1.0
  9
$DIMASZ
 40
0.18
  9
$DIMEXO
 40
0.0625
  9
$DIMDLI
 40
0.38
  9
$DIMRND
 40
0.0
  9
$DIMDLE
 40
0.0
  9
$DIMEXE
 40
0.18
  9
$DIMTP
 40
0.0
  9
$DIMTM
 40
0.0
  9
$DIMTXT
 40
0.18
  9
$DIMCEN
 40
0.09
  9
$DIMTSZ
 40
0.0
  9
$DIMTOL
 70
     0
  9
$DIMLIM
 70
     0
  9
$DIMTIH
 70
     1
  9
$DIMTOH
 70
     1
  9
$DIMSE1
 70
     0
  9
$DIMSE2
 70
     0
  9
$DIMTAD
 70
     0
  9
$DIMZIN
 70
     0
  9
$DIMBLK
  1

  9
$DIMASO
 70
     1
  9
$DIMSHO
 70
     1
  9
$DIMPOST
  1

  9
$DIMAPOST
  1

  9
$DIMALT
 70
     0
  9
$DIMALTD
 70
     2
  9
$DIMALTF
 40
25.4
  9
$DIMLFAC
 40
1.0
  9
$DIMTOFL
 70
     0
  9
$DIMTVP
 40
0.0
  9
$DIMTIX
 70
     0
  9
$DIMSOXD
 70
     0
  9
$DIMSAH
 70
     0
  9
$DIMBLK1
  1

  9
$DIMBLK2
  1

  9
$DIMSTYLE
  2
Standard
  9
$DIMCLRD
 70
     0
  9
$DIMCLRE
 70
     0
  9
$DIMCLRT
 70
     0
  9
$DIMTFAC
 40
1.0
  9
$DIMGAP
 40
0.09
  9
$DIMJUST
 70
     0
  9
$DIMSD1
 70
     0
  9
$DIMSD2
 70
     0
  9
$DIMTOLJ
 70
     1
  9
$DIMTZIN
 70
     0
  9
$DIMALTZ
 70
     0
  9
$DIMALTTZ
 70
     0
  9
$DIMUPT
 70
     0
  9
$DIMDEC
 70
     4
  9
$DIMTDEC
 70
     4
  9
$DIMALTU
 70
     2
  9
$DIMALTTD
 70
     2
  9
$DIMTXSTY
  7
Standard
  9
$DIMAUNIT
 70
     0
  9
$DIMADEC
 70
     0
  9
$DIMALTRND
 40
0.0
  9
$DIMAZIN
 70
     0
  9
$DIMDSEP
 70
    46
  9
$DIMATFIT
 70
     3
  9
$DIMFRAC
 70
     0
  9
$DIMLDRBLK
  1

  9
$DIMLUNIT
 70
     2
  9
$DIMLWD
 70
    -2
  9
$DIMLWE
 70
    -2
  9
$DIMTMOVE
 70
     0
  9
$DIMFXL
 40
1.0
  9
$DIMFXLON
 70
     0
  9
$DIMJOGANG
 40
0.7853981633974483
  9
$DIMTFILL
 70
     0
  9
$DIMTFILLCLR
 70
     0
  9
$DIMARCSYM
 70
     0
  9
$DIMLTYPE
  6

  9
$DIMLTEX1
  6

  9
$DIMLTEX2
  6

  9
$DIMTXTDIRECTION
 70
     0
  9
$LUNITS
 70
     2
  9
$LUPREC
 70
     4
  9
$SKETCHINC
 40
0.1
  9
$FILLETRAD
 40
0.5
  9
$AUNITS
 70
     0
  9
$AUPREC
 70
     0
  9
$MENU
  1
.
  9
$ELEVATION
 40
0.0
  9
$PELEVATION
 40
0.0
  9
$THICKNESS
 40
0.0
  9
$LIMCHECK
 70
     0
  9
$CHAMFERA
 40
0.5
  9
$CHAMFERB
 40
0.5
  9
$CHAMFERC
 40
1.0
  9
$CHAMFERD
 40
0.0
  9
$SKPOLY
 70
     0
  9
$TDCREATE
 40
2459319.425729167
  9
$TDUCREATE
 40
2459319.342398298
  9
$TDUPDATE
 40
2459341.415335648
  9
$TDUUPDATE
 40
2459341.332002315
  9
$TDINDWG
 40
0.0178935301
  9
$TDUSRTIMER
 40
0.0178935301
  9
$USRTIMER
 70
     1
  9
$ANGBASE
 50
0.0
  9
$ANGDIR
 70
     0
  9
$PDMODE
 70
     0
  9
$PDSIZE
 40
0.0
  9
$PLINEWID
 40
0.0
  9
$SPLFRAME
 70
     0
  9
$SPLINETYPE
 70
     6
  9
$SPLINESEGS
 70
     8
  9
$HANDSEED
  5
374
  9
$SURFTAB1
 70
     6
  9
$SURFTAB2
 70
     6
  9
$SURFTYPE
 70
     6
  9
$SURFU
 70
     6
  9
$SURFV
 70
     6
  9
$UCSBASE
  2

  9
$UCSNAME
  2

  9
$UCSORG
 10
0.0
 20
0.0
 30
0.0
  9
$UCSXDIR
 10
1.0
 20
0.0
 30
0.0
  9
$UCSYDIR
 10
0.0
 20
1.0
 30
0.0
  9
$UCSORTHOREF
  2

  9
$UCSORTHOVIEW
 70
     0
  9
$UCSORGTOP
 10
0.0
 20
0.0
 30
0.0
  9
$UCSORGBOTTOM
 10
0.0
 20
0.0
 30
0.0
  9
$UCSORGLEFT
 10
0.0
 20
0.0
 30
0.0
  9
$UCSORGRIGHT
 10
0.0
 20
0.0
 30
0.0
  9
$UCSORGFRONT
 10
0.0
 20
0.0
 30
0.0
  9
$UCSORGBACK
 10
0.0
 20
0.0
 30
0.0
  9
$PUCSBASE
  2

  9
$PUCSNAME
  2

  9
$PUCSORG
 10
0.0
 20
0.0
 30
0.0
  9
$PUCSXDIR
 10
1.0
 20
0.0
 30
0.0
  9
$PUCSYDIR
 10
0.0
 20
1.0
 30
0.0
  9
$PUCSORTHOREF
  2

  9
$PUCSORTHOVIEW
 70
     0
  9
$PUCSORGTOP
 10
0.0
 20
0.0
 30
0.0
  9
$PUCSORGBOTTOM
 10
0.0
 20
0.0
 30
0.0
  9
$PUCSORGLEFT
 10
0.0
 20
0.0
 30
0.0
  9
$PUCSORGRIGHT
 10
0.0
 20
0.0
 30
0.0
  9
$PUCSORGFRONT
 10
0.0
 20
0.0
 30
0.0
  9
$PUCSORGBACK
 10
0.0
 20
0.0
 30
0.0
  9
$USERI1
 70
     0
  9
$USERI2
 70
     0
  9
$USERI3
 70
     0
  9
$USERI4
 70
     0
  9
$USERI5
 70
     0
  9
$USERR1
 40
0.0
  9
$USERR2
 40
0.0
  9
$USERR3
 40
0.0
  9
$USERR4
 40
0.0
  9
$USERR5
 40
0.0
  9
$WORLDVIEW
 70
     1
  9
$SHADEDGE
 70
     3
  9
$SHADEDIF
 70
    70
  9
$TILEMODE
 70
     1
  9
$MAXACTVP
 70
    64
  9
$PINSBASE
 10
0.0
 20
0.0
 30
0.0
  9
$PLIMCHECK
 70
     0
  9
$PEXTMIN
 10
1.000000000000000E+20
 20
1.000000000000000E+20
 30
1.000000000000000E+20
  9
$PEXTMAX
 10
-1.000000000000000E+20
 20
-1.000000000000000E+20
 30
-1.000000000000000E+20
  9
$PLIMMIN
 10
0.0
 20
0.0
  9
$PLIMMAX
 10
12.0
 20
9.0
  9
$UNITMODE
 70
     0
  9
$VISRETAIN
 70
     1
  9
$PLINEGEN
 70
     0
  9
$PSLTSCALE
 70
     1
  9
$TREEDEPTH
 70
  3020
  9
$CMLSTYLE
  2
Standard
  9
$CMLJUST
 70
     0
  9
$CMLSCALE
 40
1.0
  9
$PROXYGRAPHICS
 70
     1
  9
$MEASUREMENT
 70
     0
  9
$CELWEIGHT
370
    -1
  9
$ENDCAPS
280
     0
  9
$JOINSTYLE
280
     0
  9
$LWDISPLAY
290
     1
  9
$INSUNITS
 70
     5
  9
$HYPERLINKBASE
  1

  9
$STYLESHEET
  1

  9
$XEDIT
290
     1
  9
$CEPSNTYPE
380
     0
  9
$PSTYLEMODE
290
     1
  9
$FINGERPRINTGUID
  2
{DF16B64E-0898-4719-938B-3F6761B260E2}
  9
$VERSIONGUID
  2
{069DAADD-74F3-C24E-ACB3-2DC959E107BF}
  9
$EXTNAMES
290
     1
  9
$PSVPSCALE
 40
0.0
  9
$OLESTARTUP
290
     0
  9
$SORTENTS
280
   127
  9
$INDEXCTL
280
     0
  9
$HIDETEXT
280
     1
  9
$XCLIPFRAME
280
     2
  9
$HALOGAP
280
     0
  9
$OBSCOLOR
 70
   257
  9
$OBSLTYPE
280
     0
  9
$INTERSECTIONDISPLAY
280
     0
  9
$INTERSECTIONCOLOR
 70
   257
  9
$DIMASSOC
280
     2
  9
$PROJECTNAME
  1

  9
$CAMERADISPLAY
290
     0
  9
$LENSLENGTH
 40
50.0
  9
$CAMERAHEIGHT
 40
0.0
  9
$STEPSPERSEC
 40
2.0
  9
$STEPSIZE
 40
6.0
  9
$3DDWFPREC
 40
2.0
  9
$PSOLWIDTH
 40
0.25
  9
$PSOLHEIGHT
 40
4.0
  9
$LOFTANG1
 40
1.570796326794897
  9
$LOFTANG2
 40
1.570796326794897
  9
$LOFTMAG1
 40
0.0
  9
$LOFTMAG2
 40
0.0
  9
$LOFTPARAM
 70
     7
  9
$LOFTNORMALS
280
     1
  9
$LATITUDE
 40
37.795
  9
$LONGITUDE
 40
-122.394
  9
$NORTHDIRECTION
 40
0.0
  9
$TIMEZONE
 70
 -8000
  9
$LIGHTGLYPHDISPLAY
280
     1
  9
$TILEMODELIGHTSYNCH
280
     1
  9
$CMATERIAL
347
3C
  9
$SOLIDHIST
280
     1
  9
$SHOWHIST
280
     1
  9
$DWFFRAME
280
     2
  9
$DGNFRAME
280
     2
  9
$REALWORLDSCALE
290
     1
  9
$INTERFERECOLOR
 62
   256
  9
$INTERFEREOBJVS
345
33
  9
$INTERFEREVPVS
346
1A0
  9
$CSHADOW
280
     0
  9
$SHADOWPLANELOCATION
 40
0.0
  0
ENDSEC
  0
SECTION
  2
CLASSES
  0
CLASS
  1
ACDBDICTIONARYWDFLT
  2
AcDbDictionaryWithDefault
  3
ObjectDBX Classes
 90
        0
 91
        1
280
     0
281
     0
  0
CLASS
  1
VISUALSTYLE
  2
AcDbVisualStyle
  3
ObjectDBX Classes
 90
     4095
 91
       26
280
     0
281
     0
  0
CLASS
  1
MATERIAL
  2
AcDbMaterial
  3
ObjectDBX Classes
 90
     1153
 91
        3
280
     0
281
     0
  0
CLASS
  1
SUN
  2
AcDbSun
  3
SCENEOE
 90
     1153
 91
        1
280
     0
281
     0
  0
CLASS
  1
TABLESTYLE
  2
AcDbTableStyle
  3
ObjectDBX Classes
 90
     4095
 91
        1
280
     0
281
     0
  0
CLASS
  1
SCALE
  2
AcDbScale
  3
ObjectDBX Classes
 90
     1153
 91
       21
280
     0
281
     0
  0
CLASS
  1
MLEADERSTYLE
  2
AcDbMLeaderStyle
  3
ACDB_MLEADERSTYLE_CLASS
 90
     4095
 91
        1
280
     0
281
     0
  0
CLASS
  1
ACDBSECTIONVIEWSTYLE
  2
AcDbSectionViewStyle
  3
ObjectDBX Classes
 90
     1025
 91
        1
280
     0
281
     0
  0
CLASS
  1
ACDBDETAILVIEWSTYLE
  2
AcDbDetailViewStyle
  3
ObjectDBX Classes
 90
     1025
 91
        1
280
     0
281
     0
  0
CLASS
  1
DICTIONARYVAR
  2
AcDbDictionaryVar
  3
ObjectDBX Classes
 90
        0
 91
        6
280
     0
281
     0
  0
CLASS
  1
SORTENTSTABLE
  2
AcDbSortentsTable
  3
ObjectDBX Classes
 90
        0
 91
        1
280
     0
281
     0
  0
CLASS
  1
CELLSTYLEMAP
  2
AcDbCellStyleMap
  3
ObjectDBX Classes
 90
     1152
 91
        3
280
     0
281
     0
  0
ENDSEC
  0
SECTION
  2
TABLES
  0
TABLE
  2
VPORT
  5
8
330
0
100
AcDbSymbolTable
 70
     1
1001
ACAD
1000
DbSaveVer
1071
      105
  0
VPORT
  5
29
330
8
100
AcDbSymbolTableRecord
100
AcDbViewportTableRecord
  2
*Active
 70
     0
 10
0.0
 20
0.0
 11
1.0
 21
1.0
 12
-5.886764172021567
 22
-6.554698800133387
 13
0.0
 23
0.0
 14
0.5
 24
0.5
 15
0.5
 25
0.5
 16
0.0
 26
0.0
 36
1.0
 17
14.84999673225613
 27
-10.50008306681943
 37
0.0
 40
22.78555177987543
 41
1.931468531468531
 42
50.0
 43
0.0
 44
0.0
 50
0.0
 51
0.0
 71
     0
 72
   100
 73
     1
 74
     3
 75
     0
 76
     0
 77
     0
 78
     0
281
     0
 65
     1
110
0.0
120
0.0
130
0.0
111
1.0
121
0.0
131
0.0
112
0.0
122
1.0
132
0.0
 79
     0
146
0.0
348
2F
 60
     3
 61
     5
292
     1
282
     1
141
0.0
142
0.0
 63
   250
361
3F
1001
ACAD_NAV_VCDISPLAY
1070
     3
  0
ENDTAB
  0
TABLE
  2
LTYPE
  5
5
330
0
100
AcDbSymbolTable
 70
     2
  0
LTYPE
  5
14
330
5
100
AcDbSymbolTableRecord
100
AcDbLinetypeTableRecord
  2
ByBlock
 70
     0
  3

 72
    65
 73
     0
 40
0.0
  0
LTYPE
  5
15
330
5
100
AcDbSymbolTableRecord
100
AcDbLinetypeTableRecord
  2
ByLayer
 70
     0
  3

 72
    65
 73
     0
 40
0.0
  0
LTYPE
  5
16
330
5
100
AcDbSymbolTableRecord
100
AcDbLinetypeTableRecord
  2
Continuous
 70
     0
  3
Solid line
 72
    65
 73
     0
 40
0.0
  0
ENDTAB
  0
TABLE
  2
LAYER
  5
2
102
{ACAD_XDICTIONARY
360
2E6
102
}
330
0
100
AcDbSymbolTable
 70
     2
  0
LAYER
  5
10
330
2
100
AcDbSymbolTableRecord
100
AcDbLayerTableRecord
  2
0
 70
     0
 62
     7
  6
Continuous
370
    -3
390
F
347
3E
348
0
  0
LAYER
  5
40
330
2
100
AcDbSymbolTableRecord
100
AcDbLayerTableRecord
  2
Livello 1
 70
     0
 62
     7
  6
Continuous
370
    -3
390
F
347
3E
348
0
  0
ENDTAB
  0
TABLE
  2
STYLE
  5
3
330
0
100
AcDbSymbolTable
 70
     1
  0
STYLE
  5
11
330
3
100
AcDbSymbolTableRecord
100
AcDbTextStyleTableRecord
  2
Standard
 70
     0
 40
0.0
 41
1.0
 50
0.0
 71
     0
 42
0.2
  3
txt
  4

  0
ENDTAB
  0
TABLE
  2
VIEW
  5
6
330
0
100
AcDbSymbolTable
 70
     0
  0
ENDTAB
  0
TABLE
  2
UCS
  5
7
330
0
100
AcDbSymbolTable
 70
     0
  0
ENDTAB
  0
TABLE
  2
APPID
  5
9
330
0
100
AcDbSymbolTable
 70
     7
  0
APPID
  5
12
330
9
100
AcDbSymbolTableRecord
100
AcDbRegAppTableRecord
  2
ACAD
 70
     0
  0
APPID
  5
1CA
330
9
100
AcDbSymbolTableRecord
100
AcDbRegAppTableRecord
  2
ACAD_NAV_VCDISPLAY
 70
     0
  0
APPID
  5
28D
330
9
100
AcDbSymbolTableRecord
100
AcDbRegAppTableRecord
  2
ACAD_EXEMPT_FROM_CAD_STANDARDS
 70
     0
  0
APPID
  5
2D9
330
9
100
AcDbSymbolTableRecord
100
AcDbRegAppTableRecord
  2
ACAD_MLEADERVER
 70
     0
  0
APPID
  5
34A
330
9
100
AcDbSymbolTableRecord
100
AcDbRegAppTableRecord
  2
AcadAnnotative
 70
     0
  0
APPID
  5
34B
330
9
100
AcDbSymbolTableRecord
100
AcDbRegAppTableRecord
  2
ACAD_DSTYLE_DIMJAG
 70
     0
  0
APPID
  5
34C
330
9
100
AcDbSymbolTableRecord
100
AcDbRegAppTableRecord
  2
ACAD_DSTYLE_DIMTALN
 70
     0
  0
ENDTAB
  0
TABLE
  2
DIMSTYLE
  5
A
330
0
100
AcDbSymbolTable
 70
     3
100
AcDbDimStyleTable
 71
     1
340
27
  0
DIMSTYLE
105
27
330
A
100
AcDbSymbolTableRecord
100
AcDbDimStyleTableRecord
  2
Standard
 70
     0
340
11
  0
DIMSTYLE
105
349
330
A
100
AcDbSymbolTableRecord
100
AcDbDimStyleTableRecord
  2
Annotativa
 70
     0
 40
0.0
340
11
1001
AcadAnnotative
1000
AnnotativeData
1002
{
1070
     1
1070
     1
1002
}
1001
ACAD_DSTYLE_DIMJAG
1070
   388
1040
1.5
1001
ACAD_DSTYLE_DIMTALN
1070
   392
1070
     0
  0
ENDTAB
  0
TABLE
  2
BLOCK_RECORD
  5
1
330
0
100
AcDbSymbolTable
 70
    45
  0
BLOCK_RECORD
  5
1F
102
{ACAD_XDICTIONARY
360
1D1
102
}
330
1
100
AcDbSymbolTableRecord
100
AcDbBlockTableRecord
  2
*Model_Space
340
22
 70
     0
280
     1
281
     0
  0
BLOCK_RECORD
  5
1B
330
1
100
AcDbSymbolTableRecord
100
AcDbBlockTableRecord
  2
*Paper_Space
340
1E
 70
     0
280
     1
281
     0
  0
BLOCK_RECORD
  5
23
330
1
100
AcDbSymbolTableRecord
100
AcDbBlockTableRecord
  2
*Paper_Space0
340
26
 70
     0
280
     1
281
     0
  0
BLOCK_RECORD
  5
41
330
1
100
AcDbSymbolTableRecord
100
AcDbBlockTableRecord
  2
block 2
340
0
 70
     0
280
     1
281
     0
  0
BLOCK_RECORD
  5
49
330
1
100
AcDbSymbolTableRecord
100
AcDbBlockTableRecord
  2
block 3
340
0
 70
     0
280
     1
281
     0
  0
BLOCK_RECORD
  5
51
330
1
100
AcDbSymbolTableRecord
100
AcDbBlockTableRecord
  2
block 4
340
0
 70
     0
280
     1
281
     0
  0
BLOCK_RECORD
  5
59
330
1
100
AcDbSymbolTableRecord
100
AcDbBlockTableRecord
  2
block 5
340
0
 70
     0
280
     1
281
     0
  0
BLOCK_RECORD
  5
5E
330
1
100
AcDbSymbolTableRecord
100
AcDbBlockTableRecord
  2
block 6
340
0
 70
     0
280
     1
281
     0
  0
BLOCK_RECORD
  5
66
330
1
100
AcDbSymbolTableRecord
100
AcDbBlockTableRecord
  2
block 7
340
0
 70
     0
280
     1
281
     0
  0
BLOCK_RECORD
  5
6E
330
1
100
AcDbSymbolTableRecord
100
AcDbBlockTableRecord
  2
block 8
340
0
 70
     0
280
     1
281
     0
  0
BLOCK_RECORD
  5
73
330
1
100
AcDbSymbolTableRecord
100
AcDbBlockTableRecord
  2
block 9
340
0
 70
     0
280
     1
281
     0
  0
BLOCK_RECORD
  5
78
330
1
100
AcDbSymbolTableRecord
100
AcDbBlockTableRecord
  2
block 10
340
0
 70
     0
280
     1
281
     0
  0
BLOCK_RECORD
  5
80
330
1
100
AcDbSymbolTableRecord
100
AcDbBlockTableRecord
  2
block 11
340
0
 70
     0
280
     1
281
     0
  0
BLOCK_RECORD
  5
85
330
1
100
AcDbSymbolTableRecord
100
AcDbBlockTableRecord
  2
block 12
340
0
 70
     0
280
     1
281
     0
  0
BLOCK_RECORD
  5
8D
330
1
100
AcDbSymbolTableRecord
100
AcDbBlockTableRecord
  2
block 13
340
0
 70
     0
280
     1
281
     0
  0
BLOCK_RECORD
  5
95
330
1
100
AcDbSymbolTableRecord
100
AcDbBlockTableRecord
  2
block 14
340
0
 70
     0
280
     1
281
     0
  0
BLOCK_RECORD
  5
9A
330
1
100
AcDbSymbolTableRecord
100
AcDbBlockTableRecord
  2
block 15
340
0
 70
     0
280
     1
281
     0
  0
BLOCK_RECORD
  5
9F
330
1
100
AcDbSymbolTableRecord
100
AcDbBlockTableRecord
  2
block 16
340
0
 70
     0
280
     1
281
     0
  0
BLOCK_RECORD
  5
A7
330
1
100
AcDbSymbolTableRecord
100
AcDbBlockTableRecord
  2
block 17
340
0
 70
     0
280
     1
281
     0
  0
BLOCK_RECORD
  5
AF
330
1
100
AcDbSymbolTableRecord
100
AcDbBlockTableRecord
  2
block 18
340
0
 70
     0
280
     1
281
     0
  0
BLOCK_RECORD
  5
B7
330
1
100
AcDbSymbolTableRecord
100
AcDbBlockTableRecord
  2
block 19
340
0
 70
     0
280
     1
281
     0
  0
BLOCK_RECORD
  5
BC
330
1
100
AcDbSymbolTableRecord
100
AcDbBlockTableRecord
  2
block 20
340
0
 70
     0
280
     1
281
     0
  0
BLOCK_RECORD
  5
C1
330
1
100
AcDbSymbolTableRecord
100
AcDbBlockTableRecord
  2
block 21
340
0
 70
     0
280
     1
281
     0
  0
BLOCK_RECORD
  5
C6
330
1
100
AcDbSymbolTableRecord
100
AcDbBlockTableRecord
  2
block 22
340
0
 70
     0
280
     1
281
     0
  0
BLOCK_RECORD
  5
D1
330
1
100
AcDbSymbolTableRecord
100
AcDbBlockTableRecord
  2
block 23
340
0
 70
     0
280
     1
281
     0
  0
BLOCK_RECORD
  5
DC
330
1
100
AcDbSymbolTableRecord
100
AcDbBlockTableRecord
  2
block 24
340
0
 70
     0
280
     1
281
     0
  0
BLOCK_RECORD
  5
E1
330
1
100
AcDbSymbolTableRecord
100
AcDbBlockTableRecord
  2
block 25
340
0
 70
     0
280
     1
281
     0
  0
BLOCK_RECORD
  5
E6
330
1
100
AcDbSymbolTableRecord
100
AcDbBlockTableRecord
  2
block 26
340
0
 70
     0
280
     1
281
     0
  0
BLOCK_RECORD
  5
EB
330
1
100
AcDbSymbolTableRecord
100
AcDbBlockTableRecord
  2
block 27
340
0
 70
     0
280
     1
281
     0
  0
BLOCK_RECORD
  5
F0
330
1
100
AcDbSymbolTableRecord
100
AcDbBlockTableRecord
  2
block 28
340
0
 70
     0
280
     1
281
     0
  0
BLOCK_RECORD
  5
F5
330
1
100
AcDbSymbolTableRecord
100
AcDbBlockTableRecord
  2
block 29
340
0
 70
     0
280
     1
281
     0
  0
BLOCK_RECORD
  5
FA
330
1
100
AcDbSymbolTableRecord
100
AcDbBlockTableRecord
  2
block 30
340
0
 70
     0
280
     1
281
     0
  0
BLOCK_RECORD
  5
102
330
1
100
AcDbSymbolTableRecord
100
AcDbBlockTableRecord
  2
block 31
340
0
 70
     0
280
     1
281
     0
  0
BLOCK_RECORD
  5
10A
330
1
100
AcDbSymbolTableRecord
100
AcDbBlockTableRecord
  2
block 32
340
0
 70
     0
280
     1
281
     0
  0
BLOCK_RECORD
  5
10F
330
1
100
AcDbSymbolTableRecord
100
AcDbBlockTableRecord
  2
block 33
340
0
 70
     0
280
     1
281
     0
  0
BLOCK_RECORD
  5
117
330
1
100
AcDbSymbolTableRecord
100
AcDbBlockTableRecord
  2
block 34
340
0
 70
     0
280
     1
281
     0
  0
BLOCK_RECORD
  5
11F
330
1
100
AcDbSymbolTableRecord
100
AcDbBlockTableRecord
  2
block 35
340
0
 70
     0
280
     1
281
     0
  0
BLOCK_RECORD
  5
12A
330
1
100
AcDbSymbolTableRecord
100
AcDbBlockTableRecord
  2
block 36
340
0
 70
     0
280
     1
281
     0
  0
BLOCK_RECORD
  5
135
330
1
100
AcDbSymbolTableRecord
100
AcDbBlockTableRecord
  2
block 37
340
0
 70
     0
280
     1
281
     0
  0
BLOCK_RECORD
  5
140
330
1
100
AcDbSymbolTableRecord
100
AcDbBlockTableRecord
  2
block 38
340
0
 70
     0
280
     1
281
     0
  0
BLOCK_RECORD
  5
14B
330
1
100
AcDbSymbolTableRecord
100
AcDbBlockTableRecord
  2
block 39
340
0
 70
     0
280
     1
281
     0
  0
BLOCK_RECORD
  5
156
330
1
100
AcDbSymbolTableRecord
100
AcDbBlockTableRecord
  2
block 40
340
0
 70
     0
280
     1
281
     0
  0
BLOCK_RECORD
  5
169
330
1
100
AcDbSymbolTableRecord
100
AcDbBlockTableRecord
  2
block 41
340
0
 70
     0
280
     1
281
     0
  0
BLOCK_RECORD
  5
18D
330
1
100
AcDbSymbolTableRecord
100
AcDbBlockTableRecord
  2
block 42
340
0
 70
     0
280
     1
281
     0
  0
BLOCK_RECORD
  5
198
330
1
100
AcDbSymbolTableRecord
100
AcDbBlockTableRecord
  2
block 43
340
0
102
{BLKREFS
331
199
102
}
 70
     0
280
     1
281
     0
  0
ENDTAB
  0
ENDSEC
  0
SECTION
  2
BLOCKS
  0
BLOCK
  5
20
330
1F
100
AcDbEntity
  8
0
100
AcDbBlockBegin
  2
*Model_Space
 70
     0
 10
0.0
 20
0.0
 30
0.0
  3
*Model_Space
  1

  0
ENDBLK
  5
21
330
1F
100
AcDbEntity
  8
0
100
AcDbBlockEnd
  0
BLOCK
  5
1C
330
1B
100
AcDbEntity
 67
     1
  8
0
100
AcDbBlockBegin
  2
*Paper_Space
 70
     0
 10
0.0
 20
0.0
 30
0.0
  3
*Paper_Space
  1

  0
ENDBLK
  5
1D
330
1B
100
AcDbEntity
 67
     1
  8
0
100
AcDbBlockEnd
  0
BLOCK
  5
24
330
23
100
AcDbEntity
 67
     1
  8
0
100
AcDbBlockBegin
  2
*Paper_Space0
 70
     0
 10
0.0
 20
0.0
 30
0.0
  3
*Paper_Space0
  1

  0
ENDBLK
  5
25
330
23
100
AcDbEntity
 67
     1
  8
0
100
AcDbBlockEnd
  0
BLOCK
  5
43
330
41
100
AcDbEntity
  8
0
100
AcDbBlockBegin
  2
block 2
 70
     0
 10
0.0
 20
0.0
 30
0.0
  3
block 2
  1

  0
POLYLINE
  5
45
330
41
100
AcDbEntity
  8
Livello 1
 62
   250
420
  1842203
370
    25
100
AcDb2dPolyline
 66
     1
 10
0.0
 20
0.0
 30
0.0
  0
VERTEX
  5
46
330
45
100
AcDbEntity
  8
Livello 1
 62
   250
420
  1842203
370
    25
100
AcDbVertex
100
AcDb2dVertex
 10
10.79958936336841
 20
-13.73227363545582
 30
0.0
  0
VERTEX
  5
47
330
45
100
AcDbEntity
  8
Livello 1
 62
   250
420
  1842203
370
    25
100
AcDbVertex
100
AcDb2dVertex
 10
12.66061909366736
 20
-13.73227363545582
 30
0.0
  0
SEQEND
  5
48
330
45
100
AcDbEntity
  8
Livello 1
 62
   250
420
  1842203
370
    25
  0
ENDBLK
  5
44
330
41
100
AcDbEntity
  8
0
100
AcDbBlockEnd
  0
BLOCK
  5
4B
330
49
100
AcDbEntity
  8
0
100
AcDbBlockBegin
  2
block 3
 70
     0
 10
0.0
 20
0.0
 30
0.0
  3
block 3
  1

  0
POLYLINE
  5
4D
330
49
100
AcDbEntity
  8
Livello 1
 62
   250
420
  1842203
370
    25
100
AcDb2dPolyline
 66
     1
 10
0.0
 20
0.0
 30
0.0
  0
VERTEX
  5
4E
330
4D
100
AcDbEntity
  8
Livello 1
 62
   250
420
  1842203
370
    25
100
AcDbVertex
100
AcDb2dVertex
 10
10.79958936336841
 20
-13.73227363545582
 30
0.0
  0
VERTEX
  5
4F
330
4D
100
AcDbEntity
  8
Livello 1
 62
   250
420
  1842203
370
    25
100
AcDbVertex
100
AcDb2dVertex
 10
10.79958936336841
 20
-9.016128636634872
 30
0.0
  0
SEQEND
  5
50
330
4D
100
AcDbEntity
  8
Livello 1
 62
   250
420
  1842203
370
    25
  0
ENDBLK
  5
4C
330
49
100
AcDbEntity
  8
0
100
AcDbBlockEnd
  0
BLOCK
  5
53
330
51
100
AcDbEntity
  8
0
100
AcDbBlockBegin
  2
block 4
 70
     0
 10
0.0
 20
0.0
 30
0.0
  3
block 4
  1

  0
POLYLINE
  5
55
330
51
100
AcDbEntity
  8
Livello 1
 62
   250
420
  1842203
370
    25
100
AcDb2dPolyline
 66
     1
 10
0.0
 20
0.0
 30
0.0
  0
VERTEX
  5
56
330
55
100
AcDbEntity
  8
Livello 1
 62
   250
420
  1842203
370
    25
100
AcDbVertex
100
AcDb2dVertex
 10
10.79958936336841
 20
-9.016128636634872
 30
0.0
  0
VERTEX
  5
57
330
55
100
AcDbEntity
  8
Livello 1
 62
   250
420
  1842203
370
    25
100
AcDbVertex
100
AcDb2dVertex
 10
11.58318639893274
 20
-9.016128636634872
 30
0.0
  0
SEQEND
  5
58
330
55
100
AcDbEntity
  8
Livello 1
 62
   250
420
  1842203
370
    25
  0
ENDBLK
  5
54
330
51
100
AcDbEntity
  8
0
100
AcDbBlockEnd
  0
BLOCK
  5
5B
330
59
100
AcDbEntity
  8
0
100
AcDbBlockBegin
  2
block 5
 70
     0
 10
0.0
 20
0.0
 30
0.0
  3
block 5
  1

  0
SPLINE
  5
5D
330
59
100
AcDbEntity
  8
Livello 1
 62
   250
420
  1842203
370
    25
100
AcDbSpline
210
0.0
220
0.0
230
1.0
 70
     8
 71
     3
 72
     8
 73
     4
 74
     0
 42
0.000000001
 43
0.0000000001
 40
0.0
 40
0.0
 40
0.0
 40
0.0
 40
1.0
 40
1.0
 40
1.0
 40
1.0
 10
11.40062743136798
 20
-8.599138247850225
 30
0.0
 10
11.50145131768464
 20
-8.599138247850225
 30
0.0
 10
11.58318639893274
 20
-8.680869803385334
 30
0.0
 10
11.58318639893274
 20
-8.781697220026808
 30
0.0
  0
ENDBLK
  5
5C
330
59
100
AcDbEntity
  8
0
100
AcDbBlockEnd
  0
BLOCK
  5
60
330
5E
100
AcDbEntity
  8
0
100
AcDbBlockBegin
  2
block 6
 70
     0
 10
0.0
 20
0.0
 30
0.0
  3
block 6
  1

  0
POLYLINE
  5
62
330
5E
100
AcDbEntity
  8
Livello 1
 62
   250
420
  1842203
370
    25
100
AcDb2dPolyline
 66
     1
 10
0.0
 20
0.0
 30
0.0
  0
VERTEX
  5
63
330
62
100
AcDbEntity
  8
Livello 1
 62
   250
420
  1842203
370
    25
100
AcDbVertex
100
AcDb2dVertex
 10
11.58318639893274
 20
-8.781697220026808
 30
0.0
  0
VERTEX
  5
64
330
62
100
AcDbEntity
  8
Livello 1
 62
   250
420
  1842203
370
    25
100
AcDbVertex
100
AcDb2dVertex
 10
11.58318639893274
 20
-9.016128636634872
 30
0.0
  0
SEQEND
  5
65
330
62
100
AcDbEntity
  8
Livello 1
 62
   250
420
  1842203
370
    25
  0
ENDBLK
  5
61
330
5E
100
AcDbEntity
  8
0
100
AcDbBlockEnd
  0
BLOCK
  5
68
330
66
100
AcDbEntity
  8
0
100
AcDbBlockBegin
  2
block 7
 70
     0
 10
0.0
 20
0.0
 30
0.0
  3
block 7
  1

  0
POLYLINE
  5
6A
330
66
100
AcDbEntity
  8
Livello 1
 62
   250
420
  1842203
370
    25
100
AcDb2dPolyline
 66
     1
 10
0.0
 20
0.0
 30
0.0
  0
VERTEX
  5
6B
330
6A
100
AcDbEntity
  8
Livello 1
 62
   250
420
  1842203
370
    25
100
AcDbVertex
100
AcDb2dVertex
 10
11.58318639893274
 20
-9.016128636634872
 30
0.0
  0
VERTEX
  5
6C
330
6A
100
AcDbEntity
  8
Livello 1
 62
   250
420
  1842203
370
    25
100
AcDbVertex
100
AcDb2dVertex
 10
11.58318639893274
 20
-10.77019619175187
 30
0.0
  0
SEQEND
  5
6D
330
6A
100
AcDbEntity
  8
Livello 1
 62
   250
420
  1842203
370
    25
  0
ENDBLK
  5
69
330
66
100
AcDbEntity
  8
0
100
AcDbBlockEnd
  0
BLOCK
  5
70
330
6E
100
AcDbEntity
  8
0
100
AcDbBlockBegin
  2
block 8
 70
     0
 10
0.0
 20
0.0
 30
0.0
  3
block 8
  1

  0
SPLINE
  5
72
330
6E
100
AcDbEntity
  8
Livello 1
 62
   250
420
  1842203
370
    25
100
AcDbSpline
210
0.0
220
0.0
230
1.0
 70
     8
 71
     3
 72
     8
 73
     4
 74
     0
 42
0.000000001
 43
0.0000000001
 40
0.0
 40
0.0
 40
0.0
 40
0.0
 40
1.0
 40
1.0
 40
1.0
 40
1.0
 10
11.58318639893274
 20
-10.77019619175187
 30
0.0
 10
11.58318639893274
 20
-10.85133508062052
 30
0.0
 10
11.64896181392134
 20
-10.91711402504848
 30
0.0
 10
11.73010422851789
 20
-10.91711402504848
 30
0.0
  0
ENDBLK
  5
71
330
6E
100
AcDbEntity
  8
0
100
AcDbBlockEnd
  0
BLOCK
  5
75
330
73
100
AcDbEntity
  8
0
100
AcDbBlockBegin
  2
block 9
 70
     0
 10
0.0
 20
0.0
 30
0.0
  3
block 9
  1

  0
SPLINE
  5
77
330
73
100
AcDbEntity
  8
Livello 1
 62
   250
420
  1842203
370
    25
100
AcDbSpline
210
0.0
220
0.0
230
1.0
 70
     8
 71
     3
 72
     8
 73
     4
 74
     0
 42
0.000000001
 43
0.0000000001
 40
0.0
 40
0.0
 40
0.0
 40
0.0
 40
1.0
 40
1.0
 40
1.0
 40
1.0
 10
11.58318639893274
 20
-10.89921408060856
 30
0.0
 10
11.58318639893274
 20
-10.98035296947714
 30
0.0
 10
11.64896181392134
 20
-11.0461319139051
 30
0.0
 10
11.73010422851789
 20
-11.0461319139051
 30
0.0
  0
ENDBLK
  5
76
330
73
100
AcDbEntity
  8
0
100
AcDbBlockEnd
  0
BLOCK
  5
7A
330
78
100
AcDbEntity
  8
0
100
AcDbBlockBegin
  2
block 10
 70
     0
 10
0.0
 20
0.0
 30
0.0
  3
block 10
  1

  0
POLYLINE
  5
7C
330
78
100
AcDbEntity
  8
Livello 1
 62
   250
420
  1842203
370
    25
100
AcDb2dPolyline
 66
     1
 10
0.0
 20
0.0
 30
0.0
  0
VERTEX
  5
7D
330
7C
100
AcDbEntity
  8
Livello 1
 62
   250
420
  1842203
370
    25
100
AcDbVertex
100
AcDb2dVertex
 10
11.58318639893274
 20
-10.89921408060856
 30
0.0
  0
VERTEX
  5
7E
330
7C
100
AcDbEntity
  8
Livello 1
 62
   250
420
  1842203
370
    25
100
AcDbVertex
100
AcDb2dVertex
 10
11.58318639893274
 20
-10.77019619175187
 30
0.0
  0
SEQEND
  5
7F
330
7C
100
AcDbEntity
  8
Livello 1
 62
   250
420
  1842203
370
    25
  0
ENDBLK
  5
7B
330
78
100
AcDbEntity
  8
0
100
AcDbBlockEnd
  0
BLOCK
  5
82
330
80
100
AcDbEntity
  8
0
100
AcDbBlockBegin
  2
block 11
 70
     0
 10
0.0
 20
0.0
 30
0.0
  3
block 11
  1

  0
SPLINE
  5
84
330
80
100
AcDbEntity
  8
Livello 1
 62
   250
420
  1842203
370
    25
100
AcDbSpline
210
0.0
220
0.0
230
1.0
 70
     8
 71
     3
 72
     8
 73
     4
 74
     0
 42
0.000000001
 43
0.0000000001
 40
0.0
 40
0.0
 40
0.0
 40
0.0
 40
1.0
 40
1.0
 40
1.0
 40
1.0
 10
12.05958102566779
 20
-8.599138247850225
 30
0.0
 10
11.95875713935113
 20
-8.599138247850225
 30
0.0
 10
11.87702205810303
 20
-8.680869803385334
 30
0.0
 10
11.87702205810303
 20
-8.781697220026808
 30
0.0
  0
ENDBLK
  5
83
330
80
100
AcDbEntity
  8
0
100
AcDbBlockEnd
  0
BLOCK
  5
87
330
85
100
AcDbEntity
  8
0
100
AcDbBlockBegin
  2
block 12
 70
     0
 10
0.0
 20
0.0
 30
0.0
  3
block 12
  1

  0
POLYLINE
  5
89
330
85
100
AcDbEntity
  8
Livello 1
 62
   250
420
  1842203
370
    25
100
AcDb2dPolyline
 66
     1
 10
0.0
 20
0.0
 30
0.0
  0
VERTEX
  5
8A
330
89
100
AcDbEntity
  8
Livello 1
 62
   250
420
  1842203
370
    25
100
AcDbVertex
100
AcDb2dVertex
 10
11.87702205810303
 20
-8.781697220026808
 30
0.0
  0
VERTEX
  5
8B
330
89
100
AcDbEntity
  8
Livello 1
 62
   250
420
  1842203
370
    25
100
AcDbVertex
100
AcDb2dVertex
 10
11.87702205810303
 20
-9.016128636634872
 30
0.0
  0
SEQEND
  5
8C
330
89
100
AcDbEntity
  8
Livello 1
 62
   250
420
  1842203
370
    25
  0
ENDBLK
  5
88
330
85
100
AcDbEntity
  8
0
100
AcDbBlockEnd
  0
BLOCK
  5
8F
330
8D
100
AcDbEntity
  8
0
100
AcDbBlockBegin
  2
block 13
 70
     0
 10
0.0
 20
0.0
 30
0.0
  3
block 13
  1

  0
POLYLINE
  5
91
330
8D
100
AcDbEntity
  8
Livello 1
 62
   250
420
  1842203
370
    25
100
AcDb2dPolyline
 66
     1
 10
0.0
 20
0.0
 30
0.0
  0
VERTEX
  5
92
330
91
100
AcDbEntity
  8
Livello 1
 62
   250
420
  1842203
370
    25
100
AcDbVertex
100
AcDb2dVertex
 10
11.87702205810303
 20
-9.016128636634872
 30
0.0
  0
VERTEX
  5
93
330
91
100
AcDbEntity
  8
Livello 1
 62
   250
420
  1842203
370
    25
100
AcDbVertex
100
AcDb2dVertex
 10
11.87702205810303
 20
-10.77019619175187
 30
0.0
  0
SEQEND
  5
94
330
91
100
AcDbEntity
  8
Livello 1
 62
   250
420
  1842203
370
    25
  0
ENDBLK
  5
90
330
8D
100
AcDbEntity
  8
0
100
AcDbBlockEnd
  0
BLOCK
  5
97
330
95
100
AcDbEntity
  8
0
100
AcDbBlockBegin
  2
block 14
 70
     0
 10
0.0
 20
0.0
 30
0.0
  3
block 14
  1

  0
SPLINE
  5
99
330
95
100
AcDbEntity
  8
Livello 1
 62
   250
420
  1842203
370
    25
100
AcDbSpline
210
0.0
220
0.0
230
1.0
 70
     8
 71
     3
 72
     8
 73
     4
 74
     0
 42
0.000000001
 43
0.0000000001
 40
0.0
 40
0.0
 40
0.0
 40
0.0
 40
1.0
 40
1.0
 40
1.0
 40
1.0
 10
11.73010422851789
 20
-10.91711402504848
 30
0.0
 10
11.81124311533675
 20
-10.91711402504848
 30
0.0
 10
11.87702205810303
 20
-10.85133508062052
 30
0.0
 10
11.87702205810303
 20
-10.77019619175187
 30
0.0
  0
ENDBLK
  5
98
330
95
100
AcDbEntity
  8
0
100
AcDbBlockEnd
  0
BLOCK
  5
9C
330
9A
100
AcDbEntity
  8
0
100
AcDbBlockBegin
  2
block 15
 70
     0
 10
0.0
 20
0.0
 30
0.0
  3
block 15
  1

  0
SPLINE
  5
9E
330
9A
100
AcDbEntity
  8
Livello 1
 62
   250
420
  1842203
370
    25
100
AcDbSpline
210
0.0
220
0.0
230
1.0
 70
     8
 71
     3
 72
     8
 73
     4
 74
     0
 42
0.000000001
 43
0.0000000001
 40
0.0
 40
0.0
 40
0.0
 40
0.0
 40
1.0
 40
1.0
 40
1.0
 40
1.0
 10
11.73010422851789
 20
-11.0461319139051
 30
0.0
 10
11.81124311533675
 20
-11.0461319139051
 30
0.0
 10
11.87702205810303
 20
-10.98035296947714
 30
0.0
 10
11.87702205810303
 20
-10.89921408060856
 30
0.0
  0
ENDBLK
  5
9D
330
9A
100
AcDbEntity
  8
0
100
AcDbBlockEnd
  0
BLOCK
  5
A1
330
9F
100
AcDbEntity
  8
0
100
AcDbBlockBegin
  2
block 16
 70
     0
 10
0.0
 20
0.0
 30
0.0
  3
block 16
  1

  0
POLYLINE
  5
A3
330
9F
100
AcDbEntity
  8
Livello 1
 62
   250
420
  1842203
370
    25
100
AcDb2dPolyline
 66
     1
 10
0.0
 20
0.0
 30
0.0
  0
VERTEX
  5
A4
330
A3
100
AcDbEntity
  8
Livello 1
 62
   250
420
  1842203
370
    25
100
AcDbVertex
100
AcDb2dVertex
 10
11.87702205810303
 20
-10.89921408060856
 30
0.0
  0
VERTEX
  5
A5
330
A3
100
AcDbEntity
  8
Livello 1
 62
   250
420
  1842203
370
    25
100
AcDbVertex
100
AcDb2dVertex
 10
11.87702205810303
 20
-10.77019619175187
 30
0.0
  0
SEQEND
  5
A6
330
A3
100
AcDbEntity
  8
Livello 1
 62
   250
420
  1842203
370
    25
  0
ENDBLK
  5
A2
330
9F
100
AcDbEntity
  8
0
100
AcDbBlockEnd
  0
BLOCK
  5
A9
330
A7
100
AcDbEntity
  8
0
100
AcDbBlockBegin
  2
block 17
 70
     0
 10
0.0
 20
0.0
 30
0.0
  3
block 17
  1

  0
POLYLINE
  5
AB
330
A7
100
AcDbEntity
  8
Livello 1
 62
   250
420
  1842203
370
    25
100
AcDb2dPolyline
 66
     1
 10
0.0
 20
0.0
 30
0.0
  0
VERTEX
  5
AC
330
AB
100
AcDbEntity
  8
Livello 1
 62
   250
420
  1842203
370
    25
100
AcDbVertex
100
AcDb2dVertex
 10
12.66061909366736
 20
-13.73227363545582
 30
0.0
  0
VERTEX
  5
AD
330
AB
100
AcDbEntity
  8
Livello 1
 62
   250
420
  1842203
370
    25
100
AcDbVertex
100
AcDb2dVertex
 10
12.66061909366736
 20
-9.016128636634872
 30
0.0
  0
SEQEND
  5
AE
330
AB
100
AcDbEntity
  8
Livello 1
 62
   250
420
  1842203
370
    25
  0
ENDBLK
  5
AA
330
A7
100
AcDbEntity
  8
0
100
AcDbBlockEnd
  0
BLOCK
  5
B1
330
AF
100
AcDbEntity
  8
0
100
AcDbBlockBegin
  2
block 18
 70
     0
 10
0.0
 20
0.0
 30
0.0
  3
block 18
  1

  0
POLYLINE
  5
B3
330
AF
100
AcDbEntity
  8
Livello 1
 62
   250
420
  1842203
370
    25
100
AcDb2dPolyline
 66
     1
 10
0.0
 20
0.0
 30
0.0
  0
VERTEX
  5
B4
330
B3
100
AcDbEntity
  8
Livello 1
 62
   250
420
  1842203
370
    25
100
AcDbVertex
100
AcDb2dVertex
 10
12.66061909366736
 20
-9.016128636634872
 30
0.0
  0
VERTEX
  5
B5
330
B3
100
AcDbEntity
  8
Livello 1
 62
   250
420
  1842203
370
    25
100
AcDbVertex
100
AcDb2dVertex
 10
11.87702205810303
 20
-9.016128636634872
 30
0.0
  0
SEQEND
  5
B6
330
B3
100
AcDbEntity
  8
Livello 1
 62
   250
420
  1842203
370
    25
  0
ENDBLK
  5
B2
330
AF
100
AcDbEntity
  8
0
100
AcDbBlockEnd
  0
BLOCK
  5
B9
330
B7
100
AcDbEntity
  8
0
100
AcDbBlockBegin
  2
block 19
 70
     0
 10
0.0
 20
0.0
 30
0.0
  3
block 19
  1

  0
SPLINE
  5
BB
330
B7
100
AcDbEntity
  8
Livello 1
 62
   250
420
  1842203
370
    25
100
AcDbSpline
210
0.0
220
0.0
230
1.0
 70
     9
 71
     3
 72
    20
 73
    16
 74
     0
 42
0.000000001
 43
0.0000000001
 40
0.0
 40
0.0
 40
0.0
 40
0.0
 40
1.0
 40
1.0
 40
1.0
 40
2.0
 40
2.0
 40
2.0
 40
3.0
 40
3.0
 40
3.0
 40
4.0
 40
4.0
 40
4.0
 40
5.0
 40
5.0
 40
5.0
 40
5.0
 10
16.59620435437333
 20
-10.6292050251205
 30
0.0
 10
16.59620435437333
 20
-10.1061766919179
 30
0.0
 10
17.02020089911183
 20
-9.682176608690561
 30
0.0
 10
17.5432292191016
 20
-9.682176608690561
 30
0.0
 10
18.06625753909137
 20
-9.682176608690561
 30
0.0
 10
18.49025761160756
 20
-10.1061766919179
 30
0.0
 10
18.49025761160756
 20
-10.6292050251205
 30
0.0
 10
18.49025761160756
 20
-11.15223335832305
 30
0.0
 10
18.06625753909137
 20
-11.5762299137726
 30
0.0
 10
17.5432292191016
 20
-11.5762299137726
 30
0.0
 10
17.02020089911183
 20
-11.5762299137726
 30
0.0
 10
16.59620435437333
 20
-11.15223335832305
 30
0.0
 10
16.59620435437333
 20
-10.6292050251205
 30
0.0
 10
16.59620435437333
 20
-10.6292050251205
 30
0.0
 10
16.59620435437333
 20
-10.6292050251205
 30
0.0
 10
16.59620435437333
 20
-10.6292050251205
 30
0.0
  0
ENDBLK
  5
BA
330
B7
100
AcDbEntity
  8
0
100
AcDbBlockEnd
  0
BLOCK
  5
BE
330
BC
100
AcDbEntity
  8
0
100
AcDbBlockBegin
  2
block 20
 70
     0
 10
0.0
 20
0.0
 30
0.0
  3
block 20
  1

  0
SPLINE
  5
C0
330
BC
100
AcDbEntity
  8
Livello 1
 62
   250
420
  1842203
370
    25
100
AcDbSpline
210
0.0
220
0.0
230
1.0
 70
     9
 71
     3
 72
    20
 73
    16
 74
     0
 42
0.000000001
 43
0.0000000001
 40
0.0
 40
0.0
 40
0.0
 40
0.0
 40
1.0
 40
1.0
 40
1.0
 40
2.0
 40
2.0
 40
2.0
 40
3.0
 40
3.0
 40
3.0
 40
4.0
 40
4.0
 40
4.0
 40
5.0
 40
5.0
 40
5.0
 40
5.0
 10
17.04187203744784
 20
-10.6292050251205
 30
0.0
 10
17.04187203744784
 20
-10.35230974741191
 30
0.0
 10
17.2663374761657
 20
-10.12784430302359
 30
0.0
 10
17.5432292191016
 20
-10.12784430302359
 30
0.0
 10
17.82012448981519
 20
-10.12784430302359
 30
0.0
 10
18.04458992853305
 20
-10.35230974741191
 30
0.0
 10
18.04458992853305
 20
-10.6292050251205
 30
0.0
 10
18.04458992853305
 20
-10.90609677505125
 30
0.0
 10
17.82012448981519
 20
-11.1305622194396
 30
0.0
 10
17.5432292191016
 20
-11.1305622194396
 30
0.0
 10
17.2663374761657
 20
-11.1305622194396
 30
0.0
 10
17.04187203744784
 20
-10.90609677505125
 30
0.0
 10
17.04187203744784
 20
-10.6292050251205
 30
0.0
 10
17.04187203744784
 20
-10.6292050251205
 30
0.0
 10
17.04187203744784
 20
-10.6292050251205
 30
0.0
 10
17.04187203744784
 20
-10.6292050251205
 30
0.0
  0
ENDBLK
  5
BF
330
BC
100
AcDbEntity
  8
0
100
AcDbBlockEnd
  0
BLOCK
  5
C3
330
C1
100
AcDbEntity
  8
0
100
AcDbBlockBegin
  2
block 21
 70
     0
 10
0.0
 20
0.0
 30
0.0
  3
block 21
  1

  0
SPLINE
  5
C5
330
C1
100
AcDbEntity
  8
Livello 1
 62
   250
420
  1842203
370
    25
100
AcDbSpline
210
0.0
220
0.0
230
1.0
 70
     9
 71
     3
 72
    20
 73
    16
 74
     0
 42
0.000000001
 43
0.0000000001
 40
0.0
 40
0.0
 40
0.0
 40
0.0
 40
1.0
 40
1.0
 40
1.0
 40
2.0
 40
2.0
 40
2.0
 40
3.0
 40
3.0
 40
3.0
 40
4.0
 40
4.0
 40
4.0
 40
5.0
 40
5.0
 40
5.0
 40
5.0
 10
17.08484389746265
 20
-10.6292050251205
 30
0.0
 10
17.08484389746265
 20
-10.37604463629488
 30
0.0
 10
17.29007236444906
 20
-10.17081616412396
 30
0.0
 10
17.5432292191016
 20
-10.17081616412396
 30
0.0
 10
17.79638960153183
 20
-10.17081616412396
 30
0.0
 10
18.00161499549957
 20
-10.37604463629488
 30
0.0
 10
18.00161499549957
 20
-10.6292050251205
 30
0.0
 10
18.00161499549957
 20
-10.88236188616828
 30
0.0
 10
17.79638960153183
 20
-11.08759035833923
 30
0.0
 10
17.5432292191016
 20
-11.08759035833923
 30
0.0
 10
17.29007236444906
 20
-11.08759035833923
 30
0.0
 10
17.08484389746265
 20
-10.88236188616828
 30
0.0
 10
17.08484389746265
 20
-10.6292050251205
 30
0.0
 10
17.08484389746265
 20
-10.6292050251205
 30
0.0
 10
17.08484389746265
 20
-10.6292050251205
 30
0.0
 10
17.08484389746265
 20
-10.6292050251205
 30
0.0
  0
ENDBLK
  5
C4
330
C1
100
AcDbEntity
  8
0
100
AcDbBlockEnd
  0
BLOCK
  5
C8
330
C6
100
AcDbEntity
  8
0
100
AcDbBlockBegin
  2
block 22
 70
     0
 10
0.0
 20
0.0
 30
0.0
  3
block 22
  1

  0
POLYLINE
  5
CA
330
C6
100
AcDbEntity
  8
Livello 1
 62
   250
420
  1842203
370
    25
100
AcDb2dPolyline
 66
     1
 10
0.0
 20
0.0
 30
0.0
  0
VERTEX
  5
CB
330
CA
100
AcDbEntity
  8
Livello 1
 62
   250
420
  1842203
370
    25
100
AcDbVertex
100
AcDb2dVertex
 10
10.37398415200428
 20
-7.893212275804473
 30
0.0
  0
VERTEX
  5
CC
330
CA
100
AcDbEntity
  8
Livello 1
 62
   250
420
  1842203
370
    25
100
AcDbVertex
100
AcDb2dVertex
 10
13.08622430503149
 20
-7.893212275804473
 30
0.0
  0
VERTEX
  5
CD
330
CA
100
AcDbEntity
  8
Livello 1
 62
   250
420
  1842203
370
    25
100
AcDbVertex
100
AcDb2dVertex
 10
13.08622430503149
 20
-8.492793386765692
 30
0.0
  0
VERTEX
  5
CE
330
CA
100
AcDbEntity
  8
Livello 1
 62
   250
420
  1842203
370
    25
100
AcDbVertex
100
AcDb2dVertex
 10
10.37398415200428
 20
-8.492793386765692
 30
0.0
  0
VERTEX
  5
CF
330
CA
100
AcDbEntity
  8
Livello 1
 62
   250
420
  1842203
370
    25
100
AcDbVertex
100
AcDb2dVertex
 10
10.37398415200428
 20
-7.893212275804473
 30
0.0
  0
SEQEND
  5
D0
330
CA
100
AcDbEntity
  8
Livello 1
 62
   250
420
  1842203
370
    25
  0
ENDBLK
  5
C9
330
C6
100
AcDbEntity
  8
0
100
AcDbBlockEnd
  0
BLOCK
  5
D3
330
D1
100
AcDbEntity
  8
0
100
AcDbBlockBegin
  2
block 23
 70
     0
 10
0.0
 20
0.0
 30
0.0
  3
block 23
  1

  0
POLYLINE
  5
D5
330
D1
100
AcDbEntity
  8
Livello 1
 62
   250
420
  1842203
370
    25
100
AcDb2dPolyline
 66
     1
 10
0.0
 20
0.0
 30
0.0
  0
VERTEX
  5
D6
330
D5
100
AcDbEntity
  8
Livello 1
 62
   250
420
  1842203
370
    25
100
AcDbVertex
100
AcDb2dVertex
 10
13.48777007256498
 20
-8.599138247850225
 30
0.0
  0
VERTEX
  5
D7
330
D5
100
AcDbEntity
  8
Livello 1
 62
   250
420
  1842203
370
    25
100
AcDbVertex
100
AcDb2dVertex
 10
9.972438384470786
 20
-8.599138247850225
 30
0.0
  0
VERTEX
  5
D8
330
D5
100
AcDbEntity
  8
Livello 1
 62
   250
420
  1842203
370
    25
100
AcDbVertex
100
AcDb2dVertex
 10
9.972438384470786
 20
-8.492793386765692
 30
0.0
  0
VERTEX
  5
D9
330
D5
100
AcDbEntity
  8
Livello 1
 62
   250
420
  1842203
370
    25
100
AcDbVertex
100
AcDb2dVertex
 10
13.48777007256498
 20
-8.492793386765692
 30
0.0
  0
VERTEX
  5
DA
330
D5
100
AcDbEntity
  8
Livello 1
 62
   250
420
  1842203
370
    25
100
AcDbVertex
100
AcDb2dVertex
 10
13.48777007256498
 20
-8.599138247850225
 30
0.0
  0
SEQEND
  5
DB
330
D5
100
AcDbEntity
  8
Livello 1
 62
   250
420
  1842203
370
    25
  0
ENDBLK
  5
D4
330
D1
100
AcDbEntity
  8
0
100
AcDbBlockEnd
  0
BLOCK
  5
DE
330
DC
100
AcDbEntity
  8
0
100
AcDbBlockBegin
  2
block 24
 70
     0
 10
0.0
 20
0.0
 30
0.0
  3
block 24
  1

  0
SPLINE
  5
E0
330
DC
100
AcDbEntity
  8
Livello 1
 62
   250
420
  1842203
370
    25
100
AcDbSpline
210
0.0
220
0.0
230
1.0
 70
     9
 71
     3
 72
    20
 73
    16
 74
     0
 42
0.000000001
 43
0.0000000001
 40
0.0
 40
0.0
 40
0.0
 40
0.0
 40
1.0
 40
1.0
 40
1.0
 40
2.0
 40
2.0
 40
2.0
 40
3.0
 40
3.0
 40
3.0
 40
4.0
 40
4.0
 40
4.0
 40
5.0
 40
5.0
 40
5.0
 40
5.0
 10
17.11535564668423
 20
-10.6292050251205
 30
0.0
 10
17.11535564668423
 20
-10.39289683073512
 30
0.0
 10
17.30692103068588
 20
-10.20132791411635
 30
0.0
 10
17.5432292191016
 20
-10.20132791411635
 30
0.0
 10
17.77953740751732
 20
-10.20132791411635
 30
0.0
 10
17.97110279151897
 20
-10.39289683073512
 30
0.0
 10
17.97110279151897
 20
-10.6292050251205
 30
0.0
 10
17.97110279151897
 20
-10.86551321950582
 30
0.0
 10
17.77953740751732
 20
-11.05707860834684
 30
0.0
 10
17.5432292191016
 20
-11.05707860834684
 30
0.0
 10
17.30692103068588
 20
-11.05707860834684
 30
0.0
 10
17.11535564668423
 20
-10.86551321950582
 30
0.0
 10
17.11535564668423
 20
-10.6292050251205
 30
0.0
 10
17.11535564668423
 20
-10.6292050251205
 30
0.0
 10
17.11535564668423
 20
-10.6292050251205
 30
0.0
 10
17.11535564668423
 20
-10.6292050251205
 30
0.0
  0
ENDBLK
  5
DF
330
DC
100
AcDbEntity
  8
0
100
AcDbBlockEnd
  0
BLOCK
  5
E3
330
E1
100
AcDbEntity
  8
0
100
AcDbBlockBegin
  2
block 25
 70
     0
 10
0.0
 20
0.0
 30
0.0
  3
block 25
  1

  0
SPLINE
  5
E5
330
E1
100
AcDbEntity
  8
Livello 1
 62
   250
420
  1842203
370
    25
100
AcDbSpline
210
0.0
220
0.0
230
1.0
 70
     9
 71
     3
 72
    20
 73
    16
 74
     0
 42
0.000000001
 43
0.0000000001
 40
0.0
 40
0.0
 40
0.0
 40
0.0
 40
1.0
 40
1.0
 40
1.0
 40
2.0
 40
2.0
 40
2.0
 40
3.0
 40
3.0
 40
3.0
 40
4.0
 40
4.0
 40
4.0
 40
5.0
 40
5.0
 40
5.0
 40
5.0
 10
16.59620435437333
 20
-12.72198863570837
 30
0.0
 10
16.59620435437333
 20
-12.19896030250582
 30
0.0
 10
17.02020089911183
 20
-11.77496021927846
 30
0.0
 10
17.5432292191016
 20
-11.77496021927846
 30
0.0
 10
18.06625753909137
 20
-11.77496021927846
 30
0.0
 10
18.49025761160756
 20
-12.19896030250582
 30
0.0
 10
18.49025761160756
 20
-12.72198863570837
 30
0.0
 10
18.49025761160756
 20
-13.24501696891097
 30
0.0
 10
18.06625753909137
 20
-13.66901352436052
 30
0.0
 10
17.5432292191016
 20
-13.66901352436052
 30
0.0
 10
17.02020089911183
 20
-13.66901352436052
 30
0.0
 10
16.59620435437333
 20
-13.24501696891097
 30
0.0
 10
16.59620435437333
 20
-12.72198863570837
 30
0.0
 10
16.59620435437333
 20
-12.72198863570837
 30
0.0
 10
16.59620435437333
 20
-12.72198863570837
 30
0.0
 10
16.59620435437333
 20
-12.72198863570837
 30
0.0
  0
ENDBLK
  5
E4
330
E1
100
AcDbEntity
  8
0
100
AcDbBlockEnd
  0
BLOCK
  5
E8
330
E6
100
AcDbEntity
  8
0
100
AcDbBlockBegin
  2
block 26
 70
     0
 10
0.0
 20
0.0
 30
0.0
  3
block 26
  1

  0
SPLINE
  5
EA
330
E6
100
AcDbEntity
  8
Livello 1
 62
   250
420
  1842203
370
    25
100
AcDbSpline
210
0.0
220
0.0
230
1.0
 70
     9
 71
     3
 72
    20
 73
    16
 74
     0
 42
0.000000001
 43
0.0000000001
 40
0.0
 40
0.0
 40
0.0
 40
0.0
 40
1.0
 40
1.0
 40
1.0
 40
2.0
 40
2.0
 40
2.0
 40
3.0
 40
3.0
 40
3.0
 40
4.0
 40
4.0
 40
4.0
 40
5.0
 40
5.0
 40
5.0
 40
5.0
 10
17.04187203744784
 20
-12.72198863570837
 30
0.0
 10
17.04187203744784
 20
-12.44509335799987
 30
0.0
 10
17.2663374761657
 20
-12.22062791361151
 30
0.0
 10
17.5432292191016
 20
-12.22062791361151
 30
0.0
 10
17.82012448981519
 20
-12.22062791361151
 30
0.0
 10
18.04458992853305
 20
-12.44509335799987
 30
0.0
 10
18.04458992853305
 20
-12.72198863570837
 30
0.0
 10
18.04458992853305
 20
-12.99888038563917
 30
0.0
 10
17.82012448981519
 20
-13.22334583002747
 30
0.0
 10
17.5432292191016
 20
-13.22334583002747
 30
0.0
 10
17.2663374761657
 20
-13.22334583002747
 30
0.0
 10
17.04187203744784
 20
-12.99888038563917
 30
0.0
 10
17.04187203744784
 20
-12.72198863570837
 30
0.0
 10
17.04187203744784
 20
-12.72198863570837
 30
0.0
 10
17.04187203744784
 20
-12.72198863570837
 30
0.0
 10
17.04187203744784
 20
-12.72198863570837
 30
0.0
  0
ENDBLK
  5
E9
330
E6
100
AcDbEntity
  8
0
100
AcDbBlockEnd
  0
BLOCK
  5
ED
330
EB
100
AcDbEntity
  8
0
100
AcDbBlockBegin
  2
block 27
 70
     0
 10
0.0
 20
0.0
 30
0.0
  3
block 27
  1

  0
SPLINE
  5
EF
330
EB
100
AcDbEntity
  8
Livello 1
 62
   250
420
  1842203
370
    25
100
AcDbSpline
210
0.0
220
0.0
230
1.0
 70
     9
 71
     3
 72
    20
 73
    16
 74
     0
 42
0.000000001
 43
0.0000000001
 40
0.0
 40
0.0
 40
0.0
 40
0.0
 40
1.0
 40
1.0
 40
1.0
 40
2.0
 40
2.0
 40
2.0
 40
3.0
 40
3.0
 40
3.0
 40
4.0
 40
4.0
 40
4.0
 40
5.0
 40
5.0
 40
5.0
 40
5.0
 10
17.08484389746265
 20
-12.72198863570837
 30
0.0
 10
17.08484389746265
 20
-12.46882824688277
 30
0.0
 10
17.29007236444906
 20
-12.26359977471189
 30
0.0
 10
17.5432292191016
 20
-12.26359977471189
 30
0.0
 10
17.79638960153183
 20
-12.26359977471189
 30
0.0
 10
18.00161499549957
 20
-12.46882824688277
 30
0.0
 10
18.00161499549957
 20
-12.72198863570837
 30
0.0
 10
18.00161499549957
 20
-12.97514549675621
 30
0.0
 10
17.79638960153183
 20
-13.18037396892716
 30
0.0
 10
17.5432292191016
 20
-13.18037396892716
 30
0.0
 10
17.29007236444906
 20
-13.18037396892716
 30
0.0
 10
17.08484389746265
 20
-12.97514549675621
 30
0.0
 10
17.08484389746265
 20
-12.72198863570837
 30
0.0
 10
17.08484389746265
 20
-12.72198863570837
 30
0.0
 10
17.08484389746265
 20
-12.72198863570837
 30
0.0
 10
17.08484389746265
 20
-12.72198863570837
 30
0.0
  0
ENDBLK
  5
EE
330
EB
100
AcDbEntity
  8
0
100
AcDbBlockEnd
  0
BLOCK
  5
F2
330
F0
100
AcDbEntity
  8
0
100
AcDbBlockBegin
  2
block 28
 70
     0
 10
0.0
 20
0.0
 30
0.0
  3
block 28
  1

  0
SPLINE
  5
F4
330
F0
100
AcDbEntity
  8
Livello 1
 62
   250
420
  1842203
370
    25
100
AcDbSpline
210
0.0
220
0.0
230
1.0
 70
     9
 71
     3
 72
    20
 73
    16
 74
     0
 42
0.000000001
 43
0.0000000001
 40
0.0
 40
0.0
 40
0.0
 40
0.0
 40
1.0
 40
1.0
 40
1.0
 40
2.0
 40
2.0
 40
2.0
 40
3.0
 40
3.0
 40
3.0
 40
4.0
 40
4.0
 40
4.0
 40
5.0
 40
5.0
 40
5.0
 40
5.0
 10
17.11535564668423
 20
-12.72198863570837
 30
0.0
 10
17.11535564668423
 20
-12.48568044132305
 30
0.0
 10
17.30692103068588
 20
-12.29411152470427
 30
0.0
 10
17.5432292191016
 20
-12.29411152470427
 30
0.0
 10
17.77953740751732
 20
-12.29411152470427
 30
0.0
 10
17.97110279151897
 20
-12.48568044132305
 30
0.0
 10
17.97110279151897
 20
-12.72198863570837
 30
0.0
 10
17.97110279151897
 20
-12.95829683009375
 30
0.0
 10
17.77953740751732
 20
-13.14986221893477
 30
0.0
 10
17.5432292191016
 20
-13.14986221893477
 30
0.0
 10
17.30692103068588
 20
-13.14986221893477
 30
0.0
 10
17.11535564668423
 20
-12.95829683009375
 30
0.0
 10
17.11535564668423
 20
-12.72198863570837
 30
0.0
 10
17.11535564668423
 20
-12.72198863570837
 30
0.0
 10
17.11535564668423
 20
-12.72198863570837
 30
0.0
 10
17.11535564668423
 20
-12.72198863570837
 30
0.0
  0
ENDBLK
  5
F3
330
F0
100
AcDbEntity
  8
0
100
AcDbBlockEnd
  0
BLOCK
  5
F7
330
F5
100
AcDbEntity
  8
0
100
AcDbBlockBegin
  2
block 29
 70
     0
 10
0.0
 20
0.0
 30
0.0
  3
block 29
  1

  0
SPLINE
  5
F9
330
F5
100
AcDbEntity
  8
Livello 1
 62
   250
420
  1842203
370
    25
100
AcDbSpline
210
0.0
220
0.0
230
1.0
 70
     8
 71
     3
 72
     8
 73
     4
 74
     0
 42
0.000000001
 43
0.0000000001
 40
0.0
 40
0.0
 40
0.0
 40
0.0
 40
1.0
 40
1.0
 40
1.0
 40
1.0
 10
17.2137524219517
 20
-8.650410970059606
 30
0.0
 10
17.31457630826835
 20
-8.650410970059606
 30
0.0
 10
17.39631138951645
 20
-8.732146053372531
 30
0.0
 10
17.39631138951645
 20
-8.832969942236193
 30
0.0
  0
ENDBLK
  5
F8
330
F5
100
AcDbEntity
  8
0
100
AcDbBlockEnd
  0
BLOCK
  5
FC
330
FA
100
AcDbEntity
  8
0
100
AcDbBlockBegin
  2
block 30
 70
     0
 10
0.0
 20
0.0
 30
0.0
  3
block 30
  1

  0
POLYLINE
  5
FE
330
FA
100
AcDbEntity
  8
Livello 1
 62
   250
420
  1842203
370
    25
100
AcDb2dPolyline
 66
     1
 10
0.0
 20
0.0
 30
0.0
  0
VERTEX
  5
FF
330
FE
100
AcDbEntity
  8
Livello 1
 62
   250
420
  1842203
370
    25
100
AcDbVertex
100
AcDb2dVertex
 10
17.39631138951645
 20
-8.832969942236193
 30
0.0
  0
VERTEX
  5
100
330
FE
100
AcDbEntity
  8
Livello 1
 62
   250
420
  1842203
370
    25
100
AcDbVertex
100
AcDb2dVertex
 10
17.39631138951645
 20
-9.067404886622036
 30
0.0
  0
SEQEND
  5
101
330
FE
100
AcDbEntity
  8
Livello 1
 62
   250
420
  1842203
370
    25
  0
ENDBLK
  5
FD
330
FA
100
AcDbEntity
  8
0
100
AcDbBlockEnd
  0
BLOCK
  5
104
330
102
100
AcDbEntity
  8
0
100
AcDbBlockBegin
  2
block 31
 70
     0
 10
0.0
 20
0.0
 30
0.0
  3
block 31
  1

  0
POLYLINE
  5
106
330
102
100
AcDbEntity
  8
Livello 1
 62
   250
420
  1842203
370
    25
100
AcDb2dPolyline
 66
     1
 10
0.0
 20
0.0
 30
0.0
  0
VERTEX
  5
107
330
106
100
AcDbEntity
  8
Livello 1
 62
   250
420
  1842203
370
    25
100
AcDbVertex
100
AcDb2dVertex
 10
17.39631138951645
 20
-9.067404886622036
 30
0.0
  0
VERTEX
  5
108
330
106
100
AcDbEntity
  8
Livello 1
 62
   250
420
  1842203
370
    25
100
AcDbVertex
100
AcDb2dVertex
 10
17.39631138951645
 20
-9.684861247578787
 30
0.0
  0
SEQEND
  5
109
330
106
100
AcDbEntity
  8
Livello 1
 62
   250
420
  1842203
370
    25
  0
ENDBLK
  5
105
330
102
100
AcDbEntity
  8
0
100
AcDbBlockEnd
  0
BLOCK
  5
10C
330
10A
100
AcDbEntity
  8
0
100
AcDbBlockBegin
  2
block 32
 70
     0
 10
0.0
 20
0.0
 30
0.0
  3
block 32
  1

  0
SPLINE
  5
10E
330
10A
100
AcDbEntity
  8
Livello 1
 62
   250
420
  1842203
370
    25
100
AcDbSpline
210
0.0
220
0.0
230
1.0
 70
     8
 71
     3
 72
     8
 73
     4
 74
     0
 42
0.000000001
 43
0.0000000001
 40
0.0
 40
0.0
 40
0.0
 40
0.0
 40
1.0
 40
1.0
 40
1.0
 40
1.0
 10
17.87270999553184
 20
-8.650410970059606
 30
0.0
 10
17.77188212993484
 20
-8.650410970059606
 30
0.0
 10
17.69014749557745
 20
-8.732146053372531
 30
0.0
 10
17.69014749557745
 20
-8.832969942236193
 30
0.0
  0
ENDBLK
  5
10D
330
10A
100
AcDbEntity
  8
0
100
AcDbBlockEnd
  0
BLOCK
  5
111
330
10F
100
AcDbEntity
  8
0
100
AcDbBlockBegin
  2
block 33
 70
     0
 10
0.0
 20
0.0
 30
0.0
  3
block 33
  1

  0
POLYLINE
  5
113
330
10F
100
AcDbEntity
  8
Livello 1
 62
   250
420
  1842203
370
    25
100
AcDb2dPolyline
 66
     1
 10
0.0
 20
0.0
 30
0.0
  0
VERTEX
  5
114
330
113
100
AcDbEntity
  8
Livello 1
 62
   250
420
  1842203
370
    25
100
AcDbVertex
100
AcDb2dVertex
 10
17.69014749557745
 20
-8.832969942236193
 30
0.0
  0
VERTEX
  5
115
330
113
100
AcDbEntity
  8
Livello 1
 62
   250
420
  1842203
370
    25
100
AcDbVertex
100
AcDb2dVertex
 10
17.69014749557745
 20
-9.067404886622036
 30
0.0
  0
SEQEND
  5
116
330
113
100
AcDbEntity
  8
Livello 1
 62
   250
420
  1842203
370
    25
  0
ENDBLK
  5
112
330
10F
100
AcDbEntity
  8
0
100
AcDbBlockEnd
  0
BLOCK
  5
119
330
117
100
AcDbEntity
  8
0
100
AcDbBlockBegin
  2
block 34
 70
     0
 10
0.0
 20
0.0
 30
0.0
  3
block 34
  1

  0
POLYLINE
  5
11B
330
117
100
AcDbEntity
  8
Livello 1
 62
   250
420
  1842203
370
    25
100
AcDb2dPolyline
 66
     1
 10
0.0
 20
0.0
 30
0.0
  0
VERTEX
  5
11C
330
11B
100
AcDbEntity
  8
Livello 1
 62
   250
420
  1842203
370
    25
100
AcDbVertex
100
AcDb2dVertex
 10
17.69014749557745
 20
-9.067404886622036
 30
0.0
  0
VERTEX
  5
11D
330
11B
100
AcDbEntity
  8
Livello 1
 62
   250
420
  1842203
370
    25
100
AcDbVertex
100
AcDb2dVertex
 10
17.69014749557745
 20
-9.701579386463491
 30
0.0
  0
SEQEND
  5
11E
330
11B
100
AcDbEntity
  8
Livello 1
 62
   250
420
  1842203
370
    25
  0
ENDBLK
  5
11A
330
117
100
AcDbEntity
  8
0
100
AcDbBlockEnd
  0
BLOCK
  5
121
330
11F
100
AcDbEntity
  8
0
100
AcDbBlockBegin
  2
block 35
 70
     0
 10
0.0
 20
0.0
 30
0.0
  3
block 35
  1

  0
POLYLINE
  5
123
330
11F
100
AcDbEntity
  8
Livello 1
 62
   250
420
  1842203
370
    25
100
AcDb2dPolyline
 66
     1
 10
0.0
 20
0.0
 30
0.0
  0
VERTEX
  5
124
330
123
100
AcDbEntity
  8
Livello 1
 62
   250
420
  1842203
370
    25
100
AcDbVertex
100
AcDb2dVertex
 10
16.187109142588
 20
-7.944488525791641
 30
0.0
  0
VERTEX
  5
125
330
123
100
AcDbEntity
  8
Livello 1
 62
   250
420
  1842203
370
    25
100
AcDbVertex
100
AcDb2dVertex
 10
18.89934929561521
 20
-7.944488525791641
 30
0.0
  0
VERTEX
  5
126
330
123
100
AcDbEntity
  8
Livello 1
 62
   250
420
  1842203
370
    25
100
AcDbVertex
100
AcDb2dVertex
 10
18.89934929561521
 20
-8.544066108975107
 30
0.0
  0
VERTEX
  5
127
330
123
100
AcDbEntity
  8
Livello 1
 62
   250
420
  1842203
370
    25
100
AcDbVertex
100
AcDb2dVertex
 10
16.187109142588
 20
-8.544066108975107
 30
0.0
  0
VERTEX
  5
128
330
123
100
AcDbEntity
  8
Livello 1
 62
   250
420
  1842203
370
    25
100
AcDbVertex
100
AcDb2dVertex
 10
16.187109142588
 20
-7.944488525791641
 30
0.0
  0
SEQEND
  5
129
330
123
100
AcDbEntity
  8
Livello 1
 62
   250
420
  1842203
370
    25
  0
ENDBLK
  5
122
330
11F
100
AcDbEntity
  8
0
100
AcDbBlockEnd
  0
BLOCK
  5
12C
330
12A
100
AcDbEntity
  8
0
100
AcDbBlockBegin
  2
block 36
 70
     0
 10
0.0
 20
0.0
 30
0.0
  3
block 36
  1

  0
POLYLINE
  5
12E
330
12A
100
AcDbEntity
  8
Livello 1
 62
   250
420
  1842203
370
    25
100
AcDb2dPolyline
 66
     1
 10
0.0
 20
0.0
 30
0.0
  0
VERTEX
  5
12F
330
12E
100
AcDbEntity
  8
Livello 1
 62
   250
420
  1842203
370
    25
100
AcDbVertex
100
AcDb2dVertex
 10
19.3008955507303
 20
-8.650410970059606
 30
0.0
  0
VERTEX
  5
130
330
12E
100
AcDbEntity
  8
Livello 1
 62
   250
420
  1842203
370
    25
100
AcDbVertex
100
AcDb2dVertex
 10
15.7855633750545
 20
-8.650410970059606
 30
0.0
  0
VERTEX
  5
131
330
12E
100
AcDbEntity
  8
Livello 1
 62
   250
420
  1842203
370
    25
100
AcDbVertex
100
AcDb2dVertex
 10
15.7855633750545
 20
-8.544066108975107
 30
0.0
  0
VERTEX
  5
132
330
12E
100
AcDbEntity
  8
Livello 1
 62
   250
420
  1842203
370
    25
100
AcDbVertex
100
AcDb2dVertex
 10
19.3008955507303
 20
-8.544066108975107
 30
0.0
  0
VERTEX
  5
133
330
12E
100
AcDbEntity
  8
Livello 1
 62
   250
420
  1842203
370
    25
100
AcDbVertex
100
AcDb2dVertex
 10
19.3008955507303
 20
-8.650410970059606
 30
0.0
  0
SEQEND
  5
134
330
12E
100
AcDbEntity
  8
Livello 1
 62
   250
420
  1842203
370
    25
  0
ENDBLK
  5
12D
330
12A
100
AcDbEntity
  8
0
100
AcDbBlockEnd
  0
BLOCK
  5
137
330
135
100
AcDbEntity
  8
0
100
AcDbBlockBegin
  2
block 37
 70
     0
 10
0.0
 20
0.0
 30
0.0
  3
block 37
  1

  0
POLYLINE
  5
139
330
135
100
AcDbEntity
  8
Livello 1
 62
   250
420
  1842203
370
    25
100
AcDb2dPolyline
 66
     1
 10
0.0
 20
0.0
 30
0.0
  0
VERTEX
  5
13A
330
139
100
AcDbEntity
  8
Livello 1
 62
   250
420
  1842203
370
    25
100
AcDbVertex
100
AcDb2dVertex
 10
10.62902131216441
 20
-7.267892498183035
 30
0.0
  0
VERTEX
  5
13B
330
139
100
AcDbEntity
  8
Livello 1
 62
   250
420
  1842203
370
    25
100
AcDbVertex
100
AcDb2dVertex
 10
10.69909356037672
 20
-7.310740887061187
 30
0.0
  0
VERTEX
  5
13C
330
139
100
AcDbEntity
  8
Livello 1
 62
   250
420
  1842203
370
    25
100
AcDbVertex
100
AcDb2dVertex
 10
10.0054231058515
 20
-8.448308108999022
 30
0.0
  0
VERTEX
  5
13D
330
139
100
AcDbEntity
  8
Livello 1
 62
   250
420
  1842203
370
    25
100
AcDbVertex
100
AcDb2dVertex
 10
9.93535438541688
 20
-8.405463247898619
 30
0.0
  0
VERTEX
  5
13E
330
139
100
AcDbEntity
  8
Livello 1
 62
   250
420
  1842203
370
    25
100
AcDbVertex
100
AcDb2dVertex
 10
10.62902131216441
 20
-7.267892498183035
 30
0.0
  0
SEQEND
  5
13F
330
139
100
AcDbEntity
  8
Livello 1
 62
   250
420
  1842203
370
    25
  0
ENDBLK
  5
138
330
135
100
AcDbEntity
  8
0
100
AcDbBlockEnd
  0
BLOCK
  5
142
330
140
100
AcDbEntity
  8
0
100
AcDbBlockBegin
  2
block 38
 70
     0
 10
0.0
 20
0.0
 30
0.0
  3
block 38
  1

  0
POLYLINE
  5
144
330
140
100
AcDbEntity
  8
Livello 1
 62
   250
420
  1842203
370
    25
100
AcDb2dPolyline
 66
     1
 10
0.0
 20
0.0
 30
0.0
  0
VERTEX
  5
145
330
144
100
AcDbEntity
  8
Livello 1
 62
   250
420
  1842203
370
    25
100
AcDbVertex
100
AcDb2dVertex
 10
12.83118714487136
 20
-7.267892498183035
 30
0.0
  0
VERTEX
  5
146
330
144
100
AcDbEntity
  8
Livello 1
 62
   250
420
  1842203
370
    25
100
AcDbVertex
100
AcDb2dVertex
 10
12.76111489665906
 20
-7.310740887061187
 30
0.0
  0
VERTEX
  5
147
330
144
100
AcDbEntity
  8
Livello 1
 62
   250
420
  1842203
370
    25
100
AcDbVertex
100
AcDb2dVertex
 10
13.45478182340658
 20
-8.448308108999022
 30
0.0
  0
VERTEX
  5
148
330
144
100
AcDbEntity
  8
Livello 1
 62
   250
420
  1842203
370
    25
100
AcDbVertex
100
AcDb2dVertex
 10
13.52485407161889
 20
-8.405463247898619
 30
0.0
  0
VERTEX
  5
149
330
144
100
AcDbEntity
  8
Livello 1
 62
   250
420
  1842203
370
    25
100
AcDbVertex
100
AcDb2dVertex
 10
12.83118714487136
 20
-7.267892498183035
 30
0.0
  0
SEQEND
  5
14A
330
144
100
AcDbEntity
  8
Livello 1
 62
   250
420
  1842203
370
    25
  0
ENDBLK
  5
143
330
140
100
AcDbEntity
  8
0
100
AcDbBlockEnd
  0
BLOCK
  5
14D
330
14B
100
AcDbEntity
  8
0
100
AcDbBlockBegin
  2
block 39
 70
     0
 10
0.0
 20
0.0
 30
0.0
  3
block 39
  1

  0
POLYLINE
  5
14F
330
14B
100
AcDbEntity
  8
Livello 1
 62
   250
420
  1842203
370
    25
100
AcDb2dPolyline
 66
     1
 10
0.0
 20
0.0
 30
0.0
  0
VERTEX
  5
150
330
14F
100
AcDbEntity
  8
Livello 1
 62
   250
420
  1842203
370
    25
100
AcDbVertex
100
AcDb2dVertex
 10
16.44214630274812
 20
-7.3191687481702
 30
0.0
  0
VERTEX
  5
151
330
14F
100
AcDbEntity
  8
Livello 1
 62
   250
420
  1842203
370
    25
100
AcDbVertex
100
AcDb2dVertex
 10
16.51221855096043
 20
-7.362013609270602
 30
0.0
  0
VERTEX
  5
152
330
14F
100
AcDbEntity
  8
Livello 1
 62
   250
420
  1842203
370
    25
100
AcDbVertex
100
AcDb2dVertex
 10
15.8185516242129
 20
-8.499584358986219
 30
0.0
  0
VERTEX
  5
153
330
14F
100
AcDbEntity
  8
Livello 1
 62
   250
420
  1842203
370
    25
100
AcDbVertex
100
AcDb2dVertex
 10
15.74847937600059
 20
-8.456735970108036
 30
0.0
  0
VERTEX
  5
154
330
14F
100
AcDbEntity
  8
Livello 1
 62
   250
420
  1842203
370
    25
100
AcDbVertex
100
AcDb2dVertex
 10
16.44214630274812
 20
-7.3191687481702
 30
0.0
  0
SEQEND
  5
155
330
14F
100
AcDbEntity
  8
Livello 1
 62
   250
420
  1842203
370
    25
  0
ENDBLK
  5
14E
330
14B
100
AcDbEntity
  8
0
100
AcDbBlockEnd
  0
BLOCK
  5
158
330
156
100
AcDbEntity
  8
0
100
AcDbBlockBegin
  2
block 40
 70
     0
 10
0.0
 20
0.0
 30
0.0
  3
block 40
  1

  0
POLYLINE
  5
15A
330
156
100
AcDbEntity
  8
Livello 1
 62
   250
420
  1842203
370
    25
100
AcDb2dPolyline
 66
     1
 10
0.0
 20
0.0
 30
0.0
  0
VERTEX
  5
15B
330
15A
100
AcDbEntity
  8
Livello 1
 62
   250
420
  1842203
370
    25
100
AcDbVertex
100
AcDb2dVertex
 10
18.64431213545508
 20
-7.3191687481702
 30
0.0
  0
VERTEX
  5
15C
330
15A
100
AcDbEntity
  8
Livello 1
 62
   250
420
  1842203
370
    25
100
AcDbVertex
100
AcDb2dVertex
 10
18.57423988724277
 20
-7.362013609270602
 30
0.0
  0
VERTEX
  5
15D
330
15A
100
AcDbEntity
  8
Livello 1
 62
   250
420
  1842203
370
    25
100
AcDbVertex
100
AcDb2dVertex
 10
19.26791082851634
 20
-8.499584358986219
 30
0.0
  0
VERTEX
  5
15E
330
15A
100
AcDbEntity
  8
Livello 1
 62
   250
420
  1842203
370
    25
100
AcDbVertex
100
AcDb2dVertex
 10
19.33798258998029
 20
-8.456735970108036
 30
0.0
  0
VERTEX
  5
15F
330
15A
100
AcDbEntity
  8
Livello 1
 62
   250
420
  1842203
370
    25
100
AcDbVertex
100
AcDb2dVertex
 10
18.64431213545508
 20
-7.3191687481702
 30
0.0
  0
SEQEND
  5
160
330
15A
100
AcDbEntity
  8
Livello 1
 62
   250
420
  1842203
370
    25
  0
ENDBLK
  5
159
330
156
100
AcDbEntity
  8
0
100
AcDbBlockEnd
  0
BLOCK
  5
16B
330
169
100
AcDbEntity
  8
0
100
AcDbBlockBegin
  2
block 41
 70
     0
 10
0.0
 20
0.0
 30
0.0
  3
block 41
  1

  0
POLYLINE
  5
16D
330
169
100
AcDbEntity
  8
Livello 1
370
     0
100
AcDb2dPolyline
 66
     1
 10
0.0
 20
0.0
 30
0.0
  0
VERTEX
  5
16E
330
16D
100
AcDbEntity
  8
Livello 1
370
     0
100
AcDbVertex
100
AcDb2dVertex
 10
8.433490395027043
 20
-11.95875325221864
 30
0.0
  0
VERTEX
  5
16F
330
16D
100
AcDbEntity
  8
Livello 1
370
     0
100
AcDbVertex
100
AcDb2dVertex
 10
8.433490395027043
 20
-11.9602346432773
 30
0.0
  0
VERTEX
  5
170
330
16D
100
AcDbEntity
  8
Livello 1
370
     0
100
AcDbVertex
100
AcDb2dVertex
 10
8.478672822316097
 20
-12.04391601261402
 30
0.0
  0
VERTEX
  5
171
330
16D
100
AcDbEntity
  8
Livello 1
370
     0
100
AcDbVertex
100
AcDb2dVertex
 10
8.42904622185107
 20
-12.05652506209004
 30
0.0
  0
VERTEX
  5
172
330
16D
100
AcDbEntity
  8
Livello 1
370
     0
100
AcDbVertex
100
AcDb2dVertex
 10
8.372753361622088
 20
-11.95134629692536
 30
0.0
  0
VERTEX
  5
173
330
16D
100
AcDbEntity
  8
Livello 1
370
     0
100
AcDbVertex
100
AcDb2dVertex
 10
8.372753361622088
 20
-11.89577690674828
 30
0.0
  0
VERTEX
  5
174
330
16D
100
AcDbEntity
  8
Livello 1
370
     0
100
AcDbVertex
100
AcDb2dVertex
 10
8.854205455685754
 20
-11.89577690674828
 30
0.0
  0
VERTEX
  5
175
330
16D
100
AcDbEntity
  8
Livello 1
370
     0
100
AcDbVertex
100
AcDb2dVertex
 10
8.854205455685754
 20
-11.95875325221864
 30
0.0
  0
VERTEX
  5
176
330
16D
100
AcDbEntity
  8
Livello 1
370
     0
100
AcDbVertex
100
AcDb2dVertex
 10
8.433490395027043
 20
-11.95875325221864
 30
0.0
  0
SEQEND
  5
177
330
16D
100
AcDbEntity
  8
Livello 1
370
     0
  0
HATCH
  5
178
330
169
100
AcDbEntity
  8
Livello 1
 62
   250
420
  1842203
100
AcDbHatch
 10
0.0
 20
0.0
 30
0.0
210
0.0
220
0.0
230
1.0
  2
SOLID
 70
     1
 71
     0
 91
        1
 92
        1
 93
        8
 72
     1
 10
8.433490395027043
 20
-11.95875325221864
 11
8.433490395027043
 21
-11.9602346432773
 72
     1
 10
8.433490395027043
 20
-11.9602346432773
 11
8.478672822316097
 21
-12.04391601261402
 72
     1
 10
8.478672822316097
 20
-12.04391601261402
 11
8.42904622185107
 21
-12.05652506209004
 72
     1
 10
8.42904622185107
 20
-12.05652506209004
 11
8.372753361622088
 21
-11.95134629692536
 72
     1
 10
8.372753361622088
 20
-11.95134629692536
 11
8.372753361622088
 21
-11.89577690674828
 72
     1
 10
8.372753361622088
 20
-11.89577690674828
 11
8.854205455685754
 21
-11.89577690674828
 72
     1
 10
8.854205455685754
 20
-11.89577690674828
 11
8.854205455685754
 21
-11.95875325221864
 72
     1
 10
8.854205455685754
 20
-11.95875325221864
 11
8.433490395027043
 21
-11.95875325221864
 97
        0
 75
     2
 76
     1
 98
        0
450
        0
451
        0
460
0.0
461
0.0
452
        0
462
0.0
453
        0
470

  0
POLYLINE
  5
179
330
169
100
AcDbEntity
  8
Livello 1
370
     0
100
AcDb2dPolyline
 66
     1
 10
0.0
 20
0.0
 30
0.0
  0
VERTEX
  5
17A
330
179
100
AcDbEntity
  8
Livello 1
370
     0
100
AcDbVertex
100
AcDb2dVertex
 10
8.854205455685754
 20
-11.51874565684254
 30
0.0
  0
VERTEX
  5
17B
330
179
100
AcDbEntity
  8
Livello 1
370
     0
100
AcDbVertex
100
AcDb2dVertex
 10
8.72310234699457
 20
-11.51874565684254
 30
0.0
  0
VERTEX
  5
17C
330
179
100
AcDbEntity
  8
Livello 1
370
     0
100
AcDbVertex
100
AcDb2dVertex
 10
8.72310234699457
 20
-11.74240125574496
 30
0.0
  0
VERTEX
  5
17D
330
179
100
AcDbEntity
  8
Livello 1
370
     0
100
AcDbVertex
100
AcDb2dVertex
 10
8.680142006293506
 20
-11.74240125574496
 30
0.0
  0
VERTEX
  5
17E
330
179
100
AcDbEntity
  8
Livello 1
370
     0
100
AcDbVertex
100
AcDb2dVertex
 10
8.372753361622088
 20
-11.52763400319448
 30
0.0
  0
VERTEX
  5
17F
330
179
100
AcDbEntity
  8
Livello 1
370
     0
100
AcDbVertex
100
AcDb2dVertex
 10
8.372753361622088
 20
-11.45725070243082
 30
0.0
  0
VERTEX
  5
180
330
179
100
AcDbEntity
  8
Livello 1
370
     0
100
AcDbVertex
100
AcDb2dVertex
 10
8.671994355470888
 20
-11.45725070243082
 30
0.0
  0
VERTEX
  5
181
330
179
100
AcDbEntity
  8
Livello 1
370
     0
100
AcDbVertex
100
AcDb2dVertex
 10
8.671994355470888
 20
-11.38983018378449
 30
0.0
  0
VERTEX
  5
182
330
179
100
AcDbEntity
  8
Livello 1
370
     0
100
AcDbVertex
100
AcDb2dVertex
 10
8.72310234699457
 20
-11.38983018378449
 30
0.0
  0
VERTEX
  5
183
330
179
100
AcDbEntity
  8
Livello 1
370
     0
100
AcDbVertex
100
AcDb2dVertex
 10
8.72310234699457
 20
-11.45725070243082
 30
0.0
  0
VERTEX
  5
184
330
179
100
AcDbEntity
  8
Livello 1
370
     0
100
AcDbVertex
100
AcDb2dVertex
 10
8.854205455685754
 20
-11.45725070243082
 30
0.0
  0
VERTEX
  5
185
330
179
100
AcDbEntity
  8
Livello 1
370
     0
100
AcDbVertex
100
AcDb2dVertex
 10
8.854205455685754
 20
-11.51874565684254
 30
0.0
  0
SEQEND
  5
186
330
179
100
AcDbEntity
  8
Livello 1
370
     0
  0
SPLINE
  5
187
330
169
100
AcDbEntity
  8
Livello 1
370
     0
100
AcDbSpline
210
0.0
220
0.0
230
1.0
 70
    11
 71
     3
 72
    26
 73
    22
 74
     0
 42
0.000000001
 43
0.0000000001
 40
0.0
 40
0.0
 40
0.0
 40
0.0
 40
1.0
 40
1.0
 40
1.0
 40
2.0
 40
2.0
 40
2.0
 40
3.0
 40
3.0
 40
3.0
 40
4.0
 40
4.0
 40
4.0
 40
5.0
 40
5.0
 40
5.0
 40
6.0
 40
6.0
 40
6.0
 40
7.0
 40
7.0
 40
7.0
 40
7.0
 10
8.671994355470888
 20
-11.51874565684254
 30
0.0
 10
8.671994355470888
 20
-11.51874565684254
 30
0.0
 10
8.511263425606557
 20
-11.51874565684254
 30
0.0
 10
8.511263425606557
 20
-11.51874565684254
 30
0.0
 10
8.486079777609379
 20
-11.51874565684254
 30
0.0
 10
8.460896129612205
 20
-11.51798773583577
 30
0.0
 10
8.435712481615031
 20
-11.51650634477712
 30
0.0
 10
8.435712481615031
 20
-11.51650634477712
 30
0.0
 10
8.435712481615031
 20
-11.51874565684254
 30
0.0
 10
8.435712481615031
 20
-11.51874565684254
 30
0.0
 10
8.463858911729516
 20
-11.53355956742911
 30
0.0
 10
8.484598386550722
 20
-11.54541069589837
 30
0.0
 10
8.506819252430588
 20
-11.55870876447143
 30
0.0
 10
8.506819252430588
 20
-11.55870876447143
 30
0.0
 10
8.670512964412232
 20
-11.67649657911213
 30
0.0
 10
8.670512964412232
 20
-11.67649657911213
 30
0.0
 10
8.670512964412232
 20
-11.67649657911213
 30
0.0
 10
8.671994355470888
 20
-11.67649657911213
 30
0.0
 10
8.671994355470888
 20
-11.67649657911213
 30
0.0
 10
8.671994355470888
 20
-11.67649657911213
 30
0.0
 10
8.671994355470888
 20
-11.51874565684254
 30
0.0
 10
8.671994355470888
 20
-11.51874565684254
 30
0.0
  0
HATCH
  5
188
330
169
100
AcDbEntity
  8
Livello 1
 62
   250
420
  1842203
100
AcDbHatch
 10
0.0
 20
0.0
 30
0.0
210
0.0
220
0.0
230
1.0
  2
SOLID
 70
     1
 71
     0
 91
        2
 92
        1
 93
       11
 72
     1
 10
8.854205455685754
 20
-11.51874565684254
 11
8.72310234699457
 21
-11.51874565684254
 72
     1
 10
8.72310234699457
 20
-11.51874565684254
 11
8.72310234699457
 21
-11.74240125574496
 72
     1
 10
8.72310234699457
 20
-11.74240125574496
 11
8.680142006293506
 21
-11.74240125574496
 72
     1
 10
8.680142006293506
 20
-11.74240125574496
 11
8.372753361622088
 21
-11.52763400319448
 72
     1
 10
8.372753361622088
 20
-11.52763400319448
 11
8.372753361622088
 21
-11.45725070243082
 72
     1
 10
8.372753361622088
 20
-11.45725070243082
 11
8.671994355470888
 21
-11.45725070243082
 72
     1
 10
8.671994355470888
 20
-11.45725070243082
 11
8.671994355470888
 21
-11.38983018378449
 72
     1
 10
8.671994355470888
 20
-11.38983018378449
 11
8.72310234699457
 21
-11.38983018378449
 72
     1
 10
8.72310234699457
 20
-11.38983018378449
 11
8.72310234699457
 21
-11.45725070243082
 72
     1
 10
8.72310234699457
 20
-11.45725070243082
 11
8.854205455685754
 21
-11.45725070243082
 72
     1
 10
8.854205455685754
 20
-11.45725070243082
 11
8.854205455685754
 21
-11.51874565684254
 97
        0
 92
        1
 93
        1
 72
     4
 94
        3
 73
     0
 74
     0
 95
       26
 96
       22
 40
0.0
 40
0.0
 40
0.0
 40
0.0
 40
1.0
 40
1.0
 40
1.0
 40
2.0
 40
2.0
 40
2.0
 40
3.0
 40
3.0
 40
3.0
 40
4.0
 40
4.0
 40
4.0
 40
5.0
 40
5.0
 40
5.0
 40
6.0
 40
6.0
 40
6.0
 40
7.0
 40
7.0
 40
7.0
 40
7.0
 10
8.671994355470888
 20
-11.51874565684254
 10
8.671994355470888
 20
-11.51874565684254
 10
8.511263425606557
 20
-11.51874565684254
 10
8.511263425606557
 20
-11.51874565684254
 10
8.486079777609379
 20
-11.51874565684254
 10
8.460896129612205
 20
-11.51798773583577
 10
8.435712481615031
 20
-11.51650634477712
 10
8.435712481615031
 20
-11.51650634477712
 10
8.435712481615031
 20
-11.51874565684254
 10
8.435712481615031
 20
-11.51874565684254
 10
8.463858911729516
 20
-11.53355956742911
 10
8.484598386550722
 20
-11.54541069589837
 10
8.506819252430588
 20
-11.55870876447143
 10
8.506819252430588
 20
-11.55870876447143
 10
8.670512964412232
 20
-11.67649657911213
 10
8.670512964412232
 20
-11.67649657911213
 10
8.670512964412232
 20
-11.67649657911213
 10
8.671994355470888
 20
-11.67649657911213
 10
8.671994355470888
 20
-11.67649657911213
 10
8.671994355470888
 20
-11.67649657911213
 10
8.671994355470888
 20
-11.51874565684254
 10
8.671994355470888
 20
-11.51874565684254
 97
        0
 97
        0
 75
     2
 76
     1
 98
        0
450
        0
451
        0
460
0.0
461
0.0
452
        0
462
0.0
453
        0
470

  0
SPLINE
  5
189
330
169
100
AcDbEntity
  8
Livello 1
370
     0
100
AcDbSpline
210
0.0
220
0.0
230
1.0
 70
     9
 71
     3
 72
    35
 73
    31
 74
     0
 42
0.000000001
 43
0.0000000001
 40
0.0
 40
0.0
 40
0.0
 40
0.0
 40
1.0
 40
1.0
 40
1.0
 40
2.0
 40
2.0
 40
2.0
 40
3.0
 40
3.0
 40
3.0
 40
4.0
 40
4.0
 40
4.0
 40
5.0
 40
5.0
 40
5.0
 40
6.0
 40
6.0
 40
6.0
 40
7.0
 40
7.0
 40
7.0
 40
8.0
 40
8.0
 40
8.0
 40
9.0
 40
9.0
 40
9.0
 40
10.0
 40
10.0
 40
10.0
 40
10.0
 10
8.840872936157838
 20
-10.90682779675246
 30
0.0
 10
8.849761282509783
 20
-10.92384656844959
 30
0.0
 10
8.861612410979036
 20
-10.96163926592278
 30
0.0
 10
8.861612410979036
 20
-11.00976724985172
 30
0.0
 10
8.861612410979036
 20
-11.11794324808857
 30
0.0
 10
8.788283553575496
 20
-11.18829209789737
 30
0.0
 10
8.678660615234846
 20
-11.18829209789737
 30
0.0
 10
8.56829698136487
 20
-11.18829209789737
 30
0.0
 10
8.488301864197367
 20
-11.11274115390584
 30
0.0
 10
8.488301864197367
 20
-10.99571126027191
 30
0.0
 10
8.488301864197367
 20
-10.95719509274681
 30
0.0
 10
8.497930906078643
 20
-10.92312309839769
 30
0.0
 10
8.506819252430588
 20
-10.9053464056938
 30
0.0
 10
8.506819252430588
 20
-10.9053464056938
 30
0.0
 10
8.557186548424937
 20
-10.92016031628038
 30
0.0
 10
8.557186548424937
 20
-10.92016031628038
 30
0.0
 10
8.548298202072992
 20
-10.93569769691885
 30
0.0
 10
8.540150551250381
 20
-10.96015787486413
 30
0.0
 10
8.540150551250381
 20
-10.99571126027191
 30
0.0
 10
8.540150551250381
 20
-11.07791123854997
 30
0.0
 10
8.600887584655332
 20
-11.12235297030969
 30
0.0
 10
8.675697833117531
 20
-11.12235297030969
 30
0.0
 10
8.758655732402347
 20
-11.12235297030969
 30
0.0
 10
8.809763723926026
 20
-11.06902289219802
 30
0.0
 10
8.809763723926026
 20
-10.99791612138246
 30
0.0
 10
8.809763723926026
 20
-10.96091579587088
 30
0.0
 10
8.800134682044758
 20
-10.93645561792561
 30
0.0
 10
8.791987031222143
 20
-10.91792100421496
 30
0.0
 10
8.791987031222143
 20
-10.91792100421496
 30
0.0
 10
8.840872936157838
 20
-10.90682779675246
 30
0.0
 10
8.840872936157838
 20
-10.90682779675246
 30
0.0
  0
HATCH
  5
18A
330
169
100
AcDbEntity
  8
Livello 1
 62
   250
420
  1842203
100
AcDbHatch
 10
0.0
 20
0.0
 30
0.0
210
0.0
220
0.0
230
1.0
  2
SOLID
 70
     1
 71
     0
 91
        1
 92
        1
 93
        1
 72
     4
 94
        3
 73
     0
 74
     0
 95
       35
 96
       31
 40
0.0
 40
0.0
 40
0.0
 40
0.0
 40
1.0
 40
1.0
 40
1.0
 40
2.0
 40
2.0
 40
2.0
 40
3.0
 40
3.0
 40
3.0
 40
4.0
 40
4.0
 40
4.0
 40
5.0
 40
5.0
 40
5.0
 40
6.0
 40
6.0
 40
6.0
 40
7.0
 40
7.0
 40
7.0
 40
8.0
 40
8.0
 40
8.0
 40
9.0
 40
9.0
 40
9.0
 40
10.0
 40
10.0
 40
10.0
 40
10.0
 10
8.840872936157838
 20
-10.90682779675246
 10
8.849761282509783
 20
-10.92384656844959
 10
8.861612410979036
 20
-10.96163926592278
 10
8.861612410979036
 20
-11.00976724985172
 10
8.861612410979036
 20
-11.11794324808857
 10
8.788283553575496
 20
-11.18829209789737
 10
8.678660615234846
 20
-11.18829209789737
 10
8.56829698136487
 20
-11.18829209789737
 10
8.488301864197367
 20
-11.11274115390584
 10
8.488301864197367
 20
-10.99571126027191
 10
8.488301864197367
 20
-10.95719509274681
 10
8.497930906078643
 20
-10.92312309839769
 10
8.506819252430588
 20
-10.9053464056938
 10
8.506819252430588
 20
-10.9053464056938
 10
8.557186548424937
 20
-10.92016031628038
 10
8.557186548424937
 20
-10.92016031628038
 10
8.548298202072992
 20
-10.93569769691885
 10
8.540150551250381
 20
-10.96015787486413
 10
8.540150551250381
 20
-10.99571126027191
 10
8.540150551250381
 20
-11.07791123854997
 10
8.600887584655332
 20
-11.12235297030969
 10
8.675697833117531
 20
-11.12235297030969
 10
8.758655732402347
 20
-11.12235297030969
 10
8.809763723926026
 20
-11.06902289219802
 10
8.809763723926026
 20
-10.99791612138246
 10
8.809763723926026
 20
-10.96091579587088
 10
8.800134682044758
 20
-10.93645561792561
 10
8.791987031222143
 20
-10.91792100421496
 10
8.791987031222143
 20
-10.91792100421496
 10
8.840872936157838
 20
-10.90682779675246
 10
8.840872936157838
 20
-10.90682779675246
 97
        0
 97
        0
 75
     2
 76
     1
 98
        0
450
        0
451
        0
460
0.0
461
0.0
452
        0
462
0.0
453
        0
470

  0
SPLINE
  5
18B
330
169
100
AcDbEntity
  8
Livello 1
370
     0
100
AcDbSpline
210
0.0
220
0.0
230
1.0
 70
     9
 71
     3
 72
    80
 73
    76
 74
     0
 42
0.000000001
 43
0.0000000001
 40
0.0
 40
0.0
 40
0.0
 40
0.0
 40
1.0
 40
1.0
 40
1.0
 40
2.0
 40
2.0
 40
2.0
 40
3.0
 40
3.0
 40
3.0
 40
4.0
 40
4.0
 40
4.0
 40
5.0
 40
5.0
 40
5.0
 40
6.0
 40
6.0
 40
6.0
 40
7.0
 40
7.0
 40
7.0
 40
8.0
 40
8.0
 40
8.0
 40
9.0
 40
9.0
 40
9.0
 40
10.0
 40
10.0
 40
10.0
 40
11.0
 40
11.0
 40
11.0
 40
12.0
 40
12.0
 40
12.0
 40
13.0
 40
13.0
 40
13.0
 40
14.0
 40
14.0
 40
14.0
 40
15.0
 40
15.0
 40
15.0
 40
16.0
 40
16.0
 40
16.0
 40
17.0
 40
17.0
 40
17.0
 40
18.0
 40
18.0
 40
18.0
 40
19.0
 40
19.0
 40
19.0
 40
20.0
 40
20.0
 40
20.0
 40
21.0
 40
21.0
 40
21.0
 40
22.0
 40
22.0
 40
22.0
 40
23.0
 40
23.0
 40
23.0
 40
24.0
 40
24.0
 40
24.0
 40
25.0
 40
25.0
 40
25.0
 40
25.0
 10
8.592739933832717
 20
-10.83048448079932
 30
0.0
 10
8.555705157366281
 20
-10.83048448079932
 30
0.0
 10
8.525336640663804
 20
-10.83120795085122
 30
0.0
 10
8.495708819490655
 20
-10.83344726291664
 30
0.0
 10
8.495708819490655
 20
-10.83344726291664
 30
0.0
 10
8.495708819490655
 20
-10.7763964816809
 30
0.0
 10
8.495708819490655
 20
-10.7763964816809
 30
0.0
 10
8.495708819490655
 20
-10.7763964816809
 30
0.0
 10
8.553483070778295
 20
-10.77343369956358
 30
0.0
 10
8.553483070778295
 20
-10.77343369956358
 30
0.0
 10
8.553483070778295
 20
-10.77343369956358
 30
0.0
 10
8.553483070778295
 20
-10.77122883845303
 30
0.0
 10
8.553483070778295
 20
-10.77122883845303
 30
0.0
 10
8.519411076429172
 20
-10.75121283368372
 30
0.0
 10
8.487561168668039
 20
-10.71789876034136
 30
0.0
 10
8.487561168668039
 20
-10.65864311799506
 30
0.0
 10
8.487561168668039
 20
-10.60972276210451
 30
0.0
 10
8.517188989841187
 20
-10.57272243659293
 30
0.0
 10
8.559408635012925
 20
-10.5571506049996
 30
0.0
 10
8.559408635012925
 20
-10.5571506049996
 30
0.0
 10
8.559408635012925
 20
-10.55566921394094
 30
0.0
 10
8.559408635012925
 20
-10.55566921394094
 30
0.0
 10
8.539409855721048
 20
-10.54454155552359
 30
0.0
 10
8.523855249605148
 20
-10.53048556594377
 30
0.0
 10
8.512744816665215
 20
-10.51567165535719
 30
0.0
 10
8.496449515019982
 20
-10.49417425952923
 30
0.0
 10
8.487561168668039
 20
-10.47047200259071
 30
0.0
 10
8.487561168668039
 20
-10.43643445919645
 30
0.0
 10
8.487561168668039
 20
-10.38902994531941
 30
0.0
 10
8.518670380899843
 20
-10.31864664455575
 30
0.0
 10
8.643107229827068
 20
-10.31864664455575
 30
0.0
 10
8.643107229827068
 20
-10.31864664455575
 30
0.0
 10
8.854205455685754
 20
-10.31864664455575
 30
0.0
 10
8.854205455685754
 20
-10.31864664455575
 30
0.0
 10
8.854205455685754
 20
-10.31864664455575
 30
0.0
 10
8.854205455685754
 20
-10.38234646007802
 30
0.0
 10
8.854205455685754
 20
-10.38234646007802
 30
0.0
 10
8.854205455685754
 20
-10.38234646007802
 30
0.0
 10
8.651254880649686
 20
-10.38234646007802
 30
0.0
 10
8.651254880649686
 20
-10.38234646007802
 30
0.0
 10
8.582370196422115
 20
-10.38234646007802
 30
0.0
 10
8.540891246779706
 20
-10.4075301080752
 30
0.0
 10
8.540891246779706
 20
-10.46013671613496
 30
0.0
 10
8.540891246779706
 20
-10.49713704164655
 30
0.0
 10
8.56829698136487
 20
-10.52604139276779
 30
0.0
 10
8.600146889126003
 20
-10.53716905118515
 30
0.0
 10
8.609035235477946
 20
-10.54013183330247
 30
0.0
 10
8.620886363947207
 20
-10.54233669441303
 30
0.0
 10
8.632737492416467
 20
-10.54233669441303
 30
0.0
 10
8.632737492416467
 20
-10.54233669441303
 30
0.0
 10
8.854205455685754
 20
-10.54233669441303
 30
0.0
 10
8.854205455685754
 20
-10.54233669441303
 30
0.0
 10
8.854205455685754
 20
-10.54233669441303
 30
0.0
 10
8.854205455685754
 20
-10.6060365099353
 30
0.0
 10
8.854205455685754
 20
-10.6060365099353
 30
0.0
 10
8.854205455685754
 20
-10.6060365099353
 30
0.0
 10
8.639403752180426
 20
-10.6060365099353
 30
0.0
 10
8.639403752180426
 20
-10.6060365099353
 30
0.0
 10
8.582370196422115
 20
-10.6060365099353
 30
0.0
 10
8.540891246779706
 20
-10.63122015793247
 30
0.0
 10
8.540891246779706
 20
-10.68082953292007
 30
0.0
 10
8.540891246779706
 20
-10.72158501251057
 30
0.0
 10
8.573481850070168
 20
-10.75121283368372
 30
0.0
 10
8.606072453360631
 20
-10.76158257109433
 30
0.0
 10
8.615701495241905
 20
-10.76530327421839
 30
0.0
 10
8.626811928181837
 20
-10.7667502143222
 30
0.0
 10
8.637922361121768
 20
-10.7667502143222
 30
0.0
 10
8.637922361121768
 20
-10.7667502143222
 30
0.0
 10
8.854205455685754
 20
-10.7667502143222
 30
0.0
 10
8.854205455685754
 20
-10.7667502143222
 30
0.0
 10
8.854205455685754
 20
-10.7667502143222
 30
0.0
 10
8.854205455685754
 20
-10.83048448079932
 30
0.0
 10
8.854205455685754
 20
-10.83048448079932
 30
0.0
 10
8.854205455685754
 20
-10.83048448079932
 30
0.0
 10
8.592739933832717
 20
-10.83048448079932
 30
0.0
 10
8.592739933832717
 20
-10.83048448079932
 30
0.0
  0
HATCH
  5
18C
330
169
100
AcDbEntity
  8
Livello 1
 62
   250
420
  1842203
100
AcDbHatch
 10
0.0
 20
0.0
 30
0.0
210
0.0
220
0.0
230
1.0
  2
SOLID
 70
     1
 71
     0
 91
        1
 92
        1
 93
        1
 72
     4
 94
        3
 73
     0
 74
     0
 95
       80
 96
       76
 40
0.0
 40
0.0
 40
0.0
 40
0.0
 40
1.0
 40
1.0
 40
1.0
 40
2.0
 40
2.0
 40
2.0
 40
3.0
 40
3.0
 40
3.0
 40
4.0
 40
4.0
 40
4.0
 40
5.0
 40
5.0
 40
5.0
 40
6.0
 40
6.0
 40
6.0
 40
7.0
 40
7.0
 40
7.0
 40
8.0
 40
8.0
 40
8.0
 40
9.0
 40
9.0
 40
9.0
 40
10.0
 40
10.0
 40
10.0
 40
11.0
 40
11.0
 40
11.0
 40
12.0
 40
12.0
 40
12.0
 40
13.0
 40
13.0
 40
13.0
 40
14.0
 40
14.0
 40
14.0
 40
15.0
 40
15.0
 40
15.0
 40
16.0
 40
16.0
 40
16.0
 40
17.0
 40
17.0
 40
17.0
 40
18.0
 40
18.0
 40
18.0
 40
19.0
 40
19.0
 40
19.0
 40
20.0
 40
20.0
 40
20.0
 40
21.0
 40
21.0
 40
21.0
 40
22.0
 40
22.0
 40
22.0
 40
23.0
 40
23.0
 40
23.0
 40
24.0
 40
24.0
 40
24.0
 40
25.0
 40
25.0
 40
25.0
 40
25.0
 10
8.592739933832717
 20
-10.83048448079932
 10
8.555705157366281
 20
-10.83048448079932
 10
8.525336640663804
 20
-10.83120795085122
 10
8.495708819490655
 20
-10.83344726291664
 10
8.495708819490655
 20
-10.83344726291664
 10
8.495708819490655
 20
-10.7763964816809
 10
8.495708819490655
 20
-10.7763964816809
 10
8.495708819490655
 20
-10.7763964816809
 10
8.553483070778295
 20
-10.77343369956358
 10
8.553483070778295
 20
-10.77343369956358
 10
8.553483070778295
 20
-10.77343369956358
 10
8.553483070778295
 20
-10.77122883845303
 10
8.553483070778295
 20
-10.77122883845303
 10
8.519411076429172
 20
-10.75121283368372
 10
8.487561168668039
 20
-10.71789876034136
 10
8.487561168668039
 20
-10.65864311799506
 10
8.487561168668039
 20
-10.60972276210451
 10
8.517188989841187
 20
-10.57272243659293
 10
8.559408635012925
 20
-10.5571506049996
 10
8.559408635012925
 20
-10.5571506049996
 10
8.559408635012925
 20
-10.55566921394094
 10
8.559408635012925
 20
-10.55566921394094
 10
8.539409855721048
 20
-10.54454155552359
 10
8.523855249605148
 20
-10.53048556594377
 10
8.512744816665215
 20
-10.51567165535719
 10
8.496449515019982
 20
-10.49417425952923
 10
8.487561168668039
 20
-10.47047200259071
 10
8.487561168668039
 20
-10.43643445919645
 10
8.487561168668039
 20
-10.38902994531941
 10
8.518670380899843
 20
-10.31864664455575
 10
8.643107229827068
 20
-10.31864664455575
 10
8.643107229827068
 20
-10.31864664455575
 10
8.854205455685754
 20
-10.31864664455575
 10
8.854205455685754
 20
-10.31864664455575
 10
8.854205455685754
 20
-10.31864664455575
 10
8.854205455685754
 20
-10.38234646007802
 10
8.854205455685754
 20
-10.38234646007802
 10
8.854205455685754
 20
-10.38234646007802
 10
8.651254880649686
 20
-10.38234646007802
 10
8.651254880649686
 20
-10.38234646007802
 10
8.582370196422115
 20
-10.38234646007802
 10
8.540891246779706
 20
-10.4075301080752
 10
8.540891246779706
 20
-10.46013671613496
 10
8.540891246779706
 20
-10.49713704164655
 10
8.56829698136487
 20
-10.52604139276779
 10
8.600146889126003
 20
-10.53716905118515
 10
8.609035235477946
 20
-10.54013183330247
 10
8.620886363947207
 20
-10.54233669441303
 10
8.632737492416467
 20
-10.54233669441303
 10
8.632737492416467
 20
-10.54233669441303
 10
8.854205455685754
 20
-10.54233669441303
 10
8.854205455685754
 20
-10.54233669441303
 10
8.854205455685754
 20
-10.54233669441303
 10
8.854205455685754
 20
-10.6060365099353
 10
8.854205455685754
 20
-10.6060365099353
 10
8.854205455685754
 20
-10.6060365099353
 10
8.639403752180426
 20
-10.6060365099353
 10
8.639403752180426
 20
-10.6060365099353
 10
8.582370196422115
 20
-10.6060365099353
 10
8.540891246779706
 20
-10.63122015793247
 10
8.540891246779706
 20
-10.68082953292007
 10
8.540891246779706
 20
-10.72158501251057
 10
8.573481850070168
 20
-10.75121283368372
 10
8.606072453360631
 20
-10.76158257109433
 10
8.615701495241905
 20
-10.76530327421839
 10
8.626811928181837
 20
-10.7667502143222
 10
8.637922361121768
 20
-10.7667502143222
 10
8.637922361121768
 20
-10.7667502143222
 10
8.854205455685754
 20
-10.7667502143222
 10
8.854205455685754
 20
-10.7667502143222
 10
8.854205455685754
 20
-10.7667502143222
 10
8.854205455685754
 20
-10.83048448079932
 10
8.854205455685754
 20
-10.83048448079932
 10
8.854205455685754
 20
-10.83048448079932
 10
8.592739933832717
 20
-10.83048448079932
 10
8.592739933832717
 20
-10.83048448079932
 97
        0
 97
        0
 75
     2
 76
     1
 98
        0
450
        0
451
        0
460
0.0
461
0.0
452
        0
462
0.0
453
        0
470

  0
ENDBLK
  5
16C
330
169
100
AcDbEntity
  8
0
100
AcDbBlockEnd
  0
BLOCK
  5
18F
330
18D
100
AcDbEntity
  8
0
100
AcDbBlockBegin
  2
block 42
 70
     0
 10
0.0
 20
0.0
 30
0.0
  3
block 42
  1

  0
SPLINE
  5
191
330
18D
100
AcDbEntity
  8
Livello 1
370
     0
100
AcDbSpline
210
0.0
220
0.0
230
1.0
 70
     9
 71
     3
 72
    38
 73
    34
 74
     0
 42
0.000000001
 43
0.0000000001
 40
0.0
 40
0.0
 40
0.0
 40
0.0
 40
1.0
 40
1.0
 40
1.0
 40
2.0
 40
2.0
 40
2.0
 40
3.0
 40
3.0
 40
3.0
 40
4.0
 40
4.0
 40
4.0
 40
5.0
 40
5.0
 40
5.0
 40
6.0
 40
6.0
 40
6.0
 40
7.0
 40
7.0
 40
7.0
 40
8.0
 40
8.0
 40
8.0
 40
9.0
 40
9.0
 40
9.0
 40
10.0
 40
10.0
 40
10.0
 40
11.0
 40
11.0
 40
11.0
 40
11.0
 10
11.10771131449738
 20
-14.44680121166608
 30
0.0
 10
11.09437879496946
 20
-14.44607774161417
 30
0.0
 10
11.07732557231747
 20
-14.44680121166608
 30
0.0
 10
11.05882540956168
 20
-14.44976399378339
 30
0.0
 10
10.95660942651432
 20
-14.46681721643538
 30
0.0
 10
10.9025214273959
 20
-14.54161023942015
 30
0.0
 10
10.89142821993339
 20
-14.62088188653575
 30
0.0
 10
10.89142821993339
 20
-14.62088188653575
 30
0.0
 10
10.89363308104395
 20
-14.62088188653575
 30
0.0
 10
10.89363308104395
 20
-14.62088188653575
 30
0.0
 10
10.91661186793057
 20
-14.59049614435585
 30
0.0
 10
10.95660942651432
 20
-14.56531249635867
 30
0.0
 10
11.00993950462599
 20
-14.56531249635867
 30
0.0
 10
11.09510226502136
 20
-14.56531249635867
 30
0.0
 10
11.15511582837441
 20
-14.62680745077038
 30
0.0
 10
11.15511582837441
 20
-14.7208585575177
 30
0.0
 10
11.15511582837441
 20
-14.80901855098524
 30
0.0
 10
11.09510226502136
 20
-14.8904950592114
 30
0.0
 10
10.99512559403941
 20
-14.8904950592114
 30
0.0
 10
10.89218614094015
 20
-14.8904950592114
 30
0.0
 10
10.82476562229381
 20
-14.8104999420439
 30
0.0
 10
10.82476562229381
 20
-14.68530517210992
 30
0.0
 10
10.82476562229381
 20
-14.59049614435585
 30
0.0
 10
10.85883761664293
 20
-14.51570312137107
 30
0.0
 10
10.90624213051997
 20
-14.46829860749404
 30
0.0
 10
10.94623968910372
 20
-14.42902451896219
 30
0.0
 10
10.99956976721538
 20
-14.40459879197177
 30
0.0
 10
11.06030680062034
 20
-14.39719183667848
 30
0.0
 10
11.07956488438289
 20
-14.39422905456116
 30
0.0
 10
11.09586018602811
 20
-14.39347113355441
 30
0.0
 10
11.10771131449738
 20
-14.39347113355441
 30
0.0
 10
11.10771131449738
 20
-14.39347113355441
 30
0.0
 10
11.10771131449738
 20
-14.44680121166608
 30
0.0
 10
11.10771131449738
 20
-14.44680121166608
 30
0.0
  0
SPLINE
  5
192
330
18D
100
AcDbEntity
  8
Livello 1
370
     0
100
AcDbSpline
210
0.0
220
0.0
230
1.0
 70
     9
 71
     3
 72
    20
 73
    16
 74
     0
 42
0.000000001
 43
0.0000000001
 40
0.0
 40
0.0
 40
0.0
 40
0.0
 40
1.0
 40
1.0
 40
1.0
 40
2.0
 40
2.0
 40
2.0
 40
3.0
 40
3.0
 40
3.0
 40
4.0
 40
4.0
 40
4.0
 40
5.0
 40
5.0
 40
5.0
 40
5.0
 10
11.08917670078673
 20
-14.72457926064177
 30
0.0
 10
11.08917670078673
 20
-14.65567735093677
 30
0.0
 10
11.04993706320974
 20
-14.61419840129437
 30
0.0
 10
10.98995795081154
 20
-14.61419840129437
 30
0.0
 10
10.95068386227969
 20
-14.61419840129437
 30
0.0
 10
10.91437255586516
 20
-14.63865857923964
 30
0.0
 10
10.89659586316127
 20
-14.67345404364066
 30
0.0
 10
10.89218614094015
 20
-14.68086099893395
 30
0.0
 10
10.88922335882283
 20
-14.69050726629265
 30
0.0
 10
10.88922335882283
 20
-14.70235839476191
 30
0.0
 10
10.89067029892664
 20
-14.78159559092266
 30
0.0
 10
10.92698160534117
 20
-14.84012776321705
 30
0.0
 10
10.99512559403941
 20
-14.84012776321705
 30
0.0
 10
11.0514184542684
 20
-14.84012776321705
 30
0.0
 10
11.08917670078673
 20
-14.79344671939191
 30
0.0
 10
11.08917670078673
 20
-14.72457926064177
 30
0.0
  0
HATCH
  5
193
330
18D
100
AcDbEntity
  8
Livello 1
 62
   250
420
  1842203
100
AcDbHatch
 10
0.0
 20
0.0
 30
0.0
210
0.0
220
0.0
230
1.0
  2
SOLID
 70
     1
 71
     0
 91
        2
 92
        1
 93
        1
 72
     4
 94
        3
 73
     0
 74
     0
 95
       38
 96
       34
 40
0.0
 40
0.0
 40
0.0
 40
0.0
 40
1.0
 40
1.0
 40
1.0
 40
2.0
 40
2.0
 40
2.0
 40
3.0
 40
3.0
 40
3.0
 40
4.0
 40
4.0
 40
4.0
 40
5.0
 40
5.0
 40
5.0
 40
6.0
 40
6.0
 40
6.0
 40
7.0
 40
7.0
 40
7.0
 40
8.0
 40
8.0
 40
8.0
 40
9.0
 40
9.0
 40
9.0
 40
10.0
 40
10.0
 40
10.0
 40
11.0
 40
11.0
 40
11.0
 40
11.0
 10
11.10771131449738
 20
-14.44680121166608
 10
11.09437879496946
 20
-14.44607774161417
 10
11.07732557231747
 20
-14.44680121166608
 10
11.05882540956168
 20
-14.44976399378339
 10
10.95660942651432
 20
-14.46681721643538
 10
10.9025214273959
 20
-14.54161023942015
 10
10.89142821993339
 20
-14.62088188653575
 10
10.89142821993339
 20
-14.62088188653575
 10
10.89363308104395
 20
-14.62088188653575
 10
10.89363308104395
 20
-14.62088188653575
 10
10.91661186793057
 20
-14.59049614435585
 10
10.95660942651432
 20
-14.56531249635867
 10
11.00993950462599
 20
-14.56531249635867
 10
11.09510226502136
 20
-14.56531249635867
 10
11.15511582837441
 20
-14.62680745077038
 10
11.15511582837441
 20
-14.7208585575177
 10
11.15511582837441
 20
-14.80901855098524
 10
11.09510226502136
 20
-14.8904950592114
 10
10.99512559403941
 20
-14.8904950592114
 10
10.89218614094015
 20
-14.8904950592114
 10
10.82476562229381
 20
-14.8104999420439
 10
10.82476562229381
 20
-14.68530517210992
 10
10.82476562229381
 20
-14.59049614435585
 10
10.85883761664293
 20
-14.51570312137107
 10
10.90624213051997
 20
-14.46829860749404
 10
10.94623968910372
 20
-14.42902451896219
 10
10.99956976721538
 20
-14.40459879197177
 10
11.06030680062034
 20
-14.39719183667848
 10
11.07956488438289
 20
-14.39422905456116
 10
11.09586018602811
 20
-14.39347113355441
 10
11.10771131449738
 20
-14.39347113355441
 10
11.10771131449738
 20
-14.39347113355441
 10
11.10771131449738
 20
-14.44680121166608
 10
11.10771131449738
 20
-14.44680121166608
 97
        0
 97
        0
 92
        1
 93
        1
 72
     4
 94
        3
 73
     0
 74
     0
 95
       20
 96
       16
 40
0.0
 40
0.0
 40
0.0
 40
0.0
 40
1.0
 40
1.0
 40
1.0
 40
2.0
 40
2.0
 40
2.0
 40
3.0
 40
3.0
 40
3.0
 40
4.0
 40
4.0
 40
4.0
 40
5.0
 40
5.0
 40
5.0
 40
5.0
 10
11.08917670078673
 20
-14.72457926064177
 10
11.08917670078673
 20
-14.65567735093677
 10
11.04993706320974
 20
-14.61419840129437
 10
10.98995795081154
 20
-14.61419840129437
 10
10.95068386227969
 20
-14.61419840129437
 10
10.91437255586516
 20
-14.63865857923964
 10
10.89659586316127
 20
-14.67345404364066
 10
10.89218614094015
 20
-14.68086099893395
 10
10.88922335882283
 20
-14.69050726629265
 10
10.88922335882283
 20
-14.70235839476191
 10
10.89067029892664
 20
-14.78159559092266
 10
10.92698160534117
 20
-14.84012776321705
 10
10.99512559403941
 20
-14.84012776321705
 10
11.0514184542684
 20
-14.84012776321705
 10
11.08917670078673
 20
-14.79344671939191
 10
11.08917670078673
 20
-14.72457926064177
 97
        0
 97
        0
 75
     2
 76
     1
 98
        0
450
        0
451
        0
460
0.0
461
0.0
452
        0
462
0.0
453
        0
470

  0
SPLINE
  5
194
330
18D
100
AcDbEntity
  8
Livello 1
370
     0
100
AcDbSpline
210
0.0
220
0.0
230
1.0
 70
     9
 71
     3
 72
    35
 73
    31
 74
     0
 42
0.000000001
 43
0.0000000001
 40
0.0
 40
0.0
 40
0.0
 40
0.0
 40
1.0
 40
1.0
 40
1.0
 40
2.0
 40
2.0
 40
2.0
 40
3.0
 40
3.0
 40
3.0
 40
4.0
 40
4.0
 40
4.0
 40
5.0
 40
5.0
 40
5.0
 40
6.0
 40
6.0
 40
6.0
 40
7.0
 40
7.0
 40
7.0
 40
8.0
 40
8.0
 40
8.0
 40
9.0
 40
9.0
 40
9.0
 40
10.0
 40
10.0
 40
10.0
 40
10.0
 10
11.64628309170648
 20
-14.86899766338344
 30
0.0
 10
11.6292298690545
 20
-14.87788600973539
 30
0.0
 10
11.59147162253616
 20
-14.88973713820465
 30
0.0
 10
11.54330918765237
 20
-14.88973713820465
 30
0.0
 10
11.43520209132523
 20
-14.88973713820465
 30
0.0
 10
11.36481879056157
 20
-14.81642550627853
 30
0.0
 10
11.36481879056157
 20
-14.70680256793788
 30
0.0
 10
11.36481879056157
 20
-14.59642170859048
 30
0.0
 10
11.44036973455309
 20
-14.51642659142298
 30
0.0
 10
11.55739962818704
 20
-14.51642659142298
 30
0.0
 10
11.59591579571213
 20
-14.51642659142298
 30
0.0
 10
11.62998779006125
 20
-14.52607285878167
 30
0.0
 10
11.64776448276514
 20
-14.53496120513362
 30
0.0
 10
11.64776448276514
 20
-14.53496120513362
 30
0.0
 10
11.63295057217857
 20
-14.58532850112797
 30
0.0
 10
11.63295057217857
 20
-14.58532850112797
 30
0.0
 10
11.61737874058524
 20
-14.57644015477603
 30
0.0
 10
11.59295301359482
 20
-14.56827527847599
 30
0.0
 10
11.55739962818704
 20
-14.56827527847599
 30
0.0
 10
11.47516519895412
 20
-14.56827527847599
 30
0.0
 10
11.4307234671944
 20
-14.62901231188094
 30
0.0
 10
11.4307234671944
 20
-14.70383978582057
 30
0.0
 10
11.4307234671944
 20
-14.78679768510538
 30
0.0
 10
11.48405354530607
 20
-14.83788845115164
 30
0.0
 10
11.55516031612163
 20
-14.83788845115164
 30
0.0
 10
11.59222954354291
 20
-14.83788845115164
 30
0.0
 10
11.61665527053334
 20
-14.82827663474779
 30
0.0
 10
11.63515543328913
 20
-14.82011175844775
 30
0.0
 10
11.63515543328913
 20
-14.82011175844775
 30
0.0
 10
11.64628309170648
 20
-14.86899766338344
 30
0.0
 10
11.64628309170648
 20
-14.86899766338344
 30
0.0
  0
HATCH
  5
195
330
18D
100
AcDbEntity
  8
Livello 1
 62
   250
420
  1842203
100
AcDbHatch
 10
0.0
 20
0.0
 30
0.0
210
0.0
220
0.0
230
1.0
  2
SOLID
 70
     1
 71
     0
 91
        1
 92
        1
 93
        1
 72
     4
 94
        3
 73
     0
 74
     0
 95
       35
 96
       31
 40
0.0
 40
0.0
 40
0.0
 40
0.0
 40
1.0
 40
1.0
 40
1.0
 40
2.0
 40
2.0
 40
2.0
 40
3.0
 40
3.0
 40
3.0
 40
4.0
 40
4.0
 40
4.0
 40
5.0
 40
5.0
 40
5.0
 40
6.0
 40
6.0
 40
6.0
 40
7.0
 40
7.0
 40
7.0
 40
8.0
 40
8.0
 40
8.0
 40
9.0
 40
9.0
 40
9.0
 40
10.0
 40
10.0
 40
10.0
 40
10.0
 10
11.64628309170648
 20
-14.86899766338344
 10
11.6292298690545
 20
-14.87788600973539
 10
11.59147162253616
 20
-14.88973713820465
 10
11.54330918765237
 20
-14.88973713820465
 10
11.43520209132523
 20
-14.88973713820465
 10
11.36481879056157
 20
-14.81642550627853
 10
11.36481879056157
 20
-14.70680256793788
 10
11.36481879056157
 20
-14.59642170859048
 10
11.44036973455309
 20
-14.51642659142298
 10
11.55739962818704
 20
-14.51642659142298
 10
11.59591579571213
 20
-14.51642659142298
 10
11.62998779006125
 20
-14.52607285878167
 10
11.64776448276514
 20
-14.53496120513362
 10
11.64776448276514
 20
-14.53496120513362
 10
11.63295057217857
 20
-14.58532850112797
 10
11.63295057217857
 20
-14.58532850112797
 10
11.61737874058524
 20
-14.57644015477603
 10
11.59295301359482
 20
-14.56827527847599
 10
11.55739962818704
 20
-14.56827527847599
 10
11.47516519895412
 20
-14.56827527847599
 10
11.4307234671944
 20
-14.62901231188094
 10
11.4307234671944
 20
-14.70383978582057
 10
11.4307234671944
 20
-14.78679768510538
 10
11.48405354530607
 20
-14.83788845115164
 10
11.55516031612163
 20
-14.83788845115164
 10
11.59222954354291
 20
-14.83788845115164
 10
11.61665527053334
 20
-14.82827663474779
 10
11.63515543328913
 20
-14.82011175844775
 10
11.63515543328913
 20
-14.82011175844775
 10
11.64628309170648
 20
-14.86899766338344
 10
11.64628309170648
 20
-14.86899766338344
 97
        0
 97
        0
 75
     2
 76
     1
 98
        0
450
        0
451
        0
460
0.0
461
0.0
452
        0
462
0.0
453
        0
470

  0
SPLINE
  5
196
330
18D
100
AcDbEntity
  8
Livello 1
370
     0
100
AcDbSpline
210
0.0
220
0.0
230
1.0
 70
     9
 71
     3
 72
    80
 73
    76
 74
     0
 42
0.000000001
 43
0.0000000001
 40
0.0
 40
0.0
 40
0.0
 40
0.0
 40
1.0
 40
1.0
 40
1.0
 40
2.0
 40
2.0
 40
2.0
 40
3.0
 40
3.0
 40
3.0
 40
4.0
 40
4.0
 40
4.0
 40
5.0
 40
5.0
 40
5.0
 40
6.0
 40
6.0
 40
6.0
 40
7.0
 40
7.0
 40
7.0
 40
8.0
 40
8.0
 40
8.0
 40
9.0
 40
9.0
 40
9.0
 40
10.0
 40
10.0
 40
10.0
 40
11.0
 40
11.0
 40
11.0
 40
12.0
 40
12.0
 40
12.0
 40
13.0
 40
13.0
 40
13.0
 40
14.0
 40
14.0
 40
14.0
 40
15.0
 40
15.0
 40
15.0
 40
16.0
 40
16.0
 40
16.0
 40
17.0
 40
17.0
 40
17.0
 40
18.0
 40
18.0
 40
18.0
 40
19.0
 40
19.0
 40
19.0
 40
20.0
 40
20.0
 40
20.0
 40
21.0
 40
21.0
 40
21.0
 40
22.0
 40
22.0
 40
22.0
 40
23.0
 40
23.0
 40
23.0
 40
24.0
 40
24.0
 40
24.0
 40
25.0
 40
25.0
 40
25.0
 40
25.0
 10
11.72266085861447
 20
-14.62088188653575
 30
0.0
 10
11.72266085861447
 20
-14.58384711006931
 30
0.0
 10
11.72190293760772
 20
-14.55346136788941
 30
0.0
 10
11.71969807649716
 20
-14.52383354671626
 30
0.0
 10
11.71969807649716
 20
-14.52383354671626
 30
0.0
 10
11.77671440677804
 20
-14.52383354671626
 30
0.0
 10
11.77671440677804
 20
-14.52383354671626
 30
0.0
 10
11.77671440677804
 20
-14.52383354671626
 30
0.0
 10
11.77967718889536
 20
-14.5816077980039
 30
0.0
 10
11.77967718889536
 20
-14.5816077980039
 30
0.0
 10
11.77967718889536
 20
-14.5816077980039
 30
0.0
 10
11.78191650096077
 20
-14.5816077980039
 30
0.0
 10
11.78191650096077
 20
-14.5816077980039
 30
0.0
 10
11.80189805477522
 20
-14.54753580365478
 30
0.0
 10
11.83524657907244
 20
-14.51570312137107
 30
0.0
 10
11.89450222141874
 20
-14.51570312137107
 30
0.0
 10
11.94335367539958
 20
-14.51570312137107
 30
0.0
 10
11.98042290282087
 20
-14.54533094254422
 30
0.0
 10
11.99596028345934
 20
-14.58753336223853
 30
0.0
 10
11.99596028345934
 20
-14.58753336223853
 30
0.0
 10
11.997441674518
 20
-14.58753336223853
 30
0.0
 10
11.997441674518
 20
-14.58753336223853
 30
0.0
 10
12.0085348819805
 20
-14.56755180842408
 30
0.0
 10
12.02262532251518
 20
-14.55197997683075
 30
0.0
 10
12.03743923310175
 20
-14.54088676936825
 30
0.0
 10
12.05890217797486
 20
-14.52459146772302
 30
0.0
 10
12.08260443491338
 20
-14.51570312137107
 30
0.0
 10
12.11671088021735
 20
-14.51570312137107
 30
0.0
 10
12.16411539409439
 20
-14.51570312137107
 30
0.0
 10
12.23446424390319
 20
-14.54681233360288
 30
0.0
 10
12.23446424390319
 20
-14.6712491825301
 30
0.0
 10
12.23446424390319
 20
-14.6712491825301
 30
0.0
 10
12.23446424390319
 20
-14.88233018291136
 30
0.0
 10
12.23446424390319
 20
-14.88233018291136
 30
0.0
 10
12.23446424390319
 20
-14.88233018291136
 30
0.0
 10
12.17076442838092
 20
-14.88233018291136
 30
0.0
 10
12.17076442838092
 20
-14.88233018291136
 30
0.0
 10
12.17076442838092
 20
-14.88233018291136
 30
0.0
 10
12.17076442838092
 20
-14.67937960787529
 30
0.0
 10
12.17076442838092
 20
-14.67937960787529
 30
0.0
 10
12.17076442838092
 20
-14.61051214912515
 30
0.0
 10
12.14558078038374
 20
-14.56903319948274
 30
0.0
 10
12.09300862327883
 20
-14.56903319948274
 30
0.0
 10
12.05593939585754
 20
-14.56903319948274
 30
0.0
 10
12.02706949569115
 20
-14.59642170859048
 30
0.0
 10
12.01597628822864
 20
-14.62828884182904
 30
0.0
 10
12.01301350611133
 20
-14.63717718818098
 30
0.0
 10
12.01077419404592
 20
-14.64902831665024
 30
0.0
 10
12.01077419404592
 20
-14.6608794451195
 30
0.0
 10
12.01077419404592
 20
-14.6608794451195
 30
0.0
 10
12.01077419404592
 20
-14.88233018291136
 30
0.0
 10
12.01077419404592
 20
-14.88233018291136
 30
0.0
 10
12.01077419404592
 20
-14.88233018291136
 30
0.0
 10
11.94707437852365
 20
-14.88233018291136
 30
0.0
 10
11.94707437852365
 20
-14.88233018291136
 30
0.0
 10
11.94707437852365
 20
-14.88233018291136
 30
0.0
 10
11.94707437852365
 20
-14.66752847940603
 30
0.0
 10
11.94707437852365
 20
-14.66752847940603
 30
0.0
 10
11.94707437852365
 20
-14.61051214912515
 30
0.0
 10
11.92189073052647
 20
-14.56903319948274
 30
0.0
 10
11.87224690458402
 20
-14.56903319948274
 30
0.0
 10
11.83152587594837
 20
-14.56903319948274
 30
0.0
 10
11.80189805477522
 20
-14.6016238027732
 30
0.0
 10
11.79152831736462
 20
-14.63421440606367
 30
0.0
 10
11.7878420651954
 20
-14.64382622246752
 30
0.0
 10
11.78632622318189
 20
-14.65495388088487
 30
0.0
 10
11.78632622318189
 20
-14.66604708834738
 30
0.0
 10
11.78632622318189
 20
-14.66604708834738
 30
0.0
 10
11.78632622318189
 20
-14.88233018291136
 30
0.0
 10
11.78632622318189
 20
-14.88233018291136
 30
0.0
 10
11.78632622318189
 20
-14.88233018291136
 30
0.0
 10
11.72266085861447
 20
-14.88233018291136
 30
0.0
 10
11.72266085861447
 20
-14.88233018291136
 30
0.0
 10
11.72266085861447
 20
-14.88233018291136
 30
0.0
 10
11.72266085861447
 20
-14.62088188653575
 30
0.0
 10
11.72266085861447
 20
-14.62088188653575
 30
0.0
  0
HATCH
  5
197
330
18D
100
AcDbEntity
  8
Livello 1
 62
   250
420
  1842203
100
AcDbHatch
 10
0.0
 20
0.0
 30
0.0
210
0.0
220
0.0
230
1.0
  2
SOLID
 70
     1
 71
     0
 91
        1
 92
        1
 93
        1
 72
     4
 94
        3
 73
     0
 74
     0
 95
       80
 96
       76
 40
0.0
 40
0.0
 40
0.0
 40
0.0
 40
1.0
 40
1.0
 40
1.0
 40
2.0
 40
2.0
 40
2.0
 40
3.0
 40
3.0
 40
3.0
 40
4.0
 40
4.0
 40
4.0
 40
5.0
 40
5.0
 40
5.0
 40
6.0
 40
6.0
 40
6.0
 40
7.0
 40
7.0
 40
7.0
 40
8.0
 40
8.0
 40
8.0
 40
9.0
 40
9.0
 40
9.0
 40
10.0
 40
10.0
 40
10.0
 40
11.0
 40
11.0
 40
11.0
 40
12.0
 40
12.0
 40
12.0
 40
13.0
 40
13.0
 40
13.0
 40
14.0
 40
14.0
 40
14.0
 40
15.0
 40
15.0
 40
15.0
 40
16.0
 40
16.0
 40
16.0
 40
17.0
 40
17.0
 40
17.0
 40
18.0
 40
18.0
 40
18.0
 40
19.0
 40
19.0
 40
19.0
 40
20.0
 40
20.0
 40
20.0
 40
21.0
 40
21.0
 40
21.0
 40
22.0
 40
22.0
 40
22.0
 40
23.0
 40
23.0
 40
23.0
 40
24.0
 40
24.0
 40
24.0
 40
25.0
 40
25.0
 40
25.0
 40
25.0
 10
11.72266085861447
 20
-14.62088188653575
 10
11.72266085861447
 20
-14.58384711006931
 10
11.72190293760772
 20
-14.55346136788941
 10
11.71969807649716
 20
-14.52383354671626
 10
11.71969807649716
 20
-14.52383354671626
 10
11.77671440677804
 20
-14.52383354671626
 10
11.77671440677804
 20
-14.52383354671626
 10
11.77671440677804
 20
-14.52383354671626
 10
11.77967718889536
 20
-14.5816077980039
 10
11.77967718889536
 20
-14.5816077980039
 10
11.77967718889536
 20
-14.5816077980039
 10
11.78191650096077
 20
-14.5816077980039
 10
11.78191650096077
 20
-14.5816077980039
 10
11.80189805477522
 20
-14.54753580365478
 10
11.83524657907244
 20
-14.51570312137107
 10
11.89450222141874
 20
-14.51570312137107
 10
11.94335367539958
 20
-14.51570312137107
 10
11.98042290282087
 20
-14.54533094254422
 10
11.99596028345934
 20
-14.58753336223853
 10
11.99596028345934
 20
-14.58753336223853
 10
11.997441674518
 20
-14.58753336223853
 10
11.997441674518
 20
-14.58753336223853
 10
12.0085348819805
 20
-14.56755180842408
 10
12.02262532251518
 20
-14.55197997683075
 10
12.03743923310175
 20
-14.54088676936825
 10
12.05890217797486
 20
-14.52459146772302
 10
12.08260443491338
 20
-14.51570312137107
 10
12.11671088021735
 20
-14.51570312137107
 10
12.16411539409439
 20
-14.51570312137107
 10
12.23446424390319
 20
-14.54681233360288
 10
12.23446424390319
 20
-14.6712491825301
 10
12.23446424390319
 20
-14.6712491825301
 10
12.23446424390319
 20
-14.88233018291136
 10
12.23446424390319
 20
-14.88233018291136
 10
12.23446424390319
 20
-14.88233018291136
 10
12.17076442838092
 20
-14.88233018291136
 10
12.17076442838092
 20
-14.88233018291136
 10
12.17076442838092
 20
-14.88233018291136
 10
12.17076442838092
 20
-14.67937960787529
 10
12.17076442838092
 20
-14.67937960787529
 10
12.17076442838092
 20
-14.61051214912515
 10
12.14558078038374
 20
-14.56903319948274
 10
12.09300862327883
 20
-14.56903319948274
 10
12.05593939585754
 20
-14.56903319948274
 10
12.02706949569115
 20
-14.59642170859048
 10
12.01597628822864
 20
-14.62828884182904
 10
12.01301350611133
 20
-14.63717718818098
 10
12.01077419404592
 20
-14.64902831665024
 10
12.01077419404592
 20
-14.6608794451195
 10
12.01077419404592
 20
-14.6608794451195
 10
12.01077419404592
 20
-14.88233018291136
 10
12.01077419404592
 20
-14.88233018291136
 10
12.01077419404592
 20
-14.88233018291136
 10
11.94707437852365
 20
-14.88233018291136
 10
11.94707437852365
 20
-14.88233018291136
 10
11.94707437852365
 20
-14.88233018291136
 10
11.94707437852365
 20
-14.66752847940603
 10
11.94707437852365
 20
-14.66752847940603
 10
11.94707437852365
 20
-14.61051214912515
 10
11.92189073052647
 20
-14.56903319948274
 10
11.87224690458402
 20
-14.56903319948274
 10
11.83152587594837
 20
-14.56903319948274
 10
11.80189805477522
 20
-14.6016238027732
 10
11.79152831736462
 20
-14.63421440606367
 10
11.7878420651954
 20
-14.64382622246752
 10
11.78632622318189
 20
-14.65495388088487
 10
11.78632622318189
 20
-14.66604708834738
 10
11.78632622318189
 20
-14.66604708834738
 10
11.78632622318189
 20
-14.88233018291136
 10
11.78632622318189
 20
-14.88233018291136
 10
11.78632622318189
 20
-14.88233018291136
 10
11.72266085861447
 20
-14.88233018291136
 10
11.72266085861447
 20
-14.88233018291136
 10
11.72266085861447
 20
-14.88233018291136
 10
11.72266085861447
 20
-14.62088188653575
 10
11.72266085861447
 20
-14.62088188653575
 97
        0
 97
        0
 75
     2
 76
     1
 98
        0
450
        0
451
        0
460
0.0
461
0.0
452
        0
462
0.0
453
        0
470

  0
ENDBLK
  5
190
330
18D
100
AcDbEntity
  8
0
100
AcDbBlockEnd
  0
BLOCK
  5
19A
330
198
100
AcDbEntity
  8
0
100
AcDbBlockBegin
  2
block 43
 70
     0
 10
0.0
 20
0.0
 30
0.0
  3
block 43
  1

  0
ENDBLK
  5
19B
330
198
100
AcDbEntity
  8
0
100
AcDbBlockEnd
  0
ENDSEC
  0
SECTION
  2
ENTITIES
  0
INSERT
  5
199
330
1F
100
AcDbEntity
  8
Livello 1
100
AcDbBlockReference
  2
block 43
 10
0.0
 20
0.0
 30
0.0
  0
POLYLINE
  5
1D3
330
1F
100
AcDbEntity
  8
Livello 1
100
AcDb2dPolyline
 66
     1
 10
0.0
 20
0.0
 30
0.0
  0
VERTEX
  5
1D4
330
1D3
100
AcDbEntity
  8
Livello 1
100
AcDbVertex
100
AcDb2dVertex
 10
10.79958936336841
 20
-13.73227363545582
 30
0.0
  0
VERTEX
  5
1D5
330
1D3
100
AcDbEntity
  8
Livello 1
100
AcDbVertex
100
AcDb2dVertex
 10
12.66061909366736
 20
-13.73227363545582
 30
0.0
  0
SEQEND
  5
1D6
330
1D3
100
AcDbEntity
  8
Livello 1
  0
POLYLINE
  5
1D7
330
1F
100
AcDbEntity
  8
Livello 1
100
AcDb2dPolyline
 66
     1
 10
0.0
 20
0.0
 30
0.0
  0
VERTEX
  5
1D8
330
1D7
100
AcDbEntity
  8
Livello 1
100
AcDbVertex
100
AcDb2dVertex
 10
10.79958936336841
 20
-13.73227363545582
 30
0.0
  0
VERTEX
  5
1D9
330
1D7
100
AcDbEntity
  8
Livello 1
100
AcDbVertex
100
AcDb2dVertex
 10
10.79958936336841
 20
-9.016128636634872
 30
0.0
  0
SEQEND
  5
1DA
330
1D7
100
AcDbEntity
  8
Livello 1
  0
POLYLINE
  5
1DB
330
1F
100
AcDbEntity
  8
Livello 1
100
AcDb2dPolyline
 66
     1
 10
0.0
 20
0.0
 30
0.0
  0
VERTEX
  5
1DC
330
1DB
100
AcDbEntity
  8
Livello 1
100
AcDbVertex
100
AcDb2dVertex
 10
10.79958936336841
 20
-9.016128636634872
 30
0.0
  0
VERTEX
  5
1DD
330
1DB
100
AcDbEntity
  8
Livello 1
100
AcDbVertex
100
AcDb2dVertex
 10
11.58318639893274
 20
-9.016128636634872
 30
0.0
  0
SEQEND
  5
1DE
330
1DB
100
AcDbEntity
  8
Livello 1
  0
SPLINE
  5
1DF
330
1F
100
AcDbEntity
  8
Livello 1
100
AcDbSpline
210
0.0
220
0.0
230
1.0
 70
     8
 71
     3
 72
     8
 73
     4
 74
     0
 42
0.000000001
 43
0.0000000001
 40
0.0
 40
0.0
 40
0.0
 40
0.0
 40
1.0
 40
1.0
 40
1.0
 40
1.0
 10
11.40062743136798
 20
-8.599138247850225
 30
0.0
 10
11.50145131768464
 20
-8.599138247850225
 30
0.0
 10
11.58318639893274
 20
-8.680869803385334
 30
0.0
 10
11.58318639893274
 20
-8.781697220026808
 30
0.0
  0
POLYLINE
  5
1E0
330
1F
100
AcDbEntity
  8
Livello 1
100
AcDb2dPolyline
 66
     1
 10
0.0
 20
0.0
 30
0.0
  0
VERTEX
  5
1E1
330
1E0
100
AcDbEntity
  8
Livello 1
100
AcDbVertex
100
AcDb2dVertex
 10
11.58318639893274
 20
-8.781697220026808
 30
0.0
  0
VERTEX
  5
1E2
330
1E0
100
AcDbEntity
  8
Livello 1
100
AcDbVertex
100
AcDb2dVertex
 10
11.58318639893274
 20
-9.016128636634872
 30
0.0
  0
SEQEND
  5
1E3
330
1E0
100
AcDbEntity
  8
Livello 1
  0
POLYLINE
  5
1E4
330
1F
100
AcDbEntity
  8
Livello 1
100
AcDb2dPolyline
 66
     1
 10
0.0
 20
0.0
 30
0.0
  0
VERTEX
  5
1E5
330
1E4
100
AcDbEntity
  8
Livello 1
100
AcDbVertex
100
AcDb2dVertex
 10
11.58318639893274
 20
-9.016128636634872
 30
0.0
  0
VERTEX
  5
1E6
330
1E4
100
AcDbEntity
  8
Livello 1
100
AcDbVertex
100
AcDb2dVertex
 10
11.58318639893274
 20
-10.77019619175187
 30
0.0
  0
SEQEND
  5
1E7
330
1E4
100
AcDbEntity
  8
Livello 1
  0
SPLINE
  5
1E8
330
1F
100
AcDbEntity
  8
Livello 1
100
AcDbSpline
210
0.0
220
0.0
230
1.0
 70
     8
 71
     3
 72
     8
 73
     4
 74
     0
 42
0.000000001
 43
0.0000000001
 40
0.0
 40
0.0
 40
0.0
 40
0.0
 40
1.0
 40
1.0
 40
1.0
 40
1.0
 10
11.58318639893274
 20
-10.77019619175187
 30
0.0
 10
11.58318639893274
 20
-10.85133508062052
 30
0.0
 10
11.64896181392134
 20
-10.91711402504848
 30
0.0
 10
11.73010422851789
 20
-10.91711402504848
 30
0.0
  0
SPLINE
  5
1E9
330
1F
100
AcDbEntity
  8
Livello 1
100
AcDbSpline
210
0.0
220
0.0
230
1.0
 70
     8
 71
     3
 72
     8
 73
     4
 74
     0
 42
0.000000001
 43
0.0000000001
 40
0.0
 40
0.0
 40
0.0
 40
0.0
 40
1.0
 40
1.0
 40
1.0
 40
1.0
 10
11.58318639893274
 20
-10.89921408060856
 30
0.0
 10
11.58318639893274
 20
-10.98035296947714
 30
0.0
 10
11.64896181392134
 20
-11.0461319139051
 30
0.0
 10
11.73010422851789
 20
-11.0461319139051
 30
0.0
  0
POLYLINE
  5
1EA
330
1F
100
AcDbEntity
  8
Livello 1
100
AcDb2dPolyline
 66
     1
 10
0.0
 20
0.0
 30
0.0
  0
VERTEX
  5
1EB
330
1EA
100
AcDbEntity
  8
Livello 1
100
AcDbVertex
100
AcDb2dVertex
 10
11.58318639893274
 20
-10.89921408060856
 30
0.0
  0
VERTEX
  5
1EC
330
1EA
100
AcDbEntity
  8
Livello 1
100
AcDbVertex
100
AcDb2dVertex
 10
11.58318639893274
 20
-10.77019619175187
 30
0.0
  0
SEQEND
  5
1ED
330
1EA
100
AcDbEntity
  8
Livello 1
  0
SPLINE
  5
1EE
330
1F
100
AcDbEntity
  8
Livello 1
100
AcDbSpline
210
0.0
220
0.0
230
1.0
 70
     8
 71
     3
 72
     8
 73
     4
 74
     0
 42
0.000000001
 43
0.0000000001
 40
0.0
 40
0.0
 40
0.0
 40
0.0
 40
1.0
 40
1.0
 40
1.0
 40
1.0
 10
12.05958102566779
 20
-8.599138247850225
 30
0.0
 10
11.95875713935113
 20
-8.599138247850225
 30
0.0
 10
11.87702205810303
 20
-8.680869803385334
 30
0.0
 10
11.87702205810303
 20
-8.781697220026808
 30
0.0
  0
POLYLINE
  5
1EF
330
1F
100
AcDbEntity
  8
Livello 1
100
AcDb2dPolyline
 66
     1
 10
0.0
 20
0.0
 30
0.0
  0
VERTEX
  5
1F0
330
1EF
100
AcDbEntity
  8
Livello 1
100
AcDbVertex
100
AcDb2dVertex
 10
11.87702205810303
 20
-8.781697220026808
 30
0.0
  0
VERTEX
  5
1F1
330
1EF
100
AcDbEntity
  8
Livello 1
100
AcDbVertex
100
AcDb2dVertex
 10
11.87702205810303
 20
-9.016128636634872
 30
0.0
  0
SEQEND
  5
1F2
330
1EF
100
AcDbEntity
  8
Livello 1
  0
POLYLINE
  5
1F3
330
1F
100
AcDbEntity
  8
Livello 1
100
AcDb2dPolyline
 66
     1
 10
0.0
 20
0.0
 30
0.0
  0
VERTEX
  5
1F4
330
1F3
100
AcDbEntity
  8
Livello 1
100
AcDbVertex
100
AcDb2dVertex
 10
11.87702205810303
 20
-9.016128636634872
 30
0.0
  0
VERTEX
  5
1F5
330
1F3
100
AcDbEntity
  8
Livello 1
100
AcDbVertex
100
AcDb2dVertex
 10
11.87702205810303
 20
-10.77019619175187
 30
0.0
  0
SEQEND
  5
1F6
330
1F3
100
AcDbEntity
  8
Livello 1
  0
SPLINE
  5
1F7
330
1F
100
AcDbEntity
  8
Livello 1
100
AcDbSpline
210
0.0
220
0.0
230
1.0
 70
     8
 71
     3
 72
     8
 73
     4
 74
     0
 42
0.000000001
 43
0.0000000001
 40
0.0
 40
0.0
 40
0.0
 40
0.0
 40
1.0
 40
1.0
 40
1.0
 40
1.0
 10
11.73010422851789
 20
-10.91711402504848
 30
0.0
 10
11.81124311533675
 20
-10.91711402504848
 30
0.0
 10
11.87702205810303
 20
-10.85133508062052
 30
0.0
 10
11.87702205810303
 20
-10.77019619175187
 30
0.0
  0
SPLINE
  5
1F8
330
1F
100
AcDbEntity
  8
Livello 1
100
AcDbSpline
210
0.0
220
0.0
230
1.0
 70
     8
 71
     3
 72
     8
 73
     4
 74
     0
 42
0.000000001
 43
0.0000000001
 40
0.0
 40
0.0
 40
0.0
 40
0.0
 40
1.0
 40
1.0
 40
1.0
 40
1.0
 10
11.73010422851789
 20
-11.0461319139051
 30
0.0
 10
11.81124311533675
 20
-11.0461319139051
 30
0.0
 10
11.87702205810303
 20
-10.98035296947714
 30
0.0
 10
11.87702205810303
 20
-10.89921408060856
 30
0.0
  0
POLYLINE
  5
1F9
330
1F
100
AcDbEntity
  8
Livello 1
100
AcDb2dPolyline
 66
     1
 10
0.0
 20
0.0
 30
0.0
  0
VERTEX
  5
1FA
330
1F9
100
AcDbEntity
  8
Livello 1
100
AcDbVertex
100
AcDb2dVertex
 10
11.87702205810303
 20
-10.89921408060856
 30
0.0
  0
VERTEX
  5
1FB
330
1F9
100
AcDbEntity
  8
Livello 1
100
AcDbVertex
100
AcDb2dVertex
 10
11.87702205810303
 20
-10.77019619175187
 30
0.0
  0
SEQEND
  5
1FC
330
1F9
100
AcDbEntity
  8
Livello 1
  0
POLYLINE
  5
1FD
330
1F
100
AcDbEntity
  8
Livello 1
100
AcDb2dPolyline
 66
     1
 10
0.0
 20
0.0
 30
0.0
  0
VERTEX
  5
1FE
330
1FD
100
AcDbEntity
  8
Livello 1
100
AcDbVertex
100
AcDb2dVertex
 10
12.66061909366736
 20
-13.73227363545582
 30
0.0
  0
VERTEX
  5
1FF
330
1FD
100
AcDbEntity
  8
Livello 1
100
AcDbVertex
100
AcDb2dVertex
 10
12.66061909366736
 20
-9.016128636634872
 30
0.0
  0
SEQEND
  5
200
330
1FD
100
AcDbEntity
  8
Livello 1
  0
POLYLINE
  5
201
330
1F
100
AcDbEntity
  8
Livello 1
100
AcDb2dPolyline
 66
     1
 10
0.0
 20
0.0
 30
0.0
  0
VERTEX
  5
202
330
201
100
AcDbEntity
  8
Livello 1
100
AcDbVertex
100
AcDb2dVertex
 10
12.66061909366736
 20
-9.016128636634872
 30
0.0
  0
VERTEX
  5
203
330
201
100
AcDbEntity
  8
Livello 1
100
AcDbVertex
100
AcDb2dVertex
 10
11.87702205810303
 20
-9.016128636634872
 30
0.0
  0
SEQEND
  5
204
330
201
100
AcDbEntity
  8
Livello 1
  0
POLYLINE
  5
208
330
1F
100
AcDbEntity
  8
Livello 1
100
AcDb2dPolyline
 66
     1
 10
0.0
 20
0.0
 30
0.0
  0
VERTEX
  5
209
330
208
100
AcDbEntity
  8
Livello 1
100
AcDbVertex
100
AcDb2dVertex
 10
10.37398415200428
 20
-7.893212275804473
 30
0.0
  0
VERTEX
  5
20A
330
208
100
AcDbEntity
  8
Livello 1
100
AcDbVertex
100
AcDb2dVertex
 10
13.08622430503149
 20
-7.893212275804473
 30
0.0
  0
VERTEX
  5
20B
330
208
100
AcDbEntity
  8
Livello 1
100
AcDbVertex
100
AcDb2dVertex
 10
13.08622430503149
 20
-8.492793386765692
 30
0.0
  0
VERTEX
  5
20C
330
208
100
AcDbEntity
  8
Livello 1
100
AcDbVertex
100
AcDb2dVertex
 10
10.37398415200428
 20
-8.492793386765692
 30
0.0
  0
VERTEX
  5
20D
330
208
100
AcDbEntity
  8
Livello 1
100
AcDbVertex
100
AcDb2dVertex
 10
10.37398415200428
 20
-7.893212275804473
 30
0.0
  0
SEQEND
  5
20E
330
208
100
AcDbEntity
  8
Livello 1
  0
POLYLINE
  5
20F
330
1F
100
AcDbEntity
  8
Livello 1
100
AcDb2dPolyline
 66
     1
 10
0.0
 20
0.0
 30
0.0
  0
VERTEX
  5
210
330
20F
100
AcDbEntity
  8
Livello 1
100
AcDbVertex
100
AcDb2dVertex
 10
13.48777007256498
 20
-8.599138247850225
 30
0.0
  0
VERTEX
  5
211
330
20F
100
AcDbEntity
  8
Livello 1
100
AcDbVertex
100
AcDb2dVertex
 10
9.972438384470786
 20
-8.599138247850225
 30
0.0
  0
VERTEX
  5
212
330
20F
100
AcDbEntity
  8
Livello 1
100
AcDbVertex
100
AcDb2dVertex
 10
9.972438384470786
 20
-8.492793386765692
 30
0.0
  0
VERTEX
  5
213
330
20F
100
AcDbEntity
  8
Livello 1
100
AcDbVertex
100
AcDb2dVertex
 10
13.48777007256498
 20
-8.492793386765692
 30
0.0
  0
VERTEX
  5
214
330
20F
100
AcDbEntity
  8
Livello 1
100
AcDbVertex
100
AcDb2dVertex
 10
13.48777007256498
 20
-8.599138247850225
 30
0.0
  0
SEQEND
  5
215
330
20F
100
AcDbEntity
  8
Livello 1
  0
POLYLINE
  5
237
330
1F
100
AcDbEntity
  8
Livello 1
100
AcDb2dPolyline
 66
     1
 10
0.0
 20
0.0
 30
0.0
  0
VERTEX
  5
238
330
237
100
AcDbEntity
  8
Livello 1
100
AcDbVertex
100
AcDb2dVertex
 10
10.62902131216441
 20
-7.267892498183035
 30
0.0
  0
VERTEX
  5
239
330
237
100
AcDbEntity
  8
Livello 1
100
AcDbVertex
100
AcDb2dVertex
 10
10.69909356037672
 20
-7.310740887061187
 30
0.0
  0
VERTEX
  5
23A
330
237
100
AcDbEntity
  8
Livello 1
100
AcDbVertex
100
AcDb2dVertex
 10
10.0054231058515
 20
-8.448308108999022
 30
0.0
  0
VERTEX
  5
23B
330
237
100
AcDbEntity
  8
Livello 1
100
AcDbVertex
100
AcDb2dVertex
 10
9.93535438541688
 20
-8.405463247898619
 30
0.0
  0
VERTEX
  5
23C
330
237
100
AcDbEntity
  8
Livello 1
100
AcDbVertex
100
AcDb2dVertex
 10
10.62902131216441
 20
-7.267892498183035
 30
0.0
  0
SEQEND
  5
23D
330
237
100
AcDbEntity
  8
Livello 1
  0
POLYLINE
  5
23E
330
1F
100
AcDbEntity
  8
Livello 1
100
AcDb2dPolyline
 66
     1
 10
0.0
 20
0.0
 30
0.0
  0
VERTEX
  5
23F
330
23E
100
AcDbEntity
  8
Livello 1
100
AcDbVertex
100
AcDb2dVertex
 10
12.83118714487136
 20
-7.267892498183035
 30
0.0
  0
VERTEX
  5
240
330
23E
100
AcDbEntity
  8
Livello 1
100
AcDbVertex
100
AcDb2dVertex
 10
12.76111489665906
 20
-7.310740887061187
 30
0.0
  0
VERTEX
  5
241
330
23E
100
AcDbEntity
  8
Livello 1
100
AcDbVertex
100
AcDb2dVertex
 10
13.45478182340658
 20
-8.448308108999022
 30
0.0
  0
VERTEX
  5
242
330
23E
100
AcDbEntity
  8
Livello 1
100
AcDbVertex
100
AcDb2dVertex
 10
13.52485407161889
 20
-8.405463247898619
 30
0.0
  0
VERTEX
  5
243
330
23E
100
AcDbEntity
  8
Livello 1
100
AcDbVertex
100
AcDb2dVertex
 10
12.83118714487136
 20
-7.267892498183035
 30
0.0
  0
SEQEND
  5
244
330
23E
100
AcDbEntity
  8
Livello 1
  0
LINE
  5
253
330
1F
100
AcDbEntity
  8
Livello 1
100
AcDbLine
 10
11.13658170762894
 20
-19.29185573313905
 30
0.0
 11
13.04243467057846
 21
-19.29185573313905
 31
0.0
  0
LINE
  5
254
330
1F
100
AcDbEntity
  8
Livello 1
100
AcDbLine
 10
9.159156376311033
 20
-7.192746911782052
 30
0.0
 11
9.159156376311033
 21
-14.23784979067924
 31
0.0
  0
MTEXT
  5
28F
330
1F
100
AcDbEntity
  8
0
100
AcDbMText
 10
11.34879704101577
 20
-19.49512114048306
 30
0.0
 40
0.8
 41
11.18224903601162
 46
0.0
 71
     1
 72
     5
  1
80
 73
     1
 44
1.0
1001
ACAD
1000
ACAD_MTEXT_COLUMN_INFO_BEGIN
1070
    75
1070
     2
1070
    79
1070
     0
1070
    76
1070
     1
1070
    78
1070
     0
1070
    48
1040
11.18224903601162
1070
    49
1040
4.0
1070
    50
1070
     1
1040
0.0
1000
ACAD_MTEXT_COLUMN_INFO_END
  0
MTEXT
  5
298
330
1F
100
AcDbEntity
  8
0
100
AcDbMText
 10
8.803871391488527
 20
-10.31752065329254
 30
0.0
 40
0.8
 41
11.18224903601162
 46
0.0
 71
     1
 72
     5
  1
125
 11
-0.0000000000000002
 21
-1.0
 31
0.0
 73
     1
 44
1.0
1001
ACAD
1000
ACAD_MTEXT_COLUMN_INFO_BEGIN
1070
    75
1070
     2
1070
    79
1070
     0
1070
    76
1070
     1
1070
    78
1070
     0
1070
    48
1040
11.18224903601162
1070
    49
1040
4.0
1070
    50
1070
     1
1040
0.0
1000
ACAD_MTEXT_COLUMN_INFO_END
  0
LINE
  5
299
330
1F
100
AcDbEntity
  8
Livello 1
100
AcDbLine
 10
9.713148145719847
 20
-6.665571903834345
 30
0.0
 11
13.52485407161889
 21
-6.665571903834345
 31
0.0
  0
MTEXT
  5
29A
330
1F
100
AcDbEntity
  8
0
100
AcDbMText
 10
10.87363996397799
 20
-5.595033970465322
 30
0.0
 40
0.8
 41
11.18224903601162
 46
0.0
 71
     1
 72
     5
  1
87
 73
     1
 44
1.0
1001
ACAD
1000
ACAD_MTEXT_COLUMN_INFO_BEGIN
1070
    75
1070
     2
1070
    79
1070
     0
1070
    76
1070
     1
1070
    78
1070
     0
1070
    48
1040
11.18224903601162
1070
    49
1040
4.0
1070
    50
1070
     1
1040
0.0
1000
ACAD_MTEXT_COLUMN_INFO_END
  0
SPLINE
  5
356
330
1F
100
AcDbEntity
  8
Livello 1
100
AcDbSpline
210
0.0
220
0.0
230
1.0
 70
     9
 71
     3
 72
    20
 73
    16
 74
     0
 42
0.000000001
 43
0.0000000001
 40
0.0
 40
0.0
 40
0.0
 40
0.0
 40
1.0
 40
1.0
 40
1.0
 40
2.0
 40
2.0
 40
2.0
 40
3.0
 40
3.0
 40
3.0
 40
4.0
 40
4.0
 40
4.0
 40
5.0
 40
5.0
 40
5.0
 40
5.0
 10
11.10183660411346
 20
-17.83471329348117
 30
0.0
 10
11.10183660411346
 20
-17.31168496027857
 30
0.0
 10
11.52583314885196
 20
-16.88768487705123
 30
0.0
 10
12.04886146884173
 20
-16.88768487705123
 30
0.0
 10
12.5718897888315
 20
-16.88768487705123
 30
0.0
 10
12.99588986134769
 20
-17.31168496027857
 30
0.0
 10
12.99588986134769
 20
-17.83471329348117
 30
0.0
 10
12.99588986134769
 20
-18.35774162668372
 30
0.0
 10
12.5718897888315
 20
-18.78173818213327
 30
0.0
 10
12.04886146884173
 20
-18.78173818213327
 30
0.0
 10
11.52583314885196
 20
-18.78173818213327
 30
0.0
 10
11.10183660411346
 20
-18.35774162668372
 30
0.0
 10
11.10183660411346
 20
-17.83471329348117
 30
0.0
 10
11.10183660411346
 20
-17.83471329348117
 30
0.0
 10
11.10183660411346
 20
-17.83471329348117
 30
0.0
 10
11.10183660411346
 20
-17.83471329348117
 30
0.0
  0
SPLINE
  5
357
330
1F
100
AcDbEntity
  8
Livello 1
100
AcDbSpline
210
0.0
220
0.0
230
1.0
 70
     9
 71
     3
 72
    20
 73
    16
 74
     0
 42
0.000000001
 43
0.0000000001
 40
0.0
 40
0.0
 40
0.0
 40
0.0
 40
1.0
 40
1.0
 40
1.0
 40
2.0
 40
2.0
 40
2.0
 40
3.0
 40
3.0
 40
3.0
 40
4.0
 40
4.0
 40
4.0
 40
5.0
 40
5.0
 40
5.0
 40
5.0
 10
11.54750428718796
 20
-17.83471329348117
 30
0.0
 10
11.54750428718796
 20
-17.55781801577258
 30
0.0
 10
11.77196972590583
 20
-17.33335257138426
 30
0.0
 10
12.04886146884173
 20
-17.33335257138426
 30
0.0
 10
12.32575673955532
 20
-17.33335257138426
 30
0.0
 10
12.55022217827317
 20
-17.55781801577258
 30
0.0
 10
12.55022217827317
 20
-17.83471329348117
 30
0.0
 10
12.55022217827317
 20
-18.11160504341192
 30
0.0
 10
12.32575673955532
 20
-18.33607048780027
 30
0.0
 10
12.04886146884173
 20
-18.33607048780027
 30
0.0
 10
11.77196972590583
 20
-18.33607048780027
 30
0.0
 10
11.54750428718796
 20
-18.11160504341192
 30
0.0
 10
11.54750428718796
 20
-17.83471329348117
 30
0.0
 10
11.54750428718796
 20
-17.83471329348117
 30
0.0
 10
11.54750428718796
 20
-17.83471329348117
 30
0.0
 10
11.54750428718796
 20
-17.83471329348117
 30
0.0
  0
SPLINE
  5
358
330
1F
100
AcDbEntity
  8
Livello 1
100
AcDbSpline
210
0.0
220
0.0
230
1.0
 70
     9
 71
     3
 72
    20
 73
    16
 74
     0
 42
0.000000001
 43
0.0000000001
 40
0.0
 40
0.0
 40
0.0
 40
0.0
 40
1.0
 40
1.0
 40
1.0
 40
2.0
 40
2.0
 40
2.0
 40
3.0
 40
3.0
 40
3.0
 40
4.0
 40
4.0
 40
4.0
 40
5.0
 40
5.0
 40
5.0
 40
5.0
 10
11.59047614720278
 20
-17.83471329348117
 30
0.0
 10
11.59047614720278
 20
-17.58155290465555
 30
0.0
 10
11.79570461418919
 20
-17.37632443248464
 30
0.0
 10
12.04886146884173
 20
-17.37632443248464
 30
0.0
 10
12.30202185127196
 20
-17.37632443248464
 30
0.0
 10
12.50724724523969
 20
-17.58155290465555
 30
0.0
 10
12.50724724523969
 20
-17.83471329348117
 30
0.0
 10
12.50724724523969
 20
-18.08787015452895
 30
0.0
 10
12.30202185127196
 20
-18.2930986266999
 30
0.0
 10
12.04886146884173
 20
-18.2930986266999
 30
0.0
 10
11.79570461418919
 20
-18.2930986266999
 30
0.0
 10
11.59047614720278
 20
-18.08787015452895
 30
0.0
 10
11.59047614720278
 20
-17.83471329348117
 30
0.0
 10
11.59047614720278
 20
-17.83471329348117
 30
0.0
 10
11.59047614720278
 20
-17.83471329348117
 30
0.0
 10
11.59047614720278
 20
-17.83471329348117
 30
0.0
  0
SPLINE
  5
359
330
1F
100
AcDbEntity
  8
Livello 1
100
AcDbSpline
210
0.0
220
0.0
230
1.0
 70
     9
 71
     3
 72
    20
 73
    16
 74
     0
 42
0.000000001
 43
0.0000000001
 40
0.0
 40
0.0
 40
0.0
 40
0.0
 40
1.0
 40
1.0
 40
1.0
 40
2.0
 40
2.0
 40
2.0
 40
3.0
 40
3.0
 40
3.0
 40
4.0
 40
4.0
 40
4.0
 40
5.0
 40
5.0
 40
5.0
 40
5.0
 10
11.62098789642437
 20
-17.83471329348117
 30
0.0
 10
11.62098789642437
 20
-17.59840509909579
 30
0.0
 10
11.81255328042601
 20
-17.40683618247702
 30
0.0
 10
12.04886146884173
 20
-17.40683618247702
 30
0.0
 10
12.28516965725745
 20
-17.40683618247702
 30
0.0
 10
12.4767350412591
 20
-17.59840509909579
 30
0.0
 10
12.4767350412591
 20
-17.83471329348117
 30
0.0
 10
12.4767350412591
 20
-18.07102148786649
 30
0.0
 10
12.28516965725745
 20
-18.26258687670751
 30
0.0
 10
12.04886146884173
 20
-18.26258687670751
 30
0.0
 10
11.81255328042601
 20
-18.26258687670751
 30
0.0
 10
11.62098789642437
 20
-18.07102148786649
 30
0.0
 10
11.62098789642437
 20
-17.83471329348117
 30
0.0
 10
11.62098789642437
 20
-17.83471329348117
 30
0.0
 10
11.62098789642437
 20
-17.83471329348117
 30
0.0
 10
11.62098789642437
 20
-17.83471329348117
 30
0.0
  0
ENDSEC
  0
SECTION
  2
OBJECTS
  0
DICTIONARY
  5
C
330
0
100
AcDbDictionary
281
     1
  3
ACAD_CIP_PREVIOUS_PRODUCT_INFO
350
1C9
  3
ACAD_COLOR
350
1AA
  3
ACAD_DETAILVIEWSTYLE
350
1C5
  3
ACAD_GROUP
350
D
  3
ACAD_LAYOUT
350
1A
  3
ACAD_MATERIAL
350
3B
  3
ACAD_MLEADERSTYLE
350
19D
  3
ACAD_MLINESTYLE
350
17
  3
ACAD_PLOTSETTINGS
350
19
  3
ACAD_PLOTSTYLENAME
350
E
  3
ACAD_SCALELIST
350
1AC
  3
ACAD_SECTIONVIEWSTYLE
350
1C3
  3
ACAD_TABLESTYLE
350
19C
  3
ACAD_VISUALSTYLE
350
2A
  3
ACDB_RECOMPOSE_DATA
350
367
  3
AcDbVariableDictionary
350
27C
  3
AcDsDecomposeData
350
36D
  0
SUN
  5
3F
330
29
100
AcDbSun
 90
        1
290
     1
 63
     7
421
 16777215
 40
1.0
291
     1
 91
  2455826
 92
 54000000
292
     0
 70
     0
 71
   256
280
     1
1001
ACAD
1000
AcDbSavedByObjectVersion
1070
     0
1000
AcDbSavedByObjectVersion
1070
     0
1000
AcDbSavedByObjectVersion
1070
     0
1000
AcDbSavedByObjectVersion
1070
     0
  0
DICTIONARY
  5
2E6
330
2
100
AcDbDictionary
280
     1
281
     1
  3
ACAD_LAYERSTATES
360
2E7
  0
DICTIONARY
  5
1D1
330
1F
100
AcDbDictionary
280
     1
281
     1
  3
ACAD_SORTENTS
360
1D2
  0
XRECORD
  5
1C9
102
{ACAD_REACTORS
330
C
102
}
330
C
100
AcDbXrecord
280
     1
300
ACD
300
2019
300
ACD_F_S
  0
DICTIONARY
  5
1AA
102
{ACAD_REACTORS
330
C
102
}
330
C
100
AcDbDictionary
281
     1
  0
DICTIONARY
  5
1C5
102
{ACAD_REACTORS
330
C
102
}
330
C
100
AcDbDictionary
281
     1
  3
Imperial24
350
1C6
  0
DICTIONARY
  5
D
102
{ACAD_REACTORS
330
C
102
}
330
C
100
AcDbDictionary
281
     1
  0
DICTIONARY
  5
1A
102
{ACAD_REACTORS
330
C
102
}
330
C
100
AcDbDictionary
281
     1
  3
Layout1
350
1E
  3
Layout2
350
26
  3
Model
350
22
  0
DICTIONARY
  5
3B
102
{ACAD_REACTORS
330
C
102
}
330
C
100
AcDbDictionary
281
     1
  3
ByBlock
350
3D
  3
ByLayer
350
3C
  3
Global
350
3E
  0
DICTIONARY
  5
19D
102
{ACAD_REACTORS
330
C
102
}
330
C
100
AcDbDictionary
281
     1
  3
Standard
350
1C2
  0
DICTIONARY
  5
17
102
{ACAD_REACTORS
330
C
102
}
330
C
100
AcDbDictionary
281
     1
  3
Standard
350
18
  0
DICTIONARY
  5
19
102
{ACAD_REACTORS
330
C
102
}
330
C
100
AcDbDictionary
281
     1
  0
ACDBDICTIONARYWDFLT
  5
E
102
{ACAD_REACTORS
330
C
102
}
330
C
100
AcDbDictionary
281
     1
  3
Normal
350
F
100
AcDbDictionaryWithDefault
340
F
  0
DICTIONARY
  5
1AC
102
{ACAD_REACTORS
330
C
102
}
330
C
100
AcDbDictionary
281
     1
  3
A0
350
1AD
  3
A1
350
1AE
  3
A2
350
1AF
  3
A3
350
1B0
  3
A4
350
1B1
  3
A5
350
1B2
  3
A6
350
1B3
  3
A7
350
1B4
  3
A8
350
1B5
  3
A9
350
1B6
  3
B0
350
1B7
  3
B1
350
1B8
  3
B2
350
1B9
  3
B3
350
1BA
  3
B4
350
1BB
  3
B5
350
1BC
  3
B6
350
1BD
  3
B7
350
1BE
  3
B8
350
1BF
  3
B9
350
1C0
  3
C0
350
1C1
  0
DICTIONARY
  5
1C3
102
{ACAD_REACTORS
330
C
102
}
330
C
100
AcDbDictionary
281
     1
  3
Imperial24
350
1C4
  0
DICTIONARY
  5
19C
102
{ACAD_REACTORS
330
C
102
}
330
C
100
AcDbDictionary
281
     1
  3
Standard
350
1AB
  0
DICTIONARY
  5
2A
102
{ACAD_REACTORS
330
C
102
}
330
C
100
AcDbDictionary
281
     1
  3
2dWireframe
350
2F
  3
3D Hidden
350
31
  3
3dWireframe
350
30
  3
Basic
350
32
  3
Brighten
350
36
  3
ColorChange
350
3A
  3
Conceptual
350
34
  3
Dim
350
35
  3
EdgeColorOff
350
1A9
  3
Facepattern
350
39
  3
Flat
350
2B
  3
FlatWithEdges
350
2C
  3
Gouraud
350
2D
  3
GouraudWithEdges
350
2E
  3
Hidden
350
1A1
  3
JitterOff
350
1A7
  3
Linepattern
350
38
  3
OverhangOff
350
1A8
  3
Realistic
350
33
  3
Shaded
350
1A6
  3
Shaded with edges
350
1A5
  3
Shades of Gray
350
1A2
  3
Sketchy
350
1A3
  3
Thicken
350
37
  3
Wireframe
350
1A0
  3
X-Ray
350
1A4
  0
XRECORD
  5
367
102
{ACAD_REACTORS
330
C
102
}
330
C
100
AcDbXrecord
280
     1
 90
        1
330
1AB
330
28F
330
298
330
29A
  0
DICTIONARY
  5
27C
102
{ACAD_REACTORS
330
C
102
}
330
C
100
AcDbDictionary
281
     1
  3
CANNOSCALE
350
281
  3
CMLEADERSTYLE
350
27E
  3
CTABLESTYLE
350
27D
  3
CVIEWDETAILSTYLE
350
27F
  3
CVIEWSECTIONSTYLE
350
280
  0
DICTIONARY
  5
36D
102
{ACAD_REACTORS
330
C
102
}
330
C
100
AcDbDictionary
281
     1
  3
AcDsRecords
350
36F
  3
AcDsSchemas
350
36E
1001
ACAD
1070
     2
  0
DICTIONARY
  5
2E7
102
{ACAD_REACTORS
330
2E6
102
}
330
2E6
100
AcDbDictionary
281
     1
  0
SORTENTSTABLE
  5
1D2
102
{ACAD_REACTORS
330
1D1
102
}
330
1D1
100
AcDbSortentsTable
330
1F
331
199
  5
344
331
1D3
  5
199
331
1D7
  5
1D3
331
1DB
  5
1D7
331
1DF
  5
1DB
331
1E0
  5
1DF
331
1E4
  5
1E0
331
1E8
  5
1E4
331
1E9
  5
1E8
331
1EA
  5
1E9
331
1EE
  5
1EA
331
1EF
  5
1EE
331
1F3
  5
1EF
331
1F7
  5
1F3
331
1F8
  5
1F7
331
1F9
  5
1F8
331
1FD
  5
1F9
331
201
  5
1FD
331
208
  5
207
331
20F
  5
208
331
237
  5
338
331
23E
  5
339
331
253
  5
342
331
254
  5
343
331
28F
  5
345
331
298
  5
346
331
299
  5
347
331
29A
  5
348
  0
ACDBDETAILVIEWSTYLE
  5
1C6
102
{ACAD_XDICTIONARY
360
372
102
}
102
{ACAD_REACTORS
330
1C5
102
}
330
1C5
100
AcDbModelDocViewStyle
 70
     0
  3
Imperial24
290
     0
100
AcDbDetailViewStyle
 70
     0
 71
     0
 90
        3
 71
     1
340
11
 62
   256
 40
0.24
340
0
 62
   256
 40
0.24
300

 40
0.36
280
     3
 71
     2
340
16
 90
       25
 62
   256
 71
     3
340
11
 62
   256
 40
0.24
 90
        1
 40
0.75
 90
        1
300
%<\AcVar ViewType \f "%tc1">% %<\AcVar ViewDetailId>%\PSCALA %<\AcVar ViewScale \f "%sn">%
 71
     4
340
16
 90
       25
 62
   256
340
16
 90
       25
 62
   256
280
     0
  0
LAYOUT
  5
1E
102
{ACAD_REACTORS
330
1A
102
}
330
1A
100
AcDbPlotSettings
  1

  2
none_device
  4

  6

 40
0.0
 41
0.0
 42
0.0
 43
0.0
 44
0.0
 45
0.0
 46
0.0
 47
0.0
 48
0.0
 49
0.0
140
0.0
141
0.0
142
1.0
143
1.0
 70
   688
 72
     0
 73
     0
 74
     5
  7

 75
    16
147
1.0
 76
     0
 77
     2
 78
   300
148
0.0
149
0.0
100
AcDbLayout
  1
Layout1
 70
     1
 71
     1
 10
0.0
 20
0.0
 11
12.0
 21
9.0
 12
0.0
 22
0.0
 32
0.0
 14
1.000000000000000E+20
 24
1.000000000000000E+20
 34
1.000000000000000E+20
 15
-1.000000000000000E+20
 25
-1.000000000000000E+20
 35
-1.000000000000000E+20
146
0.0
 13
0.0
 23
0.0
 33
0.0
 16
1.0
 26
0.0
 36
0.0
 17
0.0
 27
1.0
 37
0.0
 76
     0
330
1B
  0
LAYOUT
  5
26
102
{ACAD_REACTORS
330
1A
102
}
330
1A
100
AcDbPlotSettings
  1

  2
none_device
  4

  6

 40
0.0
 41
0.0
 42
0.0
 43
0.0
 44
0.0
 45
0.0
 46
0.0
 47
0.0
 48
0.0
 49
0.0
140
0.0
141
0.0
142
1.0
143
1.0
 70
   688
 72
     0
 73
     0
 74
     5
  7

 75
    16
147
1.0
 76
     0
 77
     2
 78
   300
148
0.0
149
0.0
100
AcDbLayout
  1
Layout2
 70
     1
 71
     2
 10
0.0
 20
0.0
 11
0.0
 21
0.0
 12
0.0
 22
0.0
 32
0.0
 14
0.0
 24
0.0
 34
0.0
 15
0.0
 25
0.0
 35
0.0
146
0.0
 13
0.0
 23
0.0
 33
0.0
 16
1.0
 26
0.0
 36
0.0
 17
0.0
 27
1.0
 37
0.0
 76
     0
330
23
  0
LAYOUT
  5
22
102
{ACAD_XDICTIONARY
360
2F6
102
}
102
{ACAD_REACTORS
330
1A
102
}
330
1A
100
AcDbPlotSettings
  1

  2
none_device
  4

  6

 40
0.0
 41
0.0
 42
0.0
 43
0.0
 44
0.0
 45
0.0
 46
0.0
 47
0.0
 48
0.0
 49
0.0
140
0.0
141
0.0
142
1.0
143
1.0
 70
  1712
 72
     0
 73
     0
 74
     0
  7

 75
     0
147
1.0
 76
     0
 77
     2
 78
   300
148
0.0
149
0.0
100
AcDbLayout
  1
Model
 70
     1
 71
     0
 10
0.0
 20
0.0
 11
12.0
 21
9.0
 12
0.0
 22
0.0
 32
0.0
 14
1.000000000000000E+20
 24
1.000000000000000E+20
 34
1.000000000000000E+20
 15
-1.000000000000000E+20
 25
-1.000000000000000E+20
 35
-1.000000000000000E+20
146
0.0
 13
0.0
 23
0.0
 33
0.0
 16
1.0
 26
0.0
 36
0.0
 17
0.0
 27
1.0
 37
0.0
 76
     0
330
1F
331
29
  0
MATERIAL
  5
3D
102
{ACAD_REACTORS
330
3B
102
}
330
3B
100
AcDbMaterial
  1
ByBlock
  0
MATERIAL
  5
3C
102
{ACAD_REACTORS
330
3B
102
}
330
3B
100
AcDbMaterial
  1
ByLayer
  0
MATERIAL
  5
3E
102
{ACAD_REACTORS
330
3B
102
}
330
3B
100
AcDbMaterial
  1
Global
  0
MLEADERSTYLE
  5
1C2
102
{ACAD_REACTORS
330
19D
102
}
330
19D
100
AcDbMLeaderStyle
179
     2
170
     2
171
     1
172
     0
 90
        2
 40
0.0
 41
0.0
173
     1
 91
-1056964608
340
14
 92
       -2
290
     1
 42
0.09
291
     1
 43
0.36
  3
Standard
 44
0.18
300

342
11
174
     1
178
     6
175
     1
176
     0
 93
-1056964608
 45
0.18
292
     0
297
     0
 46
0.18
 94
-1056964608
 47
1.0
 49
1.0
140
1.0
293
     1
141
0.0
294
     1
177
     0
142
1.0
295
     0
296
     0
143
0.125
271
     0
272
     9
273
     9
298
     0
  0
MLINESTYLE
  5
18
102
{ACAD_REACTORS
330
17
102
}
330
17
100
AcDbMlineStyle
  2
STANDARD
 70
     0
  3

 62
   256
 51
90.0
 52
90.0
 71
     2
 49
0.5
 62
   256
  6
BYLAYER
 49
-0.5
 62
   256
  6
BYLAYER
  0
ACDBPLACEHOLDER
  5
F
102
{ACAD_REACTORS
330
E
102
}
330
E
  0
SCALE
  5
1AD
102
{ACAD_REACTORS
330
1AC
102
}
330
1AC
100
AcDbScale
 70
     0
300
1:1
140
1.0
141
1.0
290
     1
  0
SCALE
  5
1AE
102
{ACAD_REACTORS
330
1AC
102
}
330
1AC
100
AcDbScale
 70
     0
300
1.10
140
1.0
141
10.0
290
     0
  0
SCALE
  5
1AF
102
{ACAD_REACTORS
330
1AC
102
}
330
1AC
100
AcDbScale
 70
     0
300
1.50
140
1.0
141
50.0
290
     0
  0
SCALE
  5
1B0
102
{ACAD_REACTORS
330
1AC
102
}
330
1AC
100
AcDbScale
 70
     0
300
1:100
140
1.0
141
100.0
290
     0
  0
SCALE
  5
1B1
102
{ACAD_REACTORS
330
1AC
102
}
330
1AC
100
AcDbScale
 70
     0
300
1.200
140
1.0
141
200.0
290
     0
  0
SCALE
  5
1B2
102
{ACAD_REACTORS
330
1AC
102
}
330
1AC
100
AcDbScale
 70
     0
300
1/128" = 1'-0"
140
0.0078125
141
12.0
290
     0
  0
SCALE
  5
1B3
102
{ACAD_REACTORS
330
1AC
102
}
330
1AC
100
AcDbScale
 70
     0
300
1/64" = 1'-0"
140
0.015625
141
12.0
290
     0
  0
SCALE
  5
1B4
102
{ACAD_REACTORS
330
1AC
102
}
330
1AC
100
AcDbScale
 70
     0
300
1/32" = 1'-0"
140
0.03125
141
12.0
290
     0
  0
SCALE
  5
1B5
102
{ACAD_REACTORS
330
1AC
102
}
330
1AC
100
AcDbScale
 70
     0
300
1/16" = 1'-0"
140
0.0625
141
12.0
290
     0
  0
SCALE
  5
1B6
102
{ACAD_REACTORS
330
1AC
102
}
330
1AC
100
AcDbScale
 70
     0
300
3/32" = 1'-0"
140
0.09375
141
12.0
290
     0
  0
SCALE
  5
1B7
102
{ACAD_REACTORS
330
1AC
102
}
330
1AC
100
AcDbScale
 70
     0
300
1/8" = 1'-0"
140
0.125
141
12.0
290
     0
  0
SCALE
  5
1B8
102
{ACAD_REACTORS
330
1AC
102
}
330
1AC
100
AcDbScale
 70
     0
300
3/16" = 1'-0"
140
0.1875
141
12.0
290
     0
  0
SCALE
  5
1B9
102
{ACAD_REACTORS
330
1AC
102
}
330
1AC
100
AcDbScale
 70
     0
300
1/4" = 1'-0"
140
0.25
141
12.0
290
     0
  0
SCALE
  5
1BA
102
{ACAD_REACTORS
330
1AC
102
}
330
1AC
100
AcDbScale
 70
     0
300
3/8" = 1'-0"
140
0.375
141
12.0
290
     0
  0
SCALE
  5
1BB
102
{ACAD_REACTORS
330
1AC
102
}
330
1AC
100
AcDbScale
 70
     0
300
1/2" = 1'-0"
140
0.5
141
12.0
290
     0
  0
SCALE
  5
1BC
102
{ACAD_REACTORS
330
1AC
102
}
330
1AC
100
AcDbScale
 70
     0
300
3/4" = 1'-0"
140
0.75
141
12.0
290
     0
  0
SCALE
  5
1BD
102
{ACAD_REACTORS
330
1AC
102
}
330
1AC
100
AcDbScale
 70
     0
300
1" = 1'-0"
140
1.0
141
12.0
290
     0
  0
SCALE
  5
1BE
102
{ACAD_REACTORS
330
1AC
102
}
330
1AC
100
AcDbScale
 70
     0
300
1-1/2" = 1'-0"
140
1.5
141
12.0
290
     0
  0
SCALE
  5
1BF
102
{ACAD_REACTORS
330
1AC
102
}
330
1AC
100
AcDbScale
 70
     0
300
3" = 1'-0"
140
3.0
141
12.0
290
     0
  0
SCALE
  5
1C0
102
{ACAD_REACTORS
330
1AC
102
}
330
1AC
100
AcDbScale
 70
     0
300
6" = 1'-0"
140
6.0
141
12.0
290
     0
  0
SCALE
  5
1C1
102
{ACAD_REACTORS
330
1AC
102
}
330
1AC
100
AcDbScale
 70
     0
300
1'-0" = 1'-0"
140
12.0
141
12.0
290
     0
  0
ACDBSECTIONVIEWSTYLE
  5
1C4
102
{ACAD_XDICTIONARY
360
370
102
}
102
{ACAD_REACTORS
330
1C3
102
}
330
1C3
100
AcDbModelDocViewStyle
 70
     0
  3
Imperial24
290
     0
100
AcDbSectionViewStyle
 70
     0
 71
     0
 90
       78
 71
     1
340
11
 62
   256
 40
0.24
340
0
340
0
 62
   256
 40
0.24
300
I, O, Q, S, X, Z
 40
0.48
 90
        3
 40
0.18
 90
        1
 71
     2
340
16
 90
       25
 62
   256
340
16
 90
       50
 62
   256
 40
0.24
 40
0.0
 40
0.24
 71
     3
340
11
 62
   256
 40
0.24
 90
        1
 40
0.75
 90
        1
300
%<\AcVar ViewType \f "%tc1">% %<\AcVar ViewSectionStartId>%-%<\AcVar ViewSectionEndId>%\PSCALA %<\AcVar ViewScale \f "%sn">%
 71
     4
 62
   256
 62
   257
300
ANSI31
 40
1.0
 90
        0
290
     0
290
     0
 90
        6
 40
0.0
 40
1.570796326794896
 40
0.2617993877991494
 40
1.308996938995747
 40
-0.2617993877991494
 40
1.832595714594045
  0
TABLESTYLE
  5
1AB
102
{ACAD_XDICTIONARY
360
282
102
}
102
{ACAD_REACTORS
330
19C
102
}
330
19C
100
AcDbTableStyle
280
     0
  3
Standard
 70
     0
 71
     0
 40
0.06
 41
0.06
280
     0
281
     0
  7
Standard
140
0.18
170
     2
 62
     0
 63
     7
283
     0
 90
      512
 91
        0
  1

274
    -2
284
     1
 64
     0
275
    -2
285
     1
 65
     0
276
    -2
286
     1
 66
     0
277
    -2
287
     1
 67
     0
278
    -2
288
     1
 68
     0
279
    -2
289
     1
 69
     0
  7
Standard
140
0.25
170
     5
 62
     0
 63
     7
283
     0
 90
      512
 91
        0
  1

274
    -2
284
     1
 64
     0
275
    -2
285
     1
 65
     0
276
    -2
286
     1
 66
     0
277
    -2
287
     1
 67
     0
278
    -2
288
     1
 68
     0
279
    -2
289
     1
 69
     0
  7
Standard
140
0.18
170
     5
 62
     0
 63
     7
283
     0
 90
      512
 91
        0
  1

274
    -2
284
     1
 64
     0
275
    -2
285
     1
 65
     0
276
    -2
286
     1
 66
     0
277
    -2
287
     1
 67
     0
278
    -2
288
     1
 68
     0
279
    -2
289
     1
 69
     0
  0
VISUALSTYLE
  5
2F
102
{ACAD_REACTORS
330
2A
102
}
330
2A
100
AcDbVisualStyle
  2
2dWireframe
 70
     4
177
     3
291
     0
 70
    58
 90
        0
176
     1
 90
        2
176
     1
 90
        0
176
     1
 90
        0
176
     1
 40
0.6
176
     1
 40
30.0
176
     1
 62
     7
420
 16777215
176
     1
 90
        1
176
     1
 90
        4
176
     1
 62
     7
176
     1
 62
   257
176
     1
 90
        1
176
     1
 90
        1
176
     1
 40
1.0
176
     1
 90
        0
176
     1
 62
   257
176
     1
 40
1.0
176
     1
 90
        1
176
     1
 90
        6
176
     1
 90
        2
176
     1
 62
     7
176
     1
 90
        5
176
     1
 90
        0
176
     1
 90
        0
176
     1
290
     0
176
     1
 90
        1
176
     1
 40
0.0
176
     1
 90
        0
176
     1
290
     1
176
     1
290
     1
176
     1
290
     0
176
     1
290
     0
176
     1
290
     0
176
     1
290
     0
176
     1
290
     0
176
     1
290
     0
176
     1
290
     0
176
     1
 90
       50
176
     1
 40
0.0
176
     1
 40
1.0
176
     1
 90
        0
176
     1
 62
    18
176
     1
 90
       50
176
     1
 90
        3
176
     1
 62
     5
420
      255
176
     1
290
     0
176
     1
 90
       50
176
     1
 90
       50
176
     1
 90
       50
176
     1
290
     0
176
     1
 90
       50
176
     1
 62
   256
176
     0
 40
1.0
176
     0
 90
        2
176
     1
  1
strokes_ogs.tif
176
     1
290
     0
176
     1
 40
1.0
176
     1
 40
1.0
176
     1
1001
ACAD
1000
AcDbSavedByObjectVersion
1070
     0
  0
VISUALSTYLE
  5
31
102
{ACAD_REACTORS
330
2A
102
}
330
2A
100
AcDbVisualStyle
  2
3D Hidden
 70
     6
177
     3
291
     0
 70
    58
 90
        1
176
     1
 90
        2
176
     1
 90
        2
176
     1
 90
        0
176
     1
 40
0.6
176
     1
 40
30.0
176
     1
 62
     7
420
 16777215
176
     1
 90
        2
176
     1
 90
        2
176
     1
 62
     7
176
     1
 62
   257
176
     1
 90
        2
176
     1
 90
        1
176
     1
 40
40.0
176
     1
 90
        0
176
     1
 62
   257
176
     1
 40
1.0
176
     1
 90
        1
176
     1
 90
        6
176
     1
 90
        2
176
     1
 62
     7
176
     1
 90
        3
176
     1
 90
        0
176
     1
 90
        0
176
     1
290
     0
176
     1
 90
        1
176
     1
 40
0.0
176
     1
 90
        0
176
     1
290
     0
176
     1
290
     1
176
     1
290
     1
176
     1
290
     0
176
     1
290
     0
176
     1
290
     0
176
     1
290
     0
176
     1
290
     0
176
     1
290
     0
176
     1
 90
       50
176
     1
 40
0.0
176
     1
 40
1.0
176
     1
 90
        0
176
     1
 62
    18
176
     1
 90
       50
176
     1
 90
        3
176
     1
 62
     5
420
      255
176
     1
290
     0
176
     1
 90
       50
176
     1
 90
       50
176
     1
 90
       50
176
     1
290
     0
176
     1
 90
       50
176
     1
 62
   256
176
     0
 40
1.0
176
     0
 90
        2
176
     1
  1
strokes_ogs.tif
176
     1
290
     0
176
     1
 40
1.0
176
     1
 40
1.0
176
     1
1001
ACAD
1000
AcDbSavedByObjectVersion
1070
     0
  0
VISUALSTYLE
  5
30
102
{ACAD_REACTORS
330
2A
102
}
330
2A
100
AcDbVisualStyle
  2
3dWireframe
 70
     5
177
     3
291
     0
 70
    58
 90
        0
176
     1
 90
        2
176
     1
 90
        0
176
     1
 90
        0
176
     1
 40
0.6
176
     1
 40
30.0
176
     1
 62
     7
420
 16777215
176
     1
 90
        1
176
     1
 90
        4
176
     1
 62
     7
176
     1
 62
   257
176
     1
 90
        1
176
     1
 90
        1
176
     1
 40
1.0
176
     1
 90
        0
176
     1
 62
   257
176
     1
 40
1.0
176
     1
 90
        1
176
     1
 90
        6
176
     1
 90
        2
176
     1
 62
     7
176
     1
 90
        5
176
     1
 90
        0
176
     1
 90
        0
176
     1
290
     0
176
     1
 90
        1
176
     1
 40
0.0
176
     1
 90
        0
176
     1
290
     0
176
     1
290
     1
176
     1
290
     1
176
     1
290
     0
176
     1
290
     0
176
     1
290
     0
176
     1
290
     0
176
     1
290
     0
176
     1
290
     0
176
     1
 90
       50
176
     1
 40
0.0
176
     1
 40
1.0
176
     1
 90
        0
176
     1
 62
    18
176
     1
 90
       50
176
     1
 90
        3
176
     1
 62
     5
420
      255
176
     1
290
     0
176
     1
 90
       50
176
     1
 90
       50
176
     1
 90
       50
176
     1
290
     0
176
     1
 90
       50
176
     1
 62
   256
176
     0
 40
1.0
176
     0
 90
        2
176
     1
  1
strokes_ogs.tif
176
     1
290
     0
176
     1
 40
1.0
176
     1
 40
1.0
176
     1
1001
ACAD
1000
AcDbSavedByObjectVersion
1070
     0
  0
VISUALSTYLE
  5
32
102
{ACAD_REACTORS
330
2A
102
}
330
2A
100
AcDbVisualStyle
  2
Basic
 70
     7
177
     3
291
     1
 70
    58
 90
        1
176
     1
 90
        0
176
     1
 90
        1
176
     1
 90
        0
176
     1
 40
0.6
176
     1
 40
30.0
176
     1
 62
     7
420
 16777215
176
     1
 90
        0
176
     1
 90
        4
176
     1
 62
     7
176
     1
 62
   257
176
     1
 90
        1
176
     1
 90
        1
176
     1
 40
1.0
176
     1
 90
        8
176
     1
 62
     7
176
     1
 40
1.0
176
     1
 90
        1
176
     1
 90
        6
176
     1
 90
        2
176
     1
 62
     7
176
     1
 90
        5
176
     1
 90
        0
176
     1
 90
        0
176
     1
290
     0
176
     1
 90
        1
176
     1
 40
0.0
176
     1
 90
        0
176
     1
290
     0
176
     1
290
     1
176
     1
290
     1
176
     1
290
     0
176
     1
290
     0
176
     1
290
     0
176
     1
290
     0
176
     1
290
     0
176
     1
290
     0
176
     1
 90
       50
176
     1
 40
0.0
176
     1
 40
1.0
176
     1
 90
        0
176
     1
 62
    18
176
     1
 90
       50
176
     1
 90
        3
176
     1
 62
     5
420
      255
176
     1
290
     0
176
     1
 90
       50
176
     1
 90
       50
176
     1
 90
       50
176
     1
290
     0
176
     1
 90
       50
176
     1
 62
   256
176
     0
 40
1.0
176
     0
 90
        2
176
     1
  1
strokes_ogs.tif
176
     1
290
     0
176
     1
 40
1.0
176
     1
 40
1.0
176
     1
1001
ACAD
1000
AcDbSavedByObjectVersion
1070
     0
  0
VISUALSTYLE
  5
36
102
{ACAD_REACTORS
330
2A
102
}
330
2A
100
AcDbVisualStyle
  2
Brighten
 70
    12
177
     3
291
     1
 70
    58
 90
        2
176
     1
 90
        2
176
     1
 90
        0
176
     1
 90
        0
176
     1
 40
0.6
176
     1
 40
30.0
176
     1
 62
     7
420
 16777215
176
     1
 90
        1
176
     1
 90
        4
176
     1
 62
     7
176
     1
 62
   257
176
     1
 90
        1
176
     1
 90
        1
176
     1
 40
1.0
176
     1
 90
        8
176
     1
 62
     7
176
     1
 40
1.0
176
     1
 90
        1
176
     1
 90
        6
176
     1
 90
        2
176
     1
 62
     7
176
     1
 90
        5
176
     1
 90
        0
176
     1
 90
        0
176
     1
290
     0
176
     1
 90
        1
176
     1
 40
50.0
176
     1
 90
        0
176
     1
290
     0
176
     1
290
     1
176
     1
290
     1
176
     1
290
     0
176
     1
290
     0
176
     1
290
     0
176
     1
290
     0
176
     1
290
     0
176
     1
290
     0
176
     1
 90
       50
176
     1
 40
0.0
176
     1
 40
1.0
176
     1
 90
        0
176
     1
 62
    18
176
     1
 90
       50
176
     1
 90
        3
176
     1
 62
     5
420
      255
176
     1
290
     0
176
     1
 90
       50
176
     1
 90
       50
176
     1
 90
       50
176
     1
290
     0
176
     1
 90
       50
176
     1
 62
   256
176
     0
 40
1.0
176
     0
 90
        2
176
     1
  1
strokes_ogs.tif
176
     1
290
     0
176
     1
 40
1.0
176
     1
 40
1.0
176
     1
1001
ACAD
1000
AcDbSavedByObjectVersion
1070
     0
  0
VISUALSTYLE
  5
3A
102
{ACAD_REACTORS
330
2A
102
}
330
2A
100
AcDbVisualStyle
  2
ColorChange
 70
    16
177
     3
291
     1
 70
    58
 90
        2
176
     1
 90
        2
176
     1
 90
        3
176
     1
 90
        0
176
     1
 40
0.6
176
     1
 40
30.0
176
     1
 62
     8
420
  8421504
176
     1
 90
        1
176
     1
 90
        4
176
     1
 62
     7
176
     1
 62
   257
176
     1
 90
        1
176
     1
 90
        1
176
     1
 40
1.0
176
     1
 90
        8
176
     1
 62
     8
420
  8421504
176
     1
 40
1.0
176
     1
 90
        1
176
     1
 90
        6
176
     1
 90
        2
176
     1
 62
     7
176
     1
 90
        5
176
     1
 90
        0
176
     1
 90
        0
176
     1
290
     0
176
     1
 90
        1
176
     1
 40
0.0
176
     1
 90
        0
176
     1
290
     0
176
     1
290
     1
176
     1
290
     1
176
     1
290
     0
176
     1
290
     0
176
     1
290
     0
176
     1
290
     0
176
     1
290
     0
176
     1
290
     0
176
     1
 90
       50
176
     1
 40
0.0
176
     1
 40
1.0
176
     1
 90
        0
176
     1
 62
    18
176
     1
 90
       50
176
     1
 90
        3
176
     1
 62
     5
420
      255
176
     1
290
     0
176
     1
 90
       50
176
     1
 90
       50
176
     1
 90
       50
176
     1
290
     0
176
     1
 90
       50
176
     1
 62
   256
176
     0
 40
1.0
176
     0
 90
        2
176
     1
  1
strokes_ogs.tif
176
     1
290
     0
176
     1
 40
1.0
176
     1
 40
1.0
176
     1
1001
ACAD
1000
AcDbSavedByObjectVersion
1070
     0
  0
VISUALSTYLE
  5
34
102
{ACAD_REACTORS
330
2A
102
}
330
2A
100
AcDbVisualStyle
  2
Conceptual
 70
     9
177
     3
291
     0
 70
    58
 90
        3
176
     1
 90
        2
176
     1
 90
        0
176
     1
 90
        0
176
     1
 40
0.6
176
     1
 40
30.0
176
     1
 62
     7
420
 16777215
176
     1
 90
        2
176
     1
 90
        2
176
     1
 62
     7
176
     1
 62
   257
176
     1
 90
        1
176
     1
 90
        1
176
     1
 40
40.0
176
     1
 90
        8
176
     1
 62
     7
176
     1
 40
1.0
176
     1
 90
        1
176
     1
 90
        6
176
     1
 90
        2
176
     1
 62
     7
176
     1
 90
        3
176
     1
 90
        0
176
     1
 90
        0
176
     1
290
     0
176
     1
 90
        1
176
     1
 40
0.0
176
     1
 90
        0
176
     1
290
     0
176
     1
290
     1
176
     1
290
     1
176
     1
290
     0
176
     1
290
     0
176
     1
290
     0
176
     1
290
     0
176
     1
290
     0
176
     1
290
     0
176
     1
 90
       50
176
     1
 40
0.0
176
     1
 40
1.0
176
     1
 90
        0
176
     1
 62
    18
176
     1
 90
       50
176
     1
 90
        3
176
     1
 62
     5
420
      255
176
     1
290
     0
176
     1
 90
       50
176
     1
 90
       50
176
     1
 90
       50
176
     1
290
     0
176
     1
 90
       50
176
     1
 62
   256
176
     0
 40
1.0
176
     0
 90
        2
176
     1
  1
strokes_ogs.tif
176
     1
290
     0
176
     1
 40
1.0
176
     1
 40
1.0
176
     1
1001
ACAD
1000
AcDbSavedByObjectVersion
1070
     0
  0
VISUALSTYLE
  5
35
102
{ACAD_REACTORS
330
2A
102
}
330
2A
100
AcDbVisualStyle
  2
Dim
 70
    11
177
     3
291
     1
 70
    58
 90
        2
176
     1
 90
        2
176
     1
 90
        0
176
     1
 90
        0
176
     1
 40
0.6
176
     1
 40
30.0
176
     1
 62
     7
420
 16777215
176
     1
 90
        1
176
     1
 90
        4
176
     1
 62
     7
176
     1
 62
   257
176
     1
 90
        1
176
     1
 90
        1
176
     1
 40
1.0
176
     1
 90
        8
176
     1
 62
     7
176
     1
 40
1.0
176
     1
 90
        1
176
     1
 90
        6
176
     1
 90
        2
176
     1
 62
     7
176
     1
 90
        5
176
     1
 90
        0
176
     1
 90
        0
176
     1
290
     0
176
     1
 90
        1
176
     1
 40
-50.0
176
     1
 90
        0
176
     1
290
     0
176
     1
290
     1
176
     1
290
     1
176
     1
290
     0
176
     1
290
     0
176
     1
290
     0
176
     1
290
     0
176
     1
290
     0
176
     1
290
     0
176
     1
 90
       50
176
     1
 40
0.0
176
     1
 40
1.0
176
     1
 90
        0
176
     1
 62
    18
176
     1
 90
       50
176
     1
 90
        3
176
     1
 62
     5
420
      255
176
     1
290
     0
176
     1
 90
       50
176
     1
 90
       50
176
     1
 90
       50
176
     1
290
     0
176
     1
 90
       50
176
     1
 62
   256
176
     0
 40
1.0
176
     0
 90
        2
176
     1
  1
strokes_ogs.tif
176
     1
290
     0
176
     1
 40
1.0
176
     1
 40
1.0
176
     1
1001
ACAD
1000
AcDbSavedByObjectVersion
1070
     0
  0
VISUALSTYLE
  5
1A9
102
{ACAD_REACTORS
330
2A
102
}
330
2A
100
AcDbVisualStyle
  2
EdgeColorOff
 70
    22
177
     3
291
     1
 70
    58
 90
        2
176
     0
 90
        2
176
     0
 90
        0
176
     0
 90
        0
176
     0
 40
0.6
176
     0
 40
30.0
176
     0
 62
     7
420
 16777215
176
     0
 90
        1
176
     0
 90
        4
176
     0
 62
     7
176
     0
 62
   257
176
     0
 90
        1
176
     0
 90
        1
176
     0
 40
1.0
176
     0
 90
        8
176
     2
 62
     7
176
     0
 40
1.0
176
     0
 90
        1
176
     0
 90
        6
176
     0
 90
        2
176
     0
 62
     7
176
     0
 90
        5
176
     0
 90
        0
176
     0
 90
        0
176
     0
290
     0
176
     0
 90
        1
176
     0
 40
0.0
176
     0
 90
        0
176
     0
290
     0
176
     1
290
     1
176
     1
290
     1
176
     1
290
     0
176
     1
290
     0
176
     1
290
     0
176
     1
290
     0
176
     1
290
     0
176
     1
290
     0
176
     1
 90
       50
176
     0
 40
0.0
176
     0
 40
1.0
176
     0
 90
        0
176
     0
 62
    18
176
     0
 90
       50
176
     0
 90
        3
176
     0
 62
     5
420
      255
176
     0
290
     0
176
     1
 90
       50
176
     0
 90
       50
176
     0
 90
       50
176
     0
290
     0
176
     1
 90
       50
176
     0
 62
   256
176
     0
 40
1.0
176
     0
 90
        2
176
     0
  1
strokes_ogs.tif
176
     0
290
     0
176
     1
 40
1.0
176
     0
 40
1.0
176
     0
1001
ACAD
1000
AcDbSavedByObjectVersion
1070
     0
  0
VISUALSTYLE
  5
39
102
{ACAD_REACTORS
330
2A
102
}
330
2A
100
AcDbVisualStyle
  2
Facepattern
 70
    15
177
     3
291
     1
 70
    58
 90
        2
176
     1
 90
        2
176
     1
 90
        0
176
     1
 90
        0
176
     1
 40
0.6
176
     1
 40
30.0
176
     1
 62
     7
420
 16777215
176
     1
 90
        1
176
     1
 90
        4
176
     1
 62
     7
176
     1
 62
   257
176
     1
 90
        1
176
     1
 90
        1
176
     1
 40
1.0
176
     1
 90
        8
176
     1
 62
     7
176
     1
 40
1.0
176
     1
 90
        1
176
     1
 90
        6
176
     1
 90
        2
176
     1
 62
     7
176
     1
 90
        5
176
     1
 90
        0
176
     1
 90
        0
176
     1
290
     0
176
     1
 90
        1
176
     1
 40
0.0
176
     1
 90
        0
176
     1
290
     0
176
     1
290
     1
176
     1
290
     1
176
     1
290
     0
176
     1
290
     0
176
     1
290
     0
176
     1
290
     0
176
     1
290
     0
176
     1
290
     0
176
     1
 90
       50
176
     1
 40
0.0
176
     1
 40
1.0
176
     1
 90
        0
176
     1
 62
    18
176
     1
 90
       50
176
     1
 90
        3
176
     1
 62
     5
420
      255
176
     1
290
     0
176
     1
 90
       50
176
     1
 90
       50
176
     1
 90
       50
176
     1
290
     0
176
     1
 90
       50
176
     1
 62
   256
176
     0
 40
1.0
176
     0
 90
        2
176
     1
  1
strokes_ogs.tif
176
     1
290
     0
176
     1
 40
1.0
176
     1
 40
1.0
176
     1
1001
ACAD
1000
AcDbSavedByObjectVersion
1070
     0
  0
VISUALSTYLE
  5
2B
102
{ACAD_REACTORS
330
2A
102
}
330
2A
100
AcDbVisualStyle
  2
Flat
 70
     0
177
     3
291
     1
 70
    58
 90
        2
176
     1
 90
        1
176
     1
 90
        1
176
     1
 90
        2
176
     1
 40
0.6
176
     1
 40
30.0
176
     1
 62
     7
420
 16777215
176
     1
 90
        0
176
     1
 90
        4
176
     1
 62
     7
176
     1
 62
   257
176
     1
 90
        1
176
     1
 90
        1
176
     1
 40
1.0
176
     1
 90
        8
176
     1
 62
     7
176
     1
 40
1.0
176
     1
 90
        1
176
     1
 90
        6
176
     1
 90
        2
176
     1
 62
     7
176
     1
 90
        5
176
     1
 90
        0
176
     1
 90
        0
176
     1
290
     0
176
     1
 90
       13
176
     1
 40
0.0
176
     1
 90
        0
176
     1
290
     0
176
     1
290
     1
176
     1
290
     1
176
     1
290
     0
176
     1
290
     0
176
     1
290
     0
176
     1
290
     0
176
     1
290
     0
176
     1
290
     0
176
     1
 90
       50
176
     1
 40
0.0
176
     1
 40
1.0
176
     1
 90
        0
176
     1
 62
    18
176
     1
 90
       50
176
     1
 90
        3
176
     1
 62
     5
420
      255
176
     1
290
     0
176
     1
 90
       50
176
     1
 90
       50
176
     1
 90
       50
176
     1
290
     0
176
     1
 90
       50
176
     1
 62
   256
176
     0
 40
1.0
176
     0
 90
        2
176
     1
  1
strokes_ogs.tif
176
     1
290
     0
176
     1
 40
1.0
176
     1
 40
1.0
176
     1
1001
ACAD
1000
AcDbSavedByObjectVersion
1070
     0
  0
VISUALSTYLE
  5
2C
102
{ACAD_REACTORS
330
2A
102
}
330
2A
100
AcDbVisualStyle
  2
FlatWithEdges
 70
     1
177
     3
291
     1
 70
    58
 90
        2
176
     1
 90
        1
176
     1
 90
        1
176
     1
 90
        2
176
     1
 40
0.6
176
     1
 40
30.0
176
     1
 62
     7
420
 16777215
176
     1
 90
        1
176
     1
 90
        4
176
     1
 62
     7
176
     1
 62
   257
176
     1
 90
        1
176
     1
 90
        1
176
     1
 40
1.0
176
     1
 90
        0
176
     1
 62
   257
176
     1
 40
1.0
176
     1
 90
        1
176
     1
 90
        6
176
     1
 90
        2
176
     1
 62
     7
176
     1
 90
        5
176
     1
 90
        0
176
     1
 90
        0
176
     1
290
     0
176
     1
 90
       13
176
     1
 40
0.0
176
     1
 90
        0
176
     1
290
     0
176
     1
290
     1
176
     1
290
     1
176
     1
290
     0
176
     1
290
     0
176
     1
290
     0
176
     1
290
     0
176
     1
290
     0
176
     1
290
     0
176
     1
 90
       50
176
     1
 40
0.0
176
     1
 40
1.0
176
     1
 90
        0
176
     1
 62
    18
176
     1
 90
       50
176
     1
 90
        3
176
     1
 62
     5
420
      255
176
     1
290
     0
176
     1
 90
       50
176
     1
 90
       50
176
     1
 90
       50
176
     1
290
     0
176
     1
 90
       50
176
     1
 62
   256
176
     0
 40
1.0
176
     0
 90
        2
176
     1
  1
strokes_ogs.tif
176
     1
290
     0
176
     1
 40
1.0
176
     1
 40
1.0
176
     1
1001
ACAD
1000
AcDbSavedByObjectVersion
1070
     0
  0
VISUALSTYLE
  5
2D
102
{ACAD_REACTORS
330
2A
102
}
330
2A
100
AcDbVisualStyle
  2
Gouraud
 70
     2
177
     3
291
     1
 70
    58
 90
        2
176
     1
 90
        2
176
     1
 90
        1
176
     1
 90
        2
176
     1
 40
0.6
176
     1
 40
30.0
176
     1
 62
     7
420
 16777215
176
     1
 90
        0
176
     1
 90
        4
176
     1
 62
     7
176
     1
 62
   257
176
     1
 90
        1
176
     1
 90
        1
176
     1
 40
1.0
176
     1
 90
        0
176
     1
 62
     7
176
     1
 40
1.0
176
     1
 90
        1
176
     1
 90
        6
176
     1
 90
        2
176
     1
 62
     7
176
     1
 90
        5
176
     1
 90
        0
176
     1
 90
        0
176
     1
290
     0
176
     1
 90
       13
176
     1
 40
0.0
176
     1
 90
        0
176
     1
290
     0
176
     1
290
     1
176
     1
290
     1
176
     1
290
     0
176
     1
290
     0
176
     1
290
     0
176
     1
290
     0
176
     1
290
     0
176
     1
290
     0
176
     1
 90
       50
176
     1
 40
0.0
176
     1
 40
1.0
176
     1
 90
        0
176
     1
 62
    18
176
     1
 90
       50
176
     1
 90
        3
176
     1
 62
     5
420
      255
176
     1
290
     0
176
     1
 90
       50
176
     1
 90
       50
176
     1
 90
       50
176
     1
290
     0
176
     1
 90
       50
176
     1
 62
   256
176
     0
 40
1.0
176
     0
 90
        2
176
     1
  1
strokes_ogs.tif
176
     1
290
     0
176
     1
 40
1.0
176
     1
 40
1.0
176
     1
1001
ACAD
1000
AcDbSavedByObjectVersion
1070
     0
  0
VISUALSTYLE
  5
2E
102
{ACAD_REACTORS
330
2A
102
}
330
2A
100
AcDbVisualStyle
  2
GouraudWithEdges
 70
     3
177
     3
291
     1
 70
    58
 90
        2
176
     1
 90
        2
176
     1
 90
        1
176
     1
 90
        2
176
     1
 40
0.6
176
     1
 40
30.0
176
     1
 62
     7
420
 16777215
176
     1
 90
        1
176
     1
 90
        4
176
     1
 62
     7
176
     1
 62
   257
176
     1
 90
        1
176
     1
 90
        1
176
     1
 40
1.0
176
     1
 90
        0
176
     1
 62
   257
176
     1
 40
1.0
176
     1
 90
        1
176
     1
 90
        6
176
     1
 90
        2
176
     1
 62
     7
176
     1
 90
        5
176
     1
 90
        0
176
     1
 90
        0
176
     1
290
     0
176
     1
 90
       13
176
     1
 40
0.0
176
     1
 90
        0
176
     1
290
     0
176
     1
290
     1
176
     1
290
     1
176
     1
290
     0
176
     1
290
     0
176
     1
290
     0
176
     1
290
     0
176
     1
290
     0
176
     1
290
     0
176
     1
 90
       50
176
     1
 40
0.0
176
     1
 40
1.0
176
     1
 90
        0
176
     1
 62
    18
176
     1
 90
       50
176
     1
 90
        3
176
     1
 62
     5
420
      255
176
     1
290
     0
176
     1
 90
       50
176
     1
 90
       50
176
     1
 90
       50
176
     1
290
     0
176
     1
 90
       50
176
     1
 62
   256
176
     0
 40
1.0
176
     0
 90
        2
176
     1
  1
strokes_ogs.tif
176
     1
290
     0
176
     1
 40
1.0
176
     1
 40
1.0
176
     1
1001
ACAD
1000
AcDbSavedByObjectVersion
1070
     0
  0
VISUALSTYLE
  5
1A1
102
{ACAD_REACTORS
330
2A
102
}
330
2A
100
AcDbVisualStyle
  2
Hidden
 70
     6
177
     3
291
     0
 70
    58
 90
        1
176
     1
 90
        2
176
     1
 90
        2
176
     1
 90
        0
176
     1
 40
0.6
176
     1
 40
30.0
176
     1
 62
     7
420
 16777215
176
     1
 90
        2
176
     1
 90
        2
176
     1
 62
     7
176
     1
 62
   257
176
     1
 90
        2
176
     1
 90
        1
176
     1
 40
40.0
176
     1
 90
        0
176
     1
 62
   257
176
     1
 40
1.0
176
     1
 90
        1
176
     1
 90
        6
176
     1
 90
        2
176
     1
 62
     7
176
     1
 90
        3
176
     1
 90
        0
176
     1
 90
        0
176
     1
290
     0
176
     1
 90
        1
176
     1
 40
0.0
176
     1
 90
        0
176
     1
290
     0
176
     1
290
     1
176
     1
290
     1
176
     1
290
     0
176
     1
290
     0
176
     1
290
     0
176
     1
290
     0
176
     1
290
     0
176
     1
290
     0
176
     1
 90
       50
176
     1
 40
0.0
176
     1
 40
1.0
176
     1
 90
        0
176
     1
 62
    18
176
     1
 90
       50
176
     1
 90
        3
176
     1
 62
     5
420
      255
176
     1
290
     0
176
     1
 90
       50
176
     1
 90
       50
176
     1
 90
       50
176
     1
290
     0
176
     1
 90
       50
176
     1
 62
   256
176
     0
 40
1.0
176
     0
 90
        2
176
     1
  1
strokes_ogs.tif
176
     1
290
     0
176
     1
 40
1.0
176
     1
 40
1.0
176
     1
1001
ACAD
1000
AcDbSavedByObjectVersion
1070
     0
  0
VISUALSTYLE
  5
1A7
102
{ACAD_REACTORS
330
2A
102
}
330
2A
100
AcDbVisualStyle
  2
JitterOff
 70
    20
177
     3
291
     1
 70
    58
 90
        2
176
     0
 90
        2
176
     0
 90
        0
176
     0
 90
        0
176
     0
 40
0.6
176
     0
 40
30.0
176
     0
 62
     7
420
 16777215
176
     0
 90
        1
176
     0
 90
        4
176
     0
 62
     7
176
     0
 62
   257
176
     0
 90
        1
176
     0
 90
        1
176
     0
 40
1.0
176
     0
 90
       10
176
     2
 62
     7
176
     0
 40
1.0
176
     0
 90
        1
176
     0
 90
        6
176
     0
 90
        2
176
     0
 62
     7
176
     0
 90
        5
176
     0
 90
        0
176
     0
 90
        0
176
     0
290
     0
176
     0
 90
        1
176
     0
 40
0.0
176
     0
 90
        0
176
     0
290
     0
176
     1
290
     1
176
     1
290
     1
176
     1
290
     0
176
     1
290
     0
176
     1
290
     0
176
     1
290
     0
176
     1
290
     0
176
     1
290
     0
176
     1
 90
       50
176
     0
 40
0.0
176
     0
 40
1.0
176
     0
 90
        0
176
     0
 62
    18
176
     0
 90
       50
176
     0
 90
        3
176
     0
 62
     5
420
      255
176
     0
290
     0
176
     1
 90
       50
176
     0
 90
       50
176
     0
 90
       50
176
     0
290
     0
176
     1
 90
       50
176
     0
 62
   256
176
     0
 40
1.0
176
     0
 90
        2
176
     0
  1
strokes_ogs.tif
176
     0
290
     0
176
     1
 40
1.0
176
     0
 40
1.0
176
     0
1001
ACAD
1000
AcDbSavedByObjectVersion
1070
     0
  0
VISUALSTYLE
  5
38
102
{ACAD_REACTORS
330
2A
102
}
330
2A
100
AcDbVisualStyle
  2
Linepattern
 70
    14
177
     3
291
     1
 70
    58
 90
        2
176
     1
 90
        2
176
     1
 90
        0
176
     1
 90
        0
176
     1
 40
0.6
176
     1
 40
30.0
176
     1
 62
     7
420
 16777215
176
     1
 90
        1
176
     1
 90
        4
176
     1
 62
     7
176
     1
 62
   257
176
     1
 90
        7
176
     1
 90
        7
176
     1
 40
1.0
176
     1
 90
        8
176
     1
 62
     7
176
     1
 40
1.0
176
     1
 90
        1
176
     1
 90
        6
176
     1
 90
        2
176
     1
 62
     7
176
     1
 90
        5
176
     1
 90
        0
176
     1
 90
        0
176
     1
290
     0
176
     1
 90
        1
176
     1
 40
0.0
176
     1
 90
        0
176
     1
290
     0
176
     1
290
     1
176
     1
290
     1
176
     1
290
     0
176
     1
290
     0
176
     1
290
     0
176
     1
290
     0
176
     1
290
     0
176
     1
290
     0
176
     1
 90
       50
176
     1
 40
0.0
176
     1
 40
1.0
176
     1
 90
        0
176
     1
 62
    18
176
     1
 90
       50
176
     1
 90
        3
176
     1
 62
     5
420
      255
176
     1
290
     0
176
     1
 90
       50
176
     1
 90
       50
176
     1
 90
       50
176
     1
290
     0
176
     1
 90
       50
176
     1
 62
   256
176
     0
 40
1.0
176
     0
 90
        2
176
     1
  1
strokes_ogs.tif
176
     1
290
     0
176
     1
 40
1.0
176
     1
 40
1.0
176
     1
1001
ACAD
1000
AcDbSavedByObjectVersion
1070
     0
  0
VISUALSTYLE
  5
1A8
102
{ACAD_REACTORS
330
2A
102
}
330
2A
100
AcDbVisualStyle
  2
OverhangOff
 70
    21
177
     3
291
     1
 70
    58
 90
        2
176
     0
 90
        2
176
     0
 90
        0
176
     0
 90
        0
176
     0
 40
0.6
176
     0
 40
30.0
176
     0
 62
     7
420
 16777215
176
     0
 90
        1
176
     0
 90
        4
176
     0
 62
     7
176
     0
 62
   257
176
     0
 90
        1
176
     0
 90
        1
176
     0
 40
1.0
176
     0
 90
        9
176
     2
 62
     7
176
     0
 40
1.0
176
     0
 90
        1
176
     0
 90
        6
176
     0
 90
        2
176
     0
 62
     7
176
     0
 90
        5
176
     0
 90
        0
176
     0
 90
        0
176
     0
290
     0
176
     0
 90
        1
176
     0
 40
0.0
176
     0
 90
        0
176
     0
290
     0
176
     1
290
     1
176
     1
290
     1
176
     1
290
     0
176
     1
290
     0
176
     1
290
     0
176
     1
290
     0
176
     1
290
     0
176
     1
290
     0
176
     1
 90
       50
176
     0
 40
0.0
176
     0
 40
1.0
176
     0
 90
        0
176
     0
 62
    18
176
     0
 90
       50
176
     0
 90
        3
176
     0
 62
     5
420
      255
176
     0
290
     0
176
     1
 90
       50
176
     0
 90
       50
176
     0
 90
       50
176
     0
290
     0
176
     1
 90
       50
176
     0
 62
   256
176
     0
 40
1.0
176
     0
 90
        2
176
     0
  1
strokes_ogs.tif
176
     0
290
     0
176
     1
 40
1.0
176
     0
 40
1.0
176
     0
1001
ACAD
1000
AcDbSavedByObjectVersion
1070
     0
  0
VISUALSTYLE
  5
33
102
{ACAD_REACTORS
330
2A
102
}
330
2A
100
AcDbVisualStyle
  2
Realistic
 70
     8
177
     3
291
     0
 70
    58
 90
        2
176
     1
 90
        2
176
     1
 90
        0
176
     1
 90
        0
176
     1
 40
0.6
176
     1
 40
30.0
176
     1
 62
     7
420
 16777215
176
     1
 90
        1
176
     1
 90
        0
176
     1
 62
     7
176
     1
 62
   257
176
     1
 90
        1
176
     1
 90
        1
176
     1
 40
1.0
176
     1
 90
        8
176
     1
 62
     8
420
  7895160
176
     1
 40
1.0
176
     1
 90
        1
176
     1
 90
        6
176
     1
 90
        2
176
     1
 62
     7
176
     1
 90
        5
176
     1
 90
        0
176
     1
 90
        0
176
     1
290
     0
176
     1
 90
       13
176
     1
 40
0.0
176
     1
 90
        0
176
     1
290
     0
176
     1
290
     1
176
     1
290
     1
176
     1
290
     0
176
     1
290
     0
176
     1
290
     0
176
     1
290
     0
176
     1
290
     0
176
     1
290
     0
176
     1
 90
       50
176
     1
 40
0.0
176
     1
 40
1.0
176
     1
 90
        0
176
     1
 62
    18
176
     1
 90
       50
176
     1
 90
        3
176
     1
 62
     5
420
      255
176
     1
290
     0
176
     1
 90
       50
176
     1
 90
       50
176
     1
 90
       50
176
     1
290
     0
176
     1
 90
       50
176
     1
 62
   256
176
     0
 40
1.0
176
     0
 90
        2
176
     1
  1
strokes_ogs.tif
176
     1
290
     0
176
     1
 40
1.0
176
     1
 40
1.0
176
     1
1001
ACAD
1000
AcDbSavedByObjectVersion
1070
     0
  0
VISUALSTYLE
  5
1A6
102
{ACAD_REACTORS
330
2A
102
}
330
2A
100
AcDbVisualStyle
  2
Shaded
 70
    27
177
     3
291
     0
 70
    58
 90
        2
176
     1
 90
        2
176
     1
 90
        1
176
     1
 90
        2
176
     1
 40
0.6
176
     1
 40
30.0
176
     1
 62
     7
420
 16777215
176
     1
 90
        0
176
     1
 90
        4
176
     1
 62
     7
176
     1
 62
   257
176
     1
 90
        1
176
     1
 90
        1
176
     1
 40
1.0
176
     1
 90
        8
176
     1
 62
   257
176
     1
 40
1.0
176
     1
 90
        1
176
     1
 90
        6
176
     1
 90
        2
176
     1
 62
     8
420
  7895160
176
     1
 90
        3
176
     1
 90
        0
176
     1
 90
        0
176
     1
290
     0
176
     1
 90
        5
176
     1
 40
0.0
176
     1
 90
        0
176
     1
290
     0
176
     1
290
     1
176
     1
290
     1
176
     1
290
     0
176
     1
290
     0
176
     1
290
     0
176
     1
290
     0
176
     1
290
     0
176
     1
290
     0
176
     1
 90
       50
176
     1
 40
0.0
176
     1
 40
1.0
176
     1
 90
        0
176
     1
 62
    18
176
     1
 90
       50
176
     1
 90
        3
176
     1
 62
     5
420
      255
176
     1
290
     0
176
     1
 90
       50
176
     1
 90
       50
176
     1
 90
       50
176
     1
290
     0
176
     1
 90
       50
176
     1
 62
   256
176
     0
 40
1.0
176
     0
 90
        2
176
     1
  1
strokes_ogs.tif
176
     1
290
     0
176
     1
 40
1.0
176
     1
 40
1.0
176
     1
1001
ACAD
1000
AcDbSavedByObjectVersion
1070
     0
  0
VISUALSTYLE
  5
1A5
102
{ACAD_REACTORS
330
2A
102
}
330
2A
100
AcDbVisualStyle
  2
Shaded with edges
 70
    26
177
     3
291
     0
 70
    58
 90
        2
176
     1
 90
        2
176
     1
 90
        1
176
     1
 90
        2
176
     1
 40
0.6
176
     1
 40
30.0
176
     1
 62
     7
420
 16777215
176
     1
 90
        1
176
     1
 90
        2
176
     1
 62
     7
176
     1
 62
   257
176
     1
 90
        2
176
     1
 90
        1
176
     1
 40
1.0
176
     1
 90
        8
176
     1
 62
   257
176
     1
 40
1.0
176
     1
 90
        1
176
     1
 90
        6
176
     1
 90
        2
176
     1
 62
     7
176
     1
 90
        3
176
     1
 90
        0
176
     1
 90
        0
176
     1
290
     0
176
     1
 90
        5
176
     1
 40
0.0
176
     1
 90
        0
176
     1
290
     0
176
     1
290
     1
176
     1
290
     1
176
     1
290
     0
176
     1
290
     0
176
     1
290
     0
176
     1
290
     0
176
     1
290
     0
176
     1
290
     0
176
     1
 90
       50
176
     1
 40
0.0
176
     1
 40
1.0
176
     1
 90
        0
176
     1
 62
    18
176
     1
 90
       50
176
     1
 90
        3
176
     1
 62
     5
420
      255
176
     1
290
     0
176
     1
 90
       50
176
     1
 90
       50
176
     1
 90
       50
176
     1
290
     0
176
     1
 90
       50
176
     1
 62
   256
176
     0
 40
1.0
176
     0
 90
        2
176
     1
  1
strokes_ogs.tif
176
     1
290
     0
176
     1
 40
1.0
176
     1
 40
1.0
176
     1
1001
ACAD
1000
AcDbSavedByObjectVersion
1070
     0
  0
VISUALSTYLE
  5
1A2
102
{ACAD_REACTORS
330
2A
102
}
330
2A
100
AcDbVisualStyle
  2
Shades of Gray
 70
    23
177
     3
291
     0
 70
    58
 90
        2
176
     1
 90
        2
176
     1
 90
        3
176
     1
 90
        0
176
     1
 40
0.6
176
     1
 40
30.0
176
     1
 62
     7
420
 16777215
176
     1
 90
        2
176
     1
 90
        2
176
     1
 62
     7
176
     1
 62
     7
176
     1
 90
        1
176
     1
 90
        1
176
     1
 40
40.0
176
     1
 90
        8
176
     1
 62
     7
176
     1
 40
1.0
176
     1
 90
        1
176
     1
 90
        6
176
     1
 90
        2
176
     1
 62
     7
176
     1
 90
        3
176
     1
 90
        0
176
     1
 90
        0
176
     1
290
     0
176
     1
 90
        1
176
     1
 40
0.0
176
     1
 90
        0
176
     1
290
     0
176
     1
290
     1
176
     1
290
     1
176
     1
290
     0
176
     1
290
     0
176
     1
290
     0
176
     1
290
     0
176
     1
290
     0
176
     1
290
     0
176
     1
 90
       50
176
     1
 40
0.0
176
     1
 40
1.0
176
     1
 90
        0
176
     1
 62
    18
176
     1
 90
       50
176
     1
 90
        3
176
     1
 62
     5
420
      255
176
     1
290
     0
176
     1
 90
       50
176
     1
 90
       50
176
     1
 90
       50
176
     1
290
     0
176
     1
 90
       50
176
     1
 62
   256
176
     0
 40
1.0
176
     0
 90
        2
176
     1
  1
strokes_ogs.tif
176
     1
290
     0
176
     1
 40
1.0
176
     1
 40
1.0
176
     1
1001
ACAD
1000
AcDbSavedByObjectVersion
1070
     0
  0
VISUALSTYLE
  5
1A3
102
{ACAD_REACTORS
330
2A
102
}
330
2A
100
AcDbVisualStyle
  2
Sketchy
 70
    24
177
     3
291
     0
 70
    58
 90
        1
176
     1
 90
        2
176
     1
 90
        2
176
     1
 90
        0
176
     1
 40
0.6
176
     1
 40
30.0
176
     1
 62
     7
420
 16777215
176
     1
 90
        2
176
     1
 90
        2
176
     1
 62
     7
176
     1
 62
     7
176
     1
 90
        1
176
     1
 90
        1
176
     1
 40
40.0
176
     1
 90
       11
176
     1
 62
     7
176
     1
 40
1.0
176
     1
 90
        1
176
     1
 90
        6
176
     1
 90
        2
176
     1
 62
     7
176
     1
 90
        6
176
     1
 90
        0
176
     1
 90
        0
176
     1
290
     0
176
     1
 90
        1
176
     1
 40
0.0
176
     1
 90
        0
176
     1
290
     0
176
     1
290
     1
176
     1
290
     1
176
     1
290
     0
176
     1
290
     0
176
     1
290
     0
176
     1
290
     0
176
     1
290
     0
176
     1
290
     0
176
     1
 90
       50
176
     1
 40
0.0
176
     1
 40
1.0
176
     1
 90
        0
176
     1
 62
    18
176
     1
 90
       50
176
     1
 90
        3
176
     1
 62
     5
420
      255
176
     1
290
     0
176
     1
 90
       50
176
     1
 90
       50
176
     1
 90
       50
176
     1
290
     0
176
     1
 90
       50
176
     1
 62
   256
176
     0
 40
1.0
176
     0
 90
        2
176
     1
  1
strokes_ogs.tif
176
     1
290
     0
176
     1
 40
1.0
176
     1
 40
1.0
176
     1
1001
ACAD
1000
AcDbSavedByObjectVersion
1070
     0
  0
VISUALSTYLE
  5
37
102
{ACAD_REACTORS
330
2A
102
}
330
2A
100
AcDbVisualStyle
  2
Thicken
 70
    13
177
     3
291
     1
 70
    58
 90
        2
176
     1
 90
        2
176
     1
 90
        0
176
     1
 90
        0
176
     1
 40
0.6
176
     1
 40
30.0
176
     1
 62
     7
420
 16777215
176
     1
 90
        1
176
     1
 90
        4
176
     1
 62
     7
176
     1
 62
   257
176
     1
 90
        1
176
     1
 90
        1
176
     1
 40
1.0
176
     1
 90
       12
176
     1
 62
     7
176
     1
 40
1.0
176
     1
 90
        1
176
     1
 90
        6
176
     1
 90
        2
176
     1
 62
     7
176
     1
 90
        5
176
     1
 90
        0
176
     1
 90
        0
176
     1
290
     0
176
     1
 90
        1
176
     1
 40
0.0
176
     1
 90
        0
176
     1
290
     0
176
     1
290
     1
176
     1
290
     1
176
     1
290
     0
176
     1
290
     0
176
     1
290
     0
176
     1
290
     0
176
     1
290
     0
176
     1
290
     0
176
     1
 90
       50
176
     1
 40
0.0
176
     1
 40
1.0
176
     1
 90
        0
176
     1
 62
    18
176
     1
 90
       50
176
     1
 90
        3
176
     1
 62
     5
420
      255
176
     1
290
     0
176
     1
 90
       50
176
     1
 90
       50
176
     1
 90
       50
176
     1
290
     0
176
     1
 90
       50
176
     1
 62
   256
176
     0
 40
1.0
176
     0
 90
        2
176
     1
  1
strokes_ogs.tif
176
     1
290
     0
176
     1
 40
1.0
176
     1
 40
1.0
176
     1
1001
ACAD
1000
AcDbSavedByObjectVersion
1070
     0
  0
VISUALSTYLE
  5
1A0
102
{ACAD_REACTORS
330
2A
102
}
330
2A
100
AcDbVisualStyle
  2
Wireframe
 70
     5
177
     3
291
     0
 70
    58
 90
        0
176
     1
 90
        2
176
     1
 90
        0
176
     1
 90
        0
176
     1
 40
0.6
176
     1
 40
30.0
176
     1
 62
     7
420
 16777215
176
     1
 90
        1
176
     1
 90
        4
176
     1
 62
     7
176
     1
 62
   257
176
     1
 90
        1
176
     1
 90
        1
176
     1
 40
1.0
176
     1
 90
        0
176
     1
 62
   257
176
     1
 40
1.0
176
     1
 90
        1
176
     1
 90
        6
176
     1
 90
        2
176
     1
 62
     7
176
     1
 90
        3
176
     1
 90
        0
176
     1
 90
        0
176
     1
290
     0
176
     1
 90
        1
176
     1
 40
0.0
176
     1
 90
        0
176
     1
290
     0
176
     1
290
     1
176
     1
290
     1
176
     1
290
     0
176
     1
290
     0
176
     1
290
     0
176
     1
290
     0
176
     1
290
     0
176
     1
290
     0
176
     1
 90
       50
176
     1
 40
0.0
176
     1
 40
1.0
176
     1
 90
        0
176
     1
 62
    18
176
     1
 90
       50
176
     1
 90
        3
176
     1
 62
     5
420
      255
176
     1
290
     0
176
     1
 90
       50
176
     1
 90
       50
176
     1
 90
       50
176
     1
290
     0
176
     1
 90
       50
176
     1
 62
   256
176
     0
 40
1.0
176
     0
 90
        2
176
     1
  1
strokes_ogs.tif
176
     1
290
     0
176
     1
 40
1.0
176
     1
 40
1.0
176
     1
1001
ACAD
1000
AcDbSavedByObjectVersion
1070
     0
  0
VISUALSTYLE
  5
1A4
102
{ACAD_REACTORS
330
2A
102
}
330
2A
100
AcDbVisualStyle
  2
X-Ray
 70
    25
177
     3
291
     0
 70
    58
 90
        2
176
     1
 90
        2
176
     1
 90
        1
176
     1
 90
        1
176
     1
 40
0.5
176
     1
 40
30.0
176
     1
 62
     7
420
 16777215
176
     1
 90
        1
176
     1
 90
        0
176
     1
 62
     7
176
     1
 62
   257
176
     1
 90
        1
176
     1
 90
        1
176
     1
 40
1.0
176
     1
 90
        8
176
     1
 62
     7
176
     1
 40
1.0
176
     1
 90
        1
176
     1
 90
        6
176
     1
 90
        2
176
     1
 62
     7
176
     1
 90
        3
176
     1
 90
        0
176
     1
 90
        0
176
     1
290
     0
176
     1
 90
       13
176
     1
 40
0.0
176
     1
 90
        0
176
     1
290
     0
176
     1
290
     1
176
     1
290
     1
176
     1
290
     0
176
     1
290
     0
176
     1
290
     0
176
     1
290
     0
176
     1
290
     0
176
     1
290
     0
176
     1
 90
       50
176
     1
 40
0.0
176
     1
 40
1.0
176
     1
 90
        0
176
     1
 62
    18
176
     1
 90
       50
176
     1
 90
        3
176
     1
 62
     5
420
      255
176
     1
290
     0
176
     1
 90
       50
176
     1
 90
       50
176
     1
 90
       50
176
     1
290
     0
176
     1
 90
       50
176
     1
 62
   256
176
     0
 40
1.0
176
     0
 90
        2
176
     1
  1
strokes_ogs.tif
176
     1
290
     0
176
     1
 40
1.0
176
     1
 40
1.0
176
     1
1001
ACAD
1000
AcDbSavedByObjectVersion
1070
     0
  0
DICTIONARYVAR
  5
281
102
{ACAD_REACTORS
330
27C
102
}
330
27C
100
DictionaryVariables
280
     0
  1
1:1
  0
DICTIONARYVAR
  5
27E
102
{ACAD_REACTORS
330
27C
102
}
330
27C
100
DictionaryVariables
280
     0
  1
STANDARD
  0
DICTIONARYVAR
  5
27D
102
{ACAD_REACTORS
330
27C
102
}
330
27C
100
DictionaryVariables
280
     0
  1
STANDARD
  0
DICTIONARYVAR
  5
27F
102
{ACAD_REACTORS
330
27C
102
}
330
27C
100
DictionaryVariables
280
     0
  1
Imperial24
  0
DICTIONARYVAR
  5
280
102
{ACAD_REACTORS
330
27C
102
}
330
27C
100
DictionaryVariables
280
     0
  1
Imperial24
  0
DICTIONARY
  5
36F
102
{ACAD_REACTORS
330
36D
102
}
330
36D
100
AcDbDictionary
281
     1
  0
DICTIONARY
  5
36E
102
{ACAD_REACTORS
330
36D
102
}
330
36D
100
AcDbDictionary
281
     1
  3
2420118832000
350
368
  3
2420118832016
350
369
  3
2420118832032
350
36A
  3
2420118832048
350
36B
  3
2420118832064
350
36C
  0
DICTIONARY
  5
372
330
1C6
100
AcDbDictionary
280
     1
281
     1
  3
ACAD_XREC_ROUNDTRIP
360
373
  0
DICTIONARY
  5
2F6
330
22
100
AcDbDictionary
280
     1
281
     1
  0
DICTIONARY
  5
370
330
1C4
100
AcDbDictionary
280
     1
281
     1
  3
ACAD_XREC_ROUNDTRIP
360
371
  0
DICTIONARY
  5
282
330
1AB
100
AcDbDictionary
280
     1
281
     1
  3
ACAD_ROUNDTRIP_2008_TABLESTYLE_CELLSTYLEMAP
360
366
  0
XRECORD
  5
368
102
{ACAD_REACTORS
330
36E
102
}
330
36E
100
AcDbXrecord
280
     1
  1
AcDb_Thumbnail_Schema
102
{ATTRRECORD
341
369
  2
AcDbDs::TreatedAsObjectData
280
     1
291
     1
102
ATTRRECORD}
102
{ATTRRECORD
341
36A
  2
AcDbDs::Legacy
280
     1
291
     1
102
ATTRRECORD}
  2
AcDbDs::ID
280
    10
 91
        8
102
{ATTRRECORD
341
36B
  2
AcDs:Indexable
280
     1
291
     1
102
ATTRRECORD}
102
{ATTRRECORD
341
36C
  2
AcDbDs::HandleAttribute
280
     7
282
     1
102
ATTRRECORD}
  2
Thumbnail_Data
280
    15
 91
        0
  0
XRECORD
  5
369
102
{ACAD_REACTORS
330
36E
102
}
330
36E
100
AcDbXrecord
280
     1
  1
AcDbDs::TreatedAsObjectDataSchema
  2
AcDbDs::TreatedAsObjectData
280
     1
 91
        0
  0
XRECORD
  5
36A
102
{ACAD_REACTORS
330
36E
102
}
330
36E
100
AcDbXrecord
280
     1
  1
AcDbDs::LegacySchema
  2
AcDbDs::Legacy
280
     1
 91
        0
  0
XRECORD
  5
36B
102
{ACAD_REACTORS
330
36E
102
}
330
36E
100
AcDbXrecord
280
     1
  1
AcDbDs::IndexedPropertySchema
  2
AcDs:Indexable
280
     1
 91
        0
  0
XRECORD
  5
36C
102
{ACAD_REACTORS
330
36E
102
}
330
36E
100
AcDbXrecord
280
     1
  1
AcDbDs::HandleAttributeSchema
  2
AcDbDs::HandleAttribute
280
     7
 91
        1
284
     1
  0
XRECORD
  5
373
102
{ACAD_REACTORS
330
372
102
}
330
372
100
AcDbXrecord
280
     1
102
DISPLAYNAME
  1
Imperial24
102
FLAGS
 90
        0
  0
XRECORD
  5
371
102
{ACAD_REACTORS
330
370
102
}
330
370
100
AcDbXrecord
280
     1
102
DISPLAYNAME
  1
Imperial24
102
FLAGS
 90
        0
  0
CELLSTYLEMAP
  5
366
102
{ACAD_REACTORS
330
282
102
}
330
282
100
AcDbCellStyleMap
 90
        3
300
CELLSTYLE
  1
TABLEFORMAT_BEGIN
 90
        5
170
     1
 91
        0
 92
    32768
 62
   257
 93
        1
300
CONTENTFORMAT
  1
CONTENTFORMAT_BEGIN
 90
        0
 91
        0
 92
      512
 93
        0
300

 40
0.0
140
1.0
 94
        5
 62
     0
340
11
144
0.25
309
CONTENTFORMAT_END
171
     1
301
MARGIN
  1
CELLMARGIN_BEGIN
 40
0.06
 40
0.06
 40
0.06
 40
0.06
 40
0.18
 40
0.18
309
CELLMARGIN_END
 94
        6
 95
        1
302
GRIDFORMAT
  1
GRIDFORMAT_BEGIN
 90
        0
 91
        1
 62
     0
 92
       -2
340
0
 93
        0
 40
0.045
309
GRIDFORMAT_END
 95
        2
302
GRIDFORMAT
  1
GRIDFORMAT_BEGIN
 90
        0
 91
        1
 62
     0
 92
       -2
340
0
 93
        0
 40
0.045
309
GRIDFORMAT_END
 95
        4
302
GRIDFORMAT
  1
GRIDFORMAT_BEGIN
 90
        0
 91
        1
 62
     0
 92
       -2
340
0
 93
        0
 40
0.045
309
GRIDFORMAT_END
 95
        8
302
GRIDFORMAT
  1
GRIDFORMAT_BEGIN
 90
        0
 91
        1
 62
     0
 92
       -2
340
0
 93
        0
 40
0.045
309
GRIDFORMAT_END
 95
       16
302
GRIDFORMAT
  1
GRIDFORMAT_BEGIN
 90
        0
 91
        1
 62
     0
 92
       -2
340
0
 93
        0
 40
0.045
309
GRIDFORMAT_END
 95
       32
302
GRIDFORMAT
  1
GRIDFORMAT_BEGIN
 90
        0
 91
        1
 62
     0
 92
       -2
340
0
 93
        0
 40
0.045
309
GRIDFORMAT_END
309
TABLEFORMAT_END
  1
CELLSTYLE_BEGIN
 90
        1
 91
        1
300
_TITLE
309
CELLSTYLE_END
300
CELLSTYLE
  1
TABLEFORMAT_BEGIN
 90
        5
170
     1
 91
        0
 92
        0
 62
   257
 93
        1
300
CONTENTFORMAT
  1
CONTENTFORMAT_BEGIN
 90
        0
 91
        0
 92
      512
 93
        0
300

 40
0.0
140
1.0
 94
        5
 62
     0
340
11
144
0.18
309
CONTENTFORMAT_END
171
     1
301
MARGIN
  1
CELLMARGIN_BEGIN
 40
0.06
 40
0.06
 40
0.06
 40
0.06
 40
0.18
 40
0.18
309
CELLMARGIN_END
 94
        6
 95
        1
302
GRIDFORMAT
  1
GRIDFORMAT_BEGIN
 90
        0
 91
        1
 62
     0
 92
       -2
340
0
 93
        0
 40
0.045
309
GRIDFORMAT_END
 95
        2
302
GRIDFORMAT
  1
GRIDFORMAT_BEGIN
 90
        0
 91
        1
 62
     0
 92
       -2
340
0
 93
        0
 40
0.045
309
GRIDFORMAT_END
 95
        4
302
GRIDFORMAT
  1
GRIDFORMAT_BEGIN
 90
        0
 91
        1
 62
     0
 92
       -2
340
0
 93
        0
 40
0.045
309
GRIDFORMAT_END
 95
        8
302
GRIDFORMAT
  1
GRIDFORMAT_BEGIN
 90
        0
 91
        1
 62
     0
 92
       -2
340
0
 93
        0
 40
0.045
309
GRIDFORMAT_END
 95
       16
302
GRIDFORMAT
  1
GRIDFORMAT_BEGIN
 90
        0
 91
        1
 62
     0
 92
       -2
340
0
 93
        0
 40
0.045
309
GRIDFORMAT_END
 95
       32
302
GRIDFORMAT
  1
GRIDFORMAT_BEGIN
 90
        0
 91
        1
 62
     0
 92
       -2
340
0
 93
        0
 40
0.045
309
GRIDFORMAT_END
309
TABLEFORMAT_END
  1
CELLSTYLE_BEGIN
 90
        2
 91
        1
300
_HEADER
309
CELLSTYLE_END
300
CELLSTYLE
  1
TABLEFORMAT_BEGIN
 90
        5
170
     1
 91
        0
 92
        0
 62
   257
 93
        1
300
CONTENTFORMAT
  1
CONTENTFORMAT_BEGIN
 90
        0
 91
        0
 92
      512
 93
        0
300

 40
0.0
140
1.0
 94
        2
 62
     0
340
11
144
0.18
309
CONTENTFORMAT_END
171
     1
301
MARGIN
  1
CELLMARGIN_BEGIN
 40
0.06
 40
0.06
 40
0.06
 40
0.06
 40
0.18
 40
0.18
309
CELLMARGIN_END
 94
        6
 95
        1
302
GRIDFORMAT
  1
GRIDFORMAT_BEGIN
 90
        0
 91
        1
 62
     0
 92
       -2
340
0
 93
        0
 40
0.045
309
GRIDFORMAT_END
 95
        2
302
GRIDFORMAT
  1
GRIDFORMAT_BEGIN
 90
        0
 91
        1
 62
     0
 92
       -2
340
0
 93
        0
 40
0.045
309
GRIDFORMAT_END
 95
        4
302
GRIDFORMAT
  1
GRIDFORMAT_BEGIN
 90
        0
 91
        1
 62
     0
 92
       -2
340
0
 93
        0
 40
0.045
309
GRIDFORMAT_END
 95
        8
302
GRIDFORMAT
  1
GRIDFORMAT_BEGIN
 90
        0
 91
        1
 62
     0
 92
       -2
340
0
 93
        0
 40
0.045
309
GRIDFORMAT_END
 95
       16
302
GRIDFORMAT
  1
GRIDFORMAT_BEGIN
 90
        0
 91
        1
 62
     0
 92
       -2
340
0
 93
        0
 40
0.045
309
GRIDFORMAT_END
 95
       32
302
GRIDFORMAT
  1
GRIDFORMAT_BEGIN
 90
        0
 91
        1
 62
     0
 92
       -2
340
0
 93
        0
 40
0.045
309
GRIDFORMAT_END
309
TABLEFORMAT_END
  1
CELLSTYLE_BEGIN
 90
        3
 91
        2
300
_DATA
309
CELLSTYLE_END
  0
ENDSEC
  0
SECTION
  2
ACDSDATA
 70
     2
 71
     8
  0
ACDSSCHEMA
 90
        0
  1
AcDb_Thumbnail_Schema
  2
AcDbDs::ID
280
    10
 91
        8
  2
Thumbnail_Data
280
    15
 91
        0
101
ACDSRECORD
 95
        0
 90
        1
  2
AcDbDs::TreatedAsObjectData
280
     1
291
     1
101
ACDSRECORD
 95
        0
 90
        2
  2
AcDbDs::Legacy
280
     1
291
     1
101
ACDSRECORD
  1
AcDbDs::ID
 90
        3
  2
AcDs:Indexable
280
     1
291
     1
101
ACDSRECORD
  1
AcDbDs::ID
 90
        4
  2
AcDbDs::HandleAttribute
280
     7
282
     1
  0
ACDSSCHEMA
 90
        1
  1
AcDbDs::TreatedAsObjectDataSchema
  2
AcDbDs::TreatedAsObjectData
280
     1
 91
        0
  0
ACDSSCHEMA
 90
        2
  1
AcDbDs::LegacySchema
  2
AcDbDs::Legacy
280
     1
 91
        0
  0
ACDSSCHEMA
 90
        3
  1
AcDbDs::IndexedPropertySchema
  2
AcDs:Indexable
280
     1
 91
        0
  0
ACDSSCHEMA
 90
        4
  1
AcDbDs::HandleAttributeSchema
  2
AcDbDs::HandleAttribute
280
     7
 91
        1
284
     1
  0
ACDSRECORD
 90
        0
  2
AcDbDs::ID
280
    10
320
22
  2
Thumbnail_Data
280
    15
 94
     1071
310
89504E470D0A1A0A0000000D49484452000001000000009108030000001BE1960600000300504C5445000000FFFFFF0000000000000000000000000000000000000000000000000000000000330000660000990000CC0000FF0033000033330033660033990033CC0033FF0066000066330066660066990066CC0066FF0099
310
000099330099660099990099CC0099FF00CC0000CC3300CC6600CC9900CCCC00CCFF00FF0000FF3300FF6600FF9900FFCC00FFFF3300003300333300663300993300CC3300FF3333003333333333663333993333CC3333FF3366003366333366663366993366CC3366FF3399003399333399663399993399CC3399FF33CC00
310
33CC3333CC6633CC9933CCCC33CCFF33FF0033FF3333FF6633FF9933FFCC33FFFF6600006600336600666600996600CC6600FF6633006633336633666633996633CC6633FF6666006666336666666666996666CC6666FF6699006699336699666699996699CC6699FF66CC0066CC3366CC6666CC9966CCCC66CCFF66FF0066
310
FF3366FF6666FF9966FFCC66FFFF9900009900339900669900999900CC9900FF9933009933339933669933999933CC9933FF9966009966339966669966999966CC9966FF9999009999339999669999999999CC9999FF99CC0099CC3399CC6699CC9999CCCC99CCFF99FF0099FF3399FF6699FF9999FFCC99FFFFCC0000CC00
310
33CC0066CC0099CC00CCCC00FFCC3300CC3333CC3366CC3399CC33CCCC33FFCC6600CC6633CC6666CC6699CC66CCCC66FFCC9900CC9933CC9966CC9999CC99CCCC99FFCCCC00CCCC33CCCC66CCCC99CCCCCCCCCCFFCCFF00CCFF33CCFF66CCFF99CCFFCCCCFFFFFF0000FF0033FF0066FF0099FF00CCFF00FFFF3300FF3333
310
FF3366FF3399FF33CCFF33FFFF6600FF6633FF6666FF6699FF66CCFF66FFFF9900FF9933FF9966FF9999FF99CCFF99FFFFCC00FFCC33FFCC66FFCC99FFCCCCFFCCFFFFFF00FFFF33FFFF66FFFF99FFFFCCFFFFFF0000000D0D0D1A1A1A2828283535354343435050505D5D5D6B6B6B787878868686939393A1A1A1AEAEAEBB
310
BBBBC9C9C9D6D6D6E4E4E4F1F1F1FFFFFF0000000000000000000000000000000000000000000000000000000000003AE5ACE9000000EA4944415478DAEDDA3B0E02310C05C0BDFF7D5F0F0221CC4F0915C29E61CB6DF2E44D9C84E3000000000000000000782B393F991CC0E537BA020490C963AF4C88D3663F019418B211
310
551A0670FFF0B3512AE918C07A0EEC3A4FE6A1008E8F83DB79E75F03D85906FB2E950228ADF072601DBBA4D4CD900004B0DE350C0E20D773936E2BC01701A4DBA94129E98D00F2DC347508A05640D601743B382CE3C9ED59BEDE3780F53E2FDDB6820F73C0CE46B7DB2AF86D0534EC82A607501B210108400002981CC0D86B
310
3137432E475FDBC2A1014400FE1B000000000000000000000000000000000000FCCC0953333250D601D71E0000000049454E44AE426082
  0
ENDSEC
  0
EOF
