  0
SECTION
  2
HEADER
  9
$ACADVER
  1
AC1027
  9
$ACADMAINTVER
 70
   125
  9
$DWGCODEPAGE
  3
ANSI_1252
  9
$LASTSAVEDBY
  1
ufficio.tecnico
  9
$REQUIREDVERSIONS
160
                 0
  9
$INSBASE
 10
0.0
 20
0.0
 30
0.0
  9
$EXTMIN
 10
8.087857210328236
 20
-9.757423364531129
 30
0.0
  9
$EXTMAX
 10
14.72730088607512
 20
-5.211600220919335
 30
0.0
  9
$LIMMIN
 10
0.0
 20
0.0
  9
$LIMMAX
 10
12.0
 20
9.0
  9
$ORTHOMODE
 70
     0
  9
$REGENMODE
 70
     1
  9
$FILLMODE
 70
     1
  9
$QTEXTMODE
 70
     0
  9
$MIRRTEXT
 70
     1
  9
$LTSCALE
 40
1.0
  9
$ATTMODE
 70
     1
  9
$TEXTSIZE
 40
0.2
  9
$TRACEWID
 40
0.05
  9
$TEXTSTYLE
  7
Standard
  9
$CLAYER
  8
0
  9
$CELTYPE
  6
ByLayer
  9
$CECOLOR
 62
   256
  9
$CELTSCALE
 40
1.0
  9
$DISPSILH
 70
     0
  9
$DIMSCALE
 40
1.0
  9
$DIMASZ
 40
0.18
  9
$DIMEXO
 40
0.0625
  9
$DIMDLI
 40
0.38
  9
$DIMRND
 40
0.0
  9
$DIMDLE
 40
0.0
  9
$DIMEXE
 40
0.18
  9
$DIMTP
 40
0.0
  9
$DIMTM
 40
0.0
  9
$DIMTXT
 40
0.18
  9
$DIMCEN
 40
0.09
  9
$DIMTSZ
 40
0.0
  9
$DIMTOL
 70
     0
  9
$DIMLIM
 70
     0
  9
$DIMTIH
 70
     1
  9
$DIMTOH
 70
     1
  9
$DIMSE1
 70
     0
  9
$DIMSE2
 70
     0
  9
$DIMTAD
 70
     0
  9
$DIMZIN
 70
     0
  9
$DIMBLK
  1

  9
$DIMASO
 70
     1
  9
$DIMSHO
 70
     1
  9
$DIMPOST
  1

  9
$DIMAPOST
  1

  9
$DIMALT
 70
     0
  9
$DIMALTD
 70
     2
  9
$DIMALTF
 40
25.4
  9
$DIMLFAC
 40
1.0
  9
$DIMTOFL
 70
     0
  9
$DIMTVP
 40
0.0
  9
$DIMTIX
 70
     0
  9
$DIMSOXD
 70
     0
  9
$DIMSAH
 70
     0
  9
$DIMBLK1
  1

  9
$DIMBLK2
  1

  9
$DIMSTYLE
  2
Standard
  9
$DIMCLRD
 70
     0
  9
$DIMCLRE
 70
     0
  9
$DIMCLRT
 70
     0
  9
$DIMTFAC
 40
1.0
  9
$DIMGAP
 40
0.09
  9
$DIMJUST
 70
     0
  9
$DIMSD1
 70
     0
  9
$DIMSD2
 70
     0
  9
$DIMTOLJ
 70
     1
  9
$DIMTZIN
 70
     0
  9
$DIMALTZ
 70
     0
  9
$DIMALTTZ
 70
     0
  9
$DIMUPT
 70
     0
  9
$DIMDEC
 70
     4
  9
$DIMTDEC
 70
     4
  9
$DIMALTU
 70
     2
  9
$DIMALTTD
 70
     2
  9
$DIMTXSTY
  7
Standard
  9
$DIMAUNIT
 70
     0
  9
$DIMADEC
 70
     0
  9
$DIMALTRND
 40
0.0
  9
$DIMAZIN
 70
     0
  9
$DIMDSEP
 70
    46
  9
$DIMATFIT
 70
     3
  9
$DIMFRAC
 70
     0
  9
$DIMLDRBLK
  1

  9
$DIMLUNIT
 70
     2
  9
$DIMLWD
 70
    -2
  9
$DIMLWE
 70
    -2
  9
$DIMTMOVE
 70
     0
  9
$DIMFXL
 40
1.0
  9
$DIMFXLON
 70
     0
  9
$DIMJOGANG
 40
0.7853981633974483
  9
$DIMTFILL
 70
     0
  9
$DIMTFILLCLR
 70
     0
  9
$DIMARCSYM
 70
     0
  9
$DIMLTYPE
  6

  9
$DIMLTEX1
  6

  9
$DIMLTEX2
  6

  9
$DIMTXTDIRECTION
 70
     0
  9
$LUNITS
 70
     2
  9
$LUPREC
 70
     4
  9
$SKETCHINC
 40
0.1
  9
$FILLETRAD
 40
0.5
  9
$AUNITS
 70
     0
  9
$AUPREC
 70
     0
  9
$MENU
  1
.
  9
$ELEVATION
 40
0.0
  9
$PELEVATION
 40
0.0
  9
$THICKNESS
 40
0.0
  9
$LIMCHECK
 70
     0
  9
$CHAMFERA
 40
0.5
  9
$CHAMFERB
 40
0.5
  9
$CHAMFERC
 40
1.0
  9
$CHAMFERD
 40
0.0
  9
$SKPOLY
 70
     0
  9
$TDCREATE
 40
2459325.629340278
  9
$TDUCREATE
 40
2459325.546017847
  9
$TDUPDATE
 40
2459328.469317130
  9
$TDUUPDATE
 40
2459328.385983797
  9
$TDINDWG
 40
0.0008333449
  9
$TDUSRTIMER
 40
0.0008333449
  9
$USRTIMER
 70
     1
  9
$ANGBASE
 50
0.0
  9
$ANGDIR
 70
     0
  9
$PDMODE
 70
     0
  9
$PDSIZE
 40
0.0
  9
$PLINEWID
 40
0.0
  9
$SPLFRAME
 70
     0
  9
$SPLINETYPE
 70
     6
  9
$SPLINESEGS
 70
     8
  9
$HANDSEED
  5
F5
  9
$SURFTAB1
 70
     6
  9
$SURFTAB2
 70
     6
  9
$SURFTYPE
 70
     6
  9
$SURFU
 70
     6
  9
$SURFV
 70
     6
  9
$UCSBASE
  2

  9
$UCSNAME
  2

  9
$UCSORG
 10
0.0
 20
0.0
 30
0.0
  9
$UCSXDIR
 10
1.0
 20
0.0
 30
0.0
  9
$UCSYDIR
 10
0.0
 20
1.0
 30
0.0
  9
$UCSORTHOREF
  2

  9
$UCSORTHOVIEW
 70
     0
  9
$UCSORGTOP
 10
0.0
 20
0.0
 30
0.0
  9
$UCSORGBOTTOM
 10
0.0
 20
0.0
 30
0.0
  9
$UCSORGLEFT
 10
0.0
 20
0.0
 30
0.0
  9
$UCSORGRIGHT
 10
0.0
 20
0.0
 30
0.0
  9
$UCSORGFRONT
 10
0.0
 20
0.0
 30
0.0
  9
$UCSORGBACK
 10
0.0
 20
0.0
 30
0.0
  9
$PUCSBASE
  2

  9
$PUCSNAME
  2

  9
$PUCSORG
 10
0.0
 20
0.0
 30
0.0
  9
$PUCSXDIR
 10
1.0
 20
0.0
 30
0.0
  9
$PUCSYDIR
 10
0.0
 20
1.0
 30
0.0
  9
$PUCSORTHOREF
  2

  9
$PUCSORTHOVIEW
 70
     0
  9
$PUCSORGTOP
 10
0.0
 20
0.0
 30
0.0
  9
$PUCSORGBOTTOM
 10
0.0
 20
0.0
 30
0.0
  9
$PUCSORGLEFT
 10
0.0
 20
0.0
 30
0.0
  9
$PUCSORGRIGHT
 10
0.0
 20
0.0
 30
0.0
  9
$PUCSORGFRONT
 10
0.0
 20
0.0
 30
0.0
  9
$PUCSORGBACK
 10
0.0
 20
0.0
 30
0.0
  9
$USERI1
 70
     0
  9
$USERI2
 70
     0
  9
$USERI3
 70
     0
  9
$USERI4
 70
     0
  9
$USERI5
 70
     0
  9
$USERR1
 40
0.0
  9
$USERR2
 40
0.0
  9
$USERR3
 40
0.0
  9
$USERR4
 40
0.0
  9
$USERR5
 40
0.0
  9
$WORLDVIEW
 70
     1
  9
$SHADEDGE
 70
     3
  9
$SHADEDIF
 70
    70
  9
$TILEMODE
 70
     1
  9
$MAXACTVP
 70
    64
  9
$PINSBASE
 10
0.0
 20
0.0
 30
0.0
  9
$PLIMCHECK
 70
     0
  9
$PEXTMIN
 10
1.000000000000000E+20
 20
1.000000000000000E+20
 30
1.000000000000000E+20
  9
$PEXTMAX
 10
-1.000000000000000E+20
 20
-1.000000000000000E+20
 30
-1.000000000000000E+20
  9
$PLIMMIN
 10
0.0
 20
0.0
  9
$PLIMMAX
 10
12.0
 20
9.0
  9
$UNITMODE
 70
     0
  9
$VISRETAIN
 70
     1
  9
$PLINEGEN
 70
     0
  9
$PSLTSCALE
 70
     1
  9
$TREEDEPTH
 70
  3020
  9
$CMLSTYLE
  2
Standard
  9
$CMLJUST
 70
     0
  9
$CMLSCALE
 40
1.0
  9
$PROXYGRAPHICS
 70
     1
  9
$MEASUREMENT
 70
     0
  9
$CELWEIGHT
370
    -1
  9
$ENDCAPS
280
     0
  9
$JOINSTYLE
280
     0
  9
$LWDISPLAY
290
     1
  9
$INSUNITS
 70
     5
  9
$HYPERLINKBASE
  1

  9
$STYLESHEET
  1

  9
$XEDIT
290
     1
  9
$CEPSNTYPE
380
     0
  9
$PSTYLEMODE
290
     1
  9
$FINGERPRINTGUID
  2
{FB5B16CA-374C-4FAB-8E56-1A74531C8742}
  9
$VERSIONGUID
  2
{D9DD4712-F86C-8646-8ECD-A6FA65636D52}
  9
$EXTNAMES
290
     1
  9
$PSVPSCALE
 40
0.0
  9
$OLESTARTUP
290
     0
  9
$SORTENTS
280
   127
  9
$INDEXCTL
280
     0
  9
$HIDETEXT
280
     1
  9
$XCLIPFRAME
280
     2
  9
$HALOGAP
280
     0
  9
$OBSCOLOR
 70
   257
  9
$OBSLTYPE
280
     0
  9
$INTERSECTIONDISPLAY
280
     0
  9
$INTERSECTIONCOLOR
 70
   257
  9
$DIMASSOC
280
     2
  9
$PROJECTNAME
  1

  9
$CAMERADISPLAY
290
     0
  9
$LENSLENGTH
 40
50.0
  9
$CAMERAHEIGHT
 40
0.0
  9
$STEPSPERSEC
 40
2.0
  9
$STEPSIZE
 40
6.0
  9
$3DDWFPREC
 40
2.0
  9
$PSOLWIDTH
 40
0.25
  9
$PSOLHEIGHT
 40
4.0
  9
$LOFTANG1
 40
1.570796326794897
  9
$LOFTANG2
 40
1.570796326794897
  9
$LOFTMAG1
 40
0.0
  9
$LOFTMAG2
 40
0.0
  9
$LOFTPARAM
 70
     7
  9
$LOFTNORMALS
280
     1
  9
$LATITUDE
 40
37.795
  9
$LONGITUDE
 40
-122.394
  9
$NORTHDIRECTION
 40
0.0
  9
$TIMEZONE
 70
 -8000
  9
$LIGHTGLYPHDISPLAY
280
     1
  9
$TILEMODELIGHTSYNCH
280
     1
  9
$CMATERIAL
347
3C
  9
$SOLIDHIST
280
     1
  9
$SHOWHIST
280
     1
  9
$DWFFRAME
280
     2
  9
$DGNFRAME
280
     2
  9
$REALWORLDSCALE
290
     1
  9
$INTERFERECOLOR
 62
   256
  9
$INTERFEREOBJVS
345
33
  9
$INTERFEREVPVS
346
8B
  9
$CSHADOW
280
     0
  9
$SHADOWPLANELOCATION
 40
0.0
  0
ENDSEC
  0
SECTION
  2
CLASSES
  0
CLASS
  1
ACDBDICTIONARYWDFLT
  2
AcDbDictionaryWithDefault
  3
ObjectDBX Classes
 90
        0
 91
        1
280
     0
281
     0
  0
CLASS
  1
VISUALSTYLE
  2
AcDbVisualStyle
  3
ObjectDBX Classes
 90
     4095
 91
       26
280
     0
281
     0
  0
CLASS
  1
MATERIAL
  2
AcDbMaterial
  3
ObjectDBX Classes
 90
     1153
 91
        3
280
     0
281
     0
  0
CLASS
  1
SUN
  2
AcDbSun
  3
SCENEOE
 90
     1153
 91
        1
280
     0
281
     0
  0
CLASS
  1
TABLESTYLE
  2
AcDbTableStyle
  3
ObjectDBX Classes
 90
     4095
 91
        1
280
     0
281
     0
  0
CLASS
  1
SCALE
  2
AcDbScale
  3
ObjectDBX Classes
 90
     1153
 91
       21
280
     0
281
     0
  0
CLASS
  1
MLEADERSTYLE
  2
AcDbMLeaderStyle
  3
ACDB_MLEADERSTYLE_CLASS
 90
     4095
 91
        1
280
     0
281
     0
  0
CLASS
  1
ACDBSECTIONVIEWSTYLE
  2
AcDbSectionViewStyle
  3
ObjectDBX Classes
 90
     1025
 91
        1
280
     0
281
     0
  0
CLASS
  1
ACDBDETAILVIEWSTYLE
  2
AcDbDetailViewStyle
  3
ObjectDBX Classes
 90
     1025
 91
        1
280
     0
281
     0
  0
CLASS
  1
SORTENTSTABLE
  2
AcDbSortentsTable
  3
ObjectDBX Classes
 90
        0
 91
        1
280
     0
281
     0
  0
CLASS
  1
DICTIONARYVAR
  2
AcDbDictionaryVar
  3
ObjectDBX Classes
 90
        0
 91
        5
280
     0
281
     0
  0
CLASS
  1
CELLSTYLEMAP
  2
AcDbCellStyleMap
  3
ObjectDBX Classes
 90
     1152
 91
        2
280
     0
281
     0
  0
ENDSEC
  0
SECTION
  2
TABLES
  0
TABLE
  2
VPORT
  5
8
330
0
100
AcDbSymbolTable
 70
     1
1001
ACAD
1000
DbSaveVer
1071
      105
  0
VPORT
  5
29
330
8
100
AcDbSymbolTableRecord
100
AcDbViewportTableRecord
  2
*Active
 70
     0
 10
0.0
 20
0.0
 11
1.0
 21
1.0
 12
-2.683207253591191
 22
-1.442062445279258
 13
0.0
 23
0.0
 14
0.5
 24
0.5
 15
0.5
 25
0.5
 16
0.0
 26
0.0
 36
1.0
 17
10.50008280156501
 27
-5.732638887455728
 37
0.0
 40
17.61633219496
 41
1.932867132867133
 42
50.0
 43
0.0
 44
0.0
 50
0.0
 51
0.0
 71
     0
 72
   100
 73
     1
 74
     3
 75
     0
 76
     0
 77
     0
 78
     0
281
     0
 65
     1
110
0.0
120
0.0
130
0.0
111
1.0
121
0.0
131
0.0
112
0.0
122
1.0
132
0.0
 79
     0
146
0.0
348
2F
 60
     3
 61
     5
292
     1
282
     1
141
0.0
142
0.0
 63
   250
361
3F
1001
ACAD_NAV_VCDISPLAY
1070
     3
  0
ENDTAB
  0
TABLE
  2
LTYPE
  5
5
330
0
100
AcDbSymbolTable
 70
     1
  0
LTYPE
  5
14
330
5
100
AcDbSymbolTableRecord
100
AcDbLinetypeTableRecord
  2
ByBlock
 70
     0
  3

 72
    65
 73
     0
 40
0.0
  0
LTYPE
  5
15
330
5
100
AcDbSymbolTableRecord
100
AcDbLinetypeTableRecord
  2
ByLayer
 70
     0
  3

 72
    65
 73
     0
 40
0.0
  0
LTYPE
  5
16
330
5
100
AcDbSymbolTableRecord
100
AcDbLinetypeTableRecord
  2
Continuous
 70
     0
  3
Solid line
 72
    65
 73
     0
 40
0.0
  0
ENDTAB
  0
TABLE
  2
LAYER
  5
2
330
0
100
AcDbSymbolTable
 70
     2
  0
LAYER
  5
10
330
2
100
AcDbSymbolTableRecord
100
AcDbLayerTableRecord
  2
0
 70
     0
 62
     7
  6
Continuous
370
    -3
390
F
347
3E
348
0
  0
LAYER
  5
40
330
2
100
AcDbSymbolTableRecord
100
AcDbLayerTableRecord
  2
Livello 1
 70
     0
 62
     7
  6
Continuous
370
    -3
390
F
347
3E
348
0
  0
ENDTAB
  0
TABLE
  2
STYLE
  5
3
330
0
100
AcDbSymbolTable
 70
     1
  0
STYLE
  5
11
330
3
100
AcDbSymbolTableRecord
100
AcDbTextStyleTableRecord
  2
Standard
 70
     0
 40
0.0
 41
1.0
 50
0.0
 71
     0
 42
0.2
  3
txt
  4

  0
ENDTAB
  0
TABLE
  2
VIEW
  5
6
330
0
100
AcDbSymbolTable
 70
     0
  0
ENDTAB
  0
TABLE
  2
UCS
  5
7
330
0
100
AcDbSymbolTable
 70
     0
  0
ENDTAB
  0
TABLE
  2
APPID
  5
9
330
0
100
AcDbSymbolTable
 70
     2
  0
APPID
  5
12
330
9
100
AcDbSymbolTableRecord
100
AcDbRegAppTableRecord
  2
ACAD
 70
     0
  0
APPID
  5
E6
330
9
100
AcDbSymbolTableRecord
100
AcDbRegAppTableRecord
  2
ACAD_NAV_VCDISPLAY
 70
     0
  0
ENDTAB
  0
TABLE
  2
DIMSTYLE
  5
A
330
0
100
AcDbSymbolTable
 70
     1
100
AcDbDimStyleTable
 71
     0
  0
DIMSTYLE
105
27
330
A
100
AcDbSymbolTableRecord
100
AcDbDimStyleTableRecord
  2
Standard
 70
     0
340
11
  0
ENDTAB
  0
TABLE
  2
BLOCK_RECORD
  5
1
330
0
100
AcDbSymbolTable
 70
     6
  0
BLOCK_RECORD
  5
1F
102
{ACAD_XDICTIONARY
360
B5
102
}
330
1
100
AcDbSymbolTableRecord
100
AcDbBlockTableRecord
  2
*Model_Space
340
22
 70
     0
280
     1
281
     0
  0
BLOCK_RECORD
  5
1B
330
1
100
AcDbSymbolTableRecord
100
AcDbBlockTableRecord
  2
*Paper_Space
340
1E
 70
     0
280
     1
281
     0
  0
BLOCK_RECORD
  5
23
330
1
100
AcDbSymbolTableRecord
100
AcDbBlockTableRecord
  2
*Paper_Space0
340
26
 70
     0
280
     1
281
     0
  0
BLOCK_RECORD
  5
41
330
1
100
AcDbSymbolTableRecord
100
AcDbBlockTableRecord
  2
block 2
340
0
 70
     0
280
     1
281
     0
  0
BLOCK_RECORD
  5
4C
330
1
100
AcDbSymbolTableRecord
100
AcDbBlockTableRecord
  2
block 3
340
0
 70
     0
280
     1
281
     0
  0
BLOCK_RECORD
  5
63
330
1
100
AcDbSymbolTableRecord
100
AcDbBlockTableRecord
  2
block 4
340
0
 70
     0
280
     1
281
     0
  0
BLOCK_RECORD
  5
6D
330
1
100
AcDbSymbolTableRecord
100
AcDbBlockTableRecord
  2
block 5
340
0
 70
     0
280
     1
281
     0
  0
BLOCK_RECORD
  5
74
330
1
100
AcDbSymbolTableRecord
100
AcDbBlockTableRecord
  2
block 6
340
0
 70
     0
280
     1
281
     0
  0
ENDTAB
  0
ENDSEC
  0
SECTION
  2
BLOCKS
  0
BLOCK
  5
20
330
1F
100
AcDbEntity
  8
0
100
AcDbBlockBegin
  2
*Model_Space
 70
     0
 10
0.0
 20
0.0
 30
0.0
  3
*Model_Space
  1

  0
ENDBLK
  5
21
330
1F
100
AcDbEntity
  8
0
100
AcDbBlockEnd
  0
BLOCK
  5
1C
330
1B
100
AcDbEntity
 67
     1
  8
0
100
AcDbBlockBegin
  2
*Paper_Space
 70
     0
 10
0.0
 20
0.0
 30
0.0
  3
*Paper_Space
  1

  0
ENDBLK
  5
1D
330
1B
100
AcDbEntity
 67
     1
  8
0
100
AcDbBlockEnd
  0
BLOCK
  5
24
330
23
100
AcDbEntity
 67
     1
  8
0
100
AcDbBlockBegin
  2
*Paper_Space0
 70
     0
 10
0.0
 20
0.0
 30
0.0
  3
*Paper_Space0
  1

  0
ENDBLK
  5
25
330
23
100
AcDbEntity
 67
     1
  8
0
100
AcDbBlockEnd
  0
BLOCK
  5
43
330
41
100
AcDbEntity
  8
0
100
AcDbBlockBegin
  2
block 2
 70
     0
 10
0.0
 20
0.0
 30
0.0
  3
block 2
  1

  0
POLYLINE
  5
45
330
41
100
AcDbEntity
  8
Livello 1
 62
   250
420
  1842203
370
    70
100
AcDb2dPolyline
 66
     1
 10
0.0
 20
0.0
 30
0.0
  0
VERTEX
  5
46
330
45
100
AcDbEntity
  8
Livello 1
 62
   250
420
  1842203
370
    70
100
AcDbVertex
100
AcDb2dVertex
 10
8.087924442422467
 20
-8.368943692352218
 30
0.0
  0
VERTEX
  5
47
330
45
100
AcDbEntity
  8
Livello 1
 62
   250
420
  1842203
370
    70
100
AcDbVertex
100
AcDb2dVertex
 10
11.59608777487877
 20
-8.368943692352218
 30
0.0
  0
VERTEX
  5
48
330
45
100
AcDbEntity
  8
Livello 1
 62
   250
420
  1842203
370
    70
100
AcDbVertex
100
AcDb2dVertex
 10
11.59608777487877
 20
-5.211600220919335
 30
0.0
  0
VERTEX
  5
49
330
45
100
AcDbEntity
  8
Livello 1
 62
   250
420
  1842203
370
    70
100
AcDbVertex
100
AcDb2dVertex
 10
8.087857210328236
 20
-5.211600220919335
 30
0.0
  0
VERTEX
  5
4A
330
45
100
AcDbEntity
  8
Livello 1
 62
   250
420
  1842203
370
    70
100
AcDbVertex
100
AcDb2dVertex
 10
8.087857210328236
 20
-8.368943692352218
 30
0.0
  0
SEQEND
  5
4B
330
45
100
AcDbEntity
  8
Livello 1
 62
   250
420
  1842203
370
    70
  0
ENDBLK
  5
44
330
41
100
AcDbEntity
  8
0
100
AcDbBlockEnd
  0
BLOCK
  5
4E
330
4C
100
AcDbEntity
  8
0
100
AcDbBlockBegin
  2
block 3
 70
     0
 10
0.0
 20
0.0
 30
0.0
  3
block 3
  1

  0
POLYLINE
  5
50
330
4C
100
AcDbEntity
  8
Livello 1
 62
   250
420
  1842203
370
    70
100
AcDb2dPolyline
 66
     1
 10
0.0
 20
0.0
 30
0.0
  0
VERTEX
  5
51
330
50
100
AcDbEntity
  8
Livello 1
 62
   250
420
  1842203
370
    70
100
AcDbVertex
100
AcDb2dVertex
 10
12.17083333029062
 20
-5.211600220919335
 30
0.0
  0
VERTEX
  5
52
330
50
100
AcDbEntity
  8
Livello 1
 62
   250
420
  1842203
370
    70
100
AcDbVertex
100
AcDb2dVertex
 10
12.17083333029062
 20
-8.368943692352218
 30
0.0
  0
VERTEX
  5
53
330
50
100
AcDbEntity
  8
Livello 1
 62
   250
420
  1842203
370
    70
100
AcDbVertex
100
AcDb2dVertex
 10
13.57409832036257
 20
-8.368943692352218
 30
0.0
  0
VERTEX
  5
54
330
50
100
AcDbEntity
  8
Livello 1
 62
   250
420
  1842203
370
    70
100
AcDbVertex
100
AcDb2dVertex
 10
13.57409832036257
 20
-5.211600220919335
 30
0.0
  0
VERTEX
  5
55
330
50
100
AcDbEntity
  8
Livello 1
 62
   250
420
  1842203
370
    70
100
AcDbVertex
100
AcDb2dVertex
 10
12.17083333029062
 20
-5.211600220919335
 30
0.0
  0
SEQEND
  5
56
330
50
100
AcDbEntity
  8
Livello 1
 62
   250
420
  1842203
370
    70
  0
ENDBLK
  5
4F
330
4C
100
AcDbEntity
  8
0
100
AcDbBlockEnd
  0
BLOCK
  5
65
330
63
100
AcDbEntity
  8
0
100
AcDbBlockBegin
  2
block 4
 70
     0
 10
0.0
 20
0.0
 30
0.0
  3
block 4
  1

  0
SPLINE
  5
67
330
63
100
AcDbEntity
  8
Livello 1
370
     0
100
AcDbSpline
210
0.0
220
0.0
230
1.0
 70
    11
 71
     3
 72
    50
 73
    46
 74
     0
 42
0.000000001
 43
0.0000000001
 40
0.0
 40
0.0
 40
0.0
 40
0.0
 40
1.0
 40
1.0
 40
1.0
 40
2.0
 40
2.0
 40
2.0
 40
3.0
 40
3.0
 40
3.0
 40
4.0
 40
4.0
 40
4.0
 40
5.0
 40
5.0
 40
5.0
 40
6.0
 40
6.0
 40
6.0
 40
7.0
 40
7.0
 40
7.0
 40
8.0
 40
8.0
 40
8.0
 40
9.0
 40
9.0
 40
9.0
 40
10.0
 40
10.0
 40
10.0
 40
11.0
 40
11.0
 40
11.0
 40
12.0
 40
12.0
 40
12.0
 40
13.0
 40
13.0
 40
13.0
 40
14.0
 40
14.0
 40
14.0
 40
15.0
 40
15.0
 40
15.0
 40
15.0
 10
12.7551904264987
 20
-9.165555960165207
 30
0.0
 10
12.7551904264987
 20
-9.165555960165207
 30
0.0
 10
12.54517740571787
 20
-9.165555960165207
 30
0.0
 10
12.54517740571787
 20
-9.165555960165207
 30
0.0
 10
12.54517740571787
 20
-9.165555960165207
 30
0.0
 10
12.52402451943844
 20
-9.306959904357286
 30
0.0
 10
12.52402451943844
 20
-9.306959904357286
 30
0.0
 10
12.53670247082416
 20
-9.305271807569516
 30
0.0
 10
12.54855359929342
 20
-9.303566485304315
 30
0.0
 10
12.56887966265639
 20
-9.303566485304315
 30
0.0
 10
12.61121988617011
 20
-9.303566485304315
 30
0.0
 10
12.65356010968383
 20
-9.312885468591916
 30
0.0
 10
12.68742539830384
 20
-9.333211531954892
 30
0.0
 10
12.73059244473402
 20
-9.357757837287296
 30
0.0
 10
12.76618028109665
 20
-9.40517957664176
 30
0.0
 10
12.76618028109665
 20
-9.47461547614697
 30
0.0
 10
12.76618028109665
 20
-9.582154131719043
 30
0.0
 10
12.6806385601979
 20
-9.662597111299627
 30
0.0
 10
12.56126600163399
 20
-9.662597111299627
 30
0.0
 10
12.50114908541638
 20
-9.662597111299627
 30
0.0
 10
12.45033392700894
 20
-9.645664466989627
 30
0.0
 10
12.42411675036619
 20
-9.628714597202195
 30
0.0
 10
12.42411675036619
 20
-9.628714597202195
 30
0.0
 10
12.44272026598653
 20
-9.571991100037557
 30
0.0
 10
12.44272026598653
 20
-9.571991100037557
 30
0.0
 10
12.4655957000086
 20
-9.585547550772016
 30
0.0
 10
12.51045084322655
 20
-9.602480195082017
 30
0.0
 10
12.56040472776268
 20
-9.602480195082017
 30
0.0
 10
12.63068467566177
 20
-9.602480195082017
 30
0.0
 10
12.69083604283423
 20
-9.556746552515326
 30
0.0
 10
12.69083604283423
 20
-9.483090411040684
 30
0.0
 10
12.68997476896292
 20
-9.411949189270275
 30
0.0
 10
12.64253580413103
 20
-9.361151256340267
 30
0.0
 10
12.53249945433215
 20
-9.361151256340267
 30
0.0
 10
12.50114908541638
 20
-9.361151256340267
 30
0.0
 10
12.47658555460655
 20
-9.36454467539324
 30
0.0
 10
12.45629394219843
 20
-9.367076820574895
 30
0.0
 10
12.45629394219843
 20
-9.367076820574895
 30
0.0
 10
12.4918473276062
 20
-9.102889673288512
 30
0.0
 10
12.4918473276062
 20
-9.102889673288512
 30
0.0
 10
12.4918473276062
 20
-9.102889673288512
 30
0.0
 10
12.7551904264987
 20
-9.102889673288512
 30
0.0
 10
12.7551904264987
 20
-9.102889673288512
 30
0.0
 10
12.7551904264987
 20
-9.102889673288512
 30
0.0
 10
12.7551904264987
 20
-9.165555960165207
 30
0.0
 10
12.7551904264987
 20
-9.165555960165207
 30
0.0
  0
HATCH
  5
68
330
63
100
AcDbEntity
  8
Livello 1
 62
   250
420
  1842203
100
AcDbHatch
 10
0.0
 20
0.0
 30
0.0
210
0.0
220
0.0
230
1.0
  2
SOLID
 70
     1
 71
     0
 91
        1
 92
        1
 93
        1
 72
     4
 94
        3
 73
     0
 74
     0
 95
       50
 96
       46
 40
0.0
 40
0.0
 40
0.0
 40
0.0
 40
1.0
 40
1.0
 40
1.0
 40
2.0
 40
2.0
 40
2.0
 40
3.0
 40
3.0
 40
3.0
 40
4.0
 40
4.0
 40
4.0
 40
5.0
 40
5.0
 40
5.0
 40
6.0
 40
6.0
 40
6.0
 40
7.0
 40
7.0
 40
7.0
 40
8.0
 40
8.0
 40
8.0
 40
9.0
 40
9.0
 40
9.0
 40
10.0
 40
10.0
 40
10.0
 40
11.0
 40
11.0
 40
11.0
 40
12.0
 40
12.0
 40
12.0
 40
13.0
 40
13.0
 40
13.0
 40
14.0
 40
14.0
 40
14.0
 40
15.0
 40
15.0
 40
15.0
 40
15.0
 10
12.7551904264987
 20
-9.165555960165207
 10
12.7551904264987
 20
-9.165555960165207
 10
12.54517740571787
 20
-9.165555960165207
 10
12.54517740571787
 20
-9.165555960165207
 10
12.54517740571787
 20
-9.165555960165207
 10
12.52402451943844
 20
-9.306959904357286
 10
12.52402451943844
 20
-9.306959904357286
 10
12.53670247082416
 20
-9.305271807569516
 10
12.54855359929342
 20
-9.303566485304315
 10
12.56887966265639
 20
-9.303566485304315
 10
12.61121988617011
 20
-9.303566485304315
 10
12.65356010968383
 20
-9.312885468591916
 10
12.68742539830384
 20
-9.333211531954892
 10
12.73059244473402
 20
-9.357757837287296
 10
12.76618028109665
 20
-9.40517957664176
 10
12.76618028109665
 20
-9.47461547614697
 10
12.76618028109665
 20
-9.582154131719043
 10
12.6806385601979
 20
-9.662597111299627
 10
12.56126600163399
 20
-9.662597111299627
 10
12.50114908541638
 20
-9.662597111299627
 10
12.45033392700894
 20
-9.645664466989627
 10
12.42411675036619
 20
-9.628714597202195
 10
12.42411675036619
 20
-9.628714597202195
 10
12.44272026598653
 20
-9.571991100037557
 10
12.44272026598653
 20
-9.571991100037557
 10
12.4655957000086
 20
-9.585547550772016
 10
12.51045084322655
 20
-9.602480195082017
 10
12.56040472776268
 20
-9.602480195082017
 10
12.63068467566177
 20
-9.602480195082017
 10
12.69083604283423
 20
-9.556746552515326
 10
12.69083604283423
 20
-9.483090411040684
 10
12.68997476896292
 20
-9.411949189270275
 10
12.64253580413103
 20
-9.361151256340267
 10
12.53249945433215
 20
-9.361151256340267
 10
12.50114908541638
 20
-9.361151256340267
 10
12.47658555460655
 20
-9.36454467539324
 10
12.45629394219843
 20
-9.367076820574895
 10
12.45629394219843
 20
-9.367076820574895
 10
12.4918473276062
 20
-9.102889673288512
 10
12.4918473276062
 20
-9.102889673288512
 10
12.4918473276062
 20
-9.102889673288512
 10
12.7551904264987
 20
-9.102889673288512
 10
12.7551904264987
 20
-9.102889673288512
 10
12.7551904264987
 20
-9.102889673288512
 10
12.7551904264987
 20
-9.165555960165207
 10
12.7551904264987
 20
-9.165555960165207
 97
        0
 97
        0
 75
     2
 76
     1
 98
        0
450
        0
451
        0
460
0.0
461
0.0
452
        0
462
0.0
453
        0
470

  0
SPLINE
  5
69
330
63
100
AcDbEntity
  8
Livello 1
370
     0
100
AcDbSpline
210
0.0
220
0.0
230
1.0
 70
     9
 71
     3
 72
    17
 73
    13
 74
     0
 42
0.000000001
 43
0.0000000001
 40
0.0
 40
0.0
 40
0.0
 40
0.0
 40
1.0
 40
1.0
 40
1.0
 40
2.0
 40
2.0
 40
2.0
 40
3.0
 40
3.0
 40
3.0
 40
4.0
 40
4.0
 40
4.0
 40
4.0
 10
12.83642577804089
 20
-9.757423364531129
 30
0.0
 10
12.85502929366124
 20
-9.707469479995006
 30
0.0
 10
12.8779047276833
 20
-9.616863468732935
 30
0.0
 10
12.88720648549348
 20
-9.555058455727554
 30
0.0
 10
12.88720648549348
 20
-9.555058455727554
 30
0.0
 10
12.97016438477829
 20
-9.54658352083384
 30
0.0
 10
12.97016438477829
 20
-9.54658352083384
 30
0.0
 10
12.95073404624148
 20
-9.618568790998132
 30
0.0
 10
12.91345811309108
 20
-9.71255099583575
 30
0.0
 10
12.88975585615256
 20
-9.752341848690386
 30
0.0
 10
12.88975585615256
 20
-9.752341848690386
 30
0.0
 10
12.83642577804089
 20
-9.757423364531129
 30
0.0
 10
12.83642577804089
 20
-9.757423364531129
 30
0.0
  0
HATCH
  5
6A
330
63
100
AcDbEntity
  8
Livello 1
 62
   250
420
  1842203
100
AcDbHatch
 10
0.0
 20
0.0
 30
0.0
210
0.0
220
0.0
230
1.0
  2
SOLID
 70
     1
 71
     0
 91
        1
 92
        1
 93
        1
 72
     4
 94
        3
 73
     0
 74
     0
 95
       17
 96
       13
 40
0.0
 40
0.0
 40
0.0
 40
0.0
 40
1.0
 40
1.0
 40
1.0
 40
2.0
 40
2.0
 40
2.0
 40
3.0
 40
3.0
 40
3.0
 40
4.0
 40
4.0
 40
4.0
 40
4.0
 10
12.83642577804089
 20
-9.757423364531129
 10
12.85502929366124
 20
-9.707469479995006
 10
12.8779047276833
 20
-9.616863468732935
 10
12.88720648549348
 20
-9.555058455727554
 10
12.88720648549348
 20
-9.555058455727554
 10
12.97016438477829
 20
-9.54658352083384
 10
12.97016438477829
 20
-9.54658352083384
 10
12.95073404624148
 20
-9.618568790998132
 10
12.91345811309108
 20
-9.71255099583575
 10
12.88975585615256
 20
-9.752341848690386
 10
12.88975585615256
 20
-9.752341848690386
 10
12.83642577804089
 20
-9.757423364531129
 10
12.83642577804089
 20
-9.757423364531129
 97
        0
 97
        0
 75
     2
 76
     1
 98
        0
450
        0
451
        0
460
0.0
461
0.0
452
        0
462
0.0
453
        0
470

  0
SPLINE
  5
6B
330
63
100
AcDbEntity
  8
Livello 1
370
     0
100
AcDbSpline
210
0.0
220
0.0
230
1.0
 70
    11
 71
     3
 72
    50
 73
    46
 74
     0
 42
0.000000001
 43
0.0000000001
 40
0.0
 40
0.0
 40
0.0
 40
0.0
 40
1.0
 40
1.0
 40
1.0
 40
2.0
 40
2.0
 40
2.0
 40
3.0
 40
3.0
 40
3.0
 40
4.0
 40
4.0
 40
4.0
 40
5.0
 40
5.0
 40
5.0
 40
6.0
 40
6.0
 40
6.0
 40
7.0
 40
7.0
 40
7.0
 40
8.0
 40
8.0
 40
8.0
 40
9.0
 40
9.0
 40
9.0
 40
10.0
 40
10.0
 40
10.0
 40
11.0
 40
11.0
 40
11.0
 40
12.0
 40
12.0
 40
12.0
 40
13.0
 40
13.0
 40
13.0
 40
14.0
 40
14.0
 40
14.0
 40
15.0
 40
15.0
 40
15.0
 40
15.0
 10
13.36476562165881
 20
-9.165555960165207
 30
0.0
 10
13.36476562165881
 20
-9.165555960165207
 30
0.0
 10
13.15475260087798
 20
-9.165555960165207
 30
0.0
 10
13.15475260087798
 20
-9.165555960165207
 30
0.0
 10
13.15475260087798
 20
-9.165555960165207
 30
0.0
 10
13.13359971459854
 20
-9.306959904357286
 30
0.0
 10
13.13359971459854
 20
-9.306959904357286
 30
0.0
 10
13.14627766598426
 20
-9.305271807569516
 30
0.0
 10
13.15812879445352
 20
-9.303566485304315
 30
0.0
 10
13.1784548578165
 20
-9.303566485304315
 30
0.0
 10
13.22079508133022
 20
-9.303566485304315
 30
0.0
 10
13.26313530484394
 20
-9.312885468591916
 30
0.0
 10
13.29700059346394
 20
-9.333211531954892
 30
0.0
 10
13.34016763989412
 20
-9.357757837287296
 30
0.0
 10
13.37575547625675
 20
-9.40517957664176
 30
0.0
 10
13.37575547625675
 20
-9.47461547614697
 30
0.0
 10
13.37575547625675
 20
-9.582154131719043
 30
0.0
 10
13.290213755358
 20
-9.662597111299627
 30
0.0
 10
13.1708411967941
 20
-9.662597111299627
 30
0.0
 10
13.11072428057648
 20
-9.662597111299627
 30
0.0
 10
13.05990912216905
 20
-9.645664466989627
 30
0.0
 10
13.0336919455263
 20
-9.628714597202195
 30
0.0
 10
13.0336919455263
 20
-9.628714597202195
 30
0.0
 10
13.05229546114665
 20
-9.571991100037557
 30
0.0
 10
13.05229546114665
 20
-9.571991100037557
 30
0.0
 10
13.07517089516871
 20
-9.585547550772016
 30
0.0
 10
13.12002603838666
 20
-9.602480195082017
 30
0.0
 10
13.16997992292278
 20
-9.602480195082017
 30
0.0
 10
13.24025987082188
 20
-9.602480195082017
 30
0.0
 10
13.30041123799434
 20
-9.556746552515326
 30
0.0
 10
13.30041123799434
 20
-9.483090411040684
 30
0.0
 10
13.29954996412303
 20
-9.411949189270275
 30
0.0
 10
13.25211099929114
 20
-9.361151256340267
 30
0.0
 10
13.14207464949226
 20
-9.361151256340267
 30
0.0
 10
13.11072428057648
 20
-9.361151256340267
 30
0.0
 10
13.08616074976665
 20
-9.36454467539324
 30
0.0
 10
13.06586913735853
 20
-9.367076820574895
 30
0.0
 10
13.06586913735853
 20
-9.367076820574895
 30
0.0
 10
13.10142252276631
 20
-9.102889673288512
 30
0.0
 10
13.10142252276631
 20
-9.102889673288512
 30
0.0
 10
13.10142252276631
 20
-9.102889673288512
 30
0.0
 10
13.36476562165881
 20
-9.102889673288512
 30
0.0
 10
13.36476562165881
 20
-9.102889673288512
 30
0.0
 10
13.36476562165881
 20
-9.102889673288512
 30
0.0
 10
13.36476562165881
 20
-9.165555960165207
 30
0.0
 10
13.36476562165881
 20
-9.165555960165207
 30
0.0
  0
HATCH
  5
6C
330
63
100
AcDbEntity
  8
Livello 1
 62
   250
420
  1842203
100
AcDbHatch
 10
0.0
 20
0.0
 30
0.0
210
0.0
220
0.0
230
1.0
  2
SOLID
 70
     1
 71
     0
 91
        1
 92
        1
 93
        1
 72
     4
 94
        3
 73
     0
 74
     0
 95
       50
 96
       46
 40
0.0
 40
0.0
 40
0.0
 40
0.0
 40
1.0
 40
1.0
 40
1.0
 40
2.0
 40
2.0
 40
2.0
 40
3.0
 40
3.0
 40
3.0
 40
4.0
 40
4.0
 40
4.0
 40
5.0
 40
5.0
 40
5.0
 40
6.0
 40
6.0
 40
6.0
 40
7.0
 40
7.0
 40
7.0
 40
8.0
 40
8.0
 40
8.0
 40
9.0
 40
9.0
 40
9.0
 40
10.0
 40
10.0
 40
10.0
 40
11.0
 40
11.0
 40
11.0
 40
12.0
 40
12.0
 40
12.0
 40
13.0
 40
13.0
 40
13.0
 40
14.0
 40
14.0
 40
14.0
 40
15.0
 40
15.0
 40
15.0
 40
15.0
 10
13.36476562165881
 20
-9.165555960165207
 10
13.36476562165881
 20
-9.165555960165207
 10
13.15475260087798
 20
-9.165555960165207
 10
13.15475260087798
 20
-9.165555960165207
 10
13.15475260087798
 20
-9.165555960165207
 10
13.13359971459854
 20
-9.306959904357286
 10
13.13359971459854
 20
-9.306959904357286
 10
13.14627766598426
 20
-9.305271807569516
 10
13.15812879445352
 20
-9.303566485304315
 10
13.1784548578165
 20
-9.303566485304315
 10
13.22079508133022
 20
-9.303566485304315
 10
13.26313530484394
 20
-9.312885468591916
 10
13.29700059346394
 20
-9.333211531954892
 10
13.34016763989412
 20
-9.357757837287296
 10
13.37575547625675
 20
-9.40517957664176
 10
13.37575547625675
 20
-9.47461547614697
 10
13.37575547625675
 20
-9.582154131719043
 10
13.290213755358
 20
-9.662597111299627
 10
13.1708411967941
 20
-9.662597111299627
 10
13.11072428057648
 20
-9.662597111299627
 10
13.05990912216905
 20
-9.645664466989627
 10
13.0336919455263
 20
-9.628714597202195
 10
13.0336919455263
 20
-9.628714597202195
 10
13.05229546114665
 20
-9.571991100037557
 10
13.05229546114665
 20
-9.571991100037557
 10
13.07517089516871
 20
-9.585547550772016
 10
13.12002603838666
 20
-9.602480195082017
 10
13.16997992292278
 20
-9.602480195082017
 10
13.24025987082188
 20
-9.602480195082017
 10
13.30041123799434
 20
-9.556746552515326
 10
13.30041123799434
 20
-9.483090411040684
 10
13.29954996412303
 20
-9.411949189270275
 10
13.25211099929114
 20
-9.361151256340267
 10
13.14207464949226
 20
-9.361151256340267
 10
13.11072428057648
 20
-9.361151256340267
 10
13.08616074976665
 20
-9.36454467539324
 10
13.06586913735853
 20
-9.367076820574895
 10
13.06586913735853
 20
-9.367076820574895
 10
13.10142252276631
 20
-9.102889673288512
 10
13.10142252276631
 20
-9.102889673288512
 10
13.10142252276631
 20
-9.102889673288512
 10
13.36476562165881
 20
-9.102889673288512
 10
13.36476562165881
 20
-9.102889673288512
 10
13.36476562165881
 20
-9.102889673288512
 10
13.36476562165881
 20
-9.165555960165207
 10
13.36476562165881
 20
-9.165555960165207
 97
        0
 97
        0
 75
     2
 76
     1
 98
        0
450
        0
451
        0
460
0.0
461
0.0
452
        0
462
0.0
453
        0
470

  0
ENDBLK
  5
66
330
63
100
AcDbEntity
  8
0
100
AcDbBlockEnd
  0
BLOCK
  5
6F
330
6D
100
AcDbEntity
  8
0
100
AcDbBlockBegin
  2
block 5
 70
     0
 10
0.0
 20
0.0
 30
0.0
  3
block 5
  1

  0
SPLINE
  5
71
330
6D
100
AcDbEntity
  8
Livello 1
370
     0
100
AcDbSpline
210
0.0
220
0.0
230
1.0
 70
     9
 71
     3
 72
    41
 73
    37
 74
     0
 42
0.000000001
 43
0.0000000001
 40
0.0
 40
0.0
 40
0.0
 40
0.0
 40
1.0
 40
1.0
 40
1.0
 40
2.0
 40
2.0
 40
2.0
 40
3.0
 40
3.0
 40
3.0
 40
4.0
 40
4.0
 40
4.0
 40
5.0
 40
5.0
 40
5.0
 40
6.0
 40
6.0
 40
6.0
 40
7.0
 40
7.0
 40
7.0
 40
8.0
 40
8.0
 40
8.0
 40
9.0
 40
9.0
 40
9.0
 40
10.0
 40
10.0
 40
10.0
 40
11.0
 40
11.0
 40
11.0
 40
12.0
 40
12.0
 40
12.0
 40
12.0
 10
14.66546142211488
 20
-7.010114744341219
 30
0.0
 10
14.66718396985751
 20
-6.994026148425103
 30
0.0
 10
14.66546142211488
 20
-6.975405407327328
 30
0.0
 10
14.66294650241065
 20
-6.949997828123611
 30
0.0
 10
14.65702093817602
 20
-6.906813556216003
 30
0.0
 10
14.63920979451728
 20
-6.866161429490056
 30
0.0
 10
14.60958197334413
 20
-6.834845511529134
 30
0.0
 10
14.57657795859544
 20
-6.798430852250044
 30
0.0
 10
14.52831217084709
 20
-6.772179224652441
 30
0.0
 10
14.46309651331131
 20
-6.762016192970953
 30
0.0
 10
14.46309651331131
 20
-6.762016192970953
 30
0.0
 10
14.46309651331131
 20
-6.764565563630038
 30
0.0
 10
14.46309651331131
 20
-6.764565563630038
 30
0.0
 10
14.50037244646171
 20
-6.795037433197073
 30
0.0
 10
14.52238660661246
 20
-6.839065753498566
 30
0.0
 10
14.52238660661246
 20
-6.894118379352858
 30
0.0
 10
14.52238660661246
 20
-6.993182100031217
 30
0.0
 10
14.4478691912665
 20
-7.056692435301799
 30
0.0
 10
14.35388698642889
 20
-7.056692435301799
 30
0.0
 10
14.24974174990979
 20
-7.056692435301799
 30
0.0
 10
14.1582744647764
 20
-6.981330971561958
 30
0.0
 10
14.1582744647764
 20
-6.868710800149141
 30
0.0
 10
14.1582744647764
 20
-6.756090628736324
 30
0.0
 10
14.24974174990979
 20
-6.686654729231113
 30
0.0
 10
14.39030164570798
 20
-6.686654729231113
 30
0.0
 10
14.51136230105966
 20
-6.686654729231113
 30
0.0
 10
14.5960427480871
 20
-6.727306855957062
 30
0.0
 10
14.64854600328231
 20
-6.781498207940041
 30
0.0
 10
14.69002495292471
 20
-6.823838431453763
 30
0.0
 10
14.71544975760586
 20
-6.882250025406172
 30
0.0
 10
14.72220214475695
 20
-6.941522893229897
 30
0.0
 10
14.72643961220381
 20
-6.968618569221388
 30
0.0
 10
14.72730088607512
 20
-6.992338051637332
 30
0.0
 10
14.72643961220381
 20
-7.010114744341219
 30
0.0
 10
14.72643961220381
 20
-7.010114744341219
 30
0.0
 10
14.66546142211488
 20
-7.010114744341219
 30
0.0
 10
14.66546142211488
 20
-7.010114744341219
 30
0.0
  0
SPLINE
  5
72
330
6D
100
AcDbEntity
  8
Livello 1
370
     0
100
AcDbSpline
210
0.0
220
0.0
230
1.0
 70
     9
 71
     3
 72
    20
 73
    16
 74
     0
 42
0.000000001
 43
0.0000000001
 40
0.0
 40
0.0
 40
0.0
 40
0.0
 40
1.0
 40
1.0
 40
1.0
 40
2.0
 40
2.0
 40
2.0
 40
3.0
 40
3.0
 40
3.0
 40
4.0
 40
4.0
 40
4.0
 40
5.0
 40
5.0
 40
5.0
 40
5.0
 10
14.34878824511072
 20
-6.98301906834973
 30
0.0
 10
14.41738009622204
 20
-6.98301906834973
 30
0.0
 10
14.46564588397039
 20
-6.941522893229897
 30
0.0
 10
14.46564588397039
 20
-6.87716850956543
 30
0.0
 10
14.46564588397039
 20
-6.827214625029307
 30
0.0
 10
14.44108235316056
 20
-6.788267820568558
 30
0.0
 10
14.40807833841187
 20
-6.76878580559947
 30
0.0
 10
14.40129150030593
 20
-6.764565563630038
 30
0.0
 10
14.39281656541221
 20
-6.762016192970953
 30
0.0
 10
14.38096543694295
 20
-6.762016192970953
 30
0.0
 10
14.28698323210534
 20
-6.762016192970953
 30
0.0
 10
14.21501518741847
 20
-6.796742755462272
 30
0.0
 10
14.21501518741847
 20
-6.874636364383771
 30
0.0
 10
14.21501518741847
 20
-6.938146699654352
 30
0.0
 10
14.27089463618922
 20
-6.98301906834973
 30
0.0
 10
14.34878824511072
 20
-6.98301906834973
 30
0.0
  0
HATCH
  5
73
330
6D
100
AcDbEntity
  8
Livello 1
 62
   250
420
  1842203
100
AcDbHatch
 10
0.0
 20
0.0
 30
0.0
210
0.0
220
0.0
230
1.0
  2
SOLID
 70
     1
 71
     0
 91
        2
 92
        1
 93
        1
 72
     4
 94
        3
 73
     0
 74
     0
 95
       41
 96
       37
 40
0.0
 40
0.0
 40
0.0
 40
0.0
 40
1.0
 40
1.0
 40
1.0
 40
2.0
 40
2.0
 40
2.0
 40
3.0
 40
3.0
 40
3.0
 40
4.0
 40
4.0
 40
4.0
 40
5.0
 40
5.0
 40
5.0
 40
6.0
 40
6.0
 40
6.0
 40
7.0
 40
7.0
 40
7.0
 40
8.0
 40
8.0
 40
8.0
 40
9.0
 40
9.0
 40
9.0
 40
10.0
 40
10.0
 40
10.0
 40
11.0
 40
11.0
 40
11.0
 40
12.0
 40
12.0
 40
12.0
 40
12.0
 10
14.66546142211488
 20
-7.010114744341219
 10
14.66718396985751
 20
-6.994026148425103
 10
14.66546142211488
 20
-6.975405407327328
 10
14.66294650241065
 20
-6.949997828123611
 10
14.65702093817602
 20
-6.906813556216003
 10
14.63920979451728
 20
-6.866161429490056
 10
14.60958197334413
 20
-6.834845511529134
 10
14.57657795859544
 20
-6.798430852250044
 10
14.52831217084709
 20
-6.772179224652441
 10
14.46309651331131
 20
-6.762016192970953
 10
14.46309651331131
 20
-6.762016192970953
 10
14.46309651331131
 20
-6.764565563630038
 10
14.46309651331131
 20
-6.764565563630038
 10
14.50037244646171
 20
-6.795037433197073
 10
14.52238660661246
 20
-6.839065753498566
 10
14.52238660661246
 20
-6.894118379352858
 10
14.52238660661246
 20
-6.993182100031217
 10
14.4478691912665
 20
-7.056692435301799
 10
14.35388698642889
 20
-7.056692435301799
 10
14.24974174990979
 20
-7.056692435301799
 10
14.1582744647764
 20
-6.981330971561958
 10
14.1582744647764
 20
-6.868710800149141
 10
14.1582744647764
 20
-6.756090628736324
 10
14.24974174990979
 20
-6.686654729231113
 10
14.39030164570798
 20
-6.686654729231113
 10
14.51136230105966
 20
-6.686654729231113
 10
14.5960427480871
 20
-6.727306855957062
 10
14.64854600328231
 20
-6.781498207940041
 10
14.69002495292471
 20
-6.823838431453763
 10
14.71544975760586
 20
-6.882250025406172
 10
14.72220214475695
 20
-6.941522893229897
 10
14.72643961220381
 20
-6.968618569221388
 10
14.72730088607512
 20
-6.992338051637332
 10
14.72643961220381
 20
-7.010114744341219
 10
14.72643961220381
 20
-7.010114744341219
 10
14.66546142211488
 20
-7.010114744341219
 10
14.66546142211488
 20
-7.010114744341219
 97
        0
 97
        0
 92
        1
 93
        1
 72
     4
 94
        3
 73
     0
 74
     0
 95
       20
 96
       16
 40
0.0
 40
0.0
 40
0.0
 40
0.0
 40
1.0
 40
1.0
 40
1.0
 40
2.0
 40
2.0
 40
2.0
 40
3.0
 40
3.0
 40
3.0
 40
4.0
 40
4.0
 40
4.0
 40
5.0
 40
5.0
 40
5.0
 40
5.0
 10
14.34878824511072
 20
-6.98301906834973
 10
14.41738009622204
 20
-6.98301906834973
 10
14.46564588397039
 20
-6.941522893229897
 10
14.46564588397039
 20
-6.87716850956543
 10
14.46564588397039
 20
-6.827214625029307
 10
14.44108235316056
 20
-6.788267820568558
 10
14.40807833841187
 20
-6.76878580559947
 10
14.40129150030593
 20
-6.764565563630038
 10
14.39281656541221
 20
-6.762016192970953
 10
14.38096543694295
 20
-6.762016192970953
 10
14.28698323210534
 20
-6.762016192970953
 10
14.21501518741847
 20
-6.796742755462272
 10
14.21501518741847
 20
-6.874636364383771
 10
14.21501518741847
 20
-6.938146699654352
 10
14.27089463618922
 20
-6.98301906834973
 10
14.34878824511072
 20
-6.98301906834973
 97
        0
 97
        0
 75
     2
 76
     1
 98
        0
450
        0
451
        0
460
0.0
461
0.0
452
        0
462
0.0
453
        0
470

  0
ENDBLK
  5
70
330
6D
100
AcDbEntity
  8
0
100
AcDbBlockEnd
  0
BLOCK
  5
76
330
74
100
AcDbEntity
  8
0
100
AcDbBlockBegin
  2
block 6
 70
     0
 10
0.0
 20
0.0
 30
0.0
  3
block 6
  1

  0
POLYLINE
  5
78
330
74
100
AcDbEntity
  8
Livello 1
370
     0
100
AcDb2dPolyline
 66
     1
 10
0.0
 20
0.0
 30
0.0
  0
VERTEX
  5
79
330
78
100
AcDbEntity
  8
Livello 1
370
     0
100
AcDbVertex
100
AcDb2dVertex
 10
9.499075654092244
 20
-9.172325572793724
 30
0.0
  0
VERTEX
  5
7A
330
78
100
AcDbEntity
  8
Livello 1
370
     0
100
AcDbVertex
100
AcDb2dVertex
 10
9.497387557304472
 20
-9.172325572793724
 30
0.0
  0
VERTEX
  5
7B
330
78
100
AcDbEntity
  8
Livello 1
370
     0
100
AcDbVertex
100
AcDb2dVertex
 10
9.401700030201658
 20
-9.223984779595042
 30
0.0
  0
VERTEX
  5
7C
330
78
100
AcDbEntity
  8
Livello 1
370
     0
100
AcDbVertex
100
AcDb2dVertex
 10
9.387299531073313
 20
-9.167244056952981
 30
0.0
  0
VERTEX
  5
7D
330
78
100
AcDbEntity
  8
Livello 1
370
     0
100
AcDbVertex
100
AcDb2dVertex
 10
9.507533363508533
 20
-9.102889673288512
 30
0.0
  0
VERTEX
  5
7E
330
78
100
AcDbEntity
  8
Livello 1
370
     0
100
AcDbVertex
100
AcDb2dVertex
 10
9.571043698779114
 20
-9.102889673288512
 30
0.0
  0
VERTEX
  5
7F
330
78
100
AcDbEntity
  8
Livello 1
370
     0
100
AcDbVertex
100
AcDb2dVertex
 10
9.571043698779114
 20
-9.653278128012026
 30
0.0
  0
VERTEX
  5
80
330
78
100
AcDbEntity
  8
Livello 1
370
     0
100
AcDbVertex
100
AcDb2dVertex
 10
9.499075654092244
 20
-9.653278128012026
 30
0.0
  0
VERTEX
  5
81
330
78
100
AcDbEntity
  8
Livello 1
370
     0
100
AcDbVertex
100
AcDb2dVertex
 10
9.499075654092244
 20
-9.172325572793724
 30
0.0
  0
SEQEND
  5
82
330
78
100
AcDbEntity
  8
Livello 1
370
     0
  0
HATCH
  5
83
330
74
100
AcDbEntity
  8
Livello 1
 62
   250
420
  1842203
100
AcDbHatch
 10
0.0
 20
0.0
 30
0.0
210
0.0
220
0.0
230
1.0
  2
SOLID
 70
     1
 71
     0
 91
        1
 92
        1
 93
        8
 72
     1
 10
9.499075654092244
 20
-9.172325572793724
 11
9.497387557304472
 21
-9.172325572793724
 72
     1
 10
9.497387557304472
 20
-9.172325572793724
 11
9.401700030201658
 21
-9.223984779595042
 72
     1
 10
9.401700030201658
 20
-9.223984779595042
 11
9.387299531073313
 21
-9.167244056952981
 72
     1
 10
9.387299531073313
 20
-9.167244056952981
 11
9.507533363508533
 21
-9.102889673288512
 72
     1
 10
9.507533363508533
 20
-9.102889673288512
 11
9.571043698779114
 21
-9.102889673288512
 72
     1
 10
9.571043698779114
 20
-9.102889673288512
 11
9.571043698779114
 21
-9.653278128012026
 72
     1
 10
9.571043698779114
 20
-9.653278128012026
 11
9.499075654092244
 21
-9.653278128012026
 72
     1
 10
9.499075654092244
 20
-9.653278128012026
 11
9.499075654092244
 21
-9.172325572793724
 97
        0
 75
     2
 76
     1
 98
        0
450
        0
451
        0
460
0.0
461
0.0
452
        0
462
0.0
453
        0
470

  0
SPLINE
  5
84
330
74
100
AcDbEntity
  8
Livello 1
370
     0
100
AcDbSpline
210
0.0
220
0.0
230
1.0
 70
     9
 71
     3
 72
    17
 73
    13
 74
     0
 42
0.000000001
 43
0.0000000001
 40
0.0
 40
0.0
 40
0.0
 40
0.0
 40
1.0
 40
1.0
 40
1.0
 40
2.0
 40
2.0
 40
2.0
 40
3.0
 40
3.0
 40
3.0
 40
4.0
 40
4.0
 40
4.0
 40
4.0
 10
10.13746907298647
 20
-9.37215833641564
 30
0.0
 10
10.13746907298647
 20
-9.559295923174412
 30
0.0
 10
10.06803317348125
 20
-9.662597111299627
 30
0.0
 10
9.946094018780835
 20
-9.662597111299627
 30
0.0
 10
9.838555363208763
 20
-9.662597111299627
 30
0.0
 10
9.765743270128007
 20
-9.561828068356071
 30
0.0
 10
9.764055173340235
 20
-9.379789222915466
 30
0.0
 10
9.764055173340235
 20
-9.195183781338355
 30
0.0
 10
9.843636879049507
 20
-9.093587915478337
 30
0.0
 10
9.955413002068437
 20
-9.093587915478337
 30
0.0
 10
10.0714093670568
 20
-9.093587915478337
 30
0.0
 10
10.13746907298647
 20
-9.196889103603556
 30
0.0
 10
10.13746907298647
 20
-9.37215833641564
 30
0.0
  0
SPLINE
  5
85
330
74
100
AcDbEntity
  8
Livello 1
370
     0
100
AcDbSpline
210
0.0
220
0.0
230
1.0
 70
     9
 71
     3
 72
    17
 73
    13
 74
     0
 42
0.000000001
 43
0.0000000001
 40
0.0
 40
0.0
 40
0.0
 40
0.0
 40
1.0
 40
1.0
 40
1.0
 40
2.0
 40
2.0
 40
2.0
 40
3.0
 40
3.0
 40
3.0
 40
4.0
 40
4.0
 40
4.0
 40
4.0
 10
9.838555363208763
 20
-9.380633271309354
 30
0.0
 10
9.838555363208763
 20
-9.523725312289206
 30
0.0
 10
9.882583683510254
 20
-9.605012340263675
 30
0.0
 10
9.950331486227694
 20
-9.605012340263675
 30
0.0
 10
10.02653699836142
 20
-9.605012340263675
 30
0.0
 10
10.06295165764051
 20
-9.516111651266804
 30
0.0
 10
10.06295165764051
 20
-9.375551755468613
 30
0.0
 10
10.06295165764051
 20
-9.240073375511162
 30
0.0
 10
10.02822509514919
 20
-9.151155461036863
 30
0.0
 10
9.951175534621579
 20
-9.151155461036863
 30
0.0
 10
9.885977102563225
 20
-9.151155461036863
 30
0.0
 10
9.838555363208763
 20
-9.230754392223561
 30
0.0
 10
9.838555363208763
 20
-9.380633271309354
 30
0.0
  0
HATCH
  5
86
330
74
100
AcDbEntity
  8
Livello 1
 62
   250
420
  1842203
100
AcDbHatch
 10
0.0
 20
0.0
 30
0.0
210
0.0
220
0.0
230
1.0
  2
SOLID
 70
     1
 71
     0
 91
        2
 92
        1
 93
        1
 72
     4
 94
        3
 73
     0
 74
     0
 95
       17
 96
       13
 40
0.0
 40
0.0
 40
0.0
 40
0.0
 40
1.0
 40
1.0
 40
1.0
 40
2.0
 40
2.0
 40
2.0
 40
3.0
 40
3.0
 40
3.0
 40
4.0
 40
4.0
 40
4.0
 40
4.0
 10
10.13746907298647
 20
-9.37215833641564
 10
10.13746907298647
 20
-9.559295923174412
 10
10.06803317348125
 20
-9.662597111299627
 10
9.946094018780835
 20
-9.662597111299627
 10
9.838555363208763
 20
-9.662597111299627
 10
9.765743270128007
 20
-9.561828068356071
 10
9.764055173340235
 20
-9.379789222915466
 10
9.764055173340235
 20
-9.195183781338355
 10
9.843636879049507
 20
-9.093587915478337
 10
9.955413002068437
 20
-9.093587915478337
 10
10.0714093670568
 20
-9.093587915478337
 10
10.13746907298647
 20
-9.196889103603556
 10
10.13746907298647
 20
-9.37215833641564
 97
        0
 97
        0
 92
        1
 93
        1
 72
     4
 94
        3
 73
     0
 74
     0
 95
       17
 96
       13
 40
0.0
 40
0.0
 40
0.0
 40
0.0
 40
1.0
 40
1.0
 40
1.0
 40
2.0
 40
2.0
 40
2.0
 40
3.0
 40
3.0
 40
3.0
 40
4.0
 40
4.0
 40
4.0
 40
4.0
 10
9.838555363208763
 20
-9.380633271309354
 10
9.838555363208763
 20
-9.523725312289206
 10
9.882583683510254
 20
-9.605012340263675
 10
9.950331486227694
 20
-9.605012340263675
 10
10.02653699836142
 20
-9.605012340263675
 10
10.06295165764051
 20
-9.516111651266804
 10
10.06295165764051
 20
-9.375551755468613
 10
10.06295165764051
 20
-9.240073375511162
 10
10.02822509514919
 20
-9.151155461036863
 10
9.951175534621579
 20
-9.151155461036863
 10
9.885977102563225
 20
-9.151155461036863
 10
9.838555363208763
 20
-9.230754392223561
 10
9.838555363208763
 20
-9.380633271309354
 97
        0
 97
        0
 75
     2
 76
     1
 98
        0
450
        0
451
        0
460
0.0
461
0.0
452
        0
462
0.0
453
        0
470

  0
ENDBLK
  5
77
330
74
100
AcDbEntity
  8
0
100
AcDbBlockEnd
  0
ENDSEC
  0
SECTION
  2
ENTITIES
  0
POLYLINE
  5
B7
330
1F
100
AcDbEntity
  8
Livello 1
370
    70
100
AcDb2dPolyline
 66
     1
 10
0.0
 20
0.0
 30
0.0
  0
VERTEX
  5
B8
330
B7
100
AcDbEntity
  8
Livello 1
370
    70
100
AcDbVertex
100
AcDb2dVertex
 10
8.087924442422467
 20
-8.368943692352218
 30
0.0
  0
VERTEX
  5
B9
330
B7
100
AcDbEntity
  8
Livello 1
370
    70
100
AcDbVertex
100
AcDb2dVertex
 10
11.59608777487877
 20
-8.368943692352218
 30
0.0
  0
VERTEX
  5
BA
330
B7
100
AcDbEntity
  8
Livello 1
370
    70
100
AcDbVertex
100
AcDb2dVertex
 10
11.59608777487877
 20
-5.211600220919335
 30
0.0
  0
VERTEX
  5
BB
330
B7
100
AcDbEntity
  8
Livello 1
370
    70
100
AcDbVertex
100
AcDb2dVertex
 10
8.087857210328236
 20
-5.211600220919335
 30
0.0
  0
VERTEX
  5
BC
330
B7
100
AcDbEntity
  8
Livello 1
370
    70
100
AcDbVertex
100
AcDb2dVertex
 10
8.087857210328236
 20
-8.368943692352218
 30
0.0
  0
SEQEND
  5
BD
330
B7
100
AcDbEntity
  8
Livello 1
370
    70
  0
POLYLINE
  5
BE
330
1F
100
AcDbEntity
  8
Livello 1
370
    70
100
AcDb2dPolyline
 66
     1
 10
0.0
 20
0.0
 30
0.0
  0
VERTEX
  5
BF
330
BE
100
AcDbEntity
  8
Livello 1
370
    70
100
AcDbVertex
100
AcDb2dVertex
 10
12.17083333029062
 20
-5.211600220919335
 30
0.0
  0
VERTEX
  5
C0
330
BE
100
AcDbEntity
  8
Livello 1
370
    70
100
AcDbVertex
100
AcDb2dVertex
 10
12.17083333029062
 20
-8.368943692352218
 30
0.0
  0
VERTEX
  5
C1
330
BE
100
AcDbEntity
  8
Livello 1
370
    70
100
AcDbVertex
100
AcDb2dVertex
 10
13.57409832036257
 20
-8.368943692352218
 30
0.0
  0
VERTEX
  5
C2
330
BE
100
AcDbEntity
  8
Livello 1
370
    70
100
AcDbVertex
100
AcDb2dVertex
 10
13.57409832036257
 20
-5.211600220919335
 30
0.0
  0
VERTEX
  5
C3
330
BE
100
AcDbEntity
  8
Livello 1
370
    70
100
AcDbVertex
100
AcDb2dVertex
 10
12.17083333029062
 20
-5.211600220919335
 30
0.0
  0
SEQEND
  5
C4
330
BE
100
AcDbEntity
  8
Livello 1
370
    70
  0
LINE
  5
C5
330
1F
100
AcDbEntity
  8
Livello 1
370
    35
100
AcDbLine
 10
8.087857210328236
 20
-8.908292178842843
 30
0.0
 11
11.59608777487877
 21
-8.908292178842843
 31
0.0
  0
LINE
  5
C6
330
1F
100
AcDbEntity
  8
Livello 1
370
    35
100
AcDbLine
 10
12.17083333029062
 20
-8.908292178842843
 30
0.0
 11
13.57409832036257
 21
-8.908292178842843
 31
0.0
  0
LINE
  5
C7
330
1F
100
AcDbEntity
  8
Livello 1
370
    35
100
AcDbLine
 10
14.01834361789459
 20
-5.211600220919335
 30
0.0
 11
14.01834361789459
 21
-8.368943692352218
 31
0.0
  0
SPLINE
  5
C8
330
1F
100
AcDbEntity
  8
Livello 1
370
     0
100
AcDbSpline
210
0.0
220
0.0
230
1.0
 70
    11
 71
     3
 72
    50
 73
    46
 74
     0
 42
0.000000001
 43
0.0000000001
 40
0.0
 40
0.0
 40
0.0
 40
0.0
 40
1.0
 40
1.0
 40
1.0
 40
2.0
 40
2.0
 40
2.0
 40
3.0
 40
3.0
 40
3.0
 40
4.0
 40
4.0
 40
4.0
 40
5.0
 40
5.0
 40
5.0
 40
6.0
 40
6.0
 40
6.0
 40
7.0
 40
7.0
 40
7.0
 40
8.0
 40
8.0
 40
8.0
 40
9.0
 40
9.0
 40
9.0
 40
10.0
 40
10.0
 40
10.0
 40
11.0
 40
11.0
 40
11.0
 40
12.0
 40
12.0
 40
12.0
 40
13.0
 40
13.0
 40
13.0
 40
14.0
 40
14.0
 40
14.0
 40
15.0
 40
15.0
 40
15.0
 40
15.0
 10
12.7551904264987
 20
-9.165555960165207
 30
0.0
 10
12.7551904264987
 20
-9.165555960165207
 30
0.0
 10
12.54517740571787
 20
-9.165555960165207
 30
0.0
 10
12.54517740571787
 20
-9.165555960165207
 30
0.0
 10
12.54517740571787
 20
-9.165555960165207
 30
0.0
 10
12.52402451943844
 20
-9.306959904357286
 30
0.0
 10
12.52402451943844
 20
-9.306959904357286
 30
0.0
 10
12.53670247082416
 20
-9.305271807569516
 30
0.0
 10
12.54855359929342
 20
-9.303566485304315
 30
0.0
 10
12.56887966265639
 20
-9.303566485304315
 30
0.0
 10
12.61121988617011
 20
-9.303566485304315
 30
0.0
 10
12.65356010968383
 20
-9.312885468591916
 30
0.0
 10
12.68742539830384
 20
-9.333211531954892
 30
0.0
 10
12.73059244473402
 20
-9.357757837287296
 30
0.0
 10
12.76618028109665
 20
-9.40517957664176
 30
0.0
 10
12.76618028109665
 20
-9.47461547614697
 30
0.0
 10
12.76618028109665
 20
-9.582154131719043
 30
0.0
 10
12.6806385601979
 20
-9.662597111299627
 30
0.0
 10
12.56126600163399
 20
-9.662597111299627
 30
0.0
 10
12.50114908541638
 20
-9.662597111299627
 30
0.0
 10
12.45033392700894
 20
-9.645664466989627
 30
0.0
 10
12.42411675036619
 20
-9.628714597202195
 30
0.0
 10
12.42411675036619
 20
-9.628714597202195
 30
0.0
 10
12.44272026598653
 20
-9.571991100037557
 30
0.0
 10
12.44272026598653
 20
-9.571991100037557
 30
0.0
 10
12.4655957000086
 20
-9.585547550772016
 30
0.0
 10
12.51045084322655
 20
-9.602480195082017
 30
0.0
 10
12.56040472776268
 20
-9.602480195082017
 30
0.0
 10
12.63068467566177
 20
-9.602480195082017
 30
0.0
 10
12.69083604283423
 20
-9.556746552515326
 30
0.0
 10
12.69083604283423
 20
-9.483090411040684
 30
0.0
 10
12.68997476896292
 20
-9.411949189270275
 30
0.0
 10
12.64253580413103
 20
-9.361151256340267
 30
0.0
 10
12.53249945433215
 20
-9.361151256340267
 30
0.0
 10
12.50114908541638
 20
-9.361151256340267
 30
0.0
 10
12.47658555460655
 20
-9.36454467539324
 30
0.0
 10
12.45629394219843
 20
-9.367076820574895
 30
0.0
 10
12.45629394219843
 20
-9.367076820574895
 30
0.0
 10
12.4918473276062
 20
-9.102889673288512
 30
0.0
 10
12.4918473276062
 20
-9.102889673288512
 30
0.0
 10
12.4918473276062
 20
-9.102889673288512
 30
0.0
 10
12.7551904264987
 20
-9.102889673288512
 30
0.0
 10
12.7551904264987
 20
-9.102889673288512
 30
0.0
 10
12.7551904264987
 20
-9.102889673288512
 30
0.0
 10
12.7551904264987
 20
-9.165555960165207
 30
0.0
 10
12.7551904264987
 20
-9.165555960165207
 30
0.0
  0
HATCH
  5
C9
330
1F
100
AcDbEntity
  8
Livello 1
100
AcDbHatch
 10
0.0
 20
0.0
 30
0.0
210
0.0
220
0.0
230
1.0
  2
SOLID
 70
     1
 71
     0
 91
        1
 92
        1
 93
        1
 72
     4
 94
        3
 73
     0
 74
     0
 95
       50
 96
       46
 40
0.0
 40
0.0
 40
0.0
 40
0.0
 40
1.0
 40
1.0
 40
1.0
 40
2.0
 40
2.0
 40
2.0
 40
3.0
 40
3.0
 40
3.0
 40
4.0
 40
4.0
 40
4.0
 40
5.0
 40
5.0
 40
5.0
 40
6.0
 40
6.0
 40
6.0
 40
7.0
 40
7.0
 40
7.0
 40
8.0
 40
8.0
 40
8.0
 40
9.0
 40
9.0
 40
9.0
 40
10.0
 40
10.0
 40
10.0
 40
11.0
 40
11.0
 40
11.0
 40
12.0
 40
12.0
 40
12.0
 40
13.0
 40
13.0
 40
13.0
 40
14.0
 40
14.0
 40
14.0
 40
15.0
 40
15.0
 40
15.0
 40
15.0
 10
12.7551904264987
 20
-9.165555960165207
 10
12.7551904264987
 20
-9.165555960165207
 10
12.54517740571787
 20
-9.165555960165207
 10
12.54517740571787
 20
-9.165555960165207
 10
12.54517740571787
 20
-9.165555960165207
 10
12.52402451943844
 20
-9.306959904357286
 10
12.52402451943844
 20
-9.306959904357286
 10
12.53670247082416
 20
-9.305271807569516
 10
12.54855359929342
 20
-9.303566485304315
 10
12.56887966265639
 20
-9.303566485304315
 10
12.61121988617011
 20
-9.303566485304315
 10
12.65356010968383
 20
-9.312885468591916
 10
12.68742539830384
 20
-9.333211531954892
 10
12.73059244473402
 20
-9.357757837287296
 10
12.76618028109665
 20
-9.40517957664176
 10
12.76618028109665
 20
-9.47461547614697
 10
12.76618028109665
 20
-9.582154131719043
 10
12.6806385601979
 20
-9.662597111299627
 10
12.56126600163399
 20
-9.662597111299627
 10
12.50114908541638
 20
-9.662597111299627
 10
12.45033392700894
 20
-9.645664466989627
 10
12.42411675036619
 20
-9.628714597202195
 10
12.42411675036619
 20
-9.628714597202195
 10
12.44272026598653
 20
-9.571991100037557
 10
12.44272026598653
 20
-9.571991100037557
 10
12.4655957000086
 20
-9.585547550772016
 10
12.51045084322655
 20
-9.602480195082017
 10
12.56040472776268
 20
-9.602480195082017
 10
12.63068467566177
 20
-9.602480195082017
 10
12.69083604283423
 20
-9.556746552515326
 10
12.69083604283423
 20
-9.483090411040684
 10
12.68997476896292
 20
-9.411949189270275
 10
12.64253580413103
 20
-9.361151256340267
 10
12.53249945433215
 20
-9.361151256340267
 10
12.50114908541638
 20
-9.361151256340267
 10
12.47658555460655
 20
-9.36454467539324
 10
12.45629394219843
 20
-9.367076820574895
 10
12.45629394219843
 20
-9.367076820574895
 10
12.4918473276062
 20
-9.102889673288512
 10
12.4918473276062
 20
-9.102889673288512
 10
12.4918473276062
 20
-9.102889673288512
 10
12.7551904264987
 20
-9.102889673288512
 10
12.7551904264987
 20
-9.102889673288512
 10
12.7551904264987
 20
-9.102889673288512
 10
12.7551904264987
 20
-9.165555960165207
 10
12.7551904264987
 20
-9.165555960165207
 97
        0
 97
        0
 75
     2
 76
     1
 98
        0
450
        0
451
        0
460
0.0
461
0.0
452
        0
462
0.0
453
        0
470

  0
SPLINE
  5
CA
330
1F
100
AcDbEntity
  8
Livello 1
370
     0
100
AcDbSpline
210
0.0
220
0.0
230
1.0
 70
     9
 71
     3
 72
    17
 73
    13
 74
     0
 42
0.000000001
 43
0.0000000001
 40
0.0
 40
0.0
 40
0.0
 40
0.0
 40
1.0
 40
1.0
 40
1.0
 40
2.0
 40
2.0
 40
2.0
 40
3.0
 40
3.0
 40
3.0
 40
4.0
 40
4.0
 40
4.0
 40
4.0
 10
12.83642577804089
 20
-9.757423364531129
 30
0.0
 10
12.85502929366124
 20
-9.707469479995006
 30
0.0
 10
12.8779047276833
 20
-9.616863468732935
 30
0.0
 10
12.88720648549348
 20
-9.555058455727554
 30
0.0
 10
12.88720648549348
 20
-9.555058455727554
 30
0.0
 10
12.97016438477829
 20
-9.54658352083384
 30
0.0
 10
12.97016438477829
 20
-9.54658352083384
 30
0.0
 10
12.95073404624148
 20
-9.618568790998132
 30
0.0
 10
12.91345811309108
 20
-9.71255099583575
 30
0.0
 10
12.88975585615256
 20
-9.752341848690386
 30
0.0
 10
12.88975585615256
 20
-9.752341848690386
 30
0.0
 10
12.83642577804089
 20
-9.757423364531129
 30
0.0
 10
12.83642577804089
 20
-9.757423364531129
 30
0.0
  0
HATCH
  5
CB
330
1F
100
AcDbEntity
  8
Livello 1
100
AcDbHatch
 10
0.0
 20
0.0
 30
0.0
210
0.0
220
0.0
230
1.0
  2
SOLID
 70
     1
 71
     0
 91
        1
 92
        1
 93
        1
 72
     4
 94
        3
 73
     0
 74
     0
 95
       17
 96
       13
 40
0.0
 40
0.0
 40
0.0
 40
0.0
 40
1.0
 40
1.0
 40
1.0
 40
2.0
 40
2.0
 40
2.0
 40
3.0
 40
3.0
 40
3.0
 40
4.0
 40
4.0
 40
4.0
 40
4.0
 10
12.83642577804089
 20
-9.757423364531129
 10
12.85502929366124
 20
-9.707469479995006
 10
12.8779047276833
 20
-9.616863468732935
 10
12.88720648549348
 20
-9.555058455727554
 10
12.88720648549348
 20
-9.555058455727554
 10
12.97016438477829
 20
-9.54658352083384
 10
12.97016438477829
 20
-9.54658352083384
 10
12.95073404624148
 20
-9.618568790998132
 10
12.91345811309108
 20
-9.71255099583575
 10
12.88975585615256
 20
-9.752341848690386
 10
12.88975585615256
 20
-9.752341848690386
 10
12.83642577804089
 20
-9.757423364531129
 10
12.83642577804089
 20
-9.757423364531129
 97
        0
 97
        0
 75
     2
 76
     1
 98
        0
450
        0
451
        0
460
0.0
461
0.0
452
        0
462
0.0
453
        0
470

  0
SPLINE
  5
CC
330
1F
100
AcDbEntity
  8
Livello 1
370
     0
100
AcDbSpline
210
0.0
220
0.0
230
1.0
 70
    11
 71
     3
 72
    50
 73
    46
 74
     0
 42
0.000000001
 43
0.0000000001
 40
0.0
 40
0.0
 40
0.0
 40
0.0
 40
1.0
 40
1.0
 40
1.0
 40
2.0
 40
2.0
 40
2.0
 40
3.0
 40
3.0
 40
3.0
 40
4.0
 40
4.0
 40
4.0
 40
5.0
 40
5.0
 40
5.0
 40
6.0
 40
6.0
 40
6.0
 40
7.0
 40
7.0
 40
7.0
 40
8.0
 40
8.0
 40
8.0
 40
9.0
 40
9.0
 40
9.0
 40
10.0
 40
10.0
 40
10.0
 40
11.0
 40
11.0
 40
11.0
 40
12.0
 40
12.0
 40
12.0
 40
13.0
 40
13.0
 40
13.0
 40
14.0
 40
14.0
 40
14.0
 40
15.0
 40
15.0
 40
15.0
 40
15.0
 10
13.36476562165881
 20
-9.165555960165207
 30
0.0
 10
13.36476562165881
 20
-9.165555960165207
 30
0.0
 10
13.15475260087798
 20
-9.165555960165207
 30
0.0
 10
13.15475260087798
 20
-9.165555960165207
 30
0.0
 10
13.15475260087798
 20
-9.165555960165207
 30
0.0
 10
13.13359971459854
 20
-9.306959904357286
 30
0.0
 10
13.13359971459854
 20
-9.306959904357286
 30
0.0
 10
13.14627766598426
 20
-9.305271807569516
 30
0.0
 10
13.15812879445352
 20
-9.303566485304315
 30
0.0
 10
13.1784548578165
 20
-9.303566485304315
 30
0.0
 10
13.22079508133022
 20
-9.303566485304315
 30
0.0
 10
13.26313530484394
 20
-9.312885468591916
 30
0.0
 10
13.29700059346394
 20
-9.333211531954892
 30
0.0
 10
13.34016763989412
 20
-9.357757837287296
 30
0.0
 10
13.37575547625675
 20
-9.40517957664176
 30
0.0
 10
13.37575547625675
 20
-9.47461547614697
 30
0.0
 10
13.37575547625675
 20
-9.582154131719043
 30
0.0
 10
13.290213755358
 20
-9.662597111299627
 30
0.0
 10
13.1708411967941
 20
-9.662597111299627
 30
0.0
 10
13.11072428057648
 20
-9.662597111299627
 30
0.0
 10
13.05990912216905
 20
-9.645664466989627
 30
0.0
 10
13.0336919455263
 20
-9.628714597202195
 30
0.0
 10
13.0336919455263
 20
-9.628714597202195
 30
0.0
 10
13.05229546114665
 20
-9.571991100037557
 30
0.0
 10
13.05229546114665
 20
-9.571991100037557
 30
0.0
 10
13.07517089516871
 20
-9.585547550772016
 30
0.0
 10
13.12002603838666
 20
-9.602480195082017
 30
0.0
 10
13.16997992292278
 20
-9.602480195082017
 30
0.0
 10
13.24025987082188
 20
-9.602480195082017
 30
0.0
 10
13.30041123799434
 20
-9.556746552515326
 30
0.0
 10
13.30041123799434
 20
-9.483090411040684
 30
0.0
 10
13.29954996412303
 20
-9.411949189270275
 30
0.0
 10
13.25211099929114
 20
-9.361151256340267
 30
0.0
 10
13.14207464949226
 20
-9.361151256340267
 30
0.0
 10
13.11072428057648
 20
-9.361151256340267
 30
0.0
 10
13.08616074976665
 20
-9.36454467539324
 30
0.0
 10
13.06586913735853
 20
-9.367076820574895
 30
0.0
 10
13.06586913735853
 20
-9.367076820574895
 30
0.0
 10
13.10142252276631
 20
-9.102889673288512
 30
0.0
 10
13.10142252276631
 20
-9.102889673288512
 30
0.0
 10
13.10142252276631
 20
-9.102889673288512
 30
0.0
 10
13.36476562165881
 20
-9.102889673288512
 30
0.0
 10
13.36476562165881
 20
-9.102889673288512
 30
0.0
 10
13.36476562165881
 20
-9.102889673288512
 30
0.0
 10
13.36476562165881
 20
-9.165555960165207
 30
0.0
 10
13.36476562165881
 20
-9.165555960165207
 30
0.0
  0
HATCH
  5
CD
330
1F
100
AcDbEntity
  8
Livello 1
100
AcDbHatch
 10
0.0
 20
0.0
 30
0.0
210
0.0
220
0.0
230
1.0
  2
SOLID
 70
     1
 71
     0
 91
        1
 92
        1
 93
        1
 72
     4
 94
        3
 73
     0
 74
     0
 95
       50
 96
       46
 40
0.0
 40
0.0
 40
0.0
 40
0.0
 40
1.0
 40
1.0
 40
1.0
 40
2.0
 40
2.0
 40
2.0
 40
3.0
 40
3.0
 40
3.0
 40
4.0
 40
4.0
 40
4.0
 40
5.0
 40
5.0
 40
5.0
 40
6.0
 40
6.0
 40
6.0
 40
7.0
 40
7.0
 40
7.0
 40
8.0
 40
8.0
 40
8.0
 40
9.0
 40
9.0
 40
9.0
 40
10.0
 40
10.0
 40
10.0
 40
11.0
 40
11.0
 40
11.0
 40
12.0
 40
12.0
 40
12.0
 40
13.0
 40
13.0
 40
13.0
 40
14.0
 40
14.0
 40
14.0
 40
15.0
 40
15.0
 40
15.0
 40
15.0
 10
13.36476562165881
 20
-9.165555960165207
 10
13.36476562165881
 20
-9.165555960165207
 10
13.15475260087798
 20
-9.165555960165207
 10
13.15475260087798
 20
-9.165555960165207
 10
13.15475260087798
 20
-9.165555960165207
 10
13.13359971459854
 20
-9.306959904357286
 10
13.13359971459854
 20
-9.306959904357286
 10
13.14627766598426
 20
-9.305271807569516
 10
13.15812879445352
 20
-9.303566485304315
 10
13.1784548578165
 20
-9.303566485304315
 10
13.22079508133022
 20
-9.303566485304315
 10
13.26313530484394
 20
-9.312885468591916
 10
13.29700059346394
 20
-9.333211531954892
 10
13.34016763989412
 20
-9.357757837287296
 10
13.37575547625675
 20
-9.40517957664176
 10
13.37575547625675
 20
-9.47461547614697
 10
13.37575547625675
 20
-9.582154131719043
 10
13.290213755358
 20
-9.662597111299627
 10
13.1708411967941
 20
-9.662597111299627
 10
13.11072428057648
 20
-9.662597111299627
 10
13.05990912216905
 20
-9.645664466989627
 10
13.0336919455263
 20
-9.628714597202195
 10
13.0336919455263
 20
-9.628714597202195
 10
13.05229546114665
 20
-9.571991100037557
 10
13.05229546114665
 20
-9.571991100037557
 10
13.07517089516871
 20
-9.585547550772016
 10
13.12002603838666
 20
-9.602480195082017
 10
13.16997992292278
 20
-9.602480195082017
 10
13.24025987082188
 20
-9.602480195082017
 10
13.30041123799434
 20
-9.556746552515326
 10
13.30041123799434
 20
-9.483090411040684
 10
13.29954996412303
 20
-9.411949189270275
 10
13.25211099929114
 20
-9.361151256340267
 10
13.14207464949226
 20
-9.361151256340267
 10
13.11072428057648
 20
-9.361151256340267
 10
13.08616074976665
 20
-9.36454467539324
 10
13.06586913735853
 20
-9.367076820574895
 10
13.06586913735853
 20
-9.367076820574895
 10
13.10142252276631
 20
-9.102889673288512
 10
13.10142252276631
 20
-9.102889673288512
 10
13.10142252276631
 20
-9.102889673288512
 10
13.36476562165881
 20
-9.102889673288512
 10
13.36476562165881
 20
-9.102889673288512
 10
13.36476562165881
 20
-9.102889673288512
 10
13.36476562165881
 20
-9.165555960165207
 10
13.36476562165881
 20
-9.165555960165207
 97
        0
 97
        0
 75
     2
 76
     1
 98
        0
450
        0
451
        0
460
0.0
461
0.0
452
        0
462
0.0
453
        0
470

  0
SPLINE
  5
CE
330
1F
100
AcDbEntity
  8
Livello 1
370
     0
100
AcDbSpline
210
0.0
220
0.0
230
1.0
 70
     9
 71
     3
 72
    41
 73
    37
 74
     0
 42
0.000000001
 43
0.0000000001
 40
0.0
 40
0.0
 40
0.0
 40
0.0
 40
1.0
 40
1.0
 40
1.0
 40
2.0
 40
2.0
 40
2.0
 40
3.0
 40
3.0
 40
3.0
 40
4.0
 40
4.0
 40
4.0
 40
5.0
 40
5.0
 40
5.0
 40
6.0
 40
6.0
 40
6.0
 40
7.0
 40
7.0
 40
7.0
 40
8.0
 40
8.0
 40
8.0
 40
9.0
 40
9.0
 40
9.0
 40
10.0
 40
10.0
 40
10.0
 40
11.0
 40
11.0
 40
11.0
 40
12.0
 40
12.0
 40
12.0
 40
12.0
 10
14.66546142211488
 20
-7.010114744341219
 30
0.0
 10
14.66718396985751
 20
-6.994026148425103
 30
0.0
 10
14.66546142211488
 20
-6.975405407327328
 30
0.0
 10
14.66294650241065
 20
-6.949997828123611
 30
0.0
 10
14.65702093817602
 20
-6.906813556216003
 30
0.0
 10
14.63920979451728
 20
-6.866161429490056
 30
0.0
 10
14.60958197334413
 20
-6.834845511529134
 30
0.0
 10
14.57657795859544
 20
-6.798430852250044
 30
0.0
 10
14.52831217084709
 20
-6.772179224652441
 30
0.0
 10
14.46309651331131
 20
-6.762016192970953
 30
0.0
 10
14.46309651331131
 20
-6.762016192970953
 30
0.0
 10
14.46309651331131
 20
-6.764565563630038
 30
0.0
 10
14.46309651331131
 20
-6.764565563630038
 30
0.0
 10
14.50037244646171
 20
-6.795037433197073
 30
0.0
 10
14.52238660661246
 20
-6.839065753498566
 30
0.0
 10
14.52238660661246
 20
-6.894118379352858
 30
0.0
 10
14.52238660661246
 20
-6.993182100031217
 30
0.0
 10
14.4478691912665
 20
-7.056692435301799
 30
0.0
 10
14.35388698642889
 20
-7.056692435301799
 30
0.0
 10
14.24974174990979
 20
-7.056692435301799
 30
0.0
 10
14.1582744647764
 20
-6.981330971561958
 30
0.0
 10
14.1582744647764
 20
-6.868710800149141
 30
0.0
 10
14.1582744647764
 20
-6.756090628736324
 30
0.0
 10
14.24974174990979
 20
-6.686654729231113
 30
0.0
 10
14.39030164570798
 20
-6.686654729231113
 30
0.0
 10
14.51136230105966
 20
-6.686654729231113
 30
0.0
 10
14.5960427480871
 20
-6.727306855957062
 30
0.0
 10
14.64854600328231
 20
-6.781498207940041
 30
0.0
 10
14.69002495292471
 20
-6.823838431453763
 30
0.0
 10
14.71544975760586
 20
-6.882250025406172
 30
0.0
 10
14.72220214475695
 20
-6.941522893229897
 30
0.0
 10
14.72643961220381
 20
-6.968618569221388
 30
0.0
 10
14.72730088607512
 20
-6.992338051637332
 30
0.0
 10
14.72643961220381
 20
-7.010114744341219
 30
0.0
 10
14.72643961220381
 20
-7.010114744341219
 30
0.0
 10
14.66546142211488
 20
-7.010114744341219
 30
0.0
 10
14.66546142211488
 20
-7.010114744341219
 30
0.0
  0
SPLINE
  5
CF
330
1F
100
AcDbEntity
  8
Livello 1
370
     0
100
AcDbSpline
210
0.0
220
0.0
230
1.0
 70
     9
 71
     3
 72
    20
 73
    16
 74
     0
 42
0.000000001
 43
0.0000000001
 40
0.0
 40
0.0
 40
0.0
 40
0.0
 40
1.0
 40
1.0
 40
1.0
 40
2.0
 40
2.0
 40
2.0
 40
3.0
 40
3.0
 40
3.0
 40
4.0
 40
4.0
 40
4.0
 40
5.0
 40
5.0
 40
5.0
 40
5.0
 10
14.34878824511072
 20
-6.98301906834973
 30
0.0
 10
14.41738009622204
 20
-6.98301906834973
 30
0.0
 10
14.46564588397039
 20
-6.941522893229897
 30
0.0
 10
14.46564588397039
 20
-6.87716850956543
 30
0.0
 10
14.46564588397039
 20
-6.827214625029307
 30
0.0
 10
14.44108235316056
 20
-6.788267820568558
 30
0.0
 10
14.40807833841187
 20
-6.76878580559947
 30
0.0
 10
14.40129150030593
 20
-6.764565563630038
 30
0.0
 10
14.39281656541221
 20
-6.762016192970953
 30
0.0
 10
14.38096543694295
 20
-6.762016192970953
 30
0.0
 10
14.28698323210534
 20
-6.762016192970953
 30
0.0
 10
14.21501518741847
 20
-6.796742755462272
 30
0.0
 10
14.21501518741847
 20
-6.874636364383771
 30
0.0
 10
14.21501518741847
 20
-6.938146699654352
 30
0.0
 10
14.27089463618922
 20
-6.98301906834973
 30
0.0
 10
14.34878824511072
 20
-6.98301906834973
 30
0.0
  0
HATCH
  5
D0
330
1F
100
AcDbEntity
  8
Livello 1
100
AcDbHatch
 10
0.0
 20
0.0
 30
0.0
210
0.0
220
0.0
230
1.0
  2
SOLID
 70
     1
 71
     0
 91
        2
 92
        1
 93
        1
 72
     4
 94
        3
 73
     0
 74
     0
 95
       41
 96
       37
 40
0.0
 40
0.0
 40
0.0
 40
0.0
 40
1.0
 40
1.0
 40
1.0
 40
2.0
 40
2.0
 40
2.0
 40
3.0
 40
3.0
 40
3.0
 40
4.0
 40
4.0
 40
4.0
 40
5.0
 40
5.0
 40
5.0
 40
6.0
 40
6.0
 40
6.0
 40
7.0
 40
7.0
 40
7.0
 40
8.0
 40
8.0
 40
8.0
 40
9.0
 40
9.0
 40
9.0
 40
10.0
 40
10.0
 40
10.0
 40
11.0
 40
11.0
 40
11.0
 40
12.0
 40
12.0
 40
12.0
 40
12.0
 10
14.66546142211488
 20
-7.010114744341219
 10
14.66718396985751
 20
-6.994026148425103
 10
14.66546142211488
 20
-6.975405407327328
 10
14.66294650241065
 20
-6.949997828123611
 10
14.65702093817602
 20
-6.906813556216003
 10
14.63920979451728
 20
-6.866161429490056
 10
14.60958197334413
 20
-6.834845511529134
 10
14.57657795859544
 20
-6.798430852250044
 10
14.52831217084709
 20
-6.772179224652441
 10
14.46309651331131
 20
-6.762016192970953
 10
14.46309651331131
 20
-6.762016192970953
 10
14.46309651331131
 20
-6.764565563630038
 10
14.46309651331131
 20
-6.764565563630038
 10
14.50037244646171
 20
-6.795037433197073
 10
14.52238660661246
 20
-6.839065753498566
 10
14.52238660661246
 20
-6.894118379352858
 10
14.52238660661246
 20
-6.993182100031217
 10
14.4478691912665
 20
-7.056692435301799
 10
14.35388698642889
 20
-7.056692435301799
 10
14.24974174990979
 20
-7.056692435301799
 10
14.1582744647764
 20
-6.981330971561958
 10
14.1582744647764
 20
-6.868710800149141
 10
14.1582744647764
 20
-6.756090628736324
 10
14.24974174990979
 20
-6.686654729231113
 10
14.39030164570798
 20
-6.686654729231113
 10
14.51136230105966
 20
-6.686654729231113
 10
14.5960427480871
 20
-6.727306855957062
 10
14.64854600328231
 20
-6.781498207940041
 10
14.69002495292471
 20
-6.823838431453763
 10
14.71544975760586
 20
-6.882250025406172
 10
14.72220214475695
 20
-6.941522893229897
 10
14.72643961220381
 20
-6.968618569221388
 10
14.72730088607512
 20
-6.992338051637332
 10
14.72643961220381
 20
-7.010114744341219
 10
14.72643961220381
 20
-7.010114744341219
 10
14.66546142211488
 20
-7.010114744341219
 10
14.66546142211488
 20
-7.010114744341219
 97
        0
 97
        0
 92
        1
 93
        1
 72
     4
 94
        3
 73
     0
 74
     0
 95
       20
 96
       16
 40
0.0
 40
0.0
 40
0.0
 40
0.0
 40
1.0
 40
1.0
 40
1.0
 40
2.0
 40
2.0
 40
2.0
 40
3.0
 40
3.0
 40
3.0
 40
4.0
 40
4.0
 40
4.0
 40
5.0
 40
5.0
 40
5.0
 40
5.0
 10
14.34878824511072
 20
-6.98301906834973
 10
14.41738009622204
 20
-6.98301906834973
 10
14.46564588397039
 20
-6.941522893229897
 10
14.46564588397039
 20
-6.87716850956543
 10
14.46564588397039
 20
-6.827214625029307
 10
14.44108235316056
 20
-6.788267820568558
 10
14.40807833841187
 20
-6.76878580559947
 10
14.40129150030593
 20
-6.764565563630038
 10
14.39281656541221
 20
-6.762016192970953
 10
14.38096543694295
 20
-6.762016192970953
 10
14.28698323210534
 20
-6.762016192970953
 10
14.21501518741847
 20
-6.796742755462272
 10
14.21501518741847
 20
-6.874636364383771
 10
14.21501518741847
 20
-6.938146699654352
 10
14.27089463618922
 20
-6.98301906834973
 10
14.34878824511072
 20
-6.98301906834973
 97
        0
 97
        0
 75
     2
 76
     1
 98
        0
450
        0
451
        0
460
0.0
461
0.0
452
        0
462
0.0
453
        0
470

  0
POLYLINE
  5
D1
330
1F
100
AcDbEntity
  8
Livello 1
370
     0
100
AcDb2dPolyline
 66
     1
 10
0.0
 20
0.0
 30
0.0
  0
VERTEX
  5
D2
330
D1
100
AcDbEntity
  8
Livello 1
370
     0
100
AcDbVertex
100
AcDb2dVertex
 10
9.499075654092244
 20
-9.172325572793724
 30
0.0
  0
VERTEX
  5
D3
330
D1
100
AcDbEntity
  8
Livello 1
370
     0
100
AcDbVertex
100
AcDb2dVertex
 10
9.497387557304472
 20
-9.172325572793724
 30
0.0
  0
VERTEX
  5
D4
330
D1
100
AcDbEntity
  8
Livello 1
370
     0
100
AcDbVertex
100
AcDb2dVertex
 10
9.401700030201658
 20
-9.223984779595042
 30
0.0
  0
VERTEX
  5
D5
330
D1
100
AcDbEntity
  8
Livello 1
370
     0
100
AcDbVertex
100
AcDb2dVertex
 10
9.387299531073313
 20
-9.167244056952981
 30
0.0
  0
VERTEX
  5
D6
330
D1
100
AcDbEntity
  8
Livello 1
370
     0
100
AcDbVertex
100
AcDb2dVertex
 10
9.507533363508533
 20
-9.102889673288512
 30
0.0
  0
VERTEX
  5
D7
330
D1
100
AcDbEntity
  8
Livello 1
370
     0
100
AcDbVertex
100
AcDb2dVertex
 10
9.571043698779114
 20
-9.102889673288512
 30
0.0
  0
VERTEX
  5
D8
330
D1
100
AcDbEntity
  8
Livello 1
370
     0
100
AcDbVertex
100
AcDb2dVertex
 10
9.571043698779114
 20
-9.653278128012026
 30
0.0
  0
VERTEX
  5
D9
330
D1
100
AcDbEntity
  8
Livello 1
370
     0
100
AcDbVertex
100
AcDb2dVertex
 10
9.499075654092244
 20
-9.653278128012026
 30
0.0
  0
VERTEX
  5
DA
330
D1
100
AcDbEntity
  8
Livello 1
370
     0
100
AcDbVertex
100
AcDb2dVertex
 10
9.499075654092244
 20
-9.172325572793724
 30
0.0
  0
SEQEND
  5
DB
330
D1
100
AcDbEntity
  8
Livello 1
370
     0
  0
HATCH
  5
DC
330
1F
100
AcDbEntity
  8
Livello 1
100
AcDbHatch
 10
0.0
 20
0.0
 30
0.0
210
0.0
220
0.0
230
1.0
  2
SOLID
 70
     1
 71
     0
 91
        1
 92
        1
 93
        8
 72
     1
 10
9.499075654092244
 20
-9.172325572793724
 11
9.497387557304472
 21
-9.172325572793724
 72
     1
 10
9.497387557304472
 20
-9.172325572793724
 11
9.401700030201658
 21
-9.223984779595042
 72
     1
 10
9.401700030201658
 20
-9.223984779595042
 11
9.387299531073313
 21
-9.167244056952981
 72
     1
 10
9.387299531073313
 20
-9.167244056952981
 11
9.507533363508533
 21
-9.102889673288512
 72
     1
 10
9.507533363508533
 20
-9.102889673288512
 11
9.571043698779114
 21
-9.102889673288512
 72
     1
 10
9.571043698779114
 20
-9.102889673288512
 11
9.571043698779114
 21
-9.653278128012026
 72
     1
 10
9.571043698779114
 20
-9.653278128012026
 11
9.499075654092244
 21
-9.653278128012026
 72
     1
 10
9.499075654092244
 20
-9.653278128012026
 11
9.499075654092244
 21
-9.172325572793724
 97
        0
 75
     2
 76
     1
 98
        0
450
        0
451
        0
460
0.0
461
0.0
452
        0
462
0.0
453
        0
470

  0
SPLINE
  5
DD
330
1F
100
AcDbEntity
  8
Livello 1
370
     0
100
AcDbSpline
210
0.0
220
0.0
230
1.0
 70
     9
 71
     3
 72
    17
 73
    13
 74
     0
 42
0.000000001
 43
0.0000000001
 40
0.0
 40
0.0
 40
0.0
 40
0.0
 40
1.0
 40
1.0
 40
1.0
 40
2.0
 40
2.0
 40
2.0
 40
3.0
 40
3.0
 40
3.0
 40
4.0
 40
4.0
 40
4.0
 40
4.0
 10
10.13746907298647
 20
-9.37215833641564
 30
0.0
 10
10.13746907298647
 20
-9.559295923174412
 30
0.0
 10
10.06803317348125
 20
-9.662597111299627
 30
0.0
 10
9.946094018780835
 20
-9.662597111299627
 30
0.0
 10
9.838555363208763
 20
-9.662597111299627
 30
0.0
 10
9.765743270128007
 20
-9.561828068356071
 30
0.0
 10
9.764055173340235
 20
-9.379789222915466
 30
0.0
 10
9.764055173340235
 20
-9.195183781338355
 30
0.0
 10
9.843636879049507
 20
-9.093587915478337
 30
0.0
 10
9.955413002068437
 20
-9.093587915478337
 30
0.0
 10
10.0714093670568
 20
-9.093587915478337
 30
0.0
 10
10.13746907298647
 20
-9.196889103603556
 30
0.0
 10
10.13746907298647
 20
-9.37215833641564
 30
0.0
  0
SPLINE
  5
DE
330
1F
100
AcDbEntity
  8
Livello 1
370
     0
100
AcDbSpline
210
0.0
220
0.0
230
1.0
 70
     9
 71
     3
 72
    17
 73
    13
 74
     0
 42
0.000000001
 43
0.0000000001
 40
0.0
 40
0.0
 40
0.0
 40
0.0
 40
1.0
 40
1.0
 40
1.0
 40
2.0
 40
2.0
 40
2.0
 40
3.0
 40
3.0
 40
3.0
 40
4.0
 40
4.0
 40
4.0
 40
4.0
 10
9.838555363208763
 20
-9.380633271309354
 30
0.0
 10
9.838555363208763
 20
-9.523725312289206
 30
0.0
 10
9.882583683510254
 20
-9.605012340263675
 30
0.0
 10
9.950331486227694
 20
-9.605012340263675
 30
0.0
 10
10.02653699836142
 20
-9.605012340263675
 30
0.0
 10
10.06295165764051
 20
-9.516111651266804
 30
0.0
 10
10.06295165764051
 20
-9.375551755468613
 30
0.0
 10
10.06295165764051
 20
-9.240073375511162
 30
0.0
 10
10.02822509514919
 20
-9.151155461036863
 30
0.0
 10
9.951175534621579
 20
-9.151155461036863
 30
0.0
 10
9.885977102563225
 20
-9.151155461036863
 30
0.0
 10
9.838555363208763
 20
-9.230754392223561
 30
0.0
 10
9.838555363208763
 20
-9.380633271309354
 30
0.0
  0
HATCH
  5
DF
330
1F
100
AcDbEntity
  8
Livello 1
100
AcDbHatch
 10
0.0
 20
0.0
 30
0.0
210
0.0
220
0.0
230
1.0
  2
SOLID
 70
     1
 71
     0
 91
        2
 92
        1
 93
        1
 72
     4
 94
        3
 73
     0
 74
     0
 95
       17
 96
       13
 40
0.0
 40
0.0
 40
0.0
 40
0.0
 40
1.0
 40
1.0
 40
1.0
 40
2.0
 40
2.0
 40
2.0
 40
3.0
 40
3.0
 40
3.0
 40
4.0
 40
4.0
 40
4.0
 40
4.0
 10
10.13746907298647
 20
-9.37215833641564
 10
10.13746907298647
 20
-9.559295923174412
 10
10.06803317348125
 20
-9.662597111299627
 10
9.946094018780835
 20
-9.662597111299627
 10
9.838555363208763
 20
-9.662597111299627
 10
9.765743270128007
 20
-9.561828068356071
 10
9.764055173340235
 20
-9.379789222915466
 10
9.764055173340235
 20
-9.195183781338355
 10
9.843636879049507
 20
-9.093587915478337
 10
9.955413002068437
 20
-9.093587915478337
 10
10.0714093670568
 20
-9.093587915478337
 10
10.13746907298647
 20
-9.196889103603556
 10
10.13746907298647
 20
-9.37215833641564
 97
        0
 97
        0
 92
        1
 93
        1
 72
     4
 94
        3
 73
     0
 74
     0
 95
       17
 96
       13
 40
0.0
 40
0.0
 40
0.0
 40
0.0
 40
1.0
 40
1.0
 40
1.0
 40
2.0
 40
2.0
 40
2.0
 40
3.0
 40
3.0
 40
3.0
 40
4.0
 40
4.0
 40
4.0
 40
4.0
 10
9.838555363208763
 20
-9.380633271309354
 10
9.838555363208763
 20
-9.523725312289206
 10
9.882583683510254
 20
-9.605012340263675
 10
9.950331486227694
 20
-9.605012340263675
 10
10.02653699836142
 20
-9.605012340263675
 10
10.06295165764051
 20
-9.516111651266804
 10
10.06295165764051
 20
-9.375551755468613
 10
10.06295165764051
 20
-9.240073375511162
 10
10.02822509514919
 20
-9.151155461036863
 10
9.951175534621579
 20
-9.151155461036863
 10
9.885977102563225
 20
-9.151155461036863
 10
9.838555363208763
 20
-9.230754392223561
 10
9.838555363208763
 20
-9.380633271309354
 97
        0
 97
        0
 75
     2
 76
     1
 98
        0
450
        0
451
        0
460
0.0
461
0.0
452
        0
462
0.0
453
        0
470

  0
ENDSEC
  0
SECTION
  2
OBJECTS
  0
DICTIONARY
  5
C
330
0
100
AcDbDictionary
281
     1
  3
ACAD_CIP_PREVIOUS_PRODUCT_INFO
350
B4
  3
ACAD_COLOR
350
95
  3
ACAD_DETAILVIEWSTYLE
350
B0
  3
ACAD_GROUP
350
D
  3
ACAD_LAYOUT
350
1A
  3
ACAD_MATERIAL
350
3B
  3
ACAD_MLEADERSTYLE
350
88
  3
ACAD_MLINESTYLE
350
17
  3
ACAD_PLOTSETTINGS
350
19
  3
ACAD_PLOTSTYLENAME
350
E
  3
ACAD_SCALELIST
350
97
  3
ACAD_SECTIONVIEWSTYLE
350
AE
  3
ACAD_TABLESTYLE
350
87
  3
ACAD_VISUALSTYLE
350
2A
  3
ACDB_RECOMPOSE_DATA
350
F0
  3
AcDbVariableDictionary
350
E0
  0
SUN
  5
3F
330
29
100
AcDbSun
 90
        1
290
     1
 63
     7
421
 16777215
 40
1.0
291
     1
 91
  2455826
 92
 54000000
292
     0
 70
     0
 71
   256
280
     1
1001
ACAD
1000
AcDbSavedByObjectVersion
1070
     0
  0
DICTIONARY
  5
B5
330
1F
100
AcDbDictionary
280
     1
281
     1
  3
ACAD_SORTENTS
360
B6
  0
XRECORD
  5
B4
102
{ACAD_REACTORS
330
C
102
}
330
C
100
AcDbXrecord
280
     1
300
ACD
300
2019
300
ACD_F_S
  0
DICTIONARY
  5
95
102
{ACAD_REACTORS
330
C
102
}
330
C
100
AcDbDictionary
281
     1
  0
DICTIONARY
  5
B0
102
{ACAD_REACTORS
330
C
102
}
330
C
100
AcDbDictionary
281
     1
  3
Imperial24
350
B1
  0
DICTIONARY
  5
D
102
{ACAD_REACTORS
330
C
102
}
330
C
100
AcDbDictionary
281
     1
  0
DICTIONARY
  5
1A
102
{ACAD_REACTORS
330
C
102
}
330
C
100
AcDbDictionary
281
     1
  3
Layout1
350
1E
  3
Layout2
350
26
  3
Model
350
22
  0
DICTIONARY
  5
3B
102
{ACAD_REACTORS
330
C
102
}
330
C
100
AcDbDictionary
281
     1
  3
ByBlock
350
3D
  3
ByLayer
350
3C
  3
Global
350
3E
  0
DICTIONARY
  5
88
102
{ACAD_REACTORS
330
C
102
}
330
C
100
AcDbDictionary
281
     1
  3
Standard
350
AD
  0
DICTIONARY
  5
17
102
{ACAD_REACTORS
330
C
102
}
330
C
100
AcDbDictionary
281
     1
  3
Standard
350
18
  0
DICTIONARY
  5
19
102
{ACAD_REACTORS
330
C
102
}
330
C
100
AcDbDictionary
281
     1
  0
ACDBDICTIONARYWDFLT
  5
E
102
{ACAD_REACTORS
330
C
102
}
330
C
100
AcDbDictionary
281
     1
  3
Normal
350
F
100
AcDbDictionaryWithDefault
340
F
  0
DICTIONARY
  5
97
102
{ACAD_REACTORS
330
C
102
}
330
C
100
AcDbDictionary
281
     1
  3
A0
350
98
  3
A1
350
99
  3
A2
350
9A
  3
A3
350
9B
  3
A4
350
9C
  3
A5
350
9D
  3
A6
350
9E
  3
A7
350
9F
  3
A8
350
A0
  3
A9
350
A1
  3
B0
350
A2
  3
B1
350
A3
  3
B2
350
A4
  3
B3
350
A5
  3
B4
350
A6
  3
B5
350
A7
  3
B6
350
A8
  3
B7
350
A9
  3
B8
350
AA
  3
B9
350
AB
  3
C0
350
AC
  0
DICTIONARY
  5
AE
102
{ACAD_REACTORS
330
C
102
}
330
C
100
AcDbDictionary
281
     1
  3
Imperial24
350
AF
  0
DICTIONARY
  5
87
102
{ACAD_REACTORS
330
C
102
}
330
C
100
AcDbDictionary
281
     1
  3
Standard
350
96
  0
DICTIONARY
  5
2A
102
{ACAD_REACTORS
330
C
102
}
330
C
100
AcDbDictionary
281
     1
  3
2dWireframe
350
2F
  3
3D Hidden
350
31
  3
3dWireframe
350
30
  3
Basic
350
32
  3
Brighten
350
36
  3
ColorChange
350
3A
  3
Conceptual
350
34
  3
Dim
350
35
  3
EdgeColorOff
350
94
  3
Facepattern
350
39
  3
Flat
350
2B
  3
FlatWithEdges
350
2C
  3
Gouraud
350
2D
  3
GouraudWithEdges
350
2E
  3
Hidden
350
8C
  3
JitterOff
350
92
  3
Linepattern
350
38
  3
OverhangOff
350
93
  3
Realistic
350
33
  3
Shaded
350
91
  3
Shaded with edges
350
90
  3
Shades of Gray
350
8D
  3
Sketchy
350
8E
  3
Thicken
350
37
  3
Wireframe
350
8B
  3
X-Ray
350
8F
  0
XRECORD
  5
F0
102
{ACAD_REACTORS
330
C
102
}
330
C
100
AcDbXrecord
280
     1
 90
        1
330
96
  0
DICTIONARY
  5
E0
102
{ACAD_REACTORS
330
C
102
}
330
C
100
AcDbDictionary
281
     1
  3
CANNOSCALE
350
E5
  3
CMLEADERSTYLE
350
E2
  3
CTABLESTYLE
350
E1
  3
CVIEWDETAILSTYLE
350
E3
  3
CVIEWSECTIONSTYLE
350
E4
  0
SORTENTSTABLE
  5
B6
102
{ACAD_REACTORS
330
B5
102
}
330
B5
100
AcDbSortentsTable
330
1F
  0
ACDBDETAILVIEWSTYLE
  5
B1
102
{ACAD_XDICTIONARY
360
F3
102
}
102
{ACAD_REACTORS
330
B0
102
}
330
B0
100
AcDbModelDocViewStyle
 70
     0
  3
Imperial24
290
     0
100
AcDbDetailViewStyle
 70
     0
 71
     0
 90
        3
 71
     1
340
11
 62
   256
 40
0.24
340
0
 62
   256
 40
0.24
300

 40
0.36
280
     3
 71
     2
340
16
 90
       25
 62
   256
 71
     3
340
11
 62
   256
 40
0.24
 90
        1
 40
0.75
 90
        1
300
%<\AcVar ViewType \f "%tc1">% %<\AcVar ViewDetailId>%\PSCALA %<\AcVar ViewScale \f "%sn">%
 71
     4
340
16
 90
       25
 62
   256
340
16
 90
       25
 62
   256
280
     0
  0
LAYOUT
  5
1E
102
{ACAD_REACTORS
330
1A
102
}
330
1A
100
AcDbPlotSettings
  1

  2
none_device
  4

  6

 40
0.0
 41
0.0
 42
0.0
 43
0.0
 44
0.0
 45
0.0
 46
0.0
 47
0.0
 48
0.0
 49
0.0
140
0.0
141
0.0
142
1.0
143
1.0
 70
   688
 72
     0
 73
     0
 74
     5
  7

 75
    16
147
1.0
 76
     0
 77
     2
 78
   300
148
0.0
149
0.0
100
AcDbLayout
  1
Layout1
 70
     1
 71
     1
 10
0.0
 20
0.0
 11
12.0
 21
9.0
 12
0.0
 22
0.0
 32
0.0
 14
1.000000000000000E+20
 24
1.000000000000000E+20
 34
1.000000000000000E+20
 15
-1.000000000000000E+20
 25
-1.000000000000000E+20
 35
-1.000000000000000E+20
146
0.0
 13
0.0
 23
0.0
 33
0.0
 16
1.0
 26
0.0
 36
0.0
 17
0.0
 27
1.0
 37
0.0
 76
     0
330
1B
  0
LAYOUT
  5
26
102
{ACAD_REACTORS
330
1A
102
}
330
1A
100
AcDbPlotSettings
  1

  2
none_device
  4

  6

 40
0.0
 41
0.0
 42
0.0
 43
0.0
 44
0.0
 45
0.0
 46
0.0
 47
0.0
 48
0.0
 49
0.0
140
0.0
141
0.0
142
1.0
143
1.0
 70
   688
 72
     0
 73
     0
 74
     5
  7

 75
    16
147
1.0
 76
     0
 77
     2
 78
   300
148
0.0
149
0.0
100
AcDbLayout
  1
Layout2
 70
     1
 71
     2
 10
0.0
 20
0.0
 11
0.0
 21
0.0
 12
0.0
 22
0.0
 32
0.0
 14
0.0
 24
0.0
 34
0.0
 15
0.0
 25
0.0
 35
0.0
146
0.0
 13
0.0
 23
0.0
 33
0.0
 16
1.0
 26
0.0
 36
0.0
 17
0.0
 27
1.0
 37
0.0
 76
     0
330
23
  0
LAYOUT
  5
22
102
{ACAD_REACTORS
330
1A
102
}
330
1A
100
AcDbPlotSettings
  1

  2
none_device
  4

  6

 40
0.0
 41
0.0
 42
0.0
 43
0.0
 44
0.0
 45
0.0
 46
0.0
 47
0.0
 48
0.0
 49
0.0
140
0.0
141
0.0
142
1.0
143
1.0
 70
  1712
 72
     0
 73
     0
 74
     0
  7

 75
     0
147
1.0
 76
     0
 77
     2
 78
   300
148
0.0
149
0.0
100
AcDbLayout
  1
Model
 70
     1
 71
     0
 10
0.0
 20
0.0
 11
12.0
 21
9.0
 12
0.0
 22
0.0
 32
0.0
 14
1.000000000000000E+20
 24
1.000000000000000E+20
 34
1.000000000000000E+20
 15
-1.000000000000000E+20
 25
-1.000000000000000E+20
 35
-1.000000000000000E+20
146
0.0
 13
0.0
 23
0.0
 33
0.0
 16
1.0
 26
0.0
 36
0.0
 17
0.0
 27
1.0
 37
0.0
 76
     0
330
1F
331
29
  0
MATERIAL
  5
3D
102
{ACAD_REACTORS
330
3B
102
}
330
3B
100
AcDbMaterial
  1
ByBlock
  0
MATERIAL
  5
3C
102
{ACAD_REACTORS
330
3B
102
}
330
3B
100
AcDbMaterial
  1
ByLayer
  0
MATERIAL
  5
3E
102
{ACAD_REACTORS
330
3B
102
}
330
3B
100
AcDbMaterial
  1
Global
  0
MLEADERSTYLE
  5
AD
102
{ACAD_REACTORS
330
88
102
}
330
88
100
AcDbMLeaderStyle
179
     2
170
     2
171
     1
172
     0
 90
        2
 40
0.0
 41
0.0
173
     1
 91
-1056964608
340
14
 92
       -2
290
     1
 42
0.09
291
     1
 43
0.36
  3
Standard
 44
0.18
300

342
11
174
     1
178
     6
175
     1
176
     0
 93
-1056964608
 45
0.18
292
     0
297
     0
 46
0.18
 94
-1056964608
 47
1.0
 49
1.0
140
1.0
293
     1
141
0.0
294
     1
177
     0
142
1.0
295
     0
296
     0
143
0.125
271
     0
272
     9
273
     9
298
     0
  0
MLINESTYLE
  5
18
102
{ACAD_REACTORS
330
17
102
}
330
17
100
AcDbMlineStyle
  2
STANDARD
 70
     0
  3

 62
   256
 51
90.0
 52
90.0
 71
     2
 49
0.5
 62
   256
  6
BYLAYER
 49
-0.5
 62
   256
  6
BYLAYER
  0
ACDBPLACEHOLDER
  5
F
102
{ACAD_REACTORS
330
E
102
}
330
E
  0
SCALE
  5
98
102
{ACAD_REACTORS
330
97
102
}
330
97
100
AcDbScale
 70
     0
300
1:1
140
1.0
141
1.0
290
     1
  0
SCALE
  5
99
102
{ACAD_REACTORS
330
97
102
}
330
97
100
AcDbScale
 70
     0
300
1.10
140
1.0
141
10.0
290
     0
  0
SCALE
  5
9A
102
{ACAD_REACTORS
330
97
102
}
330
97
100
AcDbScale
 70
     0
300
1.50
140
1.0
141
50.0
290
     0
  0
SCALE
  5
9B
102
{ACAD_REACTORS
330
97
102
}
330
97
100
AcDbScale
 70
     0
300
1:100
140
1.0
141
100.0
290
     0
  0
SCALE
  5
9C
102
{ACAD_REACTORS
330
97
102
}
330
97
100
AcDbScale
 70
     0
300
1.200
140
1.0
141
200.0
290
     0
  0
SCALE
  5
9D
102
{ACAD_REACTORS
330
97
102
}
330
97
100
AcDbScale
 70
     0
300
1/128" = 1'-0"
140
0.0078125
141
12.0
290
     0
  0
SCALE
  5
9E
102
{ACAD_REACTORS
330
97
102
}
330
97
100
AcDbScale
 70
     0
300
1/64" = 1'-0"
140
0.015625
141
12.0
290
     0
  0
SCALE
  5
9F
102
{ACAD_REACTORS
330
97
102
}
330
97
100
AcDbScale
 70
     0
300
1/32" = 1'-0"
140
0.03125
141
12.0
290
     0
  0
SCALE
  5
A0
102
{ACAD_REACTORS
330
97
102
}
330
97
100
AcDbScale
 70
     0
300
1/16" = 1'-0"
140
0.0625
141
12.0
290
     0
  0
SCALE
  5
A1
102
{ACAD_REACTORS
330
97
102
}
330
97
100
AcDbScale
 70
     0
300
3/32" = 1'-0"
140
0.09375
141
12.0
290
     0
  0
SCALE
  5
A2
102
{ACAD_REACTORS
330
97
102
}
330
97
100
AcDbScale
 70
     0
300
1/8" = 1'-0"
140
0.125
141
12.0
290
     0
  0
SCALE
  5
A3
102
{ACAD_REACTORS
330
97
102
}
330
97
100
AcDbScale
 70
     0
300
3/16" = 1'-0"
140
0.1875
141
12.0
290
     0
  0
SCALE
  5
A4
102
{ACAD_REACTORS
330
97
102
}
330
97
100
AcDbScale
 70
     0
300
1/4" = 1'-0"
140
0.25
141
12.0
290
     0
  0
SCALE
  5
A5
102
{ACAD_REACTORS
330
97
102
}
330
97
100
AcDbScale
 70
     0
300
3/8" = 1'-0"
140
0.375
141
12.0
290
     0
  0
SCALE
  5
A6
102
{ACAD_REACTORS
330
97
102
}
330
97
100
AcDbScale
 70
     0
300
1/2" = 1'-0"
140
0.5
141
12.0
290
     0
  0
SCALE
  5
A7
102
{ACAD_REACTORS
330
97
102
}
330
97
100
AcDbScale
 70
     0
300
3/4" = 1'-0"
140
0.75
141
12.0
290
     0
  0
SCALE
  5
A8
102
{ACAD_REACTORS
330
97
102
}
330
97
100
AcDbScale
 70
     0
300
1" = 1'-0"
140
1.0
141
12.0
290
     0
  0
SCALE
  5
A9
102
{ACAD_REACTORS
330
97
102
}
330
97
100
AcDbScale
 70
     0
300
1-1/2" = 1'-0"
140
1.5
141
12.0
290
     0
  0
SCALE
  5
AA
102
{ACAD_REACTORS
330
97
102
}
330
97
100
AcDbScale
 70
     0
300
3" = 1'-0"
140
3.0
141
12.0
290
     0
  0
SCALE
  5
AB
102
{ACAD_REACTORS
330
97
102
}
330
97
100
AcDbScale
 70
     0
300
6" = 1'-0"
140
6.0
141
12.0
290
     0
  0
SCALE
  5
AC
102
{ACAD_REACTORS
330
97
102
}
330
97
100
AcDbScale
 70
     0
300
1'-0" = 1'-0"
140
12.0
141
12.0
290
     0
  0
ACDBSECTIONVIEWSTYLE
  5
AF
102
{ACAD_XDICTIONARY
360
F1
102
}
102
{ACAD_REACTORS
330
AE
102
}
330
AE
100
AcDbModelDocViewStyle
 70
     0
  3
Imperial24
290
     0
100
AcDbSectionViewStyle
 70
     0
 71
     0
 90
       78
 71
     1
340
11
 62
   256
 40
0.24
340
0
340
0
 62
   256
 40
0.24
300
I, O, Q, S, X, Z
 40
0.48
 90
        3
 40
0.18
 90
        1
 71
     2
340
16
 90
       25
 62
   256
340
16
 90
       50
 62
   256
 40
0.24
 40
0.0
 40
0.24
 71
     3
340
11
 62
   256
 40
0.24
 90
        1
 40
0.75
 90
        1
300
%<\AcVar ViewType \f "%tc1">% %<\AcVar ViewSectionStartId>%-%<\AcVar ViewSectionEndId>%\PSCALA %<\AcVar ViewScale \f "%sn">%
 71
     4
 62
   256
 62
   257
300
ANSI31
 40
1.0
 90
        0
290
     0
290
     0
 90
        6
 40
0.0
 40
1.570796326794896
 40
0.2617993877991494
 40
1.308996938995747
 40
-0.2617993877991494
 40
1.832595714594046
  0
TABLESTYLE
  5
96
102
{ACAD_XDICTIONARY
360
EE
102
}
102
{ACAD_REACTORS
330
87
102
}
330
87
100
AcDbTableStyle
280
     0
  3
Standard
 70
     0
 71
     0
 40
0.06
 41
0.06
280
     0
281
     0
  7
Standard
140
0.18
170
     2
 62
     0
 63
     7
283
     0
 90
      512
 91
        0
  1

274
    -2
284
     1
 64
     0
275
    -2
285
     1
 65
     0
276
    -2
286
     1
 66
     0
277
    -2
287
     1
 67
     0
278
    -2
288
     1
 68
     0
279
    -2
289
     1
 69
     0
  7
Standard
140
0.25
170
     5
 62
     0
 63
     7
283
     0
 90
      512
 91
        0
  1

274
    -2
284
     1
 64
     0
275
    -2
285
     1
 65
     0
276
    -2
286
     1
 66
     0
277
    -2
287
     1
 67
     0
278
    -2
288
     1
 68
     0
279
    -2
289
     1
 69
     0
  7
Standard
140
0.18
170
     5
 62
     0
 63
     7
283
     0
 90
      512
 91
        0
  1

274
    -2
284
     1
 64
     0
275
    -2
285
     1
 65
     0
276
    -2
286
     1
 66
     0
277
    -2
287
     1
 67
     0
278
    -2
288
     1
 68
     0
279
    -2
289
     1
 69
     0
  0
VISUALSTYLE
  5
2F
102
{ACAD_REACTORS
330
2A
102
}
330
2A
100
AcDbVisualStyle
  2
2dWireframe
 70
     4
177
     3
291
     0
 70
    58
 90
        0
176
     1
 90
        2
176
     1
 90
        0
176
     1
 90
        0
176
     1
 40
0.6
176
     1
 40
30.0
176
     1
 62
     7
420
 16777215
176
     1
 90
        1
176
     1
 90
        4
176
     1
 62
     7
176
     1
 62
   257
176
     1
 90
        1
176
     1
 90
        1
176
     1
 40
1.0
176
     1
 90
        0
176
     1
 62
   257
176
     1
 40
1.0
176
     1
 90
        1
176
     1
 90
        6
176
     1
 90
        2
176
     1
 62
     7
176
     1
 90
        5
176
     1
 90
        0
176
     1
 90
        0
176
     1
290
     0
176
     1
 90
        1
176
     1
 40
0.0
176
     1
 90
        0
176
     1
290
     1
176
     1
290
     1
176
     1
290
     0
176
     1
290
     0
176
     1
290
     0
176
     1
290
     0
176
     1
290
     0
176
     1
290
     0
176
     1
290
     0
176
     1
 90
       50
176
     1
 40
0.0
176
     1
 40
1.0
176
     1
 90
        0
176
     1
 62
    18
420
        0
176
     1
 90
       50
176
     1
 90
        3
176
     1
 62
     5
420
      255
176
     1
290
     0
176
     1
 90
       50
176
     1
 90
       50
176
     1
 90
       50
176
     1
290
     0
176
     1
 90
       50
176
     1
 62
   256
176
     0
 40
1.0
176
     0
 90
        2
176
     1
  1
strokes_ogs.tif
176
     1
290
     0
176
     1
 40
1.0
176
     1
 40
1.0
176
     1
1001
ACAD
1000
AcDbSavedByObjectVersion
1070
     0
  0
VISUALSTYLE
  5
31
102
{ACAD_REACTORS
330
2A
102
}
330
2A
100
AcDbVisualStyle
  2
3D Hidden
 70
     6
177
     3
291
     0
 70
    58
 90
        1
176
     1
 90
        2
176
     1
 90
        2
176
     1
 90
        0
176
     1
 40
0.6
176
     1
 40
30.0
176
     1
 62
     7
420
 16777215
176
     1
 90
        2
176
     1
 90
        2
176
     1
 62
     7
176
     1
 62
   257
176
     1
 90
        2
176
     1
 90
        1
176
     1
 40
40.0
176
     1
 90
        0
176
     1
 62
   257
176
     1
 40
1.0
176
     1
 90
        1
176
     1
 90
        6
176
     1
 90
        2
176
     1
 62
     7
176
     1
 90
        3
176
     1
 90
        0
176
     1
 90
        0
176
     1
290
     0
176
     1
 90
        1
176
     1
 40
0.0
176
     1
 90
        0
176
     1
290
     0
176
     1
290
     1
176
     1
290
     1
176
     1
290
     0
176
     1
290
     0
176
     1
290
     0
176
     1
290
     0
176
     1
290
     0
176
     1
290
     0
176
     1
 90
       50
176
     1
 40
0.0
176
     1
 40
1.0
176
     1
 90
        0
176
     1
 62
    18
420
        0
176
     1
 90
       50
176
     1
 90
        3
176
     1
 62
     5
420
      255
176
     1
290
     0
176
     1
 90
       50
176
     1
 90
       50
176
     1
 90
       50
176
     1
290
     0
176
     1
 90
       50
176
     1
 62
   256
176
     0
 40
1.0
176
     0
 90
        2
176
     1
  1
strokes_ogs.tif
176
     1
290
     0
176
     1
 40
1.0
176
     1
 40
1.0
176
     1
1001
ACAD
1000
AcDbSavedByObjectVersion
1070
     0
  0
VISUALSTYLE
  5
30
102
{ACAD_REACTORS
330
2A
102
}
330
2A
100
AcDbVisualStyle
  2
3dWireframe
 70
     5
177
     3
291
     0
 70
    58
 90
        0
176
     1
 90
        2
176
     1
 90
        0
176
     1
 90
        0
176
     1
 40
0.6
176
     1
 40
30.0
176
     1
 62
     7
420
 16777215
176
     1
 90
        1
176
     1
 90
        4
176
     1
 62
     7
176
     1
 62
   257
176
     1
 90
        1
176
     1
 90
        1
176
     1
 40
1.0
176
     1
 90
        0
176
     1
 62
   257
176
     1
 40
1.0
176
     1
 90
        1
176
     1
 90
        6
176
     1
 90
        2
176
     1
 62
     7
176
     1
 90
        5
176
     1
 90
        0
176
     1
 90
        0
176
     1
290
     0
176
     1
 90
        1
176
     1
 40
0.0
176
     1
 90
        0
176
     1
290
     0
176
     1
290
     1
176
     1
290
     1
176
     1
290
     0
176
     1
290
     0
176
     1
290
     0
176
     1
290
     0
176
     1
290
     0
176
     1
290
     0
176
     1
 90
       50
176
     1
 40
0.0
176
     1
 40
1.0
176
     1
 90
        0
176
     1
 62
    18
420
        0
176
     1
 90
       50
176
     1
 90
        3
176
     1
 62
     5
420
      255
176
     1
290
     0
176
     1
 90
       50
176
     1
 90
       50
176
     1
 90
       50
176
     1
290
     0
176
     1
 90
       50
176
     1
 62
   256
176
     0
 40
1.0
176
     0
 90
        2
176
     1
  1
strokes_ogs.tif
176
     1
290
     0
176
     1
 40
1.0
176
     1
 40
1.0
176
     1
1001
ACAD
1000
AcDbSavedByObjectVersion
1070
     0
  0
VISUALSTYLE
  5
32
102
{ACAD_REACTORS
330
2A
102
}
330
2A
100
AcDbVisualStyle
  2
Basic
 70
     7
177
     3
291
     1
 70
    58
 90
        1
176
     1
 90
        0
176
     1
 90
        1
176
     1
 90
        0
176
     1
 40
0.6
176
     1
 40
30.0
176
     1
 62
     7
420
 16777215
176
     1
 90
        0
176
     1
 90
        4
176
     1
 62
     7
176
     1
 62
   257
176
     1
 90
        1
176
     1
 90
        1
176
     1
 40
1.0
176
     1
 90
        8
176
     1
 62
     7
176
     1
 40
1.0
176
     1
 90
        1
176
     1
 90
        6
176
     1
 90
        2
176
     1
 62
     7
176
     1
 90
        5
176
     1
 90
        0
176
     1
 90
        0
176
     1
290
     0
176
     1
 90
        1
176
     1
 40
0.0
176
     1
 90
        0
176
     1
290
     0
176
     1
290
     1
176
     1
290
     1
176
     1
290
     0
176
     1
290
     0
176
     1
290
     0
176
     1
290
     0
176
     1
290
     0
176
     1
290
     0
176
     1
 90
       50
176
     1
 40
0.0
176
     1
 40
1.0
176
     1
 90
        0
176
     1
 62
    18
420
        0
176
     1
 90
       50
176
     1
 90
        3
176
     1
 62
     5
420
      255
176
     1
290
     0
176
     1
 90
       50
176
     1
 90
       50
176
     1
 90
       50
176
     1
290
     0
176
     1
 90
       50
176
     1
 62
   256
176
     0
 40
1.0
176
     0
 90
        2
176
     1
  1
strokes_ogs.tif
176
     1
290
     0
176
     1
 40
1.0
176
     1
 40
1.0
176
     1
1001
ACAD
1000
AcDbSavedByObjectVersion
1070
     0
  0
VISUALSTYLE
  5
36
102
{ACAD_REACTORS
330
2A
102
}
330
2A
100
AcDbVisualStyle
  2
Brighten
 70
    12
177
     3
291
     1
 70
    58
 90
        2
176
     1
 90
        2
176
     1
 90
        0
176
     1
 90
        0
176
     1
 40
0.6
176
     1
 40
30.0
176
     1
 62
     7
420
 16777215
176
     1
 90
        1
176
     1
 90
        4
176
     1
 62
     7
176
     1
 62
   257
176
     1
 90
        1
176
     1
 90
        1
176
     1
 40
1.0
176
     1
 90
        8
176
     1
 62
     7
176
     1
 40
1.0
176
     1
 90
        1
176
     1
 90
        6
176
     1
 90
        2
176
     1
 62
     7
176
     1
 90
        5
176
     1
 90
        0
176
     1
 90
        0
176
     1
290
     0
176
     1
 90
        1
176
     1
 40
50.0
176
     1
 90
        0
176
     1
290
     0
176
     1
290
     1
176
     1
290
     1
176
     1
290
     0
176
     1
290
     0
176
     1
290
     0
176
     1
290
     0
176
     1
290
     0
176
     1
290
     0
176
     1
 90
       50
176
     1
 40
0.0
176
     1
 40
1.0
176
     1
 90
        0
176
     1
 62
    18
420
        0
176
     1
 90
       50
176
     1
 90
        3
176
     1
 62
     5
420
      255
176
     1
290
     0
176
     1
 90
       50
176
     1
 90
       50
176
     1
 90
       50
176
     1
290
     0
176
     1
 90
       50
176
     1
 62
   256
176
     0
 40
1.0
176
     0
 90
        2
176
     1
  1
strokes_ogs.tif
176
     1
290
     0
176
     1
 40
1.0
176
     1
 40
1.0
176
     1
1001
ACAD
1000
AcDbSavedByObjectVersion
1070
     0
  0
VISUALSTYLE
  5
3A
102
{ACAD_REACTORS
330
2A
102
}
330
2A
100
AcDbVisualStyle
  2
ColorChange
 70
    16
177
     3
291
     1
 70
    58
 90
        2
176
     1
 90
        2
176
     1
 90
        3
176
     1
 90
        0
176
     1
 40
0.6
176
     1
 40
30.0
176
     1
 62
     8
420
  8421504
176
     1
 90
        1
176
     1
 90
        4
176
     1
 62
     7
176
     1
 62
   257
176
     1
 90
        1
176
     1
 90
        1
176
     1
 40
1.0
176
     1
 90
        8
176
     1
 62
     8
420
  8421504
176
     1
 40
1.0
176
     1
 90
        1
176
     1
 90
        6
176
     1
 90
        2
176
     1
 62
     7
176
     1
 90
        5
176
     1
 90
        0
176
     1
 90
        0
176
     1
290
     0
176
     1
 90
        1
176
     1
 40
0.0
176
     1
 90
        0
176
     1
290
     0
176
     1
290
     1
176
     1
290
     1
176
     1
290
     0
176
     1
290
     0
176
     1
290
     0
176
     1
290
     0
176
     1
290
     0
176
     1
290
     0
176
     1
 90
       50
176
     1
 40
0.0
176
     1
 40
1.0
176
     1
 90
        0
176
     1
 62
    18
420
        0
176
     1
 90
       50
176
     1
 90
        3
176
     1
 62
     5
420
      255
176
     1
290
     0
176
     1
 90
       50
176
     1
 90
       50
176
     1
 90
       50
176
     1
290
     0
176
     1
 90
       50
176
     1
 62
   256
176
     0
 40
1.0
176
     0
 90
        2
176
     1
  1
strokes_ogs.tif
176
     1
290
     0
176
     1
 40
1.0
176
     1
 40
1.0
176
     1
1001
ACAD
1000
AcDbSavedByObjectVersion
1070
     0
  0
VISUALSTYLE
  5
34
102
{ACAD_REACTORS
330
2A
102
}
330
2A
100
AcDbVisualStyle
  2
Conceptual
 70
     9
177
     3
291
     0
 70
    58
 90
        3
176
     1
 90
        2
176
     1
 90
        0
176
     1
 90
        0
176
     1
 40
0.6
176
     1
 40
30.0
176
     1
 62
     7
420
 16777215
176
     1
 90
        2
176
     1
 90
        2
176
     1
 62
     7
176
     1
 62
   257
176
     1
 90
        1
176
     1
 90
        1
176
     1
 40
40.0
176
     1
 90
        8
176
     1
 62
     7
176
     1
 40
1.0
176
     1
 90
        1
176
     1
 90
        6
176
     1
 90
        2
176
     1
 62
     7
176
     1
 90
        3
176
     1
 90
        0
176
     1
 90
        0
176
     1
290
     0
176
     1
 90
        1
176
     1
 40
0.0
176
     1
 90
        0
176
     1
290
     0
176
     1
290
     1
176
     1
290
     1
176
     1
290
     0
176
     1
290
     0
176
     1
290
     0
176
     1
290
     0
176
     1
290
     0
176
     1
290
     0
176
     1
 90
       50
176
     1
 40
0.0
176
     1
 40
1.0
176
     1
 90
        0
176
     1
 62
    18
420
        0
176
     1
 90
       50
176
     1
 90
        3
176
     1
 62
     5
420
      255
176
     1
290
     0
176
     1
 90
       50
176
     1
 90
       50
176
     1
 90
       50
176
     1
290
     0
176
     1
 90
       50
176
     1
 62
   256
176
     0
 40
1.0
176
     0
 90
        2
176
     1
  1
strokes_ogs.tif
176
     1
290
     0
176
     1
 40
1.0
176
     1
 40
1.0
176
     1
1001
ACAD
1000
AcDbSavedByObjectVersion
1070
     0
  0
VISUALSTYLE
  5
35
102
{ACAD_REACTORS
330
2A
102
}
330
2A
100
AcDbVisualStyle
  2
Dim
 70
    11
177
     3
291
     1
 70
    58
 90
        2
176
     1
 90
        2
176
     1
 90
        0
176
     1
 90
        0
176
     1
 40
0.6
176
     1
 40
30.0
176
     1
 62
     7
420
 16777215
176
     1
 90
        1
176
     1
 90
        4
176
     1
 62
     7
176
     1
 62
   257
176
     1
 90
        1
176
     1
 90
        1
176
     1
 40
1.0
176
     1
 90
        8
176
     1
 62
     7
176
     1
 40
1.0
176
     1
 90
        1
176
     1
 90
        6
176
     1
 90
        2
176
     1
 62
     7
176
     1
 90
        5
176
     1
 90
        0
176
     1
 90
        0
176
     1
290
     0
176
     1
 90
        1
176
     1
 40
-50.0
176
     1
 90
        0
176
     1
290
     0
176
     1
290
     1
176
     1
290
     1
176
     1
290
     0
176
     1
290
     0
176
     1
290
     0
176
     1
290
     0
176
     1
290
     0
176
     1
290
     0
176
     1
 90
       50
176
     1
 40
0.0
176
     1
 40
1.0
176
     1
 90
        0
176
     1
 62
    18
420
        0
176
     1
 90
       50
176
     1
 90
        3
176
     1
 62
     5
420
      255
176
     1
290
     0
176
     1
 90
       50
176
     1
 90
       50
176
     1
 90
       50
176
     1
290
     0
176
     1
 90
       50
176
     1
 62
   256
176
     0
 40
1.0
176
     0
 90
        2
176
     1
  1
strokes_ogs.tif
176
     1
290
     0
176
     1
 40
1.0
176
     1
 40
1.0
176
     1
1001
ACAD
1000
AcDbSavedByObjectVersion
1070
     0
  0
VISUALSTYLE
  5
94
102
{ACAD_REACTORS
330
2A
102
}
330
2A
100
AcDbVisualStyle
  2
EdgeColorOff
 70
    22
177
     3
291
     1
 70
    58
 90
        2
176
     0
 90
        2
176
     0
 90
        0
176
     0
 90
        0
176
     0
 40
0.6
176
     0
 40
30.0
176
     0
 62
     7
420
 16777215
176
     0
 90
        1
176
     0
 90
        4
176
     0
 62
     7
176
     0
 62
   257
176
     0
 90
        1
176
     0
 90
        1
176
     0
 40
1.0
176
     0
 90
        8
176
     2
 62
     7
176
     0
 40
1.0
176
     0
 90
        1
176
     0
 90
        6
176
     0
 90
        2
176
     0
 62
     7
176
     0
 90
        5
176
     0
 90
        0
176
     0
 90
        0
176
     0
290
     0
176
     0
 90
        1
176
     0
 40
0.0
176
     0
 90
        0
176
     0
290
     0
176
     1
290
     1
176
     1
290
     1
176
     1
290
     0
176
     1
290
     0
176
     1
290
     0
176
     1
290
     0
176
     1
290
     0
176
     1
290
     0
176
     1
 90
       50
176
     0
 40
0.0
176
     0
 40
1.0
176
     0
 90
        0
176
     0
 62
    18
420
        0
176
     0
 90
       50
176
     0
 90
        3
176
     0
 62
     5
420
      255
176
     0
290
     0
176
     1
 90
       50
176
     0
 90
       50
176
     0
 90
       50
176
     0
290
     0
176
     1
 90
       50
176
     0
 62
   256
176
     0
 40
1.0
176
     0
 90
        2
176
     0
  1
strokes_ogs.tif
176
     0
290
     0
176
     1
 40
1.0
176
     0
 40
1.0
176
     0
1001
ACAD
1000
AcDbSavedByObjectVersion
1070
     0
  0
VISUALSTYLE
  5
39
102
{ACAD_REACTORS
330
2A
102
}
330
2A
100
AcDbVisualStyle
  2
Facepattern
 70
    15
177
     3
291
     1
 70
    58
 90
        2
176
     1
 90
        2
176
     1
 90
        0
176
     1
 90
        0
176
     1
 40
0.6
176
     1
 40
30.0
176
     1
 62
     7
420
 16777215
176
     1
 90
        1
176
     1
 90
        4
176
     1
 62
     7
176
     1
 62
   257
176
     1
 90
        1
176
     1
 90
        1
176
     1
 40
1.0
176
     1
 90
        8
176
     1
 62
     7
176
     1
 40
1.0
176
     1
 90
        1
176
     1
 90
        6
176
     1
 90
        2
176
     1
 62
     7
176
     1
 90
        5
176
     1
 90
        0
176
     1
 90
        0
176
     1
290
     0
176
     1
 90
        1
176
     1
 40
0.0
176
     1
 90
        0
176
     1
290
     0
176
     1
290
     1
176
     1
290
     1
176
     1
290
     0
176
     1
290
     0
176
     1
290
     0
176
     1
290
     0
176
     1
290
     0
176
     1
290
     0
176
     1
 90
       50
176
     1
 40
0.0
176
     1
 40
1.0
176
     1
 90
        0
176
     1
 62
    18
420
        0
176
     1
 90
       50
176
     1
 90
        3
176
     1
 62
     5
420
      255
176
     1
290
     0
176
     1
 90
       50
176
     1
 90
       50
176
     1
 90
       50
176
     1
290
     0
176
     1
 90
       50
176
     1
 62
   256
176
     0
 40
1.0
176
     0
 90
        2
176
     1
  1
strokes_ogs.tif
176
     1
290
     0
176
     1
 40
1.0
176
     1
 40
1.0
176
     1
1001
ACAD
1000
AcDbSavedByObjectVersion
1070
     0
  0
VISUALSTYLE
  5
2B
102
{ACAD_REACTORS
330
2A
102
}
330
2A
100
AcDbVisualStyle
  2
Flat
 70
     0
177
     3
291
     1
 70
    58
 90
        2
176
     1
 90
        1
176
     1
 90
        1
176
     1
 90
        2
176
     1
 40
0.6
176
     1
 40
30.0
176
     1
 62
     7
420
 16777215
176
     1
 90
        0
176
     1
 90
        4
176
     1
 62
     7
176
     1
 62
   257
176
     1
 90
        1
176
     1
 90
        1
176
     1
 40
1.0
176
     1
 90
        8
176
     1
 62
     7
176
     1
 40
1.0
176
     1
 90
        1
176
     1
 90
        6
176
     1
 90
        2
176
     1
 62
     7
176
     1
 90
        5
176
     1
 90
        0
176
     1
 90
        0
176
     1
290
     0
176
     1
 90
       13
176
     1
 40
0.0
176
     1
 90
        0
176
     1
290
     0
176
     1
290
     1
176
     1
290
     1
176
     1
290
     0
176
     1
290
     0
176
     1
290
     0
176
     1
290
     0
176
     1
290
     0
176
     1
290
     0
176
     1
 90
       50
176
     1
 40
0.0
176
     1
 40
1.0
176
     1
 90
        0
176
     1
 62
    18
420
        0
176
     1
 90
       50
176
     1
 90
        3
176
     1
 62
     5
420
      255
176
     1
290
     0
176
     1
 90
       50
176
     1
 90
       50
176
     1
 90
       50
176
     1
290
     0
176
     1
 90
       50
176
     1
 62
   256
176
     0
 40
1.0
176
     0
 90
        2
176
     1
  1
strokes_ogs.tif
176
     1
290
     0
176
     1
 40
1.0
176
     1
 40
1.0
176
     1
1001
ACAD
1000
AcDbSavedByObjectVersion
1070
     0
  0
VISUALSTYLE
  5
2C
102
{ACAD_REACTORS
330
2A
102
}
330
2A
100
AcDbVisualStyle
  2
FlatWithEdges
 70
     1
177
     3
291
     1
 70
    58
 90
        2
176
     1
 90
        1
176
     1
 90
        1
176
     1
 90
        2
176
     1
 40
0.6
176
     1
 40
30.0
176
     1
 62
     7
420
 16777215
176
     1
 90
        1
176
     1
 90
        4
176
     1
 62
     7
176
     1
 62
   257
176
     1
 90
        1
176
     1
 90
        1
176
     1
 40
1.0
176
     1
 90
        0
176
     1
 62
   257
176
     1
 40
1.0
176
     1
 90
        1
176
     1
 90
        6
176
     1
 90
        2
176
     1
 62
     7
176
     1
 90
        5
176
     1
 90
        0
176
     1
 90
        0
176
     1
290
     0
176
     1
 90
       13
176
     1
 40
0.0
176
     1
 90
        0
176
     1
290
     0
176
     1
290
     1
176
     1
290
     1
176
     1
290
     0
176
     1
290
     0
176
     1
290
     0
176
     1
290
     0
176
     1
290
     0
176
     1
290
     0
176
     1
 90
       50
176
     1
 40
0.0
176
     1
 40
1.0
176
     1
 90
        0
176
     1
 62
    18
420
        0
176
     1
 90
       50
176
     1
 90
        3
176
     1
 62
     5
420
      255
176
     1
290
     0
176
     1
 90
       50
176
     1
 90
       50
176
     1
 90
       50
176
     1
290
     0
176
     1
 90
       50
176
     1
 62
   256
176
     0
 40
1.0
176
     0
 90
        2
176
     1
  1
strokes_ogs.tif
176
     1
290
     0
176
     1
 40
1.0
176
     1
 40
1.0
176
     1
1001
ACAD
1000
AcDbSavedByObjectVersion
1070
     0
  0
VISUALSTYLE
  5
2D
102
{ACAD_REACTORS
330
2A
102
}
330
2A
100
AcDbVisualStyle
  2
Gouraud
 70
     2
177
     3
291
     1
 70
    58
 90
        2
176
     1
 90
        2
176
     1
 90
        1
176
     1
 90
        2
176
     1
 40
0.6
176
     1
 40
30.0
176
     1
 62
     7
420
 16777215
176
     1
 90
        0
176
     1
 90
        4
176
     1
 62
     7
176
     1
 62
   257
176
     1
 90
        1
176
     1
 90
        1
176
     1
 40
1.0
176
     1
 90
        0
176
     1
 62
     7
176
     1
 40
1.0
176
     1
 90
        1
176
     1
 90
        6
176
     1
 90
        2
176
     1
 62
     7
176
     1
 90
        5
176
     1
 90
        0
176
     1
 90
        0
176
     1
290
     0
176
     1
 90
       13
176
     1
 40
0.0
176
     1
 90
        0
176
     1
290
     0
176
     1
290
     1
176
     1
290
     1
176
     1
290
     0
176
     1
290
     0
176
     1
290
     0
176
     1
290
     0
176
     1
290
     0
176
     1
290
     0
176
     1
 90
       50
176
     1
 40
0.0
176
     1
 40
1.0
176
     1
 90
        0
176
     1
 62
    18
420
        0
176
     1
 90
       50
176
     1
 90
        3
176
     1
 62
     5
420
      255
176
     1
290
     0
176
     1
 90
       50
176
     1
 90
       50
176
     1
 90
       50
176
     1
290
     0
176
     1
 90
       50
176
     1
 62
   256
176
     0
 40
1.0
176
     0
 90
        2
176
     1
  1
strokes_ogs.tif
176
     1
290
     0
176
     1
 40
1.0
176
     1
 40
1.0
176
     1
1001
ACAD
1000
AcDbSavedByObjectVersion
1070
     0
  0
VISUALSTYLE
  5
2E
102
{ACAD_REACTORS
330
2A
102
}
330
2A
100
AcDbVisualStyle
  2
GouraudWithEdges
 70
     3
177
     3
291
     1
 70
    58
 90
        2
176
     1
 90
        2
176
     1
 90
        1
176
     1
 90
        2
176
     1
 40
0.6
176
     1
 40
30.0
176
     1
 62
     7
420
 16777215
176
     1
 90
        1
176
     1
 90
        4
176
     1
 62
     7
176
     1
 62
   257
176
     1
 90
        1
176
     1
 90
        1
176
     1
 40
1.0
176
     1
 90
        0
176
     1
 62
   257
176
     1
 40
1.0
176
     1
 90
        1
176
     1
 90
        6
176
     1
 90
        2
176
     1
 62
     7
176
     1
 90
        5
176
     1
 90
        0
176
     1
 90
        0
176
     1
290
     0
176
     1
 90
       13
176
     1
 40
0.0
176
     1
 90
        0
176
     1
290
     0
176
     1
290
     1
176
     1
290
     1
176
     1
290
     0
176
     1
290
     0
176
     1
290
     0
176
     1
290
     0
176
     1
290
     0
176
     1
290
     0
176
     1
 90
       50
176
     1
 40
0.0
176
     1
 40
1.0
176
     1
 90
        0
176
     1
 62
    18
420
        0
176
     1
 90
       50
176
     1
 90
        3
176
     1
 62
     5
420
      255
176
     1
290
     0
176
     1
 90
       50
176
     1
 90
       50
176
     1
 90
       50
176
     1
290
     0
176
     1
 90
       50
176
     1
 62
   256
176
     0
 40
1.0
176
     0
 90
        2
176
     1
  1
strokes_ogs.tif
176
     1
290
     0
176
     1
 40
1.0
176
     1
 40
1.0
176
     1
1001
ACAD
1000
AcDbSavedByObjectVersion
1070
     0
  0
VISUALSTYLE
  5
8C
102
{ACAD_REACTORS
330
2A
102
}
330
2A
100
AcDbVisualStyle
  2
Hidden
 70
     6
177
     3
291
     0
 70
    58
 90
        1
176
     1
 90
        2
176
     1
 90
        2
176
     1
 90
        0
176
     1
 40
0.6
176
     1
 40
30.0
176
     1
 62
     7
420
 16777215
176
     1
 90
        2
176
     1
 90
        2
176
     1
 62
     7
176
     1
 62
   257
176
     1
 90
        2
176
     1
 90
        1
176
     1
 40
40.0
176
     1
 90
        0
176
     1
 62
   257
176
     1
 40
1.0
176
     1
 90
        1
176
     1
 90
        6
176
     1
 90
        2
176
     1
 62
     7
176
     1
 90
        3
176
     1
 90
        0
176
     1
 90
        0
176
     1
290
     0
176
     1
 90
        1
176
     1
 40
0.0
176
     1
 90
        0
176
     1
290
     0
176
     1
290
     1
176
     1
290
     1
176
     1
290
     0
176
     1
290
     0
176
     1
290
     0
176
     1
290
     0
176
     1
290
     0
176
     1
290
     0
176
     1
 90
       50
176
     1
 40
0.0
176
     1
 40
1.0
176
     1
 90
        0
176
     1
 62
    18
420
        0
176
     1
 90
       50
176
     1
 90
        3
176
     1
 62
     5
420
      255
176
     1
290
     0
176
     1
 90
       50
176
     1
 90
       50
176
     1
 90
       50
176
     1
290
     0
176
     1
 90
       50
176
     1
 62
   256
176
     0
 40
1.0
176
     0
 90
        2
176
     1
  1
strokes_ogs.tif
176
     1
290
     0
176
     1
 40
1.0
176
     1
 40
1.0
176
     1
1001
ACAD
1000
AcDbSavedByObjectVersion
1070
     0
  0
VISUALSTYLE
  5
92
102
{ACAD_REACTORS
330
2A
102
}
330
2A
100
AcDbVisualStyle
  2
JitterOff
 70
    20
177
     3
291
     1
 70
    58
 90
        2
176
     0
 90
        2
176
     0
 90
        0
176
     0
 90
        0
176
     0
 40
0.6
176
     0
 40
30.0
176
     0
 62
     7
420
 16777215
176
     0
 90
        1
176
     0
 90
        4
176
     0
 62
     7
176
     0
 62
   257
176
     0
 90
        1
176
     0
 90
        1
176
     0
 40
1.0
176
     0
 90
       10
176
     2
 62
     7
176
     0
 40
1.0
176
     0
 90
        1
176
     0
 90
        6
176
     0
 90
        2
176
     0
 62
     7
176
     0
 90
        5
176
     0
 90
        0
176
     0
 90
        0
176
     0
290
     0
176
     0
 90
        1
176
     0
 40
0.0
176
     0
 90
        0
176
     0
290
     0
176
     1
290
     1
176
     1
290
     1
176
     1
290
     0
176
     1
290
     0
176
     1
290
     0
176
     1
290
     0
176
     1
290
     0
176
     1
290
     0
176
     1
 90
       50
176
     0
 40
0.0
176
     0
 40
1.0
176
     0
 90
        0
176
     0
 62
    18
420
        0
176
     0
 90
       50
176
     0
 90
        3
176
     0
 62
     5
420
      255
176
     0
290
     0
176
     1
 90
       50
176
     0
 90
       50
176
     0
 90
       50
176
     0
290
     0
176
     1
 90
       50
176
     0
 62
   256
176
     0
 40
1.0
176
     0
 90
        2
176
     0
  1
strokes_ogs.tif
176
     0
290
     0
176
     1
 40
1.0
176
     0
 40
1.0
176
     0
1001
ACAD
1000
AcDbSavedByObjectVersion
1070
     0
  0
VISUALSTYLE
  5
38
102
{ACAD_REACTORS
330
2A
102
}
330
2A
100
AcDbVisualStyle
  2
Linepattern
 70
    14
177
     3
291
     1
 70
    58
 90
        2
176
     1
 90
        2
176
     1
 90
        0
176
     1
 90
        0
176
     1
 40
0.6
176
     1
 40
30.0
176
     1
 62
     7
420
 16777215
176
     1
 90
        1
176
     1
 90
        4
176
     1
 62
     7
176
     1
 62
   257
176
     1
 90
        7
176
     1
 90
        7
176
     1
 40
1.0
176
     1
 90
        8
176
     1
 62
     7
176
     1
 40
1.0
176
     1
 90
        1
176
     1
 90
        6
176
     1
 90
        2
176
     1
 62
     7
176
     1
 90
        5
176
     1
 90
        0
176
     1
 90
        0
176
     1
290
     0
176
     1
 90
        1
176
     1
 40
0.0
176
     1
 90
        0
176
     1
290
     0
176
     1
290
     1
176
     1
290
     1
176
     1
290
     0
176
     1
290
     0
176
     1
290
     0
176
     1
290
     0
176
     1
290
     0
176
     1
290
     0
176
     1
 90
       50
176
     1
 40
0.0
176
     1
 40
1.0
176
     1
 90
        0
176
     1
 62
    18
420
        0
176
     1
 90
       50
176
     1
 90
        3
176
     1
 62
     5
420
      255
176
     1
290
     0
176
     1
 90
       50
176
     1
 90
       50
176
     1
 90
       50
176
     1
290
     0
176
     1
 90
       50
176
     1
 62
   256
176
     0
 40
1.0
176
     0
 90
        2
176
     1
  1
strokes_ogs.tif
176
     1
290
     0
176
     1
 40
1.0
176
     1
 40
1.0
176
     1
1001
ACAD
1000
AcDbSavedByObjectVersion
1070
     0
  0
VISUALSTYLE
  5
93
102
{ACAD_REACTORS
330
2A
102
}
330
2A
100
AcDbVisualStyle
  2
OverhangOff
 70
    21
177
     3
291
     1
 70
    58
 90
        2
176
     0
 90
        2
176
     0
 90
        0
176
     0
 90
        0
176
     0
 40
0.6
176
     0
 40
30.0
176
     0
 62
     7
420
 16777215
176
     0
 90
        1
176
     0
 90
        4
176
     0
 62
     7
176
     0
 62
   257
176
     0
 90
        1
176
     0
 90
        1
176
     0
 40
1.0
176
     0
 90
        9
176
     2
 62
     7
176
     0
 40
1.0
176
     0
 90
        1
176
     0
 90
        6
176
     0
 90
        2
176
     0
 62
     7
176
     0
 90
        5
176
     0
 90
        0
176
     0
 90
        0
176
     0
290
     0
176
     0
 90
        1
176
     0
 40
0.0
176
     0
 90
        0
176
     0
290
     0
176
     1
290
     1
176
     1
290
     1
176
     1
290
     0
176
     1
290
     0
176
     1
290
     0
176
     1
290
     0
176
     1
290
     0
176
     1
290
     0
176
     1
 90
       50
176
     0
 40
0.0
176
     0
 40
1.0
176
     0
 90
        0
176
     0
 62
    18
420
        0
176
     0
 90
       50
176
     0
 90
        3
176
     0
 62
     5
420
      255
176
     0
290
     0
176
     1
 90
       50
176
     0
 90
       50
176
     0
 90
       50
176
     0
290
     0
176
     1
 90
       50
176
     0
 62
   256
176
     0
 40
1.0
176
     0
 90
        2
176
     0
  1
strokes_ogs.tif
176
     0
290
     0
176
     1
 40
1.0
176
     0
 40
1.0
176
     0
1001
ACAD
1000
AcDbSavedByObjectVersion
1070
     0
  0
VISUALSTYLE
  5
33
102
{ACAD_REACTORS
330
2A
102
}
330
2A
100
AcDbVisualStyle
  2
Realistic
 70
     8
177
     3
291
     0
 70
    58
 90
        2
176
     1
 90
        2
176
     1
 90
        0
176
     1
 90
        0
176
     1
 40
0.6
176
     1
 40
30.0
176
     1
 62
     7
420
 16777215
176
     1
 90
        1
176
     1
 90
        0
176
     1
 62
     7
176
     1
 62
   257
176
     1
 90
        1
176
     1
 90
        1
176
     1
 40
1.0
176
     1
 90
        8
176
     1
 62
     8
420
  7895160
176
     1
 40
1.0
176
     1
 90
        1
176
     1
 90
        6
176
     1
 90
        2
176
     1
 62
     7
176
     1
 90
        5
176
     1
 90
        0
176
     1
 90
        0
176
     1
290
     0
176
     1
 90
       13
176
     1
 40
0.0
176
     1
 90
        0
176
     1
290
     0
176
     1
290
     1
176
     1
290
     1
176
     1
290
     0
176
     1
290
     0
176
     1
290
     0
176
     1
290
     0
176
     1
290
     0
176
     1
290
     0
176
     1
 90
       50
176
     1
 40
0.0
176
     1
 40
1.0
176
     1
 90
        0
176
     1
 62
    18
420
        0
176
     1
 90
       50
176
     1
 90
        3
176
     1
 62
     5
420
      255
176
     1
290
     0
176
     1
 90
       50
176
     1
 90
       50
176
     1
 90
       50
176
     1
290
     0
176
     1
 90
       50
176
     1
 62
   256
176
     0
 40
1.0
176
     0
 90
        2
176
     1
  1
strokes_ogs.tif
176
     1
290
     0
176
     1
 40
1.0
176
     1
 40
1.0
176
     1
1001
ACAD
1000
AcDbSavedByObjectVersion
1070
     0
  0
VISUALSTYLE
  5
91
102
{ACAD_REACTORS
330
2A
102
}
330
2A
100
AcDbVisualStyle
  2
Shaded
 70
    27
177
     3
291
     0
 70
    58
 90
        2
176
     1
 90
        2
176
     1
 90
        1
176
     1
 90
        2
176
     1
 40
0.6
176
     1
 40
30.0
176
     1
 62
     7
420
 16777215
176
     1
 90
        0
176
     1
 90
        4
176
     1
 62
     7
176
     1
 62
   257
176
     1
 90
        1
176
     1
 90
        1
176
     1
 40
1.0
176
     1
 90
        8
176
     1
 62
   257
176
     1
 40
1.0
176
     1
 90
        1
176
     1
 90
        6
176
     1
 90
        2
176
     1
 62
     8
420
  7895160
176
     1
 90
        3
176
     1
 90
        0
176
     1
 90
        0
176
     1
290
     0
176
     1
 90
        5
176
     1
 40
0.0
176
     1
 90
        0
176
     1
290
     0
176
     1
290
     1
176
     1
290
     1
176
     1
290
     0
176
     1
290
     0
176
     1
290
     0
176
     1
290
     0
176
     1
290
     0
176
     1
290
     0
176
     1
 90
       50
176
     1
 40
0.0
176
     1
 40
1.0
176
     1
 90
        0
176
     1
 62
    18
420
        0
176
     1
 90
       50
176
     1
 90
        3
176
     1
 62
     5
420
      255
176
     1
290
     0
176
     1
 90
       50
176
     1
 90
       50
176
     1
 90
       50
176
     1
290
     0
176
     1
 90
       50
176
     1
 62
   256
176
     0
 40
1.0
176
     0
 90
        2
176
     1
  1
strokes_ogs.tif
176
     1
290
     0
176
     1
 40
1.0
176
     1
 40
1.0
176
     1
1001
ACAD
1000
AcDbSavedByObjectVersion
1070
     0
  0
VISUALSTYLE
  5
90
102
{ACAD_REACTORS
330
2A
102
}
330
2A
100
AcDbVisualStyle
  2
Shaded with edges
 70
    26
177
     3
291
     0
 70
    58
 90
        2
176
     1
 90
        2
176
     1
 90
        1
176
     1
 90
        2
176
     1
 40
0.6
176
     1
 40
30.0
176
     1
 62
     7
420
 16777215
176
     1
 90
        1
176
     1
 90
        2
176
     1
 62
     7
176
     1
 62
   257
176
     1
 90
        2
176
     1
 90
        1
176
     1
 40
1.0
176
     1
 90
        8
176
     1
 62
   257
176
     1
 40
1.0
176
     1
 90
        1
176
     1
 90
        6
176
     1
 90
        2
176
     1
 62
     7
176
     1
 90
        3
176
     1
 90
        0
176
     1
 90
        0
176
     1
290
     0
176
     1
 90
        5
176
     1
 40
0.0
176
     1
 90
        0
176
     1
290
     0
176
     1
290
     1
176
     1
290
     1
176
     1
290
     0
176
     1
290
     0
176
     1
290
     0
176
     1
290
     0
176
     1
290
     0
176
     1
290
     0
176
     1
 90
       50
176
     1
 40
0.0
176
     1
 40
1.0
176
     1
 90
        0
176
     1
 62
    18
420
        0
176
     1
 90
       50
176
     1
 90
        3
176
     1
 62
     5
420
      255
176
     1
290
     0
176
     1
 90
       50
176
     1
 90
       50
176
     1
 90
       50
176
     1
290
     0
176
     1
 90
       50
176
     1
 62
   256
176
     0
 40
1.0
176
     0
 90
        2
176
     1
  1
strokes_ogs.tif
176
     1
290
     0
176
     1
 40
1.0
176
     1
 40
1.0
176
     1
1001
ACAD
1000
AcDbSavedByObjectVersion
1070
     0
  0
VISUALSTYLE
  5
8D
102
{ACAD_REACTORS
330
2A
102
}
330
2A
100
AcDbVisualStyle
  2
Shades of Gray
 70
    23
177
     3
291
     0
 70
    58
 90
        2
176
     1
 90
        2
176
     1
 90
        3
176
     1
 90
        0
176
     1
 40
0.6
176
     1
 40
30.0
176
     1
 62
     7
420
 16777215
176
     1
 90
        2
176
     1
 90
        2
176
     1
 62
     7
176
     1
 62
     7
176
     1
 90
        1
176
     1
 90
        1
176
     1
 40
40.0
176
     1
 90
        8
176
     1
 62
     7
176
     1
 40
1.0
176
     1
 90
        1
176
     1
 90
        6
176
     1
 90
        2
176
     1
 62
     7
176
     1
 90
        3
176
     1
 90
        0
176
     1
 90
        0
176
     1
290
     0
176
     1
 90
        1
176
     1
 40
0.0
176
     1
 90
        0
176
     1
290
     0
176
     1
290
     1
176
     1
290
     1
176
     1
290
     0
176
     1
290
     0
176
     1
290
     0
176
     1
290
     0
176
     1
290
     0
176
     1
290
     0
176
     1
 90
       50
176
     1
 40
0.0
176
     1
 40
1.0
176
     1
 90
        0
176
     1
 62
    18
420
        0
176
     1
 90
       50
176
     1
 90
        3
176
     1
 62
     5
420
      255
176
     1
290
     0
176
     1
 90
       50
176
     1
 90
       50
176
     1
 90
       50
176
     1
290
     0
176
     1
 90
       50
176
     1
 62
   256
176
     0
 40
1.0
176
     0
 90
        2
176
     1
  1
strokes_ogs.tif
176
     1
290
     0
176
     1
 40
1.0
176
     1
 40
1.0
176
     1
1001
ACAD
1000
AcDbSavedByObjectVersion
1070
     0
  0
VISUALSTYLE
  5
8E
102
{ACAD_REACTORS
330
2A
102
}
330
2A
100
AcDbVisualStyle
  2
Sketchy
 70
    24
177
     3
291
     0
 70
    58
 90
        1
176
     1
 90
        2
176
     1
 90
        2
176
     1
 90
        0
176
     1
 40
0.6
176
     1
 40
30.0
176
     1
 62
     7
420
 16777215
176
     1
 90
        2
176
     1
 90
        2
176
     1
 62
     7
176
     1
 62
     7
176
     1
 90
        1
176
     1
 90
        1
176
     1
 40
40.0
176
     1
 90
       11
176
     1
 62
     7
176
     1
 40
1.0
176
     1
 90
        1
176
     1
 90
        6
176
     1
 90
        2
176
     1
 62
     7
176
     1
 90
        6
176
     1
 90
        0
176
     1
 90
        0
176
     1
290
     0
176
     1
 90
        1
176
     1
 40
0.0
176
     1
 90
        0
176
     1
290
     0
176
     1
290
     1
176
     1
290
     1
176
     1
290
     0
176
     1
290
     0
176
     1
290
     0
176
     1
290
     0
176
     1
290
     0
176
     1
290
     0
176
     1
 90
       50
176
     1
 40
0.0
176
     1
 40
1.0
176
     1
 90
        0
176
     1
 62
    18
420
        0
176
     1
 90
       50
176
     1
 90
        3
176
     1
 62
     5
420
      255
176
     1
290
     0
176
     1
 90
       50
176
     1
 90
       50
176
     1
 90
       50
176
     1
290
     0
176
     1
 90
       50
176
     1
 62
   256
176
     0
 40
1.0
176
     0
 90
        2
176
     1
  1
strokes_ogs.tif
176
     1
290
     0
176
     1
 40
1.0
176
     1
 40
1.0
176
     1
1001
ACAD
1000
AcDbSavedByObjectVersion
1070
     0
  0
VISUALSTYLE
  5
37
102
{ACAD_REACTORS
330
2A
102
}
330
2A
100
AcDbVisualStyle
  2
Thicken
 70
    13
177
     3
291
     1
 70
    58
 90
        2
176
     1
 90
        2
176
     1
 90
        0
176
     1
 90
        0
176
     1
 40
0.6
176
     1
 40
30.0
176
     1
 62
     7
420
 16777215
176
     1
 90
        1
176
     1
 90
        4
176
     1
 62
     7
176
     1
 62
   257
176
     1
 90
        1
176
     1
 90
        1
176
     1
 40
1.0
176
     1
 90
       12
176
     1
 62
     7
176
     1
 40
1.0
176
     1
 90
        1
176
     1
 90
        6
176
     1
 90
        2
176
     1
 62
     7
176
     1
 90
        5
176
     1
 90
        0
176
     1
 90
        0
176
     1
290
     0
176
     1
 90
        1
176
     1
 40
0.0
176
     1
 90
        0
176
     1
290
     0
176
     1
290
     1
176
     1
290
     1
176
     1
290
     0
176
     1
290
     0
176
     1
290
     0
176
     1
290
     0
176
     1
290
     0
176
     1
290
     0
176
     1
 90
       50
176
     1
 40
0.0
176
     1
 40
1.0
176
     1
 90
        0
176
     1
 62
    18
420
        0
176
     1
 90
       50
176
     1
 90
        3
176
     1
 62
     5
420
      255
176
     1
290
     0
176
     1
 90
       50
176
     1
 90
       50
176
     1
 90
       50
176
     1
290
     0
176
     1
 90
       50
176
     1
 62
   256
176
     0
 40
1.0
176
     0
 90
        2
176
     1
  1
strokes_ogs.tif
176
     1
290
     0
176
     1
 40
1.0
176
     1
 40
1.0
176
     1
1001
ACAD
1000
AcDbSavedByObjectVersion
1070
     0
  0
VISUALSTYLE
  5
8B
102
{ACAD_REACTORS
330
2A
102
}
330
2A
100
AcDbVisualStyle
  2
Wireframe
 70
     5
177
     3
291
     0
 70
    58
 90
        0
176
     1
 90
        2
176
     1
 90
        0
176
     1
 90
        0
176
     1
 40
0.6
176
     1
 40
30.0
176
     1
 62
     7
420
 16777215
176
     1
 90
        1
176
     1
 90
        4
176
     1
 62
     7
176
     1
 62
   257
176
     1
 90
        1
176
     1
 90
        1
176
     1
 40
1.0
176
     1
 90
        0
176
     1
 62
   257
176
     1
 40
1.0
176
     1
 90
        1
176
     1
 90
        6
176
     1
 90
        2
176
     1
 62
     7
176
     1
 90
        3
176
     1
 90
        0
176
     1
 90
        0
176
     1
290
     0
176
     1
 90
        1
176
     1
 40
0.0
176
     1
 90
        0
176
     1
290
     0
176
     1
290
     1
176
     1
290
     1
176
     1
290
     0
176
     1
290
     0
176
     1
290
     0
176
     1
290
     0
176
     1
290
     0
176
     1
290
     0
176
     1
 90
       50
176
     1
 40
0.0
176
     1
 40
1.0
176
     1
 90
        0
176
     1
 62
    18
420
        0
176
     1
 90
       50
176
     1
 90
        3
176
     1
 62
     5
420
      255
176
     1
290
     0
176
     1
 90
       50
176
     1
 90
       50
176
     1
 90
       50
176
     1
290
     0
176
     1
 90
       50
176
     1
 62
   256
176
     0
 40
1.0
176
     0
 90
        2
176
     1
  1
strokes_ogs.tif
176
     1
290
     0
176
     1
 40
1.0
176
     1
 40
1.0
176
     1
1001
ACAD
1000
AcDbSavedByObjectVersion
1070
     0
  0
VISUALSTYLE
  5
8F
102
{ACAD_REACTORS
330
2A
102
}
330
2A
100
AcDbVisualStyle
  2
X-Ray
 70
    25
177
     3
291
     0
 70
    58
 90
        2
176
     1
 90
        2
176
     1
 90
        1
176
     1
 90
        1
176
     1
 40
0.5
176
     1
 40
30.0
176
     1
 62
     7
420
 16777215
176
     1
 90
        1
176
     1
 90
        0
176
     1
 62
     7
176
     1
 62
   257
176
     1
 90
        1
176
     1
 90
        1
176
     1
 40
1.0
176
     1
 90
        8
176
     1
 62
     7
176
     1
 40
1.0
176
     1
 90
        1
176
     1
 90
        6
176
     1
 90
        2
176
     1
 62
     7
176
     1
 90
        3
176
     1
 90
        0
176
     1
 90
        0
176
     1
290
     0
176
     1
 90
       13
176
     1
 40
0.0
176
     1
 90
        0
176
     1
290
     0
176
     1
290
     1
176
     1
290
     1
176
     1
290
     0
176
     1
290
     0
176
     1
290
     0
176
     1
290
     0
176
     1
290
     0
176
     1
290
     0
176
     1
 90
       50
176
     1
 40
0.0
176
     1
 40
1.0
176
     1
 90
        0
176
     1
 62
    18
420
        0
176
     1
 90
       50
176
     1
 90
        3
176
     1
 62
     5
420
      255
176
     1
290
     0
176
     1
 90
       50
176
     1
 90
       50
176
     1
 90
       50
176
     1
290
     0
176
     1
 90
       50
176
     1
 62
   256
176
     0
 40
1.0
176
     0
 90
        2
176
     1
  1
strokes_ogs.tif
176
     1
290
     0
176
     1
 40
1.0
176
     1
 40
1.0
176
     1
1001
ACAD
1000
AcDbSavedByObjectVersion
1070
     0
  0
DICTIONARYVAR
  5
E5
102
{ACAD_REACTORS
330
E0
102
}
330
E0
100
DictionaryVariables
280
     0
  1
1:1
  0
DICTIONARYVAR
  5
E2
102
{ACAD_REACTORS
330
E0
102
}
330
E0
100
DictionaryVariables
280
     0
  1
STANDARD
  0
DICTIONARYVAR
  5
E1
102
{ACAD_REACTORS
330
E0
102
}
330
E0
100
DictionaryVariables
280
     0
  1
STANDARD
  0
DICTIONARYVAR
  5
E3
102
{ACAD_REACTORS
330
E0
102
}
330
E0
100
DictionaryVariables
280
     0
  1
Imperial24
  0
DICTIONARYVAR
  5
E4
102
{ACAD_REACTORS
330
E0
102
}
330
E0
100
DictionaryVariables
280
     0
  1
Imperial24
  0
DICTIONARY
  5
F3
330
B1
100
AcDbDictionary
280
     1
281
     1
  3
ACAD_XREC_ROUNDTRIP
360
F4
  0
DICTIONARY
  5
F1
330
AF
100
AcDbDictionary
280
     1
281
     1
  3
ACAD_XREC_ROUNDTRIP
360
F2
  0
DICTIONARY
  5
EE
330
96
100
AcDbDictionary
280
     1
281
     1
  3
ACAD_ROUNDTRIP_2008_TABLESTYLE_CELLSTYLEMAP
360
EF
  0
XRECORD
  5
F4
102
{ACAD_REACTORS
330
F3
102
}
330
F3
100
AcDbXrecord
280
     1
102
DISPLAYNAME
  1
Imperial24
102
FLAGS
 90
        0
  0
XRECORD
  5
F2
102
{ACAD_REACTORS
330
F1
102
}
330
F1
100
AcDbXrecord
280
     1
102
DISPLAYNAME
  1
Imperial24
102
FLAGS
 90
        0
  0
CELLSTYLEMAP
  5
EF
102
{ACAD_REACTORS
330
EE
102
}
330
EE
100
AcDbCellStyleMap
 90
        3
300
CELLSTYLE
  1
TABLEFORMAT_BEGIN
 90
        5
170
     1
 91
        0
 92
    32768
 62
   257
 93
        1
300
CONTENTFORMAT
  1
CONTENTFORMAT_BEGIN
 90
        0
 91
        0
 92
      512
 93
        0
300

 40
0.0
140
1.0
 94
        5
 62
     0
340
11
144
0.25
309
CONTENTFORMAT_END
171
     0
 94
        0
309
TABLEFORMAT_END
  1
CELLSTYLE_BEGIN
 90
        1
 91
        1
300
_TITLE
309
CELLSTYLE_END
300
CELLSTYLE
  1
TABLEFORMAT_BEGIN
 90
        5
170
     1
 91
        0
 92
        0
 62
   257
 93
        1
300
CONTENTFORMAT
  1
CONTENTFORMAT_BEGIN
 90
        0
 91
        0
 92
      512
 93
        0
300

 40
0.0
140
1.0
 94
        5
 62
     0
340
11
144
0.18
309
CONTENTFORMAT_END
171
     0
 94
        0
309
TABLEFORMAT_END
  1
CELLSTYLE_BEGIN
 90
        2
 91
        1
300
_HEADER
309
CELLSTYLE_END
300
CELLSTYLE
  1
TABLEFORMAT_BEGIN
 90
        5
170
     1
 91
        0
 92
        0
 62
   257
 93
        1
300
CONTENTFORMAT
  1
CONTENTFORMAT_BEGIN
 90
        0
 91
        0
 92
      512
 93
        0
300

 40
0.0
140
1.0
 94
        2
 62
     0
340
11
144
0.18
309
CONTENTFORMAT_END
171
     0
 94
        0
309
TABLEFORMAT_END
  1
CELLSTYLE_BEGIN
 90
        3
 91
        2
300
_DATA
309
CELLSTYLE_END
  0
ENDSEC
  0
EOF
