  0
SECTION
  2
HEADER
  9
$ACADVER
  1
AC1027
  9
$ACADMAINTVER
 70
   125
  9
$DWGCODEPAGE
  3
ANSI_1252
  9
$LASTSAVEDBY
  1
ufficio.tecnico
  9
$REQUIREDVERSIONS
160
                 0
  9
$INSBASE
 10
0.0
 20
0.0
 30
0.0
  9
$EXTMIN
 10
13.13684915760857
 20
-19.27871988450324
 30
0.0
  9
$EXTMAX
 10
20.15849391857149
 20
-2.443778087924451
 30
0.0
  9
$LIMMIN
 10
0.0
 20
0.0
  9
$LIMMAX
 10
12.0
 20
9.0
  9
$ORTHOMODE
 70
     0
  9
$REGENMODE
 70
     1
  9
$FILLMODE
 70
     1
  9
$QTEXTMODE
 70
     0
  9
$MIRRTEXT
 70
     1
  9
$LTSCALE
 40
1.0
  9
$ATTMODE
 70
     1
  9
$TEXTSIZE
 40
0.2
  9
$TRACEWID
 40
0.05
  9
$TEXTSTYLE
  7
Standard
  9
$CLAYER
  8
0
  9
$CELTYPE
  6
ByLayer
  9
$CECOLOR
 62
   256
  9
$CELTSCALE
 40
1.0
  9
$DISPSILH
 70
     0
  9
$DIMSCALE
 40
1.0
  9
$DIMASZ
 40
0.18
  9
$DIMEXO
 40
0.0625
  9
$DIMDLI
 40
0.38
  9
$DIMRND
 40
0.0
  9
$DIMDLE
 40
0.0
  9
$DIMEXE
 40
0.18
  9
$DIMTP
 40
0.0
  9
$DIMTM
 40
0.0
  9
$DIMTXT
 40
0.18
  9
$DIMCEN
 40
0.09
  9
$DIMTSZ
 40
0.0
  9
$DIMTOL
 70
     0
  9
$DIMLIM
 70
     0
  9
$DIMTIH
 70
     1
  9
$DIMTOH
 70
     1
  9
$DIMSE1
 70
     0
  9
$DIMSE2
 70
     0
  9
$DIMTAD
 70
     0
  9
$DIMZIN
 70
     0
  9
$DIMBLK
  1

  9
$DIMASO
 70
     1
  9
$DIMSHO
 70
     1
  9
$DIMPOST
  1

  9
$DIMAPOST
  1

  9
$DIMALT
 70
     0
  9
$DIMALTD
 70
     2
  9
$DIMALTF
 40
25.4
  9
$DIMLFAC
 40
1.0
  9
$DIMTOFL
 70
     0
  9
$DIMTVP
 40
0.0
  9
$DIMTIX
 70
     0
  9
$DIMSOXD
 70
     0
  9
$DIMSAH
 70
     0
  9
$DIMBLK1
  1

  9
$DIMBLK2
  1

  9
$DIMSTYLE
  2
Standard
  9
$DIMCLRD
 70
     0
  9
$DIMCLRE
 70
     0
  9
$DIMCLRT
 70
     0
  9
$DIMTFAC
 40
1.0
  9
$DIMGAP
 40
0.09
  9
$DIMJUST
 70
     0
  9
$DIMSD1
 70
     0
  9
$DIMSD2
 70
     0
  9
$DIMTOLJ
 70
     1
  9
$DIMTZIN
 70
     0
  9
$DIMALTZ
 70
     0
  9
$DIMALTTZ
 70
     0
  9
$DIMUPT
 70
     0
  9
$DIMDEC
 70
     4
  9
$DIMTDEC
 70
     4
  9
$DIMALTU
 70
     2
  9
$DIMALTTD
 70
     2
  9
$DIMTXSTY
  7
Standard
  9
$DIMAUNIT
 70
     0
  9
$DIMADEC
 70
     0
  9
$DIMALTRND
 40
0.0
  9
$DIMAZIN
 70
     0
  9
$DIMDSEP
 70
    46
  9
$DIMATFIT
 70
     3
  9
$DIMFRAC
 70
     0
  9
$DIMLDRBLK
  1

  9
$DIMLUNIT
 70
     2
  9
$DIMLWD
 70
    -2
  9
$DIMLWE
 70
    -2
  9
$DIMTMOVE
 70
     0
  9
$DIMFXL
 40
1.0
  9
$DIMFXLON
 70
     0
  9
$DIMJOGANG
 40
0.7853981633974483
  9
$DIMTFILL
 70
     0
  9
$DIMTFILLCLR
 70
     0
  9
$DIMARCSYM
 70
     0
  9
$DIMLTYPE
  6

  9
$DIMLTEX1
  6

  9
$DIMLTEX2
  6

  9
$DIMTXTDIRECTION
 70
     0
  9
$LUNITS
 70
     2
  9
$LUPREC
 70
     4
  9
$SKETCHINC
 40
0.1
  9
$FILLETRAD
 40
0.5
  9
$AUNITS
 70
     0
  9
$AUPREC
 70
     0
  9
$MENU
  1
.
  9
$ELEVATION
 40
0.0
  9
$PELEVATION
 40
0.0
  9
$THICKNESS
 40
0.0
  9
$LIMCHECK
 70
     0
  9
$CHAMFERA
 40
0.5
  9
$CHAMFERB
 40
0.5
  9
$CHAMFERC
 40
1.0
  9
$CHAMFERD
 40
0.0
  9
$SKPOLY
 70
     0
  9
$TDCREATE
 40
2459325.632233796
  9
$TDUCREATE
 40
2459325.548911158
  9
$TDUPDATE
 40
2459328.477569445
  9
$TDUUPDATE
 40
2459328.394236111
  9
$TDINDWG
 40
0.0011921412
  9
$TDUSRTIMER
 40
0.0011921412
  9
$USRTIMER
 70
     1
  9
$ANGBASE
 50
0.0
  9
$ANGDIR
 70
     0
  9
$PDMODE
 70
     0
  9
$PDSIZE
 40
0.0
  9
$PLINEWID
 40
0.0
  9
$SPLFRAME
 70
     0
  9
$SPLINETYPE
 70
     6
  9
$SPLINESEGS
 70
     8
  9
$HANDSEED
  5
112
  9
$SURFTAB1
 70
     6
  9
$SURFTAB2
 70
     6
  9
$SURFTYPE
 70
     6
  9
$SURFU
 70
     6
  9
$SURFV
 70
     6
  9
$UCSBASE
  2

  9
$UCSNAME
  2

  9
$UCSORG
 10
0.0
 20
0.0
 30
0.0
  9
$UCSXDIR
 10
1.0
 20
0.0
 30
0.0
  9
$UCSYDIR
 10
0.0
 20
1.0
 30
0.0
  9
$UCSORTHOREF
  2

  9
$UCSORTHOVIEW
 70
     0
  9
$UCSORGTOP
 10
0.0
 20
0.0
 30
0.0
  9
$UCSORGBOTTOM
 10
0.0
 20
0.0
 30
0.0
  9
$UCSORGLEFT
 10
0.0
 20
0.0
 30
0.0
  9
$UCSORGRIGHT
 10
0.0
 20
0.0
 30
0.0
  9
$UCSORGFRONT
 10
0.0
 20
0.0
 30
0.0
  9
$UCSORGBACK
 10
0.0
 20
0.0
 30
0.0
  9
$PUCSBASE
  2

  9
$PUCSNAME
  2

  9
$PUCSORG
 10
0.0
 20
0.0
 30
0.0
  9
$PUCSXDIR
 10
1.0
 20
0.0
 30
0.0
  9
$PUCSYDIR
 10
0.0
 20
1.0
 30
0.0
  9
$PUCSORTHOREF
  2

  9
$PUCSORTHOVIEW
 70
     0
  9
$PUCSORGTOP
 10
0.0
 20
0.0
 30
0.0
  9
$PUCSORGBOTTOM
 10
0.0
 20
0.0
 30
0.0
  9
$PUCSORGLEFT
 10
0.0
 20
0.0
 30
0.0
  9
$PUCSORGRIGHT
 10
0.0
 20
0.0
 30
0.0
  9
$PUCSORGFRONT
 10
0.0
 20
0.0
 30
0.0
  9
$PUCSORGBACK
 10
0.0
 20
0.0
 30
0.0
  9
$USERI1
 70
     0
  9
$USERI2
 70
     0
  9
$USERI3
 70
     0
  9
$USERI4
 70
     0
  9
$USERI5
 70
     0
  9
$USERR1
 40
0.0
  9
$USERR2
 40
0.0
  9
$USERR3
 40
0.0
  9
$USERR4
 40
0.0
  9
$USERR5
 40
0.0
  9
$WORLDVIEW
 70
     1
  9
$SHADEDGE
 70
     3
  9
$SHADEDIF
 70
    70
  9
$TILEMODE
 70
     1
  9
$MAXACTVP
 70
    64
  9
$PINSBASE
 10
0.0
 20
0.0
 30
0.0
  9
$PLIMCHECK
 70
     0
  9
$PEXTMIN
 10
1.000000000000000E+20
 20
1.000000000000000E+20
 30
1.000000000000000E+20
  9
$PEXTMAX
 10
-1.000000000000000E+20
 20
-1.000000000000000E+20
 30
-1.000000000000000E+20
  9
$PLIMMIN
 10
0.0
 20
0.0
  9
$PLIMMAX
 10
12.0
 20
9.0
  9
$UNITMODE
 70
     0
  9
$VISRETAIN
 70
     1
  9
$PLINEGEN
 70
     0
  9
$PSLTSCALE
 70
     1
  9
$TREEDEPTH
 70
  3020
  9
$CMLSTYLE
  2
Standard
  9
$CMLJUST
 70
     0
  9
$CMLSCALE
 40
1.0
  9
$PROXYGRAPHICS
 70
     1
  9
$MEASUREMENT
 70
     0
  9
$CELWEIGHT
370
    -1
  9
$ENDCAPS
280
     0
  9
$JOINSTYLE
280
     0
  9
$LWDISPLAY
290
     1
  9
$INSUNITS
 70
     5
  9
$HYPERLINKBASE
  1

  9
$STYLESHEET
  1

  9
$XEDIT
290
     1
  9
$CEPSNTYPE
380
     0
  9
$PSTYLEMODE
290
     1
  9
$FINGERPRINTGUID
  2
{8E2F29CF-557B-4124-9557-8EE3AC406E3D}
  9
$VERSIONGUID
  2
{239005CD-B840-4848-B2D6-5EE7165FDAC1}
  9
$EXTNAMES
290
     1
  9
$PSVPSCALE
 40
0.0
  9
$OLESTARTUP
290
     0
  9
$SORTENTS
280
   127
  9
$INDEXCTL
280
     0
  9
$HIDETEXT
280
     1
  9
$XCLIPFRAME
280
     2
  9
$HALOGAP
280
     0
  9
$OBSCOLOR
 70
   257
  9
$OBSLTYPE
280
     0
  9
$INTERSECTIONDISPLAY
280
     0
  9
$INTERSECTIONCOLOR
 70
   257
  9
$DIMASSOC
280
     2
  9
$PROJECTNAME
  1

  9
$CAMERADISPLAY
290
     0
  9
$LENSLENGTH
 40
50.0
  9
$CAMERAHEIGHT
 40
0.0
  9
$STEPSPERSEC
 40
2.0
  9
$STEPSIZE
 40
6.0
  9
$3DDWFPREC
 40
2.0
  9
$PSOLWIDTH
 40
0.25
  9
$PSOLHEIGHT
 40
4.0
  9
$LOFTANG1
 40
1.570796326794897
  9
$LOFTANG2
 40
1.570796326794897
  9
$LOFTMAG1
 40
0.0
  9
$LOFTMAG2
 40
0.0
  9
$LOFTPARAM
 70
     7
  9
$LOFTNORMALS
280
     1
  9
$LATITUDE
 40
37.795
  9
$LONGITUDE
 40
-122.394
  9
$NORTHDIRECTION
 40
0.0
  9
$TIMEZONE
 70
 -8000
  9
$LIGHTGLYPHDISPLAY
280
     1
  9
$TILEMODELIGHTSYNCH
280
     1
  9
$CMATERIAL
347
3C
  9
$SOLIDHIST
280
     1
  9
$SHOWHIST
280
     1
  9
$DWFFRAME
280
     2
  9
$DGNFRAME
280
     2
  9
$REALWORLDSCALE
290
     1
  9
$INTERFERECOLOR
 62
   256
  9
$INTERFEREOBJVS
345
33
  9
$INTERFEREVPVS
346
98
  9
$CSHADOW
280
     0
  9
$SHADOWPLANELOCATION
 40
0.0
  0
ENDSEC
  0
SECTION
  2
CLASSES
  0
CLASS
  1
ACDBDICTIONARYWDFLT
  2
AcDbDictionaryWithDefault
  3
ObjectDBX Classes
 90
        0
 91
        1
280
     0
281
     0
  0
CLASS
  1
VISUALSTYLE
  2
AcDbVisualStyle
  3
ObjectDBX Classes
 90
     4095
 91
       26
280
     0
281
     0
  0
CLASS
  1
MATERIAL
  2
AcDbMaterial
  3
ObjectDBX Classes
 90
     1153
 91
        3
280
     0
281
     0
  0
CLASS
  1
SUN
  2
AcDbSun
  3
SCENEOE
 90
     1153
 91
        1
280
     0
281
     0
  0
CLASS
  1
TABLESTYLE
  2
AcDbTableStyle
  3
ObjectDBX Classes
 90
     4095
 91
        1
280
     0
281
     0
  0
CLASS
  1
SCALE
  2
AcDbScale
  3
ObjectDBX Classes
 90
     1153
 91
       21
280
     0
281
     0
  0
CLASS
  1
MLEADERSTYLE
  2
AcDbMLeaderStyle
  3
ACDB_MLEADERSTYLE_CLASS
 90
     4095
 91
        1
280
     0
281
     0
  0
CLASS
  1
ACDBSECTIONVIEWSTYLE
  2
AcDbSectionViewStyle
  3
ObjectDBX Classes
 90
     1025
 91
        1
280
     0
281
     0
  0
CLASS
  1
ACDBDETAILVIEWSTYLE
  2
AcDbDetailViewStyle
  3
ObjectDBX Classes
 90
     1025
 91
        1
280
     0
281
     0
  0
CLASS
  1
SORTENTSTABLE
  2
AcDbSortentsTable
  3
ObjectDBX Classes
 90
        0
 91
        1
280
     0
281
     0
  0
CLASS
  1
DICTIONARYVAR
  2
AcDbDictionaryVar
  3
ObjectDBX Classes
 90
        0
 91
        5
280
     0
281
     0
  0
CLASS
  1
CELLSTYLEMAP
  2
AcDbCellStyleMap
  3
ObjectDBX Classes
 90
     1152
 91
        3
280
     0
281
     0
  0
ENDSEC
  0
SECTION
  2
TABLES
  0
TABLE
  2
VPORT
  5
8
330
0
100
AcDbSymbolTable
 70
     1
1001
ACAD
1000
DbSaveVer
1071
      105
  0
VPORT
  5
29
330
8
100
AcDbSymbolTableRecord
100
AcDbViewportTableRecord
  2
*Active
 70
     0
 10
0.0
 20
0.0
 11
1.0
 21
1.0
 12
-7.498033895359988
 22
-0.1879797067447875
 13
0.0
 23
0.0
 14
0.5
 24
0.5
 15
0.5
 25
0.5
 16
0.0
 26
0.0
 36
1.0
 17
14.84999673225613
 27
-10.50008306681943
 37
0.0
 40
51.57244557532155
 41
1.932867132867133
 42
50.0
 43
0.0
 44
0.0
 50
0.0
 51
0.0
 71
     0
 72
   100
 73
     1
 74
     3
 75
     0
 76
     0
 77
     0
 78
     0
281
     0
 65
     1
110
0.0
120
0.0
130
0.0
111
1.0
121
0.0
131
0.0
112
0.0
122
1.0
132
0.0
 79
     0
146
0.0
348
2F
 60
     3
 61
     5
292
     1
282
     1
141
0.0
142
0.0
 63
   250
361
3F
1001
ACAD_NAV_VCDISPLAY
1070
     3
  0
ENDTAB
  0
TABLE
  2
LTYPE
  5
5
330
0
100
AcDbSymbolTable
 70
     1
  0
LTYPE
  5
14
330
5
100
AcDbSymbolTableRecord
100
AcDbLinetypeTableRecord
  2
ByBlock
 70
     0
  3

 72
    65
 73
     0
 40
0.0
  0
LTYPE
  5
15
330
5
100
AcDbSymbolTableRecord
100
AcDbLinetypeTableRecord
  2
ByLayer
 70
     0
  3

 72
    65
 73
     0
 40
0.0
  0
LTYPE
  5
16
330
5
100
AcDbSymbolTableRecord
100
AcDbLinetypeTableRecord
  2
Continuous
 70
     0
  3
Solid line
 72
    65
 73
     0
 40
0.0
  0
ENDTAB
  0
TABLE
  2
LAYER
  5
2
330
0
100
AcDbSymbolTable
 70
     2
  0
LAYER
  5
10
330
2
100
AcDbSymbolTableRecord
100
AcDbLayerTableRecord
  2
0
 70
     0
 62
     7
  6
Continuous
370
    -3
390
F
347
3E
348
0
  0
LAYER
  5
40
330
2
100
AcDbSymbolTableRecord
100
AcDbLayerTableRecord
  2
Livello 3
 70
     0
 62
     7
  6
Continuous
370
    -3
390
F
347
3E
348
0
  0
ENDTAB
  0
TABLE
  2
STYLE
  5
3
330
0
100
AcDbSymbolTable
 70
     1
  0
STYLE
  5
11
330
3
100
AcDbSymbolTableRecord
100
AcDbTextStyleTableRecord
  2
Standard
 70
     0
 40
0.0
 41
1.0
 50
0.0
 71
     0
 42
0.2
  3
txt
  4

  0
ENDTAB
  0
TABLE
  2
VIEW
  5
6
330
0
100
AcDbSymbolTable
 70
     0
  0
ENDTAB
  0
TABLE
  2
UCS
  5
7
330
0
100
AcDbSymbolTable
 70
     0
  0
ENDTAB
  0
TABLE
  2
APPID
  5
9
330
0
100
AcDbSymbolTable
 70
     2
  0
APPID
  5
12
330
9
100
AcDbSymbolTableRecord
100
AcDbRegAppTableRecord
  2
ACAD
 70
     0
  0
APPID
  5
FC
330
9
100
AcDbSymbolTableRecord
100
AcDbRegAppTableRecord
  2
ACAD_NAV_VCDISPLAY
 70
     0
  0
ENDTAB
  0
TABLE
  2
DIMSTYLE
  5
A
330
0
100
AcDbSymbolTable
 70
     1
100
AcDbDimStyleTable
 71
     0
  0
DIMSTYLE
105
27
330
A
100
AcDbSymbolTableRecord
100
AcDbDimStyleTableRecord
  2
Standard
 70
     0
340
11
  0
ENDTAB
  0
TABLE
  2
BLOCK_RECORD
  5
1
330
0
100
AcDbSymbolTable
 70
     4
  0
BLOCK_RECORD
  5
1F
102
{ACAD_XDICTIONARY
360
C2
102
}
330
1
100
AcDbSymbolTableRecord
100
AcDbBlockTableRecord
  2
*Model_Space
340
22
 70
     0
280
     1
281
     0
  0
BLOCK_RECORD
  5
1B
330
1
100
AcDbSymbolTableRecord
100
AcDbBlockTableRecord
  2
*Paper_Space
340
1E
 70
     0
280
     1
281
     0
  0
BLOCK_RECORD
  5
23
330
1
100
AcDbSymbolTableRecord
100
AcDbBlockTableRecord
  2
*Paper_Space0
340
26
 70
     0
280
     1
281
     0
  0
BLOCK_RECORD
  5
69
330
1
100
AcDbSymbolTableRecord
100
AcDbBlockTableRecord
  2
block 2
340
0
 70
     0
280
     1
281
     0
  0
BLOCK_RECORD
  5
79
330
1
100
AcDbSymbolTableRecord
100
AcDbBlockTableRecord
  2
block 3
340
0
 70
     0
280
     1
281
     0
  0
BLOCK_RECORD
  5
89
330
1
100
AcDbSymbolTableRecord
100
AcDbBlockTableRecord
  2
block 4
340
0
 70
     0
280
     1
281
     0
  0
ENDTAB
  0
ENDSEC
  0
SECTION
  2
BLOCKS
  0
BLOCK
  5
20
330
1F
100
AcDbEntity
  8
0
100
AcDbBlockBegin
  2
*Model_Space
 70
     0
 10
0.0
 20
0.0
 30
0.0
  3
*Model_Space
  1

  0
ENDBLK
  5
21
330
1F
100
AcDbEntity
  8
0
100
AcDbBlockEnd
  0
BLOCK
  5
1C
330
1B
100
AcDbEntity
 67
     1
  8
0
100
AcDbBlockBegin
  2
*Paper_Space
 70
     0
 10
0.0
 20
0.0
 30
0.0
  3
*Paper_Space
  1

  0
ENDBLK
  5
1D
330
1B
100
AcDbEntity
 67
     1
  8
0
100
AcDbBlockEnd
  0
BLOCK
  5
24
330
23
100
AcDbEntity
 67
     1
  8
0
100
AcDbBlockBegin
  2
*Paper_Space0
 70
     0
 10
0.0
 20
0.0
 30
0.0
  3
*Paper_Space0
  1

  0
ENDBLK
  5
25
330
23
100
AcDbEntity
 67
     1
  8
0
100
AcDbBlockEnd
  0
BLOCK
  5
6B
330
69
100
AcDbEntity
  8
0
100
AcDbBlockBegin
  2
block 2
 70
     0
 10
0.0
 20
0.0
 30
0.0
  3
block 2
  1

  0
POLYLINE
  5
6D
330
69
100
AcDbEntity
  8
Livello 3
370
     0
100
AcDb2dPolyline
 66
     1
 10
0.0
 20
0.0
 30
0.0
  0
VERTEX
  5
6E
330
6D
100
AcDbEntity
  8
Livello 3
370
     0
100
AcDbVertex
100
AcDb2dVertex
 10
15.78704670829282
 20
-18.72833142977972
 30
0.0
  0
VERTEX
  5
6F
330
6D
100
AcDbEntity
  8
Livello 3
370
     0
100
AcDbVertex
100
AcDb2dVertex
 10
15.78704670829282
 20
-18.77745849139938
 30
0.0
  0
VERTEX
  5
70
330
6D
100
AcDbEntity
  8
Livello 3
370
     0
100
AcDbVertex
100
AcDb2dVertex
 10
15.54744031729369
 20
-19.27871988450324
 30
0.0
  0
VERTEX
  5
71
330
6D
100
AcDbEntity
  8
Livello 3
370
     0
100
AcDbVertex
100
AcDb2dVertex
 10
15.47037353128866
 20
-19.27871988450324
 30
0.0
  0
VERTEX
  5
72
330
6D
100
AcDbEntity
  8
Livello 3
370
     0
100
AcDbVertex
100
AcDb2dVertex
 10
15.70915309937132
 20
-18.79185899052773
 30
0.0
  0
VERTEX
  5
73
330
6D
100
AcDbEntity
  8
Livello 3
370
     0
100
AcDbVertex
100
AcDb2dVertex
 10
15.70915309937132
 20
-18.79017089373995
 30
0.0
  0
VERTEX
  5
74
330
6D
100
AcDbEntity
  8
Livello 3
370
     0
100
AcDbVertex
100
AcDb2dVertex
 10
15.43988443624419
 20
-18.79017089373995
 30
0.0
  0
VERTEX
  5
75
330
6D
100
AcDbEntity
  8
Livello 3
370
     0
100
AcDbVertex
100
AcDb2dVertex
 10
15.43988443624419
 20
-18.72833142977972
 30
0.0
  0
VERTEX
  5
76
330
6D
100
AcDbEntity
  8
Livello 3
370
     0
100
AcDbVertex
100
AcDb2dVertex
 10
15.78704670829282
 20
-18.72833142977972
 30
0.0
  0
SEQEND
  5
77
330
6D
100
AcDbEntity
  8
Livello 3
370
     0
  0
HATCH
  5
78
330
69
100
AcDbEntity
  8
Livello 3
 62
   250
420
  1842203
100
AcDbHatch
 10
0.0
 20
0.0
 30
0.0
210
0.0
220
0.0
230
1.0
  2
SOLID
 70
     1
 71
     0
 91
        1
 92
        1
 93
        8
 72
     1
 10
15.78704670829282
 20
-18.72833142977972
 11
15.78704670829282
 21
-18.77745849139938
 72
     1
 10
15.78704670829282
 20
-18.77745849139938
 11
15.54744031729369
 21
-19.27871988450324
 72
     1
 10
15.54744031729369
 20
-19.27871988450324
 11
15.47037353128866
 21
-19.27871988450324
 72
     1
 10
15.47037353128866
 20
-19.27871988450324
 11
15.70915309937132
 21
-18.79185899052773
 72
     1
 10
15.70915309937132
 20
-18.79185899052773
 11
15.70915309937132
 21
-18.79017089373995
 72
     1
 10
15.70915309937132
 20
-18.79017089373995
 11
15.43988443624419
 21
-18.79017089373995
 72
     1
 10
15.43988443624419
 20
-18.79017089373995
 11
15.43988443624419
 21
-18.72833142977972
 72
     1
 10
15.43988443624419
 20
-18.72833142977972
 11
15.78704670829282
 21
-18.72833142977972
 97
        0
 75
     2
 76
     1
 98
        0
450
        0
451
        0
460
0.0
461
0.0
452
        0
462
0.0
453
        0
470

  0
ENDBLK
  5
6C
330
69
100
AcDbEntity
  8
0
100
AcDbBlockEnd
  0
BLOCK
  5
7B
330
79
100
AcDbEntity
  8
0
100
AcDbBlockBegin
  2
block 3
 70
     0
 10
0.0
 20
0.0
 30
0.0
  3
block 3
  1

  0
POLYLINE
  5
7D
330
79
100
AcDbEntity
  8
Livello 3
370
     0
100
AcDb2dPolyline
 66
     1
 10
0.0
 20
0.0
 30
0.0
  0
VERTEX
  5
7E
330
7D
100
AcDbEntity
  8
Livello 3
370
     0
100
AcDbVertex
100
AcDb2dVertex
 10
19.60810546384797
 20
-15.34473089894159
 30
0.0
  0
VERTEX
  5
7F
330
7D
100
AcDbEntity
  8
Livello 3
370
     0
100
AcDbVertex
100
AcDb2dVertex
 10
19.65723252546763
 20
-15.34473089894159
 30
0.0
  0
VERTEX
  5
80
330
7D
100
AcDbEntity
  8
Livello 3
370
     0
100
AcDbVertex
100
AcDb2dVertex
 10
20.15849391857149
 20
-15.58433728994072
 30
0.0
  0
VERTEX
  5
81
330
7D
100
AcDbEntity
  8
Livello 3
370
     0
100
AcDbVertex
100
AcDb2dVertex
 10
20.15849391857149
 20
-15.66140407594576
 30
0.0
  0
VERTEX
  5
82
330
7D
100
AcDbEntity
  8
Livello 3
370
     0
100
AcDbVertex
100
AcDb2dVertex
 10
19.67163302459598
 20
-15.42259005690824
 30
0.0
  0
VERTEX
  5
83
330
7D
100
AcDbEntity
  8
Livello 3
370
     0
100
AcDbVertex
100
AcDb2dVertex
 10
19.66994492780821
 20
-15.42259005690824
 30
0.0
  0
VERTEX
  5
84
330
7D
100
AcDbEntity
  8
Livello 3
370
     0
100
AcDbVertex
100
AcDb2dVertex
 10
19.66994492780821
 20
-15.69185872003537
 30
0.0
  0
VERTEX
  5
85
330
7D
100
AcDbEntity
  8
Livello 3
370
     0
100
AcDbVertex
100
AcDb2dVertex
 10
19.60810546384797
 20
-15.69185872003537
 30
0.0
  0
VERTEX
  5
86
330
7D
100
AcDbEntity
  8
Livello 3
370
     0
100
AcDbVertex
100
AcDb2dVertex
 10
19.60810546384797
 20
-15.34473089894159
 30
0.0
  0
SEQEND
  5
87
330
7D
100
AcDbEntity
  8
Livello 3
370
     0
  0
HATCH
  5
88
330
79
100
AcDbEntity
  8
Livello 3
 62
   250
420
  1842203
100
AcDbHatch
 10
0.0
 20
0.0
 30
0.0
210
0.0
220
0.0
230
1.0
  2
SOLID
 70
     1
 71
     0
 91
        1
 92
        1
 93
        8
 72
     1
 10
19.60810546384797
 20
-15.34473089894159
 11
19.65723252546763
 21
-15.34473089894159
 72
     1
 10
19.65723252546763
 20
-15.34473089894159
 11
20.15849391857149
 21
-15.58433728994072
 72
     1
 10
20.15849391857149
 20
-15.58433728994072
 11
20.15849391857149
 21
-15.66140407594576
 72
     1
 10
20.15849391857149
 20
-15.66140407594576
 11
19.67163302459598
 21
-15.42259005690824
 72
     1
 10
19.67163302459598
 20
-15.42259005690824
 11
19.66994492780821
 21
-15.42259005690824
 72
     1
 10
19.66994492780821
 20
-15.42259005690824
 11
19.66994492780821
 21
-15.69185872003537
 72
     1
 10
19.66994492780821
 20
-15.69185872003537
 11
19.60810546384797
 21
-15.69185872003537
 72
     1
 10
19.60810546384797
 20
-15.69185872003537
 11
19.60810546384797
 21
-15.34473089894159
 97
        0
 75
     2
 76
     1
 98
        0
450
        0
451
        0
460
0.0
461
0.0
452
        0
462
0.0
453
        0
470

  0
ENDBLK
  5
7C
330
79
100
AcDbEntity
  8
0
100
AcDbBlockEnd
  0
BLOCK
  5
8B
330
89
100
AcDbEntity
  8
0
100
AcDbBlockBegin
  2
block 4
 70
     0
 10
0.0
 20
0.0
 30
0.0
  3
block 4
  1

  0
SPLINE
  5
8D
330
89
100
AcDbEntity
  8
Livello 3
370
     0
100
AcDbSpline
210
0.0
220
0.0
230
1.0
 70
     9
 71
     3
 72
    38
 73
    34
 74
     0
 42
0.000000001
 43
0.0000000001
 40
0.0
 40
0.0
 40
0.0
 40
0.0
 40
1.0
 40
1.0
 40
1.0
 40
2.0
 40
2.0
 40
2.0
 40
3.0
 40
3.0
 40
3.0
 40
4.0
 40
4.0
 40
4.0
 40
5.0
 40
5.0
 40
5.0
 40
6.0
 40
6.0
 40
6.0
 40
7.0
 40
7.0
 40
7.0
 40
8.0
 40
8.0
 40
8.0
 40
9.0
 40
9.0
 40
9.0
 40
10.0
 40
10.0
 40
10.0
 40
11.0
 40
11.0
 40
11.0
 40
11.0
 10
15.18708332953656
 20
-8.715092499991365
 30
0.0
 10
15.17185600749176
 20
-8.714248451597478
 30
0.0
 10
15.1523912180001
 20
-8.715092499991365
 30
0.0
 10
15.13120388076581
 20
-8.718485919044338
 30
0.0
 10
15.01434624190613
 20
-8.737950708535997
 30
0.0
 10
14.95254122890075
 20
-8.823475203957325
 30
0.0
 10
14.93982882656018
 20
-8.914081215219395
 30
0.0
 10
14.93982882656018
 20
-8.914081215219395
 30
0.0
 10
14.94237819721926
 20
-8.914081215219395
 30
0.0
 10
14.94237819721926
 20
-8.914081215219395
 30
0.0
 10
14.96862982481687
 20
-8.879354652728078
 30
0.0
 10
15.01434624190613
 20
-8.850570879948813
 30
0.0
 10
15.07532443199506
 20
-8.850570879948813
 30
0.0
 10
15.17268283040822
 20
-8.850570879948813
 30
0.0
 10
15.24127468151954
 20
-8.920850827847909
 30
0.0
 10
15.24127468151954
 20
-9.028389483419985
 30
0.0
 10
15.24127468151954
 20
-9.129158526363543
 30
0.0
 10
15.17268283040822
 20
-9.222296682807273
 30
0.0
 10
15.05837456220763
 20
-9.222296682807273
 30
0.0
 10
14.94069010043149
 20
-9.222296682807273
 30
0.0
 10
14.86364053990388
 20
-9.130846623151317
 30
0.0
 10
14.86364053990388
 20
-8.987737356694037
 30
0.0
 10
14.86364053990388
 20
-8.879354652728078
 30
0.0
 10
14.90258734436463
 20
-8.793847382784178
 30
0.0
 10
14.95677869634761
 20
-8.739656030801196
 30
0.0
 10
15.00249511343688
 20
-8.694766436628393
 30
0.0
 10
15.0634733035258
 20
-8.666826712243015
 30
0.0
 10
15.13289197755358
 20
-8.658369002826725
 30
0.0
 10
15.15490613770433
 20
-8.654975583773754
 30
0.0
 10
15.17354410427953
 20
-8.654131535379869
 30
0.0
 10
15.18708332953656
 20
-8.654131535379869
 30
0.0
 10
15.18708332953656
 20
-8.654131535379869
 30
0.0
 10
15.18708332953656
 20
-8.715092499991365
 30
0.0
 10
15.18708332953656
 20
-8.715092499991365
 30
0.0
  0
SPLINE
  5
8E
330
89
100
AcDbEntity
  8
Livello 3
370
     0
100
AcDbSpline
210
0.0
220
0.0
230
1.0
 70
     9
 71
     3
 72
    20
 73
    16
 74
     0
 42
0.000000001
 43
0.0000000001
 40
0.0
 40
0.0
 40
0.0
 40
0.0
 40
1.0
 40
1.0
 40
1.0
 40
2.0
 40
2.0
 40
2.0
 40
3.0
 40
3.0
 40
3.0
 40
4.0
 40
4.0
 40
4.0
 40
5.0
 40
5.0
 40
5.0
 40
5.0
 10
15.16593044325713
 20
-9.032626950866841
 30
0.0
 10
15.16593044325713
 20
-8.95387206807403
 30
0.0
 10
15.12104084908432
 20
-8.906450328719568
 30
0.0
 10
15.052448997973
 20
-8.906450328719568
 30
0.0
 10
15.00759385475505
 20
-8.906450328719568
 30
0.0
 10
14.96608045415778
 20
-8.934407278582369
 30
0.0
 10
14.94575439079481
 20
-8.974198131437006
 30
0.0
 10
14.94069010043149
 20
-8.98267306633072
 30
0.0
 10
14.93731390685595
 20
-8.993680146406093
 30
0.0
 10
14.93731390685595
 20
-9.007219371663122
 30
0.0
 10
14.93900200364372
 20
-9.097825382925195
 30
0.0
 10
14.98048095328613
 20
-9.164711911771322
 30
0.0
 10
15.05837456220763
 20
-9.164711911771322
 30
0.0
 10
15.12272894587209
 20
-9.164711911771322
 30
0.0
 10
15.16593044325713
 20
-9.111364608182226
 30
0.0
 10
15.16593044325713
 20
-9.032626950866841
 30
0.0
  0
HATCH
  5
8F
330
89
100
AcDbEntity
  8
Livello 3
 62
   250
420
  1842203
100
AcDbHatch
 10
0.0
 20
0.0
 30
0.0
210
0.0
220
0.0
230
1.0
  2
SOLID
 70
     1
 71
     0
 91
        2
 92
        1
 93
        1
 72
     4
 94
        3
 73
     0
 74
     0
 95
       38
 96
       34
 40
0.0
 40
0.0
 40
0.0
 40
0.0
 40
1.0
 40
1.0
 40
1.0
 40
2.0
 40
2.0
 40
2.0
 40
3.0
 40
3.0
 40
3.0
 40
4.0
 40
4.0
 40
4.0
 40
5.0
 40
5.0
 40
5.0
 40
6.0
 40
6.0
 40
6.0
 40
7.0
 40
7.0
 40
7.0
 40
8.0
 40
8.0
 40
8.0
 40
9.0
 40
9.0
 40
9.0
 40
10.0
 40
10.0
 40
10.0
 40
11.0
 40
11.0
 40
11.0
 40
11.0
 10
15.18708332953656
 20
-8.715092499991365
 10
15.17185600749176
 20
-8.714248451597478
 10
15.1523912180001
 20
-8.715092499991365
 10
15.13120388076581
 20
-8.718485919044338
 10
15.01434624190613
 20
-8.737950708535997
 10
14.95254122890075
 20
-8.823475203957325
 10
14.93982882656018
 20
-8.914081215219395
 10
14.93982882656018
 20
-8.914081215219395
 10
14.94237819721926
 20
-8.914081215219395
 10
14.94237819721926
 20
-8.914081215219395
 10
14.96862982481687
 20
-8.879354652728078
 10
15.01434624190613
 20
-8.850570879948813
 10
15.07532443199506
 20
-8.850570879948813
 10
15.17268283040822
 20
-8.850570879948813
 10
15.24127468151954
 20
-8.920850827847909
 10
15.24127468151954
 20
-9.028389483419985
 10
15.24127468151954
 20
-9.129158526363543
 10
15.17268283040822
 20
-9.222296682807273
 10
15.05837456220763
 20
-9.222296682807273
 10
14.94069010043149
 20
-9.222296682807273
 10
14.86364053990388
 20
-9.130846623151317
 10
14.86364053990388
 20
-8.987737356694037
 10
14.86364053990388
 20
-8.879354652728078
 10
14.90258734436463
 20
-8.793847382784178
 10
14.95677869634761
 20
-8.739656030801196
 10
15.00249511343688
 20
-8.694766436628393
 10
15.0634733035258
 20
-8.666826712243015
 10
15.13289197755358
 20
-8.658369002826725
 10
15.15490613770433
 20
-8.654975583773754
 10
15.17354410427953
 20
-8.654131535379869
 10
15.18708332953656
 20
-8.654131535379869
 10
15.18708332953656
 20
-8.654131535379869
 10
15.18708332953656
 20
-8.715092499991365
 10
15.18708332953656
 20
-8.715092499991365
 97
        0
 97
        0
 92
        1
 93
        1
 72
     4
 94
        3
 73
     0
 74
     0
 95
       20
 96
       16
 40
0.0
 40
0.0
 40
0.0
 40
0.0
 40
1.0
 40
1.0
 40
1.0
 40
2.0
 40
2.0
 40
2.0
 40
3.0
 40
3.0
 40
3.0
 40
4.0
 40
4.0
 40
4.0
 40
5.0
 40
5.0
 40
5.0
 40
5.0
 10
15.16593044325713
 20
-9.032626950866841
 10
15.16593044325713
 20
-8.95387206807403
 10
15.12104084908432
 20
-8.906450328719568
 10
15.052448997973
 20
-8.906450328719568
 10
15.00759385475505
 20
-8.906450328719568
 10
14.96608045415778
 20
-8.934407278582369
 10
14.94575439079481
 20
-8.974198131437006
 10
14.94069010043149
 20
-8.98267306633072
 10
14.93731390685595
 20
-8.993680146406093
 10
14.93731390685595
 20
-9.007219371663122
 10
14.93900200364372
 20
-9.097825382925195
 10
14.98048095328613
 20
-9.164711911771322
 10
15.05837456220763
 20
-9.164711911771322
 10
15.12272894587209
 20
-9.164711911771322
 10
15.16593044325713
 20
-9.111364608182226
 10
15.16593044325713
 20
-9.032626950866841
 97
        0
 97
        0
 75
     2
 76
     1
 98
        0
450
        0
451
        0
460
0.0
461
0.0
452
        0
462
0.0
453
        0
470

  0
SPLINE
  5
90
330
89
100
AcDbEntity
  8
Livello 3
370
     0
100
AcDbSpline
210
0.0
220
0.0
230
1.0
 70
     9
 71
     3
 72
    17
 73
    13
 74
     0
 42
0.000000001
 43
0.0000000001
 40
0.0
 40
0.0
 40
0.0
 40
0.0
 40
1.0
 40
1.0
 40
1.0
 40
2.0
 40
2.0
 40
2.0
 40
3.0
 40
3.0
 40
3.0
 40
4.0
 40
4.0
 40
4.0
 40
4.0
 10
15.2827191802071
 20
-9.317122936038774
 30
0.0
 10
15.3013571467823
 20
-9.267169051502651
 30
0.0
 10
15.3241981298495
 20
-9.17656304024058
 30
0.0
 10
15.33353433861453
 20
-9.114758027235199
 30
0.0
 10
15.33353433861453
 20
-9.114758027235199
 30
0.0
 10
15.41649223789935
 20
-9.106283092341483
 30
0.0
 10
15.41649223789935
 20
-9.106283092341483
 30
0.0
 10
15.39702744840769
 20
-9.178268362505779
 30
0.0
 10
15.35978596621214
 20
-9.272250567343396
 30
0.0
 10
15.33604925831876
 20
-9.312041420198029
 30
0.0
 10
15.33604925831876
 20
-9.312041420198029
 30
0.0
 10
15.2827191802071
 20
-9.317122936038774
 30
0.0
 10
15.2827191802071
 20
-9.317122936038774
 30
0.0
  0
HATCH
  5
91
330
89
100
AcDbEntity
  8
Livello 3
 62
   250
420
  1842203
100
AcDbHatch
 10
0.0
 20
0.0
 30
0.0
210
0.0
220
0.0
230
1.0
  2
SOLID
 70
     1
 71
     0
 91
        1
 92
        1
 93
        1
 72
     4
 94
        3
 73
     0
 74
     0
 95
       17
 96
       13
 40
0.0
 40
0.0
 40
0.0
 40
0.0
 40
1.0
 40
1.0
 40
1.0
 40
2.0
 40
2.0
 40
2.0
 40
3.0
 40
3.0
 40
3.0
 40
4.0
 40
4.0
 40
4.0
 40
4.0
 10
15.2827191802071
 20
-9.317122936038774
 10
15.3013571467823
 20
-9.267169051502651
 10
15.3241981298495
 20
-9.17656304024058
 10
15.33353433861453
 20
-9.114758027235199
 10
15.33353433861453
 20
-9.114758027235199
 10
15.41649223789935
 20
-9.106283092341483
 10
15.41649223789935
 20
-9.106283092341483
 10
15.39702744840769
 20
-9.178268362505779
 10
15.35978596621214
 20
-9.272250567343396
 10
15.33604925831876
 20
-9.312041420198029
 10
15.33604925831876
 20
-9.312041420198029
 10
15.2827191802071
 20
-9.317122936038774
 10
15.2827191802071
 20
-9.317122936038774
 97
        0
 97
        0
 75
     2
 76
     1
 98
        0
450
        0
451
        0
460
0.0
461
0.0
452
        0
462
0.0
453
        0
470

  0
SPLINE
  5
92
330
89
100
AcDbEntity
  8
Livello 3
370
     0
100
AcDbSpline
210
0.0
220
0.0
230
1.0
 70
    11
 71
     3
 72
    50
 73
    46
 74
     0
 42
0.000000001
 43
0.0000000001
 40
0.0
 40
0.0
 40
0.0
 40
0.0
 40
1.0
 40
1.0
 40
1.0
 40
2.0
 40
2.0
 40
2.0
 40
3.0
 40
3.0
 40
3.0
 40
4.0
 40
4.0
 40
4.0
 40
5.0
 40
5.0
 40
5.0
 40
6.0
 40
6.0
 40
6.0
 40
7.0
 40
7.0
 40
7.0
 40
8.0
 40
8.0
 40
8.0
 40
9.0
 40
9.0
 40
9.0
 40
10.0
 40
10.0
 40
10.0
 40
11.0
 40
11.0
 40
11.0
 40
12.0
 40
12.0
 40
12.0
 40
13.0
 40
13.0
 40
13.0
 40
14.0
 40
14.0
 40
14.0
 40
15.0
 40
15.0
 40
15.0
 40
15.0
 10
15.81105902382501
 20
-8.725255531672852
 30
0.0
 10
15.81105902382501
 20
-8.725255531672852
 30
0.0
 10
15.60108045399903
 20
-8.725255531672852
 30
0.0
 10
15.60108045399903
 20
-8.725255531672852
 30
0.0
 10
15.60108045399903
 20
-8.725255531672852
 30
0.0
 10
15.57989311676475
 20
-8.866659475864931
 30
0.0
 10
15.57989311676475
 20
-8.866659475864931
 30
0.0
 10
15.59260551910532
 20
-8.864971379077159
 30
0.0
 10
15.60445664757458
 20
-8.86326605681196
 30
0.0
 10
15.62478271093755
 20
-8.86326605681196
 30
0.0
 10
15.66712293445127
 20
-8.86326605681196
 30
0.0
 10
15.70946315796499
 20
-8.872585040099561
 30
0.0
 10
15.743328446585
 20
-8.892911103462537
 30
0.0
 10
15.78649549301518
 20
-8.917457408794939
 30
0.0
 10
15.82208332937781
 20
-8.964879148149403
 30
0.0
 10
15.82208332937781
 20
-9.034315047654617
 30
0.0
 10
15.82208332937781
 20
-9.141853703226688
 30
0.0
 10
15.73654160847906
 20
-9.222296682807273
 30
0.0
 10
15.61716904991515
 20
-9.222296682807273
 30
0.0
 10
15.55705213369754
 20
-9.222296682807273
 30
0.0
 10
15.50623697529011
 20
-9.205364038497268
 30
0.0
 10
15.4799853476925
 20
-9.188414168709838
 30
0.0
 10
15.4799853476925
 20
-9.188414168709838
 30
0.0
 10
15.4986233142677
 20
-9.131690671545202
 30
0.0
 10
15.4986233142677
 20
-9.131690671545202
 30
0.0
 10
15.52146429733491
 20
-9.145247122279661
 30
0.0
 10
15.56635389150772
 20
-9.162179766589664
 30
0.0
 10
15.61630777604384
 20
-9.162179766589664
 30
0.0
 10
15.68658772394294
 20
-9.162179766589664
 30
0.0
 10
15.74670464016054
 20
-9.116446124022973
 30
0.0
 10
15.74670464016054
 20
-9.042789982548329
 30
0.0
 10
15.74587781724408
 20
-8.97164876077792
 30
0.0
 10
15.6984388524122
 20
-8.920850827847909
 30
0.0
 10
15.58836805165846
 20
-8.920850827847909
 30
0.0
 10
15.55705213369754
 20
-8.920850827847909
 30
0.0
 10
15.53248860288771
 20
-8.924244246900883
 30
0.0
 10
15.51216253952474
 20
-8.92677639208254
 30
0.0
 10
15.51216253952474
 20
-8.92677639208254
 30
0.0
 10
15.54771592493251
 20
-8.662589244796157
 30
0.0
 10
15.54771592493251
 20
-8.662589244796157
 30
0.0
 10
15.54771592493251
 20
-8.662589244796157
 30
0.0
 10
15.81105902382501
 20
-8.662589244796157
 30
0.0
 10
15.81105902382501
 20
-8.662589244796157
 30
0.0
 10
15.81105902382501
 20
-8.662589244796157
 30
0.0
 10
15.81105902382501
 20
-8.725255531672852
 30
0.0
 10
15.81105902382501
 20
-8.725255531672852
 30
0.0
  0
HATCH
  5
93
330
89
100
AcDbEntity
  8
Livello 3
 62
   250
420
  1842203
100
AcDbHatch
 10
0.0
 20
0.0
 30
0.0
210
0.0
220
0.0
230
1.0
  2
SOLID
 70
     1
 71
     0
 91
        1
 92
        1
 93
        1
 72
     4
 94
        3
 73
     0
 74
     0
 95
       50
 96
       46
 40
0.0
 40
0.0
 40
0.0
 40
0.0
 40
1.0
 40
1.0
 40
1.0
 40
2.0
 40
2.0
 40
2.0
 40
3.0
 40
3.0
 40
3.0
 40
4.0
 40
4.0
 40
4.0
 40
5.0
 40
5.0
 40
5.0
 40
6.0
 40
6.0
 40
6.0
 40
7.0
 40
7.0
 40
7.0
 40
8.0
 40
8.0
 40
8.0
 40
9.0
 40
9.0
 40
9.0
 40
10.0
 40
10.0
 40
10.0
 40
11.0
 40
11.0
 40
11.0
 40
12.0
 40
12.0
 40
12.0
 40
13.0
 40
13.0
 40
13.0
 40
14.0
 40
14.0
 40
14.0
 40
15.0
 40
15.0
 40
15.0
 40
15.0
 10
15.81105902382501
 20
-8.725255531672852
 10
15.81105902382501
 20
-8.725255531672852
 10
15.60108045399903
 20
-8.725255531672852
 10
15.60108045399903
 20
-8.725255531672852
 10
15.60108045399903
 20
-8.725255531672852
 10
15.57989311676475
 20
-8.866659475864931
 10
15.57989311676475
 20
-8.866659475864931
 10
15.59260551910532
 20
-8.864971379077159
 10
15.60445664757458
 20
-8.86326605681196
 10
15.62478271093755
 20
-8.86326605681196
 10
15.66712293445127
 20
-8.86326605681196
 10
15.70946315796499
 20
-8.872585040099561
 10
15.743328446585
 20
-8.892911103462537
 10
15.78649549301518
 20
-8.917457408794939
 10
15.82208332937781
 20
-8.964879148149403
 10
15.82208332937781
 20
-9.034315047654617
 10
15.82208332937781
 20
-9.141853703226688
 10
15.73654160847906
 20
-9.222296682807273
 10
15.61716904991515
 20
-9.222296682807273
 10
15.55705213369754
 20
-9.222296682807273
 10
15.50623697529011
 20
-9.205364038497268
 10
15.4799853476925
 20
-9.188414168709838
 10
15.4799853476925
 20
-9.188414168709838
 10
15.4986233142677
 20
-9.131690671545202
 10
15.4986233142677
 20
-9.131690671545202
 10
15.52146429733491
 20
-9.145247122279661
 10
15.56635389150772
 20
-9.162179766589664
 10
15.61630777604384
 20
-9.162179766589664
 10
15.68658772394294
 20
-9.162179766589664
 10
15.74670464016054
 20
-9.116446124022973
 10
15.74670464016054
 20
-9.042789982548329
 10
15.74587781724408
 20
-8.97164876077792
 10
15.6984388524122
 20
-8.920850827847909
 10
15.58836805165846
 20
-8.920850827847909
 10
15.55705213369754
 20
-8.920850827847909
 10
15.53248860288771
 20
-8.924244246900883
 10
15.51216253952474
 20
-8.92677639208254
 10
15.51216253952474
 20
-8.92677639208254
 10
15.54771592493251
 20
-8.662589244796157
 10
15.54771592493251
 20
-8.662589244796157
 10
15.54771592493251
 20
-8.662589244796157
 10
15.81105902382501
 20
-8.662589244796157
 10
15.81105902382501
 20
-8.662589244796157
 10
15.81105902382501
 20
-8.662589244796157
 10
15.81105902382501
 20
-8.725255531672852
 10
15.81105902382501
 20
-8.725255531672852
 97
        0
 97
        0
 75
     2
 76
     1
 98
        0
450
        0
451
        0
460
0.0
461
0.0
452
        0
462
0.0
453
        0
470

  0
ENDBLK
  5
8C
330
89
100
AcDbEntity
  8
0
100
AcDbBlockEnd
  0
ENDSEC
  0
SECTION
  2
ENTITIES
  0
LINE
  5
C4
330
1F
100
AcDbEntity
  8
Livello 3
370
    -2
100
AcDbLine
 10
18.2862657922498
 20
-7.593197697748219
 30
0.0
 11
13.13684915760857
 21
-7.593197697748219
 31
0.0
  0
LINE
  5
C5
330
1F
100
AcDbEntity
  8
Livello 3
370
    -2
100
AcDbLine
 10
13.13684915760857
 20
-7.593197697748219
 30
0.0
 11
13.13684915760857
 21
-2.443778087924451
 31
0.0
  0
LINE
  5
C6
330
1F
100
AcDbEntity
  8
Livello 3
370
    -2
100
AcDbLine
 10
13.13684915760857
 20
-2.443778087924451
 30
0.0
 11
18.2862657922498
 21
-2.443778087924451
 31
0.0
  0
LINE
  5
C7
330
1F
100
AcDbEntity
  8
Livello 3
370
    -2
100
AcDbLine
 10
18.2862657922498
 20
-2.443778087924451
 30
0.0
 11
18.2862657922498
 21
-7.593197697748219
 31
0.0
  0
LINE
  5
C8
330
1F
100
AcDbEntity
  8
Livello 3
370
    -2
100
AcDbLine
 10
17.27483360759534
 20
-6.959414781239989
 30
0.0
 11
14.20888082470321
 21
-6.959414781239989
 31
0.0
  0
LINE
  5
C9
330
1F
100
AcDbEntity
  8
Livello 3
370
    -2
100
AcDbLine
 10
14.20888082470321
 20
-6.959414781239989
 30
0.0
 11
14.20888082470321
 21
-3.593748976525848
 31
0.0
  0
LINE
  5
CA
330
1F
100
AcDbEntity
  8
Livello 3
370
    -2
100
AcDbLine
 10
14.20888082470321
 20
-3.593748976525848
 30
0.0
 11
17.27483360759534
 21
-3.593748976525848
 31
0.0
  0
LINE
  5
CB
330
1F
100
AcDbEntity
  8
Livello 3
370
    -2
100
AcDbLine
 10
17.27483360759534
 20
-3.593748976525848
 30
0.0
 11
17.27483360759534
 21
-6.959414781239989
 31
0.0
  0
LINE
  5
CC
330
1F
100
AcDbEntity
  8
Livello 3
370
    -2
100
AcDbLine
 10
17.89052959188763
 20
-17.81796769519197
 30
0.0
 11
17.69597618018444
 21
-17.81796769519197
 31
0.0
  0
LINE
  5
CD
330
1F
100
AcDbEntity
  8
Livello 3
370
    -2
100
AcDbLine
 10
17.69597618018444
 20
-17.81796769519197
 30
0.0
 11
17.69597618018444
 21
-12.66855161314608
 31
0.0
  0
LINE
  5
CE
330
1F
100
AcDbEntity
  8
Livello 3
370
    -2
100
AcDbLine
 10
17.69597618018444
 20
-12.66855161314608
 30
0.0
 11
17.89052959188763
 21
-12.66855161314608
 31
0.0
  0
LINE
  5
CF
330
1F
100
AcDbEntity
  8
Livello 3
370
    -2
100
AcDbLine
 10
17.89052959188763
 20
-12.66855161314608
 30
0.0
 11
17.89052959188763
 21
-17.81796769519197
 31
0.0
  0
LINE
  5
D0
330
1F
100
AcDbEntity
  8
Livello 3
370
    -2
100
AcDbLine
 10
13.53258523788266
 20
-17.65635666745462
 30
0.0
 11
17.69534470797833
 21
-17.65635666745462
 31
0.0
  0
LINE
  5
D1
330
1F
100
AcDbEntity
  8
Livello 3
370
    -2
100
AcDbLine
 10
17.69534470797833
 20
-17.65635666745462
 30
0.0
 11
17.69534470797833
 21
-12.83016616866125
 31
0.0
  0
LINE
  5
D2
330
1F
100
AcDbEntity
  8
Livello 3
370
    -2
100
AcDbLine
 10
17.69534470797833
 20
-12.83016616866125
 30
0.0
 11
13.53258523788266
 21
-12.83016616866125
 31
0.0
  0
LINE
  5
D3
330
1F
100
AcDbEntity
  8
Livello 3
370
    -2
100
AcDbLine
 10
13.53258523788266
 20
-12.83016616866125
 30
0.0
 11
13.53258523788266
 21
-17.65635666745462
 31
0.0
  0
LINE
  5
D4
330
1F
100
AcDbEntity
  8
Livello 3
370
    -2
100
AcDbLine
 10
13.13684915760857
 20
-8.321635800388751
 30
0.0
 11
18.2862657922498
 21
-8.321635800388751
 31
0.0
  0
LINE
  5
D5
330
1F
100
AcDbEntity
  8
Livello 3
370
    -2
100
AcDbLine
 10
13.53258523788266
 20
-18.5443518472158
 30
0.0
 11
17.89052959188763
 21
-18.5443518472158
 31
0.0
  0
LINE
  5
D6
330
1F
100
AcDbEntity
  8
Livello 3
370
    -2
100
AcDbLine
 10
19.37141974824357
 20
-12.66855161314608
 30
0.0
 11
19.37141974824357
 21
-17.81796769519197
 31
0.0
  0
POLYLINE
  5
D7
330
1F
100
AcDbEntity
  8
Livello 3
370
    -2
100
AcDb2dPolyline
 66
     1
 10
0.0
 20
0.0
 30
0.0
  0
VERTEX
  5
D8
330
D7
100
AcDbEntity
  8
Livello 3
370
    -2
100
AcDbVertex
100
AcDb2dVertex
 10
15.78704670829282
 20
-18.72833142977972
 30
0.0
  0
VERTEX
  5
D9
330
D7
100
AcDbEntity
  8
Livello 3
370
    -2
100
AcDbVertex
100
AcDb2dVertex
 10
15.78704670829282
 20
-18.77745849139938
 30
0.0
  0
VERTEX
  5
DA
330
D7
100
AcDbEntity
  8
Livello 3
370
    -2
100
AcDbVertex
100
AcDb2dVertex
 10
15.54744031729369
 20
-19.27871988450324
 30
0.0
  0
VERTEX
  5
DB
330
D7
100
AcDbEntity
  8
Livello 3
370
    -2
100
AcDbVertex
100
AcDb2dVertex
 10
15.47037353128866
 20
-19.27871988450324
 30
0.0
  0
VERTEX
  5
DC
330
D7
100
AcDbEntity
  8
Livello 3
370
    -2
100
AcDbVertex
100
AcDb2dVertex
 10
15.70915309937132
 20
-18.79185899052773
 30
0.0
  0
VERTEX
  5
DD
330
D7
100
AcDbEntity
  8
Livello 3
370
    -2
100
AcDbVertex
100
AcDb2dVertex
 10
15.70915309937132
 20
-18.79017089373995
 30
0.0
  0
VERTEX
  5
DE
330
D7
100
AcDbEntity
  8
Livello 3
370
    -2
100
AcDbVertex
100
AcDb2dVertex
 10
15.43988443624419
 20
-18.79017089373995
 30
0.0
  0
VERTEX
  5
DF
330
D7
100
AcDbEntity
  8
Livello 3
370
    -2
100
AcDbVertex
100
AcDb2dVertex
 10
15.43988443624419
 20
-18.72833142977972
 30
0.0
  0
VERTEX
  5
E0
330
D7
100
AcDbEntity
  8
Livello 3
370
    -2
100
AcDbVertex
100
AcDb2dVertex
 10
15.78704670829282
 20
-18.72833142977972
 30
0.0
  0
SEQEND
  5
E1
330
D7
100
AcDbEntity
  8
Livello 3
370
    -2
  0
HATCH
  5
E2
330
1F
100
AcDbEntity
  8
Livello 3
370
    -2
100
AcDbHatch
 10
0.0
 20
0.0
 30
0.0
210
0.0
220
0.0
230
1.0
  2
SOLID
 70
     1
 71
     0
 91
        1
 92
        1
 93
        8
 72
     1
 10
15.78704670829282
 20
-18.72833142977972
 11
15.78704670829282
 21
-18.77745849139938
 72
     1
 10
15.78704670829282
 20
-18.77745849139938
 11
15.54744031729369
 21
-19.27871988450324
 72
     1
 10
15.54744031729369
 20
-19.27871988450324
 11
15.47037353128866
 21
-19.27871988450324
 72
     1
 10
15.47037353128866
 20
-19.27871988450324
 11
15.70915309937132
 21
-18.79185899052773
 72
     1
 10
15.70915309937132
 20
-18.79185899052773
 11
15.70915309937132
 21
-18.79017089373995
 72
     1
 10
15.70915309937132
 20
-18.79017089373995
 11
15.43988443624419
 21
-18.79017089373995
 72
     1
 10
15.43988443624419
 20
-18.79017089373995
 11
15.43988443624419
 21
-18.72833142977972
 72
     1
 10
15.43988443624419
 20
-18.72833142977972
 11
15.78704670829282
 21
-18.72833142977972
 97
        0
 75
     2
 76
     1
 98
        0
450
        0
451
        0
460
0.0
461
0.0
452
        0
462
0.0
453
        0
470

  0
POLYLINE
  5
E3
330
1F
100
AcDbEntity
  8
Livello 3
370
    -2
100
AcDb2dPolyline
 66
     1
 10
0.0
 20
0.0
 30
0.0
  0
VERTEX
  5
E4
330
E3
100
AcDbEntity
  8
Livello 3
370
    -2
100
AcDbVertex
100
AcDb2dVertex
 10
19.60810546384797
 20
-15.34473089894159
 30
0.0
  0
VERTEX
  5
E5
330
E3
100
AcDbEntity
  8
Livello 3
370
    -2
100
AcDbVertex
100
AcDb2dVertex
 10
19.65723252546763
 20
-15.34473089894159
 30
0.0
  0
VERTEX
  5
E6
330
E3
100
AcDbEntity
  8
Livello 3
370
    -2
100
AcDbVertex
100
AcDb2dVertex
 10
20.15849391857149
 20
-15.58433728994072
 30
0.0
  0
VERTEX
  5
E7
330
E3
100
AcDbEntity
  8
Livello 3
370
    -2
100
AcDbVertex
100
AcDb2dVertex
 10
20.15849391857149
 20
-15.66140407594576
 30
0.0
  0
VERTEX
  5
E8
330
E3
100
AcDbEntity
  8
Livello 3
370
    -2
100
AcDbVertex
100
AcDb2dVertex
 10
19.67163302459598
 20
-15.42259005690824
 30
0.0
  0
VERTEX
  5
E9
330
E3
100
AcDbEntity
  8
Livello 3
370
    -2
100
AcDbVertex
100
AcDb2dVertex
 10
19.66994492780821
 20
-15.42259005690824
 30
0.0
  0
VERTEX
  5
EA
330
E3
100
AcDbEntity
  8
Livello 3
370
    -2
100
AcDbVertex
100
AcDb2dVertex
 10
19.66994492780821
 20
-15.69185872003537
 30
0.0
  0
VERTEX
  5
EB
330
E3
100
AcDbEntity
  8
Livello 3
370
    -2
100
AcDbVertex
100
AcDb2dVertex
 10
19.60810546384797
 20
-15.69185872003537
 30
0.0
  0
VERTEX
  5
EC
330
E3
100
AcDbEntity
  8
Livello 3
370
    -2
100
AcDbVertex
100
AcDb2dVertex
 10
19.60810546384797
 20
-15.34473089894159
 30
0.0
  0
SEQEND
  5
ED
330
E3
100
AcDbEntity
  8
Livello 3
370
    -2
  0
HATCH
  5
EE
330
1F
100
AcDbEntity
  8
Livello 3
370
    -2
100
AcDbHatch
 10
0.0
 20
0.0
 30
0.0
210
0.0
220
0.0
230
1.0
  2
SOLID
 70
     1
 71
     0
 91
        1
 92
        1
 93
        8
 72
     1
 10
19.60810546384797
 20
-15.34473089894159
 11
19.65723252546763
 21
-15.34473089894159
 72
     1
 10
19.65723252546763
 20
-15.34473089894159
 11
20.15849391857149
 21
-15.58433728994072
 72
     1
 10
20.15849391857149
 20
-15.58433728994072
 11
20.15849391857149
 21
-15.66140407594576
 72
     1
 10
20.15849391857149
 20
-15.66140407594576
 11
19.67163302459598
 21
-15.42259005690824
 72
     1
 10
19.67163302459598
 20
-15.42259005690824
 11
19.66994492780821
 21
-15.42259005690824
 72
     1
 10
19.66994492780821
 20
-15.42259005690824
 11
19.66994492780821
 21
-15.69185872003537
 72
     1
 10
19.66994492780821
 20
-15.69185872003537
 11
19.60810546384797
 21
-15.69185872003537
 72
     1
 10
19.60810546384797
 20
-15.69185872003537
 11
19.60810546384797
 21
-15.34473089894159
 97
        0
 75
     2
 76
     1
 98
        0
450
        0
451
        0
460
0.0
461
0.0
452
        0
462
0.0
453
        0
470

  0
SPLINE
  5
EF
330
1F
100
AcDbEntity
  8
Livello 3
370
    -2
100
AcDbSpline
210
0.0
220
0.0
230
1.0
 70
     9
 71
     3
 72
    38
 73
    34
 74
     0
 42
0.000000001
 43
0.0000000001
 40
0.0
 40
0.0
 40
0.0
 40
0.0
 40
1.0
 40
1.0
 40
1.0
 40
2.0
 40
2.0
 40
2.0
 40
3.0
 40
3.0
 40
3.0
 40
4.0
 40
4.0
 40
4.0
 40
5.0
 40
5.0
 40
5.0
 40
6.0
 40
6.0
 40
6.0
 40
7.0
 40
7.0
 40
7.0
 40
8.0
 40
8.0
 40
8.0
 40
9.0
 40
9.0
 40
9.0
 40
10.0
 40
10.0
 40
10.0
 40
11.0
 40
11.0
 40
11.0
 40
11.0
 10
15.18708332953656
 20
-8.715092499991365
 30
0.0
 10
15.17185600749176
 20
-8.714248451597478
 30
0.0
 10
15.1523912180001
 20
-8.715092499991365
 30
0.0
 10
15.13120388076581
 20
-8.718485919044338
 30
0.0
 10
15.01434624190613
 20
-8.737950708535997
 30
0.0
 10
14.95254122890075
 20
-8.823475203957325
 30
0.0
 10
14.93982882656018
 20
-8.914081215219395
 30
0.0
 10
14.93982882656018
 20
-8.914081215219395
 30
0.0
 10
14.94237819721926
 20
-8.914081215219395
 30
0.0
 10
14.94237819721926
 20
-8.914081215219395
 30
0.0
 10
14.96862982481687
 20
-8.879354652728078
 30
0.0
 10
15.01434624190613
 20
-8.850570879948813
 30
0.0
 10
15.07532443199506
 20
-8.850570879948813
 30
0.0
 10
15.17268283040822
 20
-8.850570879948813
 30
0.0
 10
15.24127468151954
 20
-8.920850827847909
 30
0.0
 10
15.24127468151954
 20
-9.028389483419985
 30
0.0
 10
15.24127468151954
 20
-9.129158526363543
 30
0.0
 10
15.17268283040822
 20
-9.222296682807273
 30
0.0
 10
15.05837456220763
 20
-9.222296682807273
 30
0.0
 10
14.94069010043149
 20
-9.222296682807273
 30
0.0
 10
14.86364053990388
 20
-9.130846623151317
 30
0.0
 10
14.86364053990388
 20
-8.987737356694037
 30
0.0
 10
14.86364053990388
 20
-8.879354652728078
 30
0.0
 10
14.90258734436463
 20
-8.793847382784178
 30
0.0
 10
14.95677869634761
 20
-8.739656030801196
 30
0.0
 10
15.00249511343688
 20
-8.694766436628393
 30
0.0
 10
15.0634733035258
 20
-8.666826712243015
 30
0.0
 10
15.13289197755358
 20
-8.658369002826725
 30
0.0
 10
15.15490613770433
 20
-8.654975583773754
 30
0.0
 10
15.17354410427953
 20
-8.654131535379869
 30
0.0
 10
15.18708332953656
 20
-8.654131535379869
 30
0.0
 10
15.18708332953656
 20
-8.654131535379869
 30
0.0
 10
15.18708332953656
 20
-8.715092499991365
 30
0.0
 10
15.18708332953656
 20
-8.715092499991365
 30
0.0
  0
SPLINE
  5
F0
330
1F
100
AcDbEntity
  8
Livello 3
370
    -2
100
AcDbSpline
210
0.0
220
0.0
230
1.0
 70
     9
 71
     3
 72
    20
 73
    16
 74
     0
 42
0.000000001
 43
0.0000000001
 40
0.0
 40
0.0
 40
0.0
 40
0.0
 40
1.0
 40
1.0
 40
1.0
 40
2.0
 40
2.0
 40
2.0
 40
3.0
 40
3.0
 40
3.0
 40
4.0
 40
4.0
 40
4.0
 40
5.0
 40
5.0
 40
5.0
 40
5.0
 10
15.16593044325713
 20
-9.032626950866841
 30
0.0
 10
15.16593044325713
 20
-8.95387206807403
 30
0.0
 10
15.12104084908432
 20
-8.906450328719568
 30
0.0
 10
15.052448997973
 20
-8.906450328719568
 30
0.0
 10
15.00759385475505
 20
-8.906450328719568
 30
0.0
 10
14.96608045415778
 20
-8.934407278582369
 30
0.0
 10
14.94575439079481
 20
-8.974198131437006
 30
0.0
 10
14.94069010043149
 20
-8.98267306633072
 30
0.0
 10
14.93731390685595
 20
-8.993680146406093
 30
0.0
 10
14.93731390685595
 20
-9.007219371663122
 30
0.0
 10
14.93900200364372
 20
-9.097825382925195
 30
0.0
 10
14.98048095328613
 20
-9.164711911771322
 30
0.0
 10
15.05837456220763
 20
-9.164711911771322
 30
0.0
 10
15.12272894587209
 20
-9.164711911771322
 30
0.0
 10
15.16593044325713
 20
-9.111364608182226
 30
0.0
 10
15.16593044325713
 20
-9.032626950866841
 30
0.0
  0
HATCH
  5
F1
330
1F
100
AcDbEntity
  8
Livello 3
370
    -2
100
AcDbHatch
 10
0.0
 20
0.0
 30
0.0
210
0.0
220
0.0
230
1.0
  2
SOLID
 70
     1
 71
     0
 91
        2
 92
        1
 93
        1
 72
     4
 94
        3
 73
     0
 74
     0
 95
       38
 96
       34
 40
0.0
 40
0.0
 40
0.0
 40
0.0
 40
1.0
 40
1.0
 40
1.0
 40
2.0
 40
2.0
 40
2.0
 40
3.0
 40
3.0
 40
3.0
 40
4.0
 40
4.0
 40
4.0
 40
5.0
 40
5.0
 40
5.0
 40
6.0
 40
6.0
 40
6.0
 40
7.0
 40
7.0
 40
7.0
 40
8.0
 40
8.0
 40
8.0
 40
9.0
 40
9.0
 40
9.0
 40
10.0
 40
10.0
 40
10.0
 40
11.0
 40
11.0
 40
11.0
 40
11.0
 10
15.18708332953656
 20
-8.715092499991365
 10
15.17185600749176
 20
-8.714248451597478
 10
15.1523912180001
 20
-8.715092499991365
 10
15.13120388076581
 20
-8.718485919044338
 10
15.01434624190613
 20
-8.737950708535997
 10
14.95254122890075
 20
-8.823475203957325
 10
14.93982882656018
 20
-8.914081215219395
 10
14.93982882656018
 20
-8.914081215219395
 10
14.94237819721926
 20
-8.914081215219395
 10
14.94237819721926
 20
-8.914081215219395
 10
14.96862982481687
 20
-8.879354652728078
 10
15.01434624190613
 20
-8.850570879948813
 10
15.07532443199506
 20
-8.850570879948813
 10
15.17268283040822
 20
-8.850570879948813
 10
15.24127468151954
 20
-8.920850827847909
 10
15.24127468151954
 20
-9.028389483419985
 10
15.24127468151954
 20
-9.129158526363543
 10
15.17268283040822
 20
-9.222296682807273
 10
15.05837456220763
 20
-9.222296682807273
 10
14.94069010043149
 20
-9.222296682807273
 10
14.86364053990388
 20
-9.130846623151317
 10
14.86364053990388
 20
-8.987737356694037
 10
14.86364053990388
 20
-8.879354652728078
 10
14.90258734436463
 20
-8.793847382784178
 10
14.95677869634761
 20
-8.739656030801196
 10
15.00249511343688
 20
-8.694766436628393
 10
15.0634733035258
 20
-8.666826712243015
 10
15.13289197755358
 20
-8.658369002826725
 10
15.15490613770433
 20
-8.654975583773754
 10
15.17354410427953
 20
-8.654131535379869
 10
15.18708332953656
 20
-8.654131535379869
 10
15.18708332953656
 20
-8.654131535379869
 10
15.18708332953656
 20
-8.715092499991365
 10
15.18708332953656
 20
-8.715092499991365
 97
        0
 97
        0
 92
        1
 93
        1
 72
     4
 94
        3
 73
     0
 74
     0
 95
       20
 96
       16
 40
0.0
 40
0.0
 40
0.0
 40
0.0
 40
1.0
 40
1.0
 40
1.0
 40
2.0
 40
2.0
 40
2.0
 40
3.0
 40
3.0
 40
3.0
 40
4.0
 40
4.0
 40
4.0
 40
5.0
 40
5.0
 40
5.0
 40
5.0
 10
15.16593044325713
 20
-9.032626950866841
 10
15.16593044325713
 20
-8.95387206807403
 10
15.12104084908432
 20
-8.906450328719568
 10
15.052448997973
 20
-8.906450328719568
 10
15.00759385475505
 20
-8.906450328719568
 10
14.96608045415778
 20
-8.934407278582369
 10
14.94575439079481
 20
-8.974198131437006
 10
14.94069010043149
 20
-8.98267306633072
 10
14.93731390685595
 20
-8.993680146406093
 10
14.93731390685595
 20
-9.007219371663122
 10
14.93900200364372
 20
-9.097825382925195
 10
14.98048095328613
 20
-9.164711911771322
 10
15.05837456220763
 20
-9.164711911771322
 10
15.12272894587209
 20
-9.164711911771322
 10
15.16593044325713
 20
-9.111364608182226
 10
15.16593044325713
 20
-9.032626950866841
 97
        0
 97
        0
 75
     2
 76
     1
 98
        0
450
        0
451
        0
460
0.0
461
0.0
452
        0
462
0.0
453
        0
470

  0
SPLINE
  5
F2
330
1F
100
AcDbEntity
  8
Livello 3
370
    -2
100
AcDbSpline
210
0.0
220
0.0
230
1.0
 70
     9
 71
     3
 72
    17
 73
    13
 74
     0
 42
0.000000001
 43
0.0000000001
 40
0.0
 40
0.0
 40
0.0
 40
0.0
 40
1.0
 40
1.0
 40
1.0
 40
2.0
 40
2.0
 40
2.0
 40
3.0
 40
3.0
 40
3.0
 40
4.0
 40
4.0
 40
4.0
 40
4.0
 10
15.2827191802071
 20
-9.317122936038774
 30
0.0
 10
15.3013571467823
 20
-9.267169051502651
 30
0.0
 10
15.3241981298495
 20
-9.17656304024058
 30
0.0
 10
15.33353433861453
 20
-9.114758027235199
 30
0.0
 10
15.33353433861453
 20
-9.114758027235199
 30
0.0
 10
15.41649223789935
 20
-9.106283092341483
 30
0.0
 10
15.41649223789935
 20
-9.106283092341483
 30
0.0
 10
15.39702744840769
 20
-9.178268362505779
 30
0.0
 10
15.35978596621214
 20
-9.272250567343396
 30
0.0
 10
15.33604925831876
 20
-9.312041420198029
 30
0.0
 10
15.33604925831876
 20
-9.312041420198029
 30
0.0
 10
15.2827191802071
 20
-9.317122936038774
 30
0.0
 10
15.2827191802071
 20
-9.317122936038774
 30
0.0
  0
HATCH
  5
F3
330
1F
100
AcDbEntity
  8
Livello 3
370
    -2
100
AcDbHatch
 10
0.0
 20
0.0
 30
0.0
210
0.0
220
0.0
230
1.0
  2
SOLID
 70
     1
 71
     0
 91
        1
 92
        1
 93
        1
 72
     4
 94
        3
 73
     0
 74
     0
 95
       17
 96
       13
 40
0.0
 40
0.0
 40
0.0
 40
0.0
 40
1.0
 40
1.0
 40
1.0
 40
2.0
 40
2.0
 40
2.0
 40
3.0
 40
3.0
 40
3.0
 40
4.0
 40
4.0
 40
4.0
 40
4.0
 10
15.2827191802071
 20
-9.317122936038774
 10
15.3013571467823
 20
-9.267169051502651
 10
15.3241981298495
 20
-9.17656304024058
 10
15.33353433861453
 20
-9.114758027235199
 10
15.33353433861453
 20
-9.114758027235199
 10
15.41649223789935
 20
-9.106283092341483
 10
15.41649223789935
 20
-9.106283092341483
 10
15.39702744840769
 20
-9.178268362505779
 10
15.35978596621214
 20
-9.272250567343396
 10
15.33604925831876
 20
-9.312041420198029
 10
15.33604925831876
 20
-9.312041420198029
 10
15.2827191802071
 20
-9.317122936038774
 10
15.2827191802071
 20
-9.317122936038774
 97
        0
 97
        0
 75
     2
 76
     1
 98
        0
450
        0
451
        0
460
0.0
461
0.0
452
        0
462
0.0
453
        0
470

  0
SPLINE
  5
F4
330
1F
100
AcDbEntity
  8
Livello 3
370
    -2
100
AcDbSpline
210
0.0
220
0.0
230
1.0
 70
    11
 71
     3
 72
    50
 73
    46
 74
     0
 42
0.000000001
 43
0.0000000001
 40
0.0
 40
0.0
 40
0.0
 40
0.0
 40
1.0
 40
1.0
 40
1.0
 40
2.0
 40
2.0
 40
2.0
 40
3.0
 40
3.0
 40
3.0
 40
4.0
 40
4.0
 40
4.0
 40
5.0
 40
5.0
 40
5.0
 40
6.0
 40
6.0
 40
6.0
 40
7.0
 40
7.0
 40
7.0
 40
8.0
 40
8.0
 40
8.0
 40
9.0
 40
9.0
 40
9.0
 40
10.0
 40
10.0
 40
10.0
 40
11.0
 40
11.0
 40
11.0
 40
12.0
 40
12.0
 40
12.0
 40
13.0
 40
13.0
 40
13.0
 40
14.0
 40
14.0
 40
14.0
 40
15.0
 40
15.0
 40
15.0
 40
15.0
 10
15.81105902382501
 20
-8.725255531672852
 30
0.0
 10
15.81105902382501
 20
-8.725255531672852
 30
0.0
 10
15.60108045399903
 20
-8.725255531672852
 30
0.0
 10
15.60108045399903
 20
-8.725255531672852
 30
0.0
 10
15.60108045399903
 20
-8.725255531672852
 30
0.0
 10
15.57989311676475
 20
-8.866659475864931
 30
0.0
 10
15.57989311676475
 20
-8.866659475864931
 30
0.0
 10
15.59260551910532
 20
-8.864971379077159
 30
0.0
 10
15.60445664757458
 20
-8.86326605681196
 30
0.0
 10
15.62478271093755
 20
-8.86326605681196
 30
0.0
 10
15.66712293445127
 20
-8.86326605681196
 30
0.0
 10
15.70946315796499
 20
-8.872585040099561
 30
0.0
 10
15.743328446585
 20
-8.892911103462537
 30
0.0
 10
15.78649549301518
 20
-8.917457408794939
 30
0.0
 10
15.82208332937781
 20
-8.964879148149403
 30
0.0
 10
15.82208332937781
 20
-9.034315047654617
 30
0.0
 10
15.82208332937781
 20
-9.141853703226688
 30
0.0
 10
15.73654160847906
 20
-9.222296682807273
 30
0.0
 10
15.61716904991515
 20
-9.222296682807273
 30
0.0
 10
15.55705213369754
 20
-9.222296682807273
 30
0.0
 10
15.50623697529011
 20
-9.205364038497268
 30
0.0
 10
15.4799853476925
 20
-9.188414168709838
 30
0.0
 10
15.4799853476925
 20
-9.188414168709838
 30
0.0
 10
15.4986233142677
 20
-9.131690671545202
 30
0.0
 10
15.4986233142677
 20
-9.131690671545202
 30
0.0
 10
15.52146429733491
 20
-9.145247122279661
 30
0.0
 10
15.56635389150772
 20
-9.162179766589664
 30
0.0
 10
15.61630777604384
 20
-9.162179766589664
 30
0.0
 10
15.68658772394294
 20
-9.162179766589664
 30
0.0
 10
15.74670464016054
 20
-9.116446124022973
 30
0.0
 10
15.74670464016054
 20
-9.042789982548329
 30
0.0
 10
15.74587781724408
 20
-8.97164876077792
 30
0.0
 10
15.6984388524122
 20
-8.920850827847909
 30
0.0
 10
15.58836805165846
 20
-8.920850827847909
 30
0.0
 10
15.55705213369754
 20
-8.920850827847909
 30
0.0
 10
15.53248860288771
 20
-8.924244246900883
 30
0.0
 10
15.51216253952474
 20
-8.92677639208254
 30
0.0
 10
15.51216253952474
 20
-8.92677639208254
 30
0.0
 10
15.54771592493251
 20
-8.662589244796157
 30
0.0
 10
15.54771592493251
 20
-8.662589244796157
 30
0.0
 10
15.54771592493251
 20
-8.662589244796157
 30
0.0
 10
15.81105902382501
 20
-8.662589244796157
 30
0.0
 10
15.81105902382501
 20
-8.662589244796157
 30
0.0
 10
15.81105902382501
 20
-8.662589244796157
 30
0.0
 10
15.81105902382501
 20
-8.725255531672852
 30
0.0
 10
15.81105902382501
 20
-8.725255531672852
 30
0.0
  0
HATCH
  5
F5
330
1F
100
AcDbEntity
  8
Livello 3
370
    -2
100
AcDbHatch
 10
0.0
 20
0.0
 30
0.0
210
0.0
220
0.0
230
1.0
  2
SOLID
 70
     1
 71
     0
 91
        1
 92
        1
 93
        1
 72
     4
 94
        3
 73
     0
 74
     0
 95
       50
 96
       46
 40
0.0
 40
0.0
 40
0.0
 40
0.0
 40
1.0
 40
1.0
 40
1.0
 40
2.0
 40
2.0
 40
2.0
 40
3.0
 40
3.0
 40
3.0
 40
4.0
 40
4.0
 40
4.0
 40
5.0
 40
5.0
 40
5.0
 40
6.0
 40
6.0
 40
6.0
 40
7.0
 40
7.0
 40
7.0
 40
8.0
 40
8.0
 40
8.0
 40
9.0
 40
9.0
 40
9.0
 40
10.0
 40
10.0
 40
10.0
 40
11.0
 40
11.0
 40
11.0
 40
12.0
 40
12.0
 40
12.0
 40
13.0
 40
13.0
 40
13.0
 40
14.0
 40
14.0
 40
14.0
 40
15.0
 40
15.0
 40
15.0
 40
15.0
 10
15.81105902382501
 20
-8.725255531672852
 10
15.81105902382501
 20
-8.725255531672852
 10
15.60108045399903
 20
-8.725255531672852
 10
15.60108045399903
 20
-8.725255531672852
 10
15.60108045399903
 20
-8.725255531672852
 10
15.57989311676475
 20
-8.866659475864931
 10
15.57989311676475
 20
-8.866659475864931
 10
15.59260551910532
 20
-8.864971379077159
 10
15.60445664757458
 20
-8.86326605681196
 10
15.62478271093755
 20
-8.86326605681196
 10
15.66712293445127
 20
-8.86326605681196
 10
15.70946315796499
 20
-8.872585040099561
 10
15.743328446585
 20
-8.892911103462537
 10
15.78649549301518
 20
-8.917457408794939
 10
15.82208332937781
 20
-8.964879148149403
 10
15.82208332937781
 20
-9.034315047654617
 10
15.82208332937781
 20
-9.141853703226688
 10
15.73654160847906
 20
-9.222296682807273
 10
15.61716904991515
 20
-9.222296682807273
 10
15.55705213369754
 20
-9.222296682807273
 10
15.50623697529011
 20
-9.205364038497268
 10
15.4799853476925
 20
-9.188414168709838
 10
15.4799853476925
 20
-9.188414168709838
 10
15.4986233142677
 20
-9.131690671545202
 10
15.4986233142677
 20
-9.131690671545202
 10
15.52146429733491
 20
-9.145247122279661
 10
15.56635389150772
 20
-9.162179766589664
 10
15.61630777604384
 20
-9.162179766589664
 10
15.68658772394294
 20
-9.162179766589664
 10
15.74670464016054
 20
-9.116446124022973
 10
15.74670464016054
 20
-9.042789982548329
 10
15.74587781724408
 20
-8.97164876077792
 10
15.6984388524122
 20
-8.920850827847909
 10
15.58836805165846
 20
-8.920850827847909
 10
15.55705213369754
 20
-8.920850827847909
 10
15.53248860288771
 20
-8.924244246900883
 10
15.51216253952474
 20
-8.92677639208254
 10
15.51216253952474
 20
-8.92677639208254
 10
15.54771592493251
 20
-8.662589244796157
 10
15.54771592493251
 20
-8.662589244796157
 10
15.54771592493251
 20
-8.662589244796157
 10
15.81105902382501
 20
-8.662589244796157
 10
15.81105902382501
 20
-8.662589244796157
 10
15.81105902382501
 20
-8.662589244796157
 10
15.81105902382501
 20
-8.725255531672852
 10
15.81105902382501
 20
-8.725255531672852
 97
        0
 97
        0
 75
     2
 76
     1
 98
        0
450
        0
451
        0
460
0.0
461
0.0
452
        0
462
0.0
453
        0
470

  0
ENDSEC
  0
SECTION
  2
OBJECTS
  0
DICTIONARY
  5
C
330
0
100
AcDbDictionary
281
     1
  3
ACAD_CIP_PREVIOUS_PRODUCT_INFO
350
C1
  3
ACAD_COLOR
350
A2
  3
ACAD_DETAILVIEWSTYLE
350
BD
  3
ACAD_GROUP
350
D
  3
ACAD_LAYOUT
350
1A
  3
ACAD_MATERIAL
350
3B
  3
ACAD_MLEADERSTYLE
350
95
  3
ACAD_MLINESTYLE
350
17
  3
ACAD_PLOTSETTINGS
350
19
  3
ACAD_PLOTSTYLENAME
350
E
  3
ACAD_SCALELIST
350
A4
  3
ACAD_SECTIONVIEWSTYLE
350
BB
  3
ACAD_TABLESTYLE
350
94
  3
ACAD_VISUALSTYLE
350
2A
  3
ACDB_RECOMPOSE_DATA
350
10D
  3
AcDbVariableDictionary
350
F6
  0
SUN
  5
3F
330
29
100
AcDbSun
 90
        1
290
     1
 63
     7
421
 16777215
 40
1.0
291
     1
 91
  2455826
 92
 54000000
292
     0
 70
     0
 71
   256
280
     1
1001
ACAD
1000
AcDbSavedByObjectVersion
1070
     0
  0
DICTIONARY
  5
C2
330
1F
100
AcDbDictionary
280
     1
281
     1
  3
ACAD_SORTENTS
360
C3
  0
XRECORD
  5
C1
102
{ACAD_REACTORS
330
C
102
}
330
C
100
AcDbXrecord
280
     1
300
ACD
300
2019
300
ACD_F_S
  0
DICTIONARY
  5
A2
102
{ACAD_REACTORS
330
C
102
}
330
C
100
AcDbDictionary
281
     1
  0
DICTIONARY
  5
BD
102
{ACAD_REACTORS
330
C
102
}
330
C
100
AcDbDictionary
281
     1
  3
Imperial24
350
BE
  0
DICTIONARY
  5
D
102
{ACAD_REACTORS
330
C
102
}
330
C
100
AcDbDictionary
281
     1
  0
DICTIONARY
  5
1A
102
{ACAD_REACTORS
330
C
102
}
330
C
100
AcDbDictionary
281
     1
  3
Layout1
350
1E
  3
Layout2
350
26
  3
Model
350
22
  0
DICTIONARY
  5
3B
102
{ACAD_REACTORS
330
C
102
}
330
C
100
AcDbDictionary
281
     1
  3
ByBlock
350
3D
  3
ByLayer
350
3C
  3
Global
350
3E
  0
DICTIONARY
  5
95
102
{ACAD_REACTORS
330
C
102
}
330
C
100
AcDbDictionary
281
     1
  3
Standard
350
BA
  0
DICTIONARY
  5
17
102
{ACAD_REACTORS
330
C
102
}
330
C
100
AcDbDictionary
281
     1
  3
Standard
350
18
  0
DICTIONARY
  5
19
102
{ACAD_REACTORS
330
C
102
}
330
C
100
AcDbDictionary
281
     1
  0
ACDBDICTIONARYWDFLT
  5
E
102
{ACAD_REACTORS
330
C
102
}
330
C
100
AcDbDictionary
281
     1
  3
Normal
350
F
100
AcDbDictionaryWithDefault
340
F
  0
DICTIONARY
  5
A4
102
{ACAD_REACTORS
330
C
102
}
330
C
100
AcDbDictionary
281
     1
  3
A0
350
A5
  3
A1
350
A6
  3
A2
350
A7
  3
A3
350
A8
  3
A4
350
A9
  3
A5
350
AA
  3
A6
350
AB
  3
A7
350
AC
  3
A8
350
AD
  3
A9
350
AE
  3
B0
350
AF
  3
B1
350
B0
  3
B2
350
B1
  3
B3
350
B2
  3
B4
350
B3
  3
B5
350
B4
  3
B6
350
B5
  3
B7
350
B6
  3
B8
350
B7
  3
B9
350
B8
  3
C0
350
B9
  0
DICTIONARY
  5
BB
102
{ACAD_REACTORS
330
C
102
}
330
C
100
AcDbDictionary
281
     1
  3
Imperial24
350
BC
  0
DICTIONARY
  5
94
102
{ACAD_REACTORS
330
C
102
}
330
C
100
AcDbDictionary
281
     1
  3
Standard
350
A3
  0
DICTIONARY
  5
2A
102
{ACAD_REACTORS
330
C
102
}
330
C
100
AcDbDictionary
281
     1
  3
2dWireframe
350
2F
  3
3D Hidden
350
31
  3
3dWireframe
350
30
  3
Basic
350
32
  3
Brighten
350
36
  3
ColorChange
350
3A
  3
Conceptual
350
34
  3
Dim
350
35
  3
EdgeColorOff
350
A1
  3
Facepattern
350
39
  3
Flat
350
2B
  3
FlatWithEdges
350
2C
  3
Gouraud
350
2D
  3
GouraudWithEdges
350
2E
  3
Hidden
350
99
  3
JitterOff
350
9F
  3
Linepattern
350
38
  3
OverhangOff
350
A0
  3
Realistic
350
33
  3
Shaded
350
9E
  3
Shaded with edges
350
9D
  3
Shades of Gray
350
9A
  3
Sketchy
350
9B
  3
Thicken
350
37
  3
Wireframe
350
98
  3
X-Ray
350
9C
  0
XRECORD
  5
10D
102
{ACAD_REACTORS
330
C
102
}
330
C
100
AcDbXrecord
280
     1
 90
        1
330
A3
  0
DICTIONARY
  5
F6
102
{ACAD_REACTORS
330
C
102
}
330
C
100
AcDbDictionary
281
     1
  3
CANNOSCALE
350
FB
  3
CMLEADERSTYLE
350
F8
  3
CTABLESTYLE
350
F7
  3
CVIEWDETAILSTYLE
350
F9
  3
CVIEWSECTIONSTYLE
350
FA
  0
SORTENTSTABLE
  5
C3
102
{ACAD_REACTORS
330
C2
102
}
330
C2
100
AcDbSortentsTable
330
1F
  0
ACDBDETAILVIEWSTYLE
  5
BE
102
{ACAD_XDICTIONARY
360
110
102
}
102
{ACAD_REACTORS
330
BD
102
}
330
BD
100
AcDbModelDocViewStyle
 70
     0
  3
Imperial24
290
     0
100
AcDbDetailViewStyle
 70
     0
 71
     0
 90
        3
 71
     1
340
11
 62
   256
 40
0.24
340
0
 62
   256
 40
0.24
300

 40
0.36
280
     3
 71
     2
340
16
 90
       25
 62
   256
 71
     3
340
11
 62
   256
 40
0.24
 90
        1
 40
0.75
 90
        1
300
%<\AcVar ViewType \f "%tc1">% %<\AcVar ViewDetailId>%\PSCALA %<\AcVar ViewScale \f "%sn">%
 71
     4
340
16
 90
       25
 62
   256
340
16
 90
       25
 62
   256
280
     0
  0
LAYOUT
  5
1E
102
{ACAD_REACTORS
330
1A
102
}
330
1A
100
AcDbPlotSettings
  1

  2
none_device
  4

  6

 40
0.0
 41
0.0
 42
0.0
 43
0.0
 44
0.0
 45
0.0
 46
0.0
 47
0.0
 48
0.0
 49
0.0
140
0.0
141
0.0
142
1.0
143
1.0
 70
   688
 72
     0
 73
     0
 74
     5
  7

 75
    16
147
1.0
 76
     0
 77
     2
 78
   300
148
0.0
149
0.0
100
AcDbLayout
  1
Layout1
 70
     1
 71
     1
 10
0.0
 20
0.0
 11
12.0
 21
9.0
 12
0.0
 22
0.0
 32
0.0
 14
1.000000000000000E+20
 24
1.000000000000000E+20
 34
1.000000000000000E+20
 15
-1.000000000000000E+20
 25
-1.000000000000000E+20
 35
-1.000000000000000E+20
146
0.0
 13
0.0
 23
0.0
 33
0.0
 16
1.0
 26
0.0
 36
0.0
 17
0.0
 27
1.0
 37
0.0
 76
     0
330
1B
  0
LAYOUT
  5
26
102
{ACAD_REACTORS
330
1A
102
}
330
1A
100
AcDbPlotSettings
  1

  2
none_device
  4

  6

 40
0.0
 41
0.0
 42
0.0
 43
0.0
 44
0.0
 45
0.0
 46
0.0
 47
0.0
 48
0.0
 49
0.0
140
0.0
141
0.0
142
1.0
143
1.0
 70
   688
 72
     0
 73
     0
 74
     5
  7

 75
    16
147
1.0
 76
     0
 77
     2
 78
   300
148
0.0
149
0.0
100
AcDbLayout
  1
Layout2
 70
     1
 71
     2
 10
0.0
 20
0.0
 11
0.0
 21
0.0
 12
0.0
 22
0.0
 32
0.0
 14
0.0
 24
0.0
 34
0.0
 15
0.0
 25
0.0
 35
0.0
146
0.0
 13
0.0
 23
0.0
 33
0.0
 16
1.0
 26
0.0
 36
0.0
 17
0.0
 27
1.0
 37
0.0
 76
     0
330
23
  0
LAYOUT
  5
22
102
{ACAD_REACTORS
330
1A
102
}
330
1A
100
AcDbPlotSettings
  1

  2
none_device
  4

  6

 40
0.0
 41
0.0
 42
0.0
 43
0.0
 44
0.0
 45
0.0
 46
0.0
 47
0.0
 48
0.0
 49
0.0
140
0.0
141
0.0
142
1.0
143
1.0
 70
  1712
 72
     0
 73
     0
 74
     0
  7

 75
     0
147
1.0
 76
     0
 77
     2
 78
   300
148
0.0
149
0.0
100
AcDbLayout
  1
Model
 70
     1
 71
     0
 10
0.0
 20
0.0
 11
12.0
 21
9.0
 12
0.0
 22
0.0
 32
0.0
 14
1.000000000000000E+20
 24
1.000000000000000E+20
 34
1.000000000000000E+20
 15
-1.000000000000000E+20
 25
-1.000000000000000E+20
 35
-1.000000000000000E+20
146
0.0
 13
0.0
 23
0.0
 33
0.0
 16
1.0
 26
0.0
 36
0.0
 17
0.0
 27
1.0
 37
0.0
 76
     0
330
1F
331
29
  0
MATERIAL
  5
3D
102
{ACAD_REACTORS
330
3B
102
}
330
3B
100
AcDbMaterial
  1
ByBlock
  0
MATERIAL
  5
3C
102
{ACAD_REACTORS
330
3B
102
}
330
3B
100
AcDbMaterial
  1
ByLayer
  0
MATERIAL
  5
3E
102
{ACAD_REACTORS
330
3B
102
}
330
3B
100
AcDbMaterial
  1
Global
  0
MLEADERSTYLE
  5
BA
102
{ACAD_REACTORS
330
95
102
}
330
95
100
AcDbMLeaderStyle
179
     2
170
     2
171
     1
172
     0
 90
        2
 40
0.0
 41
0.0
173
     1
 91
-1056964608
340
14
 92
       -2
290
     1
 42
0.09
291
     1
 43
0.36
  3
Standard
 44
0.18
300

342
11
174
     1
178
     6
175
     1
176
     0
 93
-1056964608
 45
0.18
292
     0
297
     0
 46
0.18
 94
-1056964608
 47
1.0
 49
1.0
140
1.0
293
     1
141
0.0
294
     1
177
     0
142
1.0
295
     0
296
     0
143
0.125
271
     0
272
     9
273
     9
298
     0
  0
MLINESTYLE
  5
18
102
{ACAD_REACTORS
330
17
102
}
330
17
100
AcDbMlineStyle
  2
STANDARD
 70
     0
  3

 62
   256
 51
90.0
 52
90.0
 71
     2
 49
0.5
 62
   256
  6
BYLAYER
 49
-0.5
 62
   256
  6
BYLAYER
  0
ACDBPLACEHOLDER
  5
F
102
{ACAD_REACTORS
330
E
102
}
330
E
  0
SCALE
  5
A5
102
{ACAD_REACTORS
330
A4
102
}
330
A4
100
AcDbScale
 70
     0
300
1:1
140
1.0
141
1.0
290
     1
  0
SCALE
  5
A6
102
{ACAD_REACTORS
330
A4
102
}
330
A4
100
AcDbScale
 70
     0
300
1.10
140
1.0
141
10.0
290
     0
  0
SCALE
  5
A7
102
{ACAD_REACTORS
330
A4
102
}
330
A4
100
AcDbScale
 70
     0
300
1.50
140
1.0
141
50.0
290
     0
  0
SCALE
  5
A8
102
{ACAD_REACTORS
330
A4
102
}
330
A4
100
AcDbScale
 70
     0
300
1:100
140
1.0
141
100.0
290
     0
  0
SCALE
  5
A9
102
{ACAD_REACTORS
330
A4
102
}
330
A4
100
AcDbScale
 70
     0
300
1.200
140
1.0
141
200.0
290
     0
  0
SCALE
  5
AA
102
{ACAD_REACTORS
330
A4
102
}
330
A4
100
AcDbScale
 70
     0
300
1/128" = 1'-0"
140
0.0078125
141
12.0
290
     0
  0
SCALE
  5
AB
102
{ACAD_REACTORS
330
A4
102
}
330
A4
100
AcDbScale
 70
     0
300
1/64" = 1'-0"
140
0.015625
141
12.0
290
     0
  0
SCALE
  5
AC
102
{ACAD_REACTORS
330
A4
102
}
330
A4
100
AcDbScale
 70
     0
300
1/32" = 1'-0"
140
0.03125
141
12.0
290
     0
  0
SCALE
  5
AD
102
{ACAD_REACTORS
330
A4
102
}
330
A4
100
AcDbScale
 70
     0
300
1/16" = 1'-0"
140
0.0625
141
12.0
290
     0
  0
SCALE
  5
AE
102
{ACAD_REACTORS
330
A4
102
}
330
A4
100
AcDbScale
 70
     0
300
3/32" = 1'-0"
140
0.09375
141
12.0
290
     0
  0
SCALE
  5
AF
102
{ACAD_REACTORS
330
A4
102
}
330
A4
100
AcDbScale
 70
     0
300
1/8" = 1'-0"
140
0.125
141
12.0
290
     0
  0
SCALE
  5
B0
102
{ACAD_REACTORS
330
A4
102
}
330
A4
100
AcDbScale
 70
     0
300
3/16" = 1'-0"
140
0.1875
141
12.0
290
     0
  0
SCALE
  5
B1
102
{ACAD_REACTORS
330
A4
102
}
330
A4
100
AcDbScale
 70
     0
300
1/4" = 1'-0"
140
0.25
141
12.0
290
     0
  0
SCALE
  5
B2
102
{ACAD_REACTORS
330
A4
102
}
330
A4
100
AcDbScale
 70
     0
300
3/8" = 1'-0"
140
0.375
141
12.0
290
     0
  0
SCALE
  5
B3
102
{ACAD_REACTORS
330
A4
102
}
330
A4
100
AcDbScale
 70
     0
300
1/2" = 1'-0"
140
0.5
141
12.0
290
     0
  0
SCALE
  5
B4
102
{ACAD_REACTORS
330
A4
102
}
330
A4
100
AcDbScale
 70
     0
300
3/4" = 1'-0"
140
0.75
141
12.0
290
     0
  0
SCALE
  5
B5
102
{ACAD_REACTORS
330
A4
102
}
330
A4
100
AcDbScale
 70
     0
300
1" = 1'-0"
140
1.0
141
12.0
290
     0
  0
SCALE
  5
B6
102
{ACAD_REACTORS
330
A4
102
}
330
A4
100
AcDbScale
 70
     0
300
1-1/2" = 1'-0"
140
1.5
141
12.0
290
     0
  0
SCALE
  5
B7
102
{ACAD_REACTORS
330
A4
102
}
330
A4
100
AcDbScale
 70
     0
300
3" = 1'-0"
140
3.0
141
12.0
290
     0
  0
SCALE
  5
B8
102
{ACAD_REACTORS
330
A4
102
}
330
A4
100
AcDbScale
 70
     0
300
6" = 1'-0"
140
6.0
141
12.0
290
     0
  0
SCALE
  5
B9
102
{ACAD_REACTORS
330
A4
102
}
330
A4
100
AcDbScale
 70
     0
300
1'-0" = 1'-0"
140
12.0
141
12.0
290
     0
  0
ACDBSECTIONVIEWSTYLE
  5
BC
102
{ACAD_XDICTIONARY
360
10E
102
}
102
{ACAD_REACTORS
330
BB
102
}
330
BB
100
AcDbModelDocViewStyle
 70
     0
  3
Imperial24
290
     0
100
AcDbSectionViewStyle
 70
     0
 71
     0
 90
       78
 71
     1
340
11
 62
   256
 40
0.24
340
0
340
0
 62
   256
 40
0.24
300
I, O, Q, S, X, Z
 40
0.48
 90
        3
 40
0.18
 90
        1
 71
     2
340
16
 90
       25
 62
   256
340
16
 90
       50
 62
   256
 40
0.24
 40
0.0
 40
0.24
 71
     3
340
11
 62
   256
 40
0.24
 90
        1
 40
0.75
 90
        1
300
%<\AcVar ViewType \f "%tc1">% %<\AcVar ViewSectionStartId>%-%<\AcVar ViewSectionEndId>%\PSCALA %<\AcVar ViewScale \f "%sn">%
 71
     4
 62
   256
 62
   257
300
ANSI31
 40
1.0
 90
        0
290
     0
290
     0
 90
        6
 40
0.0
 40
1.570796326794896
 40
0.2617993877991494
 40
1.308996938995747
 40
-0.2617993877991494
 40
1.832595714594046
  0
TABLESTYLE
  5
A3
102
{ACAD_XDICTIONARY
360
10B
102
}
102
{ACAD_REACTORS
330
94
102
}
330
94
100
AcDbTableStyle
280
     0
  3
Standard
 70
     0
 71
     0
 40
0.06
 41
0.06
280
     0
281
     0
  7
Standard
140
0.18
170
     2
 62
     0
 63
     7
283
     0
 90
      512
 91
        0
  1

274
    -2
284
     1
 64
     0
275
    -2
285
     1
 65
     0
276
    -2
286
     1
 66
     0
277
    -2
287
     1
 67
     0
278
    -2
288
     1
 68
     0
279
    -2
289
     1
 69
     0
  7
Standard
140
0.25
170
     5
 62
     0
 63
     7
283
     0
 90
      512
 91
        0
  1

274
    -2
284
     1
 64
     0
275
    -2
285
     1
 65
     0
276
    -2
286
     1
 66
     0
277
    -2
287
     1
 67
     0
278
    -2
288
     1
 68
     0
279
    -2
289
     1
 69
     0
  7
Standard
140
0.18
170
     5
 62
     0
 63
     7
283
     0
 90
      512
 91
        0
  1

274
    -2
284
     1
 64
     0
275
    -2
285
     1
 65
     0
276
    -2
286
     1
 66
     0
277
    -2
287
     1
 67
     0
278
    -2
288
     1
 68
     0
279
    -2
289
     1
 69
     0
  0
VISUALSTYLE
  5
2F
102
{ACAD_REACTORS
330
2A
102
}
330
2A
100
AcDbVisualStyle
  2
2dWireframe
 70
     4
177
     3
291
     0
 70
    58
 90
        0
176
     1
 90
        2
176
     1
 90
        0
176
     1
 90
        0
176
     1
 40
0.6
176
     1
 40
30.0
176
     1
 62
     7
420
 16777215
176
     1
 90
        1
176
     1
 90
        4
176
     1
 62
     7
176
     1
 62
   257
176
     1
 90
        1
176
     1
 90
        1
176
     1
 40
1.0
176
     1
 90
        0
176
     1
 62
   257
176
     1
 40
1.0
176
     1
 90
        1
176
     1
 90
        6
176
     1
 90
        2
176
     1
 62
     7
176
     1
 90
        5
176
     1
 90
        0
176
     1
 90
        0
176
     1
290
     0
176
     1
 90
        1
176
     1
 40
0.0
176
     1
 90
        0
176
     1
290
     1
176
     1
290
     1
176
     1
290
     0
176
     1
290
     0
176
     1
290
     0
176
     1
290
     0
176
     1
290
     0
176
     1
290
     0
176
     1
290
     0
176
     1
 90
       50
176
     1
 40
0.0
176
     1
 40
1.0
176
     1
 90
        0
176
     1
 62
    18
420
        0
176
     1
 90
       50
176
     1
 90
        3
176
     1
 62
     5
420
      255
176
     1
290
     0
176
     1
 90
       50
176
     1
 90
       50
176
     1
 90
       50
176
     1
290
     0
176
     1
 90
       50
176
     1
 62
   256
176
     0
 40
1.0
176
     0
 90
        2
176
     1
  1
strokes_ogs.tif
176
     1
290
     0
176
     1
 40
1.0
176
     1
 40
1.0
176
     1
1001
ACAD
1000
AcDbSavedByObjectVersion
1070
     0
  0
VISUALSTYLE
  5
31
102
{ACAD_REACTORS
330
2A
102
}
330
2A
100
AcDbVisualStyle
  2
3D Hidden
 70
     6
177
     3
291
     0
 70
    58
 90
        1
176
     1
 90
        2
176
     1
 90
        2
176
     1
 90
        0
176
     1
 40
0.6
176
     1
 40
30.0
176
     1
 62
     7
420
 16777215
176
     1
 90
        2
176
     1
 90
        2
176
     1
 62
     7
176
     1
 62
   257
176
     1
 90
        2
176
     1
 90
        1
176
     1
 40
40.0
176
     1
 90
        0
176
     1
 62
   257
176
     1
 40
1.0
176
     1
 90
        1
176
     1
 90
        6
176
     1
 90
        2
176
     1
 62
     7
176
     1
 90
        3
176
     1
 90
        0
176
     1
 90
        0
176
     1
290
     0
176
     1
 90
        1
176
     1
 40
0.0
176
     1
 90
        0
176
     1
290
     0
176
     1
290
     1
176
     1
290
     1
176
     1
290
     0
176
     1
290
     0
176
     1
290
     0
176
     1
290
     0
176
     1
290
     0
176
     1
290
     0
176
     1
 90
       50
176
     1
 40
0.0
176
     1
 40
1.0
176
     1
 90
        0
176
     1
 62
    18
420
        0
176
     1
 90
       50
176
     1
 90
        3
176
     1
 62
     5
420
      255
176
     1
290
     0
176
     1
 90
       50
176
     1
 90
       50
176
     1
 90
       50
176
     1
290
     0
176
     1
 90
       50
176
     1
 62
   256
176
     0
 40
1.0
176
     0
 90
        2
176
     1
  1
strokes_ogs.tif
176
     1
290
     0
176
     1
 40
1.0
176
     1
 40
1.0
176
     1
1001
ACAD
1000
AcDbSavedByObjectVersion
1070
     0
  0
VISUALSTYLE
  5
30
102
{ACAD_REACTORS
330
2A
102
}
330
2A
100
AcDbVisualStyle
  2
3dWireframe
 70
     5
177
     3
291
     0
 70
    58
 90
        0
176
     1
 90
        2
176
     1
 90
        0
176
     1
 90
        0
176
     1
 40
0.6
176
     1
 40
30.0
176
     1
 62
     7
420
 16777215
176
     1
 90
        1
176
     1
 90
        4
176
     1
 62
     7
176
     1
 62
   257
176
     1
 90
        1
176
     1
 90
        1
176
     1
 40
1.0
176
     1
 90
        0
176
     1
 62
   257
176
     1
 40
1.0
176
     1
 90
        1
176
     1
 90
        6
176
     1
 90
        2
176
     1
 62
     7
176
     1
 90
        5
176
     1
 90
        0
176
     1
 90
        0
176
     1
290
     0
176
     1
 90
        1
176
     1
 40
0.0
176
     1
 90
        0
176
     1
290
     0
176
     1
290
     1
176
     1
290
     1
176
     1
290
     0
176
     1
290
     0
176
     1
290
     0
176
     1
290
     0
176
     1
290
     0
176
     1
290
     0
176
     1
 90
       50
176
     1
 40
0.0
176
     1
 40
1.0
176
     1
 90
        0
176
     1
 62
    18
420
        0
176
     1
 90
       50
176
     1
 90
        3
176
     1
 62
     5
420
      255
176
     1
290
     0
176
     1
 90
       50
176
     1
 90
       50
176
     1
 90
       50
176
     1
290
     0
176
     1
 90
       50
176
     1
 62
   256
176
     0
 40
1.0
176
     0
 90
        2
176
     1
  1
strokes_ogs.tif
176
     1
290
     0
176
     1
 40
1.0
176
     1
 40
1.0
176
     1
1001
ACAD
1000
AcDbSavedByObjectVersion
1070
     0
  0
VISUALSTYLE
  5
32
102
{ACAD_REACTORS
330
2A
102
}
330
2A
100
AcDbVisualStyle
  2
Basic
 70
     7
177
     3
291
     1
 70
    58
 90
        1
176
     1
 90
        0
176
     1
 90
        1
176
     1
 90
        0
176
     1
 40
0.6
176
     1
 40
30.0
176
     1
 62
     7
420
 16777215
176
     1
 90
        0
176
     1
 90
        4
176
     1
 62
     7
176
     1
 62
   257
176
     1
 90
        1
176
     1
 90
        1
176
     1
 40
1.0
176
     1
 90
        8
176
     1
 62
     7
176
     1
 40
1.0
176
     1
 90
        1
176
     1
 90
        6
176
     1
 90
        2
176
     1
 62
     7
176
     1
 90
        5
176
     1
 90
        0
176
     1
 90
        0
176
     1
290
     0
176
     1
 90
        1
176
     1
 40
0.0
176
     1
 90
        0
176
     1
290
     0
176
     1
290
     1
176
     1
290
     1
176
     1
290
     0
176
     1
290
     0
176
     1
290
     0
176
     1
290
     0
176
     1
290
     0
176
     1
290
     0
176
     1
 90
       50
176
     1
 40
0.0
176
     1
 40
1.0
176
     1
 90
        0
176
     1
 62
    18
420
        0
176
     1
 90
       50
176
     1
 90
        3
176
     1
 62
     5
420
      255
176
     1
290
     0
176
     1
 90
       50
176
     1
 90
       50
176
     1
 90
       50
176
     1
290
     0
176
     1
 90
       50
176
     1
 62
   256
176
     0
 40
1.0
176
     0
 90
        2
176
     1
  1
strokes_ogs.tif
176
     1
290
     0
176
     1
 40
1.0
176
     1
 40
1.0
176
     1
1001
ACAD
1000
AcDbSavedByObjectVersion
1070
     0
  0
VISUALSTYLE
  5
36
102
{ACAD_REACTORS
330
2A
102
}
330
2A
100
AcDbVisualStyle
  2
Brighten
 70
    12
177
     3
291
     1
 70
    58
 90
        2
176
     1
 90
        2
176
     1
 90
        0
176
     1
 90
        0
176
     1
 40
0.6
176
     1
 40
30.0
176
     1
 62
     7
420
 16777215
176
     1
 90
        1
176
     1
 90
        4
176
     1
 62
     7
176
     1
 62
   257
176
     1
 90
        1
176
     1
 90
        1
176
     1
 40
1.0
176
     1
 90
        8
176
     1
 62
     7
176
     1
 40
1.0
176
     1
 90
        1
176
     1
 90
        6
176
     1
 90
        2
176
     1
 62
     7
176
     1
 90
        5
176
     1
 90
        0
176
     1
 90
        0
176
     1
290
     0
176
     1
 90
        1
176
     1
 40
50.0
176
     1
 90
        0
176
     1
290
     0
176
     1
290
     1
176
     1
290
     1
176
     1
290
     0
176
     1
290
     0
176
     1
290
     0
176
     1
290
     0
176
     1
290
     0
176
     1
290
     0
176
     1
 90
       50
176
     1
 40
0.0
176
     1
 40
1.0
176
     1
 90
        0
176
     1
 62
    18
420
        0
176
     1
 90
       50
176
     1
 90
        3
176
     1
 62
     5
420
      255
176
     1
290
     0
176
     1
 90
       50
176
     1
 90
       50
176
     1
 90
       50
176
     1
290
     0
176
     1
 90
       50
176
     1
 62
   256
176
     0
 40
1.0
176
     0
 90
        2
176
     1
  1
strokes_ogs.tif
176
     1
290
     0
176
     1
 40
1.0
176
     1
 40
1.0
176
     1
1001
ACAD
1000
AcDbSavedByObjectVersion
1070
     0
  0
VISUALSTYLE
  5
3A
102
{ACAD_REACTORS
330
2A
102
}
330
2A
100
AcDbVisualStyle
  2
ColorChange
 70
    16
177
     3
291
     1
 70
    58
 90
        2
176
     1
 90
        2
176
     1
 90
        3
176
     1
 90
        0
176
     1
 40
0.6
176
     1
 40
30.0
176
     1
 62
     8
420
  8421504
176
     1
 90
        1
176
     1
 90
        4
176
     1
 62
     7
176
     1
 62
   257
176
     1
 90
        1
176
     1
 90
        1
176
     1
 40
1.0
176
     1
 90
        8
176
     1
 62
     8
420
  8421504
176
     1
 40
1.0
176
     1
 90
        1
176
     1
 90
        6
176
     1
 90
        2
176
     1
 62
     7
176
     1
 90
        5
176
     1
 90
        0
176
     1
 90
        0
176
     1
290
     0
176
     1
 90
        1
176
     1
 40
0.0
176
     1
 90
        0
176
     1
290
     0
176
     1
290
     1
176
     1
290
     1
176
     1
290
     0
176
     1
290
     0
176
     1
290
     0
176
     1
290
     0
176
     1
290
     0
176
     1
290
     0
176
     1
 90
       50
176
     1
 40
0.0
176
     1
 40
1.0
176
     1
 90
        0
176
     1
 62
    18
420
        0
176
     1
 90
       50
176
     1
 90
        3
176
     1
 62
     5
420
      255
176
     1
290
     0
176
     1
 90
       50
176
     1
 90
       50
176
     1
 90
       50
176
     1
290
     0
176
     1
 90
       50
176
     1
 62
   256
176
     0
 40
1.0
176
     0
 90
        2
176
     1
  1
strokes_ogs.tif
176
     1
290
     0
176
     1
 40
1.0
176
     1
 40
1.0
176
     1
1001
ACAD
1000
AcDbSavedByObjectVersion
1070
     0
  0
VISUALSTYLE
  5
34
102
{ACAD_REACTORS
330
2A
102
}
330
2A
100
AcDbVisualStyle
  2
Conceptual
 70
     9
177
     3
291
     0
 70
    58
 90
        3
176
     1
 90
        2
176
     1
 90
        0
176
     1
 90
        0
176
     1
 40
0.6
176
     1
 40
30.0
176
     1
 62
     7
420
 16777215
176
     1
 90
        2
176
     1
 90
        2
176
     1
 62
     7
176
     1
 62
   257
176
     1
 90
        1
176
     1
 90
        1
176
     1
 40
40.0
176
     1
 90
        8
176
     1
 62
     7
176
     1
 40
1.0
176
     1
 90
        1
176
     1
 90
        6
176
     1
 90
        2
176
     1
 62
     7
176
     1
 90
        3
176
     1
 90
        0
176
     1
 90
        0
176
     1
290
     0
176
     1
 90
        1
176
     1
 40
0.0
176
     1
 90
        0
176
     1
290
     0
176
     1
290
     1
176
     1
290
     1
176
     1
290
     0
176
     1
290
     0
176
     1
290
     0
176
     1
290
     0
176
     1
290
     0
176
     1
290
     0
176
     1
 90
       50
176
     1
 40
0.0
176
     1
 40
1.0
176
     1
 90
        0
176
     1
 62
    18
420
        0
176
     1
 90
       50
176
     1
 90
        3
176
     1
 62
     5
420
      255
176
     1
290
     0
176
     1
 90
       50
176
     1
 90
       50
176
     1
 90
       50
176
     1
290
     0
176
     1
 90
       50
176
     1
 62
   256
176
     0
 40
1.0
176
     0
 90
        2
176
     1
  1
strokes_ogs.tif
176
     1
290
     0
176
     1
 40
1.0
176
     1
 40
1.0
176
     1
1001
ACAD
1000
AcDbSavedByObjectVersion
1070
     0
  0
VISUALSTYLE
  5
35
102
{ACAD_REACTORS
330
2A
102
}
330
2A
100
AcDbVisualStyle
  2
Dim
 70
    11
177
     3
291
     1
 70
    58
 90
        2
176
     1
 90
        2
176
     1
 90
        0
176
     1
 90
        0
176
     1
 40
0.6
176
     1
 40
30.0
176
     1
 62
     7
420
 16777215
176
     1
 90
        1
176
     1
 90
        4
176
     1
 62
     7
176
     1
 62
   257
176
     1
 90
        1
176
     1
 90
        1
176
     1
 40
1.0
176
     1
 90
        8
176
     1
 62
     7
176
     1
 40
1.0
176
     1
 90
        1
176
     1
 90
        6
176
     1
 90
        2
176
     1
 62
     7
176
     1
 90
        5
176
     1
 90
        0
176
     1
 90
        0
176
     1
290
     0
176
     1
 90
        1
176
     1
 40
-50.0
176
     1
 90
        0
176
     1
290
     0
176
     1
290
     1
176
     1
290
     1
176
     1
290
     0
176
     1
290
     0
176
     1
290
     0
176
     1
290
     0
176
     1
290
     0
176
     1
290
     0
176
     1
 90
       50
176
     1
 40
0.0
176
     1
 40
1.0
176
     1
 90
        0
176
     1
 62
    18
420
        0
176
     1
 90
       50
176
     1
 90
        3
176
     1
 62
     5
420
      255
176
     1
290
     0
176
     1
 90
       50
176
     1
 90
       50
176
     1
 90
       50
176
     1
290
     0
176
     1
 90
       50
176
     1
 62
   256
176
     0
 40
1.0
176
     0
 90
        2
176
     1
  1
strokes_ogs.tif
176
     1
290
     0
176
     1
 40
1.0
176
     1
 40
1.0
176
     1
1001
ACAD
1000
AcDbSavedByObjectVersion
1070
     0
  0
VISUALSTYLE
  5
A1
102
{ACAD_REACTORS
330
2A
102
}
330
2A
100
AcDbVisualStyle
  2
EdgeColorOff
 70
    22
177
     3
291
     1
 70
    58
 90
        2
176
     0
 90
        2
176
     0
 90
        0
176
     0
 90
        0
176
     0
 40
0.6
176
     0
 40
30.0
176
     0
 62
     7
420
 16777215
176
     0
 90
        1
176
     0
 90
        4
176
     0
 62
     7
176
     0
 62
   257
176
     0
 90
        1
176
     0
 90
        1
176
     0
 40
1.0
176
     0
 90
        8
176
     2
 62
     7
176
     0
 40
1.0
176
     0
 90
        1
176
     0
 90
        6
176
     0
 90
        2
176
     0
 62
     7
176
     0
 90
        5
176
     0
 90
        0
176
     0
 90
        0
176
     0
290
     0
176
     0
 90
        1
176
     0
 40
0.0
176
     0
 90
        0
176
     0
290
     0
176
     1
290
     1
176
     1
290
     1
176
     1
290
     0
176
     1
290
     0
176
     1
290
     0
176
     1
290
     0
176
     1
290
     0
176
     1
290
     0
176
     1
 90
       50
176
     0
 40
0.0
176
     0
 40
1.0
176
     0
 90
        0
176
     0
 62
    18
420
        0
176
     0
 90
       50
176
     0
 90
        3
176
     0
 62
     5
420
      255
176
     0
290
     0
176
     1
 90
       50
176
     0
 90
       50
176
     0
 90
       50
176
     0
290
     0
176
     1
 90
       50
176
     0
 62
   256
176
     0
 40
1.0
176
     0
 90
        2
176
     0
  1
strokes_ogs.tif
176
     0
290
     0
176
     1
 40
1.0
176
     0
 40
1.0
176
     0
1001
ACAD
1000
AcDbSavedByObjectVersion
1070
     0
  0
VISUALSTYLE
  5
39
102
{ACAD_REACTORS
330
2A
102
}
330
2A
100
AcDbVisualStyle
  2
Facepattern
 70
    15
177
     3
291
     1
 70
    58
 90
        2
176
     1
 90
        2
176
     1
 90
        0
176
     1
 90
        0
176
     1
 40
0.6
176
     1
 40
30.0
176
     1
 62
     7
420
 16777215
176
     1
 90
        1
176
     1
 90
        4
176
     1
 62
     7
176
     1
 62
   257
176
     1
 90
        1
176
     1
 90
        1
176
     1
 40
1.0
176
     1
 90
        8
176
     1
 62
     7
176
     1
 40
1.0
176
     1
 90
        1
176
     1
 90
        6
176
     1
 90
        2
176
     1
 62
     7
176
     1
 90
        5
176
     1
 90
        0
176
     1
 90
        0
176
     1
290
     0
176
     1
 90
        1
176
     1
 40
0.0
176
     1
 90
        0
176
     1
290
     0
176
     1
290
     1
176
     1
290
     1
176
     1
290
     0
176
     1
290
     0
176
     1
290
     0
176
     1
290
     0
176
     1
290
     0
176
     1
290
     0
176
     1
 90
       50
176
     1
 40
0.0
176
     1
 40
1.0
176
     1
 90
        0
176
     1
 62
    18
420
        0
176
     1
 90
       50
176
     1
 90
        3
176
     1
 62
     5
420
      255
176
     1
290
     0
176
     1
 90
       50
176
     1
 90
       50
176
     1
 90
       50
176
     1
290
     0
176
     1
 90
       50
176
     1
 62
   256
176
     0
 40
1.0
176
     0
 90
        2
176
     1
  1
strokes_ogs.tif
176
     1
290
     0
176
     1
 40
1.0
176
     1
 40
1.0
176
     1
1001
ACAD
1000
AcDbSavedByObjectVersion
1070
     0
  0
VISUALSTYLE
  5
2B
102
{ACAD_REACTORS
330
2A
102
}
330
2A
100
AcDbVisualStyle
  2
Flat
 70
     0
177
     3
291
     1
 70
    58
 90
        2
176
     1
 90
        1
176
     1
 90
        1
176
     1
 90
        2
176
     1
 40
0.6
176
     1
 40
30.0
176
     1
 62
     7
420
 16777215
176
     1
 90
        0
176
     1
 90
        4
176
     1
 62
     7
176
     1
 62
   257
176
     1
 90
        1
176
     1
 90
        1
176
     1
 40
1.0
176
     1
 90
        8
176
     1
 62
     7
176
     1
 40
1.0
176
     1
 90
        1
176
     1
 90
        6
176
     1
 90
        2
176
     1
 62
     7
176
     1
 90
        5
176
     1
 90
        0
176
     1
 90
        0
176
     1
290
     0
176
     1
 90
       13
176
     1
 40
0.0
176
     1
 90
        0
176
     1
290
     0
176
     1
290
     1
176
     1
290
     1
176
     1
290
     0
176
     1
290
     0
176
     1
290
     0
176
     1
290
     0
176
     1
290
     0
176
     1
290
     0
176
     1
 90
       50
176
     1
 40
0.0
176
     1
 40
1.0
176
     1
 90
        0
176
     1
 62
    18
420
        0
176
     1
 90
       50
176
     1
 90
        3
176
     1
 62
     5
420
      255
176
     1
290
     0
176
     1
 90
       50
176
     1
 90
       50
176
     1
 90
       50
176
     1
290
     0
176
     1
 90
       50
176
     1
 62
   256
176
     0
 40
1.0
176
     0
 90
        2
176
     1
  1
strokes_ogs.tif
176
     1
290
     0
176
     1
 40
1.0
176
     1
 40
1.0
176
     1
1001
ACAD
1000
AcDbSavedByObjectVersion
1070
     0
  0
VISUALSTYLE
  5
2C
102
{ACAD_REACTORS
330
2A
102
}
330
2A
100
AcDbVisualStyle
  2
FlatWithEdges
 70
     1
177
     3
291
     1
 70
    58
 90
        2
176
     1
 90
        1
176
     1
 90
        1
176
     1
 90
        2
176
     1
 40
0.6
176
     1
 40
30.0
176
     1
 62
     7
420
 16777215
176
     1
 90
        1
176
     1
 90
        4
176
     1
 62
     7
176
     1
 62
   257
176
     1
 90
        1
176
     1
 90
        1
176
     1
 40
1.0
176
     1
 90
        0
176
     1
 62
   257
176
     1
 40
1.0
176
     1
 90
        1
176
     1
 90
        6
176
     1
 90
        2
176
     1
 62
     7
176
     1
 90
        5
176
     1
 90
        0
176
     1
 90
        0
176
     1
290
     0
176
     1
 90
       13
176
     1
 40
0.0
176
     1
 90
        0
176
     1
290
     0
176
     1
290
     1
176
     1
290
     1
176
     1
290
     0
176
     1
290
     0
176
     1
290
     0
176
     1
290
     0
176
     1
290
     0
176
     1
290
     0
176
     1
 90
       50
176
     1
 40
0.0
176
     1
 40
1.0
176
     1
 90
        0
176
     1
 62
    18
420
        0
176
     1
 90
       50
176
     1
 90
        3
176
     1
 62
     5
420
      255
176
     1
290
     0
176
     1
 90
       50
176
     1
 90
       50
176
     1
 90
       50
176
     1
290
     0
176
     1
 90
       50
176
     1
 62
   256
176
     0
 40
1.0
176
     0
 90
        2
176
     1
  1
strokes_ogs.tif
176
     1
290
     0
176
     1
 40
1.0
176
     1
 40
1.0
176
     1
1001
ACAD
1000
AcDbSavedByObjectVersion
1070
     0
  0
VISUALSTYLE
  5
2D
102
{ACAD_REACTORS
330
2A
102
}
330
2A
100
AcDbVisualStyle
  2
Gouraud
 70
     2
177
     3
291
     1
 70
    58
 90
        2
176
     1
 90
        2
176
     1
 90
        1
176
     1
 90
        2
176
     1
 40
0.6
176
     1
 40
30.0
176
     1
 62
     7
420
 16777215
176
     1
 90
        0
176
     1
 90
        4
176
     1
 62
     7
176
     1
 62
   257
176
     1
 90
        1
176
     1
 90
        1
176
     1
 40
1.0
176
     1
 90
        0
176
     1
 62
     7
176
     1
 40
1.0
176
     1
 90
        1
176
     1
 90
        6
176
     1
 90
        2
176
     1
 62
     7
176
     1
 90
        5
176
     1
 90
        0
176
     1
 90
        0
176
     1
290
     0
176
     1
 90
       13
176
     1
 40
0.0
176
     1
 90
        0
176
     1
290
     0
176
     1
290
     1
176
     1
290
     1
176
     1
290
     0
176
     1
290
     0
176
     1
290
     0
176
     1
290
     0
176
     1
290
     0
176
     1
290
     0
176
     1
 90
       50
176
     1
 40
0.0
176
     1
 40
1.0
176
     1
 90
        0
176
     1
 62
    18
420
        0
176
     1
 90
       50
176
     1
 90
        3
176
     1
 62
     5
420
      255
176
     1
290
     0
176
     1
 90
       50
176
     1
 90
       50
176
     1
 90
       50
176
     1
290
     0
176
     1
 90
       50
176
     1
 62
   256
176
     0
 40
1.0
176
     0
 90
        2
176
     1
  1
strokes_ogs.tif
176
     1
290
     0
176
     1
 40
1.0
176
     1
 40
1.0
176
     1
1001
ACAD
1000
AcDbSavedByObjectVersion
1070
     0
  0
VISUALSTYLE
  5
2E
102
{ACAD_REACTORS
330
2A
102
}
330
2A
100
AcDbVisualStyle
  2
GouraudWithEdges
 70
     3
177
     3
291
     1
 70
    58
 90
        2
176
     1
 90
        2
176
     1
 90
        1
176
     1
 90
        2
176
     1
 40
0.6
176
     1
 40
30.0
176
     1
 62
     7
420
 16777215
176
     1
 90
        1
176
     1
 90
        4
176
     1
 62
     7
176
     1
 62
   257
176
     1
 90
        1
176
     1
 90
        1
176
     1
 40
1.0
176
     1
 90
        0
176
     1
 62
   257
176
     1
 40
1.0
176
     1
 90
        1
176
     1
 90
        6
176
     1
 90
        2
176
     1
 62
     7
176
     1
 90
        5
176
     1
 90
        0
176
     1
 90
        0
176
     1
290
     0
176
     1
 90
       13
176
     1
 40
0.0
176
     1
 90
        0
176
     1
290
     0
176
     1
290
     1
176
     1
290
     1
176
     1
290
     0
176
     1
290
     0
176
     1
290
     0
176
     1
290
     0
176
     1
290
     0
176
     1
290
     0
176
     1
 90
       50
176
     1
 40
0.0
176
     1
 40
1.0
176
     1
 90
        0
176
     1
 62
    18
420
        0
176
     1
 90
       50
176
     1
 90
        3
176
     1
 62
     5
420
      255
176
     1
290
     0
176
     1
 90
       50
176
     1
 90
       50
176
     1
 90
       50
176
     1
290
     0
176
     1
 90
       50
176
     1
 62
   256
176
     0
 40
1.0
176
     0
 90
        2
176
     1
  1
strokes_ogs.tif
176
     1
290
     0
176
     1
 40
1.0
176
     1
 40
1.0
176
     1
1001
ACAD
1000
AcDbSavedByObjectVersion
1070
     0
  0
VISUALSTYLE
  5
99
102
{ACAD_REACTORS
330
2A
102
}
330
2A
100
AcDbVisualStyle
  2
Hidden
 70
     6
177
     3
291
     0
 70
    58
 90
        1
176
     1
 90
        2
176
     1
 90
        2
176
     1
 90
        0
176
     1
 40
0.6
176
     1
 40
30.0
176
     1
 62
     7
420
 16777215
176
     1
 90
        2
176
     1
 90
        2
176
     1
 62
     7
176
     1
 62
   257
176
     1
 90
        2
176
     1
 90
        1
176
     1
 40
40.0
176
     1
 90
        0
176
     1
 62
   257
176
     1
 40
1.0
176
     1
 90
        1
176
     1
 90
        6
176
     1
 90
        2
176
     1
 62
     7
176
     1
 90
        3
176
     1
 90
        0
176
     1
 90
        0
176
     1
290
     0
176
     1
 90
        1
176
     1
 40
0.0
176
     1
 90
        0
176
     1
290
     0
176
     1
290
     1
176
     1
290
     1
176
     1
290
     0
176
     1
290
     0
176
     1
290
     0
176
     1
290
     0
176
     1
290
     0
176
     1
290
     0
176
     1
 90
       50
176
     1
 40
0.0
176
     1
 40
1.0
176
     1
 90
        0
176
     1
 62
    18
420
        0
176
     1
 90
       50
176
     1
 90
        3
176
     1
 62
     5
420
      255
176
     1
290
     0
176
     1
 90
       50
176
     1
 90
       50
176
     1
 90
       50
176
     1
290
     0
176
     1
 90
       50
176
     1
 62
   256
176
     0
 40
1.0
176
     0
 90
        2
176
     1
  1
strokes_ogs.tif
176
     1
290
     0
176
     1
 40
1.0
176
     1
 40
1.0
176
     1
1001
ACAD
1000
AcDbSavedByObjectVersion
1070
     0
  0
VISUALSTYLE
  5
9F
102
{ACAD_REACTORS
330
2A
102
}
330
2A
100
AcDbVisualStyle
  2
JitterOff
 70
    20
177
     3
291
     1
 70
    58
 90
        2
176
     0
 90
        2
176
     0
 90
        0
176
     0
 90
        0
176
     0
 40
0.6
176
     0
 40
30.0
176
     0
 62
     7
420
 16777215
176
     0
 90
        1
176
     0
 90
        4
176
     0
 62
     7
176
     0
 62
   257
176
     0
 90
        1
176
     0
 90
        1
176
     0
 40
1.0
176
     0
 90
       10
176
     2
 62
     7
176
     0
 40
1.0
176
     0
 90
        1
176
     0
 90
        6
176
     0
 90
        2
176
     0
 62
     7
176
     0
 90
        5
176
     0
 90
        0
176
     0
 90
        0
176
     0
290
     0
176
     0
 90
        1
176
     0
 40
0.0
176
     0
 90
        0
176
     0
290
     0
176
     1
290
     1
176
     1
290
     1
176
     1
290
     0
176
     1
290
     0
176
     1
290
     0
176
     1
290
     0
176
     1
290
     0
176
     1
290
     0
176
     1
 90
       50
176
     0
 40
0.0
176
     0
 40
1.0
176
     0
 90
        0
176
     0
 62
    18
420
        0
176
     0
 90
       50
176
     0
 90
        3
176
     0
 62
     5
420
      255
176
     0
290
     0
176
     1
 90
       50
176
     0
 90
       50
176
     0
 90
       50
176
     0
290
     0
176
     1
 90
       50
176
     0
 62
   256
176
     0
 40
1.0
176
     0
 90
        2
176
     0
  1
strokes_ogs.tif
176
     0
290
     0
176
     1
 40
1.0
176
     0
 40
1.0
176
     0
1001
ACAD
1000
AcDbSavedByObjectVersion
1070
     0
  0
VISUALSTYLE
  5
38
102
{ACAD_REACTORS
330
2A
102
}
330
2A
100
AcDbVisualStyle
  2
Linepattern
 70
    14
177
     3
291
     1
 70
    58
 90
        2
176
     1
 90
        2
176
     1
 90
        0
176
     1
 90
        0
176
     1
 40
0.6
176
     1
 40
30.0
176
     1
 62
     7
420
 16777215
176
     1
 90
        1
176
     1
 90
        4
176
     1
 62
     7
176
     1
 62
   257
176
     1
 90
        7
176
     1
 90
        7
176
     1
 40
1.0
176
     1
 90
        8
176
     1
 62
     7
176
     1
 40
1.0
176
     1
 90
        1
176
     1
 90
        6
176
     1
 90
        2
176
     1
 62
     7
176
     1
 90
        5
176
     1
 90
        0
176
     1
 90
        0
176
     1
290
     0
176
     1
 90
        1
176
     1
 40
0.0
176
     1
 90
        0
176
     1
290
     0
176
     1
290
     1
176
     1
290
     1
176
     1
290
     0
176
     1
290
     0
176
     1
290
     0
176
     1
290
     0
176
     1
290
     0
176
     1
290
     0
176
     1
 90
       50
176
     1
 40
0.0
176
     1
 40
1.0
176
     1
 90
        0
176
     1
 62
    18
420
        0
176
     1
 90
       50
176
     1
 90
        3
176
     1
 62
     5
420
      255
176
     1
290
     0
176
     1
 90
       50
176
     1
 90
       50
176
     1
 90
       50
176
     1
290
     0
176
     1
 90
       50
176
     1
 62
   256
176
     0
 40
1.0
176
     0
 90
        2
176
     1
  1
strokes_ogs.tif
176
     1
290
     0
176
     1
 40
1.0
176
     1
 40
1.0
176
     1
1001
ACAD
1000
AcDbSavedByObjectVersion
1070
     0
  0
VISUALSTYLE
  5
A0
102
{ACAD_REACTORS
330
2A
102
}
330
2A
100
AcDbVisualStyle
  2
OverhangOff
 70
    21
177
     3
291
     1
 70
    58
 90
        2
176
     0
 90
        2
176
     0
 90
        0
176
     0
 90
        0
176
     0
 40
0.6
176
     0
 40
30.0
176
     0
 62
     7
420
 16777215
176
     0
 90
        1
176
     0
 90
        4
176
     0
 62
     7
176
     0
 62
   257
176
     0
 90
        1
176
     0
 90
        1
176
     0
 40
1.0
176
     0
 90
        9
176
     2
 62
     7
176
     0
 40
1.0
176
     0
 90
        1
176
     0
 90
        6
176
     0
 90
        2
176
     0
 62
     7
176
     0
 90
        5
176
     0
 90
        0
176
     0
 90
        0
176
     0
290
     0
176
     0
 90
        1
176
     0
 40
0.0
176
     0
 90
        0
176
     0
290
     0
176
     1
290
     1
176
     1
290
     1
176
     1
290
     0
176
     1
290
     0
176
     1
290
     0
176
     1
290
     0
176
     1
290
     0
176
     1
290
     0
176
     1
 90
       50
176
     0
 40
0.0
176
     0
 40
1.0
176
     0
 90
        0
176
     0
 62
    18
420
        0
176
     0
 90
       50
176
     0
 90
        3
176
     0
 62
     5
420
      255
176
     0
290
     0
176
     1
 90
       50
176
     0
 90
       50
176
     0
 90
       50
176
     0
290
     0
176
     1
 90
       50
176
     0
 62
   256
176
     0
 40
1.0
176
     0
 90
        2
176
     0
  1
strokes_ogs.tif
176
     0
290
     0
176
     1
 40
1.0
176
     0
 40
1.0
176
     0
1001
ACAD
1000
AcDbSavedByObjectVersion
1070
     0
  0
VISUALSTYLE
  5
33
102
{ACAD_REACTORS
330
2A
102
}
330
2A
100
AcDbVisualStyle
  2
Realistic
 70
     8
177
     3
291
     0
 70
    58
 90
        2
176
     1
 90
        2
176
     1
 90
        0
176
     1
 90
        0
176
     1
 40
0.6
176
     1
 40
30.0
176
     1
 62
     7
420
 16777215
176
     1
 90
        1
176
     1
 90
        0
176
     1
 62
     7
176
     1
 62
   257
176
     1
 90
        1
176
     1
 90
        1
176
     1
 40
1.0
176
     1
 90
        8
176
     1
 62
     8
420
  7895160
176
     1
 40
1.0
176
     1
 90
        1
176
     1
 90
        6
176
     1
 90
        2
176
     1
 62
     7
176
     1
 90
        5
176
     1
 90
        0
176
     1
 90
        0
176
     1
290
     0
176
     1
 90
       13
176
     1
 40
0.0
176
     1
 90
        0
176
     1
290
     0
176
     1
290
     1
176
     1
290
     1
176
     1
290
     0
176
     1
290
     0
176
     1
290
     0
176
     1
290
     0
176
     1
290
     0
176
     1
290
     0
176
     1
 90
       50
176
     1
 40
0.0
176
     1
 40
1.0
176
     1
 90
        0
176
     1
 62
    18
420
        0
176
     1
 90
       50
176
     1
 90
        3
176
     1
 62
     5
420
      255
176
     1
290
     0
176
     1
 90
       50
176
     1
 90
       50
176
     1
 90
       50
176
     1
290
     0
176
     1
 90
       50
176
     1
 62
   256
176
     0
 40
1.0
176
     0
 90
        2
176
     1
  1
strokes_ogs.tif
176
     1
290
     0
176
     1
 40
1.0
176
     1
 40
1.0
176
     1
1001
ACAD
1000
AcDbSavedByObjectVersion
1070
     0
  0
VISUALSTYLE
  5
9E
102
{ACAD_REACTORS
330
2A
102
}
330
2A
100
AcDbVisualStyle
  2
Shaded
 70
    27
177
     3
291
     0
 70
    58
 90
        2
176
     1
 90
        2
176
     1
 90
        1
176
     1
 90
        2
176
     1
 40
0.6
176
     1
 40
30.0
176
     1
 62
     7
420
 16777215
176
     1
 90
        0
176
     1
 90
        4
176
     1
 62
     7
176
     1
 62
   257
176
     1
 90
        1
176
     1
 90
        1
176
     1
 40
1.0
176
     1
 90
        8
176
     1
 62
   257
176
     1
 40
1.0
176
     1
 90
        1
176
     1
 90
        6
176
     1
 90
        2
176
     1
 62
     8
420
  7895160
176
     1
 90
        3
176
     1
 90
        0
176
     1
 90
        0
176
     1
290
     0
176
     1
 90
        5
176
     1
 40
0.0
176
     1
 90
        0
176
     1
290
     0
176
     1
290
     1
176
     1
290
     1
176
     1
290
     0
176
     1
290
     0
176
     1
290
     0
176
     1
290
     0
176
     1
290
     0
176
     1
290
     0
176
     1
 90
       50
176
     1
 40
0.0
176
     1
 40
1.0
176
     1
 90
        0
176
     1
 62
    18
420
        0
176
     1
 90
       50
176
     1
 90
        3
176
     1
 62
     5
420
      255
176
     1
290
     0
176
     1
 90
       50
176
     1
 90
       50
176
     1
 90
       50
176
     1
290
     0
176
     1
 90
       50
176
     1
 62
   256
176
     0
 40
1.0
176
     0
 90
        2
176
     1
  1
strokes_ogs.tif
176
     1
290
     0
176
     1
 40
1.0
176
     1
 40
1.0
176
     1
1001
ACAD
1000
AcDbSavedByObjectVersion
1070
     0
  0
VISUALSTYLE
  5
9D
102
{ACAD_REACTORS
330
2A
102
}
330
2A
100
AcDbVisualStyle
  2
Shaded with edges
 70
    26
177
     3
291
     0
 70
    58
 90
        2
176
     1
 90
        2
176
     1
 90
        1
176
     1
 90
        2
176
     1
 40
0.6
176
     1
 40
30.0
176
     1
 62
     7
420
 16777215
176
     1
 90
        1
176
     1
 90
        2
176
     1
 62
     7
176
     1
 62
   257
176
     1
 90
        2
176
     1
 90
        1
176
     1
 40
1.0
176
     1
 90
        8
176
     1
 62
   257
176
     1
 40
1.0
176
     1
 90
        1
176
     1
 90
        6
176
     1
 90
        2
176
     1
 62
     7
176
     1
 90
        3
176
     1
 90
        0
176
     1
 90
        0
176
     1
290
     0
176
     1
 90
        5
176
     1
 40
0.0
176
     1
 90
        0
176
     1
290
     0
176
     1
290
     1
176
     1
290
     1
176
     1
290
     0
176
     1
290
     0
176
     1
290
     0
176
     1
290
     0
176
     1
290
     0
176
     1
290
     0
176
     1
 90
       50
176
     1
 40
0.0
176
     1
 40
1.0
176
     1
 90
        0
176
     1
 62
    18
420
        0
176
     1
 90
       50
176
     1
 90
        3
176
     1
 62
     5
420
      255
176
     1
290
     0
176
     1
 90
       50
176
     1
 90
       50
176
     1
 90
       50
176
     1
290
     0
176
     1
 90
       50
176
     1
 62
   256
176
     0
 40
1.0
176
     0
 90
        2
176
     1
  1
strokes_ogs.tif
176
     1
290
     0
176
     1
 40
1.0
176
     1
 40
1.0
176
     1
1001
ACAD
1000
AcDbSavedByObjectVersion
1070
     0
  0
VISUALSTYLE
  5
9A
102
{ACAD_REACTORS
330
2A
102
}
330
2A
100
AcDbVisualStyle
  2
Shades of Gray
 70
    23
177
     3
291
     0
 70
    58
 90
        2
176
     1
 90
        2
176
     1
 90
        3
176
     1
 90
        0
176
     1
 40
0.6
176
     1
 40
30.0
176
     1
 62
     7
420
 16777215
176
     1
 90
        2
176
     1
 90
        2
176
     1
 62
     7
176
     1
 62
     7
176
     1
 90
        1
176
     1
 90
        1
176
     1
 40
40.0
176
     1
 90
        8
176
     1
 62
     7
176
     1
 40
1.0
176
     1
 90
        1
176
     1
 90
        6
176
     1
 90
        2
176
     1
 62
     7
176
     1
 90
        3
176
     1
 90
        0
176
     1
 90
        0
176
     1
290
     0
176
     1
 90
        1
176
     1
 40
0.0
176
     1
 90
        0
176
     1
290
     0
176
     1
290
     1
176
     1
290
     1
176
     1
290
     0
176
     1
290
     0
176
     1
290
     0
176
     1
290
     0
176
     1
290
     0
176
     1
290
     0
176
     1
 90
       50
176
     1
 40
0.0
176
     1
 40
1.0
176
     1
 90
        0
176
     1
 62
    18
420
        0
176
     1
 90
       50
176
     1
 90
        3
176
     1
 62
     5
420
      255
176
     1
290
     0
176
     1
 90
       50
176
     1
 90
       50
176
     1
 90
       50
176
     1
290
     0
176
     1
 90
       50
176
     1
 62
   256
176
     0
 40
1.0
176
     0
 90
        2
176
     1
  1
strokes_ogs.tif
176
     1
290
     0
176
     1
 40
1.0
176
     1
 40
1.0
176
     1
1001
ACAD
1000
AcDbSavedByObjectVersion
1070
     0
  0
VISUALSTYLE
  5
9B
102
{ACAD_REACTORS
330
2A
102
}
330
2A
100
AcDbVisualStyle
  2
Sketchy
 70
    24
177
     3
291
     0
 70
    58
 90
        1
176
     1
 90
        2
176
     1
 90
        2
176
     1
 90
        0
176
     1
 40
0.6
176
     1
 40
30.0
176
     1
 62
     7
420
 16777215
176
     1
 90
        2
176
     1
 90
        2
176
     1
 62
     7
176
     1
 62
     7
176
     1
 90
        1
176
     1
 90
        1
176
     1
 40
40.0
176
     1
 90
       11
176
     1
 62
     7
176
     1
 40
1.0
176
     1
 90
        1
176
     1
 90
        6
176
     1
 90
        2
176
     1
 62
     7
176
     1
 90
        6
176
     1
 90
        0
176
     1
 90
        0
176
     1
290
     0
176
     1
 90
        1
176
     1
 40
0.0
176
     1
 90
        0
176
     1
290
     0
176
     1
290
     1
176
     1
290
     1
176
     1
290
     0
176
     1
290
     0
176
     1
290
     0
176
     1
290
     0
176
     1
290
     0
176
     1
290
     0
176
     1
 90
       50
176
     1
 40
0.0
176
     1
 40
1.0
176
     1
 90
        0
176
     1
 62
    18
420
        0
176
     1
 90
       50
176
     1
 90
        3
176
     1
 62
     5
420
      255
176
     1
290
     0
176
     1
 90
       50
176
     1
 90
       50
176
     1
 90
       50
176
     1
290
     0
176
     1
 90
       50
176
     1
 62
   256
176
     0
 40
1.0
176
     0
 90
        2
176
     1
  1
strokes_ogs.tif
176
     1
290
     0
176
     1
 40
1.0
176
     1
 40
1.0
176
     1
1001
ACAD
1000
AcDbSavedByObjectVersion
1070
     0
  0
VISUALSTYLE
  5
37
102
{ACAD_REACTORS
330
2A
102
}
330
2A
100
AcDbVisualStyle
  2
Thicken
 70
    13
177
     3
291
     1
 70
    58
 90
        2
176
     1
 90
        2
176
     1
 90
        0
176
     1
 90
        0
176
     1
 40
0.6
176
     1
 40
30.0
176
     1
 62
     7
420
 16777215
176
     1
 90
        1
176
     1
 90
        4
176
     1
 62
     7
176
     1
 62
   257
176
     1
 90
        1
176
     1
 90
        1
176
     1
 40
1.0
176
     1
 90
       12
176
     1
 62
     7
176
     1
 40
1.0
176
     1
 90
        1
176
     1
 90
        6
176
     1
 90
        2
176
     1
 62
     7
176
     1
 90
        5
176
     1
 90
        0
176
     1
 90
        0
176
     1
290
     0
176
     1
 90
        1
176
     1
 40
0.0
176
     1
 90
        0
176
     1
290
     0
176
     1
290
     1
176
     1
290
     1
176
     1
290
     0
176
     1
290
     0
176
     1
290
     0
176
     1
290
     0
176
     1
290
     0
176
     1
290
     0
176
     1
 90
       50
176
     1
 40
0.0
176
     1
 40
1.0
176
     1
 90
        0
176
     1
 62
    18
420
        0
176
     1
 90
       50
176
     1
 90
        3
176
     1
 62
     5
420
      255
176
     1
290
     0
176
     1
 90
       50
176
     1
 90
       50
176
     1
 90
       50
176
     1
290
     0
176
     1
 90
       50
176
     1
 62
   256
176
     0
 40
1.0
176
     0
 90
        2
176
     1
  1
strokes_ogs.tif
176
     1
290
     0
176
     1
 40
1.0
176
     1
 40
1.0
176
     1
1001
ACAD
1000
AcDbSavedByObjectVersion
1070
     0
  0
VISUALSTYLE
  5
98
102
{ACAD_REACTORS
330
2A
102
}
330
2A
100
AcDbVisualStyle
  2
Wireframe
 70
     5
177
     3
291
     0
 70
    58
 90
        0
176
     1
 90
        2
176
     1
 90
        0
176
     1
 90
        0
176
     1
 40
0.6
176
     1
 40
30.0
176
     1
 62
     7
420
 16777215
176
     1
 90
        1
176
     1
 90
        4
176
     1
 62
     7
176
     1
 62
   257
176
     1
 90
        1
176
     1
 90
        1
176
     1
 40
1.0
176
     1
 90
        0
176
     1
 62
   257
176
     1
 40
1.0
176
     1
 90
        1
176
     1
 90
        6
176
     1
 90
        2
176
     1
 62
     7
176
     1
 90
        3
176
     1
 90
        0
176
     1
 90
        0
176
     1
290
     0
176
     1
 90
        1
176
     1
 40
0.0
176
     1
 90
        0
176
     1
290
     0
176
     1
290
     1
176
     1
290
     1
176
     1
290
     0
176
     1
290
     0
176
     1
290
     0
176
     1
290
     0
176
     1
290
     0
176
     1
290
     0
176
     1
 90
       50
176
     1
 40
0.0
176
     1
 40
1.0
176
     1
 90
        0
176
     1
 62
    18
420
        0
176
     1
 90
       50
176
     1
 90
        3
176
     1
 62
     5
420
      255
176
     1
290
     0
176
     1
 90
       50
176
     1
 90
       50
176
     1
 90
       50
176
     1
290
     0
176
     1
 90
       50
176
     1
 62
   256
176
     0
 40
1.0
176
     0
 90
        2
176
     1
  1
strokes_ogs.tif
176
     1
290
     0
176
     1
 40
1.0
176
     1
 40
1.0
176
     1
1001
ACAD
1000
AcDbSavedByObjectVersion
1070
     0
  0
VISUALSTYLE
  5
9C
102
{ACAD_REACTORS
330
2A
102
}
330
2A
100
AcDbVisualStyle
  2
X-Ray
 70
    25
177
     3
291
     0
 70
    58
 90
        2
176
     1
 90
        2
176
     1
 90
        1
176
     1
 90
        1
176
     1
 40
0.5
176
     1
 40
30.0
176
     1
 62
     7
420
 16777215
176
     1
 90
        1
176
     1
 90
        0
176
     1
 62
     7
176
     1
 62
   257
176
     1
 90
        1
176
     1
 90
        1
176
     1
 40
1.0
176
     1
 90
        8
176
     1
 62
     7
176
     1
 40
1.0
176
     1
 90
        1
176
     1
 90
        6
176
     1
 90
        2
176
     1
 62
     7
176
     1
 90
        3
176
     1
 90
        0
176
     1
 90
        0
176
     1
290
     0
176
     1
 90
       13
176
     1
 40
0.0
176
     1
 90
        0
176
     1
290
     0
176
     1
290
     1
176
     1
290
     1
176
     1
290
     0
176
     1
290
     0
176
     1
290
     0
176
     1
290
     0
176
     1
290
     0
176
     1
290
     0
176
     1
 90
       50
176
     1
 40
0.0
176
     1
 40
1.0
176
     1
 90
        0
176
     1
 62
    18
420
        0
176
     1
 90
       50
176
     1
 90
        3
176
     1
 62
     5
420
      255
176
     1
290
     0
176
     1
 90
       50
176
     1
 90
       50
176
     1
 90
       50
176
     1
290
     0
176
     1
 90
       50
176
     1
 62
   256
176
     0
 40
1.0
176
     0
 90
        2
176
     1
  1
strokes_ogs.tif
176
     1
290
     0
176
     1
 40
1.0
176
     1
 40
1.0
176
     1
1001
ACAD
1000
AcDbSavedByObjectVersion
1070
     0
  0
DICTIONARYVAR
  5
FB
102
{ACAD_REACTORS
330
F6
102
}
330
F6
100
DictionaryVariables
280
     0
  1
1:1
  0
DICTIONARYVAR
  5
F8
102
{ACAD_REACTORS
330
F6
102
}
330
F6
100
DictionaryVariables
280
     0
  1
STANDARD
  0
DICTIONARYVAR
  5
F7
102
{ACAD_REACTORS
330
F6
102
}
330
F6
100
DictionaryVariables
280
     0
  1
STANDARD
  0
DICTIONARYVAR
  5
F9
102
{ACAD_REACTORS
330
F6
102
}
330
F6
100
DictionaryVariables
280
     0
  1
Imperial24
  0
DICTIONARYVAR
  5
FA
102
{ACAD_REACTORS
330
F6
102
}
330
F6
100
DictionaryVariables
280
     0
  1
Imperial24
  0
DICTIONARY
  5
110
330
BE
100
AcDbDictionary
280
     1
281
     1
  3
ACAD_XREC_ROUNDTRIP
360
111
  0
DICTIONARY
  5
10E
330
BC
100
AcDbDictionary
280
     1
281
     1
  3
ACAD_XREC_ROUNDTRIP
360
10F
  0
DICTIONARY
  5
10B
330
A3
100
AcDbDictionary
280
     1
281
     1
  3
ACAD_ROUNDTRIP_2008_TABLESTYLE_CELLSTYLEMAP
360
10C
  0
XRECORD
  5
111
102
{ACAD_REACTORS
330
110
102
}
330
110
100
AcDbXrecord
280
     1
102
DISPLAYNAME
  1
Imperial24
102
FLAGS
 90
        0
  0
XRECORD
  5
10F
102
{ACAD_REACTORS
330
10E
102
}
330
10E
100
AcDbXrecord
280
     1
102
DISPLAYNAME
  1
Imperial24
102
FLAGS
 90
        0
  0
CELLSTYLEMAP
  5
10C
102
{ACAD_REACTORS
330
10B
102
}
330
10B
100
AcDbCellStyleMap
 90
        3
300
CELLSTYLE
  1
TABLEFORMAT_BEGIN
 90
        5
170
     1
 91
        0
 92
    32768
 62
   257
 93
        1
300
CONTENTFORMAT
  1
CONTENTFORMAT_BEGIN
 90
        0
 91
        0
 92
      512
 93
        0
300

 40
0.0
140
1.0
 94
        5
 62
     0
340
11
144
0.25
309
CONTENTFORMAT_END
171
     0
 94
        0
309
TABLEFORMAT_END
  1
CELLSTYLE_BEGIN
 90
        1
 91
        1
300
_TITLE
309
CELLSTYLE_END
300
CELLSTYLE
  1
TABLEFORMAT_BEGIN
 90
        5
170
     1
 91
        0
 92
        0
 62
   257
 93
        1
300
CONTENTFORMAT
  1
CONTENTFORMAT_BEGIN
 90
        0
 91
        0
 92
      512
 93
        0
300

 40
0.0
140
1.0
 94
        5
 62
     0
340
11
144
0.18
309
CONTENTFORMAT_END
171
     0
 94
        0
309
TABLEFORMAT_END
  1
CELLSTYLE_BEGIN
 90
        2
 91
        1
300
_HEADER
309
CELLSTYLE_END
300
CELLSTYLE
  1
TABLEFORMAT_BEGIN
 90
        5
170
     1
 91
        0
 92
        0
 62
   257
 93
        1
300
CONTENTFORMAT
  1
CONTENTFORMAT_BEGIN
 90
        0
 91
        0
 92
      512
 93
        0
300

 40
0.0
140
1.0
 94
        2
 62
     0
340
11
144
0.18
309
CONTENTFORMAT_END
171
     0
 94
        0
309
TABLEFORMAT_END
  1
CELLSTYLE_BEGIN
 90
        3
 91
        2
300
_DATA
309
CELLSTYLE_END
  0
ENDSEC
  0
EOF
