  0
SECTION
  2
HEADER
  9
$ACADVER
  1
AC1027
  9
$ACADMAINTVER
 70
   125
  9
$DWGCODEPAGE
  3
ANSI_1252
  9
$LASTSAVEDBY
  1
ufficio.tecnico
  9
$REQUIREDVERSIONS
160
                 0
  9
$INSBASE
 10
0.0
 20
0.0
 30
0.0
  9
$EXTMIN
 10
0.1532378471839128
 20
-10.52319918899246
 30
0.0
  9
$EXTMAX
 10
20.38073702832495
 20
-1.928340521436316
 30
0.0
  9
$LIMMIN
 10
0.0
 20
0.0
  9
$LIMMAX
 10
12.0
 20
9.0
  9
$ORTHOMODE
 70
     0
  9
$REGENMODE
 70
     1
  9
$FILLMODE
 70
     1
  9
$QTEXTMODE
 70
     0
  9
$MIRRTEXT
 70
     1
  9
$LTSCALE
 40
1.0
  9
$ATTMODE
 70
     1
  9
$TEXTSIZE
 40
0.2
  9
$TRACEWID
 40
0.05
  9
$TEXTSTYLE
  7
Standard
  9
$CLAYER
  8
0
  9
$CELTYPE
  6
ByLayer
  9
$CECOLOR
 62
   256
  9
$CELTSCALE
 40
1.0
  9
$DISPSILH
 70
     0
  9
$DIMSCALE
 40
1.0
  9
$DIMASZ
 40
0.18
  9
$DIMEXO
 40
0.0625
  9
$DIMDLI
 40
0.38
  9
$DIMRND
 40
0.0
  9
$DIMDLE
 40
0.0
  9
$DIMEXE
 40
0.18
  9
$DIMTP
 40
0.0
  9
$DIMTM
 40
0.0
  9
$DIMTXT
 40
0.18
  9
$DIMCEN
 40
0.09
  9
$DIMTSZ
 40
0.0
  9
$DIMTOL
 70
     0
  9
$DIMLIM
 70
     0
  9
$DIMTIH
 70
     1
  9
$DIMTOH
 70
     1
  9
$DIMSE1
 70
     0
  9
$DIMSE2
 70
     0
  9
$DIMTAD
 70
     0
  9
$DIMZIN
 70
     0
  9
$DIMBLK
  1

  9
$DIMASO
 70
     1
  9
$DIMSHO
 70
     1
  9
$DIMPOST
  1

  9
$DIMAPOST
  1

  9
$DIMALT
 70
     0
  9
$DIMALTD
 70
     2
  9
$DIMALTF
 40
25.4
  9
$DIMLFAC
 40
1.0
  9
$DIMTOFL
 70
     0
  9
$DIMTVP
 40
0.0
  9
$DIMTIX
 70
     0
  9
$DIMSOXD
 70
     0
  9
$DIMSAH
 70
     0
  9
$DIMBLK1
  1

  9
$DIMBLK2
  1

  9
$DIMSTYLE
  2
Standard
  9
$DIMCLRD
 70
     0
  9
$DIMCLRE
 70
     0
  9
$DIMCLRT
 70
     0
  9
$DIMTFAC
 40
1.0
  9
$DIMGAP
 40
0.09
  9
$DIMJUST
 70
     0
  9
$DIMSD1
 70
     0
  9
$DIMSD2
 70
     0
  9
$DIMTOLJ
 70
     1
  9
$DIMTZIN
 70
     0
  9
$DIMALTZ
 70
     0
  9
$DIMALTTZ
 70
     0
  9
$DIMUPT
 70
     0
  9
$DIMDEC
 70
     4
  9
$DIMTDEC
 70
     4
  9
$DIMALTU
 70
     2
  9
$DIMALTTD
 70
     2
  9
$DIMTXSTY
  7
Standard
  9
$DIMAUNIT
 70
     0
  9
$DIMADEC
 70
     0
  9
$DIMALTRND
 40
0.0
  9
$DIMAZIN
 70
     0
  9
$DIMDSEP
 70
    46
  9
$DIMATFIT
 70
     3
  9
$DIMFRAC
 70
     0
  9
$DIMLDRBLK
  1

  9
$DIMLUNIT
 70
     2
  9
$DIMLWD
 70
    -2
  9
$DIMLWE
 70
    -2
  9
$DIMTMOVE
 70
     0
  9
$DIMFXL
 40
1.0
  9
$DIMFXLON
 70
     0
  9
$DIMJOGANG
 40
0.7853981633974483
  9
$DIMTFILL
 70
     0
  9
$DIMTFILLCLR
 70
     0
  9
$DIMARCSYM
 70
     0
  9
$DIMLTYPE
  6

  9
$DIMLTEX1
  6

  9
$DIMLTEX2
  6

  9
$DIMTXTDIRECTION
 70
     0
  9
$LUNITS
 70
     2
  9
$LUPREC
 70
     4
  9
$SKETCHINC
 40
0.1
  9
$FILLETRAD
 40
0.5
  9
$AUNITS
 70
     0
  9
$AUPREC
 70
     0
  9
$MENU
  1
.
  9
$ELEVATION
 40
0.0
  9
$PELEVATION
 40
0.0
  9
$THICKNESS
 40
0.0
  9
$LIMCHECK
 70
     0
  9
$CHAMFERA
 40
0.5
  9
$CHAMFERB
 40
0.5
  9
$CHAMFERC
 40
1.0
  9
$CHAMFERD
 40
0.0
  9
$SKPOLY
 70
     0
  9
$TDCREATE
 40
2459325.408148148
  9
$TDUCREATE
 40
2459325.324818716
  9
$TDUPDATE
 40
2459325.443854167
  9
$TDUUPDATE
 40
2459325.360520833
  9
$TDINDWG
 40
0.0036458449
  9
$TDUSRTIMER
 40
0.0036458449
  9
$USRTIMER
 70
     1
  9
$ANGBASE
 50
0.0
  9
$ANGDIR
 70
     0
  9
$PDMODE
 70
     0
  9
$PDSIZE
 40
0.0
  9
$PLINEWID
 40
0.0
  9
$SPLFRAME
 70
     0
  9
$SPLINETYPE
 70
     6
  9
$SPLINESEGS
 70
     8
  9
$HANDSEED
  5
7C4
  9
$SURFTAB1
 70
     6
  9
$SURFTAB2
 70
     6
  9
$SURFTYPE
 70
     6
  9
$SURFU
 70
     6
  9
$SURFV
 70
     6
  9
$UCSBASE
  2

  9
$UCSNAME
  2

  9
$UCSORG
 10
0.0
 20
0.0
 30
0.0
  9
$UCSXDIR
 10
1.0
 20
0.0
 30
0.0
  9
$UCSYDIR
 10
0.0
 20
1.0
 30
0.0
  9
$UCSORTHOREF
  2

  9
$UCSORTHOVIEW
 70
     0
  9
$UCSORGTOP
 10
0.0
 20
0.0
 30
0.0
  9
$UCSORGBOTTOM
 10
0.0
 20
0.0
 30
0.0
  9
$UCSORGLEFT
 10
0.0
 20
0.0
 30
0.0
  9
$UCSORGRIGHT
 10
0.0
 20
0.0
 30
0.0
  9
$UCSORGFRONT
 10
0.0
 20
0.0
 30
0.0
  9
$UCSORGBACK
 10
0.0
 20
0.0
 30
0.0
  9
$PUCSBASE
  2

  9
$PUCSNAME
  2

  9
$PUCSORG
 10
0.0
 20
0.0
 30
0.0
  9
$PUCSXDIR
 10
1.0
 20
0.0
 30
0.0
  9
$PUCSYDIR
 10
0.0
 20
1.0
 30
0.0
  9
$PUCSORTHOREF
  2

  9
$PUCSORTHOVIEW
 70
     0
  9
$PUCSORGTOP
 10
0.0
 20
0.0
 30
0.0
  9
$PUCSORGBOTTOM
 10
0.0
 20
0.0
 30
0.0
  9
$PUCSORGLEFT
 10
0.0
 20
0.0
 30
0.0
  9
$PUCSORGRIGHT
 10
0.0
 20
0.0
 30
0.0
  9
$PUCSORGFRONT
 10
0.0
 20
0.0
 30
0.0
  9
$PUCSORGBACK
 10
0.0
 20
0.0
 30
0.0
  9
$USERI1
 70
     0
  9
$USERI2
 70
     0
  9
$USERI3
 70
     0
  9
$USERI4
 70
     0
  9
$USERI5
 70
     0
  9
$USERR1
 40
0.0
  9
$USERR2
 40
0.0
  9
$USERR3
 40
0.0
  9
$USERR4
 40
0.0
  9
$USERR5
 40
0.0
  9
$WORLDVIEW
 70
     1
  9
$SHADEDGE
 70
     3
  9
$SHADEDIF
 70
    70
  9
$TILEMODE
 70
     1
  9
$MAXACTVP
 70
    64
  9
$PINSBASE
 10
0.0
 20
0.0
 30
0.0
  9
$PLIMCHECK
 70
     0
  9
$PEXTMIN
 10
1.000000000000000E+20
 20
1.000000000000000E+20
 30
1.000000000000000E+20
  9
$PEXTMAX
 10
-1.000000000000000E+20
 20
-1.000000000000000E+20
 30
-1.000000000000000E+20
  9
$PLIMMIN
 10
0.0
 20
0.0
  9
$PLIMMAX
 10
12.0
 20
9.0
  9
$UNITMODE
 70
     0
  9
$VISRETAIN
 70
     1
  9
$PLINEGEN
 70
     0
  9
$PSLTSCALE
 70
     1
  9
$TREEDEPTH
 70
  3020
  9
$CMLSTYLE
  2
Standard
  9
$CMLJUST
 70
     0
  9
$CMLSCALE
 40
1.0
  9
$PROXYGRAPHICS
 70
     1
  9
$MEASUREMENT
 70
     0
  9
$CELWEIGHT
370
    -1
  9
$ENDCAPS
280
     0
  9
$JOINSTYLE
280
     0
  9
$LWDISPLAY
290
     1
  9
$INSUNITS
 70
     5
  9
$HYPERLINKBASE
  1

  9
$STYLESHEET
  1

  9
$XEDIT
290
     1
  9
$CEPSNTYPE
380
     0
  9
$PSTYLEMODE
290
     1
  9
$FINGERPRINTGUID
  2
{515B07AB-3672-40E7-A8AE-15EEC49DBA6A}
  9
$VERSIONGUID
  2
{EDDBEA64-D6EA-864E-8882-5F5C2B5923EE}
  9
$EXTNAMES
290
     1
  9
$PSVPSCALE
 40
0.0
  9
$OLESTARTUP
290
     0
  9
$SORTENTS
280
   127
  9
$INDEXCTL
280
     0
  9
$HIDETEXT
280
     1
  9
$XCLIPFRAME
280
     2
  9
$HALOGAP
280
     0
  9
$OBSCOLOR
 70
   257
  9
$OBSLTYPE
280
     0
  9
$INTERSECTIONDISPLAY
280
     0
  9
$INTERSECTIONCOLOR
 70
   257
  9
$DIMASSOC
280
     2
  9
$PROJECTNAME
  1

  9
$CAMERADISPLAY
290
     0
  9
$LENSLENGTH
 40
50.0
  9
$CAMERAHEIGHT
 40
0.0
  9
$STEPSPERSEC
 40
2.0
  9
$STEPSIZE
 40
6.0
  9
$3DDWFPREC
 40
2.0
  9
$PSOLWIDTH
 40
0.25
  9
$PSOLHEIGHT
 40
4.0
  9
$LOFTANG1
 40
1.570796326794897
  9
$LOFTANG2
 40
1.570796326794897
  9
$LOFTMAG1
 40
0.0
  9
$LOFTMAG2
 40
0.0
  9
$LOFTPARAM
 70
     7
  9
$LOFTNORMALS
280
     1
  9
$LATITUDE
 40
37.795
  9
$LONGITUDE
 40
-122.394
  9
$NORTHDIRECTION
 40
0.0
  9
$TIMEZONE
 70
 -8000
  9
$LIGHTGLYPHDISPLAY
280
     1
  9
$TILEMODELIGHTSYNCH
280
     1
  9
$CMATERIAL
347
3C
  9
$SOLIDHIST
280
     1
  9
$SHOWHIST
280
     1
  9
$DWFFRAME
280
     2
  9
$DGNFRAME
280
     2
  9
$REALWORLDSCALE
290
     1
  9
$INTERFERECOLOR
 62
   256
  9
$INTERFEREOBJVS
345
33
  9
$INTERFEREVPVS
346
5D3
  9
$CSHADOW
280
     0
  9
$SHADOWPLANELOCATION
 40
0.0
  0
ENDSEC
  0
SECTION
  2
CLASSES
  0
CLASS
  1
ACDBDICTIONARYWDFLT
  2
AcDbDictionaryWithDefault
  3
ObjectDBX Classes
 90
        0
 91
        1
280
     0
281
     0
  0
CLASS
  1
VISUALSTYLE
  2
AcDbVisualStyle
  3
ObjectDBX Classes
 90
     4095
 91
       26
280
     0
281
     0
  0
CLASS
  1
MATERIAL
  2
AcDbMaterial
  3
ObjectDBX Classes
 90
     1153
 91
        3
280
     0
281
     0
  0
CLASS
  1
SUN
  2
AcDbSun
  3
SCENEOE
 90
     1153
 91
        1
280
     0
281
     0
  0
CLASS
  1
TABLESTYLE
  2
AcDbTableStyle
  3
ObjectDBX Classes
 90
     4095
 91
        1
280
     0
281
     0
  0
CLASS
  1
SCALE
  2
AcDbScale
  3
ObjectDBX Classes
 90
     1153
 91
       21
280
     0
281
     0
  0
CLASS
  1
MLEADERSTYLE
  2
AcDbMLeaderStyle
  3
ACDB_MLEADERSTYLE_CLASS
 90
     4095
 91
        1
280
     0
281
     0
  0
CLASS
  1
ACDBSECTIONVIEWSTYLE
  2
AcDbSectionViewStyle
  3
ObjectDBX Classes
 90
     1025
 91
        1
280
     0
281
     0
  0
CLASS
  1
ACDBDETAILVIEWSTYLE
  2
AcDbDetailViewStyle
  3
ObjectDBX Classes
 90
     1025
 91
        1
280
     0
281
     0
  0
CLASS
  1
SORTENTSTABLE
  2
AcDbSortentsTable
  3
ObjectDBX Classes
 90
        0
 91
        1
280
     0
281
     0
  0
CLASS
  1
DICTIONARYVAR
  2
AcDbDictionaryVar
  3
ObjectDBX Classes
 90
        0
 91
        5
280
     0
281
     0
  0
CLASS
  1
CELLSTYLEMAP
  2
AcDbCellStyleMap
  3
ObjectDBX Classes
 90
     1152
 91
        2
280
     0
281
     0
  0
ENDSEC
  0
SECTION
  2
TABLES
  0
TABLE
  2
VPORT
  5
8
330
0
100
AcDbSymbolTable
 70
     1
1001
ACAD
1000
DbSaveVer
1071
      105
  0
VPORT
  5
29
330
8
100
AcDbSymbolTableRecord
100
AcDbViewportTableRecord
  2
*Active
 70
     0
 10
0.0
 20
0.0
 11
1.0
 21
1.0
 12
-4.619474199267862
 22
-3.067594359536009
 13
0.0
 23
0.0
 14
0.5
 24
0.5
 15
0.5
 25
0.5
 16
0.0
 26
0.0
 36
1.0
 17
10.50008280156501
 27
-5.732638887455728
 37
0.0
 40
25.23888317701749
 41
1.686713286713286
 42
50.0
 43
0.0
 44
0.0
 50
0.0
 51
0.0
 71
     0
 72
   100
 73
     1
 74
     3
 75
     0
 76
     0
 77
     0
 78
     0
281
     0
 65
     1
110
0.0
120
0.0
130
0.0
111
1.0
121
0.0
131
0.0
112
0.0
122
1.0
132
0.0
 79
     0
146
0.0
348
2F
 60
     3
 61
     5
292
     1
282
     1
141
0.0
142
0.0
 63
   250
361
3F
1001
ACAD_NAV_VCDISPLAY
1070
     3
  0
ENDTAB
  0
TABLE
  2
LTYPE
  5
5
330
0
100
AcDbSymbolTable
 70
     1
  0
LTYPE
  5
14
330
5
100
AcDbSymbolTableRecord
100
AcDbLinetypeTableRecord
  2
ByBlock
 70
     0
  3

 72
    65
 73
     0
 40
0.0
  0
LTYPE
  5
15
330
5
100
AcDbSymbolTableRecord
100
AcDbLinetypeTableRecord
  2
ByLayer
 70
     0
  3

 72
    65
 73
     0
 40
0.0
  0
LTYPE
  5
16
330
5
100
AcDbSymbolTableRecord
100
AcDbLinetypeTableRecord
  2
Continuous
 70
     0
  3
Solid line
 72
    65
 73
     0
 40
0.0
  0
ENDTAB
  0
TABLE
  2
LAYER
  5
2
330
0
100
AcDbSymbolTable
 70
     2
  0
LAYER
  5
10
330
2
100
AcDbSymbolTableRecord
100
AcDbLayerTableRecord
  2
0
 70
     0
 62
     7
  6
Continuous
370
    -3
390
F
347
3E
348
0
  0
LAYER
  5
40
330
2
100
AcDbSymbolTableRecord
100
AcDbLayerTableRecord
  2
Livello 1
 70
     0
 62
     7
  6
Continuous
370
    -3
390
F
347
3E
348
0
  0
ENDTAB
  0
TABLE
  2
STYLE
  5
3
330
0
100
AcDbSymbolTable
 70
     1
  0
STYLE
  5
11
330
3
100
AcDbSymbolTableRecord
100
AcDbTextStyleTableRecord
  2
Standard
 70
     0
 40
0.0
 41
1.0
 50
0.0
 71
     0
 42
0.2
  3
txt
  4

  0
ENDTAB
  0
TABLE
  2
VIEW
  5
6
330
0
100
AcDbSymbolTable
 70
     0
  0
ENDTAB
  0
TABLE
  2
UCS
  5
7
330
0
100
AcDbSymbolTable
 70
     0
  0
ENDTAB
  0
TABLE
  2
APPID
  5
9
330
0
100
AcDbSymbolTable
 70
     2
  0
APPID
  5
12
330
9
100
AcDbSymbolTableRecord
100
AcDbRegAppTableRecord
  2
ACAD
 70
     0
  0
APPID
  5
7AF
330
9
100
AcDbSymbolTableRecord
100
AcDbRegAppTableRecord
  2
ACAD_NAV_VCDISPLAY
 70
     0
  0
ENDTAB
  0
TABLE
  2
DIMSTYLE
  5
A
330
0
100
AcDbSymbolTable
 70
     1
100
AcDbDimStyleTable
 71
     0
  0
DIMSTYLE
105
27
330
A
100
AcDbSymbolTableRecord
100
AcDbDimStyleTableRecord
  2
Standard
 70
     0
340
11
  0
ENDTAB
  0
TABLE
  2
BLOCK_RECORD
  5
1
330
0
100
AcDbSymbolTable
 70
    22
  0
BLOCK_RECORD
  5
1F
102
{ACAD_XDICTIONARY
360
5FD
102
}
330
1
100
AcDbSymbolTableRecord
100
AcDbBlockTableRecord
  2
*Model_Space
340
22
 70
     0
280
     1
281
     0
  0
BLOCK_RECORD
  5
1B
330
1
100
AcDbSymbolTableRecord
100
AcDbBlockTableRecord
  2
*Paper_Space
340
1E
 70
     0
280
     1
281
     0
  0
BLOCK_RECORD
  5
23
330
1
100
AcDbSymbolTableRecord
100
AcDbBlockTableRecord
  2
*Paper_Space0
340
26
 70
     0
280
     1
281
     0
  0
BLOCK_RECORD
  5
41
330
1
100
AcDbSymbolTableRecord
100
AcDbBlockTableRecord
  2
block 2
340
0
 70
     0
280
     1
281
     0
  0
BLOCK_RECORD
  5
46
330
1
100
AcDbSymbolTableRecord
100
AcDbBlockTableRecord
  2
block 3
340
0
 70
     0
280
     1
281
     0
  0
BLOCK_RECORD
  5
4B
330
1
100
AcDbSymbolTableRecord
100
AcDbBlockTableRecord
  2
block 4
340
0
 70
     0
280
     1
281
     0
  0
BLOCK_RECORD
  5
50
330
1
100
AcDbSymbolTableRecord
100
AcDbBlockTableRecord
  2
block 5
340
0
 70
     0
280
     1
281
     0
  0
BLOCK_RECORD
  5
55
330
1
100
AcDbSymbolTableRecord
100
AcDbBlockTableRecord
  2
block 6
340
0
 70
     0
280
     1
281
     0
  0
BLOCK_RECORD
  5
5A
330
1
100
AcDbSymbolTableRecord
100
AcDbBlockTableRecord
  2
block 7
340
0
 70
     0
280
     1
281
     0
  0
BLOCK_RECORD
  5
5F
330
1
100
AcDbSymbolTableRecord
100
AcDbBlockTableRecord
  2
block 8
340
0
 70
     0
280
     1
281
     0
  0
BLOCK_RECORD
  5
64
330
1
100
AcDbSymbolTableRecord
100
AcDbBlockTableRecord
  2
block 9
340
0
 70
     0
280
     1
281
     0
  0
BLOCK_RECORD
  5
4F1
330
1
100
AcDbSymbolTableRecord
100
AcDbBlockTableRecord
  2
block 10
340
0
 70
     0
280
     1
281
     0
  0
BLOCK_RECORD
  5
507
330
1
100
AcDbSymbolTableRecord
100
AcDbBlockTableRecord
  2
block 11
340
0
 70
     0
280
     1
281
     0
  0
BLOCK_RECORD
  5
51D
330
1
100
AcDbSymbolTableRecord
100
AcDbBlockTableRecord
  2
block 12
340
0
 70
     0
280
     1
281
     0
  0
BLOCK_RECORD
  5
533
330
1
100
AcDbSymbolTableRecord
100
AcDbBlockTableRecord
  2
block 13
340
0
 70
     0
280
     1
281
     0
  0
BLOCK_RECORD
  5
549
330
1
100
AcDbSymbolTableRecord
100
AcDbBlockTableRecord
  2
block 14
340
0
 70
     0
280
     1
281
     0
  0
BLOCK_RECORD
  5
55D
330
1
100
AcDbSymbolTableRecord
100
AcDbBlockTableRecord
  2
block 15
340
0
 70
     0
280
     1
281
     0
  0
BLOCK_RECORD
  5
571
330
1
100
AcDbSymbolTableRecord
100
AcDbBlockTableRecord
  2
block 16
340
0
 70
     0
280
     1
281
     0
  0
BLOCK_RECORD
  5
585
330
1
100
AcDbSymbolTableRecord
100
AcDbBlockTableRecord
  2
block 17
340
0
 70
     0
280
     1
281
     0
  0
BLOCK_RECORD
  5
599
330
1
100
AcDbSymbolTableRecord
100
AcDbBlockTableRecord
  2
block 18
340
0
 70
     0
280
     1
281
     0
  0
BLOCK_RECORD
  5
5A3
330
1
100
AcDbSymbolTableRecord
100
AcDbBlockTableRecord
  2
block 19
340
0
 70
     0
280
     1
281
     0
  0
BLOCK_RECORD
  5
5AD
330
1
100
AcDbSymbolTableRecord
100
AcDbBlockTableRecord
  2
block 20
340
0
 70
     0
280
     1
281
     0
  0
BLOCK_RECORD
  5
5C3
330
1
100
AcDbSymbolTableRecord
100
AcDbBlockTableRecord
  2
block 21
340
0
102
{BLKREFS
331
5C4
102
}
 70
     0
280
     1
281
     0
  0
BLOCK_RECORD
  5
5C7
330
1
100
AcDbSymbolTableRecord
100
AcDbBlockTableRecord
  2
block 22
340
0
 70
     0
280
     1
281
     0
  0
ENDTAB
  0
ENDSEC
  0
SECTION
  2
BLOCKS
  0
BLOCK
  5
20
330
1F
100
AcDbEntity
  8
0
100
AcDbBlockBegin
  2
*Model_Space
 70
     0
 10
0.0
 20
0.0
 30
0.0
  3
*Model_Space
  1

  0
ENDBLK
  5
21
330
1F
100
AcDbEntity
  8
0
100
AcDbBlockEnd
  0
BLOCK
  5
1C
330
1B
100
AcDbEntity
 67
     1
  8
0
100
AcDbBlockBegin
  2
*Paper_Space
 70
     0
 10
0.0
 20
0.0
 30
0.0
  3
*Paper_Space
  1

  0
ENDBLK
  5
1D
330
1B
100
AcDbEntity
 67
     1
  8
0
100
AcDbBlockEnd
  0
BLOCK
  5
24
330
23
100
AcDbEntity
 67
     1
  8
0
100
AcDbBlockBegin
  2
*Paper_Space0
 70
     0
 10
0.0
 20
0.0
 30
0.0
  3
*Paper_Space0
  1

  0
ENDBLK
  5
25
330
23
100
AcDbEntity
 67
     1
  8
0
100
AcDbBlockEnd
  0
BLOCK
  5
43
330
41
100
AcDbEntity
  8
0
100
AcDbBlockBegin
  2
block 2
 70
     0
 10
0.0
 20
0.0
 30
0.0
  3
block 2
  1

  0
SPLINE
  5
45
330
41
100
AcDbEntity
  8
Livello 1
 62
   250
420
  1842203
370
    35
100
AcDbSpline
210
0.0
220
0.0
230
1.0
 70
     9
 71
     3
 72
    20
 73
    16
 74
     0
 42
0.000000001
 43
0.0000000001
 40
0.0
 40
0.0
 40
0.0
 40
0.0
 40
1.0
 40
1.0
 40
1.0
 40
2.0
 40
2.0
 40
2.0
 40
3.0
 40
3.0
 40
3.0
 40
4.0
 40
4.0
 40
4.0
 40
5.0
 40
5.0
 40
5.0
 40
5.0
 10
1.556452479156584
 20
-6.652799748336807
 30
0.0
 10
1.556452479156584
 20
-5.435190776418983
 30
0.0
 10
2.543514117798702
 20
-4.448129137776865
 30
0.0
 10
3.761122971737623
 20
-4.448129137776865
 30
0.0
 10
4.978728385118366
 20
-4.448129137776865
 30
0.0
 10
5.965797228054222
 20
-5.435190776418983
 30
0.0
 10
5.965797228054222
 20
-6.652799748336807
 30
0.0
 10
5.965797228054222
 20
-7.870408720254632
 30
0.0
 10
4.978728385118366
 20
-8.857470358896751
 30
0.0
 10
3.761122971737623
 20
-8.857470358896751
 30
0.0
 10
2.543514117798702
 20
-8.857470358896751
 30
0.0
 10
1.556452479156584
 20
-7.870408720254632
 30
0.0
 10
1.556452479156584
 20
-6.652799748336807
 30
0.0
 10
1.556452479156584
 20
-6.652799748336807
 30
0.0
 10
1.556452479156584
 20
-6.652799748336807
 30
0.0
 10
1.556452479156584
 20
-6.652799748336807
 30
0.0
  0
ENDBLK
  5
44
330
41
100
AcDbEntity
  8
0
100
AcDbBlockEnd
  0
BLOCK
  5
48
330
46
100
AcDbEntity
  8
0
100
AcDbBlockBegin
  2
block 3
 70
     0
 10
0.0
 20
0.0
 30
0.0
  3
block 3
  1

  0
SPLINE
  5
4A
330
46
100
AcDbEntity
  8
Livello 1
 62
   250
420
  1842203
370
    35
100
AcDbSpline
210
0.0
220
0.0
230
1.0
 70
     9
 71
     3
 72
    20
 73
    16
 74
     0
 42
0.000000001
 43
0.0000000001
 40
0.0
 40
0.0
 40
0.0
 40
0.0
 40
1.0
 40
1.0
 40
1.0
 40
2.0
 40
2.0
 40
2.0
 40
3.0
 40
3.0
 40
3.0
 40
4.0
 40
4.0
 40
4.0
 40
5.0
 40
5.0
 40
5.0
 40
5.0
 10
1.661320507936958
 20
-6.652799748336807
 30
0.0
 10
1.661320507936958
 20
-5.550841915278957
 30
0.0
 10
2.55463488979484
 20
-4.65752744328007
 30
0.0
 10
3.656592695014888
 20
-4.65752744328007
 30
0.0
 10
4.758554028012623
 20
-4.65752744328007
 30
0.0
 10
5.651868477444494
 20
-5.550841915278957
 30
0.0
 10
5.651868477444494
 20
-6.652799748336807
 30
0.0
 10
5.651868477444494
 20
-7.754757581394626
 30
0.0
 10
4.758554028012623
 20
-8.648072053393544
 30
0.0
 10
3.656592695014888
 20
-8.648072053393544
 30
0.0
 10
2.55463488979484
 20
-8.648072053393544
 30
0.0
 10
1.661320507936958
 20
-7.754757581394626
 30
0.0
 10
1.661320507936958
 20
-6.652799748336807
 30
0.0
 10
1.661320507936958
 20
-6.652799748336807
 30
0.0
 10
1.661320507936958
 20
-6.652799748336807
 30
0.0
 10
1.661320507936958
 20
-6.652799748336807
 30
0.0
  0
ENDBLK
  5
49
330
46
100
AcDbEntity
  8
0
100
AcDbBlockEnd
  0
BLOCK
  5
4D
330
4B
100
AcDbEntity
  8
0
100
AcDbBlockBegin
  2
block 4
 70
     0
 10
0.0
 20
0.0
 30
0.0
  3
block 4
  1

  0
SPLINE
  5
4F
330
4B
100
AcDbEntity
  8
Livello 1
 62
   250
420
  1842203
370
    35
100
AcDbSpline
210
0.0
220
0.0
230
1.0
 70
     9
 71
     3
 72
    20
 73
    16
 74
     0
 42
0.000000001
 43
0.0000000001
 40
0.0
 40
0.0
 40
0.0
 40
0.0
 40
1.0
 40
1.0
 40
1.0
 40
2.0
 40
2.0
 40
2.0
 40
3.0
 40
3.0
 40
3.0
 40
4.0
 40
4.0
 40
4.0
 40
5.0
 40
5.0
 40
5.0
 40
5.0
 10
8.332734452053241
 20
-6.652799748336807
 30
0.0
 10
8.332734452053241
 20
-5.725061220790964
 30
0.0
 10
9.084807266199598
 20
-4.972988387645632
 30
0.0
 10
10.0125457703088
 20
-4.972988387645632
 30
0.0
 10
10.94027721886265
 20
-4.972988387645632
 30
0.0
 10
11.69235708856438
 20
-5.725061220790964
 30
0.0
 10
11.69235708856438
 20
-6.652799748336807
 30
0.0
 10
11.69235708856438
 20
-7.58053827588265
 30
0.0
 10
10.94027721886265
 20
-8.332611109027951
 30
0.0
 10
10.0125457703088
 20
-8.332611109027951
 30
0.0
 10
9.084807266199598
 20
-8.332611109027951
 30
0.0
 10
8.332734452053241
 20
-7.58053827588265
 30
0.0
 10
8.332734452053241
 20
-6.652799748336807
 30
0.0
 10
8.332734452053241
 20
-6.652799748336807
 30
0.0
 10
8.332734452053241
 20
-6.652799748336807
 30
0.0
 10
8.332734452053241
 20
-6.652799748336807
 30
0.0
  0
ENDBLK
  5
4E
330
4B
100
AcDbEntity
  8
0
100
AcDbBlockEnd
  0
BLOCK
  5
52
330
50
100
AcDbEntity
  8
0
100
AcDbBlockBegin
  2
block 5
 70
     0
 10
0.0
 20
0.0
 30
0.0
  3
block 5
  1

  0
SPLINE
  5
54
330
50
100
AcDbEntity
  8
Livello 1
 62
   250
420
  1842203
370
    35
100
AcDbSpline
210
0.0
220
0.0
230
1.0
 70
     9
 71
     3
 72
    20
 73
    16
 74
     0
 42
0.000000001
 43
0.0000000001
 40
0.0
 40
0.0
 40
0.0
 40
0.0
 40
1.0
 40
1.0
 40
1.0
 40
2.0
 40
2.0
 40
2.0
 40
3.0
 40
3.0
 40
3.0
 40
4.0
 40
4.0
 40
4.0
 40
5.0
 40
5.0
 40
5.0
 40
5.0
 10
8.54134253006454
 20
-6.652799748336807
 30
0.0
 10
8.54134253006454
 20
-5.840278442984371
 30
0.0
 10
9.200021159936568
 20
-5.181599998704603
 30
0.0
 10
10.01254224253111
 20
-5.181599998704603
 30
0.0
 10
10.82506705513524
 20
-5.181599998704603
 30
0.0
 10
11.4837454827754
 20
-5.840278442984371
 30
0.0
 10
11.4837454827754
 20
-6.652799748336807
 30
0.0
 10
11.4837454827754
 20
-7.465321053689212
 30
0.0
 10
10.82506705513524
 20
-8.123999497969013
 30
0.0
 10
10.01254224253111
 20
-8.123999497969013
 30
0.0
 10
9.200021159936568
 20
-8.123999497969013
 30
0.0
 10
8.54134253006454
 20
-7.465321053689212
 30
0.0
 10
8.54134253006454
 20
-6.652799748336807
 30
0.0
 10
8.54134253006454
 20
-6.652799748336807
 30
0.0
 10
8.54134253006454
 20
-6.652799748336807
 30
0.0
 10
8.54134253006454
 20
-6.652799748336807
 30
0.0
  0
ENDBLK
  5
53
330
50
100
AcDbEntity
  8
0
100
AcDbBlockEnd
  0
BLOCK
  5
57
330
55
100
AcDbEntity
  8
0
100
AcDbBlockBegin
  2
block 6
 70
     0
 10
0.0
 20
0.0
 30
0.0
  3
block 6
  1

  0
SPLINE
  5
59
330
55
100
AcDbEntity
  8
Livello 1
 62
   250
420
  1842203
370
    35
100
AcDbSpline
210
0.0
220
0.0
230
1.0
 70
     9
 71
     3
 72
    20
 73
    16
 74
     0
 42
0.000000001
 43
0.0000000001
 40
0.0
 40
0.0
 40
0.0
 40
0.0
 40
1.0
 40
1.0
 40
1.0
 40
2.0
 40
2.0
 40
2.0
 40
3.0
 40
3.0
 40
3.0
 40
4.0
 40
4.0
 40
4.0
 40
5.0
 40
5.0
 40
5.0
 40
5.0
 10
13.62897850675186
 20
-6.652799748336807
 30
0.0
 10
13.62897850675186
 20
-5.945430915180307
 30
0.0
 10
14.20240818656689
 20
-5.372001220879205
 30
0.0
 10
14.90977700185374
 20
-5.372001220879205
 30
0.0
 10
15.61714228936291
 20
-5.372001220879205
 30
0.0
 10
16.19057549695563
 20
-5.945430915180307
 30
0.0
 10
16.19057549695563
 20
-6.652799748336807
 30
0.0
 10
16.19057549695563
 20
-7.360168581493277
 30
0.0
 10
15.61714228936291
 20
-7.933598275794378
 30
0.0
 10
14.90977700185374
 20
-7.933598275794378
 30
0.0
 10
14.20240818656689
 20
-7.933598275794378
 30
0.0
 10
13.62897850675186
 20
-7.360168581493277
 30
0.0
 10
13.62897850675186
 20
-6.652799748336807
 30
0.0
 10
13.62897850675186
 20
-6.652799748336807
 30
0.0
 10
13.62897850675186
 20
-6.652799748336807
 30
0.0
 10
13.62897850675186
 20
-6.652799748336807
 30
0.0
  0
ENDBLK
  5
58
330
55
100
AcDbEntity
  8
0
100
AcDbBlockEnd
  0
BLOCK
  5
5C
330
5A
100
AcDbEntity
  8
0
100
AcDbBlockBegin
  2
block 7
 70
     0
 10
0.0
 20
0.0
 30
0.0
  3
block 7
  1

  0
SPLINE
  5
5E
330
5A
100
AcDbEntity
  8
Livello 1
 62
   250
420
  1842203
370
    35
100
AcDbSpline
210
0.0
220
0.0
230
1.0
 70
     9
 71
     3
 72
    20
 73
    16
 74
     0
 42
0.000000001
 43
0.0000000001
 40
0.0
 40
0.0
 40
0.0
 40
0.0
 40
1.0
 40
1.0
 40
1.0
 40
2.0
 40
2.0
 40
2.0
 40
3.0
 40
3.0
 40
3.0
 40
4.0
 40
4.0
 40
4.0
 40
5.0
 40
5.0
 40
5.0
 40
5.0
 10
13.78114214175873
 20
-6.652799748336807
 30
0.0
 10
13.78114214175873
 20
-6.029473165159302
 30
0.0
 10
14.28644690664511
 20
-5.524168387507829
 30
0.0
 10
14.90977347407606
 20
-5.524168387507829
 30
0.0
 10
15.53310356928469
 20
-5.524168387507829
 30
0.0
 10
16.0384086678332
 20
-6.029473165159302
 30
0.0
 10
16.0384086678332
 20
-6.652799748336807
 30
0.0
 10
16.0384086678332
 20
-7.276126331514311
 30
0.0
 10
15.53310356928469
 20
-7.781431109165753
 30
0.0
 10
14.90977347407606
 20
-7.781431109165753
 30
0.0
 10
14.28644690664511
 20
-7.781431109165753
 30
0.0
 10
13.78114214175873
 20
-7.276126331514311
 30
0.0
 10
13.78114214175873
 20
-6.652799748336807
 30
0.0
 10
13.78114214175873
 20
-6.652799748336807
 30
0.0
 10
13.78114214175873
 20
-6.652799748336807
 30
0.0
 10
13.78114214175873
 20
-6.652799748336807
 30
0.0
  0
ENDBLK
  5
5D
330
5A
100
AcDbEntity
  8
0
100
AcDbBlockEnd
  0
BLOCK
  5
61
330
5F
100
AcDbEntity
  8
0
100
AcDbBlockBegin
  2
block 8
 70
     0
 10
0.0
 20
0.0
 30
0.0
  3
block 8
  1

  0
SPLINE
  5
63
330
5F
100
AcDbEntity
  8
Livello 1
 62
   250
420
  1842203
370
    35
100
AcDbSpline
210
0.0
220
0.0
230
1.0
 70
     9
 71
     3
 72
    20
 73
    16
 74
     0
 42
0.000000001
 43
0.0000000001
 40
0.0
 40
0.0
 40
0.0
 40
0.0
 40
1.0
 40
1.0
 40
1.0
 40
2.0
 40
2.0
 40
2.0
 40
3.0
 40
3.0
 40
3.0
 40
4.0
 40
4.0
 40
4.0
 40
5.0
 40
5.0
 40
5.0
 40
5.0
 10
18.24854180698153
 20
-6.652799748336807
 30
0.0
 10
18.24854180698153
 20
-6.086672554033891
 30
0.0
 10
18.70747746193977
 20
-5.627740415259728
 30
0.0
 10
19.27360111416342
 20
-5.627740415259728
 30
0.0
 10
19.83972476638706
 20
-5.627740415259728
 30
0.0
 10
20.29866042134531
 20
-6.086672554033891
 30
0.0
 10
20.29866042134531
 20
-6.652799748336807
 30
0.0
 10
20.29866042134531
 20
-7.218926942639722
 30
0.0
 10
19.83972476638706
 20
-7.677859081413855
 30
0.0
 10
19.27360111416342
 20
-7.677859081413855
 30
0.0
 10
18.70747746193977
 20
-7.677859081413855
 30
0.0
 10
18.24854180698153
 20
-7.218926942639722
 30
0.0
 10
18.24854180698153
 20
-6.652799748336807
 30
0.0
 10
18.24854180698153
 20
-6.652799748336807
 30
0.0
 10
18.24854180698153
 20
-6.652799748336807
 30
0.0
 10
18.24854180698153
 20
-6.652799748336807
 30
0.0
  0
ENDBLK
  5
62
330
5F
100
AcDbEntity
  8
0
100
AcDbBlockEnd
  0
BLOCK
  5
66
330
64
100
AcDbEntity
  8
0
100
AcDbBlockBegin
  2
block 9
 70
     0
 10
0.0
 20
0.0
 30
0.0
  3
block 9
  1

  0
SPLINE
  5
68
330
64
100
AcDbEntity
  8
Livello 1
 62
   250
420
  1842203
370
    35
100
AcDbSpline
210
0.0
220
0.0
230
1.0
 70
     9
 71
     3
 72
    20
 73
    16
 74
     0
 42
0.000000001
 43
0.0000000001
 40
0.0
 40
0.0
 40
0.0
 40
0.0
 40
1.0
 40
1.0
 40
1.0
 40
2.0
 40
2.0
 40
2.0
 40
3.0
 40
3.0
 40
3.0
 40
4.0
 40
4.0
 40
4.0
 40
5.0
 40
5.0
 40
5.0
 40
5.0
 10
18.41046327507279
 20
-6.652799748336807
 30
0.0
 10
18.41046327507279
 20
-6.176101720678197
 30
0.0
 10
18.79690309854723
 20
-5.789661887441468
 30
0.0
 10
19.27360111416342
 20
-5.789661887441468
 30
0.0
 10
19.75029912977962
 20
-5.789661887441468
 30
0.0
 10
20.13673934669732
 20
-6.176101720678197
 30
0.0
 10
20.13673934669732
 20
-6.652799748336807
 30
0.0
 10
20.13673934669732
 20
-7.129497775995387
 30
0.0
 10
19.75029912977962
 20
-7.515937609232115
 30
0.0
 10
19.27360111416342
 20
-7.515937609232115
 30
0.0
 10
18.79690309854723
 20
-7.515937609232115
 30
0.0
 10
18.41046327507279
 20
-7.129497775995387
 30
0.0
 10
18.41046327507279
 20
-6.652799748336807
 30
0.0
 10
18.41046327507279
 20
-6.652799748336807
 30
0.0
 10
18.41046327507279
 20
-6.652799748336807
 30
0.0
 10
18.41046327507279
 20
-6.652799748336807
 30
0.0
  0
ENDBLK
  5
67
330
64
100
AcDbEntity
  8
0
100
AcDbBlockEnd
  0
BLOCK
  5
4F3
330
4F1
100
AcDbEntity
  8
0
100
AcDbBlockBegin
  2
block 10
 70
     0
 10
0.0
 20
0.0
 30
0.0
  3
block 10
  1

  0
POLYLINE
  5
4F5
330
4F1
100
AcDbEntity
  8
Livello 1
370
     0
100
AcDb2dPolyline
 66
     1
 10
0.0
 20
0.0
 30
0.0
  0
VERTEX
  5
4F6
330
4F5
100
AcDbEntity
  8
Livello 1
370
     0
100
AcDbVertex
100
AcDb2dVertex
 10
2.855295138175065
 20
-2.046438394670682
 30
0.0
  0
VERTEX
  5
4F7
330
4F5
100
AcDbEntity
  8
Livello 1
370
     0
100
AcDbVertex
100
AcDb2dVertex
 10
2.85274576751598
 20
-2.046438394670682
 30
0.0
  0
VERTEX
  5
4F8
330
4F5
100
AcDbEntity
  8
Livello 1
370
     0
100
AcDbVertex
100
AcDb2dVertex
 10
2.709257540555324
 20
-2.123901366656524
 30
0.0
  0
VERTEX
  5
4F9
330
4F5
100
AcDbEntity
  8
Livello 1
370
     0
100
AcDbVertex
100
AcDb2dVertex
 10
2.687674017340234
 20
-2.038807508170854
 30
0.0
  0
VERTEX
  5
4FA
330
4F5
100
AcDbEntity
  8
Livello 1
370
     0
100
AcDbVertex
100
AcDb2dVertex
 10
2.867990315038209
 20
-1.942310383629005
 30
0.0
  0
VERTEX
  5
4FB
330
4F5
100
AcDbEntity
  8
Livello 1
370
     0
100
AcDbVertex
100
AcDb2dVertex
 10
2.963229979727941
 20
-1.942310383629005
 30
0.0
  0
VERTEX
  5
4FC
330
4F5
100
AcDbEntity
  8
Livello 1
370
     0
100
AcDbVertex
100
AcDb2dVertex
 10
2.963229979727941
 20
-2.767703585462588
 30
0.0
  0
VERTEX
  5
4FD
330
4F5
100
AcDbEntity
  8
Livello 1
370
     0
100
AcDbVertex
100
AcDb2dVertex
 10
2.855295138175065
 20
-2.767703585462588
 30
0.0
  0
VERTEX
  5
4FE
330
4F5
100
AcDbEntity
  8
Livello 1
370
     0
100
AcDbVertex
100
AcDb2dVertex
 10
2.855295138175065
 20
-2.046438394670682
 30
0.0
  0
SEQEND
  5
4FF
330
4F5
100
AcDbEntity
  8
Livello 1
370
     0
  0
HATCH
  5
500
330
4F1
100
AcDbEntity
  8
Livello 1
 62
   250
420
  1842203
100
AcDbHatch
 10
0.0
 20
0.0
 30
0.0
210
0.0
220
0.0
230
1.0
  2
SOLID
 70
     1
 71
     0
 91
        1
 92
        1
 93
        8
 72
     1
 10
2.855295138175065
 20
-2.046438394670682
 11
2.85274576751598
 21
-2.046438394670682
 72
     1
 10
2.85274576751598
 20
-2.046438394670682
 11
2.709257540555324
 21
-2.123901366656524
 72
     1
 10
2.709257540555324
 20
-2.123901366656524
 11
2.687674017340234
 21
-2.038807508170854
 72
     1
 10
2.687674017340234
 20
-2.038807508170854
 11
2.867990315038209
 21
-1.942310383629005
 72
     1
 10
2.867990315038209
 20
-1.942310383629005
 11
2.963229979727941
 21
-1.942310383629005
 72
     1
 10
2.963229979727941
 20
-1.942310383629005
 11
2.963229979727941
 21
-2.767703585462588
 72
     1
 10
2.963229979727941
 20
-2.767703585462588
 11
2.855295138175065
 21
-2.767703585462588
 72
     1
 10
2.855295138175065
 20
-2.767703585462588
 11
2.855295138175065
 21
-2.046438394670682
 97
        0
 75
     2
 76
     1
 98
        0
450
        0
451
        0
460
0.0
461
0.0
452
        0
462
0.0
453
        0
470

  0
SPLINE
  5
501
330
4F1
100
AcDbEntity
  8
Livello 1
370
     0
100
AcDbSpline
210
0.0
220
0.0
230
1.0
 70
     9
 71
     3
 72
    59
 73
    55
 74
     0
 42
0.000000001
 43
0.0000000001
 40
0.0
 40
0.0
 40
0.0
 40
0.0
 40
1.0
 40
1.0
 40
1.0
 40
2.0
 40
2.0
 40
2.0
 40
3.0
 40
3.0
 40
3.0
 40
4.0
 40
4.0
 40
4.0
 40
5.0
 40
5.0
 40
5.0
 40
6.0
 40
6.0
 40
6.0
 40
7.0
 40
7.0
 40
7.0
 40
8.0
 40
8.0
 40
8.0
 40
9.0
 40
9.0
 40
9.0
 40
10.0
 40
10.0
 40
10.0
 40
11.0
 40
11.0
 40
11.0
 40
12.0
 40
12.0
 40
12.0
 40
13.0
 40
13.0
 40
13.0
 40
14.0
 40
14.0
 40
14.0
 40
15.0
 40
15.0
 40
15.0
 40
16.0
 40
16.0
 40
16.0
 40
17.0
 40
17.0
 40
17.0
 40
18.0
 40
18.0
 40
18.0
 40
18.0
 10
3.290893011330053
 20
-2.639442680546735
 30
0.0
 10
3.322639566226631
 20
-2.659768743909709
 30
0.0
 10
3.396295707701272
 20
-2.691515298806288
 30
0.0
 10
3.473758679687116
 20
-2.691515298806288
 30
0.0
 10
3.617246906647771
 20
-2.691515298806288
 30
0.0
 10
3.661688638407493
 20
-2.600082464627756
 30
0.0
 10
3.660431178555377
 20
-2.531507838993858
 30
0.0
 10
3.659156493225836
 20
-2.41595933641858
 30
0.0
 10
3.555028482184158
 20
-2.366436088818113
 30
0.0
 10
3.447093640631281
 20
-2.366436088818113
 30
0.0
 10
3.447093640631281
 20
-2.366436088818113
 30
0.0
 10
3.38487521616767
 20
-2.366436088818113
 30
0.0
 10
3.38487521616767
 20
-2.366436088818113
 30
0.0
 10
3.38487521616767
 20
-2.366436088818113
 30
0.0
 10
3.38487521616767
 20
-2.282616915661983
 30
0.0
 10
3.38487521616767
 20
-2.282616915661983
 30
0.0
 10
3.38487521616767
 20
-2.282616915661983
 30
0.0
 10
3.447093640631281
 20
-2.282616915661983
 30
0.0
 10
3.447093640631281
 20
-2.282616915661983
 30
0.0
 10
3.528363443128325
 20
-2.282616915661983
 30
0.0
 10
3.631216768840459
 20
-2.240724554561345
 30
0.0
 10
3.631216768840459
 20
-2.142935519212529
 30
0.0
 10
3.631216768840459
 20
-2.076910264237716
 30
0.0
 10
3.589307182262395
 20
-2.018498670285306
 30
0.0
 10
3.486453856550261
 20
-2.018498670285306
 30
0.0
 10
3.420428601575448
 20
-2.018498670285306
 30
0.0
 10
3.356935491782294
 20
-2.047695854522797
 30
0.0
 10
3.321382106374515
 20
-2.073103433726515
 30
0.0
 10
3.321382106374515
 20
-2.073103433726515
 30
0.0
 10
3.292167696659596
 20
-1.991833631229471
 30
0.0
 10
3.292167696659596
 20
-1.991833631229471
 30
0.0
 10
3.335351968567203
 20
-1.960087076332895
 30
0.0
 10
3.419153916245906
 20
-1.928340521436316
 30
0.0
 10
3.508037379765351
 20
-1.928340521436316
 30
0.0
 10
3.670576984759439
 20
-1.928340521436316
 30
0.0
 10
3.74423312623408
 20
-2.024854871455592
 30
0.0
 10
3.74423312623408
 20
-2.12515882650864
 30
0.0
 10
3.74423312623408
 20
-2.210235459516884
 30
0.0
 10
3.693435193304071
 20
-2.282616915661983
 30
0.0
 10
3.59185655292148
 20
-2.319444986399305
 30
0.0
 10
3.59185655292148
 20
-2.319444986399305
 30
0.0
 10
3.59185655292148
 20
-2.32199435705839
 30
0.0
 10
3.59185655292148
 20
-2.32199435705839
 30
0.0
 10
3.693435193304071
 20
-2.342303194943938
 30
0.0
 10
3.775979681130658
 20
-2.418491481600238
 30
0.0
 10
3.775979681130658
 20
-2.534057209652944
 30
0.0
 10
3.775979681130658
 20
-2.666124945079995
 30
0.0
 10
3.673126355418524
 20
-2.781673447655276
 30
0.0
 10
3.475033365016658
 20
-2.781673447655276
 30
0.0
 10
3.382325845508585
 20
-2.781673447655276
 30
0.0
 10
3.30105604301154
 20
-2.752459037940356
 30
0.0
 10
3.26042114176302
 20
-2.725793998884523
 30
0.0
 10
3.26042114176302
 20
-2.725793998884523
 30
0.0
 10
3.290893011330053
 20
-2.639442680546735
 30
0.0
 10
3.290893011330053
 20
-2.639442680546735
 30
0.0
  0
HATCH
  5
502
330
4F1
100
AcDbEntity
  8
Livello 1
 62
   250
420
  1842203
100
AcDbHatch
 10
0.0
 20
0.0
 30
0.0
210
0.0
220
0.0
230
1.0
  2
SOLID
 70
     1
 71
     0
 91
        1
 92
        1
 93
        1
 72
     4
 94
        3
 73
     0
 74
     0
 95
       59
 96
       55
 40
0.0
 40
0.0
 40
0.0
 40
0.0
 40
1.0
 40
1.0
 40
1.0
 40
2.0
 40
2.0
 40
2.0
 40
3.0
 40
3.0
 40
3.0
 40
4.0
 40
4.0
 40
4.0
 40
5.0
 40
5.0
 40
5.0
 40
6.0
 40
6.0
 40
6.0
 40
7.0
 40
7.0
 40
7.0
 40
8.0
 40
8.0
 40
8.0
 40
9.0
 40
9.0
 40
9.0
 40
10.0
 40
10.0
 40
10.0
 40
11.0
 40
11.0
 40
11.0
 40
12.0
 40
12.0
 40
12.0
 40
13.0
 40
13.0
 40
13.0
 40
14.0
 40
14.0
 40
14.0
 40
15.0
 40
15.0
 40
15.0
 40
16.0
 40
16.0
 40
16.0
 40
17.0
 40
17.0
 40
17.0
 40
18.0
 40
18.0
 40
18.0
 40
18.0
 10
3.290893011330053
 20
-2.639442680546735
 10
3.322639566226631
 20
-2.659768743909709
 10
3.396295707701272
 20
-2.691515298806288
 10
3.473758679687116
 20
-2.691515298806288
 10
3.617246906647771
 20
-2.691515298806288
 10
3.661688638407493
 20
-2.600082464627756
 10
3.660431178555377
 20
-2.531507838993858
 10
3.659156493225836
 20
-2.41595933641858
 10
3.555028482184158
 20
-2.366436088818113
 10
3.447093640631281
 20
-2.366436088818113
 10
3.447093640631281
 20
-2.366436088818113
 10
3.38487521616767
 20
-2.366436088818113
 10
3.38487521616767
 20
-2.366436088818113
 10
3.38487521616767
 20
-2.366436088818113
 10
3.38487521616767
 20
-2.282616915661983
 10
3.38487521616767
 20
-2.282616915661983
 10
3.38487521616767
 20
-2.282616915661983
 10
3.447093640631281
 20
-2.282616915661983
 10
3.447093640631281
 20
-2.282616915661983
 10
3.528363443128325
 20
-2.282616915661983
 10
3.631216768840459
 20
-2.240724554561345
 10
3.631216768840459
 20
-2.142935519212529
 10
3.631216768840459
 20
-2.076910264237716
 10
3.589307182262395
 20
-2.018498670285306
 10
3.486453856550261
 20
-2.018498670285306
 10
3.420428601575448
 20
-2.018498670285306
 10
3.356935491782294
 20
-2.047695854522797
 10
3.321382106374515
 20
-2.073103433726515
 10
3.321382106374515
 20
-2.073103433726515
 10
3.292167696659596
 20
-1.991833631229471
 10
3.292167696659596
 20
-1.991833631229471
 10
3.335351968567203
 20
-1.960087076332895
 10
3.419153916245906
 20
-1.928340521436316
 10
3.508037379765351
 20
-1.928340521436316
 10
3.670576984759439
 20
-1.928340521436316
 10
3.74423312623408
 20
-2.024854871455592
 10
3.74423312623408
 20
-2.12515882650864
 10
3.74423312623408
 20
-2.210235459516884
 10
3.693435193304071
 20
-2.282616915661983
 10
3.59185655292148
 20
-2.319444986399305
 10
3.59185655292148
 20
-2.319444986399305
 10
3.59185655292148
 20
-2.32199435705839
 10
3.59185655292148
 20
-2.32199435705839
 10
3.693435193304071
 20
-2.342303194943938
 10
3.775979681130658
 20
-2.418491481600238
 10
3.775979681130658
 20
-2.534057209652944
 10
3.775979681130658
 20
-2.666124945079995
 10
3.673126355418524
 20
-2.781673447655276
 10
3.475033365016658
 20
-2.781673447655276
 10
3.382325845508585
 20
-2.781673447655276
 10
3.30105604301154
 20
-2.752459037940356
 10
3.26042114176302
 20
-2.725793998884523
 10
3.26042114176302
 20
-2.725793998884523
 10
3.290893011330053
 20
-2.639442680546735
 10
3.290893011330053
 20
-2.639442680546735
 97
        0
 97
        0
 75
     2
 76
     1
 98
        0
450
        0
451
        0
460
0.0
461
0.0
452
        0
462
0.0
453
        0
470

  0
SPLINE
  5
503
330
4F1
100
AcDbEntity
  8
Livello 1
370
     0
100
AcDbSpline
210
0.0
220
0.0
230
1.0
 70
     9
 71
     3
 72
    17
 73
    13
 74
     0
 42
0.000000001
 43
0.0000000001
 40
0.0
 40
0.0
 40
0.0
 40
0.0
 40
1.0
 40
1.0
 40
1.0
 40
2.0
 40
2.0
 40
2.0
 40
3.0
 40
3.0
 40
3.0
 40
4.0
 40
4.0
 40
4.0
 40
4.0
 10
3.878901908752496
 20
-2.923886989286388
 30
0.0
 10
3.906841633137872
 20
-2.848973387959631
 30
0.0
 10
3.941137558693535
 20
-2.713098822021377
 30
0.0
 10
3.955107420886223
 20
-2.62040852799073
 30
0.0
 10
3.955107420886223
 20
-2.62040852799073
 30
0.0
 10
4.079544269813447
 20
-2.607696125650158
 30
0.0
 10
4.079544269813447
 20
-2.607696125650158
 30
0.0
 10
4.050347085575954
 20
-2.715648192680462
 30
0.0
 10
3.994467636805201
 20
-2.856587048982033
 30
0.0
 10
3.958914251397423
 20
-2.916273328263986
 30
0.0
 10
3.958914251397423
 20
-2.916273328263986
 30
0.0
 10
3.878901908752496
 20
-2.923886989286388
 30
0.0
 10
3.878901908752496
 20
-2.923886989286388
 30
0.0
  0
HATCH
  5
504
330
4F1
100
AcDbEntity
  8
Livello 1
 62
   250
420
  1842203
100
AcDbHatch
 10
0.0
 20
0.0
 30
0.0
210
0.0
220
0.0
230
1.0
  2
SOLID
 70
     1
 71
     0
 91
        1
 92
        1
 93
        1
 72
     4
 94
        3
 73
     0
 74
     0
 95
       17
 96
       13
 40
0.0
 40
0.0
 40
0.0
 40
0.0
 40
1.0
 40
1.0
 40
1.0
 40
2.0
 40
2.0
 40
2.0
 40
3.0
 40
3.0
 40
3.0
 40
4.0
 40
4.0
 40
4.0
 40
4.0
 10
3.878901908752496
 20
-2.923886989286388
 10
3.906841633137872
 20
-2.848973387959631
 10
3.941137558693535
 20
-2.713098822021377
 10
3.955107420886223
 20
-2.62040852799073
 10
3.955107420886223
 20
-2.62040852799073
 10
4.079544269813447
 20
-2.607696125650158
 10
4.079544269813447
 20
-2.607696125650158
 10
4.050347085575954
 20
-2.715648192680462
 10
3.994467636805201
 20
-2.856587048982033
 10
3.958914251397423
 20
-2.916273328263986
 10
3.958914251397423
 20
-2.916273328263986
 10
3.878901908752496
 20
-2.923886989286388
 10
3.878901908752496
 20
-2.923886989286388
 97
        0
 97
        0
 75
     2
 76
     1
 98
        0
450
        0
451
        0
460
0.0
461
0.0
452
        0
462
0.0
453
        0
470

  0
SPLINE
  5
505
330
4F1
100
AcDbEntity
  8
Livello 1
370
     0
100
AcDbSpline
210
0.0
220
0.0
230
1.0
 70
    11
 71
     3
 72
    50
 73
    46
 74
     0
 42
0.000000001
 43
0.0000000001
 40
0.0
 40
0.0
 40
0.0
 40
0.0
 40
1.0
 40
1.0
 40
1.0
 40
2.0
 40
2.0
 40
2.0
 40
3.0
 40
3.0
 40
3.0
 40
4.0
 40
4.0
 40
4.0
 40
5.0
 40
5.0
 40
5.0
 40
6.0
 40
6.0
 40
6.0
 40
7.0
 40
7.0
 40
7.0
 40
8.0
 40
8.0
 40
8.0
 40
9.0
 40
9.0
 40
9.0
 40
10.0
 40
10.0
 40
10.0
 40
11.0
 40
11.0
 40
11.0
 40
12.0
 40
12.0
 40
12.0
 40
13.0
 40
13.0
 40
13.0
 40
14.0
 40
14.0
 40
14.0
 40
15.0
 40
15.0
 40
15.0
 40
15.0
 10
4.671291095837385
 20
-2.036275362989194
 30
0.0
 10
4.671291095837385
 20
-2.036275362989194
 30
0.0
 10
4.356374917530697
 20
-2.036275362989194
 30
0.0
 10
4.356374917530697
 20
-2.036275362989194
 30
0.0
 10
4.356374917530697
 20
-2.036275362989194
 30
0.0
 10
4.324628362634121
 20
-2.248338215583749
 30
0.0
 10
4.324628362634121
 20
-2.248338215583749
 30
0.0
 10
4.343679740667552
 20
-2.245806070402089
 30
0.0
 10
4.361456433371441
 20
-2.243256699743004
 30
0.0
 10
4.391928302938476
 20
-2.243256699743004
 30
0.0
 10
4.45542141273163
 20
-2.243256699743004
 30
0.0
 10
4.518914522524785
 20
-2.257226561935693
 30
0.0
 10
4.569712455454793
 20
-2.287698431502728
 30
0.0
 10
4.634463025100063
 20
-2.324526502240048
 30
0.0
 10
4.687810328689158
 20
-2.395633273055604
 30
0.0
 10
4.687810328689158
 20
-2.499761284097281
 30
0.0
 10
4.687810328689158
 20
-2.661043429239252
 30
0.0
 10
4.559549423773306
 20
-2.781673447655276
 30
0.0
 10
4.380507811404872
 20
-2.781673447655276
 30
0.0
 10
4.290349662555884
 20
-2.781673447655276
 30
0.0
 10
4.214144150422158
 20
-2.756283093928983
 30
0.0
 10
4.174783934503178
 20
-2.730875514725267
 30
0.0
 10
4.174783934503178
 20
-2.730875514725267
 30
0.0
 10
4.202723658888555
 20
-2.645798881717022
 30
0.0
 10
4.202723658888555
 20
-2.645798881717022
 30
0.0
 10
4.23700235896679
 20
-2.666124945079995
 30
0.0
 10
4.304302299271146
 20
-2.691515298806288
 30
0.0
 10
4.379233126075329
 20
-2.691515298806288
 30
0.0
 10
4.484635822446549
 20
-2.691515298806288
 30
0.0
 10
4.574793971295536
 20
-2.62294067317239
 30
0.0
 10
4.574793971295536
 20
-2.512473686437854
 30
0.0
 10
4.573519285965994
 20
-2.405796304737091
 30
0.0
 10
4.502412515150438
 20
-2.329608018080792
 30
0.0
 10
4.337323539497266
 20
-2.329608018080792
 30
0.0
 10
4.290349662555884
 20
-2.329608018080792
 30
0.0
 10
4.253521591818564
 20
-2.334689533921536
 30
0.0
 10
4.223032496774102
 20
-2.338496364432737
 30
0.0
 10
4.223032496774102
 20
-2.338496364432737
 30
0.0
 10
4.276379800363196
 20
-1.942310383629005
 30
0.0
 10
4.276379800363196
 20
-1.942310383629005
 30
0.0
 10
4.276379800363196
 20
-1.942310383629005
 30
0.0
 10
4.671291095837385
 20
-1.942310383629005
 30
0.0
 10
4.671291095837385
 20
-1.942310383629005
 30
0.0
 10
4.671291095837385
 20
-1.942310383629005
 30
0.0
 10
4.671291095837385
 20
-2.036275362989194
 30
0.0
 10
4.671291095837385
 20
-2.036275362989194
 30
0.0
  0
HATCH
  5
506
330
4F1
100
AcDbEntity
  8
Livello 1
 62
   250
420
  1842203
100
AcDbHatch
 10
0.0
 20
0.0
 30
0.0
210
0.0
220
0.0
230
1.0
  2
SOLID
 70
     1
 71
     0
 91
        1
 92
        1
 93
        1
 72
     4
 94
        3
 73
     0
 74
     0
 95
       50
 96
       46
 40
0.0
 40
0.0
 40
0.0
 40
0.0
 40
1.0
 40
1.0
 40
1.0
 40
2.0
 40
2.0
 40
2.0
 40
3.0
 40
3.0
 40
3.0
 40
4.0
 40
4.0
 40
4.0
 40
5.0
 40
5.0
 40
5.0
 40
6.0
 40
6.0
 40
6.0
 40
7.0
 40
7.0
 40
7.0
 40
8.0
 40
8.0
 40
8.0
 40
9.0
 40
9.0
 40
9.0
 40
10.0
 40
10.0
 40
10.0
 40
11.0
 40
11.0
 40
11.0
 40
12.0
 40
12.0
 40
12.0
 40
13.0
 40
13.0
 40
13.0
 40
14.0
 40
14.0
 40
14.0
 40
15.0
 40
15.0
 40
15.0
 40
15.0
 10
4.671291095837385
 20
-2.036275362989194
 10
4.671291095837385
 20
-2.036275362989194
 10
4.356374917530697
 20
-2.036275362989194
 10
4.356374917530697
 20
-2.036275362989194
 10
4.356374917530697
 20
-2.036275362989194
 10
4.324628362634121
 20
-2.248338215583749
 10
4.324628362634121
 20
-2.248338215583749
 10
4.343679740667552
 20
-2.245806070402089
 10
4.361456433371441
 20
-2.243256699743004
 10
4.391928302938476
 20
-2.243256699743004
 10
4.45542141273163
 20
-2.243256699743004
 10
4.518914522524785
 20
-2.257226561935693
 10
4.569712455454793
 20
-2.287698431502728
 10
4.634463025100063
 20
-2.324526502240048
 10
4.687810328689158
 20
-2.395633273055604
 10
4.687810328689158
 20
-2.499761284097281
 10
4.687810328689158
 20
-2.661043429239252
 10
4.559549423773306
 20
-2.781673447655276
 10
4.380507811404872
 20
-2.781673447655276
 10
4.290349662555884
 20
-2.781673447655276
 10
4.214144150422158
 20
-2.756283093928983
 10
4.174783934503178
 20
-2.730875514725267
 10
4.174783934503178
 20
-2.730875514725267
 10
4.202723658888555
 20
-2.645798881717022
 10
4.202723658888555
 20
-2.645798881717022
 10
4.23700235896679
 20
-2.666124945079995
 10
4.304302299271146
 20
-2.691515298806288
 10
4.379233126075329
 20
-2.691515298806288
 10
4.484635822446549
 20
-2.691515298806288
 10
4.574793971295536
 20
-2.62294067317239
 10
4.574793971295536
 20
-2.512473686437854
 10
4.573519285965994
 20
-2.405796304737091
 10
4.502412515150438
 20
-2.329608018080792
 10
4.337323539497266
 20
-2.329608018080792
 10
4.290349662555884
 20
-2.329608018080792
 10
4.253521591818564
 20
-2.334689533921536
 10
4.223032496774102
 20
-2.338496364432737
 10
4.223032496774102
 20
-2.338496364432737
 10
4.276379800363196
 20
-1.942310383629005
 10
4.276379800363196
 20
-1.942310383629005
 10
4.276379800363196
 20
-1.942310383629005
 10
4.671291095837385
 20
-1.942310383629005
 10
4.671291095837385
 20
-1.942310383629005
 10
4.671291095837385
 20
-1.942310383629005
 10
4.671291095837385
 20
-2.036275362989194
 10
4.671291095837385
 20
-2.036275362989194
 97
        0
 97
        0
 75
     2
 76
     1
 98
        0
450
        0
451
        0
460
0.0
461
0.0
452
        0
462
0.0
453
        0
470

  0
ENDBLK
  5
4F4
330
4F1
100
AcDbEntity
  8
0
100
AcDbBlockEnd
  0
BLOCK
  5
509
330
507
100
AcDbEntity
  8
0
100
AcDbBlockBegin
  2
block 11
 70
     0
 10
0.0
 20
0.0
 30
0.0
  3
block 11
  1

  0
POLYLINE
  5
50B
330
507
100
AcDbEntity
  8
Livello 1
370
     0
100
AcDb2dPolyline
 66
     1
 10
0.0
 20
0.0
 30
0.0
  0
VERTEX
  5
50C
330
50B
100
AcDbEntity
  8
Livello 1
370
     0
100
AcDbVertex
100
AcDb2dVertex
 10
9.181317272010225
 20
-2.046455620148107
 30
0.0
  0
VERTEX
  5
50D
330
50B
100
AcDbEntity
  8
Livello 1
370
     0
100
AcDbVertex
100
AcDb2dVertex
 10
9.17876790135114
 20
-2.046455620148107
 30
0.0
  0
VERTEX
  5
50E
330
50B
100
AcDbEntity
  8
Livello 1
370
     0
100
AcDbVertex
100
AcDb2dVertex
 10
9.035279674390485
 20
-2.12391859213395
 30
0.0
  0
VERTEX
  5
50F
330
50B
100
AcDbEntity
  8
Livello 1
370
     0
100
AcDbVertex
100
AcDb2dVertex
 10
9.013696151175397
 20
-2.038824733648279
 30
0.0
  0
VERTEX
  5
510
330
50B
100
AcDbEntity
  8
Livello 1
370
     0
100
AcDbVertex
100
AcDb2dVertex
 10
9.194012448873372
 20
-1.942327609106431
 30
0.0
  0
VERTEX
  5
511
330
50B
100
AcDbEntity
  8
Livello 1
370
     0
100
AcDbVertex
100
AcDb2dVertex
 10
9.289252113563103
 20
-1.942327609106431
 30
0.0
  0
VERTEX
  5
512
330
50B
100
AcDbEntity
  8
Livello 1
370
     0
100
AcDbVertex
100
AcDb2dVertex
 10
9.289252113563103
 20
-2.767720810940013
 30
0.0
  0
VERTEX
  5
513
330
50B
100
AcDbEntity
  8
Livello 1
370
     0
100
AcDbVertex
100
AcDb2dVertex
 10
9.181317272010225
 20
-2.767720810940013
 30
0.0
  0
VERTEX
  5
514
330
50B
100
AcDbEntity
  8
Livello 1
370
     0
100
AcDbVertex
100
AcDb2dVertex
 10
9.181317272010225
 20
-2.046455620148107
 30
0.0
  0
SEQEND
  5
515
330
50B
100
AcDbEntity
  8
Livello 1
370
     0
  0
HATCH
  5
516
330
507
100
AcDbEntity
  8
Livello 1
 62
   250
420
  1842203
100
AcDbHatch
 10
0.0
 20
0.0
 30
0.0
210
0.0
220
0.0
230
1.0
  2
SOLID
 70
     1
 71
     0
 91
        1
 92
        1
 93
        8
 72
     1
 10
9.181317272010225
 20
-2.046455620148107
 11
9.17876790135114
 21
-2.046455620148107
 72
     1
 10
9.17876790135114
 20
-2.046455620148107
 11
9.035279674390485
 21
-2.12391859213395
 72
     1
 10
9.035279674390485
 20
-2.12391859213395
 11
9.013696151175397
 21
-2.038824733648279
 72
     1
 10
9.013696151175397
 20
-2.038824733648279
 11
9.194012448873372
 21
-1.942327609106431
 72
     1
 10
9.194012448873372
 20
-1.942327609106431
 11
9.289252113563103
 21
-1.942327609106431
 72
     1
 10
9.289252113563103
 20
-1.942327609106431
 11
9.289252113563103
 21
-2.767720810940013
 72
     1
 10
9.289252113563103
 20
-2.767720810940013
 11
9.181317272010225
 21
-2.767720810940013
 72
     1
 10
9.181317272010225
 20
-2.767720810940013
 11
9.181317272010225
 21
-2.046455620148107
 97
        0
 75
     2
 76
     1
 98
        0
450
        0
451
        0
460
0.0
461
0.0
452
        0
462
0.0
453
        0
470

  0
SPLINE
  5
517
330
507
100
AcDbEntity
  8
Livello 1
370
     0
100
AcDbSpline
210
0.0
220
0.0
230
1.0
 70
     9
 71
     3
 72
    59
 73
    55
 74
     0
 42
0.000000001
 43
0.0000000001
 40
0.0
 40
0.0
 40
0.0
 40
0.0
 40
1.0
 40
1.0
 40
1.0
 40
2.0
 40
2.0
 40
2.0
 40
3.0
 40
3.0
 40
3.0
 40
4.0
 40
4.0
 40
4.0
 40
5.0
 40
5.0
 40
5.0
 40
6.0
 40
6.0
 40
6.0
 40
7.0
 40
7.0
 40
7.0
 40
8.0
 40
8.0
 40
8.0
 40
9.0
 40
9.0
 40
9.0
 40
10.0
 40
10.0
 40
10.0
 40
11.0
 40
11.0
 40
11.0
 40
12.0
 40
12.0
 40
12.0
 40
13.0
 40
13.0
 40
13.0
 40
14.0
 40
14.0
 40
14.0
 40
15.0
 40
15.0
 40
15.0
 40
16.0
 40
16.0
 40
16.0
 40
17.0
 40
17.0
 40
17.0
 40
18.0
 40
18.0
 40
18.0
 40
18.0
 10
9.616915145165217
 20
-2.639459906024163
 30
0.0
 10
9.648661700061794
 20
-2.659785969387136
 30
0.0
 10
9.722317841536433
 20
-2.691532524283713
 30
0.0
 10
9.799780813522275
 20
-2.691532524283713
 30
0.0
 10
9.943269040482931
 20
-2.691532524283713
 30
0.0
 10
9.987710772242655
 20
-2.600099690105182
 30
0.0
 10
9.986453312390539
 20
-2.531525064471285
 30
0.0
 10
9.985178627060996
 20
-2.415976561896005
 30
0.0
 10
9.88105061601932
 20
-2.366453314295538
 30
0.0
 10
9.773115774466443
 20
-2.366453314295538
 30
0.0
 10
9.773115774466443
 20
-2.366453314295538
 30
0.0
 10
9.710897350002833
 20
-2.366453314295538
 30
0.0
 10
9.710897350002833
 20
-2.366453314295538
 30
0.0
 10
9.710897350002833
 20
-2.366453314295538
 30
0.0
 10
9.710897350002833
 20
-2.282634141139411
 30
0.0
 10
9.710897350002833
 20
-2.282634141139411
 30
0.0
 10
9.710897350002833
 20
-2.282634141139411
 30
0.0
 10
9.773115774466443
 20
-2.282634141139411
 30
0.0
 10
9.773115774466443
 20
-2.282634141139411
 30
0.0
 10
9.854385576963487
 20
-2.282634141139411
 30
0.0
 10
9.957238902675619
 20
-2.240741780038773
 30
0.0
 10
9.957238902675619
 20
-2.142952744689956
 30
0.0
 10
9.957238902675619
 20
-2.076927489715143
 30
0.0
 10
9.915329316097556
 20
-2.018515895762731
 30
0.0
 10
9.812475990385424
 20
-2.018515895762731
 30
0.0
 10
9.746450735410606
 20
-2.018515895762731
 30
0.0
 10
9.682957625617456
 20
-2.047713080000225
 30
0.0
 10
9.647404240209676
 20
-2.073120659203941
 30
0.0
 10
9.647404240209676
 20
-2.073120659203941
 30
0.0
 10
9.618189830494754
 20
-1.991850856706898
 30
0.0
 10
9.618189830494754
 20
-1.991850856706898
 30
0.0
 10
9.661374102402362
 20
-1.96010430181032
 30
0.0
 10
9.745176050081068
 20
-1.928357746913744
 30
0.0
 10
9.834059513600511
 20
-1.928357746913744
 30
0.0
 10
9.9965991185946
 20
-1.928357746913744
 30
0.0
 10
10.07025526006924
 20
-2.024872096933017
 30
0.0
 10
10.07025526006924
 20
-2.125176051986067
 30
0.0
 10
10.07025526006924
 20
-2.210252684994312
 30
0.0
 10
10.01945732713923
 20
-2.282634141139411
 30
0.0
 10
9.91787868675664
 20
-2.31946221187673
 30
0.0
 10
9.91787868675664
 20
-2.31946221187673
 30
0.0
 10
9.91787868675664
 20
-2.322011582535815
 30
0.0
 10
9.91787868675664
 20
-2.322011582535815
 30
0.0
 10
10.01945732713923
 20
-2.342320420421364
 30
0.0
 10
10.10200181496582
 20
-2.418508707077664
 30
0.0
 10
10.10200181496582
 20
-2.53407443513037
 30
0.0
 10
10.10200181496582
 20
-2.666142170557423
 30
0.0
 10
9.999148489253682
 20
-2.781690673132701
 30
0.0
 10
9.801055498851818
 20
-2.781690673132701
 30
0.0
 10
9.708347979343743
 20
-2.781690673132701
 30
0.0
 10
9.627078176846703
 20
-2.752476263417784
 30
0.0
 10
9.586443275598179
 20
-2.72581122436195
 30
0.0
 10
9.586443275598179
 20
-2.72581122436195
 30
0.0
 10
9.616915145165217
 20
-2.639459906024163
 30
0.0
 10
9.616915145165217
 20
-2.639459906024163
 30
0.0
  0
HATCH
  5
518
330
507
100
AcDbEntity
  8
Livello 1
 62
   250
420
  1842203
100
AcDbHatch
 10
0.0
 20
0.0
 30
0.0
210
0.0
220
0.0
230
1.0
  2
SOLID
 70
     1
 71
     0
 91
        1
 92
        1
 93
        1
 72
     4
 94
        3
 73
     0
 74
     0
 95
       59
 96
       55
 40
0.0
 40
0.0
 40
0.0
 40
0.0
 40
1.0
 40
1.0
 40
1.0
 40
2.0
 40
2.0
 40
2.0
 40
3.0
 40
3.0
 40
3.0
 40
4.0
 40
4.0
 40
4.0
 40
5.0
 40
5.0
 40
5.0
 40
6.0
 40
6.0
 40
6.0
 40
7.0
 40
7.0
 40
7.0
 40
8.0
 40
8.0
 40
8.0
 40
9.0
 40
9.0
 40
9.0
 40
10.0
 40
10.0
 40
10.0
 40
11.0
 40
11.0
 40
11.0
 40
12.0
 40
12.0
 40
12.0
 40
13.0
 40
13.0
 40
13.0
 40
14.0
 40
14.0
 40
14.0
 40
15.0
 40
15.0
 40
15.0
 40
16.0
 40
16.0
 40
16.0
 40
17.0
 40
17.0
 40
17.0
 40
18.0
 40
18.0
 40
18.0
 40
18.0
 10
9.616915145165217
 20
-2.639459906024163
 10
9.648661700061794
 20
-2.659785969387136
 10
9.722317841536433
 20
-2.691532524283713
 10
9.799780813522275
 20
-2.691532524283713
 10
9.943269040482931
 20
-2.691532524283713
 10
9.987710772242655
 20
-2.600099690105182
 10
9.986453312390539
 20
-2.531525064471285
 10
9.985178627060996
 20
-2.415976561896005
 10
9.88105061601932
 20
-2.366453314295538
 10
9.773115774466443
 20
-2.366453314295538
 10
9.773115774466443
 20
-2.366453314295538
 10
9.710897350002833
 20
-2.366453314295538
 10
9.710897350002833
 20
-2.366453314295538
 10
9.710897350002833
 20
-2.366453314295538
 10
9.710897350002833
 20
-2.282634141139411
 10
9.710897350002833
 20
-2.282634141139411
 10
9.710897350002833
 20
-2.282634141139411
 10
9.773115774466443
 20
-2.282634141139411
 10
9.773115774466443
 20
-2.282634141139411
 10
9.854385576963487
 20
-2.282634141139411
 10
9.957238902675619
 20
-2.240741780038773
 10
9.957238902675619
 20
-2.142952744689956
 10
9.957238902675619
 20
-2.076927489715143
 10
9.915329316097556
 20
-2.018515895762731
 10
9.812475990385424
 20
-2.018515895762731
 10
9.746450735410606
 20
-2.018515895762731
 10
9.682957625617456
 20
-2.047713080000225
 10
9.647404240209676
 20
-2.073120659203941
 10
9.647404240209676
 20
-2.073120659203941
 10
9.618189830494754
 20
-1.991850856706898
 10
9.618189830494754
 20
-1.991850856706898
 10
9.661374102402362
 20
-1.96010430181032
 10
9.745176050081068
 20
-1.928357746913744
 10
9.834059513600511
 20
-1.928357746913744
 10
9.9965991185946
 20
-1.928357746913744
 10
10.07025526006924
 20
-2.024872096933017
 10
10.07025526006924
 20
-2.125176051986067
 10
10.07025526006924
 20
-2.210252684994312
 10
10.01945732713923
 20
-2.282634141139411
 10
9.91787868675664
 20
-2.31946221187673
 10
9.91787868675664
 20
-2.31946221187673
 10
9.91787868675664
 20
-2.322011582535815
 10
9.91787868675664
 20
-2.322011582535815
 10
10.01945732713923
 20
-2.342320420421364
 10
10.10200181496582
 20
-2.418508707077664
 10
10.10200181496582
 20
-2.53407443513037
 10
10.10200181496582
 20
-2.666142170557423
 10
9.999148489253682
 20
-2.781690673132701
 10
9.801055498851818
 20
-2.781690673132701
 10
9.708347979343743
 20
-2.781690673132701
 10
9.627078176846703
 20
-2.752476263417784
 10
9.586443275598179
 20
-2.72581122436195
 10
9.586443275598179
 20
-2.72581122436195
 10
9.616915145165217
 20
-2.639459906024163
 10
9.616915145165217
 20
-2.639459906024163
 97
        0
 97
        0
 75
     2
 76
     1
 98
        0
450
        0
451
        0
460
0.0
461
0.0
452
        0
462
0.0
453
        0
470

  0
SPLINE
  5
519
330
507
100
AcDbEntity
  8
Livello 1
370
     0
100
AcDbSpline
210
0.0
220
0.0
230
1.0
 70
     9
 71
     3
 72
    17
 73
    13
 74
     0
 42
0.000000001
 43
0.0000000001
 40
0.0
 40
0.0
 40
0.0
 40
0.0
 40
1.0
 40
1.0
 40
1.0
 40
2.0
 40
2.0
 40
2.0
 40
3.0
 40
3.0
 40
3.0
 40
4.0
 40
4.0
 40
4.0
 40
4.0
 10
10.20492404258766
 20
-2.923904214763815
 30
0.0
 10
10.23286376697303
 20
-2.848990613437058
 30
0.0
 10
10.2671596925287
 20
-2.713116047498804
 30
0.0
 10
10.28112955472138
 20
-2.620425753468156
 30
0.0
 10
10.28112955472138
 20
-2.620425753468156
 30
0.0
 10
10.40556640364861
 20
-2.607713351127584
 30
0.0
 10
10.40556640364861
 20
-2.607713351127584
 30
0.0
 10
10.37636921941112
 20
-2.715665418157889
 30
0.0
 10
10.32048977064036
 20
-2.85660427445946
 30
0.0
 10
10.28493638523259
 20
-2.916290553741413
 30
0.0
 10
10.28493638523259
 20
-2.916290553741413
 30
0.0
 10
10.20492404258766
 20
-2.923904214763815
 30
0.0
 10
10.20492404258766
 20
-2.923904214763815
 30
0.0
  0
HATCH
  5
51A
330
507
100
AcDbEntity
  8
Livello 1
 62
   250
420
  1842203
100
AcDbHatch
 10
0.0
 20
0.0
 30
0.0
210
0.0
220
0.0
230
1.0
  2
SOLID
 70
     1
 71
     0
 91
        1
 92
        1
 93
        1
 72
     4
 94
        3
 73
     0
 74
     0
 95
       17
 96
       13
 40
0.0
 40
0.0
 40
0.0
 40
0.0
 40
1.0
 40
1.0
 40
1.0
 40
2.0
 40
2.0
 40
2.0
 40
3.0
 40
3.0
 40
3.0
 40
4.0
 40
4.0
 40
4.0
 40
4.0
 10
10.20492404258766
 20
-2.923904214763815
 10
10.23286376697303
 20
-2.848990613437058
 10
10.2671596925287
 20
-2.713116047498804
 10
10.28112955472138
 20
-2.620425753468156
 10
10.28112955472138
 20
-2.620425753468156
 10
10.40556640364861
 20
-2.607713351127584
 10
10.40556640364861
 20
-2.607713351127584
 10
10.37636921941112
 20
-2.715665418157889
 10
10.32048977064036
 20
-2.85660427445946
 10
10.28493638523259
 20
-2.916290553741413
 10
10.28493638523259
 20
-2.916290553741413
 10
10.20492404258766
 20
-2.923904214763815
 10
10.20492404258766
 20
-2.923904214763815
 97
        0
 97
        0
 75
     2
 76
     1
 98
        0
450
        0
451
        0
460
0.0
461
0.0
452
        0
462
0.0
453
        0
470

  0
SPLINE
  5
51B
330
507
100
AcDbEntity
  8
Livello 1
370
     0
100
AcDbSpline
210
0.0
220
0.0
230
1.0
 70
    11
 71
     3
 72
    50
 73
    46
 74
     0
 42
0.000000001
 43
0.0000000001
 40
0.0
 40
0.0
 40
0.0
 40
0.0
 40
1.0
 40
1.0
 40
1.0
 40
2.0
 40
2.0
 40
2.0
 40
3.0
 40
3.0
 40
3.0
 40
4.0
 40
4.0
 40
4.0
 40
5.0
 40
5.0
 40
5.0
 40
6.0
 40
6.0
 40
6.0
 40
7.0
 40
7.0
 40
7.0
 40
8.0
 40
8.0
 40
8.0
 40
9.0
 40
9.0
 40
9.0
 40
10.0
 40
10.0
 40
10.0
 40
11.0
 40
11.0
 40
11.0
 40
12.0
 40
12.0
 40
12.0
 40
13.0
 40
13.0
 40
13.0
 40
14.0
 40
14.0
 40
14.0
 40
15.0
 40
15.0
 40
15.0
 40
15.0
 10
10.99733045514997
 20
-2.03629258846662
 30
0.0
 10
10.99733045514997
 20
-2.03629258846662
 30
0.0
 10
10.68241427684328
 20
-2.03629258846662
 30
0.0
 10
10.68241427684328
 20
-2.03629258846662
 30
0.0
 10
10.68241427684328
 20
-2.03629258846662
 30
0.0
 10
10.65065049646928
 20
-2.248355441061174
 30
0.0
 10
10.65065049646928
 20
-2.248355441061174
 30
0.0
 10
10.66970187450271
 20
-2.245823295879516
 30
0.0
 10
10.6874785672066
 20
-2.243273925220431
 30
0.0
 10
10.71796766225106
 20
-2.243273925220431
 30
0.0
 10
10.78146077204422
 20
-2.243273925220431
 30
0.0
 10
10.84495388183737
 20
-2.257243787413119
 30
0.0
 10
10.89573458928995
 20
-2.287715656980154
 30
0.0
 10
10.96050238441265
 20
-2.324543727717474
 30
0.0
 10
11.01383246252432
 20
-2.395650498533031
 30
0.0
 10
11.01383246252432
 20
-2.499778509574708
 30
0.0
 10
11.01383246252432
 20
-2.661060654716679
 30
0.0
 10
10.88557155760847
 20
-2.781690673132701
 30
0.0
 10
10.70652994524003
 20
-2.781690673132701
 30
0.0
 10
10.61637179639104
 20
-2.781690673132701
 30
0.0
 10
10.54016628425732
 20
-2.756300319406411
 30
0.0
 10
10.50080606833834
 20
-2.730892740202693
 30
0.0
 10
10.50080606833834
 20
-2.730892740202693
 30
0.0
 10
10.52874579272371
 20
-2.645816107194447
 30
0.0
 10
10.52874579272371
 20
-2.645816107194447
 30
0.0
 10
10.56304171827938
 20
-2.666142170557423
 30
0.0
 10
10.63032443310631
 20
-2.691532524283713
 30
0.0
 10
10.70525525991049
 20
-2.691532524283713
 30
0.0
 10
10.81067518175914
 20
-2.691532524283713
 30
0.0
 10
10.90083333060812
 20
-2.622957898649815
 30
0.0
 10
10.90083333060812
 20
-2.512490911915279
 30
0.0
 10
10.89955864527858
 20
-2.405813530214518
 30
0.0
 10
10.82845187446303
 20
-2.329625243558219
 30
0.0
 10
10.66336289880985
 20
-2.329625243558219
 30
0.0
 10
10.61637179639104
 20
-2.329625243558219
 30
0.0
 10
10.57954372565372
 20
-2.334706759398962
 30
0.0
 10
10.54905463060926
 20
-2.338513589910162
 30
0.0
 10
10.54905463060926
 20
-2.338513589910162
 30
0.0
 10
10.60241915967578
 20
-1.942327609106431
 30
0.0
 10
10.60241915967578
 20
-1.942327609106431
 30
0.0
 10
10.60241915967578
 20
-1.942327609106431
 30
0.0
 10
10.99733045514997
 20
-1.942327609106431
 30
0.0
 10
10.99733045514997
 20
-1.942327609106431
 30
0.0
 10
10.99733045514997
 20
-1.942327609106431
 30
0.0
 10
10.99733045514997
 20
-2.03629258846662
 30
0.0
 10
10.99733045514997
 20
-2.03629258846662
 30
0.0
  0
HATCH
  5
51C
330
507
100
AcDbEntity
  8
Livello 1
 62
   250
420
  1842203
100
AcDbHatch
 10
0.0
 20
0.0
 30
0.0
210
0.0
220
0.0
230
1.0
  2
SOLID
 70
     1
 71
     0
 91
        1
 92
        1
 93
        1
 72
     4
 94
        3
 73
     0
 74
     0
 95
       50
 96
       46
 40
0.0
 40
0.0
 40
0.0
 40
0.0
 40
1.0
 40
1.0
 40
1.0
 40
2.0
 40
2.0
 40
2.0
 40
3.0
 40
3.0
 40
3.0
 40
4.0
 40
4.0
 40
4.0
 40
5.0
 40
5.0
 40
5.0
 40
6.0
 40
6.0
 40
6.0
 40
7.0
 40
7.0
 40
7.0
 40
8.0
 40
8.0
 40
8.0
 40
9.0
 40
9.0
 40
9.0
 40
10.0
 40
10.0
 40
10.0
 40
11.0
 40
11.0
 40
11.0
 40
12.0
 40
12.0
 40
12.0
 40
13.0
 40
13.0
 40
13.0
 40
14.0
 40
14.0
 40
14.0
 40
15.0
 40
15.0
 40
15.0
 40
15.0
 10
10.99733045514997
 20
-2.03629258846662
 10
10.99733045514997
 20
-2.03629258846662
 10
10.68241427684328
 20
-2.03629258846662
 10
10.68241427684328
 20
-2.03629258846662
 10
10.68241427684328
 20
-2.03629258846662
 10
10.65065049646928
 20
-2.248355441061174
 10
10.65065049646928
 20
-2.248355441061174
 10
10.66970187450271
 20
-2.245823295879516
 10
10.6874785672066
 20
-2.243273925220431
 10
10.71796766225106
 20
-2.243273925220431
 10
10.78146077204422
 20
-2.243273925220431
 10
10.84495388183737
 20
-2.257243787413119
 10
10.89573458928995
 20
-2.287715656980154
 10
10.96050238441265
 20
-2.324543727717474
 10
11.01383246252432
 20
-2.395650498533031
 10
11.01383246252432
 20
-2.499778509574708
 10
11.01383246252432
 20
-2.661060654716679
 10
10.88557155760847
 20
-2.781690673132701
 10
10.70652994524003
 20
-2.781690673132701
 10
10.61637179639104
 20
-2.781690673132701
 10
10.54016628425732
 20
-2.756300319406411
 10
10.50080606833834
 20
-2.730892740202693
 10
10.50080606833834
 20
-2.730892740202693
 10
10.52874579272371
 20
-2.645816107194447
 10
10.52874579272371
 20
-2.645816107194447
 10
10.56304171827938
 20
-2.666142170557423
 10
10.63032443310631
 20
-2.691532524283713
 10
10.70525525991049
 20
-2.691532524283713
 10
10.81067518175914
 20
-2.691532524283713
 10
10.90083333060812
 20
-2.622957898649815
 10
10.90083333060812
 20
-2.512490911915279
 10
10.89955864527858
 20
-2.405813530214518
 10
10.82845187446303
 20
-2.329625243558219
 10
10.66336289880985
 20
-2.329625243558219
 10
10.61637179639104
 20
-2.329625243558219
 10
10.57954372565372
 20
-2.334706759398962
 10
10.54905463060926
 20
-2.338513589910162
 10
10.54905463060926
 20
-2.338513589910162
 10
10.60241915967578
 20
-1.942327609106431
 10
10.60241915967578
 20
-1.942327609106431
 10
10.60241915967578
 20
-1.942327609106431
 10
10.99733045514997
 20
-1.942327609106431
 10
10.99733045514997
 20
-1.942327609106431
 10
10.99733045514997
 20
-1.942327609106431
 10
10.99733045514997
 20
-2.03629258846662
 10
10.99733045514997
 20
-2.03629258846662
 97
        0
 97
        0
 75
     2
 76
     1
 98
        0
450
        0
451
        0
460
0.0
461
0.0
452
        0
462
0.0
453
        0
470

  0
ENDBLK
  5
50A
330
507
100
AcDbEntity
  8
0
100
AcDbBlockEnd
  0
BLOCK
  5
51F
330
51D
100
AcDbEntity
  8
0
100
AcDbBlockBegin
  2
block 12
 70
     0
 10
0.0
 20
0.0
 30
0.0
  3
block 12
  1

  0
POLYLINE
  5
521
330
51D
100
AcDbEntity
  8
Livello 1
370
     0
100
AcDb2dPolyline
 66
     1
 10
0.0
 20
0.0
 30
0.0
  0
VERTEX
  5
522
330
521
100
AcDbEntity
  8
Livello 1
370
     0
100
AcDbVertex
100
AcDb2dVertex
 10
14.03104708850613
 20
-2.046438394670682
 30
0.0
  0
VERTEX
  5
523
330
521
100
AcDbEntity
  8
Livello 1
370
     0
100
AcDbVertex
100
AcDb2dVertex
 10
14.02849771784704
 20
-2.046438394670682
 30
0.0
  0
VERTEX
  5
524
330
521
100
AcDbEntity
  8
Livello 1
370
     0
100
AcDbVertex
100
AcDb2dVertex
 10
13.88500949088639
 20
-2.123901366656524
 30
0.0
  0
VERTEX
  5
525
330
521
100
AcDbEntity
  8
Livello 1
370
     0
100
AcDbVertex
100
AcDb2dVertex
 10
13.86340874219387
 20
-2.038807508170854
 30
0.0
  0
VERTEX
  5
526
330
521
100
AcDbEntity
  8
Livello 1
370
     0
100
AcDbVertex
100
AcDb2dVertex
 10
14.04372503989184
 20
-1.942310383629005
 30
0.0
  0
VERTEX
  5
527
330
521
100
AcDbEntity
  8
Livello 1
370
     0
100
AcDbVertex
100
AcDb2dVertex
 10
14.138981930059
 20
-1.942310383629005
 30
0.0
  0
VERTEX
  5
528
330
521
100
AcDbEntity
  8
Livello 1
370
     0
100
AcDbVertex
100
AcDb2dVertex
 10
14.138981930059
 20
-2.767703585462588
 30
0.0
  0
VERTEX
  5
529
330
521
100
AcDbEntity
  8
Livello 1
370
     0
100
AcDbVertex
100
AcDb2dVertex
 10
14.03104708850613
 20
-2.767703585462588
 30
0.0
  0
VERTEX
  5
52A
330
521
100
AcDbEntity
  8
Livello 1
370
     0
100
AcDbVertex
100
AcDb2dVertex
 10
14.03104708850613
 20
-2.046438394670682
 30
0.0
  0
SEQEND
  5
52B
330
521
100
AcDbEntity
  8
Livello 1
370
     0
  0
HATCH
  5
52C
330
51D
100
AcDbEntity
  8
Livello 1
 62
   250
420
  1842203
100
AcDbHatch
 10
0.0
 20
0.0
 30
0.0
210
0.0
220
0.0
230
1.0
  2
SOLID
 70
     1
 71
     0
 91
        1
 92
        1
 93
        8
 72
     1
 10
14.03104708850613
 20
-2.046438394670682
 11
14.02849771784704
 21
-2.046438394670682
 72
     1
 10
14.02849771784704
 20
-2.046438394670682
 11
13.88500949088639
 21
-2.123901366656524
 72
     1
 10
13.88500949088639
 20
-2.123901366656524
 11
13.86340874219387
 21
-2.038807508170854
 72
     1
 10
13.86340874219387
 20
-2.038807508170854
 11
14.04372503989184
 21
-1.942310383629005
 72
     1
 10
14.04372503989184
 20
-1.942310383629005
 11
14.138981930059
 21
-1.942310383629005
 72
     1
 10
14.138981930059
 20
-1.942310383629005
 11
14.138981930059
 21
-2.767703585462588
 72
     1
 10
14.138981930059
 20
-2.767703585462588
 11
14.03104708850613
 21
-2.767703585462588
 72
     1
 10
14.03104708850613
 20
-2.767703585462588
 11
14.03104708850613
 21
-2.046438394670682
 97
        0
 75
     2
 76
     1
 98
        0
450
        0
451
        0
460
0.0
461
0.0
452
        0
462
0.0
453
        0
470

  0
SPLINE
  5
52D
330
51D
100
AcDbEntity
  8
Livello 1
370
     0
100
AcDbSpline
210
0.0
220
0.0
230
1.0
 70
     9
 71
     3
 72
    59
 73
    55
 74
     0
 42
0.000000001
 43
0.0000000001
 40
0.0
 40
0.0
 40
0.0
 40
0.0
 40
1.0
 40
1.0
 40
1.0
 40
2.0
 40
2.0
 40
2.0
 40
3.0
 40
3.0
 40
3.0
 40
4.0
 40
4.0
 40
4.0
 40
5.0
 40
5.0
 40
5.0
 40
6.0
 40
6.0
 40
6.0
 40
7.0
 40
7.0
 40
7.0
 40
8.0
 40
8.0
 40
8.0
 40
9.0
 40
9.0
 40
9.0
 40
10.0
 40
10.0
 40
10.0
 40
11.0
 40
11.0
 40
11.0
 40
12.0
 40
12.0
 40
12.0
 40
13.0
 40
13.0
 40
13.0
 40
14.0
 40
14.0
 40
14.0
 40
15.0
 40
15.0
 40
15.0
 40
16.0
 40
16.0
 40
16.0
 40
17.0
 40
17.0
 40
17.0
 40
18.0
 40
18.0
 40
18.0
 40
18.0
 10
14.46664496166112
 20
-2.639442680546735
 30
0.0
 10
14.49837429108027
 20
-2.659768743909709
 30
0.0
 10
14.57203043255491
 20
-2.691515298806288
 30
0.0
 10
14.64951063001818
 20
-2.691515298806288
 30
0.0
 10
14.79299885697883
 20
-2.691515298806288
 30
0.0
 10
14.83744058873856
 20
-2.600082464627756
 30
0.0
 10
14.83616590340901
 20
-2.531507838993858
 30
0.0
 10
14.83489121807947
 20
-2.41595933641858
 30
0.0
 10
14.73078043251522
 20
-2.366436088818113
 30
0.0
 10
14.62284559096234
 20
-2.366436088818113
 30
0.0
 10
14.62284559096234
 20
-2.366436088818113
 30
0.0
 10
14.56062716649873
 20
-2.366436088818113
 30
0.0
 10
14.56062716649873
 20
-2.366436088818113
 30
0.0
 10
14.56062716649873
 20
-2.366436088818113
 30
0.0
 10
14.56062716649873
 20
-2.282616915661983
 30
0.0
 10
14.56062716649873
 20
-2.282616915661983
 30
0.0
 10
14.56062716649873
 20
-2.282616915661983
 30
0.0
 10
14.62284559096234
 20
-2.282616915661983
 30
0.0
 10
14.62284559096234
 20
-2.282616915661983
 30
0.0
 10
14.70411539345939
 20
-2.282616915661983
 30
0.0
 10
14.8069514936941
 20
-2.240724554561345
 30
0.0
 10
14.8069514936941
 20
-2.142935519212529
 30
0.0
 10
14.8069514936941
 20
-2.076910264237716
 30
0.0
 10
14.76505913259346
 20
-2.018498670285306
 30
0.0
 10
14.6621885814039
 20
-2.018498670285306
 30
0.0
 10
14.59618055190651
 20
-2.018498670285306
 30
0.0
 10
14.53268744211335
 20
-2.047695854522797
 30
0.0
 10
14.49713405670558
 20
-2.073103433726515
 30
0.0
 10
14.49713405670558
 20
-2.073103433726515
 30
0.0
 10
14.46791964699066
 20
-1.991833631229471
 30
0.0
 10
14.46791964699066
 20
-1.991833631229471
 30
0.0
 10
14.51108669342084
 20
-1.960087076332895
 30
0.0
 10
14.59490586657697
 20
-1.928340521436316
 30
0.0
 10
14.68378933009641
 20
-1.928340521436316
 30
0.0
 10
14.8463289350905
 20
-1.928340521436316
 30
0.0
 10
14.91998507656514
 20
-2.024854871455592
 30
0.0
 10
14.91998507656514
 20
-2.12515882650864
 30
0.0
 10
14.91998507656514
 20
-2.210235459516884
 30
0.0
 10
14.86916991815771
 20
-2.282616915661983
 30
0.0
 10
14.76760850325254
 20
-2.319444986399305
 30
0.0
 10
14.76760850325254
 20
-2.319444986399305
 30
0.0
 10
14.76760850325254
 20
-2.32199435705839
 30
0.0
 10
14.76760850325254
 20
-2.32199435705839
 30
0.0
 10
14.86916991815771
 20
-2.342303194943938
 30
0.0
 10
14.95171440598429
 20
-2.418491481600238
 30
0.0
 10
14.95171440598429
 20
-2.534057209652944
 30
0.0
 10
14.95171440598429
 20
-2.666124945079995
 30
0.0
 10
14.84887830574958
 20
-2.781673447655276
 30
0.0
 10
14.65078531534772
 20
-2.781673447655276
 30
0.0
 10
14.55807779583965
 20
-2.781673447655276
 30
0.0
 10
14.4768079933426
 20
-2.752459037940356
 30
0.0
 10
14.43615586661666
 20
-2.725793998884523
 30
0.0
 10
14.43615586661666
 20
-2.725793998884523
 30
0.0
 10
14.46664496166112
 20
-2.639442680546735
 30
0.0
 10
14.46664496166112
 20
-2.639442680546735
 30
0.0
  0
HATCH
  5
52E
330
51D
100
AcDbEntity
  8
Livello 1
 62
   250
420
  1842203
100
AcDbHatch
 10
0.0
 20
0.0
 30
0.0
210
0.0
220
0.0
230
1.0
  2
SOLID
 70
     1
 71
     0
 91
        1
 92
        1
 93
        1
 72
     4
 94
        3
 73
     0
 74
     0
 95
       59
 96
       55
 40
0.0
 40
0.0
 40
0.0
 40
0.0
 40
1.0
 40
1.0
 40
1.0
 40
2.0
 40
2.0
 40
2.0
 40
3.0
 40
3.0
 40
3.0
 40
4.0
 40
4.0
 40
4.0
 40
5.0
 40
5.0
 40
5.0
 40
6.0
 40
6.0
 40
6.0
 40
7.0
 40
7.0
 40
7.0
 40
8.0
 40
8.0
 40
8.0
 40
9.0
 40
9.0
 40
9.0
 40
10.0
 40
10.0
 40
10.0
 40
11.0
 40
11.0
 40
11.0
 40
12.0
 40
12.0
 40
12.0
 40
13.0
 40
13.0
 40
13.0
 40
14.0
 40
14.0
 40
14.0
 40
15.0
 40
15.0
 40
15.0
 40
16.0
 40
16.0
 40
16.0
 40
17.0
 40
17.0
 40
17.0
 40
18.0
 40
18.0
 40
18.0
 40
18.0
 10
14.46664496166112
 20
-2.639442680546735
 10
14.49837429108027
 20
-2.659768743909709
 10
14.57203043255491
 20
-2.691515298806288
 10
14.64951063001818
 20
-2.691515298806288
 10
14.79299885697883
 20
-2.691515298806288
 10
14.83744058873856
 20
-2.600082464627756
 10
14.83616590340901
 20
-2.531507838993858
 10
14.83489121807947
 20
-2.41595933641858
 10
14.73078043251522
 20
-2.366436088818113
 10
14.62284559096234
 20
-2.366436088818113
 10
14.62284559096234
 20
-2.366436088818113
 10
14.56062716649873
 20
-2.366436088818113
 10
14.56062716649873
 20
-2.366436088818113
 10
14.56062716649873
 20
-2.366436088818113
 10
14.56062716649873
 20
-2.282616915661983
 10
14.56062716649873
 20
-2.282616915661983
 10
14.56062716649873
 20
-2.282616915661983
 10
14.62284559096234
 20
-2.282616915661983
 10
14.62284559096234
 20
-2.282616915661983
 10
14.70411539345939
 20
-2.282616915661983
 10
14.8069514936941
 20
-2.240724554561345
 10
14.8069514936941
 20
-2.142935519212529
 10
14.8069514936941
 20
-2.076910264237716
 10
14.76505913259346
 20
-2.018498670285306
 10
14.6621885814039
 20
-2.018498670285306
 10
14.59618055190651
 20
-2.018498670285306
 10
14.53268744211335
 20
-2.047695854522797
 10
14.49713405670558
 20
-2.073103433726515
 10
14.49713405670558
 20
-2.073103433726515
 10
14.46791964699066
 20
-1.991833631229471
 10
14.46791964699066
 20
-1.991833631229471
 10
14.51108669342084
 20
-1.960087076332895
 10
14.59490586657697
 20
-1.928340521436316
 10
14.68378933009641
 20
-1.928340521436316
 10
14.8463289350905
 20
-1.928340521436316
 10
14.91998507656514
 20
-2.024854871455592
 10
14.91998507656514
 20
-2.12515882650864
 10
14.91998507656514
 20
-2.210235459516884
 10
14.86916991815771
 20
-2.282616915661983
 10
14.76760850325254
 20
-2.319444986399305
 10
14.76760850325254
 20
-2.319444986399305
 10
14.76760850325254
 20
-2.32199435705839
 10
14.76760850325254
 20
-2.32199435705839
 10
14.86916991815771
 20
-2.342303194943938
 10
14.95171440598429
 20
-2.418491481600238
 10
14.95171440598429
 20
-2.534057209652944
 10
14.95171440598429
 20
-2.666124945079995
 10
14.84887830574958
 20
-2.781673447655276
 10
14.65078531534772
 20
-2.781673447655276
 10
14.55807779583965
 20
-2.781673447655276
 10
14.4768079933426
 20
-2.752459037940356
 10
14.43615586661666
 20
-2.725793998884523
 10
14.43615586661666
 20
-2.725793998884523
 10
14.46664496166112
 20
-2.639442680546735
 10
14.46664496166112
 20
-2.639442680546735
 97
        0
 97
        0
 75
     2
 76
     1
 98
        0
450
        0
451
        0
460
0.0
461
0.0
452
        0
462
0.0
453
        0
470

  0
SPLINE
  5
52F
330
51D
100
AcDbEntity
  8
Livello 1
370
     0
100
AcDbSpline
210
0.0
220
0.0
230
1.0
 70
     9
 71
     3
 72
    17
 73
    13
 74
     0
 42
0.000000001
 43
0.0000000001
 40
0.0
 40
0.0
 40
0.0
 40
0.0
 40
1.0
 40
1.0
 40
1.0
 40
2.0
 40
2.0
 40
2.0
 40
3.0
 40
3.0
 40
3.0
 40
4.0
 40
4.0
 40
4.0
 40
4.0
 10
15.05465385908356
 20
-2.923886989286388
 30
0.0
 10
15.08259358346893
 20
-2.848973387959631
 30
0.0
 10
15.11687228354717
 20
-2.713098822021377
 30
0.0
 10
15.13085937121728
 20
-2.62040852799073
 30
0.0
 10
15.13085937121728
 20
-2.62040852799073
 30
0.0
 10
15.25529622014451
 20
-2.607696125650158
 30
0.0
 10
15.25529622014451
 20
-2.607696125650158
 30
0.0
 10
15.22608181042959
 20
-2.715648192680462
 30
0.0
 10
15.17020236165884
 20
-2.856587048982033
 30
0.0
 10
15.13464897625106
 20
-2.916273328263986
 30
0.0
 10
15.13464897625106
 20
-2.916273328263986
 30
0.0
 10
15.05465385908356
 20
-2.923886989286388
 30
0.0
 10
15.05465385908356
 20
-2.923886989286388
 30
0.0
  0
HATCH
  5
530
330
51D
100
AcDbEntity
  8
Livello 1
 62
   250
420
  1842203
100
AcDbHatch
 10
0.0
 20
0.0
 30
0.0
210
0.0
220
0.0
230
1.0
  2
SOLID
 70
     1
 71
     0
 91
        1
 92
        1
 93
        1
 72
     4
 94
        3
 73
     0
 74
     0
 95
       17
 96
       13
 40
0.0
 40
0.0
 40
0.0
 40
0.0
 40
1.0
 40
1.0
 40
1.0
 40
2.0
 40
2.0
 40
2.0
 40
3.0
 40
3.0
 40
3.0
 40
4.0
 40
4.0
 40
4.0
 40
4.0
 10
15.05465385908356
 20
-2.923886989286388
 10
15.08259358346893
 20
-2.848973387959631
 10
15.11687228354717
 20
-2.713098822021377
 10
15.13085937121728
 20
-2.62040852799073
 10
15.13085937121728
 20
-2.62040852799073
 10
15.25529622014451
 20
-2.607696125650158
 10
15.25529622014451
 20
-2.607696125650158
 10
15.22608181042959
 20
-2.715648192680462
 10
15.17020236165884
 20
-2.856587048982033
 10
15.13464897625106
 20
-2.916273328263986
 10
15.13464897625106
 20
-2.916273328263986
 10
15.05465385908356
 20
-2.923886989286388
 10
15.05465385908356
 20
-2.923886989286388
 97
        0
 97
        0
 75
     2
 76
     1
 98
        0
450
        0
451
        0
460
0.0
461
0.0
452
        0
462
0.0
453
        0
470

  0
SPLINE
  5
531
330
51D
100
AcDbEntity
  8
Livello 1
370
     0
100
AcDbSpline
210
0.0
220
0.0
230
1.0
 70
    11
 71
     3
 72
    50
 73
    46
 74
     0
 42
0.000000001
 43
0.0000000001
 40
0.0
 40
0.0
 40
0.0
 40
0.0
 40
1.0
 40
1.0
 40
1.0
 40
2.0
 40
2.0
 40
2.0
 40
3.0
 40
3.0
 40
3.0
 40
4.0
 40
4.0
 40
4.0
 40
5.0
 40
5.0
 40
5.0
 40
6.0
 40
6.0
 40
6.0
 40
7.0
 40
7.0
 40
7.0
 40
8.0
 40
8.0
 40
8.0
 40
9.0
 40
9.0
 40
9.0
 40
10.0
 40
10.0
 40
10.0
 40
11.0
 40
11.0
 40
11.0
 40
12.0
 40
12.0
 40
12.0
 40
13.0
 40
13.0
 40
13.0
 40
14.0
 40
14.0
 40
14.0
 40
15.0
 40
15.0
 40
15.0
 40
15.0
 10
15.84702582069102
 20
-2.036275362989194
 30
0.0
 10
15.84702582069102
 20
-2.036275362989194
 30
0.0
 10
15.53210964238433
 20
-2.036275362989194
 30
0.0
 10
15.53210964238433
 20
-2.036275362989194
 30
0.0
 10
15.53210964238433
 20
-2.036275362989194
 30
0.0
 10
15.50038031296518
 20
-2.248338215583749
 30
0.0
 10
15.50038031296518
 20
-2.248338215583749
 30
0.0
 10
15.51943169099861
 20
-2.245806070402089
 30
0.0
 10
15.5372083837025
 20
-2.243256699743004
 30
0.0
 10
15.56766302779211
 20
-2.243256699743004
 30
0.0
 10
15.63115613758526
 20
-2.243256699743004
 30
0.0
 10
15.69464924737842
 20
-2.257226561935693
 30
0.0
 10
15.74546440578585
 20
-2.287698431502728
 30
0.0
 10
15.8101977499537
 20
-2.324526502240048
 30
0.0
 10
15.86356227902022
 20
-2.395633273055604
 30
0.0
 10
15.86356227902022
 20
-2.499761284097281
 30
0.0
 10
15.86356227902022
 20
-2.661043429239252
 30
0.0
 10
15.73530137410437
 20
-2.781673447655276
 30
0.0
 10
15.55625976173593
 20
-2.781673447655276
 30
0.0
 10
15.46610161288694
 20
-2.781673447655276
 30
0.0
 10
15.38989610075322
 20
-2.756283093928983
 30
0.0
 10
15.35051865935681
 20
-2.730875514725267
 30
0.0
 10
15.35051865935681
 20
-2.730875514725267
 30
0.0
 10
15.37845838374219
 20
-2.645798881717022
 30
0.0
 10
15.37845838374219
 20
-2.645798881717022
 30
0.0
 10
15.41273708382043
 20
-2.666124945079995
 30
0.0
 10
15.48005424960221
 20
-2.691515298806288
 30
0.0
 10
15.55498507640639
 20
-2.691515298806288
 30
0.0
 10
15.66037054730018
 20
-2.691515298806288
 30
0.0
 10
15.75052869614917
 20
-2.62294067317239
 30
0.0
 10
15.75052869614917
 20
-2.512473686437854
 30
0.0
 10
15.74925401081963
 20
-2.405796304737091
 30
0.0
 10
15.67814724000407
 20
-2.329608018080792
 30
0.0
 10
15.5130582643509
 20
-2.329608018080792
 30
0.0
 10
15.46610161288694
 20
-2.329608018080792
 30
0.0
 10
15.42927354214962
 20
-2.334689533921536
 30
0.0
 10
15.39878444710516
 20
-2.338496364432737
 30
0.0
 10
15.39878444710516
 20
-2.338496364432737
 30
0.0
 10
15.45211452521683
 20
-1.942310383629005
 30
0.0
 10
15.45211452521683
 20
-1.942310383629005
 30
0.0
 10
15.45211452521683
 20
-1.942310383629005
 30
0.0
 10
15.84702582069102
 20
-1.942310383629005
 30
0.0
 10
15.84702582069102
 20
-1.942310383629005
 30
0.0
 10
15.84702582069102
 20
-1.942310383629005
 30
0.0
 10
15.84702582069102
 20
-2.036275362989194
 30
0.0
 10
15.84702582069102
 20
-2.036275362989194
 30
0.0
  0
HATCH
  5
532
330
51D
100
AcDbEntity
  8
Livello 1
 62
   250
420
  1842203
100
AcDbHatch
 10
0.0
 20
0.0
 30
0.0
210
0.0
220
0.0
230
1.0
  2
SOLID
 70
     1
 71
     0
 91
        1
 92
        1
 93
        1
 72
     4
 94
        3
 73
     0
 74
     0
 95
       50
 96
       46
 40
0.0
 40
0.0
 40
0.0
 40
0.0
 40
1.0
 40
1.0
 40
1.0
 40
2.0
 40
2.0
 40
2.0
 40
3.0
 40
3.0
 40
3.0
 40
4.0
 40
4.0
 40
4.0
 40
5.0
 40
5.0
 40
5.0
 40
6.0
 40
6.0
 40
6.0
 40
7.0
 40
7.0
 40
7.0
 40
8.0
 40
8.0
 40
8.0
 40
9.0
 40
9.0
 40
9.0
 40
10.0
 40
10.0
 40
10.0
 40
11.0
 40
11.0
 40
11.0
 40
12.0
 40
12.0
 40
12.0
 40
13.0
 40
13.0
 40
13.0
 40
14.0
 40
14.0
 40
14.0
 40
15.0
 40
15.0
 40
15.0
 40
15.0
 10
15.84702582069102
 20
-2.036275362989194
 10
15.84702582069102
 20
-2.036275362989194
 10
15.53210964238433
 20
-2.036275362989194
 10
15.53210964238433
 20
-2.036275362989194
 10
15.53210964238433
 20
-2.036275362989194
 10
15.50038031296518
 20
-2.248338215583749
 10
15.50038031296518
 20
-2.248338215583749
 10
15.51943169099861
 20
-2.245806070402089
 10
15.5372083837025
 20
-2.243256699743004
 10
15.56766302779211
 20
-2.243256699743004
 10
15.63115613758526
 20
-2.243256699743004
 10
15.69464924737842
 20
-2.257226561935693
 10
15.74546440578585
 20
-2.287698431502728
 10
15.8101977499537
 20
-2.324526502240048
 10
15.86356227902022
 20
-2.395633273055604
 10
15.86356227902022
 20
-2.499761284097281
 10
15.86356227902022
 20
-2.661043429239252
 10
15.73530137410437
 20
-2.781673447655276
 10
15.55625976173593
 20
-2.781673447655276
 10
15.46610161288694
 20
-2.781673447655276
 10
15.38989610075322
 20
-2.756283093928983
 10
15.35051865935681
 20
-2.730875514725267
 10
15.35051865935681
 20
-2.730875514725267
 10
15.37845838374219
 20
-2.645798881717022
 10
15.37845838374219
 20
-2.645798881717022
 10
15.41273708382043
 20
-2.666124945079995
 10
15.48005424960221
 20
-2.691515298806288
 10
15.55498507640639
 20
-2.691515298806288
 10
15.66037054730018
 20
-2.691515298806288
 10
15.75052869614917
 20
-2.62294067317239
 10
15.75052869614917
 20
-2.512473686437854
 10
15.74925401081963
 20
-2.405796304737091
 10
15.67814724000407
 20
-2.329608018080792
 10
15.5130582643509
 20
-2.329608018080792
 10
15.46610161288694
 20
-2.329608018080792
 10
15.42927354214962
 20
-2.334689533921536
 10
15.39878444710516
 20
-2.338496364432737
 10
15.39878444710516
 20
-2.338496364432737
 10
15.45211452521683
 20
-1.942310383629005
 10
15.45211452521683
 20
-1.942310383629005
 10
15.45211452521683
 20
-1.942310383629005
 10
15.84702582069102
 20
-1.942310383629005
 10
15.84702582069102
 20
-1.942310383629005
 10
15.84702582069102
 20
-1.942310383629005
 10
15.84702582069102
 20
-2.036275362989194
 10
15.84702582069102
 20
-2.036275362989194
 97
        0
 97
        0
 75
     2
 76
     1
 98
        0
450
        0
451
        0
460
0.0
461
0.0
452
        0
462
0.0
453
        0
470

  0
ENDBLK
  5
520
330
51D
100
AcDbEntity
  8
0
100
AcDbBlockEnd
  0
BLOCK
  5
535
330
533
100
AcDbEntity
  8
0
100
AcDbBlockBegin
  2
block 13
 70
     0
 10
0.0
 20
0.0
 30
0.0
  3
block 13
  1

  0
POLYLINE
  5
537
330
533
100
AcDbEntity
  8
Livello 1
370
     0
100
AcDb2dPolyline
 66
     1
 10
0.0
 20
0.0
 30
0.0
  0
VERTEX
  5
538
330
537
100
AcDbEntity
  8
Livello 1
370
     0
100
AcDbVertex
100
AcDb2dVertex
 10
18.54822183781086
 20
-2.046455620148107
 30
0.0
  0
VERTEX
  5
539
330
537
100
AcDbEntity
  8
Livello 1
370
     0
100
AcDbVertex
100
AcDb2dVertex
 10
18.54567246715177
 20
-2.046455620148107
 30
0.0
  0
VERTEX
  5
53A
330
537
100
AcDbEntity
  8
Livello 1
370
     0
100
AcDbVertex
100
AcDb2dVertex
 10
18.40218424019112
 20
-2.12391859213395
 30
0.0
  0
VERTEX
  5
53B
330
537
100
AcDbEntity
  8
Livello 1
370
     0
100
AcDbVertex
100
AcDb2dVertex
 10
18.38061794245344
 20
-2.038824733648279
 30
0.0
  0
VERTEX
  5
53C
330
537
100
AcDbEntity
  8
Livello 1
370
     0
100
AcDbVertex
100
AcDb2dVertex
 10
18.56093424015143
 20
-1.942327609106431
 30
0.0
  0
VERTEX
  5
53D
330
537
100
AcDbEntity
  8
Livello 1
370
     0
100
AcDbVertex
100
AcDb2dVertex
 10
18.65615667936373
 20
-1.942327609106431
 30
0.0
  0
VERTEX
  5
53E
330
537
100
AcDbEntity
  8
Livello 1
370
     0
100
AcDbVertex
100
AcDb2dVertex
 10
18.65615667936373
 20
-2.767720810940013
 30
0.0
  0
VERTEX
  5
53F
330
537
100
AcDbEntity
  8
Livello 1
370
     0
100
AcDbVertex
100
AcDb2dVertex
 10
18.54822183781086
 20
-2.767720810940013
 30
0.0
  0
VERTEX
  5
540
330
537
100
AcDbEntity
  8
Livello 1
370
     0
100
AcDbVertex
100
AcDb2dVertex
 10
18.54822183781086
 20
-2.046455620148107
 30
0.0
  0
SEQEND
  5
541
330
537
100
AcDbEntity
  8
Livello 1
370
     0
  0
HATCH
  5
542
330
533
100
AcDbEntity
  8
Livello 1
 62
   250
420
  1842203
100
AcDbHatch
 10
0.0
 20
0.0
 30
0.0
210
0.0
220
0.0
230
1.0
  2
SOLID
 70
     1
 71
     0
 91
        1
 92
        1
 93
        8
 72
     1
 10
18.54822183781086
 20
-2.046455620148107
 11
18.54567246715177
 21
-2.046455620148107
 72
     1
 10
18.54567246715177
 20
-2.046455620148107
 11
18.40218424019112
 21
-2.12391859213395
 72
     1
 10
18.40218424019112
 20
-2.12391859213395
 11
18.38061794245344
 21
-2.038824733648279
 72
     1
 10
18.38061794245344
 20
-2.038824733648279
 11
18.56093424015143
 21
-1.942327609106431
 72
     1
 10
18.56093424015143
 20
-1.942327609106431
 11
18.65615667936373
 21
-1.942327609106431
 72
     1
 10
18.65615667936373
 20
-1.942327609106431
 11
18.65615667936373
 21
-2.767720810940013
 72
     1
 10
18.65615667936373
 20
-2.767720810940013
 11
18.54822183781086
 21
-2.767720810940013
 72
     1
 10
18.54822183781086
 20
-2.767720810940013
 11
18.54822183781086
 21
-2.046455620148107
 97
        0
 75
     2
 76
     1
 98
        0
450
        0
451
        0
460
0.0
461
0.0
452
        0
462
0.0
453
        0
470

  0
SPLINE
  5
543
330
533
100
AcDbEntity
  8
Livello 1
370
     0
100
AcDbSpline
210
0.0
220
0.0
230
1.0
 70
     9
 71
     3
 72
    59
 73
    55
 74
     0
 42
0.000000001
 43
0.0000000001
 40
0.0
 40
0.0
 40
0.0
 40
0.0
 40
1.0
 40
1.0
 40
1.0
 40
2.0
 40
2.0
 40
2.0
 40
3.0
 40
3.0
 40
3.0
 40
4.0
 40
4.0
 40
4.0
 40
5.0
 40
5.0
 40
5.0
 40
6.0
 40
6.0
 40
6.0
 40
7.0
 40
7.0
 40
7.0
 40
8.0
 40
8.0
 40
8.0
 40
9.0
 40
9.0
 40
9.0
 40
10.0
 40
10.0
 40
10.0
 40
11.0
 40
11.0
 40
11.0
 40
12.0
 40
12.0
 40
12.0
 40
13.0
 40
13.0
 40
13.0
 40
14.0
 40
14.0
 40
14.0
 40
15.0
 40
15.0
 40
15.0
 40
16.0
 40
16.0
 40
16.0
 40
17.0
 40
17.0
 40
17.0
 40
18.0
 40
18.0
 40
18.0
 40
18.0
 10
18.98381971096585
 20
-2.639459906024163
 30
0.0
 10
19.01558349133985
 20
-2.659785969387136
 30
0.0
 10
19.08923963281449
 20
-2.691532524283713
 30
0.0
 10
19.16668537932291
 20
-2.691532524283713
 30
0.0
 10
19.31017360628357
 20
-2.691532524283713
 30
0.0
 10
19.35461533804329
 20
-2.600099690105182
 30
0.0
 10
19.3533751036686
 20
-2.531525064471285
 30
0.0
 10
19.35210041833906
 20
-2.415976561896005
 30
0.0
 10
19.24795518181995
 20
-2.366453314295538
 30
0.0
 10
19.14002034026708
 20
-2.366453314295538
 30
0.0
 10
19.14002034026708
 20
-2.366453314295538
 30
0.0
 10
19.07780191580347
 20
-2.366453314295538
 30
0.0
 10
19.07780191580347
 20
-2.366453314295538
 30
0.0
 10
19.07780191580347
 20
-2.366453314295538
 30
0.0
 10
19.07780191580347
 20
-2.282634141139411
 30
0.0
 10
19.07780191580347
 20
-2.282634141139411
 30
0.0
 10
19.07780191580347
 20
-2.282634141139411
 30
0.0
 10
19.14002034026708
 20
-2.282634141139411
 30
0.0
 10
19.14002034026708
 20
-2.282634141139411
 30
0.0
 10
19.22129014276412
 20
-2.282634141139411
 30
0.0
 10
19.32416069395368
 20
-2.240741780038773
 30
0.0
 10
19.32416069395368
 20
-2.142952744689956
 30
0.0
 10
19.32416069395368
 20
-2.076927489715143
 30
0.0
 10
19.28223388189819
 20
-2.018515895762731
 30
0.0
 10
19.17939778166348
 20
-2.018515895762731
 30
0.0
 10
19.11335530121124
 20
-2.018515895762731
 30
0.0
 10
19.04986219141809
 20
-2.047713080000225
 30
0.0
 10
19.01430880601031
 20
-2.073120659203941
 30
0.0
 10
19.01430880601031
 20
-2.073120659203941
 30
0.0
 10
18.98509439629539
 20
-1.991850856706898
 30
0.0
 10
18.98509439629539
 20
-1.991850856706898
 30
0.0
 10
19.02829589368043
 20
-1.96010430181032
 30
0.0
 10
19.1120806158817
 20
-1.928357746913744
 30
0.0
 10
19.20096407940114
 20
-1.928357746913744
 30
0.0
 10
19.36350368439523
 20
-1.928357746913744
 30
0.0
 10
19.43715982586988
 20
-2.024872096933017
 30
0.0
 10
19.43715982586988
 20
-2.125176051986067
 30
0.0
 10
19.43715982586988
 20
-2.210252684994312
 30
0.0
 10
19.38637911841729
 20
-2.282634141139411
 30
0.0
 10
19.28478325255728
 20
-2.31946221187673
 30
0.0
 10
19.28478325255728
 20
-2.31946221187673
 30
0.0
 10
19.28478325255728
 20
-2.322011582535815
 30
0.0
 10
19.28478325255728
 20
-2.322011582535815
 30
0.0
 10
19.38637911841729
 20
-2.342320420421364
 30
0.0
 10
19.46892360624388
 20
-2.418508707077664
 30
0.0
 10
19.46892360624388
 20
-2.53407443513037
 30
0.0
 10
19.46892360624388
 20
-2.666142170557423
 30
0.0
 10
19.36605305505432
 20
-2.781690673132701
 30
0.0
 10
19.16796006465245
 20
-2.781690673132701
 30
0.0
 10
19.07525254514438
 20
-2.781690673132701
 30
0.0
 10
18.99398274264734
 20
-2.752476263417784
 30
0.0
 10
18.95336506687623
 20
-2.72581122436195
 30
0.0
 10
18.95336506687623
 20
-2.72581122436195
 30
0.0
 10
18.98381971096585
 20
-2.639459906024163
 30
0.0
 10
18.98381971096585
 20
-2.639459906024163
 30
0.0
  0
HATCH
  5
544
330
533
100
AcDbEntity
  8
Livello 1
 62
   250
420
  1842203
100
AcDbHatch
 10
0.0
 20
0.0
 30
0.0
210
0.0
220
0.0
230
1.0
  2
SOLID
 70
     1
 71
     0
 91
        1
 92
        1
 93
        1
 72
     4
 94
        3
 73
     0
 74
     0
 95
       59
 96
       55
 40
0.0
 40
0.0
 40
0.0
 40
0.0
 40
1.0
 40
1.0
 40
1.0
 40
2.0
 40
2.0
 40
2.0
 40
3.0
 40
3.0
 40
3.0
 40
4.0
 40
4.0
 40
4.0
 40
5.0
 40
5.0
 40
5.0
 40
6.0
 40
6.0
 40
6.0
 40
7.0
 40
7.0
 40
7.0
 40
8.0
 40
8.0
 40
8.0
 40
9.0
 40
9.0
 40
9.0
 40
10.0
 40
10.0
 40
10.0
 40
11.0
 40
11.0
 40
11.0
 40
12.0
 40
12.0
 40
12.0
 40
13.0
 40
13.0
 40
13.0
 40
14.0
 40
14.0
 40
14.0
 40
15.0
 40
15.0
 40
15.0
 40
16.0
 40
16.0
 40
16.0
 40
17.0
 40
17.0
 40
17.0
 40
18.0
 40
18.0
 40
18.0
 40
18.0
 10
18.98381971096585
 20
-2.639459906024163
 10
19.01558349133985
 20
-2.659785969387136
 10
19.08923963281449
 20
-2.691532524283713
 10
19.16668537932291
 20
-2.691532524283713
 10
19.31017360628357
 20
-2.691532524283713
 10
19.35461533804329
 20
-2.600099690105182
 10
19.3533751036686
 20
-2.531525064471285
 10
19.35210041833906
 20
-2.415976561896005
 10
19.24795518181995
 20
-2.366453314295538
 10
19.14002034026708
 20
-2.366453314295538
 10
19.14002034026708
 20
-2.366453314295538
 10
19.07780191580347
 20
-2.366453314295538
 10
19.07780191580347
 20
-2.366453314295538
 10
19.07780191580347
 20
-2.366453314295538
 10
19.07780191580347
 20
-2.282634141139411
 10
19.07780191580347
 20
-2.282634141139411
 10
19.07780191580347
 20
-2.282634141139411
 10
19.14002034026708
 20
-2.282634141139411
 10
19.14002034026708
 20
-2.282634141139411
 10
19.22129014276412
 20
-2.282634141139411
 10
19.32416069395368
 20
-2.240741780038773
 10
19.32416069395368
 20
-2.142952744689956
 10
19.32416069395368
 20
-2.076927489715143
 10
19.28223388189819
 20
-2.018515895762731
 10
19.17939778166348
 20
-2.018515895762731
 10
19.11335530121124
 20
-2.018515895762731
 10
19.04986219141809
 20
-2.047713080000225
 10
19.01430880601031
 20
-2.073120659203941
 10
19.01430880601031
 20
-2.073120659203941
 10
18.98509439629539
 20
-1.991850856706898
 10
18.98509439629539
 20
-1.991850856706898
 10
19.02829589368043
 20
-1.96010430181032
 10
19.1120806158817
 20
-1.928357746913744
 10
19.20096407940114
 20
-1.928357746913744
 10
19.36350368439523
 20
-1.928357746913744
 10
19.43715982586988
 20
-2.024872096933017
 10
19.43715982586988
 20
-2.125176051986067
 10
19.43715982586988
 20
-2.210252684994312
 10
19.38637911841729
 20
-2.282634141139411
 10
19.28478325255728
 20
-2.31946221187673
 10
19.28478325255728
 20
-2.31946221187673
 10
19.28478325255728
 20
-2.322011582535815
 10
19.28478325255728
 20
-2.322011582535815
 10
19.38637911841729
 20
-2.342320420421364
 10
19.46892360624388
 20
-2.418508707077664
 10
19.46892360624388
 20
-2.53407443513037
 10
19.46892360624388
 20
-2.666142170557423
 10
19.36605305505432
 20
-2.781690673132701
 10
19.16796006465245
 20
-2.781690673132701
 10
19.07525254514438
 20
-2.781690673132701
 10
18.99398274264734
 20
-2.752476263417784
 10
18.95336506687623
 20
-2.72581122436195
 10
18.95336506687623
 20
-2.72581122436195
 10
18.98381971096585
 20
-2.639459906024163
 10
18.98381971096585
 20
-2.639459906024163
 97
        0
 97
        0
 75
     2
 76
     1
 98
        0
450
        0
451
        0
460
0.0
461
0.0
452
        0
462
0.0
453
        0
470

  0
SPLINE
  5
545
330
533
100
AcDbEntity
  8
Livello 1
370
     0
100
AcDbSpline
210
0.0
220
0.0
230
1.0
 70
     9
 71
     3
 72
    17
 73
    13
 74
     0
 42
0.000000001
 43
0.0000000001
 40
0.0
 40
0.0
 40
0.0
 40
0.0
 40
1.0
 40
1.0
 40
1.0
 40
2.0
 40
2.0
 40
2.0
 40
3.0
 40
3.0
 40
3.0
 40
4.0
 40
4.0
 40
4.0
 40
4.0
 10
19.57182860838829
 20
-2.923904214763815
 30
0.0
 10
19.59976833277367
 20
-2.848990613437058
 30
0.0
 10
19.63408148380676
 20
-2.713116047498804
 30
0.0
 10
19.64803412052202
 20
-2.620425753468156
 30
0.0
 10
19.64803412052202
 20
-2.620425753468156
 30
0.0
 10
19.77247096944924
 20
-2.607713351127584
 30
0.0
 10
19.77247096944924
 20
-2.607713351127584
 30
0.0
 10
19.74329101068918
 20
-2.715665418157889
 30
0.0
 10
19.68741156191842
 20
-2.85660427445946
 30
0.0
 10
19.65185817651065
 20
-2.916290553741413
 30
0.0
 10
19.65185817651065
 20
-2.916290553741413
 30
0.0
 10
19.57182860838829
 20
-2.923904214763815
 30
0.0
 10
19.57182860838829
 20
-2.923904214763815
 30
0.0
  0
HATCH
  5
546
330
533
100
AcDbEntity
  8
Livello 1
 62
   250
420
  1842203
100
AcDbHatch
 10
0.0
 20
0.0
 30
0.0
210
0.0
220
0.0
230
1.0
  2
SOLID
 70
     1
 71
     0
 91
        1
 92
        1
 93
        1
 72
     4
 94
        3
 73
     0
 74
     0
 95
       17
 96
       13
 40
0.0
 40
0.0
 40
0.0
 40
0.0
 40
1.0
 40
1.0
 40
1.0
 40
2.0
 40
2.0
 40
2.0
 40
3.0
 40
3.0
 40
3.0
 40
4.0
 40
4.0
 40
4.0
 40
4.0
 10
19.57182860838829
 20
-2.923904214763815
 10
19.59976833277367
 20
-2.848990613437058
 10
19.63408148380676
 20
-2.713116047498804
 10
19.64803412052202
 20
-2.620425753468156
 10
19.64803412052202
 20
-2.620425753468156
 10
19.77247096944924
 20
-2.607713351127584
 10
19.77247096944924
 20
-2.607713351127584
 10
19.74329101068918
 20
-2.715665418157889
 10
19.68741156191842
 20
-2.85660427445946
 10
19.65185817651065
 20
-2.916290553741413
 10
19.65185817651065
 20
-2.916290553741413
 10
19.57182860838829
 20
-2.923904214763815
 10
19.57182860838829
 20
-2.923904214763815
 97
        0
 97
        0
 75
     2
 76
     1
 98
        0
450
        0
451
        0
460
0.0
461
0.0
452
        0
462
0.0
453
        0
470

  0
SPLINE
  5
547
330
533
100
AcDbEntity
  8
Livello 1
370
     0
100
AcDbSpline
210
0.0
220
0.0
230
1.0
 70
    11
 71
     3
 72
    50
 73
    46
 74
     0
 42
0.000000001
 43
0.0000000001
 40
0.0
 40
0.0
 40
0.0
 40
0.0
 40
1.0
 40
1.0
 40
1.0
 40
2.0
 40
2.0
 40
2.0
 40
3.0
 40
3.0
 40
3.0
 40
4.0
 40
4.0
 40
4.0
 40
5.0
 40
5.0
 40
5.0
 40
6.0
 40
6.0
 40
6.0
 40
7.0
 40
7.0
 40
7.0
 40
8.0
 40
8.0
 40
8.0
 40
9.0
 40
9.0
 40
9.0
 40
10.0
 40
10.0
 40
10.0
 40
11.0
 40
11.0
 40
11.0
 40
12.0
 40
12.0
 40
12.0
 40
13.0
 40
13.0
 40
13.0
 40
14.0
 40
14.0
 40
14.0
 40
15.0
 40
15.0
 40
15.0
 40
15.0
 10
20.36423502095061
 20
-2.03629258846662
 30
0.0
 10
20.36423502095061
 20
-2.03629258846662
 30
0.0
 10
20.04931884264392
 20
-2.03629258846662
 30
0.0
 10
20.04931884264392
 20
-2.03629258846662
 30
0.0
 10
20.04931884264392
 20
-2.03629258846662
 30
0.0
 10
20.01755506226992
 20
-2.248355441061174
 30
0.0
 10
20.01755506226992
 20
-2.248355441061174
 30
0.0
 10
20.03660644030335
 20
-2.245823295879516
 30
0.0
 10
20.05438313300724
 20
-2.243273925220431
 30
0.0
 10
20.0848722280517
 20
-2.243273925220431
 30
0.0
 10
20.14836533784485
 20
-2.243273925220431
 30
0.0
 10
20.21185844763801
 20
-2.257243787413119
 30
0.0
 10
20.26263915509059
 20
-2.287715656980154
 30
0.0
 10
20.32740695021328
 20
-2.324543727717474
 30
0.0
 10
20.38073702832495
 20
-2.395650498533031
 30
0.0
 10
20.38073702832495
 20
-2.499778509574708
 30
0.0
 10
20.38073702832495
 20
-2.661060654716679
 30
0.0
 10
20.2524761234091
 20
-2.781690673132701
 30
0.0
 10
20.07343451104067
 20
-2.781690673132701
 30
0.0
 10
19.98327636219168
 20
-2.781690673132701
 30
0.0
 10
19.90707085005795
 20
-2.756300319406411
 30
0.0
 10
19.8677278596164
 20
-2.730892740202693
 30
0.0
 10
19.8677278596164
 20
-2.730892740202693
 30
0.0
 10
19.89566758400177
 20
-2.645816107194447
 30
0.0
 10
19.89566758400177
 20
-2.645816107194447
 30
0.0
 10
19.92994628408001
 20
-2.666142170557423
 30
0.0
 10
19.99722899890694
 20
-2.691532524283713
 30
0.0
 10
20.07215982571113
 20
-2.691532524283713
 30
0.0
 10
20.17757974755977
 20
-2.691532524283713
 30
0.0
 10
20.26773789640876
 20
-2.622957898649815
 30
0.0
 10
20.26773789640876
 20
-2.512490911915279
 30
0.0
 10
20.26646321107922
 20
-2.405813530214518
 30
0.0
 10
20.19535644026366
 20
-2.329625243558219
 30
0.0
 10
20.03026746461049
 20
-2.329625243558219
 30
0.0
 10
19.98327636219168
 20
-2.329625243558219
 30
0.0
 10
19.94644829145436
 20
-2.334706759398962
 30
0.0
 10
19.9159591964099
 20
-2.338513589910162
 30
0.0
 10
19.9159591964099
 20
-2.338513589910162
 30
0.0
 10
19.96932372547642
 20
-1.942327609106431
 30
0.0
 10
19.96932372547642
 20
-1.942327609106431
 30
0.0
 10
19.96932372547642
 20
-1.942327609106431
 30
0.0
 10
20.36423502095061
 20
-1.942327609106431
 30
0.0
 10
20.36423502095061
 20
-1.942327609106431
 30
0.0
 10
20.36423502095061
 20
-1.942327609106431
 30
0.0
 10
20.36423502095061
 20
-2.03629258846662
 30
0.0
 10
20.36423502095061
 20
-2.03629258846662
 30
0.0
  0
HATCH
  5
548
330
533
100
AcDbEntity
  8
Livello 1
 62
   250
420
  1842203
100
AcDbHatch
 10
0.0
 20
0.0
 30
0.0
210
0.0
220
0.0
230
1.0
  2
SOLID
 70
     1
 71
     0
 91
        1
 92
        1
 93
        1
 72
     4
 94
        3
 73
     0
 74
     0
 95
       50
 96
       46
 40
0.0
 40
0.0
 40
0.0
 40
0.0
 40
1.0
 40
1.0
 40
1.0
 40
2.0
 40
2.0
 40
2.0
 40
3.0
 40
3.0
 40
3.0
 40
4.0
 40
4.0
 40
4.0
 40
5.0
 40
5.0
 40
5.0
 40
6.0
 40
6.0
 40
6.0
 40
7.0
 40
7.0
 40
7.0
 40
8.0
 40
8.0
 40
8.0
 40
9.0
 40
9.0
 40
9.0
 40
10.0
 40
10.0
 40
10.0
 40
11.0
 40
11.0
 40
11.0
 40
12.0
 40
12.0
 40
12.0
 40
13.0
 40
13.0
 40
13.0
 40
14.0
 40
14.0
 40
14.0
 40
15.0
 40
15.0
 40
15.0
 40
15.0
 10
20.36423502095061
 20
-2.03629258846662
 10
20.36423502095061
 20
-2.03629258846662
 10
20.04931884264392
 20
-2.03629258846662
 10
20.04931884264392
 20
-2.03629258846662
 10
20.04931884264392
 20
-2.03629258846662
 10
20.01755506226992
 20
-2.248355441061174
 10
20.01755506226992
 20
-2.248355441061174
 10
20.03660644030335
 20
-2.245823295879516
 10
20.05438313300724
 20
-2.243273925220431
 10
20.0848722280517
 20
-2.243273925220431
 10
20.14836533784485
 20
-2.243273925220431
 10
20.21185844763801
 20
-2.257243787413119
 10
20.26263915509059
 20
-2.287715656980154
 10
20.32740695021328
 20
-2.324543727717474
 10
20.38073702832495
 20
-2.395650498533031
 10
20.38073702832495
 20
-2.499778509574708
 10
20.38073702832495
 20
-2.661060654716679
 10
20.2524761234091
 20
-2.781690673132701
 10
20.07343451104067
 20
-2.781690673132701
 10
19.98327636219168
 20
-2.781690673132701
 10
19.90707085005795
 20
-2.756300319406411
 10
19.8677278596164
 20
-2.730892740202693
 10
19.8677278596164
 20
-2.730892740202693
 10
19.89566758400177
 20
-2.645816107194447
 10
19.89566758400177
 20
-2.645816107194447
 10
19.92994628408001
 20
-2.666142170557423
 10
19.99722899890694
 20
-2.691532524283713
 10
20.07215982571113
 20
-2.691532524283713
 10
20.17757974755977
 20
-2.691532524283713
 10
20.26773789640876
 20
-2.622957898649815
 10
20.26773789640876
 20
-2.512490911915279
 10
20.26646321107922
 20
-2.405813530214518
 10
20.19535644026366
 20
-2.329625243558219
 10
20.03026746461049
 20
-2.329625243558219
 10
19.98327636219168
 20
-2.329625243558219
 10
19.94644829145436
 20
-2.334706759398962
 10
19.9159591964099
 20
-2.338513589910162
 10
19.9159591964099
 20
-2.338513589910162
 10
19.96932372547642
 20
-1.942327609106431
 10
19.96932372547642
 20
-1.942327609106431
 10
19.96932372547642
 20
-1.942327609106431
 10
20.36423502095061
 20
-1.942327609106431
 10
20.36423502095061
 20
-1.942327609106431
 10
20.36423502095061
 20
-1.942327609106431
 10
20.36423502095061
 20
-2.03629258846662
 10
20.36423502095061
 20
-2.03629258846662
 97
        0
 97
        0
 75
     2
 76
     1
 98
        0
450
        0
451
        0
460
0.0
461
0.0
452
        0
462
0.0
453
        0
470

  0
ENDBLK
  5
536
330
533
100
AcDbEntity
  8
0
100
AcDbBlockEnd
  0
BLOCK
  5
54B
330
549
100
AcDbEntity
  8
0
100
AcDbBlockBegin
  2
block 14
 70
     0
 10
0.0
 20
0.0
 30
0.0
  3
block 14
  1

  0
POLYLINE
  5
54D
330
549
100
AcDbEntity
  8
Livello 1
370
     0
100
AcDb2dPolyline
 66
     1
 10
0.0
 20
0.0
 30
0.0
  0
VERTEX
  5
54E
330
54D
100
AcDbEntity
  8
Livello 1
370
     0
100
AcDbVertex
100
AcDb2dVertex
 10
0.1532378471839128
 20
-6.623626707328467
 30
0.0
  0
VERTEX
  5
54F
330
54D
100
AcDbEntity
  8
Livello 1
370
     0
100
AcDbVertex
100
AcDb2dVertex
 10
0.2268939886585543
 20
-6.623626707328467
 30
0.0
  0
VERTEX
  5
550
330
54D
100
AcDbEntity
  8
Livello 1
370
     0
100
AcDbVertex
100
AcDb2dVertex
 10
0.9786310490174951
 20
-6.983001842872303
 30
0.0
  0
VERTEX
  5
551
330
54D
100
AcDbEntity
  8
Livello 1
370
     0
100
AcDbVertex
100
AcDb2dVertex
 10
0.9786310490174951
 20
-7.098550345447584
 30
0.0
  0
VERTEX
  5
552
330
54D
100
AcDbEntity
  8
Livello 1
370
     0
100
AcDbVertex
100
AcDb2dVertex
 10
0.2484775118736445
 20
-6.74044989523329
 30
0.0
  0
VERTEX
  5
553
330
54D
100
AcDbEntity
  8
Livello 1
370
     0
100
AcDbVertex
100
AcDb2dVertex
 10
0.2459281412145596
 20
-6.74044989523329
 30
0.0
  0
VERTEX
  5
554
330
54D
100
AcDbEntity
  8
Livello 1
370
     0
100
AcDbVertex
100
AcDb2dVertex
 10
0.2459281412145596
 20
-7.144266762536849
 30
0.0
  0
VERTEX
  5
555
330
54D
100
AcDbEntity
  8
Livello 1
370
     0
100
AcDbVertex
100
AcDb2dVertex
 10
0.1532378471839128
 20
-7.144266762536849
 30
0.0
  0
VERTEX
  5
556
330
54D
100
AcDbEntity
  8
Livello 1
370
     0
100
AcDbVertex
100
AcDb2dVertex
 10
0.1532378471839128
 20
-6.623626707328467
 30
0.0
  0
SEQEND
  5
557
330
54D
100
AcDbEntity
  8
Livello 1
370
     0
  0
HATCH
  5
558
330
549
100
AcDbEntity
  8
Livello 1
 62
   250
420
  1842203
100
AcDbHatch
 10
0.0
 20
0.0
 30
0.0
210
0.0
220
0.0
230
1.0
  2
SOLID
 70
     1
 71
     0
 91
        1
 92
        1
 93
        8
 72
     1
 10
0.1532378471839128
 20
-6.623626707328467
 11
0.2268939886585543
 21
-6.623626707328467
 72
     1
 10
0.2268939886585543
 20
-6.623626707328467
 11
0.9786310490174951
 21
-6.983001842872303
 72
     1
 10
0.9786310490174951
 20
-6.983001842872303
 11
0.9786310490174951
 21
-7.098550345447584
 72
     1
 10
0.9786310490174951
 20
-7.098550345447584
 11
0.2484775118736445
 21
-6.74044989523329
 72
     1
 10
0.2484775118736445
 20
-6.74044989523329
 11
0.2459281412145596
 21
-6.74044989523329
 72
     1
 10
0.2459281412145596
 20
-6.74044989523329
 11
0.2459281412145596
 21
-7.144266762536849
 72
     1
 10
0.2459281412145596
 20
-7.144266762536849
 11
0.1532378471839128
 21
-7.144266762536849
 72
     1
 10
0.1532378471839128
 20
-7.144266762536849
 11
0.1532378471839128
 21
-6.623626707328467
 97
        0
 75
     2
 76
     1
 98
        0
450
        0
451
        0
460
0.0
461
0.0
452
        0
462
0.0
453
        0
470

  0
SPLINE
  5
559
330
549
100
AcDbEntity
  8
Livello 1
370
     0
100
AcDbSpline
210
0.0
220
0.0
230
1.0
 70
     9
 71
     3
 72
    17
 73
    13
 74
     0
 42
0.000000001
 43
0.0000000001
 40
0.0
 40
0.0
 40
0.0
 40
0.0
 40
1.0
 40
1.0
 40
1.0
 40
2.0
 40
2.0
 40
2.0
 40
3.0
 40
3.0
 40
3.0
 40
4.0
 40
4.0
 40
4.0
 40
4.0
 10
1.134814452841296
 20
-6.544854599058231
 30
0.0
 10
1.059900851514539
 20
-6.516914874672854
 30
0.0
 10
0.9240262855762852
 20
-6.482618949117192
 30
0.0
 10
0.8313359915456381
 20
-6.468649086924504
 30
0.0
 10
0.8313359915456381
 20
-6.468649086924504
 30
0.0
 10
0.8186235892050662
 20
-6.344212237997277
 30
0.0
 10
0.8186235892050662
 20
-6.344212237997277
 30
0.0
 10
0.9265756562353699
 20
-6.373409422234772
 30
0.0
 10
1.06751451253694
 20
-6.429288871005523
 30
0.0
 10
1.127200791818893
 20
-6.464842256413302
 30
0.0
 10
1.127200791818893
 20
-6.464842256413302
 30
0.0
 10
1.134814452841296
 20
-6.544854599058231
 30
0.0
 10
1.134814452841296
 20
-6.544854599058231
 30
0.0
  0
HATCH
  5
55A
330
549
100
AcDbEntity
  8
Livello 1
 62
   250
420
  1842203
100
AcDbHatch
 10
0.0
 20
0.0
 30
0.0
210
0.0
220
0.0
230
1.0
  2
SOLID
 70
     1
 71
     0
 91
        1
 92
        1
 93
        1
 72
     4
 94
        3
 73
     0
 74
     0
 95
       17
 96
       13
 40
0.0
 40
0.0
 40
0.0
 40
0.0
 40
1.0
 40
1.0
 40
1.0
 40
2.0
 40
2.0
 40
2.0
 40
3.0
 40
3.0
 40
3.0
 40
4.0
 40
4.0
 40
4.0
 40
4.0
 10
1.134814452841296
 20
-6.544854599058231
 10
1.059900851514539
 20
-6.516914874672854
 10
0.9240262855762852
 20
-6.482618949117192
 10
0.8313359915456381
 20
-6.468649086924504
 10
0.8313359915456381
 20
-6.468649086924504
 10
0.8186235892050662
 20
-6.344212237997277
 10
0.8186235892050662
 20
-6.344212237997277
 10
0.9265756562353699
 20
-6.373409422234772
 10
1.06751451253694
 20
-6.429288871005523
 10
1.127200791818893
 20
-6.464842256413302
 10
1.127200791818893
 20
-6.464842256413302
 10
1.134814452841296
 20
-6.544854599058231
 10
1.134814452841296
 20
-6.544854599058231
 97
        0
 97
        0
 75
     2
 76
     1
 98
        0
450
        0
451
        0
460
0.0
461
0.0
452
        0
462
0.0
453
        0
470

  0
SPLINE
  5
55B
330
549
100
AcDbEntity
  8
Livello 1
370
     0
100
AcDbSpline
210
0.0
220
0.0
230
1.0
 70
    11
 71
     3
 72
    50
 73
    46
 74
     0
 42
0.000000001
 43
0.0000000001
 40
0.0
 40
0.0
 40
0.0
 40
0.0
 40
1.0
 40
1.0
 40
1.0
 40
2.0
 40
2.0
 40
2.0
 40
3.0
 40
3.0
 40
3.0
 40
4.0
 40
4.0
 40
4.0
 40
5.0
 40
5.0
 40
5.0
 40
6.0
 40
6.0
 40
6.0
 40
7.0
 40
7.0
 40
7.0
 40
8.0
 40
8.0
 40
8.0
 40
9.0
 40
9.0
 40
9.0
 40
10.0
 40
10.0
 40
10.0
 40
11.0
 40
11.0
 40
11.0
 40
12.0
 40
12.0
 40
12.0
 40
13.0
 40
13.0
 40
13.0
 40
14.0
 40
14.0
 40
14.0
 40
15.0
 40
15.0
 40
15.0
 40
15.0
 10
0.2472028265441021
 20
-5.752448186495914
 30
0.0
 10
0.2472028265441021
 20
-5.752448186495914
 30
0.0
 10
0.2472028265441021
 20
-6.067364364802602
 30
0.0
 10
0.2472028265441021
 20
-6.067364364802602
 30
0.0
 10
0.2472028265441021
 20
-6.067364364802602
 30
0.0
 10
0.4592656791386558
 20
-6.09911091969918
 30
0.0
 10
0.4592656791386558
 20
-6.09911091969918
 30
0.0
 10
0.4567335339569972
 20
-6.080059541665747
 30
0.0
 10
0.4541841632979124
 20
-6.062282848961859
 30
0.0
 10
0.4541841632979124
 20
-6.031810979394825
 30
0.0
 10
0.4541841632979124
 20
-5.96831786960167
 30
0.0
 10
0.4681540254906004
 20
-5.904824759808514
 30
0.0
 10
0.4986258950576353
 20
-5.854026826878508
 30
0.0
 10
0.535453965794956
 20
-5.789276257233235
 30
0.0
 10
0.6065607366105126
 20
-5.735928953644141
 30
0.0
 10
0.7106887476521889
 20
-5.735928953644141
 30
0.0
 10
0.8719708927941599
 20
-5.735928953644141
 30
0.0
 10
0.992600911210183
 20
-5.864189858559992
 30
0.0
 10
0.992600911210183
 20
-6.043231470928428
 30
0.0
 10
0.992600911210183
 20
-6.133389619777416
 30
0.0
 10
0.9672105574838916
 20
-6.209595131911142
 30
0.0
 10
0.9418029782801742
 20
-6.248955347830121
 30
0.0
 10
0.9418029782801742
 20
-6.248955347830121
 30
0.0
 10
0.8567263452719295
 20
-6.221015623444745
 30
0.0
 10
0.8567263452719295
 20
-6.221015623444745
 30
0.0
 10
0.8770524086349034
 20
-6.186736923366509
 30
0.0
 10
0.9024427623611948
 20
-6.119419757584728
 30
0.0
 10
0.9024427623611948
 20
-6.044506156257969
 30
0.0
 10
0.9024427623611948
 20
-5.939103459886751
 30
0.0
 10
0.8338681367272966
 20
-5.848945311037762
 30
0.0
 10
0.7234011499927608
 20
-5.848945311037762
 30
0.0
 10
0.6167237682919997
 20
-5.850219996367306
 30
0.0
 10
0.5405354816356995
 20
-5.921326767182862
 30
0.0
 10
0.5405354816356995
 20
-6.086415742836034
 30
0.0
 10
0.5405354816356995
 20
-6.133389619777416
 30
0.0
 10
0.545616997476443
 20
-6.170217690514737
 30
0.0
 10
0.549423827987644
 20
-6.200689560081772
 30
0.0
 10
0.549423827987644
 20
-6.200689560081772
 30
0.0
 10
0.1532378471839128
 20
-6.147359481970105
 30
0.0
 10
0.1532378471839128
 20
-6.147359481970105
 30
0.0
 10
0.1532378471839128
 20
-6.147359481970105
 30
0.0
 10
0.1532378471839128
 20
-5.752448186495914
 30
0.0
 10
0.1532378471839128
 20
-5.752448186495914
 30
0.0
 10
0.1532378471839128
 20
-5.752448186495914
 30
0.0
 10
0.2472028265441021
 20
-5.752448186495914
 30
0.0
 10
0.2472028265441021
 20
-5.752448186495914
 30
0.0
  0
HATCH
  5
55C
330
549
100
AcDbEntity
  8
Livello 1
 62
   250
420
  1842203
100
AcDbHatch
 10
0.0
 20
0.0
 30
0.0
210
0.0
220
0.0
230
1.0
  2
SOLID
 70
     1
 71
     0
 91
        1
 92
        1
 93
        1
 72
     4
 94
        3
 73
     0
 74
     0
 95
       50
 96
       46
 40
0.0
 40
0.0
 40
0.0
 40
0.0
 40
1.0
 40
1.0
 40
1.0
 40
2.0
 40
2.0
 40
2.0
 40
3.0
 40
3.0
 40
3.0
 40
4.0
 40
4.0
 40
4.0
 40
5.0
 40
5.0
 40
5.0
 40
6.0
 40
6.0
 40
6.0
 40
7.0
 40
7.0
 40
7.0
 40
8.0
 40
8.0
 40
8.0
 40
9.0
 40
9.0
 40
9.0
 40
10.0
 40
10.0
 40
10.0
 40
11.0
 40
11.0
 40
11.0
 40
12.0
 40
12.0
 40
12.0
 40
13.0
 40
13.0
 40
13.0
 40
14.0
 40
14.0
 40
14.0
 40
15.0
 40
15.0
 40
15.0
 40
15.0
 10
0.2472028265441021
 20
-5.752448186495914
 10
0.2472028265441021
 20
-5.752448186495914
 10
0.2472028265441021
 20
-6.067364364802602
 10
0.2472028265441021
 20
-6.067364364802602
 10
0.2472028265441021
 20
-6.067364364802602
 10
0.4592656791386558
 20
-6.09911091969918
 10
0.4592656791386558
 20
-6.09911091969918
 10
0.4567335339569972
 20
-6.080059541665747
 10
0.4541841632979124
 20
-6.062282848961859
 10
0.4541841632979124
 20
-6.031810979394825
 10
0.4541841632979124
 20
-5.96831786960167
 10
0.4681540254906004
 20
-5.904824759808514
 10
0.4986258950576353
 20
-5.854026826878508
 10
0.535453965794956
 20
-5.789276257233235
 10
0.6065607366105126
 20
-5.735928953644141
 10
0.7106887476521889
 20
-5.735928953644141
 10
0.8719708927941599
 20
-5.735928953644141
 10
0.992600911210183
 20
-5.864189858559992
 10
0.992600911210183
 20
-6.043231470928428
 10
0.992600911210183
 20
-6.133389619777416
 10
0.9672105574838916
 20
-6.209595131911142
 10
0.9418029782801742
 20
-6.248955347830121
 10
0.9418029782801742
 20
-6.248955347830121
 10
0.8567263452719295
 20
-6.221015623444745
 10
0.8567263452719295
 20
-6.221015623444745
 10
0.8770524086349034
 20
-6.186736923366509
 10
0.9024427623611948
 20
-6.119419757584728
 10
0.9024427623611948
 20
-6.044506156257969
 10
0.9024427623611948
 20
-5.939103459886751
 10
0.8338681367272966
 20
-5.848945311037762
 10
0.7234011499927608
 20
-5.848945311037762
 10
0.6167237682919997
 20
-5.850219996367306
 10
0.5405354816356995
 20
-5.921326767182862
 10
0.5405354816356995
 20
-6.086415742836034
 10
0.5405354816356995
 20
-6.133389619777416
 10
0.545616997476443
 20
-6.170217690514737
 10
0.549423827987644
 20
-6.200689560081772
 10
0.549423827987644
 20
-6.200689560081772
 10
0.1532378471839128
 20
-6.147359481970105
 10
0.1532378471839128
 20
-6.147359481970105
 10
0.1532378471839128
 20
-6.147359481970105
 10
0.1532378471839128
 20
-5.752448186495914
 10
0.1532378471839128
 20
-5.752448186495914
 10
0.1532378471839128
 20
-5.752448186495914
 10
0.2472028265441021
 20
-5.752448186495914
 10
0.2472028265441021
 20
-5.752448186495914
 97
        0
 97
        0
 75
     2
 76
     1
 98
        0
450
        0
451
        0
460
0.0
461
0.0
452
        0
462
0.0
453
        0
470

  0
ENDBLK
  5
54C
330
549
100
AcDbEntity
  8
0
100
AcDbBlockEnd
  0
BLOCK
  5
55F
330
55D
100
AcDbEntity
  8
0
100
AcDbBlockBegin
  2
block 15
 70
     0
 10
0.0
 20
0.0
 30
0.0
  3
block 15
  1

  0
POLYLINE
  5
561
330
55D
100
AcDbEntity
  8
Livello 1
370
     0
100
AcDb2dPolyline
 66
     1
 10
0.0
 20
0.0
 30
0.0
  0
VERTEX
  5
562
330
561
100
AcDbEntity
  8
Livello 1
370
     0
100
AcDbVertex
100
AcDb2dVertex
 10
6.959265134978932
 20
-6.791368406505282
 30
0.0
  0
VERTEX
  5
563
330
561
100
AcDbEntity
  8
Livello 1
370
     0
100
AcDbVertex
100
AcDb2dVertex
 10
7.032921276453574
 20
-6.791368406505282
 30
0.0
  0
VERTEX
  5
564
330
561
100
AcDbEntity
  8
Livello 1
370
     0
100
AcDbVertex
100
AcDb2dVertex
 10
7.784658336812514
 20
-7.150743542049119
 30
0.0
  0
VERTEX
  5
565
330
561
100
AcDbEntity
  8
Livello 1
370
     0
100
AcDbVertex
100
AcDb2dVertex
 10
7.784658336812514
 20
-7.266292044624397
 30
0.0
  0
VERTEX
  5
566
330
561
100
AcDbEntity
  8
Livello 1
370
     0
100
AcDbVertex
100
AcDb2dVertex
 10
7.054504799668665
 20
-6.908191594410105
 30
0.0
  0
VERTEX
  5
567
330
561
100
AcDbEntity
  8
Livello 1
370
     0
100
AcDbVertex
100
AcDb2dVertex
 10
7.05195542900958
 20
-6.908191594410105
 30
0.0
  0
VERTEX
  5
568
330
561
100
AcDbEntity
  8
Livello 1
370
     0
100
AcDbVertex
100
AcDb2dVertex
 10
7.05195542900958
 20
-7.312008461713664
 30
0.0
  0
VERTEX
  5
569
330
561
100
AcDbEntity
  8
Livello 1
370
     0
100
AcDbVertex
100
AcDb2dVertex
 10
6.959265134978932
 20
-7.312008461713664
 30
0.0
  0
VERTEX
  5
56A
330
561
100
AcDbEntity
  8
Livello 1
370
     0
100
AcDbVertex
100
AcDb2dVertex
 10
6.959265134978932
 20
-6.791368406505282
 30
0.0
  0
SEQEND
  5
56B
330
561
100
AcDbEntity
  8
Livello 1
370
     0
  0
HATCH
  5
56C
330
55D
100
AcDbEntity
  8
Livello 1
 62
   250
420
  1842203
100
AcDbHatch
 10
0.0
 20
0.0
 30
0.0
210
0.0
220
0.0
230
1.0
  2
SOLID
 70
     1
 71
     0
 91
        1
 92
        1
 93
        8
 72
     1
 10
6.959265134978932
 20
-6.791368406505282
 11
7.032921276453574
 21
-6.791368406505282
 72
     1
 10
7.032921276453574
 20
-6.791368406505282
 11
7.784658336812514
 21
-7.150743542049119
 72
     1
 10
7.784658336812514
 20
-7.150743542049119
 11
7.784658336812514
 21
-7.266292044624397
 72
     1
 10
7.784658336812514
 20
-7.266292044624397
 11
7.054504799668665
 21
-6.908191594410105
 72
     1
 10
7.054504799668665
 20
-6.908191594410105
 11
7.05195542900958
 21
-6.908191594410105
 72
     1
 10
7.05195542900958
 20
-6.908191594410105
 11
7.05195542900958
 21
-7.312008461713664
 72
     1
 10
7.05195542900958
 20
-7.312008461713664
 11
6.959265134978932
 21
-7.312008461713664
 72
     1
 10
6.959265134978932
 20
-7.312008461713664
 11
6.959265134978932
 21
-6.791368406505282
 97
        0
 75
     2
 76
     1
 98
        0
450
        0
451
        0
460
0.0
461
0.0
452
        0
462
0.0
453
        0
470

  0
SPLINE
  5
56D
330
55D
100
AcDbEntity
  8
Livello 1
370
     0
100
AcDbSpline
210
0.0
220
0.0
230
1.0
 70
     9
 71
     3
 72
    17
 73
    13
 74
     0
 42
0.000000001
 43
0.0000000001
 40
0.0
 40
0.0
 40
0.0
 40
0.0
 40
1.0
 40
1.0
 40
1.0
 40
2.0
 40
2.0
 40
2.0
 40
3.0
 40
3.0
 40
3.0
 40
4.0
 40
4.0
 40
4.0
 40
4.0
 10
7.940841740636317
 20
-6.712596298235044
 30
0.0
 10
7.865928139309558
 20
-6.684656573849668
 30
0.0
 10
7.730053573371306
 20
-6.650360648294007
 30
0.0
 10
7.637363279340659
 20
-6.636390786101318
 30
0.0
 10
7.637363279340659
 20
-6.636390786101318
 30
0.0
 10
7.624650877000087
 20
-6.511953937174093
 30
0.0
 10
7.624650877000087
 20
-6.511953937174093
 30
0.0
 10
7.732602944030392
 20
-6.541151121411588
 30
0.0
 10
7.873541800331961
 20
-6.597030570182338
 30
0.0
 10
7.933228079613914
 20
-6.632583955590116
 30
0.0
 10
7.933228079613914
 20
-6.632583955590116
 30
0.0
 10
7.940841740636317
 20
-6.712596298235044
 30
0.0
 10
7.940841740636317
 20
-6.712596298235044
 30
0.0
  0
HATCH
  5
56E
330
55D
100
AcDbEntity
  8
Livello 1
 62
   250
420
  1842203
100
AcDbHatch
 10
0.0
 20
0.0
 30
0.0
210
0.0
220
0.0
230
1.0
  2
SOLID
 70
     1
 71
     0
 91
        1
 92
        1
 93
        1
 72
     4
 94
        3
 73
     0
 74
     0
 95
       17
 96
       13
 40
0.0
 40
0.0
 40
0.0
 40
0.0
 40
1.0
 40
1.0
 40
1.0
 40
2.0
 40
2.0
 40
2.0
 40
3.0
 40
3.0
 40
3.0
 40
4.0
 40
4.0
 40
4.0
 40
4.0
 10
7.940841740636317
 20
-6.712596298235044
 10
7.865928139309558
 20
-6.684656573849668
 10
7.730053573371306
 20
-6.650360648294007
 10
7.637363279340659
 20
-6.636390786101318
 10
7.637363279340659
 20
-6.636390786101318
 10
7.624650877000087
 20
-6.511953937174093
 10
7.624650877000087
 20
-6.511953937174093
 10
7.732602944030392
 20
-6.541151121411588
 10
7.873541800331961
 20
-6.597030570182338
 10
7.933228079613914
 20
-6.632583955590116
 10
7.933228079613914
 20
-6.632583955590116
 10
7.940841740636317
 20
-6.712596298235044
 10
7.940841740636317
 20
-6.712596298235044
 97
        0
 97
        0
 75
     2
 76
     1
 98
        0
450
        0
451
        0
460
0.0
461
0.0
452
        0
462
0.0
453
        0
470

  0
SPLINE
  5
56F
330
55D
100
AcDbEntity
  8
Livello 1
370
     0
100
AcDbSpline
210
0.0
220
0.0
230
1.0
 70
    11
 71
     3
 72
    50
 73
    46
 74
     0
 42
0.000000001
 43
0.0000000001
 40
0.0
 40
0.0
 40
0.0
 40
0.0
 40
1.0
 40
1.0
 40
1.0
 40
2.0
 40
2.0
 40
2.0
 40
3.0
 40
3.0
 40
3.0
 40
4.0
 40
4.0
 40
4.0
 40
5.0
 40
5.0
 40
5.0
 40
6.0
 40
6.0
 40
6.0
 40
7.0
 40
7.0
 40
7.0
 40
8.0
 40
8.0
 40
8.0
 40
9.0
 40
9.0
 40
9.0
 40
10.0
 40
10.0
 40
10.0
 40
11.0
 40
11.0
 40
11.0
 40
12.0
 40
12.0
 40
12.0
 40
13.0
 40
13.0
 40
13.0
 40
14.0
 40
14.0
 40
14.0
 40
15.0
 40
15.0
 40
15.0
 40
15.0
 10
7.053230114339121
 20
-5.92018988567273
 30
0.0
 10
7.053230114339121
 20
-5.92018988567273
 30
0.0
 10
7.053230114339121
 20
-6.235106063979418
 30
0.0
 10
7.053230114339121
 20
-6.235106063979418
 30
0.0
 10
7.053230114339121
 20
-6.235106063979418
 30
0.0
 10
7.265292966933675
 20
-6.266852618875994
 30
0.0
 10
7.265292966933675
 20
-6.266852618875994
 30
0.0
 10
7.262760821752017
 20
-6.247801240842562
 30
0.0
 10
7.260211451092931
 20
-6.230024548138673
 30
0.0
 10
7.260211451092931
 20
-6.199552678571639
 30
0.0
 10
7.260211451092931
 20
-6.136059568778484
 30
0.0
 10
7.274181313285621
 20
-6.072566458985329
 30
0.0
 10
7.304653182852656
 20
-6.021768526055321
 30
0.0
 10
7.341481253589977
 20
-5.95701795641005
 30
0.0
 10
7.412588024405532
 20
-5.903670652820956
 30
0.0
 10
7.516716035447208
 20
-5.903670652820956
 30
0.0
 10
7.677998180589181
 20
-5.903670652820956
 30
0.0
 10
7.798628199005202
 20
-6.031931557736808
 30
0.0
 10
7.798628199005202
 20
-6.210973170105242
 30
0.0
 10
7.798628199005202
 20
-6.301131318954231
 30
0.0
 10
7.773237845278911
 20
-6.377336831087957
 30
0.0
 10
7.747830266075194
 20
-6.416697047006936
 30
0.0
 10
7.747830266075194
 20
-6.416697047006936
 30
0.0
 10
7.662753633066949
 20
-6.388757322621561
 30
0.0
 10
7.662753633066949
 20
-6.388757322621561
 30
0.0
 10
7.683079696429923
 20
-6.354478622543325
 30
0.0
 10
7.708470050156215
 20
-6.287161456761542
 30
0.0
 10
7.708470050156215
 20
-6.212247855434784
 30
0.0
 10
7.708470050156215
 20
-6.106845159063566
 30
0.0
 10
7.639895424522317
 20
-6.016687010214576
 30
0.0
 10
7.52942843778778
 20
-6.016687010214576
 30
0.0
 10
7.422751056087019
 20
-6.017961695544121
 30
0.0
 10
7.346562769430719
 20
-6.089068466359677
 30
0.0
 10
7.346562769430719
 20
-6.254157442012848
 30
0.0
 10
7.346562769430719
 20
-6.301131318954231
 30
0.0
 10
7.351644285271463
 20
-6.337959389691553
 30
0.0
 10
7.355451115782664
 20
-6.368431259258586
 30
0.0
 10
7.355451115782664
 20
-6.368431259258586
 30
0.0
 10
6.959265134978932
 20
-6.315101181146918
 30
0.0
 10
6.959265134978932
 20
-6.315101181146918
 30
0.0
 10
6.959265134978932
 20
-6.315101181146918
 30
0.0
 10
6.959265134978932
 20
-5.92018988567273
 30
0.0
 10
6.959265134978932
 20
-5.92018988567273
 30
0.0
 10
6.959265134978932
 20
-5.92018988567273
 30
0.0
 10
7.053230114339121
 20
-5.92018988567273
 30
0.0
 10
7.053230114339121
 20
-5.92018988567273
 30
0.0
  0
HATCH
  5
570
330
55D
100
AcDbEntity
  8
Livello 1
 62
   250
420
  1842203
100
AcDbHatch
 10
0.0
 20
0.0
 30
0.0
210
0.0
220
0.0
230
1.0
  2
SOLID
 70
     1
 71
     0
 91
        1
 92
        1
 93
        1
 72
     4
 94
        3
 73
     0
 74
     0
 95
       50
 96
       46
 40
0.0
 40
0.0
 40
0.0
 40
0.0
 40
1.0
 40
1.0
 40
1.0
 40
2.0
 40
2.0
 40
2.0
 40
3.0
 40
3.0
 40
3.0
 40
4.0
 40
4.0
 40
4.0
 40
5.0
 40
5.0
 40
5.0
 40
6.0
 40
6.0
 40
6.0
 40
7.0
 40
7.0
 40
7.0
 40
8.0
 40
8.0
 40
8.0
 40
9.0
 40
9.0
 40
9.0
 40
10.0
 40
10.0
 40
10.0
 40
11.0
 40
11.0
 40
11.0
 40
12.0
 40
12.0
 40
12.0
 40
13.0
 40
13.0
 40
13.0
 40
14.0
 40
14.0
 40
14.0
 40
15.0
 40
15.0
 40
15.0
 40
15.0
 10
7.053230114339121
 20
-5.92018988567273
 10
7.053230114339121
 20
-5.92018988567273
 10
7.053230114339121
 20
-6.235106063979418
 10
7.053230114339121
 20
-6.235106063979418
 10
7.053230114339121
 20
-6.235106063979418
 10
7.265292966933675
 20
-6.266852618875994
 10
7.265292966933675
 20
-6.266852618875994
 10
7.262760821752017
 20
-6.247801240842562
 10
7.260211451092931
 20
-6.230024548138673
 10
7.260211451092931
 20
-6.199552678571639
 10
7.260211451092931
 20
-6.136059568778484
 10
7.274181313285621
 20
-6.072566458985329
 10
7.304653182852656
 20
-6.021768526055321
 10
7.341481253589977
 20
-5.95701795641005
 10
7.412588024405532
 20
-5.903670652820956
 10
7.516716035447208
 20
-5.903670652820956
 10
7.677998180589181
 20
-5.903670652820956
 10
7.798628199005202
 20
-6.031931557736808
 10
7.798628199005202
 20
-6.210973170105242
 10
7.798628199005202
 20
-6.301131318954231
 10
7.773237845278911
 20
-6.377336831087957
 10
7.747830266075194
 20
-6.416697047006936
 10
7.747830266075194
 20
-6.416697047006936
 10
7.662753633066949
 20
-6.388757322621561
 10
7.662753633066949
 20
-6.388757322621561
 10
7.683079696429923
 20
-6.354478622543325
 10
7.708470050156215
 20
-6.287161456761542
 10
7.708470050156215
 20
-6.212247855434784
 10
7.708470050156215
 20
-6.106845159063566
 10
7.639895424522317
 20
-6.016687010214576
 10
7.52942843778778
 20
-6.016687010214576
 10
7.422751056087019
 20
-6.017961695544121
 10
7.346562769430719
 20
-6.089068466359677
 10
7.346562769430719
 20
-6.254157442012848
 10
7.346562769430719
 20
-6.301131318954231
 10
7.351644285271463
 20
-6.337959389691553
 10
7.355451115782664
 20
-6.368431259258586
 10
7.355451115782664
 20
-6.368431259258586
 10
6.959265134978932
 20
-6.315101181146918
 10
6.959265134978932
 20
-6.315101181146918
 10
6.959265134978932
 20
-6.315101181146918
 10
6.959265134978932
 20
-5.92018988567273
 10
6.959265134978932
 20
-5.92018988567273
 10
6.959265134978932
 20
-5.92018988567273
 10
7.053230114339121
 20
-5.92018988567273
 10
7.053230114339121
 20
-5.92018988567273
 97
        0
 97
        0
 75
     2
 76
     1
 98
        0
450
        0
451
        0
460
0.0
461
0.0
452
        0
462
0.0
453
        0
470

  0
ENDBLK
  5
560
330
55D
100
AcDbEntity
  8
0
100
AcDbBlockEnd
  0
BLOCK
  5
573
330
571
100
AcDbEntity
  8
0
100
AcDbBlockBegin
  2
block 16
 70
     0
 10
0.0
 20
0.0
 30
0.0
  3
block 16
  1

  0
POLYLINE
  5
575
330
571
100
AcDbEntity
  8
Livello 1
370
     0
100
AcDb2dPolyline
 66
     1
 10
0.0
 20
0.0
 30
0.0
  0
VERTEX
  5
576
330
575
100
AcDbEntity
  8
Livello 1
370
     0
100
AcDbVertex
100
AcDb2dVertex
 10
12.44726779202707
 20
-6.791368406505282
 30
0.0
  0
VERTEX
  5
577
330
575
100
AcDbEntity
  8
Livello 1
370
     0
100
AcDbVertex
100
AcDb2dVertex
 10
12.52092393350171
 20
-6.791368406505282
 30
0.0
  0
VERTEX
  5
578
330
575
100
AcDbEntity
  8
Livello 1
370
     0
100
AcDbVertex
100
AcDb2dVertex
 10
13.27267821933808
 20
-7.150743542049119
 30
0.0
  0
VERTEX
  5
579
330
575
100
AcDbEntity
  8
Livello 1
370
     0
100
AcDbVertex
100
AcDb2dVertex
 10
13.27267821933808
 20
-7.266292044624397
 30
0.0
  0
VERTEX
  5
57A
330
575
100
AcDbEntity
  8
Livello 1
370
     0
100
AcDbVertex
100
AcDb2dVertex
 10
12.54252468219423
 20
-6.908191594410105
 30
0.0
  0
VERTEX
  5
57B
330
575
100
AcDbEntity
  8
Livello 1
370
     0
100
AcDbVertex
100
AcDb2dVertex
 10
12.53997531153514
 20
-6.908191594410105
 30
0.0
  0
VERTEX
  5
57C
330
575
100
AcDbEntity
  8
Livello 1
370
     0
100
AcDbVertex
100
AcDb2dVertex
 10
12.53997531153514
 20
-7.312008461713664
 30
0.0
  0
VERTEX
  5
57D
330
575
100
AcDbEntity
  8
Livello 1
370
     0
100
AcDbVertex
100
AcDb2dVertex
 10
12.44726779202707
 20
-7.312008461713664
 30
0.0
  0
VERTEX
  5
57E
330
575
100
AcDbEntity
  8
Livello 1
370
     0
100
AcDbVertex
100
AcDb2dVertex
 10
12.44726779202707
 20
-6.791368406505282
 30
0.0
  0
SEQEND
  5
57F
330
575
100
AcDbEntity
  8
Livello 1
370
     0
  0
HATCH
  5
580
330
571
100
AcDbEntity
  8
Livello 1
 62
   250
420
  1842203
100
AcDbHatch
 10
0.0
 20
0.0
 30
0.0
210
0.0
220
0.0
230
1.0
  2
SOLID
 70
     1
 71
     0
 91
        1
 92
        1
 93
        8
 72
     1
 10
12.44726779202707
 20
-6.791368406505282
 11
12.52092393350171
 21
-6.791368406505282
 72
     1
 10
12.52092393350171
 20
-6.791368406505282
 11
13.27267821933808
 21
-7.150743542049119
 72
     1
 10
13.27267821933808
 20
-7.150743542049119
 11
13.27267821933808
 21
-7.266292044624397
 72
     1
 10
13.27267821933808
 20
-7.266292044624397
 11
12.54252468219423
 21
-6.908191594410105
 72
     1
 10
12.54252468219423
 20
-6.908191594410105
 11
12.53997531153514
 21
-6.908191594410105
 72
     1
 10
12.53997531153514
 20
-6.908191594410105
 11
12.53997531153514
 21
-7.312008461713664
 72
     1
 10
12.53997531153514
 20
-7.312008461713664
 11
12.44726779202707
 21
-7.312008461713664
 72
     1
 10
12.44726779202707
 20
-7.312008461713664
 11
12.44726779202707
 21
-6.791368406505282
 97
        0
 75
     2
 76
     1
 98
        0
450
        0
451
        0
460
0.0
461
0.0
452
        0
462
0.0
453
        0
470

  0
SPLINE
  5
581
330
571
100
AcDbEntity
  8
Livello 1
370
     0
100
AcDbSpline
210
0.0
220
0.0
230
1.0
 70
     9
 71
     3
 72
    17
 73
    13
 74
     0
 42
0.000000001
 43
0.0000000001
 40
0.0
 40
0.0
 40
0.0
 40
0.0
 40
1.0
 40
1.0
 40
1.0
 40
2.0
 40
2.0
 40
2.0
 40
3.0
 40
3.0
 40
3.0
 40
4.0
 40
4.0
 40
4.0
 40
4.0
 10
13.42884439768445
 20
-6.712596298235044
 30
0.0
 10
13.35394802183512
 20
-6.684656573849668
 30
0.0
 10
13.21807345589687
 20
-6.650360648294007
 30
0.0
 10
13.1253659363888
 20
-6.636390786101318
 30
0.0
 10
13.1253659363888
 20
-6.636390786101318
 30
0.0
 10
13.11265353404822
 20
-6.511953937174093
 30
0.0
 10
13.11265353404822
 20
-6.511953937174093
 30
0.0
 10
13.22062282655595
 20
-6.541151121411588
 30
0.0
 10
13.36156168285753
 20
-6.597030570182338
 30
0.0
 10
13.42123073666205
 20
-6.632583955590116
 30
0.0
 10
13.42123073666205
 20
-6.632583955590116
 30
0.0
 10
13.42884439768445
 20
-6.712596298235044
 30
0.0
 10
13.42884439768445
 20
-6.712596298235044
 30
0.0
  0
HATCH
  5
582
330
571
100
AcDbEntity
  8
Livello 1
 62
   250
420
  1842203
100
AcDbHatch
 10
0.0
 20
0.0
 30
0.0
210
0.0
220
0.0
230
1.0
  2
SOLID
 70
     1
 71
     0
 91
        1
 92
        1
 93
        1
 72
     4
 94
        3
 73
     0
 74
     0
 95
       17
 96
       13
 40
0.0
 40
0.0
 40
0.0
 40
0.0
 40
1.0
 40
1.0
 40
1.0
 40
2.0
 40
2.0
 40
2.0
 40
3.0
 40
3.0
 40
3.0
 40
4.0
 40
4.0
 40
4.0
 40
4.0
 10
13.42884439768445
 20
-6.712596298235044
 10
13.35394802183512
 20
-6.684656573849668
 10
13.21807345589687
 20
-6.650360648294007
 10
13.1253659363888
 20
-6.636390786101318
 10
13.1253659363888
 20
-6.636390786101318
 10
13.11265353404822
 20
-6.511953937174093
 10
13.11265353404822
 20
-6.511953937174093
 10
13.22062282655595
 20
-6.541151121411588
 10
13.36156168285753
 20
-6.597030570182338
 10
13.42123073666205
 20
-6.632583955590116
 10
13.42123073666205
 20
-6.632583955590116
 10
13.42884439768445
 20
-6.712596298235044
 10
13.42884439768445
 20
-6.712596298235044
 97
        0
 97
        0
 75
     2
 76
     1
 98
        0
450
        0
451
        0
460
0.0
461
0.0
452
        0
462
0.0
453
        0
470

  0
SPLINE
  5
583
330
571
100
AcDbEntity
  8
Livello 1
370
     0
100
AcDbSpline
210
0.0
220
0.0
230
1.0
 70
    11
 71
     3
 72
    50
 73
    46
 74
     0
 42
0.000000001
 43
0.0000000001
 40
0.0
 40
0.0
 40
0.0
 40
0.0
 40
1.0
 40
1.0
 40
1.0
 40
2.0
 40
2.0
 40
2.0
 40
3.0
 40
3.0
 40
3.0
 40
4.0
 40
4.0
 40
4.0
 40
5.0
 40
5.0
 40
5.0
 40
6.0
 40
6.0
 40
6.0
 40
7.0
 40
7.0
 40
7.0
 40
8.0
 40
8.0
 40
8.0
 40
9.0
 40
9.0
 40
9.0
 40
10.0
 40
10.0
 40
10.0
 40
11.0
 40
11.0
 40
11.0
 40
12.0
 40
12.0
 40
12.0
 40
13.0
 40
13.0
 40
13.0
 40
14.0
 40
14.0
 40
14.0
 40
15.0
 40
15.0
 40
15.0
 40
15.0
 10
12.54124999686469
 20
-5.92018988567273
 30
0.0
 10
12.54124999686469
 20
-5.92018988567273
 30
0.0
 10
12.54124999686469
 20
-6.235106063979418
 30
0.0
 10
12.54124999686469
 20
-6.235106063979418
 30
0.0
 10
12.54124999686469
 20
-6.235106063979418
 30
0.0
 10
12.75329562398181
 20
-6.266852618875994
 30
0.0
 10
12.75329562398181
 20
-6.266852618875994
 30
0.0
 10
12.75078070427758
 20
-6.247801240842562
 30
0.0
 10
12.7482313336185
 20
-6.230024548138673
 30
0.0
 10
12.7482313336185
 20
-6.199552678571639
 30
0.0
 10
12.7482313336185
 20
-6.136059568778484
 30
0.0
 10
12.76218397033376
 20
-6.072566458985329
 30
0.0
 10
12.79267306537822
 20
-6.021768526055321
 30
0.0
 10
12.82950113611554
 20
-5.95701795641005
 30
0.0
 10
12.9006079069311
 20
-5.903670652820956
 30
0.0
 10
13.00471869249535
 20
-5.903670652820956
 30
0.0
 10
13.16601806311474
 20
-5.903670652820956
 30
0.0
 10
13.28663085605334
 20
-6.031931557736808
 30
0.0
 10
13.28663085605334
 20
-6.210973170105242
 30
0.0
 10
13.28663085605334
 20
-6.301131318954231
 30
0.0
 10
13.26124050232705
 20
-6.377336831087957
 30
0.0
 10
13.23585014860076
 20
-6.416697047006936
 30
0.0
 10
13.23585014860076
 20
-6.416697047006936
 30
0.0
 10
13.15075629011509
 20
-6.388757322621561
 30
0.0
 10
13.15075629011509
 20
-6.388757322621561
 30
0.0
 10
13.17108235347806
 20
-6.354478622543325
 30
0.0
 10
13.19647270720435
 20
-6.287161456761542
 30
0.0
 10
13.19647270720435
 20
-6.212247855434784
 30
0.0
 10
13.19647270720435
 20
-6.106845159063566
 30
0.0
 10
13.12791530704788
 20
-6.016687010214576
 30
0.0
 10
13.01743109483592
 20
-6.016687010214576
 30
0.0
 10
12.91077093861258
 20
-6.017961695544121
 30
0.0
 10
12.83456542647886
 20
-6.089068466359677
 30
0.0
 10
12.83456542647886
 20
-6.254157442012848
 30
0.0
 10
12.83456542647886
 20
-6.301131318954231
 30
0.0
 10
12.83966416779703
 20
-6.337959389691553
 30
0.0
 10
12.8434537728308
 20
-6.368431259258586
 30
0.0
 10
12.8434537728308
 20
-6.368431259258586
 30
0.0
 10
12.44726779202707
 20
-6.315101181146918
 30
0.0
 10
12.44726779202707
 20
-6.315101181146918
 30
0.0
 10
12.44726779202707
 20
-6.315101181146918
 30
0.0
 10
12.44726779202707
 20
-5.92018988567273
 30
0.0
 10
12.44726779202707
 20
-5.92018988567273
 30
0.0
 10
12.44726779202707
 20
-5.92018988567273
 30
0.0
 10
12.54124999686469
 20
-5.92018988567273
 30
0.0
 10
12.54124999686469
 20
-5.92018988567273
 30
0.0
  0
HATCH
  5
584
330
571
100
AcDbEntity
  8
Livello 1
 62
   250
420
  1842203
100
AcDbHatch
 10
0.0
 20
0.0
 30
0.0
210
0.0
220
0.0
230
1.0
  2
SOLID
 70
     1
 71
     0
 91
        1
 92
        1
 93
        1
 72
     4
 94
        3
 73
     0
 74
     0
 95
       50
 96
       46
 40
0.0
 40
0.0
 40
0.0
 40
0.0
 40
1.0
 40
1.0
 40
1.0
 40
2.0
 40
2.0
 40
2.0
 40
3.0
 40
3.0
 40
3.0
 40
4.0
 40
4.0
 40
4.0
 40
5.0
 40
5.0
 40
5.0
 40
6.0
 40
6.0
 40
6.0
 40
7.0
 40
7.0
 40
7.0
 40
8.0
 40
8.0
 40
8.0
 40
9.0
 40
9.0
 40
9.0
 40
10.0
 40
10.0
 40
10.0
 40
11.0
 40
11.0
 40
11.0
 40
12.0
 40
12.0
 40
12.0
 40
13.0
 40
13.0
 40
13.0
 40
14.0
 40
14.0
 40
14.0
 40
15.0
 40
15.0
 40
15.0
 40
15.0
 10
12.54124999686469
 20
-5.92018988567273
 10
12.54124999686469
 20
-5.92018988567273
 10
12.54124999686469
 20
-6.235106063979418
 10
12.54124999686469
 20
-6.235106063979418
 10
12.54124999686469
 20
-6.235106063979418
 10
12.75329562398181
 20
-6.266852618875994
 10
12.75329562398181
 20
-6.266852618875994
 10
12.75078070427758
 20
-6.247801240842562
 10
12.7482313336185
 20
-6.230024548138673
 10
12.7482313336185
 20
-6.199552678571639
 10
12.7482313336185
 20
-6.136059568778484
 10
12.76218397033376
 20
-6.072566458985329
 10
12.79267306537822
 20
-6.021768526055321
 10
12.82950113611554
 20
-5.95701795641005
 10
12.9006079069311
 20
-5.903670652820956
 10
13.00471869249535
 20
-5.903670652820956
 10
13.16601806311474
 20
-5.903670652820956
 10
13.28663085605334
 20
-6.031931557736808
 10
13.28663085605334
 20
-6.210973170105242
 10
13.28663085605334
 20
-6.301131318954231
 10
13.26124050232705
 20
-6.377336831087957
 10
13.23585014860076
 20
-6.416697047006936
 10
13.23585014860076
 20
-6.416697047006936
 10
13.15075629011509
 20
-6.388757322621561
 10
13.15075629011509
 20
-6.388757322621561
 10
13.17108235347806
 20
-6.354478622543325
 10
13.19647270720435
 20
-6.287161456761542
 10
13.19647270720435
 20
-6.212247855434784
 10
13.19647270720435
 20
-6.106845159063566
 10
13.12791530704788
 20
-6.016687010214576
 10
13.01743109483592
 20
-6.016687010214576
 10
12.91077093861258
 20
-6.017961695544121
 10
12.83456542647886
 20
-6.089068466359677
 10
12.83456542647886
 20
-6.254157442012848
 10
12.83456542647886
 20
-6.301131318954231
 10
12.83966416779703
 20
-6.337959389691553
 10
12.8434537728308
 20
-6.368431259258586
 10
12.8434537728308
 20
-6.368431259258586
 10
12.44726779202707
 20
-6.315101181146918
 10
12.44726779202707
 20
-6.315101181146918
 10
12.44726779202707
 20
-6.315101181146918
 10
12.44726779202707
 20
-5.92018988567273
 10
12.44726779202707
 20
-5.92018988567273
 10
12.44726779202707
 20
-5.92018988567273
 10
12.54124999686469
 20
-5.92018988567273
 10
12.54124999686469
 20
-5.92018988567273
 97
        0
 97
        0
 75
     2
 76
     1
 98
        0
450
        0
451
        0
460
0.0
461
0.0
452
        0
462
0.0
453
        0
470

  0
ENDBLK
  5
574
330
571
100
AcDbEntity
  8
0
100
AcDbBlockEnd
  0
BLOCK
  5
587
330
585
100
AcDbEntity
  8
0
100
AcDbBlockBegin
  2
block 17
 70
     0
 10
0.0
 20
0.0
 30
0.0
  3
block 17
  1

  0
POLYLINE
  5
589
330
585
100
AcDbEntity
  8
Livello 1
370
     0
100
AcDb2dPolyline
 66
     1
 10
0.0
 20
0.0
 30
0.0
  0
VERTEX
  5
58A
330
589
100
AcDbEntity
  8
Livello 1
370
     0
100
AcDbVertex
100
AcDb2dVertex
 10
16.96282334645374
 20
-6.791368406505282
 30
0.0
  0
VERTEX
  5
58B
330
589
100
AcDbEntity
  8
Livello 1
370
     0
100
AcDbVertex
100
AcDb2dVertex
 10
17.03647948792838
 20
-6.791368406505282
 30
0.0
  0
VERTEX
  5
58C
330
589
100
AcDbEntity
  8
Livello 1
370
     0
100
AcDbVertex
100
AcDb2dVertex
 10
17.78823377376474
 20
-7.150743542049119
 30
0.0
  0
VERTEX
  5
58D
330
589
100
AcDbEntity
  8
Livello 1
370
     0
100
AcDbVertex
100
AcDb2dVertex
 10
17.78823377376474
 20
-7.266292044624397
 30
0.0
  0
VERTEX
  5
58E
330
589
100
AcDbEntity
  8
Livello 1
370
     0
100
AcDbVertex
100
AcDb2dVertex
 10
17.0580802366209
 20
-6.908191594410105
 30
0.0
  0
VERTEX
  5
58F
330
589
100
AcDbEntity
  8
Livello 1
370
     0
100
AcDbVertex
100
AcDb2dVertex
 10
17.05553086596181
 20
-6.908191594410105
 30
0.0
  0
VERTEX
  5
590
330
589
100
AcDbEntity
  8
Livello 1
370
     0
100
AcDbVertex
100
AcDb2dVertex
 10
17.05553086596181
 20
-7.312008461713664
 30
0.0
  0
VERTEX
  5
591
330
589
100
AcDbEntity
  8
Livello 1
370
     0
100
AcDbVertex
100
AcDb2dVertex
 10
16.96282334645374
 20
-7.312008461713664
 30
0.0
  0
VERTEX
  5
592
330
589
100
AcDbEntity
  8
Livello 1
370
     0
100
AcDbVertex
100
AcDb2dVertex
 10
16.96282334645374
 20
-6.791368406505282
 30
0.0
  0
SEQEND
  5
593
330
589
100
AcDbEntity
  8
Livello 1
370
     0
  0
HATCH
  5
594
330
585
100
AcDbEntity
  8
Livello 1
 62
   250
420
  1842203
100
AcDbHatch
 10
0.0
 20
0.0
 30
0.0
210
0.0
220
0.0
230
1.0
  2
SOLID
 70
     1
 71
     0
 91
        1
 92
        1
 93
        8
 72
     1
 10
16.96282334645374
 20
-6.791368406505282
 11
17.03647948792838
 21
-6.791368406505282
 72
     1
 10
17.03647948792838
 20
-6.791368406505282
 11
17.78823377376474
 21
-7.150743542049119
 72
     1
 10
17.78823377376474
 20
-7.150743542049119
 11
17.78823377376474
 21
-7.266292044624397
 72
     1
 10
17.78823377376474
 20
-7.266292044624397
 11
17.0580802366209
 21
-6.908191594410105
 72
     1
 10
17.0580802366209
 20
-6.908191594410105
 11
17.05553086596181
 21
-6.908191594410105
 72
     1
 10
17.05553086596181
 20
-6.908191594410105
 11
17.05553086596181
 21
-7.312008461713664
 72
     1
 10
17.05553086596181
 20
-7.312008461713664
 11
16.96282334645374
 21
-7.312008461713664
 72
     1
 10
16.96282334645374
 20
-7.312008461713664
 11
16.96282334645374
 21
-6.791368406505282
 97
        0
 75
     2
 76
     1
 98
        0
450
        0
451
        0
460
0.0
461
0.0
452
        0
462
0.0
453
        0
470

  0
SPLINE
  5
595
330
585
100
AcDbEntity
  8
Livello 1
370
     0
100
AcDbSpline
210
0.0
220
0.0
230
1.0
 70
     9
 71
     3
 72
    17
 73
    13
 74
     0
 42
0.000000001
 43
0.0000000001
 40
0.0
 40
0.0
 40
0.0
 40
0.0
 40
1.0
 40
1.0
 40
1.0
 40
2.0
 40
2.0
 40
2.0
 40
3.0
 40
3.0
 40
3.0
 40
4.0
 40
4.0
 40
4.0
 40
4.0
 10
17.94439995211112
 20
-6.712596298235044
 30
0.0
 10
17.86950357626179
 20
-6.684656573849668
 30
0.0
 10
17.73362901032354
 20
-6.650360648294007
 30
0.0
 10
17.64092149081546
 20
-6.636390786101318
 30
0.0
 10
17.64092149081546
 20
-6.636390786101318
 30
0.0
 10
17.62820908847489
 20
-6.511953937174093
 30
0.0
 10
17.62820908847489
 20
-6.511953937174093
 30
0.0
 10
17.73617838098262
 20
-6.541151121411588
 30
0.0
 10
17.87711723728419
 20
-6.597030570182338
 30
0.0
 10
17.93678629108872
 20
-6.632583955590116
 30
0.0
 10
17.93678629108872
 20
-6.632583955590116
 30
0.0
 10
17.94439995211112
 20
-6.712596298235044
 30
0.0
 10
17.94439995211112
 20
-6.712596298235044
 30
0.0
  0
HATCH
  5
596
330
585
100
AcDbEntity
  8
Livello 1
 62
   250
420
  1842203
100
AcDbHatch
 10
0.0
 20
0.0
 30
0.0
210
0.0
220
0.0
230
1.0
  2
SOLID
 70
     1
 71
     0
 91
        1
 92
        1
 93
        1
 72
     4
 94
        3
 73
     0
 74
     0
 95
       17
 96
       13
 40
0.0
 40
0.0
 40
0.0
 40
0.0
 40
1.0
 40
1.0
 40
1.0
 40
2.0
 40
2.0
 40
2.0
 40
3.0
 40
3.0
 40
3.0
 40
4.0
 40
4.0
 40
4.0
 40
4.0
 10
17.94439995211112
 20
-6.712596298235044
 10
17.86950357626179
 20
-6.684656573849668
 10
17.73362901032354
 20
-6.650360648294007
 10
17.64092149081546
 20
-6.636390786101318
 10
17.64092149081546
 20
-6.636390786101318
 10
17.62820908847489
 20
-6.511953937174093
 10
17.62820908847489
 20
-6.511953937174093
 10
17.73617838098262
 20
-6.541151121411588
 10
17.87711723728419
 20
-6.597030570182338
 10
17.93678629108872
 20
-6.632583955590116
 10
17.93678629108872
 20
-6.632583955590116
 10
17.94439995211112
 20
-6.712596298235044
 10
17.94439995211112
 20
-6.712596298235044
 97
        0
 97
        0
 75
     2
 76
     1
 98
        0
450
        0
451
        0
460
0.0
461
0.0
452
        0
462
0.0
453
        0
470

  0
SPLINE
  5
597
330
585
100
AcDbEntity
  8
Livello 1
370
     0
100
AcDbSpline
210
0.0
220
0.0
230
1.0
 70
    11
 71
     3
 72
    50
 73
    46
 74
     0
 42
0.000000001
 43
0.0000000001
 40
0.0
 40
0.0
 40
0.0
 40
0.0
 40
1.0
 40
1.0
 40
1.0
 40
2.0
 40
2.0
 40
2.0
 40
3.0
 40
3.0
 40
3.0
 40
4.0
 40
4.0
 40
4.0
 40
5.0
 40
5.0
 40
5.0
 40
6.0
 40
6.0
 40
6.0
 40
7.0
 40
7.0
 40
7.0
 40
8.0
 40
8.0
 40
8.0
 40
9.0
 40
9.0
 40
9.0
 40
10.0
 40
10.0
 40
10.0
 40
11.0
 40
11.0
 40
11.0
 40
12.0
 40
12.0
 40
12.0
 40
13.0
 40
13.0
 40
13.0
 40
14.0
 40
14.0
 40
14.0
 40
15.0
 40
15.0
 40
15.0
 40
15.0
 10
17.05680555129134
 20
-5.92018988567273
 30
0.0
 10
17.05680555129134
 20
-5.92018988567273
 30
0.0
 10
17.05680555129134
 20
-6.235106063979418
 30
0.0
 10
17.05680555129134
 20
-6.235106063979418
 30
0.0
 10
17.05680555129134
 20
-6.235106063979418
 30
0.0
 10
17.26885117840848
 20
-6.266852618875994
 30
0.0
 10
17.26885117840848
 20
-6.266852618875994
 30
0.0
 10
17.26633625870425
 20
-6.247801240842562
 30
0.0
 10
17.26378688804516
 20
-6.230024548138673
 30
0.0
 10
17.26378688804516
 20
-6.199552678571639
 30
0.0
 10
17.26378688804516
 20
-6.136059568778484
 30
0.0
 10
17.27773952476042
 20
-6.072566458985329
 30
0.0
 10
17.30822861980489
 20
-6.021768526055321
 30
0.0
 10
17.34505669054221
 20
-5.95701795641005
 30
0.0
 10
17.41616346135776
 20
-5.903670652820956
 30
0.0
 10
17.52027424692201
 20
-5.903670652820956
 30
0.0
 10
17.68157361754141
 20
-5.903670652820956
 30
0.0
 10
17.80218641048001
 20
-6.031931557736808
 30
0.0
 10
17.80218641048001
 20
-6.210973170105242
 30
0.0
 10
17.80218641048001
 20
-6.301131318954231
 30
0.0
 10
17.77679605675372
 20
-6.377336831087957
 30
0.0
 10
17.75140570302743
 20
-6.416697047006936
 30
0.0
 10
17.75140570302743
 20
-6.416697047006936
 30
0.0
 10
17.66631184454175
 20
-6.388757322621561
 30
0.0
 10
17.66631184454175
 20
-6.388757322621561
 30
0.0
 10
17.68663790790473
 20
-6.354478622543325
 30
0.0
 10
17.71202826163102
 20
-6.287161456761542
 30
0.0
 10
17.71202826163102
 20
-6.212247855434784
 30
0.0
 10
17.71202826163102
 20
-6.106845159063566
 30
0.0
 10
17.64347086147455
 20
-6.016687010214576
 30
0.0
 10
17.53298664926259
 20
-6.016687010214576
 30
0.0
 10
17.42632649303925
 20
-6.017961695544121
 30
0.0
 10
17.35012098090552
 20
-6.089068466359677
 30
0.0
 10
17.35012098090552
 20
-6.254157442012848
 30
0.0
 10
17.35012098090552
 20
-6.301131318954231
 30
0.0
 10
17.35521972222369
 20
-6.337959389691553
 30
0.0
 10
17.35900932725747
 20
-6.368431259258586
 30
0.0
 10
17.35900932725747
 20
-6.368431259258586
 30
0.0
 10
16.96282334645374
 20
-6.315101181146918
 30
0.0
 10
16.96282334645374
 20
-6.315101181146918
 30
0.0
 10
16.96282334645374
 20
-6.315101181146918
 30
0.0
 10
16.96282334645374
 20
-5.92018988567273
 30
0.0
 10
16.96282334645374
 20
-5.92018988567273
 30
0.0
 10
16.96282334645374
 20
-5.92018988567273
 30
0.0
 10
17.05680555129134
 20
-5.92018988567273
 30
0.0
 10
17.05680555129134
 20
-5.92018988567273
 30
0.0
  0
HATCH
  5
598
330
585
100
AcDbEntity
  8
Livello 1
 62
   250
420
  1842203
100
AcDbHatch
 10
0.0
 20
0.0
 30
0.0
210
0.0
220
0.0
230
1.0
  2
SOLID
 70
     1
 71
     0
 91
        1
 92
        1
 93
        1
 72
     4
 94
        3
 73
     0
 74
     0
 95
       50
 96
       46
 40
0.0
 40
0.0
 40
0.0
 40
0.0
 40
1.0
 40
1.0
 40
1.0
 40
2.0
 40
2.0
 40
2.0
 40
3.0
 40
3.0
 40
3.0
 40
4.0
 40
4.0
 40
4.0
 40
5.0
 40
5.0
 40
5.0
 40
6.0
 40
6.0
 40
6.0
 40
7.0
 40
7.0
 40
7.0
 40
8.0
 40
8.0
 40
8.0
 40
9.0
 40
9.0
 40
9.0
 40
10.0
 40
10.0
 40
10.0
 40
11.0
 40
11.0
 40
11.0
 40
12.0
 40
12.0
 40
12.0
 40
13.0
 40
13.0
 40
13.0
 40
14.0
 40
14.0
 40
14.0
 40
15.0
 40
15.0
 40
15.0
 40
15.0
 10
17.05680555129134
 20
-5.92018988567273
 10
17.05680555129134
 20
-5.92018988567273
 10
17.05680555129134
 20
-6.235106063979418
 10
17.05680555129134
 20
-6.235106063979418
 10
17.05680555129134
 20
-6.235106063979418
 10
17.26885117840848
 20
-6.266852618875994
 10
17.26885117840848
 20
-6.266852618875994
 10
17.26633625870425
 20
-6.247801240842562
 10
17.26378688804516
 20
-6.230024548138673
 10
17.26378688804516
 20
-6.199552678571639
 10
17.26378688804516
 20
-6.136059568778484
 10
17.27773952476042
 20
-6.072566458985329
 10
17.30822861980489
 20
-6.021768526055321
 10
17.34505669054221
 20
-5.95701795641005
 10
17.41616346135776
 20
-5.903670652820956
 10
17.52027424692201
 20
-5.903670652820956
 10
17.68157361754141
 20
-5.903670652820956
 10
17.80218641048001
 20
-6.031931557736808
 10
17.80218641048001
 20
-6.210973170105242
 10
17.80218641048001
 20
-6.301131318954231
 10
17.77679605675372
 20
-6.377336831087957
 10
17.75140570302743
 20
-6.416697047006936
 10
17.75140570302743
 20
-6.416697047006936
 10
17.66631184454175
 20
-6.388757322621561
 10
17.66631184454175
 20
-6.388757322621561
 10
17.68663790790473
 20
-6.354478622543325
 10
17.71202826163102
 20
-6.287161456761542
 10
17.71202826163102
 20
-6.212247855434784
 10
17.71202826163102
 20
-6.106845159063566
 10
17.64347086147455
 20
-6.016687010214576
 10
17.53298664926259
 20
-6.016687010214576
 10
17.42632649303925
 20
-6.017961695544121
 10
17.35012098090552
 20
-6.089068466359677
 10
17.35012098090552
 20
-6.254157442012848
 10
17.35012098090552
 20
-6.301131318954231
 10
17.35521972222369
 20
-6.337959389691553
 10
17.35900932725747
 20
-6.368431259258586
 10
17.35900932725747
 20
-6.368431259258586
 10
16.96282334645374
 20
-6.315101181146918
 10
16.96282334645374
 20
-6.315101181146918
 10
16.96282334645374
 20
-6.315101181146918
 10
16.96282334645374
 20
-5.92018988567273
 10
16.96282334645374
 20
-5.92018988567273
 10
16.96282334645374
 20
-5.92018988567273
 10
17.05680555129134
 20
-5.92018988567273
 10
17.05680555129134
 20
-5.92018988567273
 97
        0
 97
        0
 75
     2
 76
     1
 98
        0
450
        0
451
        0
460
0.0
461
0.0
452
        0
462
0.0
453
        0
470

  0
ENDBLK
  5
588
330
585
100
AcDbEntity
  8
0
100
AcDbBlockEnd
  0
BLOCK
  5
59B
330
599
100
AcDbEntity
  8
0
100
AcDbBlockBegin
  2
block 18
 70
     0
 10
0.0
 20
0.0
 30
0.0
  3
block 18
  1

  0
SPLINE
  5
59D
330
599
100
AcDbEntity
  8
Livello 1
370
     0
100
AcDbSpline
210
0.0
220
0.0
230
1.0
 70
     9
 71
     3
 72
    41
 73
    37
 74
     0
 42
0.000000001
 43
0.0000000001
 40
0.0
 40
0.0
 40
0.0
 40
0.0
 40
1.0
 40
1.0
 40
1.0
 40
2.0
 40
2.0
 40
2.0
 40
3.0
 40
3.0
 40
3.0
 40
4.0
 40
4.0
 40
4.0
 40
5.0
 40
5.0
 40
5.0
 40
6.0
 40
6.0
 40
6.0
 40
7.0
 40
7.0
 40
7.0
 40
8.0
 40
8.0
 40
8.0
 40
9.0
 40
9.0
 40
9.0
 40
10.0
 40
10.0
 40
10.0
 40
11.0
 40
11.0
 40
11.0
 40
12.0
 40
12.0
 40
12.0
 40
12.0
 10
2.959733207810413
 20
-10.43049166948439
 30
0.0
 10
2.983866101684588
 20
-10.43304104014348
 30
0.0
 10
3.011788600592538
 20
-10.43049166948439
 30
0.0
 10
3.049891356659401
 20
-10.42668483897319
 30
0.0
 10
3.114659151782098
 20
-10.41779649262124
 30
0.0
 10
3.175602890916167
 20
-10.39113145356541
 30
0.0
 10
3.222593993334975
 20
-10.34668972180569
 30
0.0
 10
3.277198756776186
 20
-10.29716647420522
 30
0.0
 10
3.316558972695165
 20
-10.22478501806012
 30
0.0
 10
3.331803520217396
 20
-10.12701320818873
 30
0.0
 10
3.331803520217396
 20
-10.12701320818873
 30
0.0
 10
3.327979464228768
 20
-10.12701320818873
 30
0.0
 10
3.327979464228768
 20
-10.12701320818873
 30
0.0
 10
3.28228027261693
 20
-10.18287543148206
 30
0.0
 10
3.216237792164689
 20
-10.21589667170818
 30
0.0
 10
3.133693304338103
 20
-10.21589667170818
 30
0.0
 10
2.985123561536704
 20
-10.21589667170818
 30
0.0
 10
2.889883896846973
 20
-10.1041549996441
 30
0.0
 10
2.889883896846973
 20
-9.963198917865099
 30
0.0
 10
2.889883896846973
 20
-9.807015514041301
 30
0.0
 10
3.002900254240593
 20
-9.669866262773505
 30
0.0
 10
3.171796060404966
 20
-9.669866262773505
 30
0.0
 10
3.340691866569341
 20
-9.669866262773505
 30
0.0
 10
3.444819877611017
 20
-9.807015514041301
 30
0.0
 10
3.444819877611017
 20
-10.01780368130631
 30
0.0
 10
3.444819877611017
 20
-10.19939466433383
 30
0.0
 10
3.383858912999521
 20
-10.32638088392014
 30
0.0
 10
3.302589110502478
 20
-10.4051013157581
 30
0.0
 10
3.239096000709323
 20
-10.46731974022171
 30
0.0
 10
3.151487222519419
 20
-10.50542249628857
 30
0.0
 10
3.062586533522547
 20
-10.51558552797006
 30
0.0
 10
3.021951632274026
 20
-10.52192450366292
 30
0.0
 10
2.986398246866246
 20
-10.52319918899246
 30
0.0
 10
2.959733207810413
 20
-10.52192450366292
 30
0.0
 10
2.959733207810413
 20
-10.52192450366292
 30
0.0
 10
2.959733207810413
 20
-10.43049166948439
 30
0.0
 10
2.959733207810413
 20
-10.43049166948439
 30
0.0
  0
SPLINE
  5
59E
330
599
100
AcDbEntity
  8
Livello 1
370
     0
100
AcDbSpline
210
0.0
220
0.0
230
1.0
 70
     9
 71
     3
 72
    20
 73
    16
 74
     0
 42
0.000000001
 43
0.0000000001
 40
0.0
 40
0.0
 40
0.0
 40
0.0
 40
1.0
 40
1.0
 40
1.0
 40
2.0
 40
2.0
 40
2.0
 40
3.0
 40
3.0
 40
3.0
 40
4.0
 40
4.0
 40
4.0
 40
5.0
 40
5.0
 40
5.0
 40
5.0
 10
3.000368109058936
 20
-9.955585256842699
 30
0.0
 10
3.000368109058936
 20
-10.05843858255483
 30
0.0
 10
3.062586533522547
 20
-10.13082003869993
 30
0.0
 10
3.159100883541821
 20
-10.13082003869993
 30
0.0
 10
3.23401448486858
 20
-10.13082003869993
 30
0.0
 10
3.29242607882099
 20
-10.09399196796261
 30
0.0
 10
3.321640488535908
 20
-10.04446872036215
 30
0.0
 10
3.327979464228768
 20
-10.03430568868066
 30
0.0
 10
3.331803520217396
 20
-10.02161051181751
 30
0.0
 10
3.331803520217396
 20
-10.00383381911362
 30
0.0
 10
3.331803520217396
 20
-9.862877737334626
 30
0.0
 10
3.279730901957845
 20
-9.754942895781749
 30
0.0
 10
3.162907714053023
 20
-9.754942895781749
 30
0.0
 10
3.067668049363291
 20
-9.754942895781749
 30
0.0
 10
3.000368109058936
 20
-9.83876206893788
 30
0.0
 10
3.000368109058936
 20
-9.955585256842699
 30
0.0
  0
HATCH
  5
59F
330
599
100
AcDbEntity
  8
Livello 1
 62
   250
420
  1842203
100
AcDbHatch
 10
0.0
 20
0.0
 30
0.0
210
0.0
220
0.0
230
1.0
  2
SOLID
 70
     1
 71
     0
 91
        2
 92
        1
 93
        1
 72
     4
 94
        3
 73
     0
 74
     0
 95
       41
 96
       37
 40
0.0
 40
0.0
 40
0.0
 40
0.0
 40
1.0
 40
1.0
 40
1.0
 40
2.0
 40
2.0
 40
2.0
 40
3.0
 40
3.0
 40
3.0
 40
4.0
 40
4.0
 40
4.0
 40
5.0
 40
5.0
 40
5.0
 40
6.0
 40
6.0
 40
6.0
 40
7.0
 40
7.0
 40
7.0
 40
8.0
 40
8.0
 40
8.0
 40
9.0
 40
9.0
 40
9.0
 40
10.0
 40
10.0
 40
10.0
 40
11.0
 40
11.0
 40
11.0
 40
12.0
 40
12.0
 40
12.0
 40
12.0
 10
2.959733207810413
 20
-10.43049166948439
 10
2.983866101684588
 20
-10.43304104014348
 10
3.011788600592538
 20
-10.43049166948439
 10
3.049891356659401
 20
-10.42668483897319
 10
3.114659151782098
 20
-10.41779649262124
 10
3.175602890916167
 20
-10.39113145356541
 10
3.222593993334975
 20
-10.34668972180569
 10
3.277198756776186
 20
-10.29716647420522
 10
3.316558972695165
 20
-10.22478501806012
 10
3.331803520217396
 20
-10.12701320818873
 10
3.331803520217396
 20
-10.12701320818873
 10
3.327979464228768
 20
-10.12701320818873
 10
3.327979464228768
 20
-10.12701320818873
 10
3.28228027261693
 20
-10.18287543148206
 10
3.216237792164689
 20
-10.21589667170818
 10
3.133693304338103
 20
-10.21589667170818
 10
2.985123561536704
 20
-10.21589667170818
 10
2.889883896846973
 20
-10.1041549996441
 10
2.889883896846973
 20
-9.963198917865099
 10
2.889883896846973
 20
-9.807015514041301
 10
3.002900254240593
 20
-9.669866262773505
 10
3.171796060404966
 20
-9.669866262773505
 10
3.340691866569341
 20
-9.669866262773505
 10
3.444819877611017
 20
-9.807015514041301
 10
3.444819877611017
 20
-10.01780368130631
 10
3.444819877611017
 20
-10.19939466433383
 10
3.383858912999521
 20
-10.32638088392014
 10
3.302589110502478
 20
-10.4051013157581
 10
3.239096000709323
 20
-10.46731974022171
 10
3.151487222519419
 20
-10.50542249628857
 10
3.062586533522547
 20
-10.51558552797006
 10
3.021951632274026
 20
-10.52192450366292
 10
2.986398246866246
 20
-10.52319918899246
 10
2.959733207810413
 20
-10.52192450366292
 10
2.959733207810413
 20
-10.52192450366292
 10
2.959733207810413
 20
-10.43049166948439
 10
2.959733207810413
 20
-10.43049166948439
 97
        0
 97
        0
 92
        1
 93
        1
 72
     4
 94
        3
 73
     0
 74
     0
 95
       20
 96
       16
 40
0.0
 40
0.0
 40
0.0
 40
0.0
 40
1.0
 40
1.0
 40
1.0
 40
2.0
 40
2.0
 40
2.0
 40
3.0
 40
3.0
 40
3.0
 40
4.0
 40
4.0
 40
4.0
 40
5.0
 40
5.0
 40
5.0
 40
5.0
 10
3.000368109058936
 20
-9.955585256842699
 10
3.000368109058936
 20
-10.05843858255483
 10
3.062586533522547
 20
-10.13082003869993
 10
3.159100883541821
 20
-10.13082003869993
 10
3.23401448486858
 20
-10.13082003869993
 10
3.29242607882099
 20
-10.09399196796261
 10
3.321640488535908
 20
-10.04446872036215
 10
3.327979464228768
 20
-10.03430568868066
 10
3.331803520217396
 20
-10.02161051181751
 10
3.331803520217396
 20
-10.00383381911362
 10
3.331803520217396
 20
-9.862877737334626
 10
3.279730901957845
 20
-9.754942895781749
 10
3.162907714053023
 20
-9.754942895781749
 10
3.067668049363291
 20
-9.754942895781749
 10
3.000368109058936
 20
-9.83876206893788
 10
3.000368109058936
 20
-9.955585256842699
 97
        0
 97
        0
 75
     2
 76
     1
 98
        0
450
        0
451
        0
460
0.0
461
0.0
452
        0
462
0.0
453
        0
470

  0
SPLINE
  5
5A0
330
599
100
AcDbEntity
  8
Livello 1
370
     0
100
AcDbSpline
210
0.0
220
0.0
230
1.0
 70
     9
 71
     3
 72
    17
 73
    13
 74
     0
 42
0.000000001
 43
0.0000000001
 40
0.0
 40
0.0
 40
0.0
 40
0.0
 40
1.0
 40
1.0
 40
1.0
 40
2.0
 40
2.0
 40
2.0
 40
3.0
 40
3.0
 40
3.0
 40
4.0
 40
4.0
 40
4.0
 40
4.0
 10
4.095029974019644
 20
-10.08763576679233
 30
0.0
 10
4.095029974019644
 20
-10.36827324502078
 30
0.0
 10
3.990901962977968
 20
-10.52319918899246
 30
0.0
 10
3.808036294620906
 20
-10.52319918899246
 30
0.0
 10
3.646771374956363
 20
-10.52319918899246
 30
0.0
 10
3.537561848073943
 20
-10.37208007553198
 30
0.0
 10
3.535029702892283
 20
-10.09907348380336
 30
0.0
 10
3.535029702892283
 20
-9.822242836086104
 30
0.0
 10
3.654385035978763
 20
-9.669866262773505
 30
0.0
 10
3.822006156813595
 20
-9.669866262773505
 30
0.0
 10
3.995983478818711
 20
-9.669866262773505
 30
0.0
 10
4.095029974019644
 20
-9.82479220674519
 30
0.0
 10
4.095029974019644
 20
-10.08763576679233
 30
0.0
  0
SPLINE
  5
5A1
330
599
100
AcDbEntity
  8
Livello 1
370
     0
100
AcDbSpline
210
0.0
220
0.0
230
1.0
 70
     9
 71
     3
 72
    17
 73
    13
 74
     0
 42
0.000000001
 43
0.0000000001
 40
0.0
 40
0.0
 40
0.0
 40
0.0
 40
1.0
 40
1.0
 40
1.0
 40
2.0
 40
2.0
 40
2.0
 40
3.0
 40
3.0
 40
3.0
 40
4.0
 40
4.0
 40
4.0
 40
4.0
 10
3.646771374956363
 20
-10.1003481691329
 30
0.0
 10
3.646771374956363
 20
-10.31494316690911
 30
0.0
 10
3.712813855408601
 20
-10.43684787065468
 30
0.0
 10
3.814392495791193
 20
-10.43684787065468
 30
0.0
 10
3.928683538514357
 20
-10.43684787065468
 30
0.0
 10
3.983288301955567
 20
-10.30352267537551
 30
0.0
 10
3.983288301955567
 20
-10.09271728263307
 30
0.0
 10
3.983288301955567
 20
-9.889542776390459
 30
0.0
 10
3.931215683696014
 20
-9.756217581111293
 30
0.0
 10
3.815667181120736
 20
-9.756217581111293
 30
0.0
 10
3.717878145771918
 20
-9.756217581111293
 30
0.0
 10
3.646771374956363
 20
-9.875572914197773
 30
0.0
 10
3.646771374956363
 20
-10.1003481691329
 30
0.0
  0
HATCH
  5
5A2
330
599
100
AcDbEntity
  8
Livello 1
 62
   250
420
  1842203
100
AcDbHatch
 10
0.0
 20
0.0
 30
0.0
210
0.0
220
0.0
230
1.0
  2
SOLID
 70
     1
 71
     0
 91
        2
 92
        1
 93
        1
 72
     4
 94
        3
 73
     0
 74
     0
 95
       17
 96
       13
 40
0.0
 40
0.0
 40
0.0
 40
0.0
 40
1.0
 40
1.0
 40
1.0
 40
2.0
 40
2.0
 40
2.0
 40
3.0
 40
3.0
 40
3.0
 40
4.0
 40
4.0
 40
4.0
 40
4.0
 10
4.095029974019644
 20
-10.08763576679233
 10
4.095029974019644
 20
-10.36827324502078
 10
3.990901962977968
 20
-10.52319918899246
 10
3.808036294620906
 20
-10.52319918899246
 10
3.646771374956363
 20
-10.52319918899246
 10
3.537561848073943
 20
-10.37208007553198
 10
3.535029702892283
 20
-10.09907348380336
 10
3.535029702892283
 20
-9.822242836086104
 10
3.654385035978763
 20
-9.669866262773505
 10
3.822006156813595
 20
-9.669866262773505
 10
3.995983478818711
 20
-9.669866262773505
 10
4.095029974019644
 20
-9.82479220674519
 10
4.095029974019644
 20
-10.08763576679233
 97
        0
 97
        0
 92
        1
 93
        1
 72
     4
 94
        3
 73
     0
 74
     0
 95
       17
 96
       13
 40
0.0
 40
0.0
 40
0.0
 40
0.0
 40
1.0
 40
1.0
 40
1.0
 40
2.0
 40
2.0
 40
2.0
 40
3.0
 40
3.0
 40
3.0
 40
4.0
 40
4.0
 40
4.0
 40
4.0
 10
3.646771374956363
 20
-10.1003481691329
 10
3.646771374956363
 20
-10.31494316690911
 10
3.712813855408601
 20
-10.43684787065468
 10
3.814392495791193
 20
-10.43684787065468
 10
3.928683538514357
 20
-10.43684787065468
 10
3.983288301955567
 20
-10.30352267537551
 10
3.983288301955567
 20
-10.09271728263307
 10
3.983288301955567
 20
-9.889542776390459
 10
3.931215683696014
 20
-9.756217581111293
 10
3.815667181120736
 20
-9.756217581111293
 10
3.717878145771918
 20
-9.756217581111293
 10
3.646771374956363
 20
-9.875572914197773
 10
3.646771374956363
 20
-10.1003481691329
 97
        0
 97
        0
 75
     2
 76
     1
 98
        0
450
        0
451
        0
460
0.0
461
0.0
452
        0
462
0.0
453
        0
470

  0
ENDBLK
  5
59C
330
599
100
AcDbEntity
  8
0
100
AcDbBlockEnd
  0
BLOCK
  5
5A5
330
5A3
100
AcDbEntity
  8
0
100
AcDbBlockBegin
  2
block 19
 70
     0
 10
0.0
 20
0.0
 30
0.0
  3
block 19
  1

  0
SPLINE
  5
5A7
330
5A3
100
AcDbEntity
  8
Livello 1
370
     0
100
AcDbSpline
210
0.0
220
0.0
230
1.0
 70
     9
 71
     3
 72
    38
 73
    34
 74
     0
 42
0.000000001
 43
0.0000000001
 40
0.0
 40
0.0
 40
0.0
 40
0.0
 40
1.0
 40
1.0
 40
1.0
 40
2.0
 40
2.0
 40
2.0
 40
3.0
 40
3.0
 40
3.0
 40
4.0
 40
4.0
 40
4.0
 40
5.0
 40
5.0
 40
5.0
 40
6.0
 40
6.0
 40
6.0
 40
7.0
 40
7.0
 40
7.0
 40
8.0
 40
8.0
 40
8.0
 40
9.0
 40
9.0
 40
9.0
 40
10.0
 40
10.0
 40
10.0
 40
11.0
 40
11.0
 40
11.0
 40
11.0
 10
9.446055634574246
 20
-9.762556556804153
 30
0.0
 10
9.423197426029616
 20
-9.761299096952036
 30
0.0
 10
9.394000241792122
 20
-9.762556556804153
 30
0.0
 10
9.362253686895547
 20
-9.767638072644896
 30
0.0
 10
9.187001679560886
 20
-9.796852482359813
 30
0.0
 10
9.094311385530241
 20
-9.92509616179824
 30
0.0
 10
9.075260007496806
 20
-10.06097072773649
 30
0.0
 10
9.075260007496806
 20
-10.06097072773649
 30
0.0
 10
9.079066838008008
 20
-10.06097072773649
 30
0.0
 10
9.079066838008008
 20
-10.06097072773649
 30
0.0
 10
9.118444279404416
 20
-10.00891533495437
 30
0.0
 10
9.187001679560886
 20
-9.965731063046758
 30
0.0
 10
9.278434513739417
 20
-9.965731063046758
 30
0.0
 10
9.424472111359159
 20
-9.965731063046758
 30
0.0
 10
9.527325437071292
 20
-10.07113375941798
 30
0.0
 10
9.527325437071292
 20
-10.23239867908253
 30
0.0
 10
9.527325437071292
 20
-10.38351779254301
 30
0.0
 10
9.424472111359159
 20
-10.52319918899246
 30
0.0
 10
9.253044160013127
 20
-10.52319918899246
 30
0.0
 10
9.076534692826351
 20
-10.52319918899246
 30
0.0
 10
8.960968964773643
 20
-10.38604993772467
 30
0.0
 10
8.960968964773643
 20
-10.17145493994846
 30
0.0
 10
8.960968964773643
 20
-10.00891533495437
 30
0.0
 10
9.019397784203484
 20
-9.880654430038514
 30
0.0
 10
9.100667586700526
 20
-9.799384627541472
 30
0.0
 10
9.169224986857001
 20
-9.732084687237117
 30
0.0
 10
9.260657821035529
 20
-9.690175100659052
 30
0.0
 10
9.364785832077203
 20
-9.677479923795909
 30
0.0
 10
9.397807072303324
 20
-9.672398407955164
 30
0.0
 10
9.425746796688699
 20
-9.671140948103046
 30
0.0
 10
9.446055634574246
 20
-9.671140948103046
 30
0.0
 10
9.446055634574246
 20
-9.671140948103046
 30
0.0
 10
9.446055634574246
 20
-9.762556556804153
 30
0.0
 10
9.446055634574246
 20
-9.762556556804153
 30
0.0
  0
SPLINE
  5
5A8
330
5A3
100
AcDbEntity
  8
Livello 1
370
     0
100
AcDbSpline
210
0.0
220
0.0
230
1.0
 70
    11
 71
     3
 72
    20
 73
    16
 74
     0
 42
0.000000001
 43
0.0000000001
 40
0.0
 40
0.0
 40
0.0
 40
0.0
 40
1.0
 40
1.0
 40
1.0
 40
2.0
 40
2.0
 40
2.0
 40
3.0
 40
3.0
 40
3.0
 40
4.0
 40
4.0
 40
4.0
 40
5.0
 40
5.0
 40
5.0
 40
5.0
 10
9.414309079677671
 20
-10.23875488025281
 30
0.0
 10
9.414309079677671
 20
-10.12065700701845
 30
0.0
 10
9.347009139373316
 20
-10.04955023620289
 30
0.0
 10
9.244155813661182
 20
-10.04955023620289
 30
0.0
 10
9.176855873356828
 20
-10.04955023620289
 30
0.0
 10
9.114620223415789
 20
-10.09145982278095
 30
0.0
 10
9.084148353848753
 20
-10.15112887658548
 30
0.0
 10
9.076534692826351
 20
-10.16384127892605
 30
0.0
 10
9.071453176985606
 20
-10.1803432863004
 30
0.0
 10
9.071453176985606
 20
-10.20065212418595
 30
0.0
 10
9.073985322167267
 20
-10.3365266901242
 30
0.0
 10
9.136220972108304
 20
-10.43684787065468
 30
0.0
 10
9.253044160013127
 20
-10.43684787065468
 30
0.0
 10
9.349541284554975
 20
-10.43684787065468
 30
0.0
 10
9.414309079677671
 20
-10.35685275348717
 30
0.0
 10
9.414309079677671
 20
-10.23875488025281
 30
0.0
  0
HATCH
  5
5A9
330
5A3
100
AcDbEntity
  8
Livello 1
 62
   250
420
  1842203
100
AcDbHatch
 10
0.0
 20
0.0
 30
0.0
210
0.0
220
0.0
230
1.0
  2
SOLID
 70
     1
 71
     0
 91
        2
 92
        1
 93
        1
 72
     4
 94
        3
 73
     0
 74
     0
 95
       38
 96
       34
 40
0.0
 40
0.0
 40
0.0
 40
0.0
 40
1.0
 40
1.0
 40
1.0
 40
2.0
 40
2.0
 40
2.0
 40
3.0
 40
3.0
 40
3.0
 40
4.0
 40
4.0
 40
4.0
 40
5.0
 40
5.0
 40
5.0
 40
6.0
 40
6.0
 40
6.0
 40
7.0
 40
7.0
 40
7.0
 40
8.0
 40
8.0
 40
8.0
 40
9.0
 40
9.0
 40
9.0
 40
10.0
 40
10.0
 40
10.0
 40
11.0
 40
11.0
 40
11.0
 40
11.0
 10
9.446055634574246
 20
-9.762556556804153
 10
9.423197426029616
 20
-9.761299096952036
 10
9.394000241792122
 20
-9.762556556804153
 10
9.362253686895547
 20
-9.767638072644896
 10
9.187001679560886
 20
-9.796852482359813
 10
9.094311385530241
 20
-9.92509616179824
 10
9.075260007496806
 20
-10.06097072773649
 10
9.075260007496806
 20
-10.06097072773649
 10
9.079066838008008
 20
-10.06097072773649
 10
9.079066838008008
 20
-10.06097072773649
 10
9.118444279404416
 20
-10.00891533495437
 10
9.187001679560886
 20
-9.965731063046758
 10
9.278434513739417
 20
-9.965731063046758
 10
9.424472111359159
 20
-9.965731063046758
 10
9.527325437071292
 20
-10.07113375941798
 10
9.527325437071292
 20
-10.23239867908253
 10
9.527325437071292
 20
-10.38351779254301
 10
9.424472111359159
 20
-10.52319918899246
 10
9.253044160013127
 20
-10.52319918899246
 10
9.076534692826351
 20
-10.52319918899246
 10
8.960968964773643
 20
-10.38604993772467
 10
8.960968964773643
 20
-10.17145493994846
 10
8.960968964773643
 20
-10.00891533495437
 10
9.019397784203484
 20
-9.880654430038514
 10
9.100667586700526
 20
-9.799384627541472
 10
9.169224986857001
 20
-9.732084687237117
 10
9.260657821035529
 20
-9.690175100659052
 10
9.364785832077203
 20
-9.677479923795909
 10
9.397807072303324
 20
-9.672398407955164
 10
9.425746796688699
 20
-9.671140948103046
 10
9.446055634574246
 20
-9.671140948103046
 10
9.446055634574246
 20
-9.671140948103046
 10
9.446055634574246
 20
-9.762556556804153
 10
9.446055634574246
 20
-9.762556556804153
 97
        0
 97
        0
 92
        1
 93
        1
 72
     4
 94
        3
 73
     0
 74
     0
 95
       20
 96
       16
 40
0.0
 40
0.0
 40
0.0
 40
0.0
 40
1.0
 40
1.0
 40
1.0
 40
2.0
 40
2.0
 40
2.0
 40
3.0
 40
3.0
 40
3.0
 40
4.0
 40
4.0
 40
4.0
 40
5.0
 40
5.0
 40
5.0
 40
5.0
 10
9.414309079677671
 20
-10.23875488025281
 10
9.414309079677671
 20
-10.12065700701845
 10
9.347009139373316
 20
-10.04955023620289
 10
9.244155813661182
 20
-10.04955023620289
 10
9.176855873356828
 20
-10.04955023620289
 10
9.114620223415789
 20
-10.09145982278095
 10
9.084148353848753
 20
-10.15112887658548
 10
9.076534692826351
 20
-10.16384127892605
 10
9.071453176985606
 20
-10.1803432863004
 10
9.071453176985606
 20
-10.20065212418595
 10
9.073985322167267
 20
-10.3365266901242
 10
9.136220972108304
 20
-10.43684787065468
 10
9.253044160013127
 20
-10.43684787065468
 10
9.349541284554975
 20
-10.43684787065468
 10
9.414309079677671
 20
-10.35685275348717
 10
9.414309079677671
 20
-10.23875488025281
 97
        0
 97
        0
 75
     2
 76
     1
 98
        0
450
        0
451
        0
460
0.0
461
0.0
452
        0
462
0.0
453
        0
470

  0
SPLINE
  5
5AA
330
5A3
100
AcDbEntity
  8
Livello 1
370
     0
100
AcDbSpline
210
0.0
220
0.0
230
1.0
 70
     9
 71
     3
 72
    17
 73
    13
 74
     0
 42
0.000000001
 43
0.0000000001
 40
0.0
 40
0.0
 40
0.0
 40
0.0
 40
1.0
 40
1.0
 40
1.0
 40
2.0
 40
2.0
 40
2.0
 40
3.0
 40
3.0
 40
3.0
 40
4.0
 40
4.0
 40
4.0
 40
4.0
 10
10.17500338829826
 20
-10.08763576679233
 30
0.0
 10
10.17500338829826
 20
-10.36827324502078
 30
0.0
 10
10.07087537725659
 20
-10.52319918899246
 30
0.0
 10
9.888009708899522
 20
-10.52319918899246
 30
0.0
 10
9.726744789234979
 20
-10.52319918899246
 30
0.0
 10
9.617535262352561
 20
-10.37208007553198
 30
0.0
 10
9.615003117170902
 20
-10.09907348380336
 30
0.0
 10
9.615003117170902
 20
-9.822242836086104
 30
0.0
 10
9.734358450257381
 20
-9.669866262773505
 30
0.0
 10
9.901979571092214
 20
-9.669866262773505
 30
0.0
 10
10.07595689309733
 20
-9.669866262773505
 30
0.0
 10
10.17500338829826
 20
-9.82479220674519
 30
0.0
 10
10.17500338829826
 20
-10.08763576679233
 30
0.0
  0
SPLINE
  5
5AB
330
5A3
100
AcDbEntity
  8
Livello 1
370
     0
100
AcDbSpline
210
0.0
220
0.0
230
1.0
 70
     9
 71
     3
 72
    17
 73
    13
 74
     0
 42
0.000000001
 43
0.0000000001
 40
0.0
 40
0.0
 40
0.0
 40
0.0
 40
1.0
 40
1.0
 40
1.0
 40
2.0
 40
2.0
 40
2.0
 40
3.0
 40
3.0
 40
3.0
 40
4.0
 40
4.0
 40
4.0
 40
4.0
 10
9.726744789234979
 20
-10.1003481691329
 30
0.0
 10
9.726744789234979
 20
-10.31494316690911
 30
0.0
 10
9.79278726968722
 20
-10.43684787065468
 30
0.0
 10
9.89436591006981
 20
-10.43684787065468
 30
0.0
 10
10.00865695279297
 20
-10.43684787065468
 30
0.0
 10
10.06326171623418
 20
-10.30352267537551
 30
0.0
 10
10.06326171623418
 20
-10.09271728263307
 30
0.0
 10
10.06326171623418
 20
-9.889542776390459
 30
0.0
 10
10.01118909797463
 20
-9.756217581111293
 30
0.0
 10
9.895640595399351
 20
-9.756217581111293
 30
0.0
 10
9.797851560050537
 20
-9.756217581111293
 30
0.0
 10
9.726744789234979
 20
-9.875572914197773
 30
0.0
 10
9.726744789234979
 20
-10.1003481691329
 30
0.0
  0
HATCH
  5
5AC
330
5A3
100
AcDbEntity
  8
Livello 1
 62
   250
420
  1842203
100
AcDbHatch
 10
0.0
 20
0.0
 30
0.0
210
0.0
220
0.0
230
1.0
  2
SOLID
 70
     1
 71
     0
 91
        2
 92
        1
 93
        1
 72
     4
 94
        3
 73
     0
 74
     0
 95
       17
 96
       13
 40
0.0
 40
0.0
 40
0.0
 40
0.0
 40
1.0
 40
1.0
 40
1.0
 40
2.0
 40
2.0
 40
2.0
 40
3.0
 40
3.0
 40
3.0
 40
4.0
 40
4.0
 40
4.0
 40
4.0
 10
10.17500338829826
 20
-10.08763576679233
 10
10.17500338829826
 20
-10.36827324502078
 10
10.07087537725659
 20
-10.52319918899246
 10
9.888009708899522
 20
-10.52319918899246
 10
9.726744789234979
 20
-10.52319918899246
 10
9.617535262352561
 20
-10.37208007553198
 10
9.615003117170902
 20
-10.09907348380336
 10
9.615003117170902
 20
-9.822242836086104
 10
9.734358450257381
 20
-9.669866262773505
 10
9.901979571092214
 20
-9.669866262773505
 10
10.07595689309733
 20
-9.669866262773505
 10
10.17500338829826
 20
-9.82479220674519
 10
10.17500338829826
 20
-10.08763576679233
 97
        0
 97
        0
 92
        1
 93
        1
 72
     4
 94
        3
 73
     0
 74
     0
 95
       17
 96
       13
 40
0.0
 40
0.0
 40
0.0
 40
0.0
 40
1.0
 40
1.0
 40
1.0
 40
2.0
 40
2.0
 40
2.0
 40
3.0
 40
3.0
 40
3.0
 40
4.0
 40
4.0
 40
4.0
 40
4.0
 10
9.726744789234979
 20
-10.1003481691329
 10
9.726744789234979
 20
-10.31494316690911
 10
9.79278726968722
 20
-10.43684787065468
 10
9.89436591006981
 20
-10.43684787065468
 10
10.00865695279297
 20
-10.43684787065468
 10
10.06326171623418
 20
-10.30352267537551
 10
10.06326171623418
 20
-10.09271728263307
 10
10.06326171623418
 20
-9.889542776390459
 10
10.01118909797463
 20
-9.756217581111293
 10
9.895640595399351
 20
-9.756217581111293
 10
9.797851560050537
 20
-9.756217581111293
 10
9.726744789234979
 20
-9.875572914197773
 10
9.726744789234979
 20
-10.1003481691329
 97
        0
 97
        0
 75
     2
 76
     1
 98
        0
450
        0
451
        0
460
0.0
461
0.0
452
        0
462
0.0
453
        0
470

  0
ENDBLK
  5
5A6
330
5A3
100
AcDbEntity
  8
0
100
AcDbBlockEnd
  0
BLOCK
  5
5AF
330
5AD
100
AcDbEntity
  8
0
100
AcDbBlockBegin
  2
block 20
 70
     0
 10
0.0
 20
0.0
 30
0.0
  3
block 20
  1

  0
POLYLINE
  5
5B1
330
5AD
100
AcDbEntity
  8
Livello 1
370
     0
100
AcDb2dPolyline
 66
     1
 10
0.0
 20
0.0
 30
0.0
  0
VERTEX
  5
5B2
330
5B1
100
AcDbEntity
  8
Livello 1
370
     0
100
AcDbVertex
100
AcDb2dVertex
 10
14.57089355104478
 20
-10.50922932679978
 30
0.0
  0
VERTEX
  5
5B3
330
5B1
100
AcDbEntity
  8
Livello 1
370
     0
100
AcDbVertex
100
AcDb2dVertex
 10
14.57089355104478
 20
-10.28447129734208
 30
0.0
  0
VERTEX
  5
5B4
330
5B1
100
AcDbEntity
  8
Livello 1
370
     0
100
AcDbVertex
100
AcDb2dVertex
 10
14.18738552162676
 20
-10.28447129734208
 30
0.0
  0
VERTEX
  5
5B5
330
5B1
100
AcDbEntity
  8
Livello 1
370
     0
100
AcDbVertex
100
AcDb2dVertex
 10
14.18738552162676
 20
-10.21081515586743
 30
0.0
  0
VERTEX
  5
5B6
330
5B1
100
AcDbEntity
  8
Livello 1
370
     0
100
AcDbVertex
100
AcDb2dVertex
 10
14.55563177804512
 20
-9.683836124966193
 30
0.0
  0
VERTEX
  5
5B7
330
5B1
100
AcDbEntity
  8
Livello 1
370
     0
100
AcDbVertex
100
AcDb2dVertex
 10
14.67627902193857
 20
-9.683836124966193
 30
0.0
  0
VERTEX
  5
5B8
330
5B1
100
AcDbEntity
  8
Livello 1
370
     0
100
AcDbVertex
100
AcDb2dVertex
 10
14.67627902193857
 20
-10.19684529367475
 30
0.0
  0
VERTEX
  5
5B9
330
5B1
100
AcDbEntity
  8
Livello 1
370
     0
100
AcDbVertex
100
AcDb2dVertex
 10
14.79182752451385
 20
-10.19684529367475
 30
0.0
  0
VERTEX
  5
5BA
330
5B1
100
AcDbEntity
  8
Livello 1
370
     0
100
AcDbVertex
100
AcDb2dVertex
 10
14.79182752451385
 20
-10.28447129734208
 30
0.0
  0
VERTEX
  5
5BB
330
5B1
100
AcDbEntity
  8
Livello 1
370
     0
100
AcDbVertex
100
AcDb2dVertex
 10
14.67627902193857
 20
-10.28447129734208
 30
0.0
  0
VERTEX
  5
5BC
330
5B1
100
AcDbEntity
  8
Livello 1
370
     0
100
AcDbVertex
100
AcDb2dVertex
 10
14.67627902193857
 20
-10.50922932679978
 30
0.0
  0
VERTEX
  5
5BD
330
5B1
100
AcDbEntity
  8
Livello 1
370
     0
100
AcDbVertex
100
AcDb2dVertex
 10
14.57089355104478
 20
-10.50922932679978
 30
0.0
  0
SEQEND
  5
5BE
330
5B1
100
AcDbEntity
  8
Livello 1
370
     0
  0
SPLINE
  5
5BF
330
5AD
100
AcDbEntity
  8
Livello 1
370
     0
100
AcDbSpline
210
0.0
220
0.0
230
1.0
 70
    11
 71
     3
 72
    26
 73
    22
 74
     0
 42
0.000000001
 43
0.0000000001
 40
0.0
 40
0.0
 40
0.0
 40
0.0
 40
1.0
 40
1.0
 40
1.0
 40
2.0
 40
2.0
 40
2.0
 40
3.0
 40
3.0
 40
3.0
 40
4.0
 40
4.0
 40
4.0
 40
5.0
 40
5.0
 40
5.0
 40
6.0
 40
6.0
 40
6.0
 40
7.0
 40
7.0
 40
7.0
 40
7.0
 10
14.57089355104478
 20
-10.19684529367475
 30
0.0
 10
14.57089355104478
 20
-10.19684529367475
 30
0.0
 10
14.57089355104478
 20
-9.921289331287036
 30
0.0
 10
14.57089355104478
 20
-9.921289331287036
 30
0.0
 10
14.57089355104478
 20
-9.878122284856857
 30
0.0
 10
14.57216823637432
 20
-9.834938012949251
 30
0.0
 10
14.57468315607855
 20
-9.79177096651907
 30
0.0
 10
14.57468315607855
 20
-9.79177096651907
 30
0.0
 10
14.57089355104478
 20
-9.79177096651907
 30
0.0
 10
14.57089355104478
 20
-9.79177096651907
 30
0.0
 10
14.54546874636363
 20
-9.840019528789996
 30
0.0
 10
14.52517713395551
 20
-9.875572914197773
 30
0.0
 10
14.50230169993345
 20
-9.913675670264636
 30
0.0
 10
14.50230169993345
 20
-9.913675670264636
 30
0.0
 10
14.30041910449781
 20
-10.19431314849309
 30
0.0
 10
14.30041910449781
 20
-10.19431314849309
 30
0.0
 10
14.30041910449781
 20
-10.19431314849309
 30
0.0
 10
14.30041910449781
 20
-10.19684529367475
 30
0.0
 10
14.30041910449781
 20
-10.19684529367475
 30
0.0
 10
14.30041910449781
 20
-10.19684529367475
 30
0.0
 10
14.57089355104478
 20
-10.19684529367475
 30
0.0
 10
14.57089355104478
 20
-10.19684529367475
 30
0.0
  0
HATCH
  5
5C0
330
5AD
100
AcDbEntity
  8
Livello 1
 62
   250
420
  1842203
100
AcDbHatch
 10
0.0
 20
0.0
 30
0.0
210
0.0
220
0.0
230
1.0
  2
SOLID
 70
     1
 71
     0
 91
        2
 92
        1
 93
       11
 72
     1
 10
14.57089355104478
 20
-10.50922932679978
 11
14.57089355104478
 21
-10.28447129734208
 72
     1
 10
14.57089355104478
 20
-10.28447129734208
 11
14.18738552162676
 21
-10.28447129734208
 72
     1
 10
14.18738552162676
 20
-10.28447129734208
 11
14.18738552162676
 21
-10.21081515586743
 72
     1
 10
14.18738552162676
 20
-10.21081515586743
 11
14.55563177804512
 21
-9.683836124966193
 72
     1
 10
14.55563177804512
 20
-9.683836124966193
 11
14.67627902193857
 21
-9.683836124966193
 72
     1
 10
14.67627902193857
 20
-9.683836124966193
 11
14.67627902193857
 21
-10.19684529367475
 72
     1
 10
14.67627902193857
 20
-10.19684529367475
 11
14.79182752451385
 21
-10.19684529367475
 72
     1
 10
14.79182752451385
 20
-10.19684529367475
 11
14.79182752451385
 21
-10.28447129734208
 72
     1
 10
14.79182752451385
 20
-10.28447129734208
 11
14.67627902193857
 21
-10.28447129734208
 72
     1
 10
14.67627902193857
 20
-10.28447129734208
 11
14.67627902193857
 21
-10.50922932679978
 72
     1
 10
14.67627902193857
 20
-10.50922932679978
 11
14.57089355104478
 21
-10.50922932679978
 97
        0
 92
        1
 93
        1
 72
     4
 94
        3
 73
     0
 74
     0
 95
       26
 96
       22
 40
0.0
 40
0.0
 40
0.0
 40
0.0
 40
1.0
 40
1.0
 40
1.0
 40
2.0
 40
2.0
 40
2.0
 40
3.0
 40
3.0
 40
3.0
 40
4.0
 40
4.0
 40
4.0
 40
5.0
 40
5.0
 40
5.0
 40
6.0
 40
6.0
 40
6.0
 40
7.0
 40
7.0
 40
7.0
 40
7.0
 10
14.57089355104478
 20
-10.19684529367475
 10
14.57089355104478
 20
-10.19684529367475
 10
14.57089355104478
 20
-9.921289331287036
 10
14.57089355104478
 20
-9.921289331287036
 10
14.57089355104478
 20
-9.878122284856857
 10
14.57216823637432
 20
-9.834938012949251
 10
14.57468315607855
 20
-9.79177096651907
 10
14.57468315607855
 20
-9.79177096651907
 10
14.57089355104478
 20
-9.79177096651907
 10
14.57089355104478
 20
-9.79177096651907
 10
14.54546874636363
 20
-9.840019528789996
 10
14.52517713395551
 20
-9.875572914197773
 10
14.50230169993345
 20
-9.913675670264636
 10
14.50230169993345
 20
-9.913675670264636
 10
14.30041910449781
 20
-10.19431314849309
 10
14.30041910449781
 20
-10.19431314849309
 10
14.30041910449781
 20
-10.19431314849309
 10
14.30041910449781
 20
-10.19684529367475
 10
14.30041910449781
 20
-10.19684529367475
 10
14.30041910449781
 20
-10.19684529367475
 10
14.57089355104478
 20
-10.19684529367475
 10
14.57089355104478
 20
-10.19684529367475
 97
        0
 97
        0
 75
     2
 76
     1
 98
        0
450
        0
451
        0
460
0.0
461
0.0
452
        0
462
0.0
453
        0
470

  0
SPLINE
  5
5C1
330
5AD
100
AcDbEntity
  8
Livello 1
370
     0
100
AcDbSpline
210
0.0
220
0.0
230
1.0
 70
    11
 71
     3
 72
    50
 73
    46
 74
     0
 42
0.000000001
 43
0.0000000001
 40
0.0
 40
0.0
 40
0.0
 40
0.0
 40
1.0
 40
1.0
 40
1.0
 40
2.0
 40
2.0
 40
2.0
 40
3.0
 40
3.0
 40
3.0
 40
4.0
 40
4.0
 40
4.0
 40
5.0
 40
5.0
 40
5.0
 40
6.0
 40
6.0
 40
6.0
 40
7.0
 40
7.0
 40
7.0
 40
8.0
 40
8.0
 40
8.0
 40
9.0
 40
9.0
 40
9.0
 40
10.0
 40
10.0
 40
10.0
 40
11.0
 40
11.0
 40
11.0
 40
12.0
 40
12.0
 40
12.0
 40
13.0
 40
13.0
 40
13.0
 40
14.0
 40
14.0
 40
14.0
 40
15.0
 40
15.0
 40
15.0
 40
15.0
 10
15.3696733902548
 20
-9.777801104326382
 30
0.0
 10
15.3696733902548
 20
-9.777801104326382
 30
0.0
 10
15.05475721194811
 20
-9.777801104326382
 30
0.0
 10
15.05475721194811
 20
-9.777801104326382
 30
0.0
 10
15.05475721194811
 20
-9.777801104326382
 30
0.0
 10
15.02299343157411
 20
-9.989863956920936
 30
0.0
 10
15.02299343157411
 20
-9.989863956920936
 30
0.0
 10
15.04204480960754
 20
-9.987331811739277
 30
0.0
 10
15.05982150231143
 20
-9.984782441080193
 30
0.0
 10
15.09031059735589
 20
-9.984782441080193
 30
0.0
 10
15.15380370714905
 20
-9.984782441080193
 30
0.0
 10
15.2172968169422
 20
-9.99875230327288
 30
0.0
 10
15.26807752439479
 20
-10.02922417283992
 30
0.0
 10
15.33284531951748
 20
-10.06605224357724
 30
0.0
 10
15.38617539762915
 20
-10.13715901439279
 30
0.0
 10
15.38617539762915
 20
-10.24128702543447
 30
0.0
 10
15.38617539762915
 20
-10.40256917057644
 30
0.0
 10
15.2579144927133
 20
-10.52319918899246
 30
0.0
 10
15.07887288034486
 20
-10.52319918899246
 30
0.0
 10
14.98871473149588
 20
-10.52319918899246
 30
0.0
 10
14.91250921936215
 20
-10.49780883526617
 30
0.0
 10
14.8731662289206
 20
-10.47240125606245
 30
0.0
 10
14.8731662289206
 20
-10.47240125606245
 30
0.0
 10
14.90110595330597
 20
-10.38732462305421
 30
0.0
 10
14.90110595330597
 20
-10.38732462305421
 30
0.0
 10
14.93538465338421
 20
-10.40765068641718
 30
0.0
 10
15.00266736821114
 20
-10.43304104014348
 30
0.0
 10
15.07759819501532
 20
-10.43304104014348
 30
0.0
 10
15.18301811686397
 20
-10.43304104014348
 30
0.0
 10
15.27317626571296
 20
-10.36446641450958
 30
0.0
 10
15.27317626571296
 20
-10.25399942777504
 30
0.0
 10
15.27190158038341
 20
-10.14732204607428
 30
0.0
 10
15.20079480956786
 20
-10.07113375941798
 30
0.0
 10
15.03570583391468
 20
-10.07113375941798
 30
0.0
 10
14.98871473149588
 20
-10.07113375941798
 30
0.0
 10
14.95188666075856
 20
-10.07621527525872
 30
0.0
 10
14.92139756571409
 20
-10.08002210576992
 30
0.0
 10
14.92139756571409
 20
-10.08002210576992
 30
0.0
 10
14.97476209478061
 20
-9.683836124966193
 30
0.0
 10
14.97476209478061
 20
-9.683836124966193
 30
0.0
 10
14.97476209478061
 20
-9.683836124966193
 30
0.0
 10
15.3696733902548
 20
-9.683836124966193
 30
0.0
 10
15.3696733902548
 20
-9.683836124966193
 30
0.0
 10
15.3696733902548
 20
-9.683836124966193
 30
0.0
 10
15.3696733902548
 20
-9.777801104326382
 30
0.0
 10
15.3696733902548
 20
-9.777801104326382
 30
0.0
  0
HATCH
  5
5C2
330
5AD
100
AcDbEntity
  8
Livello 1
 62
   250
420
  1842203
100
AcDbHatch
 10
0.0
 20
0.0
 30
0.0
210
0.0
220
0.0
230
1.0
  2
SOLID
 70
     1
 71
     0
 91
        1
 92
        1
 93
        1
 72
     4
 94
        3
 73
     0
 74
     0
 95
       50
 96
       46
 40
0.0
 40
0.0
 40
0.0
 40
0.0
 40
1.0
 40
1.0
 40
1.0
 40
2.0
 40
2.0
 40
2.0
 40
3.0
 40
3.0
 40
3.0
 40
4.0
 40
4.0
 40
4.0
 40
5.0
 40
5.0
 40
5.0
 40
6.0
 40
6.0
 40
6.0
 40
7.0
 40
7.0
 40
7.0
 40
8.0
 40
8.0
 40
8.0
 40
9.0
 40
9.0
 40
9.0
 40
10.0
 40
10.0
 40
10.0
 40
11.0
 40
11.0
 40
11.0
 40
12.0
 40
12.0
 40
12.0
 40
13.0
 40
13.0
 40
13.0
 40
14.0
 40
14.0
 40
14.0
 40
15.0
 40
15.0
 40
15.0
 40
15.0
 10
15.3696733902548
 20
-9.777801104326382
 10
15.3696733902548
 20
-9.777801104326382
 10
15.05475721194811
 20
-9.777801104326382
 10
15.05475721194811
 20
-9.777801104326382
 10
15.05475721194811
 20
-9.777801104326382
 10
15.02299343157411
 20
-9.989863956920936
 10
15.02299343157411
 20
-9.989863956920936
 10
15.04204480960754
 20
-9.987331811739277
 10
15.05982150231143
 20
-9.984782441080193
 10
15.09031059735589
 20
-9.984782441080193
 10
15.15380370714905
 20
-9.984782441080193
 10
15.2172968169422
 20
-9.99875230327288
 10
15.26807752439479
 20
-10.02922417283992
 10
15.33284531951748
 20
-10.06605224357724
 10
15.38617539762915
 20
-10.13715901439279
 10
15.38617539762915
 20
-10.24128702543447
 10
15.38617539762915
 20
-10.40256917057644
 10
15.2579144927133
 20
-10.52319918899246
 10
15.07887288034486
 20
-10.52319918899246
 10
14.98871473149588
 20
-10.52319918899246
 10
14.91250921936215
 20
-10.49780883526617
 10
14.8731662289206
 20
-10.47240125606245
 10
14.8731662289206
 20
-10.47240125606245
 10
14.90110595330597
 20
-10.38732462305421
 10
14.90110595330597
 20
-10.38732462305421
 10
14.93538465338421
 20
-10.40765068641718
 10
15.00266736821114
 20
-10.43304104014348
 10
15.07759819501532
 20
-10.43304104014348
 10
15.18301811686397
 20
-10.43304104014348
 10
15.27317626571296
 20
-10.36446641450958
 10
15.27317626571296
 20
-10.25399942777504
 10
15.27190158038341
 20
-10.14732204607428
 10
15.20079480956786
 20
-10.07113375941798
 10
15.03570583391468
 20
-10.07113375941798
 10
14.98871473149588
 20
-10.07113375941798
 10
14.95188666075856
 20
-10.07621527525872
 10
14.92139756571409
 20
-10.08002210576992
 10
14.92139756571409
 20
-10.08002210576992
 10
14.97476209478061
 20
-9.683836124966193
 10
14.97476209478061
 20
-9.683836124966193
 10
14.97476209478061
 20
-9.683836124966193
 10
15.3696733902548
 20
-9.683836124966193
 10
15.3696733902548
 20
-9.683836124966193
 10
15.3696733902548
 20
-9.683836124966193
 10
15.3696733902548
 20
-9.777801104326382
 10
15.3696733902548
 20
-9.777801104326382
 97
        0
 97
        0
 75
     2
 76
     1
 98
        0
450
        0
451
        0
460
0.0
461
0.0
452
        0
462
0.0
453
        0
470

  0
ENDBLK
  5
5B0
330
5AD
100
AcDbEntity
  8
0
100
AcDbBlockEnd
  0
BLOCK
  5
5C5
330
5C3
100
AcDbEntity
  8
0
100
AcDbBlockBegin
  2
block 21
 70
     0
 10
0.0
 20
0.0
 30
0.0
  3
block 21
  1

  0
ENDBLK
  5
5C6
330
5C3
100
AcDbEntity
  8
0
100
AcDbBlockEnd
  0
BLOCK
  5
5C9
330
5C7
100
AcDbEntity
  8
0
100
AcDbBlockBegin
  2
block 22
 70
     0
 10
0.0
 20
0.0
 30
0.0
  3
block 22
  1

  0
SPLINE
  5
5CB
330
5C7
100
AcDbEntity
  8
Livello 1
370
     0
100
AcDbSpline
210
0.0
220
0.0
230
1.0
 70
     9
 71
     3
 72
    59
 73
    55
 74
     0
 42
0.000000001
 43
0.0000000001
 40
0.0
 40
0.0
 40
0.0
 40
0.0
 40
1.0
 40
1.0
 40
1.0
 40
2.0
 40
2.0
 40
2.0
 40
3.0
 40
3.0
 40
3.0
 40
4.0
 40
4.0
 40
4.0
 40
5.0
 40
5.0
 40
5.0
 40
6.0
 40
6.0
 40
6.0
 40
7.0
 40
7.0
 40
7.0
 40
8.0
 40
8.0
 40
8.0
 40
9.0
 40
9.0
 40
9.0
 40
10.0
 40
10.0
 40
10.0
 40
11.0
 40
11.0
 40
11.0
 40
12.0
 40
12.0
 40
12.0
 40
13.0
 40
13.0
 40
13.0
 40
14.0
 40
14.0
 40
14.0
 40
15.0
 40
15.0
 40
15.0
 40
16.0
 40
16.0
 40
16.0
 40
17.0
 40
17.0
 40
17.0
 40
18.0
 40
18.0
 40
18.0
 40
18.0
 10
18.71331081346403
 20
-10.38096842188392
 30
0.0
 10
18.74507459383804
 20
-10.4012944852469
 30
0.0
 10
18.81873073531268
 20
-10.43304104014348
 30
0.0
 10
18.89617648182109
 20
-10.43304104014348
 30
0.0
 10
19.03966470878175
 20
-10.43304104014348
 30
0.0
 10
19.08410644054147
 20
-10.34160820596494
 30
0.0
 10
19.08286620616678
 20
-10.27303358033105
 30
0.0
 10
19.08159152083724
 20
-10.15748507775577
 30
0.0
 10
18.97744628431814
 20
-10.1079618301553
 30
0.0
 10
18.86951144276526
 20
-10.1079618301553
 30
0.0
 10
18.86951144276526
 20
-10.1079618301553
 30
0.0
 10
18.80729301830165
 20
-10.1079618301553
 30
0.0
 10
18.80729301830165
 20
-10.1079618301553
 30
0.0
 10
18.80729301830165
 20
-10.1079618301553
 30
0.0
 10
18.80729301830165
 20
-10.02414265699917
 30
0.0
 10
18.80729301830165
 20
-10.02414265699917
 30
0.0
 10
18.80729301830165
 20
-10.02414265699917
 30
0.0
 10
18.86951144276526
 20
-10.02414265699917
 30
0.0
 10
18.86951144276526
 20
-10.02414265699917
 30
0.0
 10
18.9507812452623
 20
-10.02414265699917
 30
0.0
 10
19.05365179645186
 20
-9.982250295898538
 30
0.0
 10
19.05365179645186
 20
-9.884461260549716
 30
0.0
 10
19.05365179645186
 20
-9.818436005574904
 30
0.0
 10
19.01172498439637
 20
-9.760024411622493
 30
0.0
 10
18.90888888416167
 20
-9.760024411622493
 30
0.0
 10
18.84284640370943
 20
-9.760024411622493
 30
0.0
 10
18.77935329391627
 20
-9.789221595859984
 30
0.0
 10
18.74379990850849
 20
-9.814629175063702
 30
0.0
 10
18.74379990850849
 20
-9.814629175063702
 30
0.0
 10
18.71458549879357
 20
-9.73335937256666
 30
0.0
 10
18.71458549879357
 20
-9.73335937256666
 30
0.0
 10
18.75778699617861
 20
-9.701612817670081
 30
0.0
 10
18.84157171837988
 20
-9.669866262773505
 30
0.0
 10
18.93045518189933
 20
-9.669866262773505
 30
0.0
 10
19.09299478689342
 20
-9.669866262773505
 30
0.0
 10
19.16665092836806
 20
-9.766380612792779
 30
0.0
 10
19.16665092836806
 20
-9.866684567845828
 30
0.0
 10
19.16665092836806
 20
-9.951761200854072
 30
0.0
 10
19.11587022091548
 20
-10.02414265699917
 30
0.0
 10
19.01427435505546
 20
-10.06097072773649
 30
0.0
 10
19.01427435505546
 20
-10.06097072773649
 30
0.0
 10
19.01427435505546
 20
-10.06352009839558
 30
0.0
 10
19.01427435505546
 20
-10.06352009839558
 30
0.0
 10
19.11587022091548
 20
-10.08382893628113
 30
0.0
 10
19.19841470874206
 20
-10.16001722293742
 30
0.0
 10
19.19841470874206
 20
-10.27558295099013
 30
0.0
 10
19.19841470874206
 20
-10.40765068641718
 30
0.0
 10
19.0955441575525
 20
-10.52319918899246
 30
0.0
 10
18.89745116715063
 20
-10.52319918899246
 30
0.0
 10
18.80474364764255
 20
-10.52319918899246
 30
0.0
 10
18.72347384514552
 20
-10.49398477927754
 30
0.0
 10
18.68285616937442
 20
-10.46731974022171
 30
0.0
 10
18.68285616937442
 20
-10.46731974022171
 30
0.0
 10
18.71331081346403
 20
-10.38096842188392
 30
0.0
 10
18.71331081346403
 20
-10.38096842188392
 30
0.0
  0
HATCH
  5
5CC
330
5C7
100
AcDbEntity
  8
Livello 1
 62
   250
420
  1842203
100
AcDbHatch
 10
0.0
 20
0.0
 30
0.0
210
0.0
220
0.0
230
1.0
  2
SOLID
 70
     1
 71
     0
 91
        1
 92
        1
 93
        1
 72
     4
 94
        3
 73
     0
 74
     0
 95
       59
 96
       55
 40
0.0
 40
0.0
 40
0.0
 40
0.0
 40
1.0
 40
1.0
 40
1.0
 40
2.0
 40
2.0
 40
2.0
 40
3.0
 40
3.0
 40
3.0
 40
4.0
 40
4.0
 40
4.0
 40
5.0
 40
5.0
 40
5.0
 40
6.0
 40
6.0
 40
6.0
 40
7.0
 40
7.0
 40
7.0
 40
8.0
 40
8.0
 40
8.0
 40
9.0
 40
9.0
 40
9.0
 40
10.0
 40
10.0
 40
10.0
 40
11.0
 40
11.0
 40
11.0
 40
12.0
 40
12.0
 40
12.0
 40
13.0
 40
13.0
 40
13.0
 40
14.0
 40
14.0
 40
14.0
 40
15.0
 40
15.0
 40
15.0
 40
16.0
 40
16.0
 40
16.0
 40
17.0
 40
17.0
 40
17.0
 40
18.0
 40
18.0
 40
18.0
 40
18.0
 10
18.71331081346403
 20
-10.38096842188392
 10
18.74507459383804
 20
-10.4012944852469
 10
18.81873073531268
 20
-10.43304104014348
 10
18.89617648182109
 20
-10.43304104014348
 10
19.03966470878175
 20
-10.43304104014348
 10
19.08410644054147
 20
-10.34160820596494
 10
19.08286620616678
 20
-10.27303358033105
 10
19.08159152083724
 20
-10.15748507775577
 10
18.97744628431814
 20
-10.1079618301553
 10
18.86951144276526
 20
-10.1079618301553
 10
18.86951144276526
 20
-10.1079618301553
 10
18.80729301830165
 20
-10.1079618301553
 10
18.80729301830165
 20
-10.1079618301553
 10
18.80729301830165
 20
-10.1079618301553
 10
18.80729301830165
 20
-10.02414265699917
 10
18.80729301830165
 20
-10.02414265699917
 10
18.80729301830165
 20
-10.02414265699917
 10
18.86951144276526
 20
-10.02414265699917
 10
18.86951144276526
 20
-10.02414265699917
 10
18.9507812452623
 20
-10.02414265699917
 10
19.05365179645186
 20
-9.982250295898538
 10
19.05365179645186
 20
-9.884461260549716
 10
19.05365179645186
 20
-9.818436005574904
 10
19.01172498439637
 20
-9.760024411622493
 10
18.90888888416167
 20
-9.760024411622493
 10
18.84284640370943
 20
-9.760024411622493
 10
18.77935329391627
 20
-9.789221595859984
 10
18.74379990850849
 20
-9.814629175063702
 10
18.74379990850849
 20
-9.814629175063702
 10
18.71458549879357
 20
-9.73335937256666
 10
18.71458549879357
 20
-9.73335937256666
 10
18.75778699617861
 20
-9.701612817670081
 10
18.84157171837988
 20
-9.669866262773505
 10
18.93045518189933
 20
-9.669866262773505
 10
19.09299478689342
 20
-9.669866262773505
 10
19.16665092836806
 20
-9.766380612792779
 10
19.16665092836806
 20
-9.866684567845828
 10
19.16665092836806
 20
-9.951761200854072
 10
19.11587022091548
 20
-10.02414265699917
 10
19.01427435505546
 20
-10.06097072773649
 10
19.01427435505546
 20
-10.06097072773649
 10
19.01427435505546
 20
-10.06352009839558
 10
19.01427435505546
 20
-10.06352009839558
 10
19.11587022091548
 20
-10.08382893628113
 10
19.19841470874206
 20
-10.16001722293742
 10
19.19841470874206
 20
-10.27558295099013
 10
19.19841470874206
 20
-10.40765068641718
 10
19.0955441575525
 20
-10.52319918899246
 10
18.89745116715063
 20
-10.52319918899246
 10
18.80474364764255
 20
-10.52319918899246
 10
18.72347384514552
 20
-10.49398477927754
 10
18.68285616937442
 20
-10.46731974022171
 10
18.68285616937442
 20
-10.46731974022171
 10
18.71331081346403
 20
-10.38096842188392
 10
18.71331081346403
 20
-10.38096842188392
 97
        0
 97
        0
 75
     2
 76
     1
 98
        0
450
        0
451
        0
460
0.0
461
0.0
452
        0
462
0.0
453
        0
470

  0
SPLINE
  5
5CD
330
5C7
100
AcDbEntity
  8
Livello 1
370
     0
100
AcDbSpline
210
0.0
220
0.0
230
1.0
 70
    11
 71
     3
 72
    50
 73
    46
 74
     0
 42
0.000000001
 43
0.0000000001
 40
0.0
 40
0.0
 40
0.0
 40
0.0
 40
1.0
 40
1.0
 40
1.0
 40
2.0
 40
2.0
 40
2.0
 40
3.0
 40
3.0
 40
3.0
 40
4.0
 40
4.0
 40
4.0
 40
5.0
 40
5.0
 40
5.0
 40
6.0
 40
6.0
 40
6.0
 40
7.0
 40
7.0
 40
7.0
 40
8.0
 40
8.0
 40
8.0
 40
9.0
 40
9.0
 40
9.0
 40
10.0
 40
10.0
 40
10.0
 40
11.0
 40
11.0
 40
11.0
 40
12.0
 40
12.0
 40
12.0
 40
13.0
 40
13.0
 40
13.0
 40
14.0
 40
14.0
 40
14.0
 40
15.0
 40
15.0
 40
15.0
 40
15.0
 10
19.83083088696937
 20
-9.777801104326382
 30
0.0
 10
19.83083088696937
 20
-9.777801104326382
 30
0.0
 10
19.51591470866269
 20
-9.777801104326382
 30
0.0
 10
19.51591470866269
 20
-9.777801104326382
 30
0.0
 10
19.51591470866269
 20
-9.777801104326382
 30
0.0
 10
19.48418537924353
 20
-9.989863956920936
 30
0.0
 10
19.48418537924353
 20
-9.989863956920936
 30
0.0
 10
19.50323675727697
 20
-9.987331811739277
 30
0.0
 10
19.52101344998086
 20
-9.984782441080193
 30
0.0
 10
19.55146809407047
 20
-9.984782441080193
 30
0.0
 10
19.61496120386362
 20
-9.984782441080193
 30
0.0
 10
19.67845431365678
 20
-9.99875230327288
 30
0.0
 10
19.72926947206421
 20
-10.02922417283992
 30
0.0
 10
19.79400281623206
 20
-10.06605224357724
 30
0.0
 10
19.84736734529857
 20
-10.13715901439279
 30
0.0
 10
19.84736734529857
 20
-10.24128702543447
 30
0.0
 10
19.84736734529857
 20
-10.40256917057644
 30
0.0
 10
19.71910644038272
 20
-10.52319918899246
 30
0.0
 10
19.54006482801428
 20
-10.52319918899246
 30
0.0
 10
19.4499066791653
 20
-10.52319918899246
 30
0.0
 10
19.37370116703157
 20
-10.49780883526617
 30
0.0
 10
19.33432372563517
 20
-10.47240125606245
 30
0.0
 10
19.33432372563517
 20
-10.47240125606245
 30
0.0
 10
19.36226345002054
 20
-10.38732462305421
 30
0.0
 10
19.36226345002054
 20
-10.38732462305421
 30
0.0
 10
19.39654215009878
 20
-10.40765068641718
 30
0.0
 10
19.46385931588056
 20
-10.43304104014348
 30
0.0
 10
19.53879014268475
 20
-10.43304104014348
 30
0.0
 10
19.64417561357854
 20
-10.43304104014348
 30
0.0
 10
19.73433376242753
 20
-10.36446641450958
 30
0.0
 10
19.73433376242753
 20
-10.25399942777504
 30
0.0
 10
19.73305907709798
 20
-10.14732204607428
 30
0.0
 10
19.66195230628243
 20
-10.07113375941798
 30
0.0
 10
19.49686333062926
 20
-10.07113375941798
 30
0.0
 10
19.4499066791653
 20
-10.07113375941798
 30
0.0
 10
19.41307860842798
 20
-10.07621527525872
 30
0.0
 10
19.38258951338352
 20
-10.08002210576992
 30
0.0
 10
19.38258951338352
 20
-10.08002210576992
 30
0.0
 10
19.43591959149519
 20
-9.683836124966193
 30
0.0
 10
19.43591959149519
 20
-9.683836124966193
 30
0.0
 10
19.43591959149519
 20
-9.683836124966193
 30
0.0
 10
19.83083088696937
 20
-9.683836124966193
 30
0.0
 10
19.83083088696937
 20
-9.683836124966193
 30
0.0
 10
19.83083088696937
 20
-9.683836124966193
 30
0.0
 10
19.83083088696937
 20
-9.777801104326382
 30
0.0
 10
19.83083088696937
 20
-9.777801104326382
 30
0.0
  0
HATCH
  5
5CE
330
5C7
100
AcDbEntity
  8
Livello 1
 62
   250
420
  1842203
100
AcDbHatch
 10
0.0
 20
0.0
 30
0.0
210
0.0
220
0.0
230
1.0
  2
SOLID
 70
     1
 71
     0
 91
        1
 92
        1
 93
        1
 72
     4
 94
        3
 73
     0
 74
     0
 95
       50
 96
       46
 40
0.0
 40
0.0
 40
0.0
 40
0.0
 40
1.0
 40
1.0
 40
1.0
 40
2.0
 40
2.0
 40
2.0
 40
3.0
 40
3.0
 40
3.0
 40
4.0
 40
4.0
 40
4.0
 40
5.0
 40
5.0
 40
5.0
 40
6.0
 40
6.0
 40
6.0
 40
7.0
 40
7.0
 40
7.0
 40
8.0
 40
8.0
 40
8.0
 40
9.0
 40
9.0
 40
9.0
 40
10.0
 40
10.0
 40
10.0
 40
11.0
 40
11.0
 40
11.0
 40
12.0
 40
12.0
 40
12.0
 40
13.0
 40
13.0
 40
13.0
 40
14.0
 40
14.0
 40
14.0
 40
15.0
 40
15.0
 40
15.0
 40
15.0
 10
19.83083088696937
 20
-9.777801104326382
 10
19.83083088696937
 20
-9.777801104326382
 10
19.51591470866269
 20
-9.777801104326382
 10
19.51591470866269
 20
-9.777801104326382
 10
19.51591470866269
 20
-9.777801104326382
 10
19.48418537924353
 20
-9.989863956920936
 10
19.48418537924353
 20
-9.989863956920936
 10
19.50323675727697
 20
-9.987331811739277
 10
19.52101344998086
 20
-9.984782441080193
 10
19.55146809407047
 20
-9.984782441080193
 10
19.61496120386362
 20
-9.984782441080193
 10
19.67845431365678
 20
-9.99875230327288
 10
19.72926947206421
 20
-10.02922417283992
 10
19.79400281623206
 20
-10.06605224357724
 10
19.84736734529857
 20
-10.13715901439279
 10
19.84736734529857
 20
-10.24128702543447
 10
19.84736734529857
 20
-10.40256917057644
 10
19.71910644038272
 20
-10.52319918899246
 10
19.54006482801428
 20
-10.52319918899246
 10
19.4499066791653
 20
-10.52319918899246
 10
19.37370116703157
 20
-10.49780883526617
 10
19.33432372563517
 20
-10.47240125606245
 10
19.33432372563517
 20
-10.47240125606245
 10
19.36226345002054
 20
-10.38732462305421
 10
19.36226345002054
 20
-10.38732462305421
 10
19.39654215009878
 20
-10.40765068641718
 10
19.46385931588056
 20
-10.43304104014348
 10
19.53879014268475
 20
-10.43304104014348
 10
19.64417561357854
 20
-10.43304104014348
 10
19.73433376242753
 20
-10.36446641450958
 10
19.73433376242753
 20
-10.25399942777504
 10
19.73305907709798
 20
-10.14732204607428
 10
19.66195230628243
 20
-10.07113375941798
 10
19.49686333062926
 20
-10.07113375941798
 10
19.4499066791653
 20
-10.07113375941798
 10
19.41307860842798
 20
-10.07621527525872
 10
19.38258951338352
 20
-10.08002210576992
 10
19.38258951338352
 20
-10.08002210576992
 10
19.43591959149519
 20
-9.683836124966193
 10
19.43591959149519
 20
-9.683836124966193
 10
19.43591959149519
 20
-9.683836124966193
 10
19.83083088696937
 20
-9.683836124966193
 10
19.83083088696937
 20
-9.683836124966193
 10
19.83083088696937
 20
-9.683836124966193
 10
19.83083088696937
 20
-9.777801104326382
 10
19.83083088696937
 20
-9.777801104326382
 97
        0
 97
        0
 75
     2
 76
     1
 98
        0
450
        0
451
        0
460
0.0
461
0.0
452
        0
462
0.0
453
        0
470

  0
ENDBLK
  5
5CA
330
5C7
100
AcDbEntity
  8
0
100
AcDbBlockEnd
  0
ENDSEC
  0
SECTION
  2
ENTITIES
  0
SPLINE
  5
35F
330
1F
100
AcDbEntity
  8
Livello 1
100
AcDbSpline
210
0.0
220
0.0
230
1.0
 70
     8
 71
     3
 72
     8
 73
     4
 74
     0
 42
0.000000001
 43
0.0000000001
 40
0.0
 40
0.0
 40
0.0
 40
0.0
 40
1.0
 40
1.0
 40
1.0
 40
1.0
 10
5.048886603938955
 20
-3.662401304639955
 30
0.0
 10
5.048886603938955
 20
-3.661709860195664
 30
0.0
 10
5.049214687263918
 20
-3.661215971306926
 30
0.0
 10
5.049997853910606
 20
-3.660722082418156
 30
0.0
  0
SPLINE
  5
364
330
1F
100
AcDbEntity
  8
Livello 1
100
AcDbSpline
210
0.0
220
0.0
230
1.0
 70
     8
 71
     3
 72
     8
 73
     4
 74
     0
 42
0.000000001
 43
0.0000000001
 40
0.0
 40
0.0
 40
0.0
 40
0.0
 40
1.0
 40
1.0
 40
1.0
 40
1.0
 10
5.142358601554286
 20
-3.660722082418156
 30
0.0
 10
5.143141768200973
 20
-3.661215971306926
 30
0.0
 10
5.14346279597056
 20
-3.661709860195664
 30
0.0
 10
5.14346279597056
 20
-3.662401304639955
 30
0.0
  0
SPLINE
  5
365
330
1F
100
AcDbEntity
  8
Livello 1
100
AcDbSpline
210
0.0
220
0.0
230
1.0
 70
     8
 71
     3
 72
     8
 73
     4
 74
     0
 42
0.000000001
 43
0.0000000001
 40
0.0
 40
0.0
 40
0.0
 40
0.0
 40
1.0
 40
1.0
 40
1.0
 40
1.0
 10
5.126935157503325
 20
-3.660041221307218
 30
0.0
 10
5.12770774081695
 20
-3.660104721307203
 30
0.0
 10
5.128138129694858
 20
-3.660348137973788
 30
0.0
 10
5.128561463017391
 20
-3.660722082418156
 30
0.0
  0
SPLINE
  5
36A
330
1F
100
AcDbEntity
  8
Livello 1
100
AcDbSpline
210
0.0
220
0.0
230
1.0
 70
    24
 71
     3
 72
    26
 73
    22
 74
     0
 42
0.000000001
 43
0.0000000001
 40
0.0
 40
0.0
 40
0.0
 40
0.0
 40
1.0
 40
1.0
 40
1.0
 40
2.0
 40
2.0
 40
2.0
 40
3.0
 40
3.0
 40
3.0
 40
4.0
 40
4.0
 40
4.0
 40
5.0
 40
5.0
 40
5.0
 40
6.0
 40
6.0
 40
6.0
 40
7.0
 40
7.0
 40
7.0
 40
7.0
 10
5.861270479109173
 20
-3.664775499083796
 30
0.0
 10
5.862039360971476
 20
-3.664775499083796
 30
0.0
 10
5.860501249899607
 20
-3.664775499083796
 30
0.0
 10
5.860116722131638
 20
-3.664775499083796
 30
0.0
 10
5.856871166658886
 20
-3.664775499083796
 30
0.0
 10
5.853622083408442
 20
-3.664775499083796
 30
0.0
 10
5.85036964577859
 20
-3.664775499083796
 30
0.0
 10
5.834575611672137
 20
-3.664775499083796
 30
0.0
 10
5.818778223186272
 20
-3.664775499083796
 30
0.0
 10
5.802977306922722
 20
-3.664775499083796
 30
0.0
 10
5.730982419870575
 20
-3.664775499083796
 30
0.0
 10
5.658987701381986
 20
-3.664775499083796
 30
0.0
 10
5.586992645766283
 20
-3.664775499083796
 30
0.0
 10
5.495203398108021
 20
-3.664775499083796
 30
0.0
 10
5.403414150449759
 20
-3.664775499083796
 30
0.0
 10
5.311628430569187
 20
-3.664775499083796
 30
0.0
 10
5.12802186818138
 20
-3.664775499083796
 30
0.0
 10
4.944411467715449
 20
-3.664775499083796
 30
0.0
 10
4.760801222399737
 20
-3.664775499083796
 30
0.0
 10
4.39345725954924
 20
-3.664775499083796
 30
0.0
 10
4.026109768921056
 20
-3.664775499083796
 30
0.0
 10
3.658758750515183
 20
-3.664775499083796
 30
0.0
  0
SPLINE
  5
373
330
1F
100
AcDbEntity
  8
Livello 1
100
AcDbSpline
210
0.0
220
0.0
230
1.0
 70
     8
 71
     3
 72
     8
 73
     4
 74
     0
 42
0.000000001
 43
0.0000000001
 40
0.0
 40
0.0
 40
0.0
 40
0.0
 40
1.0
 40
1.0
 40
1.0
 40
1.0
 10
5.658648866160402
 20
-3.660722082418156
 30
0.0
 10
5.659121588370563
 20
-3.660249360196059
 30
0.0
 10
5.659661338356793
 20
-3.660051804640538
 30
0.0
 10
5.660553866111801
 20
-3.660034165751651
 30
0.0
  0
SPLINE
  5
380
330
1F
100
AcDbEntity
  8
Livello 1
100
AcDbSpline
210
0.0
220
0.0
230
1.0
 70
     8
 71
     3
 72
     8
 73
     4
 74
     0
 42
0.000000001
 43
0.0000000001
 40
0.0
 40
0.0
 40
0.0
 40
0.0
 40
1.0
 40
1.0
 40
1.0
 40
1.0
 10
3.612580140582185
 20
-3.660722082418156
 30
0.0
 10
3.611796973935499
 20
-3.661215971306926
 30
0.0
 10
3.611472418388224
 20
-3.661709860195664
 30
0.0
 10
3.611472418388224
 20
-3.662401304639955
 30
0.0
  0
SPLINE
  5
381
330
1F
100
AcDbEntity
  8
Livello 1
100
AcDbSpline
210
0.0
220
0.0
230
1.0
 70
    24
 71
     3
 72
    17
 73
    13
 74
     0
 42
0.000000001
 43
0.0000000001
 40
0.0
 40
0.0
 40
0.0
 40
0.0
 40
1.0
 40
1.0
 40
1.0
 40
2.0
 40
2.0
 40
2.0
 40
3.0
 40
3.0
 40
3.0
 40
4.0
 40
4.0
 40
4.0
 40
4.0
 10
5.645395005387424
 20
-3.660722082418156
 30
0.0
 10
5.644287283193462
 20
-3.660722082418156
 30
0.0
 10
5.646495672026013
 20
-3.660722082418156
 30
0.0
 10
5.647042477567616
 20
-3.660722082418156
 30
0.0
 10
5.647596338664596
 20
-3.660722082418156
 30
0.0
 10
5.648150199761576
 20
-3.660722082418156
 30
0.0
 10
5.648700533080872
 20
-3.660722082418156
 30
0.0
 10
5.649808255274832
 20
-3.660722082418156
 30
0.0
 10
5.650912449691107
 20
-3.660722082418156
 30
0.0
 10
5.65202017188507
 20
-3.660722082418156
 30
0.0
 10
5.654228560717617
 20
-3.660722082418156
 30
0.0
 10
5.656436949550165
 20
-3.660722082418156
 30
0.0
 10
5.658648866160402
 20
-3.660722082418156
 30
0.0
  0
SPLINE
  5
382
330
1F
100
AcDbEntity
  8
Livello 1
100
AcDbSpline
210
0.0
220
0.0
230
1.0
 70
     8
 71
     3
 72
     8
 73
     4
 74
     0
 42
0.000000001
 43
0.0000000001
 40
0.0
 40
0.0
 40
0.0
 40
0.0
 40
1.0
 40
1.0
 40
1.0
 40
1.0
 10
3.706048610419828
 20
-3.662401304639955
 30
0.0
 10
3.706048610419828
 20
-3.660722082418156
 30
0.0
 10
3.704940888225866
 20
-3.660034165751651
 30
0.0
 10
3.702266832738533
 20
-3.660034165751651
 30
0.0
  0
SPLINE
  5
393
330
1F
100
AcDbEntity
  8
Livello 1
100
AcDbSpline
210
0.0
220
0.0
230
1.0
 70
     8
 71
     3
 72
     8
 73
     4
 74
     0
 42
0.000000001
 43
0.0000000001
 40
0.0
 40
0.0
 40
0.0
 40
0.0
 40
1.0
 40
1.0
 40
1.0
 40
1.0
 10
5.644280227638088
 20
-3.662401304639955
 30
0.0
 10
5.644280227638088
 20
-3.661709860195664
 30
0.0
 10
5.644608310963051
 20
-3.661215971306926
 30
0.0
 10
5.645395005387424
 20
-3.660722082418156
 30
0.0
  0
SPLINE
  5
398
330
1F
100
AcDbEntity
  8
Livello 1
100
AcDbSpline
210
0.0
220
0.0
230
1.0
 70
    24
 71
     3
 72
    20
 73
    16
 74
     0
 42
0.000000001
 43
0.0000000001
 40
0.0
 40
0.0
 40
0.0
 40
0.0
 40
1.0
 40
1.0
 40
1.0
 40
2.0
 40
2.0
 40
2.0
 40
3.0
 40
3.0
 40
3.0
 40
4.0
 40
4.0
 40
4.0
 40
5.0
 40
5.0
 40
5.0
 40
5.0
 10
2.263928452230747
 20
-3.660034165751651
 30
0.0
 10
2.264238896675101
 20
-3.660034165751651
 30
0.0
 10
2.264549341119485
 20
-3.660034165751651
 30
0.0
 10
2.264856257786055
 20
-3.660034165751651
 30
0.0
 10
2.26537484111928
 20
-3.660034165751651
 30
0.0
 10
2.264330618897292
 20
-3.660034165751651
 30
0.0
 10
2.264069563341819
 20
-3.660034165751651
 30
0.0
 10
2.263498063341961
 20
-3.660034165751651
 30
0.0
 10
2.262933618897672
 20
-3.660034165751651
 30
0.0
 10
2.262362118897813
 20
-3.660034165751651
 30
0.0
 10
2.261226174453634
 20
-3.660034165751651
 30
0.0
 10
2.260086702231701
 20
-3.660034165751651
 30
0.0
 10
2.258943702231985
 20
-3.660034165751651
 30
0.0
 10
2.256671813343658
 20
-3.660034165751651
 30
0.0
 10
2.254392868899794
 20
-3.660034165751651
 30
0.0
 10
2.25211392445593
 20
-3.660034165751651
 30
0.0
  0
SPLINE
  5
399
330
1F
100
AcDbEntity
  8
Livello 1
100
AcDbSpline
210
0.0
220
0.0
230
1.0
 70
     8
 71
     3
 72
     8
 73
     4
 74
     0
 42
0.000000001
 43
0.0000000001
 40
0.0
 40
0.0
 40
0.0
 40
0.0
 40
1.0
 40
1.0
 40
1.0
 40
1.0
 10
5.722332308980146
 20
-3.660041221307218
 30
0.0
 10
5.723104892293768
 20
-3.660104721307203
 30
0.0
 10
5.723535281171677
 20
-3.660348137973788
 30
0.0
 10
5.723955086716522
 20
-3.660722082418156
 30
0.0
  0
SPLINE
  5
39A
330
1F
100
AcDbEntity
  8
Livello 1
100
AcDbSpline
210
0.0
220
0.0
230
1.0
 70
     8
 71
     3
 72
     8
 73
     4
 74
     0
 42
0.000000001
 43
0.0000000001
 40
0.0
 40
0.0
 40
0.0
 40
0.0
 40
1.0
 40
1.0
 40
1.0
 40
1.0
 10
5.737755753031105
 20
-3.660722082418156
 30
0.0
 10
5.738531864122418
 20
-3.661215971306926
 30
0.0
 10
5.738859947447379
 20
-3.661709860195664
 30
0.0
 10
5.738859947447379
 20
-3.662401304639955
 30
0.0
  0
SPLINE
  5
3A7
330
1F
100
AcDbEntity
  8
Livello 1
100
AcDbSpline
210
0.0
220
0.0
230
1.0
 70
    24
 71
     3
 72
    20
 73
    16
 74
     0
 42
0.000000001
 43
0.0000000001
 40
0.0
 40
0.0
 40
0.0
 40
0.0
 40
1.0
 40
1.0
 40
1.0
 40
2.0
 40
2.0
 40
2.0
 40
3.0
 40
3.0
 40
3.0
 40
4.0
 40
4.0
 40
4.0
 40
5.0
 40
5.0
 40
5.0
 40
5.0
 10
1.668732369046224
 20
-3.660034165751651
 30
0.0
 10
1.668841730157305
 20
-3.660034165751651
 30
0.0
 10
1.669286230157194
 20
-3.660034165751651
 30
0.0
 10
1.669063980157249
 20
-3.660034165751651
 30
0.0
 10
1.66759289682426
 20
-3.660034165751651
 30
0.0
 10
1.666125341269086
 20
-3.660034165751651
 30
0.0
 10
1.664661313491666
 20
-3.660034165751651
 30
0.0
 10
1.662816285714338
 20
-3.660034165751651
 30
0.0
 10
1.660974785714828
 20
-3.660034165751651
 30
0.0
 10
1.659129757937501
 20
-3.660034165751651
 30
0.0
 10
1.655443230160632
 20
-3.660034165751651
 30
0.0
 10
1.651756702383796
 20
-3.660034165751651
 30
0.0
 10
1.64807370238471
 20
-3.660034165751651
 30
0.0
 10
1.640700646831003
 20
-3.660034165751651
 30
0.0
 10
1.633327591277297
 20
-3.660034165751651
 30
0.0
 10
1.625951007945807
 20
-3.660034165751651
 30
0.0
  0
SPLINE
  5
3AC
330
1F
100
AcDbEntity
  8
Livello 1
100
AcDbSpline
210
0.0
220
0.0
230
1.0
 70
     8
 71
     3
 72
     8
 73
     4
 74
     0
 42
0.000000001
 43
0.0000000001
 40
0.0
 40
0.0
 40
0.0
 40
0.0
 40
1.0
 40
1.0
 40
1.0
 40
1.0
 10
1.6567167579381
 20
-3.660041221307218
 30
0.0
 10
1.657482285715695
 20
-3.660104721307203
 30
0.0
 10
1.657916202382233
 20
-3.660348137973788
 30
0.0
 10
1.658336007937698
 20
-3.660722082418156
 30
0.0
  0
SPLINE
  5
3AD
330
1F
100
AcDbEntity
  8
Livello 1
100
AcDbSpline
210
0.0
220
0.0
230
1.0
 70
    24
 71
     3
 72
    20
 73
    16
 74
     0
 42
0.000000001
 43
0.0000000001
 40
0.0
 40
0.0
 40
0.0
 40
0.0
 40
1.0
 40
1.0
 40
1.0
 40
2.0
 40
2.0
 40
2.0
 40
3.0
 40
3.0
 40
3.0
 40
4.0
 40
4.0
 40
4.0
 40
5.0
 40
5.0
 40
5.0
 40
5.0
 10
5.734351447562402
 20
-3.660034165751651
 30
0.0
 10
5.734460808670721
 20
-3.660034165751651
 30
0.0
 10
5.734905479140784
 20
-3.660034165751651
 30
0.0
 10
5.734683058665052
 20
-3.660034165751651
 30
0.0
 10
5.733215503146937
 20
-3.660034165751651
 30
0.0
 10
5.731744419851134
 20
-3.660034165751651
 30
0.0
 10
5.730276864333018
 20
-3.660034165751651
 30
0.0
 10
5.728438892157686
 20
-3.660034165751651
 30
0.0
 10
5.72659386442698
 20
-3.660034165751651
 30
0.0
 10
5.724752364473959
 20
-3.660034165751651
 30
0.0
 10
5.721065836790234
 20
-3.660034165751651
 30
0.0
 10
5.717379309106507
 20
-3.660034165751651
 30
0.0
 10
5.713696309200469
 20
-3.660034165751651
 30
0.0
 10
5.706319726055327
 20
-3.660034165751651
 30
0.0
 10
5.698946670687874
 20
-3.660034165751651
 30
0.0
 10
5.691570087542732
 20
-3.660034165751651
 30
0.0
  0
SPLINE
  5
3AE
330
1F
100
AcDbEntity
  8
Livello 1
100
AcDbSpline
210
0.0
220
0.0
230
1.0
 70
     8
 71
     3
 72
     8
 73
     4
 74
     0
 42
0.000000001
 43
0.0000000001
 40
0.0
 40
0.0
 40
0.0
 40
0.0
 40
1.0
 40
1.0
 40
1.0
 40
1.0
 10
1.672133146823132
 20
-3.660722082418156
 30
0.0
 10
1.672916313489615
 20
-3.661215971306926
 30
0.0
 10
1.673240869045072
 20
-3.661709860195664
 30
0.0
 10
1.673240869045072
 20
-3.662401304639955
 30
0.0
  0
SPLINE
  5
3AF
330
1F
100
AcDbEntity
  8
Livello 1
100
AcDbSpline
210
0.0
220
0.0
230
1.0
 70
     8
 71
     3
 72
     8
 73
     4
 74
     0
 42
0.000000001
 43
0.0000000001
 40
0.0
 40
0.0
 40
0.0
 40
0.0
 40
1.0
 40
1.0
 40
1.0
 40
1.0
 10
1.5930297857318
 20
-3.660722082418156
 30
0.0
 10
1.593506035731683
 20
-3.660249360196059
 30
0.0
 10
1.594042257953764
 20
-3.660051804640538
 30
0.0
 10
1.594934785731328
 20
-3.660034165751651
 30
0.0
  0
SPLINE
  5
3B4
330
1F
100
AcDbEntity
  8
Livello 1
100
AcDbSpline
210
0.0
220
0.0
230
1.0
 70
    24
 71
     3
 72
    17
 73
    13
 74
     0
 42
0.000000001
 43
0.0000000001
 40
0.0
 40
0.0
 40
0.0
 40
0.0
 40
1.0
 40
1.0
 40
1.0
 40
2.0
 40
2.0
 40
2.0
 40
3.0
 40
3.0
 40
3.0
 40
4.0
 40
4.0
 40
4.0
 40
4.0
 10
1.579772396846234
 20
-3.660722082418156
 30
0.0
 10
1.57867173017983
 20
-3.660722082418156
 30
0.0
 10
1.580873063512606
 20
-3.660722082418156
 30
0.0
 10
1.581423396845824
 20
-3.660722082418156
 30
0.0
 10
1.581980785734578
 20
-3.660722082418156
 30
0.0
 10
1.58252759128998
 20
-3.660722082418156
 30
0.0
 10
1.583084980178734
 20
-3.660722082418156
 30
0.0
 10
1.584185646845138
 20
-3.660722082418156
 30
0.0
 10
1.585289841289293
 20
-3.660722082418156
 30
0.0
 10
1.586397563511234
 20
-3.660722082418156
 30
0.0
 10
1.588609480177361
 20
-3.660722082418156
 30
0.0
 10
1.590817869065673
 20
-3.660722082418156
 30
0.0
 10
1.5930297857318
 20
-3.660722082418156
 30
0.0
  0
SPLINE
  5
3B5
330
1F
100
AcDbEntity
  8
Livello 1
100
AcDbSpline
210
0.0
220
0.0
230
1.0
 70
     8
 71
     3
 72
     8
 73
     4
 74
     0
 42
0.000000001
 43
0.0000000001
 40
0.0
 40
0.0
 40
0.0
 40
0.0
 40
1.0
 40
1.0
 40
1.0
 40
1.0
 10
1.578661146846509
 20
-3.662401304639955
 30
0.0
 10
1.578661146846509
 20
-3.661709860195664
 30
0.0
 10
1.57898923017975
 20
-3.661215971306926
 30
0.0
 10
1.579772396846234
 20
-3.660722082418156
 30
0.0
  0
SPLINE
  5
3B6
330
1F
100
AcDbEntity
  8
Livello 1
100
AcDbSpline
210
0.0
220
0.0
230
1.0
 70
    24
 71
     3
 72
    20
 73
    16
 74
     0
 42
0.000000001
 43
0.0000000001
 40
0.0
 40
0.0
 40
0.0
 40
0.0
 40
1.0
 40
1.0
 40
1.0
 40
2.0
 40
2.0
 40
2.0
 40
3.0
 40
3.0
 40
3.0
 40
4.0
 40
4.0
 40
4.0
 40
5.0
 40
5.0
 40
5.0
 40
5.0
 10
5.138756740535066
 20
-3.660034165751651
 30
0.0
 10
5.13906718497159
 20
-3.660034165751651
 30
0.0
 10
5.13936704607505
 20
-3.660034165751651
 30
0.0
 10
5.139673962733887
 20
-3.660034165751651
 30
0.0
 10
5.140072601612606
 20
-3.660034165751651
 30
0.0
 10
5.139271796077481
 20
-3.660034165751651
 30
0.0
 10
5.139074240526966
 20
-3.660034165751651
 30
0.0
 10
5.138566240539926
 20
-3.660034165751651
 30
0.0
 10
5.138058240552886
 20
-3.660034165751651
 30
0.0
 10
5.137543185010471
 20
-3.660034165751651
 30
0.0
 10
5.136523812623699
 20
-3.660034165751651
 30
0.0
 10
5.135507657284623
 20
-3.660034165751651
 30
0.0
 10
5.134484601755168
 20
-3.660034165751651
 30
0.0
 10
5.132445546251633
 20
-3.660034165751651
 30
0.0
 10
5.130402962970411
 20
-3.660034165751651
 30
0.0
 10
5.128363907466876
 20
-3.660034165751651
 30
0.0
  0
SPLINE
  5
3C7
330
1F
100
AcDbEntity
  8
Livello 1
100
AcDbSpline
210
0.0
220
0.0
230
1.0
 70
     8
 71
     3
 72
     8
 73
     4
 74
     0
 42
0.000000001
 43
0.0000000001
 40
0.0
 40
0.0
 40
0.0
 40
0.0
 40
1.0
 40
1.0
 40
1.0
 40
1.0
 10
2.267530313340961
 20
-3.660722082418156
 30
0.0
 10
2.268313480007412
 20
-3.661215971306926
 30
0.0
 10
2.268634507785116
 20
-3.661709860195664
 30
0.0
 10
2.268634507785116
 20
-3.662401304639955
 30
0.0
  0
SPLINE
  5
3CC
330
1F
100
AcDbEntity
  8
Livello 1
100
AcDbSpline
210
0.0
220
0.0
230
1.0
 70
     8
 71
     3
 72
     8
 73
     4
 74
     0
 42
0.000000001
 43
0.0000000001
 40
0.0
 40
0.0
 40
0.0
 40
0.0
 40
1.0
 40
1.0
 40
1.0
 40
1.0
 10
1.455711035766134
 20
-3.664775499083796
 30
0.0
 10
1.453036980211228
 20
-3.664775499083796
 30
0.0
 10
1.451925730211535
 20
-3.665470471305837
 30
0.0
 10
1.451925730211535
 20
-3.667146165749883
 30
0.0
  0
SPLINE
  5
3CD
330
1F
100
AcDbEntity
  8
Livello 1
100
AcDbSpline
210
0.0
220
0.0
230
1.0
 70
     8
 71
     3
 72
     8
 73
     4
 74
     0
 42
0.000000001
 43
0.0000000001
 40
0.0
 40
0.0
 40
0.0
 40
0.0
 40
1.0
 40
1.0
 40
1.0
 40
1.0
 10
5.86181358319946
 20
-3.664775499083796
 30
0.0
 10
5.864487638686795
 20
-3.664775499083796
 30
0.0
 10
5.865595360880757
 20
-3.665470471305837
 30
0.0
 10
5.865595360880757
 20
-3.667146165749883
 30
0.0
  0
SPLINE
  5
3D2
330
1F
100
AcDbEntity
  8
Livello 1
100
AcDbSpline
210
0.0
220
0.0
230
1.0
 70
     8
 71
     3
 72
     8
 73
     4
 74
     0
 42
0.000000001
 43
0.0000000001
 40
0.0
 40
0.0
 40
0.0
 40
0.0
 40
1.0
 40
1.0
 40
1.0
 40
1.0
 10
3.689520971952596
 20
-3.660041221307218
 30
0.0
 10
3.690265333044715
 20
-3.660104721307203
 30
0.0
 10
3.69068866636725
 20
-3.660334026862683
 30
0.0
 10
3.691104944134406
 20
-3.660693860195948
 30
0.0
  0
SPLINE
  5
3D7
330
1F
100
AcDbEntity
  8
Livello 1
100
AcDbSpline
210
0.0
220
0.0
230
1.0
 70
     8
 71
     3
 72
     8
 73
     4
 74
     0
 42
0.000000001
 43
0.0000000001
 40
0.0
 40
0.0
 40
0.0
 40
0.0
 40
1.0
 40
1.0
 40
1.0
 40
1.0
 10
3.62586927913204
 20
-3.660697387973701
 30
0.0
 10
3.626342001342202
 20
-3.660238776862707
 30
0.0
 10
3.626878223550745
 20
-3.660051804640538
 30
0.0
 10
3.627746056861938
 20
-3.660034165751651
 30
0.0
  0
SPLINE
  5
3D8
330
1F
100
AcDbEntity
  8
Livello 1
100
AcDbSpline
210
0.0
220
0.0
230
1.0
 70
     8
 71
     3
 72
     8
 73
     4
 74
     0
 42
0.000000001
 43
0.0000000001
 40
0.0
 40
0.0
 40
0.0
 40
0.0
 40
1.0
 40
1.0
 40
1.0
 40
1.0
 10
2.174058313364305
 20
-3.662401304639955
 30
0.0
 10
2.174058313364305
 20
-3.661709860195664
 30
0.0
 10
2.174382868919794
 20
-3.661215971306926
 30
0.0
 10
2.17516956336403
 20
-3.660722082418156
 30
0.0
  0
SPLINE
  5
3D9
330
1F
100
AcDbEntity
  8
Livello 1
100
AcDbSpline
210
0.0
220
0.0
230
1.0
 70
    24
 71
     3
 72
    17
 73
    13
 74
     0
 42
0.000000001
 43
0.0000000001
 40
0.0
 40
0.0
 40
0.0
 40
0.0
 40
1.0
 40
1.0
 40
1.0
 40
2.0
 40
2.0
 40
2.0
 40
3.0
 40
3.0
 40
3.0
 40
4.0
 40
4.0
 40
4.0
 40
4.0
 10
2.17516956336403
 20
-3.660722082418156
 30
0.0
 10
2.174068896697658
 20
-3.660722082418156
 30
0.0
 10
2.176270230030433
 20
-3.660722082418156
 30
0.0
 10
2.176824091141404
 20
-3.660722082418156
 30
0.0
 10
2.17737442447459
 20
-3.660722082418156
 30
0.0
 10
2.177924757807808
 20
-3.660722082418156
 30
0.0
 10
2.178482146696561
 20
-3.660722082418156
 30
0.0
 10
2.179582813362933
 20
-3.660722082418156
 30
0.0
 10
2.180687007807121
 20
-3.660722082418156
 30
0.0
 10
2.181794730029061
 20
-3.660722082418156
 30
0.0
 10
2.184006646695157
 20
-3.660722082418156
 30
0.0
 10
2.186211507805718
 20
-3.660722082418156
 30
0.0
 10
2.188426952249629
 20
-3.660722082418156
 30
0.0
  0
SPLINE
  5
3DA
330
1F
100
AcDbEntity
  8
Livello 1
100
AcDbSpline
210
0.0
220
0.0
230
1.0
 70
     8
 71
     3
 72
     8
 73
     4
 74
     0
 42
0.000000001
 43
0.0000000001
 40
0.0
 40
0.0
 40
0.0
 40
0.0
 40
1.0
 40
1.0
 40
1.0
 40
1.0
 10
2.188628035582901
 20
-3.660563332418196
 30
0.0
 10
2.189104285582784
 20
-3.660221137973818
 30
0.0
 10
2.189573480027096
 20
-3.660034165751651
 30
0.0
 10
2.190331952249156
 20
-3.660034165751651
 30
0.0
  0
SPLINE
  5
3E3
330
1F
100
AcDbEntity
  8
Livello 1
100
AcDbSpline
210
0.0
220
0.0
230
1.0
 70
    24
 71
     3
 72
    23
 73
    19
 74
     0
 42
0.000000001
 43
0.0000000001
 40
0.0
 40
0.0
 40
0.0
 40
0.0
 40
1.0
 40
1.0
 40
1.0
 40
2.0
 40
2.0
 40
2.0
 40
3.0
 40
3.0
 40
3.0
 40
4.0
 40
4.0
 40
4.0
 40
5.0
 40
5.0
 40
5.0
 40
6.0
 40
6.0
 40
6.0
 40
6.0
 10
5.142460907107231
 20
-3.662401304639955
 30
0.0
 10
5.142799573765258
 20
-3.662401304639955
 30
0.0
 10
5.144133073731238
 20
-3.662401304639955
 30
0.0
 10
5.14346279597056
 20
-3.662401304639955
 30
0.0
 10
5.143067684869528
 20
-3.662401304639955
 30
0.0
 10
5.142676101546186
 20
-3.662401304639955
 30
0.0
 10
5.142284518222841
 20
-3.662401304639955
 30
0.0
 10
5.139603407180131
 20
-3.662401304639955
 30
0.0
 10
5.136932879470485
 20
-3.662401304639955
 30
0.0
 10
5.134251768427776
 20
-3.662401304639955
 30
0.0
 10
5.130850990736758
 20
-3.662401304639955
 30
0.0
 10
5.127443157490366
 20
-3.662401304639955
 30
0.0
 10
5.124042379799349
 20
-3.662401304639955
 30
0.0
 10
5.117230241084253
 20
-3.662401304639955
 30
0.0
 10
5.110418257074676
 20
-3.662401304639955
 30
0.0
 10
5.103605963654059
 20
-3.662401304639955
 30
0.0
 10
5.089981686223866
 20
-3.662401304639955
 30
0.0
 10
5.076357408793671
 20
-3.662401304639955
 30
0.0
 10
5.062740186918853
 20
-3.662401304639955
 30
0.0
  0
SPLINE
  5
3E4
330
1F
100
AcDbEntity
  8
Livello 1
100
AcDbSpline
210
0.0
220
0.0
230
1.0
 70
     8
 71
     3
 72
     8
 73
     4
 74
     0
 42
0.000000001
 43
0.0000000001
 40
0.0
 40
0.0
 40
0.0
 40
0.0
 40
1.0
 40
1.0
 40
1.0
 40
1.0
 10
5.065414242406188
 20
-3.660034165751651
 30
0.0
 10
5.063184686907514
 20
-3.660312860196043
 30
0.0
 10
5.062415631371579
 20
-3.660993721306982
 30
0.0
 10
5.062740186918853
 20
-3.662401304639955
 30
0.0
  0
SPLINE
  5
3F6
330
1F
100
AcDbEntity
  8
Livello 1
100
AcDbSpline
210
0.0
220
0.0
230
1.0
 70
    24
 71
     3
 72
    20
 73
    16
 74
     0
 42
0.000000001
 43
0.0000000001
 40
0.0
 40
0.0
 40
0.0
 40
0.0
 40
1.0
 40
1.0
 40
1.0
 40
2.0
 40
2.0
 40
2.0
 40
3.0
 40
3.0
 40
3.0
 40
4.0
 40
4.0
 40
4.0
 40
5.0
 40
5.0
 40
5.0
 40
5.0
 10
1.672450646823054
 20
-3.662401304639955
 30
0.0
 10
1.672567063489702
 20
-3.662401304639955
 30
0.0
 10
1.673053896822904
 20
-3.662401304639955
 30
0.0
 10
1.672814007934071
 20
-3.662401304639955
 30
0.0
 10
1.67121239682336
 20
-3.662401304639955
 30
0.0
 10
1.669617841268219
 20
-3.662401304639955
 30
0.0
 10
1.668019757935262
 20
-3.662401304639955
 30
0.0
 10
1.666019507935791
 20
-3.662401304639955
 30
0.0
 10
1.664015730158503
 20
-3.662401304639955
 30
0.0
 10
1.662011952381215
 20
-3.662401304639955
 30
0.0
 10
1.658007924604457
 20
-3.662401304639955
 30
0.0
 10
1.654000369049884
 20
-3.662401304639955
 30
0.0
 10
1.649996341273125
 20
-3.662401304639955
 30
0.0
 10
1.641977702386225
 20
-3.662401304639955
 30
0.0
 10
1.633966119054891
 20
-3.662401304639955
 30
0.0
 10
1.625951007945807
 20
-3.662401304639955
 30
0.0
  0
SPLINE
  5
403
330
1F
100
AcDbEntity
  8
Livello 1
100
AcDbSpline
210
0.0
220
0.0
230
1.0
 70
    24
 71
     3
 72
    20
 73
    16
 74
     0
 42
0.000000001
 43
0.0000000001
 40
0.0
 40
0.0
 40
0.0
 40
0.0
 40
1.0
 40
1.0
 40
1.0
 40
2.0
 40
2.0
 40
2.0
 40
3.0
 40
3.0
 40
3.0
 40
4.0
 40
4.0
 40
4.0
 40
5.0
 40
5.0
 40
5.0
 40
5.0
 10
2.267632618896473
 20
-3.662401304639955
 30
0.0
 10
2.267964230007498
 20
-3.662401304639955
 30
0.0
 10
2.268302896674091
 20
-3.662401304639955
 30
0.0
 10
2.268634507785116
 20
-3.662401304639955
 30
0.0
 10
2.26920248000719
 20
-3.662401304639955
 30
0.0
 10
2.268070063340826
 20
-3.662401304639955
 30
0.0
 10
2.267784313340897
 20
-3.662401304639955
 30
0.0
 10
2.267163424452159
 20
-3.662401304639955
 30
0.0
 10
2.266546063341205
 20
-3.662401304639955
 30
0.0
 10
2.265928702230251
 20
-3.662401304639955
 30
0.0
 10
2.264693980008343
 20
-3.662401304639955
 30
0.0
 10
2.263452202230865
 20
-3.662401304639955
 30
0.0
 10
2.262217480008958
 20
-3.662401304639955
 30
0.0
 10
2.259740980009572
 20
-3.662401304639955
 30
0.0
 10
2.257264480010187
 20
-3.662401304639955
 30
0.0
 10
2.254787980010803
 20
-3.662401304639955
 30
0.0
  0
SPLINE
  5
404
330
1F
100
AcDbEntity
  8
Livello 1
100
AcDbSpline
210
0.0
220
0.0
230
1.0
 70
     8
 71
     3
 72
     8
 73
     4
 74
     0
 42
0.000000001
 43
0.0000000001
 40
0.0
 40
0.0
 40
0.0
 40
0.0
 40
1.0
 40
1.0
 40
1.0
 40
1.0
 10
2.254787980010803
 20
-3.662401304639955
 30
0.0
 10
2.255105480010723
 20
-3.660993721306982
 30
0.0
 10
2.254339952233129
 20
-3.660312860196043
 30
0.0
 10
2.25211392445593
 20
-3.660034165751651
 30
0.0
  0
SPLINE
  5
415
330
1F
100
AcDbEntity
  8
Livello 1
100
AcDbSpline
210
0.0
220
0.0
230
1.0
 70
    24
 71
     3
 72
    26
 73
    22
 74
     0
 42
0.000000001
 43
0.0000000001
 40
0.0
 40
0.0
 40
0.0
 40
0.0
 40
1.0
 40
1.0
 40
1.0
 40
2.0
 40
2.0
 40
2.0
 40
3.0
 40
3.0
 40
3.0
 40
4.0
 40
4.0
 40
4.0
 40
5.0
 40
5.0
 40
5.0
 40
6.0
 40
6.0
 40
6.0
 40
7.0
 40
7.0
 40
7.0
 40
7.0
 10
5.865055610894527
 20
-3.667146165749883
 30
0.0
 10
5.865821312441366
 20
-3.667146165749883
 30
0.0
 10
5.864283027580904
 20
-3.667146165749883
 30
0.0
 10
5.863898499812937
 20
-3.667146165749883
 30
0.0
 10
5.860645888784808
 20
-3.667146165749883
 30
0.0
 10
5.857389923554599
 20
-3.667146165749883
 30
0.0
 10
5.854137138950858
 20
-3.667146165749883
 30
0.0
 10
5.838308000465804
 20
-3.667146165749883
 30
0.0
 10
5.822485917536126
 20
-3.667146165749883
 30
0.0
 10
5.806656779051072
 20
-3.667146165749883
 30
0.0
 10
5.734538419779854
 20
-3.667146165749883
 30
0.0
 10
5.662427116064011
 20
-3.667146165749883
 30
0.0
 10
5.590305229015106
 20
-3.667146165749883
 30
0.0
 10
5.49836075913858
 20
-3.667146165749883
 30
0.0
 10
5.406416289262058
 20
-3.667146165749883
 30
0.0
 10
5.314464923690319
 20
-3.667146165749883
 30
0.0
 10
5.130544074077922
 20
-3.667146165749883
 30
0.0
 10
4.946616328770309
 20
-3.667146165749883
 30
0.0
 10
4.762695639018073
 20
-3.667146165749883
 30
0.0
 10
4.394720203961463
 20
-3.667146165749883
 30
0.0
 10
4.026744768904855
 20
-3.667146165749883
 30
0.0
 10
3.658758750515183
 20
-3.667146165749883
 30
0.0
  0
SPLINE
  5
416
330
1F
100
AcDbEntity
  8
Livello 1
100
AcDbSpline
210
0.0
220
0.0
230
1.0
 70
    24
 71
     3
 72
    26
 73
    22
 74
     0
 42
0.000000001
 43
0.0000000001
 40
0.0
 40
0.0
 40
0.0
 40
0.0
 40
1.0
 40
1.0
 40
1.0
 40
2.0
 40
2.0
 40
2.0
 40
3.0
 40
3.0
 40
3.0
 40
4.0
 40
4.0
 40
4.0
 40
5.0
 40
5.0
 40
5.0
 40
6.0
 40
6.0
 40
6.0
 40
7.0
 40
7.0
 40
7.0
 40
7.0
 10
1.456250785765998
 20
-3.815778499046063
 30
0.0
 10
1.45548173021062
 20
-3.815778499046063
 30
0.0
 10
1.457019841321345
 20
-3.815778499046063
 30
0.0
 10
1.457404369099035
 20
-3.815778499046063
 30
0.0
 10
1.46065345243155
 20
-3.815778499046063
 30
0.0
 10
1.46390606354185
 20
-3.815778499046063
 30
0.0
 10
1.467148091318831
 20
-3.815778499046063
 30
0.0
 10
1.482952535759334
 20
-3.815778499046063
 30
0.0
 10
1.498746396866488
 20
-3.815778499046063
 30
0.0
 10
1.514547313529208
 20
-3.815778499046063
 30
0.0
 10
1.58654220240009
 20
-3.815778499046063
 30
0.0
 10
1.658537091270971
 20
-3.815778499046063
 30
0.0
 10
1.730531980141885
 20
-3.815778499046063
 30
0.0
 10
1.822317702341141
 20
-3.815778499046063
 30
0.0
 10
1.914106952318183
 20
-3.815778499046063
 30
0.0
 10
2.005896202295256
 20
-3.815778499046063
 30
0.0
 10
2.189502924471576
 20
-3.815778499046063
 30
0.0
 10
2.373109646647898
 20
-3.815778499046063
 30
0.0
 10
2.556719806408316
 20
-3.815778499046063
 30
0.0
 10
2.924067297036501
 20
-3.815778499046063
 30
0.0
 10
3.291418315442373
 20
-3.815778499046063
 30
0.0
 10
3.658758750515183
 20
-3.815778499046063
 30
0.0
  0
SPLINE
  5
41B
330
1F
100
AcDbEntity
  8
Livello 1
100
AcDbSpline
210
0.0
220
0.0
230
1.0
 70
     8
 71
     3
 72
     8
 73
     4
 74
     0
 42
0.000000001
 43
0.0000000001
 40
0.0
 40
0.0
 40
0.0
 40
0.0
 40
1.0
 40
1.0
 40
1.0
 40
1.0
 10
1.451925730211535
 20
-3.814780137935205
 30
0.0
 10
1.451925730211535
 20
-3.815482165712783
 30
0.0
 10
1.453036980211228
 20
-3.815778499046063
 30
0.0
 10
1.455711035766134
 20
-3.815778499046063
 30
0.0
  0
SPLINE
  5
41C
330
1F
100
AcDbEntity
  8
Livello 1
100
AcDbSpline
210
0.0
220
0.0
230
1.0
 70
     8
 71
     3
 72
     8
 73
     4
 74
     0
 42
0.000000001
 43
0.0000000001
 40
0.0
 40
0.0
 40
0.0
 40
0.0
 40
1.0
 40
1.0
 40
1.0
 40
1.0
 10
5.865595360880757
 20
-3.814780137935205
 30
0.0
 10
5.865595360880757
 20
-3.815482165712783
 30
0.0
 10
5.864487638686795
 20
-3.815778499046063
 30
0.0
 10
5.86181358319946
 20
-3.815778499046063
 30
0.0
  0
SPLINE
  5
425
330
1F
100
AcDbEntity
  8
Livello 1
100
AcDbSpline
210
0.0
220
0.0
230
1.0
 70
    24
 71
     3
 72
    26
 73
    22
 74
     0
 42
0.000000001
 43
0.0000000001
 40
0.0
 40
0.0
 40
0.0
 40
0.0
 40
1.0
 40
1.0
 40
1.0
 40
2.0
 40
2.0
 40
2.0
 40
3.0
 40
3.0
 40
3.0
 40
4.0
 40
4.0
 40
4.0
 40
5.0
 40
5.0
 40
5.0
 40
6.0
 40
6.0
 40
6.0
 40
7.0
 40
7.0
 40
7.0
 40
7.0
 10
5.865055610894527
 20
-3.814780137935205
 30
0.0
 10
5.865821312441366
 20
-3.814780137935205
 30
0.0
 10
5.864283027580904
 20
-3.814780137935205
 30
0.0
 10
5.863898499812937
 20
-3.814780137935205
 30
0.0
 10
5.860645888784808
 20
-3.814780137935205
 30
0.0
 10
5.857389923554599
 20
-3.814780137935205
 30
0.0
 10
5.854137138950858
 20
-3.814780137935205
 30
0.0
 10
5.838308000465804
 20
-3.814780137935205
 30
0.0
 10
5.822485917536126
 20
-3.814780137935205
 30
0.0
 10
5.806656779051072
 20
-3.814780137935205
 30
0.0
 10
5.734538419779854
 20
-3.814780137935205
 30
0.0
 10
5.662427116064011
 20
-3.814780137935205
 30
0.0
 10
5.590305229015106
 20
-3.814780137935205
 30
0.0
 10
5.49836075913858
 20
-3.814780137935205
 30
0.0
 10
5.406409233706681
 20
-3.814780137935205
 30
0.0
 10
5.314464923690319
 20
-3.814780137935205
 30
0.0
 10
5.130544074077922
 20
-3.814780137935205
 30
0.0
 10
4.946616328770309
 20
-3.814780137935205
 30
0.0
 10
4.762695639018073
 20
-3.814780137935205
 30
0.0
 10
4.394713148406088
 20
-3.814780137935205
 30
0.0
 10
4.026737713349479
 20
-3.814780137935205
 30
0.0
 10
3.658758750515183
 20
-3.814780137935205
 30
0.0
  0
SPLINE
  5
494
330
1F
100
AcDbEntity
  8
Livello 1
100
AcDbSpline
210
0.0
220
0.0
230
1.0
 70
    24
 71
     3
 72
    23
 73
    19
 74
     0
 42
0.000000001
 43
0.0000000001
 40
0.0
 40
0.0
 40
0.0
 40
0.0
 40
1.0
 40
1.0
 40
1.0
 40
2.0
 40
2.0
 40
2.0
 40
3.0
 40
3.0
 40
3.0
 40
4.0
 40
4.0
 40
4.0
 40
5.0
 40
5.0
 40
5.0
 40
6.0
 40
6.0
 40
6.0
 40
6.0
 10
4.663177030445893
 20
-3.472663304687372
 30
0.0
 10
4.666186224813566
 20
-3.472663304687372
 30
0.0
 10
4.660171363855907
 20
-3.472663304687372
 30
0.0
 10
4.658665002783226
 20
-3.472663304687372
 30
0.0
 10
4.652967641817467
 20
-3.472663304687372
 30
0.0
 10
4.647270280851707
 20
-3.472663304687372
 30
0.0
 10
4.641579975441324
 20
-3.472663304687372
 30
0.0
 10
4.617090142732778
 20
-3.472663304687372
 30
0.0
 10
4.592596782246545
 20
-3.472663304687372
 30
0.0
 10
4.568114005093375
 20
-3.472663304687372
 30
0.0
 10
4.536356950348009
 20
-3.472663304687372
 30
0.0
 10
4.504596367824956
 20
-3.472663304687372
 30
0.0
 10
4.472835785301903
 20
-3.472663304687372
 30
0.0
 10
4.409304036922732
 20
-3.472663304687372
 30
0.0
 10
4.345765232988187
 20
-3.472663304687372
 30
0.0
 10
4.282233484609017
 20
-3.472663304687372
 30
0.0
 10
4.15514882118455
 20
-3.472663304687372
 30
0.0
 10
4.028067685537772
 20
-3.472663304687372
 30
0.0
 10
3.900983022113305
 20
-3.472663304687372
 30
0.0
  0
SPLINE
  5
4A9
330
1F
100
AcDbEntity
  8
Livello 1
100
AcDbSpline
210
0.0
220
0.0
230
1.0
 70
     8
 71
     3
 72
     8
 73
     4
 74
     0
 42
0.000000001
 43
0.0000000001
 40
0.0
 40
0.0
 40
0.0
 40
0.0
 40
1.0
 40
1.0
 40
1.0
 40
1.0
 10
4.66327580822115
 20
-3.472663304687372
 30
0.0
 10
4.665071590519353
 20
-3.473192471353917
 30
0.0
 10
4.666493141472403
 20
-3.473908610242632
 30
0.0
 10
4.667759613662315
 20
-3.474928138020163
 30
0.0
  0
SPLINE
  5
4AA
330
1F
100
AcDbEntity
  8
Livello 1
100
AcDbSpline
210
0.0
220
0.0
230
1.0
 70
     8
 71
     3
 72
     8
 73
     4
 74
     0
 42
0.000000001
 43
0.0000000001
 40
0.0
 40
0.0
 40
0.0
 40
0.0
 40
1.0
 40
1.0
 40
1.0
 40
1.0
 10
2.646995637438521
 20
-3.476159332464288
 30
0.0
 10
2.648025748523353
 20
-3.474356638020306
 30
0.0
 10
2.649514470707594
 20
-3.473344165798341
 30
0.0
 10
2.652167359528801
 20
-3.472663304687372
 30
0.0
  0
SPLINE
  5
4B7
330
1F
100
AcDbEntity
  8
Livello 1
100
AcDbSpline
210
0.0
220
0.0
230
1.0
 70
     8
 71
     3
 72
     8
 73
     4
 74
     0
 42
0.000000001
 43
0.0000000001
 40
0.0
 40
0.0
 40
0.0
 40
0.0
 40
1.0
 40
1.0
 40
1.0
 40
1.0
 10
3.900983022113305
 20
-3.472663304687372
 30
0.0
 10
3.902267133191656
 20
-3.47376749913156
 30
0.0
 10
3.902623438738121
 20
-3.474776443575738
 30
0.0
 10
3.902235383192464
 20
-3.476162860242071
 30
0.0
  0
SPLINE
  5
4B8
330
1F
100
AcDbEntity
  8
Livello 1
100
AcDbSpline
210
0.0
220
0.0
230
1.0
 70
    24
 71
     3
 72
    23
 73
    19
 74
     0
 42
0.000000001
 43
0.0000000001
 40
0.0
 40
0.0
 40
0.0
 40
0.0
 40
1.0
 40
1.0
 40
1.0
 40
2.0
 40
2.0
 40
2.0
 40
3.0
 40
3.0
 40
3.0
 40
4.0
 40
4.0
 40
4.0
 40
5.0
 40
5.0
 40
5.0
 40
6.0
 40
6.0
 40
6.0
 40
6.0
 10
4.668341696980797
 20
-3.476162860242071
 30
0.0
 10
4.671375585792286
 20
-3.476162860242071
 30
0.0
 10
4.665321919280061
 20
-3.476162860242071
 30
0.0
 10
4.66381555820738
 20
-3.476162860242071
 30
0.0
 10
4.658093502797806
 20
-3.476162860242071
 30
0.0
 10
4.652364391832858
 20
-3.476162860242071
 30
0.0
 10
4.646642336423284
 20
-3.476162860242071
 30
0.0
 10
4.622021975940291
 20
-3.476162860242071
 30
0.0
 10
4.597405143234985
 20
-3.476162860242071
 30
0.0
 10
4.572798893862743
 20
-3.476162860242071
 30
0.0
 10
4.540868978010676
 20
-3.476162860242071
 30
0.0
 10
4.508960228824736
 20
-3.476162860242071
 30
0.0
 10
4.477033840750356
 20
-3.476162860242071
 30
0.0
 10
4.413174009046223
 20
-3.476162860242071
 30
0.0
 10
4.349300201709407
 20
-3.476162860242071
 30
0.0
 10
4.285443762304893
 20
-3.476162860242071
 30
0.0
 10
4.157709987785876
 20
-3.476162860242071
 30
0.0
 10
4.029972685489171
 20
-3.476162860242071
 30
0.0
 10
3.902235383192464
 20
-3.476162860242071
 30
0.0
  0
INSERT
  5
5C4
330
1F
100
AcDbEntity
  8
Livello 1
100
AcDbBlockReference
  2
block 21
 10
0.0
 20
0.0
 30
0.0
  0
SPLINE
  5
5FF
330
1F
100
AcDbEntity
  8
Livello 1
100
AcDbSpline
210
0.0
220
0.0
230
1.0
 70
     9
 71
     3
 72
    20
 73
    16
 74
     0
 42
0.000000001
 43
0.0000000001
 40
0.0
 40
0.0
 40
0.0
 40
0.0
 40
1.0
 40
1.0
 40
1.0
 40
2.0
 40
2.0
 40
2.0
 40
3.0
 40
3.0
 40
3.0
 40
4.0
 40
4.0
 40
4.0
 40
5.0
 40
5.0
 40
5.0
 40
5.0
 10
1.556452479156584
 20
-6.652799748336807
 30
0.0
 10
1.556452479156584
 20
-5.435190776418983
 30
0.0
 10
2.543514117798702
 20
-4.448129137776865
 30
0.0
 10
3.761122971737623
 20
-4.448129137776865
 30
0.0
 10
4.978728385118366
 20
-4.448129137776865
 30
0.0
 10
5.965797228054222
 20
-5.435190776418983
 30
0.0
 10
5.965797228054222
 20
-6.652799748336807
 30
0.0
 10
5.965797228054222
 20
-7.870408720254632
 30
0.0
 10
4.978728385118366
 20
-8.857470358896751
 30
0.0
 10
3.761122971737623
 20
-8.857470358896751
 30
0.0
 10
2.543514117798702
 20
-8.857470358896751
 30
0.0
 10
1.556452479156584
 20
-7.870408720254632
 30
0.0
 10
1.556452479156584
 20
-6.652799748336807
 30
0.0
 10
1.556452479156584
 20
-6.652799748336807
 30
0.0
 10
1.556452479156584
 20
-6.652799748336807
 30
0.0
 10
1.556452479156584
 20
-6.652799748336807
 30
0.0
  0
SPLINE
  5
600
330
1F
100
AcDbEntity
  8
Livello 1
100
AcDbSpline
210
0.0
220
0.0
230
1.0
 70
     9
 71
     3
 72
    20
 73
    16
 74
     0
 42
0.000000001
 43
0.0000000001
 40
0.0
 40
0.0
 40
0.0
 40
0.0
 40
1.0
 40
1.0
 40
1.0
 40
2.0
 40
2.0
 40
2.0
 40
3.0
 40
3.0
 40
3.0
 40
4.0
 40
4.0
 40
4.0
 40
5.0
 40
5.0
 40
5.0
 40
5.0
 10
1.661320507936958
 20
-6.652799748336807
 30
0.0
 10
1.661320507936958
 20
-5.550841915278957
 30
0.0
 10
2.55463488979484
 20
-4.65752744328007
 30
0.0
 10
3.656592695014888
 20
-4.65752744328007
 30
0.0
 10
4.758554028012623
 20
-4.65752744328007
 30
0.0
 10
5.651868477444494
 20
-5.550841915278957
 30
0.0
 10
5.651868477444494
 20
-6.652799748336807
 30
0.0
 10
5.651868477444494
 20
-7.754757581394626
 30
0.0
 10
4.758554028012623
 20
-8.648072053393544
 30
0.0
 10
3.656592695014888
 20
-8.648072053393544
 30
0.0
 10
2.55463488979484
 20
-8.648072053393544
 30
0.0
 10
1.661320507936958
 20
-7.754757581394626
 30
0.0
 10
1.661320507936958
 20
-6.652799748336807
 30
0.0
 10
1.661320507936958
 20
-6.652799748336807
 30
0.0
 10
1.661320507936958
 20
-6.652799748336807
 30
0.0
 10
1.661320507936958
 20
-6.652799748336807
 30
0.0
  0
LINE
  5
6A7
330
1F
100
AcDbEntity
  8
Livello 1
100
AcDbLine
 10
1.740706091250434
 20
-3.618014804651044
 30
0.0
 11
1.711259730146672
 21
-3.668003415749671
 31
0.0
  0
LINE
  5
6A8
330
1F
100
AcDbEntity
  8
Livello 1
100
AcDbLine
 10
5.576815007137045
 20
-3.618014804651044
 30
0.0
 11
1.740706091250434
 21
-3.618014804651044
 31
0.0
  0
LINE
  5
6A9
330
1F
100
AcDbEntity
  8
Livello 1
100
AcDbLine
 10
5.576815007137045
 20
-3.618014804651044
 30
0.0
 11
5.606261367496918
 21
-3.668003415749671
 31
0.0
  0
LINE
  5
6AA
330
1F
100
AcDbEntity
  8
Livello 1
100
AcDbLine
 10
5.048886603938955
 20
-3.662401304639955
 30
0.0
 11
5.048886603938955
 21
-3.664775499083796
 31
0.0
  0
LINE
  5
6AB
330
1F
100
AcDbEntity
  8
Livello 1
100
AcDbLine
 10
5.050900964998676
 20
-3.660722082418156
 30
0.0
 11
5.063255242461269
 21
-3.660722082418156
 31
0.0
  0
LINE
  5
6AC
330
1F
100
AcDbEntity
  8
Livello 1
100
AcDbLine
 10
5.128596740794268
 20
-3.660722082418156
 30
0.0
 11
5.142358601554286
 21
-3.660722082418156
 31
0.0
  0
LINE
  5
6AD
330
1F
100
AcDbEntity
  8
Livello 1
100
AcDbLine
 10
3.658758750515183
 20
-3.664775499083796
 30
0.0
 11
1.456250785765998
 21
-3.664775499083796
 31
0.0
  0
LINE
  5
6AE
330
1F
100
AcDbEntity
  8
Livello 1
100
AcDbLine
 10
5.738859947447379
 20
-3.662401304639955
 30
0.0
 11
5.738859947447379
 21
-3.664775499083796
 31
0.0
  0
LINE
  5
6AF
330
1F
100
AcDbEntity
  8
Livello 1
100
AcDbLine
 10
5.644280227638088
 20
-3.662401304639955
 30
0.0
 11
5.644280227638088
 21
-3.664775499083796
 31
0.0
  0
LINE
  5
6B0
330
1F
100
AcDbEntity
  8
Livello 1
100
AcDbLine
 10
3.702266832738533
 20
-3.660034165751651
 30
0.0
 11
3.690917971916955
 21
-3.660034165751651
 31
0.0
  0
LINE
  5
6B1
330
1F
100
AcDbEntity
  8
Livello 1
100
AcDbLine
 10
3.689524499730282
 20
-3.660034165751651
 30
0.0
 11
3.628000056855458
 21
-3.660034165751651
 31
0.0
  0
LINE
  5
6B2
330
1F
100
AcDbEntity
  8
Livello 1
100
AcDbLine
 10
3.626052723571806
 20
-3.660034165751651
 30
0.0
 11
3.618309368558806
 21
-3.660034165751651
 31
0.0
  0
LINE
  5
6B3
330
1F
100
AcDbEntity
  8
Livello 1
100
AcDbLine
 10
3.706048610419828
 20
-3.662401304639955
 30
0.0
 11
3.706048610419828
 21
-3.664775499083796
 31
0.0
  0
LINE
  5
6B4
330
1F
100
AcDbEntity
  8
Livello 1
100
AcDbLine
 10
3.611472418388224
 20
-3.664775499083796
 30
0.0
 11
3.611472418388224
 21
-3.662401304639955
 31
0.0
  0
LINE
  5
6B5
330
1F
100
AcDbEntity
  8
Livello 1
100
AcDbLine
 10
2.25211392445593
 20
-3.660034165751651
 30
0.0
 11
2.190585952249092
 21
-3.660034165751651
 31
0.0
  0
LINE
  5
6B6
330
1F
100
AcDbEntity
  8
Livello 1
100
AcDbLine
 10
2.189160730027199
 20
-3.660034165751651
 30
0.0
 11
2.17876789669649
 21
-3.660034165751651
 31
0.0
  0
LINE
  5
6B7
330
1F
100
AcDbEntity
  8
Livello 1
100
AcDbLine
 10
5.72449853469894
 20
-3.660722082418156
 30
0.0
 11
5.737755753031105
 21
-3.660722082418156
 31
0.0
  0
LINE
  5
6B8
330
1F
100
AcDbEntity
  8
Livello 1
100
AcDbLine
 10
1.625951007945807
 20
-3.660034165751651
 30
0.0
 11
1.583173174623141
 21
-3.660034165751651
 31
0.0
  0
LINE
  5
6B9
330
1F
100
AcDbEntity
  8
Livello 1
100
AcDbLine
 10
1.578661146846509
 20
-3.662401304639955
 30
0.0
 11
1.578661146846509
 21
-3.664775499083796
 31
0.0
  0
LINE
  5
6BA
330
1F
100
AcDbEntity
  8
Livello 1
100
AcDbLine
 10
1.673240869045072
 20
-3.662401304639955
 30
0.0
 11
1.673240869045072
 21
-3.664775499083796
 31
0.0
  0
LINE
  5
6BB
330
1F
100
AcDbEntity
  8
Livello 1
100
AcDbLine
 10
1.658875757937564
 20
-3.660722082418156
 30
0.0
 11
1.672133146823132
 21
-3.660722082418156
 31
0.0
  0
LINE
  5
6BC
330
1F
100
AcDbEntity
  8
Livello 1
100
AcDbLine
 10
5.691570087542732
 20
-3.660034165751651
 30
0.0
 11
5.648788727523067
 21
-3.660034165751651
 31
0.0
  0
LINE
  5
6BD
330
1F
100
AcDbEntity
  8
Livello 1
100
AcDbLine
 10
5.126942213058702
 20
-3.660034165751651
 30
0.0
 11
5.065414242406188
 21
-3.660034165751651
 31
0.0
  0
LINE
  5
6BE
330
1F
100
AcDbEntity
  8
Livello 1
100
AcDbLine
 10
2.174058313364305
 20
-3.662401304639955
 30
0.0
 11
2.174058313364305
 21
-3.664775499083796
 31
0.0
  0
LINE
  5
6BF
330
1F
100
AcDbEntity
  8
Livello 1
100
AcDbLine
 10
2.268634507785116
 20
-3.662401304639955
 30
0.0
 11
2.268634507785116
 21
-3.664775499083796
 31
0.0
  0
LINE
  5
6C0
330
1F
100
AcDbEntity
  8
Livello 1
100
AcDbLine
 10
5.06341399245722
 20
-3.660034165751651
 30
0.0
 11
5.053596187152136
 21
-3.660034165751651
 31
0.0
  0
LINE
  5
6C1
330
1F
100
AcDbEntity
  8
Livello 1
100
AcDbLine
 10
2.254107118899864
 20
-3.660722082418156
 30
0.0
 11
2.266496674452325
 21
-3.660722082418156
 31
0.0
  0
LINE
  5
6C2
330
1F
100
AcDbEntity
  8
Livello 1
100
AcDbLine
 10
3.612580140582185
 20
-3.660722082418156
 30
0.0
 11
3.625837529132851
 21
-3.660722082418156
 31
0.0
  0
LINE
  5
6C3
330
1F
100
AcDbEntity
  8
Livello 1
100
AcDbLine
 10
3.691147277466661
 20
-3.660722082418156
 30
0.0
 11
3.704940888225866
 21
-3.660722082418156
 31
0.0
  0
LINE
  5
6C4
330
1F
100
AcDbEntity
  8
Livello 1
100
AcDbLine
 10
5.14346279597056
 20
-3.662401304639955
 30
0.0
 11
5.14346279597056
 21
-3.664775499083796
 31
0.0
  0
LINE
  5
6C5
330
1F
100
AcDbEntity
  8
Livello 1
100
AcDbLine
 10
5.062740186918853
 20
-3.662401304639955
 30
0.0
 11
5.049888492802284
 21
-3.662401304639955
 31
0.0
  0
LINE
  5
6C6
330
1F
100
AcDbEntity
  8
Livello 1
100
AcDbLine
 10
5.691570087542732
 20
-3.664775499083796
 30
0.0
 11
5.691570087542732
 21
-3.662401304639955
 31
0.0
  0
LINE
  5
6C7
330
1F
100
AcDbEntity
  8
Livello 1
100
AcDbLine
 10
5.691570087542732
 20
-3.662401304639955
 30
0.0
 11
5.645070449840149
 21
-3.662401304639955
 31
0.0
  0
SPLINE
  5
6C8
330
1F
100
AcDbEntity
  8
Livello 1
100
AcDbSpline
210
0.0
220
0.0
230
1.0
 70
    24
 71
     3
 72
     8
 73
     4
 74
     0
 42
0.000000001
 43
0.0000000001
 40
0.0
 40
0.0
 40
0.0
 40
0.0
 40
1.0
 40
1.0
 40
1.0
 40
1.0
 10
5.738069725245317
 20
-3.662401304639955
 30
0.0
 10
5.738605947453859
 20
-3.662401304639955
 30
0.0
 10
5.738859947447379
 20
-3.662401304639955
 30
0.0
 10
5.738859947447379
 20
-3.662401304639955
 30
0.0
  0
SPLINE
  5
6C9
330
1F
100
AcDbEntity
  8
Livello 1
100
AcDbSpline
210
0.0
220
0.0
230
1.0
 70
    24
 71
     3
 72
     8
 73
     4
 74
     0
 42
0.000000001
 43
0.0000000001
 40
1.0
 40
1.0
 40
1.0
 40
1.0
 40
2.0
 40
2.0
 40
2.0
 40
2.0
 10
5.738859947447379
 20
-3.662401304639955
 30
0.0
 10
5.738859947447379
 20
-3.662401304639955
 30
0.0
 10
5.719273725724844
 20
-3.662401304639955
 30
0.0
 10
5.691570087542732
 20
-3.662401304639955
 30
0.0
  0
LINE
  5
6CA
330
1F
100
AcDbEntity
  8
Livello 1
100
AcDbLine
 10
5.691570087542732
 20
-3.660034165751651
 30
0.0
 11
5.691570087542732
 21
-3.662401304639955
 31
0.0
  0
LINE
  5
6CB
330
1F
100
AcDbEntity
  8
Livello 1
100
AcDbLine
 10
1.625951007945807
 20
-3.662401304639955
 30
0.0
 11
1.625951007945807
 21
-3.664775499083796
 31
0.0
  0
LINE
  5
6CC
330
1F
100
AcDbEntity
  8
Livello 1
100
AcDbLine
 10
1.625951007945807
 20
-3.662401304639955
 30
0.0
 11
1.625951007945807
 21
-3.660034165751651
 31
0.0
  0
LINE
  5
6CD
330
1F
100
AcDbEntity
  8
Livello 1
100
AcDbLine
 10
1.625951007945807
 20
-3.662401304639955
 30
0.0
 11
1.579451369068529
 21
-3.662401304639955
 31
0.0
  0
LINE
  5
6CE
330
1F
100
AcDbEntity
  8
Livello 1
100
AcDbLine
 10
2.254787980010803
 20
-3.662401304639955
 30
0.0
 11
2.254787980010803
 21
-3.664775499083796
 31
0.0
  0
LINE
  5
6CF
330
1F
100
AcDbEntity
  8
Livello 1
100
AcDbLine
 10
2.254787980010803
 20
-3.662401304639955
 30
0.0
 11
2.175063730030732
 21
-3.662401304639955
 31
0.0
  0
LINE
  5
6D0
330
1F
100
AcDbEntity
  8
Livello 1
100
AcDbLine
 10
3.706048610419828
 20
-3.662401304639955
 30
0.0
 11
3.611472418388224
 21
-3.662401304639955
 31
0.0
  0
LINE
  5
6D1
330
1F
100
AcDbEntity
  8
Livello 1
100
AcDbLine
 10
3.658758750515183
 20
-3.667146165749883
 30
0.0
 11
3.658758750515183
 21
-3.664775499083796
 31
0.0
  0
LINE
  5
6D2
330
1F
100
AcDbEntity
  8
Livello 1
100
AcDbLine
 10
3.658758750515183
 20
-3.667146165749883
 30
0.0
 11
1.452472535766938
 21
-3.667146165749883
 31
0.0
  0
LINE
  5
6D3
330
1F
100
AcDbEntity
  8
Livello 1
100
AcDbLine
 10
3.658758750515183
 20
-3.815778499046063
 30
0.0
 11
5.861270479109173
 21
-3.815778499046063
 31
0.0
  0
LINE
  5
6D4
330
1F
100
AcDbEntity
  8
Livello 1
100
AcDbLine
 10
5.865595360880757
 20
-3.667146165749883
 30
0.0
 11
5.865595360880757
 21
-3.814780137935205
 31
0.0
  0
LINE
  5
6D5
330
1F
100
AcDbEntity
  8
Livello 1
100
AcDbLine
 10
1.451925730211535
 20
-3.667146165749883
 30
0.0
 11
1.451925730211535
 21
-3.814780137935205
 31
0.0
  0
LINE
  5
6D6
330
1F
100
AcDbEntity
  8
Livello 1
100
AcDbLine
 10
3.658758750515183
 20
-3.814780137935205
 30
0.0
 11
1.452472535766938
 21
-3.814780137935205
 31
0.0
  0
LINE
  5
6D7
330
1F
100
AcDbEntity
  8
Livello 1
100
AcDbLine
 10
3.658758750515183
 20
-3.815778499046063
 30
0.0
 11
3.658758750515183
 21
-3.814780137935205
 31
0.0
  0
LINE
  5
6D8
330
1F
100
AcDbEntity
  8
Livello 1
100
AcDbLine
 10
5.062740186918853
 20
-3.664775499083796
 30
0.0
 11
5.062740186918853
 21
-3.662401304639955
 31
0.0
  0
LINE
  5
6ED
330
1F
100
AcDbEntity
  8
Livello 1
100
AcDbLine
 10
4.668341696980797
 20
-3.476162860242071
 30
0.0
 11
4.6702749191537
 21
-3.619108415761879
 31
0.0
  0
LINE
  5
6EE
330
1F
100
AcDbEntity
  8
Livello 1
100
AcDbLine
 10
2.645168248596252
 20
-3.619108415761879
 30
0.0
 11
2.647094415213779
 21
-3.476162860242071
 31
0.0
  0
LINE
  5
6EF
330
1F
100
AcDbEntity
  8
Livello 1
100
AcDbLine
 10
3.900983022113305
 20
-3.472663304687372
 30
0.0
 11
2.65226613730406
 21
-3.472663304687372
 31
0.0
  0
LINE
  5
6F0
330
1F
100
AcDbEntity
  8
Livello 1
100
AcDbLine
 10
3.888053716887602
 20
-3.619108415761879
 30
0.0
 11
3.885312633624201
 21
-3.619108415761879
 31
0.0
  0
LINE
  5
6F1
330
1F
100
AcDbEntity
  8
Livello 1
100
AcDbLine
 10
3.848144090723581
 20
-3.619108415761879
 30
0.0
 11
3.844400995779055
 21
-3.619108415761879
 31
0.0
  0
LINE
  5
6F2
330
1F
100
AcDbEntity
  8
Livello 1
100
AcDbLine
 10
3.835436912674413
 20
-3.619108415761879
 30
0.0
 11
3.828765885066827
 21
-3.619108415761879
 31
0.0
  0
LINE
  5
6F3
330
1F
100
AcDbEntity
  8
Livello 1
100
AcDbLine
 10
3.756929748010631
 20
-3.619108415761879
 30
0.0
 11
3.741019470638759
 21
-3.619108415761879
 31
0.0
  0
LINE
  5
6F4
330
1F
100
AcDbEntity
  8
Livello 1
100
AcDbLine
 10
4.64915411413698
 20
-3.468645165799508
 30
0.0
 11
4.649214086357673
 21
-3.472663304687372
 31
0.0
  0
LINE
  5
6F5
330
1F
100
AcDbEntity
  8
Livello 1
100
AcDbLine
 10
2.666229081392279
 20
-3.472663304687372
 30
0.0
 11
2.666278470279908
 21
-3.468645165799508
 31
0.0
  0
LINE
  5
6F6
330
1F
100
AcDbEntity
  8
Livello 1
100
AcDbLine
 10
3.902235383192464
 20
-3.476162860242071
 30
0.0
 11
2.647094415213779
 21
-3.476162860242071
 31
0.0
  0
LINE
  5
6F7
330
1F
100
AcDbEntity
  8
Livello 1
100
AcDbLine
 10
1.234722221913508
 20
-8.857470358896719
 30
0.0
 11
1.234722221913508
 21
-4.448129137776832
 31
0.0
  0
LINE
  5
6F8
330
1F
100
AcDbEntity
  8
Livello 1
100
AcDbLine
 10
2.645168248596252
 20
-2.971172838763361
 30
0.0
 11
4.6702749191537
 21
-2.971172838763361
 31
0.0
  0
LINE
  5
6F9
330
1F
100
AcDbEntity
  8
Livello 1
100
AcDbLine
 10
1.545267909695161
 20
-9.372625040630877
 30
0.0
 11
5.936771031582358
 21
-9.359108469174929
 31
0.0
  0
POLYLINE
  5
705
330
1F
100
AcDbEntity
  8
Livello 1
100
AcDb2dPolyline
 66
     1
 10
0.0
 20
0.0
 30
0.0
  0
VERTEX
  5
706
330
705
100
AcDbEntity
  8
Livello 1
100
AcDbVertex
100
AcDb2dVertex
 10
2.855295138175065
 20
-2.046438394670682
 30
0.0
  0
VERTEX
  5
707
330
705
100
AcDbEntity
  8
Livello 1
100
AcDbVertex
100
AcDb2dVertex
 10
2.85274576751598
 20
-2.046438394670682
 30
0.0
  0
VERTEX
  5
708
330
705
100
AcDbEntity
  8
Livello 1
100
AcDbVertex
100
AcDb2dVertex
 10
2.709257540555324
 20
-2.123901366656524
 30
0.0
  0
VERTEX
  5
709
330
705
100
AcDbEntity
  8
Livello 1
100
AcDbVertex
100
AcDb2dVertex
 10
2.687674017340234
 20
-2.038807508170854
 30
0.0
  0
VERTEX
  5
70A
330
705
100
AcDbEntity
  8
Livello 1
100
AcDbVertex
100
AcDb2dVertex
 10
2.867990315038209
 20
-1.942310383629005
 30
0.0
  0
VERTEX
  5
70B
330
705
100
AcDbEntity
  8
Livello 1
100
AcDbVertex
100
AcDb2dVertex
 10
2.963229979727941
 20
-1.942310383629005
 30
0.0
  0
VERTEX
  5
70C
330
705
100
AcDbEntity
  8
Livello 1
100
AcDbVertex
100
AcDb2dVertex
 10
2.963229979727941
 20
-2.767703585462588
 30
0.0
  0
VERTEX
  5
70D
330
705
100
AcDbEntity
  8
Livello 1
100
AcDbVertex
100
AcDb2dVertex
 10
2.855295138175065
 20
-2.767703585462588
 30
0.0
  0
VERTEX
  5
70E
330
705
100
AcDbEntity
  8
Livello 1
100
AcDbVertex
100
AcDb2dVertex
 10
2.855295138175065
 20
-2.046438394670682
 30
0.0
  0
SEQEND
  5
70F
330
705
100
AcDbEntity
  8
Livello 1
  0
HATCH
  5
710
330
1F
100
AcDbEntity
  8
Livello 1
100
AcDbHatch
 10
0.0
 20
0.0
 30
0.0
210
0.0
220
0.0
230
1.0
  2
SOLID
 70
     1
 71
     0
 91
        1
 92
        1
 93
        8
 72
     1
 10
2.855295138175065
 20
-2.046438394670682
 11
2.85274576751598
 21
-2.046438394670682
 72
     1
 10
2.85274576751598
 20
-2.046438394670682
 11
2.709257540555324
 21
-2.123901366656524
 72
     1
 10
2.709257540555324
 20
-2.123901366656524
 11
2.687674017340234
 21
-2.038807508170854
 72
     1
 10
2.687674017340234
 20
-2.038807508170854
 11
2.867990315038209
 21
-1.942310383629005
 72
     1
 10
2.867990315038209
 20
-1.942310383629005
 11
2.963229979727941
 21
-1.942310383629005
 72
     1
 10
2.963229979727941
 20
-1.942310383629005
 11
2.963229979727941
 21
-2.767703585462588
 72
     1
 10
2.963229979727941
 20
-2.767703585462588
 11
2.855295138175065
 21
-2.767703585462588
 72
     1
 10
2.855295138175065
 20
-2.767703585462588
 11
2.855295138175065
 21
-2.046438394670682
 97
        0
 75
     2
 76
     1
 98
        0
450
        0
451
        0
460
0.0
461
0.0
452
        0
462
0.0
453
        0
470

  0
SPLINE
  5
711
330
1F
100
AcDbEntity
  8
Livello 1
100
AcDbSpline
210
0.0
220
0.0
230
1.0
 70
     9
 71
     3
 72
    59
 73
    55
 74
     0
 42
0.000000001
 43
0.0000000001
 40
0.0
 40
0.0
 40
0.0
 40
0.0
 40
1.0
 40
1.0
 40
1.0
 40
2.0
 40
2.0
 40
2.0
 40
3.0
 40
3.0
 40
3.0
 40
4.0
 40
4.0
 40
4.0
 40
5.0
 40
5.0
 40
5.0
 40
6.0
 40
6.0
 40
6.0
 40
7.0
 40
7.0
 40
7.0
 40
8.0
 40
8.0
 40
8.0
 40
9.0
 40
9.0
 40
9.0
 40
10.0
 40
10.0
 40
10.0
 40
11.0
 40
11.0
 40
11.0
 40
12.0
 40
12.0
 40
12.0
 40
13.0
 40
13.0
 40
13.0
 40
14.0
 40
14.0
 40
14.0
 40
15.0
 40
15.0
 40
15.0
 40
16.0
 40
16.0
 40
16.0
 40
17.0
 40
17.0
 40
17.0
 40
18.0
 40
18.0
 40
18.0
 40
18.0
 10
3.290893011330053
 20
-2.639442680546735
 30
0.0
 10
3.322639566226631
 20
-2.659768743909709
 30
0.0
 10
3.396295707701272
 20
-2.691515298806288
 30
0.0
 10
3.473758679687116
 20
-2.691515298806288
 30
0.0
 10
3.617246906647771
 20
-2.691515298806288
 30
0.0
 10
3.661688638407493
 20
-2.600082464627756
 30
0.0
 10
3.660431178555377
 20
-2.531507838993858
 30
0.0
 10
3.659156493225836
 20
-2.41595933641858
 30
0.0
 10
3.555028482184158
 20
-2.366436088818113
 30
0.0
 10
3.447093640631281
 20
-2.366436088818113
 30
0.0
 10
3.447093640631281
 20
-2.366436088818113
 30
0.0
 10
3.38487521616767
 20
-2.366436088818113
 30
0.0
 10
3.38487521616767
 20
-2.366436088818113
 30
0.0
 10
3.38487521616767
 20
-2.366436088818113
 30
0.0
 10
3.38487521616767
 20
-2.282616915661983
 30
0.0
 10
3.38487521616767
 20
-2.282616915661983
 30
0.0
 10
3.38487521616767
 20
-2.282616915661983
 30
0.0
 10
3.447093640631281
 20
-2.282616915661983
 30
0.0
 10
3.447093640631281
 20
-2.282616915661983
 30
0.0
 10
3.528363443128325
 20
-2.282616915661983
 30
0.0
 10
3.631216768840459
 20
-2.240724554561345
 30
0.0
 10
3.631216768840459
 20
-2.142935519212529
 30
0.0
 10
3.631216768840459
 20
-2.076910264237716
 30
0.0
 10
3.589307182262395
 20
-2.018498670285306
 30
0.0
 10
3.486453856550261
 20
-2.018498670285306
 30
0.0
 10
3.420428601575448
 20
-2.018498670285306
 30
0.0
 10
3.356935491782294
 20
-2.047695854522797
 30
0.0
 10
3.321382106374515
 20
-2.073103433726515
 30
0.0
 10
3.321382106374515
 20
-2.073103433726515
 30
0.0
 10
3.292167696659596
 20
-1.991833631229471
 30
0.0
 10
3.292167696659596
 20
-1.991833631229471
 30
0.0
 10
3.335351968567203
 20
-1.960087076332895
 30
0.0
 10
3.419153916245906
 20
-1.928340521436316
 30
0.0
 10
3.508037379765351
 20
-1.928340521436316
 30
0.0
 10
3.670576984759439
 20
-1.928340521436316
 30
0.0
 10
3.74423312623408
 20
-2.024854871455592
 30
0.0
 10
3.74423312623408
 20
-2.12515882650864
 30
0.0
 10
3.74423312623408
 20
-2.210235459516884
 30
0.0
 10
3.693435193304071
 20
-2.282616915661983
 30
0.0
 10
3.59185655292148
 20
-2.319444986399305
 30
0.0
 10
3.59185655292148
 20
-2.319444986399305
 30
0.0
 10
3.59185655292148
 20
-2.32199435705839
 30
0.0
 10
3.59185655292148
 20
-2.32199435705839
 30
0.0
 10
3.693435193304071
 20
-2.342303194943938
 30
0.0
 10
3.775979681130658
 20
-2.418491481600238
 30
0.0
 10
3.775979681130658
 20
-2.534057209652944
 30
0.0
 10
3.775979681130658
 20
-2.666124945079995
 30
0.0
 10
3.673126355418524
 20
-2.781673447655276
 30
0.0
 10
3.475033365016658
 20
-2.781673447655276
 30
0.0
 10
3.382325845508585
 20
-2.781673447655276
 30
0.0
 10
3.30105604301154
 20
-2.752459037940356
 30
0.0
 10
3.26042114176302
 20
-2.725793998884523
 30
0.0
 10
3.26042114176302
 20
-2.725793998884523
 30
0.0
 10
3.290893011330053
 20
-2.639442680546735
 30
0.0
 10
3.290893011330053
 20
-2.639442680546735
 30
0.0
  0
HATCH
  5
712
330
1F
100
AcDbEntity
  8
Livello 1
100
AcDbHatch
 10
0.0
 20
0.0
 30
0.0
210
0.0
220
0.0
230
1.0
  2
SOLID
 70
     1
 71
     0
 91
        1
 92
        1
 93
        1
 72
     4
 94
        3
 73
     0
 74
     0
 95
       59
 96
       55
 40
0.0
 40
0.0
 40
0.0
 40
0.0
 40
1.0
 40
1.0
 40
1.0
 40
2.0
 40
2.0
 40
2.0
 40
3.0
 40
3.0
 40
3.0
 40
4.0
 40
4.0
 40
4.0
 40
5.0
 40
5.0
 40
5.0
 40
6.0
 40
6.0
 40
6.0
 40
7.0
 40
7.0
 40
7.0
 40
8.0
 40
8.0
 40
8.0
 40
9.0
 40
9.0
 40
9.0
 40
10.0
 40
10.0
 40
10.0
 40
11.0
 40
11.0
 40
11.0
 40
12.0
 40
12.0
 40
12.0
 40
13.0
 40
13.0
 40
13.0
 40
14.0
 40
14.0
 40
14.0
 40
15.0
 40
15.0
 40
15.0
 40
16.0
 40
16.0
 40
16.0
 40
17.0
 40
17.0
 40
17.0
 40
18.0
 40
18.0
 40
18.0
 40
18.0
 10
3.290893011330053
 20
-2.639442680546735
 10
3.322639566226631
 20
-2.659768743909709
 10
3.396295707701272
 20
-2.691515298806288
 10
3.473758679687116
 20
-2.691515298806288
 10
3.617246906647771
 20
-2.691515298806288
 10
3.661688638407493
 20
-2.600082464627756
 10
3.660431178555377
 20
-2.531507838993858
 10
3.659156493225836
 20
-2.41595933641858
 10
3.555028482184158
 20
-2.366436088818113
 10
3.447093640631281
 20
-2.366436088818113
 10
3.447093640631281
 20
-2.366436088818113
 10
3.38487521616767
 20
-2.366436088818113
 10
3.38487521616767
 20
-2.366436088818113
 10
3.38487521616767
 20
-2.366436088818113
 10
3.38487521616767
 20
-2.282616915661983
 10
3.38487521616767
 20
-2.282616915661983
 10
3.38487521616767
 20
-2.282616915661983
 10
3.447093640631281
 20
-2.282616915661983
 10
3.447093640631281
 20
-2.282616915661983
 10
3.528363443128325
 20
-2.282616915661983
 10
3.631216768840459
 20
-2.240724554561345
 10
3.631216768840459
 20
-2.142935519212529
 10
3.631216768840459
 20
-2.076910264237716
 10
3.589307182262395
 20
-2.018498670285306
 10
3.486453856550261
 20
-2.018498670285306
 10
3.420428601575448
 20
-2.018498670285306
 10
3.356935491782294
 20
-2.047695854522797
 10
3.321382106374515
 20
-2.073103433726515
 10
3.321382106374515
 20
-2.073103433726515
 10
3.292167696659596
 20
-1.991833631229471
 10
3.292167696659596
 20
-1.991833631229471
 10
3.335351968567203
 20
-1.960087076332895
 10
3.419153916245906
 20
-1.928340521436316
 10
3.508037379765351
 20
-1.928340521436316
 10
3.670576984759439
 20
-1.928340521436316
 10
3.74423312623408
 20
-2.024854871455592
 10
3.74423312623408
 20
-2.12515882650864
 10
3.74423312623408
 20
-2.210235459516884
 10
3.693435193304071
 20
-2.282616915661983
 10
3.59185655292148
 20
-2.319444986399305
 10
3.59185655292148
 20
-2.319444986399305
 10
3.59185655292148
 20
-2.32199435705839
 10
3.59185655292148
 20
-2.32199435705839
 10
3.693435193304071
 20
-2.342303194943938
 10
3.775979681130658
 20
-2.418491481600238
 10
3.775979681130658
 20
-2.534057209652944
 10
3.775979681130658
 20
-2.666124945079995
 10
3.673126355418524
 20
-2.781673447655276
 10
3.475033365016658
 20
-2.781673447655276
 10
3.382325845508585
 20
-2.781673447655276
 10
3.30105604301154
 20
-2.752459037940356
 10
3.26042114176302
 20
-2.725793998884523
 10
3.26042114176302
 20
-2.725793998884523
 10
3.290893011330053
 20
-2.639442680546735
 10
3.290893011330053
 20
-2.639442680546735
 97
        0
 97
        0
 75
     2
 76
     1
 98
        0
450
        0
451
        0
460
0.0
461
0.0
452
        0
462
0.0
453
        0
470

  0
SPLINE
  5
713
330
1F
100
AcDbEntity
  8
Livello 1
100
AcDbSpline
210
0.0
220
0.0
230
1.0
 70
     9
 71
     3
 72
    17
 73
    13
 74
     0
 42
0.000000001
 43
0.0000000001
 40
0.0
 40
0.0
 40
0.0
 40
0.0
 40
1.0
 40
1.0
 40
1.0
 40
2.0
 40
2.0
 40
2.0
 40
3.0
 40
3.0
 40
3.0
 40
4.0
 40
4.0
 40
4.0
 40
4.0
 10
3.878901908752496
 20
-2.923886989286388
 30
0.0
 10
3.906841633137872
 20
-2.848973387959631
 30
0.0
 10
3.941137558693535
 20
-2.713098822021377
 30
0.0
 10
3.955107420886223
 20
-2.62040852799073
 30
0.0
 10
3.955107420886223
 20
-2.62040852799073
 30
0.0
 10
4.079544269813447
 20
-2.607696125650158
 30
0.0
 10
4.079544269813447
 20
-2.607696125650158
 30
0.0
 10
4.050347085575954
 20
-2.715648192680462
 30
0.0
 10
3.994467636805201
 20
-2.856587048982033
 30
0.0
 10
3.958914251397423
 20
-2.916273328263986
 30
0.0
 10
3.958914251397423
 20
-2.916273328263986
 30
0.0
 10
3.878901908752496
 20
-2.923886989286388
 30
0.0
 10
3.878901908752496
 20
-2.923886989286388
 30
0.0
  0
HATCH
  5
714
330
1F
100
AcDbEntity
  8
Livello 1
100
AcDbHatch
 10
0.0
 20
0.0
 30
0.0
210
0.0
220
0.0
230
1.0
  2
SOLID
 70
     1
 71
     0
 91
        1
 92
        1
 93
        1
 72
     4
 94
        3
 73
     0
 74
     0
 95
       17
 96
       13
 40
0.0
 40
0.0
 40
0.0
 40
0.0
 40
1.0
 40
1.0
 40
1.0
 40
2.0
 40
2.0
 40
2.0
 40
3.0
 40
3.0
 40
3.0
 40
4.0
 40
4.0
 40
4.0
 40
4.0
 10
3.878901908752496
 20
-2.923886989286388
 10
3.906841633137872
 20
-2.848973387959631
 10
3.941137558693535
 20
-2.713098822021377
 10
3.955107420886223
 20
-2.62040852799073
 10
3.955107420886223
 20
-2.62040852799073
 10
4.079544269813447
 20
-2.607696125650158
 10
4.079544269813447
 20
-2.607696125650158
 10
4.050347085575954
 20
-2.715648192680462
 10
3.994467636805201
 20
-2.856587048982033
 10
3.958914251397423
 20
-2.916273328263986
 10
3.958914251397423
 20
-2.916273328263986
 10
3.878901908752496
 20
-2.923886989286388
 10
3.878901908752496
 20
-2.923886989286388
 97
        0
 97
        0
 75
     2
 76
     1
 98
        0
450
        0
451
        0
460
0.0
461
0.0
452
        0
462
0.0
453
        0
470

  0
SPLINE
  5
715
330
1F
100
AcDbEntity
  8
Livello 1
100
AcDbSpline
210
0.0
220
0.0
230
1.0
 70
    11
 71
     3
 72
    50
 73
    46
 74
     0
 42
0.000000001
 43
0.0000000001
 40
0.0
 40
0.0
 40
0.0
 40
0.0
 40
1.0
 40
1.0
 40
1.0
 40
2.0
 40
2.0
 40
2.0
 40
3.0
 40
3.0
 40
3.0
 40
4.0
 40
4.0
 40
4.0
 40
5.0
 40
5.0
 40
5.0
 40
6.0
 40
6.0
 40
6.0
 40
7.0
 40
7.0
 40
7.0
 40
8.0
 40
8.0
 40
8.0
 40
9.0
 40
9.0
 40
9.0
 40
10.0
 40
10.0
 40
10.0
 40
11.0
 40
11.0
 40
11.0
 40
12.0
 40
12.0
 40
12.0
 40
13.0
 40
13.0
 40
13.0
 40
14.0
 40
14.0
 40
14.0
 40
15.0
 40
15.0
 40
15.0
 40
15.0
 10
4.671291095837385
 20
-2.036275362989194
 30
0.0
 10
4.671291095837385
 20
-2.036275362989194
 30
0.0
 10
4.356374917530697
 20
-2.036275362989194
 30
0.0
 10
4.356374917530697
 20
-2.036275362989194
 30
0.0
 10
4.356374917530697
 20
-2.036275362989194
 30
0.0
 10
4.324628362634121
 20
-2.248338215583749
 30
0.0
 10
4.324628362634121
 20
-2.248338215583749
 30
0.0
 10
4.343679740667552
 20
-2.245806070402089
 30
0.0
 10
4.361456433371441
 20
-2.243256699743004
 30
0.0
 10
4.391928302938476
 20
-2.243256699743004
 30
0.0
 10
4.45542141273163
 20
-2.243256699743004
 30
0.0
 10
4.518914522524785
 20
-2.257226561935693
 30
0.0
 10
4.569712455454793
 20
-2.287698431502728
 30
0.0
 10
4.634463025100063
 20
-2.324526502240048
 30
0.0
 10
4.687810328689158
 20
-2.395633273055604
 30
0.0
 10
4.687810328689158
 20
-2.499761284097281
 30
0.0
 10
4.687810328689158
 20
-2.661043429239252
 30
0.0
 10
4.559549423773306
 20
-2.781673447655276
 30
0.0
 10
4.380507811404872
 20
-2.781673447655276
 30
0.0
 10
4.290349662555884
 20
-2.781673447655276
 30
0.0
 10
4.214144150422158
 20
-2.756283093928983
 30
0.0
 10
4.174783934503178
 20
-2.730875514725267
 30
0.0
 10
4.174783934503178
 20
-2.730875514725267
 30
0.0
 10
4.202723658888555
 20
-2.645798881717022
 30
0.0
 10
4.202723658888555
 20
-2.645798881717022
 30
0.0
 10
4.23700235896679
 20
-2.666124945079995
 30
0.0
 10
4.304302299271146
 20
-2.691515298806288
 30
0.0
 10
4.379233126075329
 20
-2.691515298806288
 30
0.0
 10
4.484635822446549
 20
-2.691515298806288
 30
0.0
 10
4.574793971295536
 20
-2.62294067317239
 30
0.0
 10
4.574793971295536
 20
-2.512473686437854
 30
0.0
 10
4.573519285965994
 20
-2.405796304737091
 30
0.0
 10
4.502412515150438
 20
-2.329608018080792
 30
0.0
 10
4.337323539497266
 20
-2.329608018080792
 30
0.0
 10
4.290349662555884
 20
-2.329608018080792
 30
0.0
 10
4.253521591818564
 20
-2.334689533921536
 30
0.0
 10
4.223032496774102
 20
-2.338496364432737
 30
0.0
 10
4.223032496774102
 20
-2.338496364432737
 30
0.0
 10
4.276379800363196
 20
-1.942310383629005
 30
0.0
 10
4.276379800363196
 20
-1.942310383629005
 30
0.0
 10
4.276379800363196
 20
-1.942310383629005
 30
0.0
 10
4.671291095837385
 20
-1.942310383629005
 30
0.0
 10
4.671291095837385
 20
-1.942310383629005
 30
0.0
 10
4.671291095837385
 20
-1.942310383629005
 30
0.0
 10
4.671291095837385
 20
-2.036275362989194
 30
0.0
 10
4.671291095837385
 20
-2.036275362989194
 30
0.0
  0
HATCH
  5
716
330
1F
100
AcDbEntity
  8
Livello 1
100
AcDbHatch
 10
0.0
 20
0.0
 30
0.0
210
0.0
220
0.0
230
1.0
  2
SOLID
 70
     1
 71
     0
 91
        1
 92
        1
 93
        1
 72
     4
 94
        3
 73
     0
 74
     0
 95
       50
 96
       46
 40
0.0
 40
0.0
 40
0.0
 40
0.0
 40
1.0
 40
1.0
 40
1.0
 40
2.0
 40
2.0
 40
2.0
 40
3.0
 40
3.0
 40
3.0
 40
4.0
 40
4.0
 40
4.0
 40
5.0
 40
5.0
 40
5.0
 40
6.0
 40
6.0
 40
6.0
 40
7.0
 40
7.0
 40
7.0
 40
8.0
 40
8.0
 40
8.0
 40
9.0
 40
9.0
 40
9.0
 40
10.0
 40
10.0
 40
10.0
 40
11.0
 40
11.0
 40
11.0
 40
12.0
 40
12.0
 40
12.0
 40
13.0
 40
13.0
 40
13.0
 40
14.0
 40
14.0
 40
14.0
 40
15.0
 40
15.0
 40
15.0
 40
15.0
 10
4.671291095837385
 20
-2.036275362989194
 10
4.671291095837385
 20
-2.036275362989194
 10
4.356374917530697
 20
-2.036275362989194
 10
4.356374917530697
 20
-2.036275362989194
 10
4.356374917530697
 20
-2.036275362989194
 10
4.324628362634121
 20
-2.248338215583749
 10
4.324628362634121
 20
-2.248338215583749
 10
4.343679740667552
 20
-2.245806070402089
 10
4.361456433371441
 20
-2.243256699743004
 10
4.391928302938476
 20
-2.243256699743004
 10
4.45542141273163
 20
-2.243256699743004
 10
4.518914522524785
 20
-2.257226561935693
 10
4.569712455454793
 20
-2.287698431502728
 10
4.634463025100063
 20
-2.324526502240048
 10
4.687810328689158
 20
-2.395633273055604
 10
4.687810328689158
 20
-2.499761284097281
 10
4.687810328689158
 20
-2.661043429239252
 10
4.559549423773306
 20
-2.781673447655276
 10
4.380507811404872
 20
-2.781673447655276
 10
4.290349662555884
 20
-2.781673447655276
 10
4.214144150422158
 20
-2.756283093928983
 10
4.174783934503178
 20
-2.730875514725267
 10
4.174783934503178
 20
-2.730875514725267
 10
4.202723658888555
 20
-2.645798881717022
 10
4.202723658888555
 20
-2.645798881717022
 10
4.23700235896679
 20
-2.666124945079995
 10
4.304302299271146
 20
-2.691515298806288
 10
4.379233126075329
 20
-2.691515298806288
 10
4.484635822446549
 20
-2.691515298806288
 10
4.574793971295536
 20
-2.62294067317239
 10
4.574793971295536
 20
-2.512473686437854
 10
4.573519285965994
 20
-2.405796304737091
 10
4.502412515150438
 20
-2.329608018080792
 10
4.337323539497266
 20
-2.329608018080792
 10
4.290349662555884
 20
-2.329608018080792
 10
4.253521591818564
 20
-2.334689533921536
 10
4.223032496774102
 20
-2.338496364432737
 10
4.223032496774102
 20
-2.338496364432737
 10
4.276379800363196
 20
-1.942310383629005
 10
4.276379800363196
 20
-1.942310383629005
 10
4.276379800363196
 20
-1.942310383629005
 10
4.671291095837385
 20
-1.942310383629005
 10
4.671291095837385
 20
-1.942310383629005
 10
4.671291095837385
 20
-1.942310383629005
 10
4.671291095837385
 20
-2.036275362989194
 10
4.671291095837385
 20
-2.036275362989194
 97
        0
 97
        0
 75
     2
 76
     1
 98
        0
450
        0
451
        0
460
0.0
461
0.0
452
        0
462
0.0
453
        0
470

  0
POLYLINE
  5
74D
330
1F
100
AcDbEntity
  8
Livello 1
100
AcDb2dPolyline
 66
     1
 10
0.0
 20
0.0
 30
0.0
  0
VERTEX
  5
74E
330
74D
100
AcDbEntity
  8
Livello 1
100
AcDbVertex
100
AcDb2dVertex
 10
0.1532378471839128
 20
-6.623626707328467
 30
0.0
  0
VERTEX
  5
74F
330
74D
100
AcDbEntity
  8
Livello 1
100
AcDbVertex
100
AcDb2dVertex
 10
0.2268939886585543
 20
-6.623626707328467
 30
0.0
  0
VERTEX
  5
750
330
74D
100
AcDbEntity
  8
Livello 1
100
AcDbVertex
100
AcDb2dVertex
 10
0.9786310490174951
 20
-6.983001842872303
 30
0.0
  0
VERTEX
  5
751
330
74D
100
AcDbEntity
  8
Livello 1
100
AcDbVertex
100
AcDb2dVertex
 10
0.9786310490174951
 20
-7.098550345447584
 30
0.0
  0
VERTEX
  5
752
330
74D
100
AcDbEntity
  8
Livello 1
100
AcDbVertex
100
AcDb2dVertex
 10
0.2484775118736445
 20
-6.74044989523329
 30
0.0
  0
VERTEX
  5
753
330
74D
100
AcDbEntity
  8
Livello 1
100
AcDbVertex
100
AcDb2dVertex
 10
0.2459281412145596
 20
-6.74044989523329
 30
0.0
  0
VERTEX
  5
754
330
74D
100
AcDbEntity
  8
Livello 1
100
AcDbVertex
100
AcDb2dVertex
 10
0.2459281412145596
 20
-7.144266762536849
 30
0.0
  0
VERTEX
  5
755
330
74D
100
AcDbEntity
  8
Livello 1
100
AcDbVertex
100
AcDb2dVertex
 10
0.1532378471839128
 20
-7.144266762536849
 30
0.0
  0
VERTEX
  5
756
330
74D
100
AcDbEntity
  8
Livello 1
100
AcDbVertex
100
AcDb2dVertex
 10
0.1532378471839128
 20
-6.623626707328467
 30
0.0
  0
SEQEND
  5
757
330
74D
100
AcDbEntity
  8
Livello 1
  0
HATCH
  5
758
330
1F
100
AcDbEntity
  8
Livello 1
100
AcDbHatch
 10
0.0
 20
0.0
 30
0.0
210
0.0
220
0.0
230
1.0
  2
SOLID
 70
     1
 71
     0
 91
        1
 92
        1
 93
        8
 72
     1
 10
0.1532378471839128
 20
-6.623626707328467
 11
0.2268939886585543
 21
-6.623626707328467
 72
     1
 10
0.2268939886585543
 20
-6.623626707328467
 11
0.9786310490174951
 21
-6.983001842872303
 72
     1
 10
0.9786310490174951
 20
-6.983001842872303
 11
0.9786310490174951
 21
-7.098550345447584
 72
     1
 10
0.9786310490174951
 20
-7.098550345447584
 11
0.2484775118736445
 21
-6.74044989523329
 72
     1
 10
0.2484775118736445
 20
-6.74044989523329
 11
0.2459281412145596
 21
-6.74044989523329
 72
     1
 10
0.2459281412145596
 20
-6.74044989523329
 11
0.2459281412145596
 21
-7.144266762536849
 72
     1
 10
0.2459281412145596
 20
-7.144266762536849
 11
0.1532378471839128
 21
-7.144266762536849
 72
     1
 10
0.1532378471839128
 20
-7.144266762536849
 11
0.1532378471839128
 21
-6.623626707328467
 97
        0
 75
     2
 76
     1
 98
        0
450
        0
451
        0
460
0.0
461
0.0
452
        0
462
0.0
453
        0
470

  0
SPLINE
  5
759
330
1F
100
AcDbEntity
  8
Livello 1
100
AcDbSpline
210
0.0
220
0.0
230
1.0
 70
     9
 71
     3
 72
    17
 73
    13
 74
     0
 42
0.000000001
 43
0.0000000001
 40
0.0
 40
0.0
 40
0.0
 40
0.0
 40
1.0
 40
1.0
 40
1.0
 40
2.0
 40
2.0
 40
2.0
 40
3.0
 40
3.0
 40
3.0
 40
4.0
 40
4.0
 40
4.0
 40
4.0
 10
1.134814452841296
 20
-6.544854599058231
 30
0.0
 10
1.059900851514539
 20
-6.516914874672854
 30
0.0
 10
0.9240262855762852
 20
-6.482618949117192
 30
0.0
 10
0.8313359915456381
 20
-6.468649086924504
 30
0.0
 10
0.8313359915456381
 20
-6.468649086924504
 30
0.0
 10
0.8186235892050662
 20
-6.344212237997277
 30
0.0
 10
0.8186235892050662
 20
-6.344212237997277
 30
0.0
 10
0.9265756562353699
 20
-6.373409422234772
 30
0.0
 10
1.06751451253694
 20
-6.429288871005523
 30
0.0
 10
1.127200791818893
 20
-6.464842256413302
 30
0.0
 10
1.127200791818893
 20
-6.464842256413302
 30
0.0
 10
1.134814452841296
 20
-6.544854599058231
 30
0.0
 10
1.134814452841296
 20
-6.544854599058231
 30
0.0
  0
HATCH
  5
75A
330
1F
100
AcDbEntity
  8
Livello 1
100
AcDbHatch
 10
0.0
 20
0.0
 30
0.0
210
0.0
220
0.0
230
1.0
  2
SOLID
 70
     1
 71
     0
 91
        1
 92
        1
 93
        1
 72
     4
 94
        3
 73
     0
 74
     0
 95
       17
 96
       13
 40
0.0
 40
0.0
 40
0.0
 40
0.0
 40
1.0
 40
1.0
 40
1.0
 40
2.0
 40
2.0
 40
2.0
 40
3.0
 40
3.0
 40
3.0
 40
4.0
 40
4.0
 40
4.0
 40
4.0
 10
1.134814452841296
 20
-6.544854599058231
 10
1.059900851514539
 20
-6.516914874672854
 10
0.9240262855762852
 20
-6.482618949117192
 10
0.8313359915456381
 20
-6.468649086924504
 10
0.8313359915456381
 20
-6.468649086924504
 10
0.8186235892050662
 20
-6.344212237997277
 10
0.8186235892050662
 20
-6.344212237997277
 10
0.9265756562353699
 20
-6.373409422234772
 10
1.06751451253694
 20
-6.429288871005523
 10
1.127200791818893
 20
-6.464842256413302
 10
1.127200791818893
 20
-6.464842256413302
 10
1.134814452841296
 20
-6.544854599058231
 10
1.134814452841296
 20
-6.544854599058231
 97
        0
 97
        0
 75
     2
 76
     1
 98
        0
450
        0
451
        0
460
0.0
461
0.0
452
        0
462
0.0
453
        0
470

  0
SPLINE
  5
75B
330
1F
100
AcDbEntity
  8
Livello 1
100
AcDbSpline
210
0.0
220
0.0
230
1.0
 70
    11
 71
     3
 72
    50
 73
    46
 74
     0
 42
0.000000001
 43
0.0000000001
 40
0.0
 40
0.0
 40
0.0
 40
0.0
 40
1.0
 40
1.0
 40
1.0
 40
2.0
 40
2.0
 40
2.0
 40
3.0
 40
3.0
 40
3.0
 40
4.0
 40
4.0
 40
4.0
 40
5.0
 40
5.0
 40
5.0
 40
6.0
 40
6.0
 40
6.0
 40
7.0
 40
7.0
 40
7.0
 40
8.0
 40
8.0
 40
8.0
 40
9.0
 40
9.0
 40
9.0
 40
10.0
 40
10.0
 40
10.0
 40
11.0
 40
11.0
 40
11.0
 40
12.0
 40
12.0
 40
12.0
 40
13.0
 40
13.0
 40
13.0
 40
14.0
 40
14.0
 40
14.0
 40
15.0
 40
15.0
 40
15.0
 40
15.0
 10
0.2472028265441021
 20
-5.752448186495914
 30
0.0
 10
0.2472028265441021
 20
-5.752448186495914
 30
0.0
 10
0.2472028265441021
 20
-6.067364364802602
 30
0.0
 10
0.2472028265441021
 20
-6.067364364802602
 30
0.0
 10
0.2472028265441021
 20
-6.067364364802602
 30
0.0
 10
0.4592656791386558
 20
-6.09911091969918
 30
0.0
 10
0.4592656791386558
 20
-6.09911091969918
 30
0.0
 10
0.4567335339569972
 20
-6.080059541665747
 30
0.0
 10
0.4541841632979124
 20
-6.062282848961859
 30
0.0
 10
0.4541841632979124
 20
-6.031810979394825
 30
0.0
 10
0.4541841632979124
 20
-5.96831786960167
 30
0.0
 10
0.4681540254906004
 20
-5.904824759808514
 30
0.0
 10
0.4986258950576353
 20
-5.854026826878508
 30
0.0
 10
0.535453965794956
 20
-5.789276257233235
 30
0.0
 10
0.6065607366105126
 20
-5.735928953644141
 30
0.0
 10
0.7106887476521889
 20
-5.735928953644141
 30
0.0
 10
0.8719708927941599
 20
-5.735928953644141
 30
0.0
 10
0.992600911210183
 20
-5.864189858559992
 30
0.0
 10
0.992600911210183
 20
-6.043231470928428
 30
0.0
 10
0.992600911210183
 20
-6.133389619777416
 30
0.0
 10
0.9672105574838916
 20
-6.209595131911142
 30
0.0
 10
0.9418029782801742
 20
-6.248955347830121
 30
0.0
 10
0.9418029782801742
 20
-6.248955347830121
 30
0.0
 10
0.8567263452719295
 20
-6.221015623444745
 30
0.0
 10
0.8567263452719295
 20
-6.221015623444745
 30
0.0
 10
0.8770524086349034
 20
-6.186736923366509
 30
0.0
 10
0.9024427623611948
 20
-6.119419757584728
 30
0.0
 10
0.9024427623611948
 20
-6.044506156257969
 30
0.0
 10
0.9024427623611948
 20
-5.939103459886751
 30
0.0
 10
0.8338681367272966
 20
-5.848945311037762
 30
0.0
 10
0.7234011499927608
 20
-5.848945311037762
 30
0.0
 10
0.6167237682919997
 20
-5.850219996367306
 30
0.0
 10
0.5405354816356995
 20
-5.921326767182862
 30
0.0
 10
0.5405354816356995
 20
-6.086415742836034
 30
0.0
 10
0.5405354816356995
 20
-6.133389619777416
 30
0.0
 10
0.545616997476443
 20
-6.170217690514737
 30
0.0
 10
0.549423827987644
 20
-6.200689560081772
 30
0.0
 10
0.549423827987644
 20
-6.200689560081772
 30
0.0
 10
0.1532378471839128
 20
-6.147359481970105
 30
0.0
 10
0.1532378471839128
 20
-6.147359481970105
 30
0.0
 10
0.1532378471839128
 20
-6.147359481970105
 30
0.0
 10
0.1532378471839128
 20
-5.752448186495914
 30
0.0
 10
0.1532378471839128
 20
-5.752448186495914
 30
0.0
 10
0.1532378471839128
 20
-5.752448186495914
 30
0.0
 10
0.2472028265441021
 20
-5.752448186495914
 30
0.0
 10
0.2472028265441021
 20
-5.752448186495914
 30
0.0
  0
HATCH
  5
75C
330
1F
100
AcDbEntity
  8
Livello 1
100
AcDbHatch
 10
0.0
 20
0.0
 30
0.0
210
0.0
220
0.0
230
1.0
  2
SOLID
 70
     1
 71
     0
 91
        1
 92
        1
 93
        1
 72
     4
 94
        3
 73
     0
 74
     0
 95
       50
 96
       46
 40
0.0
 40
0.0
 40
0.0
 40
0.0
 40
1.0
 40
1.0
 40
1.0
 40
2.0
 40
2.0
 40
2.0
 40
3.0
 40
3.0
 40
3.0
 40
4.0
 40
4.0
 40
4.0
 40
5.0
 40
5.0
 40
5.0
 40
6.0
 40
6.0
 40
6.0
 40
7.0
 40
7.0
 40
7.0
 40
8.0
 40
8.0
 40
8.0
 40
9.0
 40
9.0
 40
9.0
 40
10.0
 40
10.0
 40
10.0
 40
11.0
 40
11.0
 40
11.0
 40
12.0
 40
12.0
 40
12.0
 40
13.0
 40
13.0
 40
13.0
 40
14.0
 40
14.0
 40
14.0
 40
15.0
 40
15.0
 40
15.0
 40
15.0
 10
0.2472028265441021
 20
-5.752448186495914
 10
0.2472028265441021
 20
-5.752448186495914
 10
0.2472028265441021
 20
-6.067364364802602
 10
0.2472028265441021
 20
-6.067364364802602
 10
0.2472028265441021
 20
-6.067364364802602
 10
0.4592656791386558
 20
-6.09911091969918
 10
0.4592656791386558
 20
-6.09911091969918
 10
0.4567335339569972
 20
-6.080059541665747
 10
0.4541841632979124
 20
-6.062282848961859
 10
0.4541841632979124
 20
-6.031810979394825
 10
0.4541841632979124
 20
-5.96831786960167
 10
0.4681540254906004
 20
-5.904824759808514
 10
0.4986258950576353
 20
-5.854026826878508
 10
0.535453965794956
 20
-5.789276257233235
 10
0.6065607366105126
 20
-5.735928953644141
 10
0.7106887476521889
 20
-5.735928953644141
 10
0.8719708927941599
 20
-5.735928953644141
 10
0.992600911210183
 20
-5.864189858559992
 10
0.992600911210183
 20
-6.043231470928428
 10
0.992600911210183
 20
-6.133389619777416
 10
0.9672105574838916
 20
-6.209595131911142
 10
0.9418029782801742
 20
-6.248955347830121
 10
0.9418029782801742
 20
-6.248955347830121
 10
0.8567263452719295
 20
-6.221015623444745
 10
0.8567263452719295
 20
-6.221015623444745
 10
0.8770524086349034
 20
-6.186736923366509
 10
0.9024427623611948
 20
-6.119419757584728
 10
0.9024427623611948
 20
-6.044506156257969
 10
0.9024427623611948
 20
-5.939103459886751
 10
0.8338681367272966
 20
-5.848945311037762
 10
0.7234011499927608
 20
-5.848945311037762
 10
0.6167237682919997
 20
-5.850219996367306
 10
0.5405354816356995
 20
-5.921326767182862
 10
0.5405354816356995
 20
-6.086415742836034
 10
0.5405354816356995
 20
-6.133389619777416
 10
0.545616997476443
 20
-6.170217690514737
 10
0.549423827987644
 20
-6.200689560081772
 10
0.549423827987644
 20
-6.200689560081772
 10
0.1532378471839128
 20
-6.147359481970105
 10
0.1532378471839128
 20
-6.147359481970105
 10
0.1532378471839128
 20
-6.147359481970105
 10
0.1532378471839128
 20
-5.752448186495914
 10
0.1532378471839128
 20
-5.752448186495914
 10
0.1532378471839128
 20
-5.752448186495914
 10
0.2472028265441021
 20
-5.752448186495914
 10
0.2472028265441021
 20
-5.752448186495914
 97
        0
 97
        0
 75
     2
 76
     1
 98
        0
450
        0
451
        0
460
0.0
461
0.0
452
        0
462
0.0
453
        0
470

  0
SPLINE
  5
78D
330
1F
100
AcDbEntity
  8
Livello 1
100
AcDbSpline
210
0.0
220
0.0
230
1.0
 70
     9
 71
     3
 72
    41
 73
    37
 74
     0
 42
0.000000001
 43
0.0000000001
 40
0.0
 40
0.0
 40
0.0
 40
0.0
 40
1.0
 40
1.0
 40
1.0
 40
2.0
 40
2.0
 40
2.0
 40
3.0
 40
3.0
 40
3.0
 40
4.0
 40
4.0
 40
4.0
 40
5.0
 40
5.0
 40
5.0
 40
6.0
 40
6.0
 40
6.0
 40
7.0
 40
7.0
 40
7.0
 40
8.0
 40
8.0
 40
8.0
 40
9.0
 40
9.0
 40
9.0
 40
10.0
 40
10.0
 40
10.0
 40
11.0
 40
11.0
 40
11.0
 40
12.0
 40
12.0
 40
12.0
 40
12.0
 10
2.959733207810413
 20
-10.43049166948439
 30
0.0
 10
2.983866101684588
 20
-10.43304104014348
 30
0.0
 10
3.011788600592538
 20
-10.43049166948439
 30
0.0
 10
3.049891356659401
 20
-10.42668483897319
 30
0.0
 10
3.114659151782098
 20
-10.41779649262124
 30
0.0
 10
3.175602890916167
 20
-10.39113145356541
 30
0.0
 10
3.222593993334975
 20
-10.34668972180569
 30
0.0
 10
3.277198756776186
 20
-10.29716647420522
 30
0.0
 10
3.316558972695165
 20
-10.22478501806012
 30
0.0
 10
3.331803520217396
 20
-10.12701320818873
 30
0.0
 10
3.331803520217396
 20
-10.12701320818873
 30
0.0
 10
3.327979464228768
 20
-10.12701320818873
 30
0.0
 10
3.327979464228768
 20
-10.12701320818873
 30
0.0
 10
3.28228027261693
 20
-10.18287543148206
 30
0.0
 10
3.216237792164689
 20
-10.21589667170818
 30
0.0
 10
3.133693304338103
 20
-10.21589667170818
 30
0.0
 10
2.985123561536704
 20
-10.21589667170818
 30
0.0
 10
2.889883896846973
 20
-10.1041549996441
 30
0.0
 10
2.889883896846973
 20
-9.963198917865099
 30
0.0
 10
2.889883896846973
 20
-9.807015514041301
 30
0.0
 10
3.002900254240593
 20
-9.669866262773505
 30
0.0
 10
3.171796060404966
 20
-9.669866262773505
 30
0.0
 10
3.340691866569341
 20
-9.669866262773505
 30
0.0
 10
3.444819877611017
 20
-9.807015514041301
 30
0.0
 10
3.444819877611017
 20
-10.01780368130631
 30
0.0
 10
3.444819877611017
 20
-10.19939466433383
 30
0.0
 10
3.383858912999521
 20
-10.32638088392014
 30
0.0
 10
3.302589110502478
 20
-10.4051013157581
 30
0.0
 10
3.239096000709323
 20
-10.46731974022171
 30
0.0
 10
3.151487222519419
 20
-10.50542249628857
 30
0.0
 10
3.062586533522547
 20
-10.51558552797006
 30
0.0
 10
3.021951632274026
 20
-10.52192450366292
 30
0.0
 10
2.986398246866246
 20
-10.52319918899246
 30
0.0
 10
2.959733207810413
 20
-10.52192450366292
 30
0.0
 10
2.959733207810413
 20
-10.52192450366292
 30
0.0
 10
2.959733207810413
 20
-10.43049166948439
 30
0.0
 10
2.959733207810413
 20
-10.43049166948439
 30
0.0
  0
SPLINE
  5
78E
330
1F
100
AcDbEntity
  8
Livello 1
100
AcDbSpline
210
0.0
220
0.0
230
1.0
 70
     9
 71
     3
 72
    20
 73
    16
 74
     0
 42
0.000000001
 43
0.0000000001
 40
0.0
 40
0.0
 40
0.0
 40
0.0
 40
1.0
 40
1.0
 40
1.0
 40
2.0
 40
2.0
 40
2.0
 40
3.0
 40
3.0
 40
3.0
 40
4.0
 40
4.0
 40
4.0
 40
5.0
 40
5.0
 40
5.0
 40
5.0
 10
3.000368109058936
 20
-9.955585256842699
 30
0.0
 10
3.000368109058936
 20
-10.05843858255483
 30
0.0
 10
3.062586533522547
 20
-10.13082003869993
 30
0.0
 10
3.159100883541821
 20
-10.13082003869993
 30
0.0
 10
3.23401448486858
 20
-10.13082003869993
 30
0.0
 10
3.29242607882099
 20
-10.09399196796261
 30
0.0
 10
3.321640488535908
 20
-10.04446872036215
 30
0.0
 10
3.327979464228768
 20
-10.03430568868066
 30
0.0
 10
3.331803520217396
 20
-10.02161051181751
 30
0.0
 10
3.331803520217396
 20
-10.00383381911362
 30
0.0
 10
3.331803520217396
 20
-9.862877737334626
 30
0.0
 10
3.279730901957845
 20
-9.754942895781749
 30
0.0
 10
3.162907714053023
 20
-9.754942895781749
 30
0.0
 10
3.067668049363291
 20
-9.754942895781749
 30
0.0
 10
3.000368109058936
 20
-9.83876206893788
 30
0.0
 10
3.000368109058936
 20
-9.955585256842699
 30
0.0
  0
HATCH
  5
78F
330
1F
100
AcDbEntity
  8
Livello 1
100
AcDbHatch
 10
0.0
 20
0.0
 30
0.0
210
0.0
220
0.0
230
1.0
  2
SOLID
 70
     1
 71
     0
 91
        2
 92
        1
 93
        1
 72
     4
 94
        3
 73
     0
 74
     0
 95
       41
 96
       37
 40
0.0
 40
0.0
 40
0.0
 40
0.0
 40
1.0
 40
1.0
 40
1.0
 40
2.0
 40
2.0
 40
2.0
 40
3.0
 40
3.0
 40
3.0
 40
4.0
 40
4.0
 40
4.0
 40
5.0
 40
5.0
 40
5.0
 40
6.0
 40
6.0
 40
6.0
 40
7.0
 40
7.0
 40
7.0
 40
8.0
 40
8.0
 40
8.0
 40
9.0
 40
9.0
 40
9.0
 40
10.0
 40
10.0
 40
10.0
 40
11.0
 40
11.0
 40
11.0
 40
12.0
 40
12.0
 40
12.0
 40
12.0
 10
2.959733207810413
 20
-10.43049166948439
 10
2.983866101684588
 20
-10.43304104014348
 10
3.011788600592538
 20
-10.43049166948439
 10
3.049891356659401
 20
-10.42668483897319
 10
3.114659151782098
 20
-10.41779649262124
 10
3.175602890916167
 20
-10.39113145356541
 10
3.222593993334975
 20
-10.34668972180569
 10
3.277198756776186
 20
-10.29716647420522
 10
3.316558972695165
 20
-10.22478501806012
 10
3.331803520217396
 20
-10.12701320818873
 10
3.331803520217396
 20
-10.12701320818873
 10
3.327979464228768
 20
-10.12701320818873
 10
3.327979464228768
 20
-10.12701320818873
 10
3.28228027261693
 20
-10.18287543148206
 10
3.216237792164689
 20
-10.21589667170818
 10
3.133693304338103
 20
-10.21589667170818
 10
2.985123561536704
 20
-10.21589667170818
 10
2.889883896846973
 20
-10.1041549996441
 10
2.889883896846973
 20
-9.963198917865099
 10
2.889883896846973
 20
-9.807015514041301
 10
3.002900254240593
 20
-9.669866262773505
 10
3.171796060404966
 20
-9.669866262773505
 10
3.340691866569341
 20
-9.669866262773505
 10
3.444819877611017
 20
-9.807015514041301
 10
3.444819877611017
 20
-10.01780368130631
 10
3.444819877611017
 20
-10.19939466433383
 10
3.383858912999521
 20
-10.32638088392014
 10
3.302589110502478
 20
-10.4051013157581
 10
3.239096000709323
 20
-10.46731974022171
 10
3.151487222519419
 20
-10.50542249628857
 10
3.062586533522547
 20
-10.51558552797006
 10
3.021951632274026
 20
-10.52192450366292
 10
2.986398246866246
 20
-10.52319918899246
 10
2.959733207810413
 20
-10.52192450366292
 10
2.959733207810413
 20
-10.52192450366292
 10
2.959733207810413
 20
-10.43049166948439
 10
2.959733207810413
 20
-10.43049166948439
 97
        0
 97
        0
 92
        1
 93
        1
 72
     4
 94
        3
 73
     0
 74
     0
 95
       20
 96
       16
 40
0.0
 40
0.0
 40
0.0
 40
0.0
 40
1.0
 40
1.0
 40
1.0
 40
2.0
 40
2.0
 40
2.0
 40
3.0
 40
3.0
 40
3.0
 40
4.0
 40
4.0
 40
4.0
 40
5.0
 40
5.0
 40
5.0
 40
5.0
 10
3.000368109058936
 20
-9.955585256842699
 10
3.000368109058936
 20
-10.05843858255483
 10
3.062586533522547
 20
-10.13082003869993
 10
3.159100883541821
 20
-10.13082003869993
 10
3.23401448486858
 20
-10.13082003869993
 10
3.29242607882099
 20
-10.09399196796261
 10
3.321640488535908
 20
-10.04446872036215
 10
3.327979464228768
 20
-10.03430568868066
 10
3.331803520217396
 20
-10.02161051181751
 10
3.331803520217396
 20
-10.00383381911362
 10
3.331803520217396
 20
-9.862877737334626
 10
3.279730901957845
 20
-9.754942895781749
 10
3.162907714053023
 20
-9.754942895781749
 10
3.067668049363291
 20
-9.754942895781749
 10
3.000368109058936
 20
-9.83876206893788
 10
3.000368109058936
 20
-9.955585256842699
 97
        0
 97
        0
 75
     2
 76
     1
 98
        0
450
        0
451
        0
460
0.0
461
0.0
452
        0
462
0.0
453
        0
470

  0
SPLINE
  5
790
330
1F
100
AcDbEntity
  8
Livello 1
100
AcDbSpline
210
0.0
220
0.0
230
1.0
 70
     9
 71
     3
 72
    17
 73
    13
 74
     0
 42
0.000000001
 43
0.0000000001
 40
0.0
 40
0.0
 40
0.0
 40
0.0
 40
1.0
 40
1.0
 40
1.0
 40
2.0
 40
2.0
 40
2.0
 40
3.0
 40
3.0
 40
3.0
 40
4.0
 40
4.0
 40
4.0
 40
4.0
 10
4.095029974019644
 20
-10.08763576679233
 30
0.0
 10
4.095029974019644
 20
-10.36827324502078
 30
0.0
 10
3.990901962977968
 20
-10.52319918899246
 30
0.0
 10
3.808036294620906
 20
-10.52319918899246
 30
0.0
 10
3.646771374956363
 20
-10.52319918899246
 30
0.0
 10
3.537561848073943
 20
-10.37208007553198
 30
0.0
 10
3.535029702892283
 20
-10.09907348380336
 30
0.0
 10
3.535029702892283
 20
-9.822242836086104
 30
0.0
 10
3.654385035978763
 20
-9.669866262773505
 30
0.0
 10
3.822006156813595
 20
-9.669866262773505
 30
0.0
 10
3.995983478818711
 20
-9.669866262773505
 30
0.0
 10
4.095029974019644
 20
-9.82479220674519
 30
0.0
 10
4.095029974019644
 20
-10.08763576679233
 30
0.0
  0
SPLINE
  5
791
330
1F
100
AcDbEntity
  8
Livello 1
100
AcDbSpline
210
0.0
220
0.0
230
1.0
 70
     9
 71
     3
 72
    17
 73
    13
 74
     0
 42
0.000000001
 43
0.0000000001
 40
0.0
 40
0.0
 40
0.0
 40
0.0
 40
1.0
 40
1.0
 40
1.0
 40
2.0
 40
2.0
 40
2.0
 40
3.0
 40
3.0
 40
3.0
 40
4.0
 40
4.0
 40
4.0
 40
4.0
 10
3.646771374956363
 20
-10.1003481691329
 30
0.0
 10
3.646771374956363
 20
-10.31494316690911
 30
0.0
 10
3.712813855408601
 20
-10.43684787065468
 30
0.0
 10
3.814392495791193
 20
-10.43684787065468
 30
0.0
 10
3.928683538514357
 20
-10.43684787065468
 30
0.0
 10
3.983288301955567
 20
-10.30352267537551
 30
0.0
 10
3.983288301955567
 20
-10.09271728263307
 30
0.0
 10
3.983288301955567
 20
-9.889542776390459
 30
0.0
 10
3.931215683696014
 20
-9.756217581111293
 30
0.0
 10
3.815667181120736
 20
-9.756217581111293
 30
0.0
 10
3.717878145771918
 20
-9.756217581111293
 30
0.0
 10
3.646771374956363
 20
-9.875572914197773
 30
0.0
 10
3.646771374956363
 20
-10.1003481691329
 30
0.0
  0
HATCH
  5
792
330
1F
100
AcDbEntity
  8
Livello 1
100
AcDbHatch
 10
0.0
 20
0.0
 30
0.0
210
0.0
220
0.0
230
1.0
  2
SOLID
 70
     1
 71
     0
 91
        2
 92
        1
 93
        1
 72
     4
 94
        3
 73
     0
 74
     0
 95
       17
 96
       13
 40
0.0
 40
0.0
 40
0.0
 40
0.0
 40
1.0
 40
1.0
 40
1.0
 40
2.0
 40
2.0
 40
2.0
 40
3.0
 40
3.0
 40
3.0
 40
4.0
 40
4.0
 40
4.0
 40
4.0
 10
4.095029974019644
 20
-10.08763576679233
 10
4.095029974019644
 20
-10.36827324502078
 10
3.990901962977968
 20
-10.52319918899246
 10
3.808036294620906
 20
-10.52319918899246
 10
3.646771374956363
 20
-10.52319918899246
 10
3.537561848073943
 20
-10.37208007553198
 10
3.535029702892283
 20
-10.09907348380336
 10
3.535029702892283
 20
-9.822242836086104
 10
3.654385035978763
 20
-9.669866262773505
 10
3.822006156813595
 20
-9.669866262773505
 10
3.995983478818711
 20
-9.669866262773505
 10
4.095029974019644
 20
-9.82479220674519
 10
4.095029974019644
 20
-10.08763576679233
 97
        0
 97
        0
 92
        1
 93
        1
 72
     4
 94
        3
 73
     0
 74
     0
 95
       17
 96
       13
 40
0.0
 40
0.0
 40
0.0
 40
0.0
 40
1.0
 40
1.0
 40
1.0
 40
2.0
 40
2.0
 40
2.0
 40
3.0
 40
3.0
 40
3.0
 40
4.0
 40
4.0
 40
4.0
 40
4.0
 10
3.646771374956363
 20
-10.1003481691329
 10
3.646771374956363
 20
-10.31494316690911
 10
3.712813855408601
 20
-10.43684787065468
 10
3.814392495791193
 20
-10.43684787065468
 10
3.928683538514357
 20
-10.43684787065468
 10
3.983288301955567
 20
-10.30352267537551
 10
3.983288301955567
 20
-10.09271728263307
 10
3.983288301955567
 20
-9.889542776390459
 10
3.931215683696014
 20
-9.756217581111293
 10
3.815667181120736
 20
-9.756217581111293
 10
3.717878145771918
 20
-9.756217581111293
 10
3.646771374956363
 20
-9.875572914197773
 10
3.646771374956363
 20
-10.1003481691329
 97
        0
 97
        0
 75
     2
 76
     1
 98
        0
450
        0
451
        0
460
0.0
461
0.0
452
        0
462
0.0
453
        0
470

  0
ENDSEC
  0
SECTION
  2
OBJECTS
  0
DICTIONARY
  5
C
330
0
100
AcDbDictionary
281
     1
  3
ACAD_CIP_PREVIOUS_PRODUCT_INFO
350
5FC
  3
ACAD_COLOR
350
5DD
  3
ACAD_DETAILVIEWSTYLE
350
5F8
  3
ACAD_GROUP
350
D
  3
ACAD_LAYOUT
350
1A
  3
ACAD_MATERIAL
350
3B
  3
ACAD_MLEADERSTYLE
350
5D0
  3
ACAD_MLINESTYLE
350
17
  3
ACAD_PLOTSETTINGS
350
19
  3
ACAD_PLOTSTYLENAME
350
E
  3
ACAD_SCALELIST
350
5DF
  3
ACAD_SECTIONVIEWSTYLE
350
5F6
  3
ACAD_TABLESTYLE
350
5CF
  3
ACAD_VISUALSTYLE
350
2A
  3
ACDB_RECOMPOSE_DATA
350
7BF
  3
AcDbVariableDictionary
350
7B0
  0
SUN
  5
3F
330
29
100
AcDbSun
 90
        1
290
     1
 63
     7
421
 16777215
 40
1.0
291
     1
 91
  2455826
 92
 54000000
292
     0
 70
     0
 71
   256
280
     1
1001
ACAD
1000
AcDbSavedByObjectVersion
1070
     0
  0
DICTIONARY
  5
5FD
330
1F
100
AcDbDictionary
280
     1
281
     1
  3
ACAD_SORTENTS
360
5FE
  0
XRECORD
  5
5FC
102
{ACAD_REACTORS
330
C
102
}
330
C
100
AcDbXrecord
280
     1
300
ACD
300
2019
300
ACD_F_S
  0
DICTIONARY
  5
5DD
102
{ACAD_REACTORS
330
C
102
}
330
C
100
AcDbDictionary
281
     1
  0
DICTIONARY
  5
5F8
102
{ACAD_REACTORS
330
C
102
}
330
C
100
AcDbDictionary
281
     1
  3
Imperial24
350
5F9
  0
DICTIONARY
  5
D
102
{ACAD_REACTORS
330
C
102
}
330
C
100
AcDbDictionary
281
     1
  0
DICTIONARY
  5
1A
102
{ACAD_REACTORS
330
C
102
}
330
C
100
AcDbDictionary
281
     1
  3
Layout1
350
1E
  3
Layout2
350
26
  3
Model
350
22
  0
DICTIONARY
  5
3B
102
{ACAD_REACTORS
330
C
102
}
330
C
100
AcDbDictionary
281
     1
  3
ByBlock
350
3D
  3
ByLayer
350
3C
  3
Global
350
3E
  0
DICTIONARY
  5
5D0
102
{ACAD_REACTORS
330
C
102
}
330
C
100
AcDbDictionary
281
     1
  3
Standard
350
5F5
  0
DICTIONARY
  5
17
102
{ACAD_REACTORS
330
C
102
}
330
C
100
AcDbDictionary
281
     1
  3
Standard
350
18
  0
DICTIONARY
  5
19
102
{ACAD_REACTORS
330
C
102
}
330
C
100
AcDbDictionary
281
     1
  0
ACDBDICTIONARYWDFLT
  5
E
102
{ACAD_REACTORS
330
C
102
}
330
C
100
AcDbDictionary
281
     1
  3
Normal
350
F
100
AcDbDictionaryWithDefault
340
F
  0
DICTIONARY
  5
5DF
102
{ACAD_REACTORS
330
C
102
}
330
C
100
AcDbDictionary
281
     1
  3
A0
350
5E0
  3
A1
350
5E1
  3
A2
350
5E2
  3
A3
350
5E3
  3
A4
350
5E4
  3
A5
350
5E5
  3
A6
350
5E6
  3
A7
350
5E7
  3
A8
350
5E8
  3
A9
350
5E9
  3
B0
350
5EA
  3
B1
350
5EB
  3
B2
350
5EC
  3
B3
350
5ED
  3
B4
350
5EE
  3
B5
350
5EF
  3
B6
350
5F0
  3
B7
350
5F1
  3
B8
350
5F2
  3
B9
350
5F3
  3
C0
350
5F4
  0
DICTIONARY
  5
5F6
102
{ACAD_REACTORS
330
C
102
}
330
C
100
AcDbDictionary
281
     1
  3
Imperial24
350
5F7
  0
DICTIONARY
  5
5CF
102
{ACAD_REACTORS
330
C
102
}
330
C
100
AcDbDictionary
281
     1
  3
Standard
350
5DE
  0
DICTIONARY
  5
2A
102
{ACAD_REACTORS
330
C
102
}
330
C
100
AcDbDictionary
281
     1
  3
2dWireframe
350
2F
  3
3D Hidden
350
31
  3
3dWireframe
350
30
  3
Basic
350
32
  3
Brighten
350
36
  3
ColorChange
350
3A
  3
Conceptual
350
34
  3
Dim
350
35
  3
EdgeColorOff
350
5DC
  3
Facepattern
350
39
  3
Flat
350
2B
  3
FlatWithEdges
350
2C
  3
Gouraud
350
2D
  3
GouraudWithEdges
350
2E
  3
Hidden
350
5D4
  3
JitterOff
350
5DA
  3
Linepattern
350
38
  3
OverhangOff
350
5DB
  3
Realistic
350
33
  3
Shaded
350
5D9
  3
Shaded with edges
350
5D8
  3
Shades of Gray
350
5D5
  3
Sketchy
350
5D6
  3
Thicken
350
37
  3
Wireframe
350
5D3
  3
X-Ray
350
5D7
  0
XRECORD
  5
7BF
102
{ACAD_REACTORS
330
C
102
}
330
C
100
AcDbXrecord
280
     1
 90
        1
330
5DE
  0
DICTIONARY
  5
7B0
102
{ACAD_REACTORS
330
C
102
}
330
C
100
AcDbDictionary
281
     1
  3
CANNOSCALE
350
7B5
  3
CMLEADERSTYLE
350
7B2
  3
CTABLESTYLE
350
7B1
  3
CVIEWDETAILSTYLE
350
7B3
  3
CVIEWSECTIONSTYLE
350
7B4
  0
SORTENTSTABLE
  5
5FE
102
{ACAD_REACTORS
330
5FD
102
}
330
5FD
100
AcDbSortentsTable
330
1F
331
5C4
  5
7AA
331
5FF
  5
5C4
331
600
  5
5FF
331
6A7
  5
6A6
331
6A8
  5
6A7
331
6A9
  5
6A8
331
6AA
  5
6A9
331
6AB
  5
6AA
331
6AC
  5
6AB
331
6AD
  5
6AC
331
6AE
  5
6AD
331
6AF
  5
6AE
331
6B0
  5
6AF
331
6B1
  5
6B0
331
6B2
  5
6B1
331
6B3
  5
6B2
331
6B4
  5
6B3
331
6B5
  5
6B4
331
6B6
  5
6B5
331
6B7
  5
6B6
331
6B8
  5
6B7
331
6B9
  5
6B8
331
6BA
  5
6B9
331
6BB
  5
6BA
331
6BC
  5
6BB
331
6BD
  5
6BC
331
6BE
  5
6BD
331
6BF
  5
6BE
331
6C0
  5
6BF
331
6C1
  5
6C0
331
6C2
  5
6C1
331
6C3
  5
6C2
331
6C4
  5
6C3
331
6C5
  5
6C4
331
6C6
  5
6C5
331
6C7
  5
6C6
331
6C8
  5
6C7
331
6C9
  5
6C8
331
6CA
  5
6C9
331
6CB
  5
6CA
331
6CC
  5
6CB
331
6CD
  5
6CC
331
6CE
  5
6CD
331
6CF
  5
6CE
331
6D0
  5
6CF
331
6D1
  5
6D0
331
6D2
  5
6D1
331
6D3
  5
6D2
331
6D4
  5
6D3
331
6D5
  5
6D4
331
6D6
  5
6D5
331
6D7
  5
6D6
331
6D8
  5
6D7
331
6ED
  5
6EC
331
6EE
  5
6ED
331
6EF
  5
6EE
331
6F0
  5
6EF
331
6F1
  5
6F0
331
6F2
  5
6F1
331
6F3
  5
6F2
331
6F4
  5
6F3
331
6F5
  5
6F4
331
6F6
  5
6F5
331
6F7
  5
6F6
331
6F8
  5
6F7
331
6F9
  5
6F8
331
705
  5
704
331
710
  5
705
331
711
  5
710
331
712
  5
711
331
713
  5
712
331
714
  5
713
331
715
  5
714
331
716
  5
715
331
74D
  5
74C
331
758
  5
74D
331
759
  5
758
331
75A
  5
759
331
75B
  5
75A
331
75C
  5
75B
331
78D
  5
78C
331
78E
  5
78D
331
78F
  5
78E
331
790
  5
78F
331
791
  5
790
331
792
  5
791
  0
ACDBDETAILVIEWSTYLE
  5
5F9
102
{ACAD_XDICTIONARY
360
7C2
102
}
102
{ACAD_REACTORS
330
5F8
102
}
330
5F8
100
AcDbModelDocViewStyle
 70
     0
  3
Imperial24
290
     0
100
AcDbDetailViewStyle
 70
     0
 71
     0
 90
        3
 71
     1
340
11
 62
   256
 40
0.24
340
0
 62
   256
 40
0.24
300

 40
0.36
280
     3
 71
     2
340
16
 90
       25
 62
   256
 71
     3
340
11
 62
   256
 40
0.24
 90
        1
 40
0.75
 90
        1
300
%<\AcVar ViewType \f "%tc1">% %<\AcVar ViewDetailId>%\PSCALA %<\AcVar ViewScale \f "%sn">%
 71
     4
340
16
 90
       25
 62
   256
340
16
 90
       25
 62
   256
280
     0
  0
LAYOUT
  5
1E
102
{ACAD_REACTORS
330
1A
102
}
330
1A
100
AcDbPlotSettings
  1

  2
none_device
  4

  6

 40
0.0
 41
0.0
 42
0.0
 43
0.0
 44
0.0
 45
0.0
 46
0.0
 47
0.0
 48
0.0
 49
0.0
140
0.0
141
0.0
142
1.0
143
1.0
 70
   688
 72
     0
 73
     0
 74
     5
  7

 75
    16
147
1.0
 76
     0
 77
     2
 78
   300
148
0.0
149
0.0
100
AcDbLayout
  1
Layout1
 70
     1
 71
     1
 10
0.0
 20
0.0
 11
12.0
 21
9.0
 12
0.0
 22
0.0
 32
0.0
 14
1.000000000000000E+20
 24
1.000000000000000E+20
 34
1.000000000000000E+20
 15
-1.000000000000000E+20
 25
-1.000000000000000E+20
 35
-1.000000000000000E+20
146
0.0
 13
0.0
 23
0.0
 33
0.0
 16
1.0
 26
0.0
 36
0.0
 17
0.0
 27
1.0
 37
0.0
 76
     0
330
1B
  0
LAYOUT
  5
26
102
{ACAD_REACTORS
330
1A
102
}
330
1A
100
AcDbPlotSettings
  1

  2
none_device
  4

  6

 40
0.0
 41
0.0
 42
0.0
 43
0.0
 44
0.0
 45
0.0
 46
0.0
 47
0.0
 48
0.0
 49
0.0
140
0.0
141
0.0
142
1.0
143
1.0
 70
   688
 72
     0
 73
     0
 74
     5
  7

 75
    16
147
1.0
 76
     0
 77
     2
 78
   300
148
0.0
149
0.0
100
AcDbLayout
  1
Layout2
 70
     1
 71
     2
 10
0.0
 20
0.0
 11
0.0
 21
0.0
 12
0.0
 22
0.0
 32
0.0
 14
0.0
 24
0.0
 34
0.0
 15
0.0
 25
0.0
 35
0.0
146
0.0
 13
0.0
 23
0.0
 33
0.0
 16
1.0
 26
0.0
 36
0.0
 17
0.0
 27
1.0
 37
0.0
 76
     0
330
23
  0
LAYOUT
  5
22
102
{ACAD_REACTORS
330
1A
102
}
330
1A
100
AcDbPlotSettings
  1

  2
none_device
  4

  6

 40
0.0
 41
0.0
 42
0.0
 43
0.0
 44
0.0
 45
0.0
 46
0.0
 47
0.0
 48
0.0
 49
0.0
140
0.0
141
0.0
142
1.0
143
1.0
 70
  1712
 72
     0
 73
     0
 74
     0
  7

 75
     0
147
1.0
 76
     0
 77
     2
 78
   300
148
0.0
149
0.0
100
AcDbLayout
  1
Model
 70
     1
 71
     0
 10
0.0
 20
0.0
 11
12.0
 21
9.0
 12
0.0
 22
0.0
 32
0.0
 14
1.000000000000000E+20
 24
1.000000000000000E+20
 34
1.000000000000000E+20
 15
-1.000000000000000E+20
 25
-1.000000000000000E+20
 35
-1.000000000000000E+20
146
0.0
 13
0.0
 23
0.0
 33
0.0
 16
1.0
 26
0.0
 36
0.0
 17
0.0
 27
1.0
 37
0.0
 76
     0
330
1F
331
29
  0
MATERIAL
  5
3D
102
{ACAD_REACTORS
330
3B
102
}
330
3B
100
AcDbMaterial
  1
ByBlock
  0
MATERIAL
  5
3C
102
{ACAD_REACTORS
330
3B
102
}
330
3B
100
AcDbMaterial
  1
ByLayer
  0
MATERIAL
  5
3E
102
{ACAD_REACTORS
330
3B
102
}
330
3B
100
AcDbMaterial
  1
Global
  0
MLEADERSTYLE
  5
5F5
102
{ACAD_REACTORS
330
5D0
102
}
330
5D0
100
AcDbMLeaderStyle
179
     2
170
     2
171
     1
172
     0
 90
        2
 40
0.0
 41
0.0
173
     1
 91
-1056964608
340
14
 92
       -2
290
     1
 42
0.09
291
     1
 43
0.36
  3
Standard
 44
0.18
300

342
11
174
     1
178
     6
175
     1
176
     0
 93
-1056964608
 45
0.18
292
     0
297
     0
 46
0.18
 94
-1056964608
 47
1.0
 49
1.0
140
1.0
293
     1
141
0.0
294
     1
177
     0
142
1.0
295
     0
296
     0
143
0.125
271
     0
272
     9
273
     9
298
     0
  0
MLINESTYLE
  5
18
102
{ACAD_REACTORS
330
17
102
}
330
17
100
AcDbMlineStyle
  2
STANDARD
 70
     0
  3

 62
   256
 51
90.0
 52
90.0
 71
     2
 49
0.5
 62
   256
  6
BYLAYER
 49
-0.5
 62
   256
  6
BYLAYER
  0
ACDBPLACEHOLDER
  5
F
102
{ACAD_REACTORS
330
E
102
}
330
E
  0
SCALE
  5
5E0
102
{ACAD_REACTORS
330
5DF
102
}
330
5DF
100
AcDbScale
 70
     0
300
1:1
140
1.0
141
1.0
290
     1
  0
SCALE
  5
5E1
102
{ACAD_REACTORS
330
5DF
102
}
330
5DF
100
AcDbScale
 70
     0
300
1.10
140
1.0
141
10.0
290
     0
  0
SCALE
  5
5E2
102
{ACAD_REACTORS
330
5DF
102
}
330
5DF
100
AcDbScale
 70
     0
300
1.50
140
1.0
141
50.0
290
     0
  0
SCALE
  5
5E3
102
{ACAD_REACTORS
330
5DF
102
}
330
5DF
100
AcDbScale
 70
     0
300
1:100
140
1.0
141
100.0
290
     0
  0
SCALE
  5
5E4
102
{ACAD_REACTORS
330
5DF
102
}
330
5DF
100
AcDbScale
 70
     0
300
1.200
140
1.0
141
200.0
290
     0
  0
SCALE
  5
5E5
102
{ACAD_REACTORS
330
5DF
102
}
330
5DF
100
AcDbScale
 70
     0
300
1/128" = 1'-0"
140
0.0078125
141
12.0
290
     0
  0
SCALE
  5
5E6
102
{ACAD_REACTORS
330
5DF
102
}
330
5DF
100
AcDbScale
 70
     0
300
1/64" = 1'-0"
140
0.015625
141
12.0
290
     0
  0
SCALE
  5
5E7
102
{ACAD_REACTORS
330
5DF
102
}
330
5DF
100
AcDbScale
 70
     0
300
1/32" = 1'-0"
140
0.03125
141
12.0
290
     0
  0
SCALE
  5
5E8
102
{ACAD_REACTORS
330
5DF
102
}
330
5DF
100
AcDbScale
 70
     0
300
1/16" = 1'-0"
140
0.0625
141
12.0
290
     0
  0
SCALE
  5
5E9
102
{ACAD_REACTORS
330
5DF
102
}
330
5DF
100
AcDbScale
 70
     0
300
3/32" = 1'-0"
140
0.09375
141
12.0
290
     0
  0
SCALE
  5
5EA
102
{ACAD_REACTORS
330
5DF
102
}
330
5DF
100
AcDbScale
 70
     0
300
1/8" = 1'-0"
140
0.125
141
12.0
290
     0
  0
SCALE
  5
5EB
102
{ACAD_REACTORS
330
5DF
102
}
330
5DF
100
AcDbScale
 70
     0
300
3/16" = 1'-0"
140
0.1875
141
12.0
290
     0
  0
SCALE
  5
5EC
102
{ACAD_REACTORS
330
5DF
102
}
330
5DF
100
AcDbScale
 70
     0
300
1/4" = 1'-0"
140
0.25
141
12.0
290
     0
  0
SCALE
  5
5ED
102
{ACAD_REACTORS
330
5DF
102
}
330
5DF
100
AcDbScale
 70
     0
300
3/8" = 1'-0"
140
0.375
141
12.0
290
     0
  0
SCALE
  5
5EE
102
{ACAD_REACTORS
330
5DF
102
}
330
5DF
100
AcDbScale
 70
     0
300
1/2" = 1'-0"
140
0.5
141
12.0
290
     0
  0
SCALE
  5
5EF
102
{ACAD_REACTORS
330
5DF
102
}
330
5DF
100
AcDbScale
 70
     0
300
3/4" = 1'-0"
140
0.75
141
12.0
290
     0
  0
SCALE
  5
5F0
102
{ACAD_REACTORS
330
5DF
102
}
330
5DF
100
AcDbScale
 70
     0
300
1" = 1'-0"
140
1.0
141
12.0
290
     0
  0
SCALE
  5
5F1
102
{ACAD_REACTORS
330
5DF
102
}
330
5DF
100
AcDbScale
 70
     0
300
1-1/2" = 1'-0"
140
1.5
141
12.0
290
     0
  0
SCALE
  5
5F2
102
{ACAD_REACTORS
330
5DF
102
}
330
5DF
100
AcDbScale
 70
     0
300
3" = 1'-0"
140
3.0
141
12.0
290
     0
  0
SCALE
  5
5F3
102
{ACAD_REACTORS
330
5DF
102
}
330
5DF
100
AcDbScale
 70
     0
300
6" = 1'-0"
140
6.0
141
12.0
290
     0
  0
SCALE
  5
5F4
102
{ACAD_REACTORS
330
5DF
102
}
330
5DF
100
AcDbScale
 70
     0
300
1'-0" = 1'-0"
140
12.0
141
12.0
290
     0
  0
ACDBSECTIONVIEWSTYLE
  5
5F7
102
{ACAD_XDICTIONARY
360
7C0
102
}
102
{ACAD_REACTORS
330
5F6
102
}
330
5F6
100
AcDbModelDocViewStyle
 70
     0
  3
Imperial24
290
     0
100
AcDbSectionViewStyle
 70
     0
 71
     0
 90
       78
 71
     1
340
11
 62
   256
 40
0.24
340
0
340
0
 62
   256
 40
0.24
300
I, O, Q, S, X, Z
 40
0.48
 90
        3
 40
0.18
 90
        1
 71
     2
340
16
 90
       25
 62
   256
340
16
 90
       50
 62
   256
 40
0.24
 40
0.0
 40
0.24
 71
     3
340
11
 62
   256
 40
0.24
 90
        1
 40
0.75
 90
        1
300
%<\AcVar ViewType \f "%tc1">% %<\AcVar ViewSectionStartId>%-%<\AcVar ViewSectionEndId>%\PSCALA %<\AcVar ViewScale \f "%sn">%
 71
     4
 62
   256
 62
   257
300
ANSI31
 40
1.0
 90
        0
290
     0
290
     0
 90
        6
 40
0.0
 40
1.570796326794896
 40
0.2617993877991494
 40
1.308996938995747
 40
-0.2617993877991494
 40
1.832595714594046
  0
TABLESTYLE
  5
5DE
102
{ACAD_XDICTIONARY
360
7BD
102
}
102
{ACAD_REACTORS
330
5CF
102
}
330
5CF
100
AcDbTableStyle
280
     0
  3
Standard
 70
     0
 71
     0
 40
0.06
 41
0.06
280
     0
281
     0
  7
Standard
140
0.18
170
     2
 62
     0
 63
     7
283
     0
 90
      512
 91
        0
  1

274
    -2
284
     1
 64
     0
275
    -2
285
     1
 65
     0
276
    -2
286
     1
 66
     0
277
    -2
287
     1
 67
     0
278
    -2
288
     1
 68
     0
279
    -2
289
     1
 69
     0
  7
Standard
140
0.25
170
     5
 62
     0
 63
     7
283
     0
 90
      512
 91
        0
  1

274
    -2
284
     1
 64
     0
275
    -2
285
     1
 65
     0
276
    -2
286
     1
 66
     0
277
    -2
287
     1
 67
     0
278
    -2
288
     1
 68
     0
279
    -2
289
     1
 69
     0
  7
Standard
140
0.18
170
     5
 62
     0
 63
     7
283
     0
 90
      512
 91
        0
  1

274
    -2
284
     1
 64
     0
275
    -2
285
     1
 65
     0
276
    -2
286
     1
 66
     0
277
    -2
287
     1
 67
     0
278
    -2
288
     1
 68
     0
279
    -2
289
     1
 69
     0
  0
VISUALSTYLE
  5
2F
102
{ACAD_REACTORS
330
2A
102
}
330
2A
100
AcDbVisualStyle
  2
2dWireframe
 70
     4
177
     3
291
     0
 70
    58
 90
        0
176
     1
 90
        2
176
     1
 90
        0
176
     1
 90
        0
176
     1
 40
0.6
176
     1
 40
30.0
176
     1
 62
     7
420
 16777215
176
     1
 90
        1
176
     1
 90
        4
176
     1
 62
     7
176
     1
 62
   257
176
     1
 90
        1
176
     1
 90
        1
176
     1
 40
1.0
176
     1
 90
        0
176
     1
 62
   257
176
     1
 40
1.0
176
     1
 90
        1
176
     1
 90
        6
176
     1
 90
        2
176
     1
 62
     7
176
     1
 90
        5
176
     1
 90
        0
176
     1
 90
        0
176
     1
290
     0
176
     1
 90
        1
176
     1
 40
0.0
176
     1
 90
        0
176
     1
290
     1
176
     1
290
     1
176
     1
290
     0
176
     1
290
     0
176
     1
290
     0
176
     1
290
     0
176
     1
290
     0
176
     1
290
     0
176
     1
290
     0
176
     1
 90
       50
176
     1
 40
0.0
176
     1
 40
1.0
176
     1
 90
        0
176
     1
 62
    18
420
        0
176
     1
 90
       50
176
     1
 90
        3
176
     1
 62
     5
420
      255
176
     1
290
     0
176
     1
 90
       50
176
     1
 90
       50
176
     1
 90
       50
176
     1
290
     0
176
     1
 90
       50
176
     1
 62
   256
176
     0
 40
1.0
176
     0
 90
        2
176
     1
  1
strokes_ogs.tif
176
     1
290
     0
176
     1
 40
1.0
176
     1
 40
1.0
176
     1
1001
ACAD
1000
AcDbSavedByObjectVersion
1070
     0
  0
VISUALSTYLE
  5
31
102
{ACAD_REACTORS
330
2A
102
}
330
2A
100
AcDbVisualStyle
  2
3D Hidden
 70
     6
177
     3
291
     0
 70
    58
 90
        1
176
     1
 90
        2
176
     1
 90
        2
176
     1
 90
        0
176
     1
 40
0.6
176
     1
 40
30.0
176
     1
 62
     7
420
 16777215
176
     1
 90
        2
176
     1
 90
        2
176
     1
 62
     7
176
     1
 62
   257
176
     1
 90
        2
176
     1
 90
        1
176
     1
 40
40.0
176
     1
 90
        0
176
     1
 62
   257
176
     1
 40
1.0
176
     1
 90
        1
176
     1
 90
        6
176
     1
 90
        2
176
     1
 62
     7
176
     1
 90
        3
176
     1
 90
        0
176
     1
 90
        0
176
     1
290
     0
176
     1
 90
        1
176
     1
 40
0.0
176
     1
 90
        0
176
     1
290
     0
176
     1
290
     1
176
     1
290
     1
176
     1
290
     0
176
     1
290
     0
176
     1
290
     0
176
     1
290
     0
176
     1
290
     0
176
     1
290
     0
176
     1
 90
       50
176
     1
 40
0.0
176
     1
 40
1.0
176
     1
 90
        0
176
     1
 62
    18
420
        0
176
     1
 90
       50
176
     1
 90
        3
176
     1
 62
     5
420
      255
176
     1
290
     0
176
     1
 90
       50
176
     1
 90
       50
176
     1
 90
       50
176
     1
290
     0
176
     1
 90
       50
176
     1
 62
   256
176
     0
 40
1.0
176
     0
 90
        2
176
     1
  1
strokes_ogs.tif
176
     1
290
     0
176
     1
 40
1.0
176
     1
 40
1.0
176
     1
1001
ACAD
1000
AcDbSavedByObjectVersion
1070
     0
  0
VISUALSTYLE
  5
30
102
{ACAD_REACTORS
330
2A
102
}
330
2A
100
AcDbVisualStyle
  2
3dWireframe
 70
     5
177
     3
291
     0
 70
    58
 90
        0
176
     1
 90
        2
176
     1
 90
        0
176
     1
 90
        0
176
     1
 40
0.6
176
     1
 40
30.0
176
     1
 62
     7
420
 16777215
176
     1
 90
        1
176
     1
 90
        4
176
     1
 62
     7
176
     1
 62
   257
176
     1
 90
        1
176
     1
 90
        1
176
     1
 40
1.0
176
     1
 90
        0
176
     1
 62
   257
176
     1
 40
1.0
176
     1
 90
        1
176
     1
 90
        6
176
     1
 90
        2
176
     1
 62
     7
176
     1
 90
        5
176
     1
 90
        0
176
     1
 90
        0
176
     1
290
     0
176
     1
 90
        1
176
     1
 40
0.0
176
     1
 90
        0
176
     1
290
     0
176
     1
290
     1
176
     1
290
     1
176
     1
290
     0
176
     1
290
     0
176
     1
290
     0
176
     1
290
     0
176
     1
290
     0
176
     1
290
     0
176
     1
 90
       50
176
     1
 40
0.0
176
     1
 40
1.0
176
     1
 90
        0
176
     1
 62
    18
420
        0
176
     1
 90
       50
176
     1
 90
        3
176
     1
 62
     5
420
      255
176
     1
290
     0
176
     1
 90
       50
176
     1
 90
       50
176
     1
 90
       50
176
     1
290
     0
176
     1
 90
       50
176
     1
 62
   256
176
     0
 40
1.0
176
     0
 90
        2
176
     1
  1
strokes_ogs.tif
176
     1
290
     0
176
     1
 40
1.0
176
     1
 40
1.0
176
     1
1001
ACAD
1000
AcDbSavedByObjectVersion
1070
     0
  0
VISUALSTYLE
  5
32
102
{ACAD_REACTORS
330
2A
102
}
330
2A
100
AcDbVisualStyle
  2
Basic
 70
     7
177
     3
291
     1
 70
    58
 90
        1
176
     1
 90
        0
176
     1
 90
        1
176
     1
 90
        0
176
     1
 40
0.6
176
     1
 40
30.0
176
     1
 62
     7
420
 16777215
176
     1
 90
        0
176
     1
 90
        4
176
     1
 62
     7
176
     1
 62
   257
176
     1
 90
        1
176
     1
 90
        1
176
     1
 40
1.0
176
     1
 90
        8
176
     1
 62
     7
176
     1
 40
1.0
176
     1
 90
        1
176
     1
 90
        6
176
     1
 90
        2
176
     1
 62
     7
176
     1
 90
        5
176
     1
 90
        0
176
     1
 90
        0
176
     1
290
     0
176
     1
 90
        1
176
     1
 40
0.0
176
     1
 90
        0
176
     1
290
     0
176
     1
290
     1
176
     1
290
     1
176
     1
290
     0
176
     1
290
     0
176
     1
290
     0
176
     1
290
     0
176
     1
290
     0
176
     1
290
     0
176
     1
 90
       50
176
     1
 40
0.0
176
     1
 40
1.0
176
     1
 90
        0
176
     1
 62
    18
420
        0
176
     1
 90
       50
176
     1
 90
        3
176
     1
 62
     5
420
      255
176
     1
290
     0
176
     1
 90
       50
176
     1
 90
       50
176
     1
 90
       50
176
     1
290
     0
176
     1
 90
       50
176
     1
 62
   256
176
     0
 40
1.0
176
     0
 90
        2
176
     1
  1
strokes_ogs.tif
176
     1
290
     0
176
     1
 40
1.0
176
     1
 40
1.0
176
     1
1001
ACAD
1000
AcDbSavedByObjectVersion
1070
     0
  0
VISUALSTYLE
  5
36
102
{ACAD_REACTORS
330
2A
102
}
330
2A
100
AcDbVisualStyle
  2
Brighten
 70
    12
177
     3
291
     1
 70
    58
 90
        2
176
     1
 90
        2
176
     1
 90
        0
176
     1
 90
        0
176
     1
 40
0.6
176
     1
 40
30.0
176
     1
 62
     7
420
 16777215
176
     1
 90
        1
176
     1
 90
        4
176
     1
 62
     7
176
     1
 62
   257
176
     1
 90
        1
176
     1
 90
        1
176
     1
 40
1.0
176
     1
 90
        8
176
     1
 62
     7
176
     1
 40
1.0
176
     1
 90
        1
176
     1
 90
        6
176
     1
 90
        2
176
     1
 62
     7
176
     1
 90
        5
176
     1
 90
        0
176
     1
 90
        0
176
     1
290
     0
176
     1
 90
        1
176
     1
 40
50.0
176
     1
 90
        0
176
     1
290
     0
176
     1
290
     1
176
     1
290
     1
176
     1
290
     0
176
     1
290
     0
176
     1
290
     0
176
     1
290
     0
176
     1
290
     0
176
     1
290
     0
176
     1
 90
       50
176
     1
 40
0.0
176
     1
 40
1.0
176
     1
 90
        0
176
     1
 62
    18
420
        0
176
     1
 90
       50
176
     1
 90
        3
176
     1
 62
     5
420
      255
176
     1
290
     0
176
     1
 90
       50
176
     1
 90
       50
176
     1
 90
       50
176
     1
290
     0
176
     1
 90
       50
176
     1
 62
   256
176
     0
 40
1.0
176
     0
 90
        2
176
     1
  1
strokes_ogs.tif
176
     1
290
     0
176
     1
 40
1.0
176
     1
 40
1.0
176
     1
1001
ACAD
1000
AcDbSavedByObjectVersion
1070
     0
  0
VISUALSTYLE
  5
3A
102
{ACAD_REACTORS
330
2A
102
}
330
2A
100
AcDbVisualStyle
  2
ColorChange
 70
    16
177
     3
291
     1
 70
    58
 90
        2
176
     1
 90
        2
176
     1
 90
        3
176
     1
 90
        0
176
     1
 40
0.6
176
     1
 40
30.0
176
     1
 62
     8
420
  8421504
176
     1
 90
        1
176
     1
 90
        4
176
     1
 62
     7
176
     1
 62
   257
176
     1
 90
        1
176
     1
 90
        1
176
     1
 40
1.0
176
     1
 90
        8
176
     1
 62
     8
420
  8421504
176
     1
 40
1.0
176
     1
 90
        1
176
     1
 90
        6
176
     1
 90
        2
176
     1
 62
     7
176
     1
 90
        5
176
     1
 90
        0
176
     1
 90
        0
176
     1
290
     0
176
     1
 90
        1
176
     1
 40
0.0
176
     1
 90
        0
176
     1
290
     0
176
     1
290
     1
176
     1
290
     1
176
     1
290
     0
176
     1
290
     0
176
     1
290
     0
176
     1
290
     0
176
     1
290
     0
176
     1
290
     0
176
     1
 90
       50
176
     1
 40
0.0
176
     1
 40
1.0
176
     1
 90
        0
176
     1
 62
    18
420
        0
176
     1
 90
       50
176
     1
 90
        3
176
     1
 62
     5
420
      255
176
     1
290
     0
176
     1
 90
       50
176
     1
 90
       50
176
     1
 90
       50
176
     1
290
     0
176
     1
 90
       50
176
     1
 62
   256
176
     0
 40
1.0
176
     0
 90
        2
176
     1
  1
strokes_ogs.tif
176
     1
290
     0
176
     1
 40
1.0
176
     1
 40
1.0
176
     1
1001
ACAD
1000
AcDbSavedByObjectVersion
1070
     0
  0
VISUALSTYLE
  5
34
102
{ACAD_REACTORS
330
2A
102
}
330
2A
100
AcDbVisualStyle
  2
Conceptual
 70
     9
177
     3
291
     0
 70
    58
 90
        3
176
     1
 90
        2
176
     1
 90
        0
176
     1
 90
        0
176
     1
 40
0.6
176
     1
 40
30.0
176
     1
 62
     7
420
 16777215
176
     1
 90
        2
176
     1
 90
        2
176
     1
 62
     7
176
     1
 62
   257
176
     1
 90
        1
176
     1
 90
        1
176
     1
 40
40.0
176
     1
 90
        8
176
     1
 62
     7
176
     1
 40
1.0
176
     1
 90
        1
176
     1
 90
        6
176
     1
 90
        2
176
     1
 62
     7
176
     1
 90
        3
176
     1
 90
        0
176
     1
 90
        0
176
     1
290
     0
176
     1
 90
        1
176
     1
 40
0.0
176
     1
 90
        0
176
     1
290
     0
176
     1
290
     1
176
     1
290
     1
176
     1
290
     0
176
     1
290
     0
176
     1
290
     0
176
     1
290
     0
176
     1
290
     0
176
     1
290
     0
176
     1
 90
       50
176
     1
 40
0.0
176
     1
 40
1.0
176
     1
 90
        0
176
     1
 62
    18
420
        0
176
     1
 90
       50
176
     1
 90
        3
176
     1
 62
     5
420
      255
176
     1
290
     0
176
     1
 90
       50
176
     1
 90
       50
176
     1
 90
       50
176
     1
290
     0
176
     1
 90
       50
176
     1
 62
   256
176
     0
 40
1.0
176
     0
 90
        2
176
     1
  1
strokes_ogs.tif
176
     1
290
     0
176
     1
 40
1.0
176
     1
 40
1.0
176
     1
1001
ACAD
1000
AcDbSavedByObjectVersion
1070
     0
  0
VISUALSTYLE
  5
35
102
{ACAD_REACTORS
330
2A
102
}
330
2A
100
AcDbVisualStyle
  2
Dim
 70
    11
177
     3
291
     1
 70
    58
 90
        2
176
     1
 90
        2
176
     1
 90
        0
176
     1
 90
        0
176
     1
 40
0.6
176
     1
 40
30.0
176
     1
 62
     7
420
 16777215
176
     1
 90
        1
176
     1
 90
        4
176
     1
 62
     7
176
     1
 62
   257
176
     1
 90
        1
176
     1
 90
        1
176
     1
 40
1.0
176
     1
 90
        8
176
     1
 62
     7
176
     1
 40
1.0
176
     1
 90
        1
176
     1
 90
        6
176
     1
 90
        2
176
     1
 62
     7
176
     1
 90
        5
176
     1
 90
        0
176
     1
 90
        0
176
     1
290
     0
176
     1
 90
        1
176
     1
 40
-50.0
176
     1
 90
        0
176
     1
290
     0
176
     1
290
     1
176
     1
290
     1
176
     1
290
     0
176
     1
290
     0
176
     1
290
     0
176
     1
290
     0
176
     1
290
     0
176
     1
290
     0
176
     1
 90
       50
176
     1
 40
0.0
176
     1
 40
1.0
176
     1
 90
        0
176
     1
 62
    18
420
        0
176
     1
 90
       50
176
     1
 90
        3
176
     1
 62
     5
420
      255
176
     1
290
     0
176
     1
 90
       50
176
     1
 90
       50
176
     1
 90
       50
176
     1
290
     0
176
     1
 90
       50
176
     1
 62
   256
176
     0
 40
1.0
176
     0
 90
        2
176
     1
  1
strokes_ogs.tif
176
     1
290
     0
176
     1
 40
1.0
176
     1
 40
1.0
176
     1
1001
ACAD
1000
AcDbSavedByObjectVersion
1070
     0
  0
VISUALSTYLE
  5
5DC
102
{ACAD_REACTORS
330
2A
102
}
330
2A
100
AcDbVisualStyle
  2
EdgeColorOff
 70
    22
177
     3
291
     1
 70
    58
 90
        2
176
     0
 90
        2
176
     0
 90
        0
176
     0
 90
        0
176
     0
 40
0.6
176
     0
 40
30.0
176
     0
 62
     7
420
 16777215
176
     0
 90
        1
176
     0
 90
        4
176
     0
 62
     7
176
     0
 62
   257
176
     0
 90
        1
176
     0
 90
        1
176
     0
 40
1.0
176
     0
 90
        8
176
     2
 62
     7
176
     0
 40
1.0
176
     0
 90
        1
176
     0
 90
        6
176
     0
 90
        2
176
     0
 62
     7
176
     0
 90
        5
176
     0
 90
        0
176
     0
 90
        0
176
     0
290
     0
176
     0
 90
        1
176
     0
 40
0.0
176
     0
 90
        0
176
     0
290
     0
176
     1
290
     1
176
     1
290
     1
176
     1
290
     0
176
     1
290
     0
176
     1
290
     0
176
     1
290
     0
176
     1
290
     0
176
     1
290
     0
176
     1
 90
       50
176
     0
 40
0.0
176
     0
 40
1.0
176
     0
 90
        0
176
     0
 62
    18
420
        0
176
     0
 90
       50
176
     0
 90
        3
176
     0
 62
     5
420
      255
176
     0
290
     0
176
     1
 90
       50
176
     0
 90
       50
176
     0
 90
       50
176
     0
290
     0
176
     1
 90
       50
176
     0
 62
   256
176
     0
 40
1.0
176
     0
 90
        2
176
     0
  1
strokes_ogs.tif
176
     0
290
     0
176
     1
 40
1.0
176
     0
 40
1.0
176
     0
1001
ACAD
1000
AcDbSavedByObjectVersion
1070
     0
  0
VISUALSTYLE
  5
39
102
{ACAD_REACTORS
330
2A
102
}
330
2A
100
AcDbVisualStyle
  2
Facepattern
 70
    15
177
     3
291
     1
 70
    58
 90
        2
176
     1
 90
        2
176
     1
 90
        0
176
     1
 90
        0
176
     1
 40
0.6
176
     1
 40
30.0
176
     1
 62
     7
420
 16777215
176
     1
 90
        1
176
     1
 90
        4
176
     1
 62
     7
176
     1
 62
   257
176
     1
 90
        1
176
     1
 90
        1
176
     1
 40
1.0
176
     1
 90
        8
176
     1
 62
     7
176
     1
 40
1.0
176
     1
 90
        1
176
     1
 90
        6
176
     1
 90
        2
176
     1
 62
     7
176
     1
 90
        5
176
     1
 90
        0
176
     1
 90
        0
176
     1
290
     0
176
     1
 90
        1
176
     1
 40
0.0
176
     1
 90
        0
176
     1
290
     0
176
     1
290
     1
176
     1
290
     1
176
     1
290
     0
176
     1
290
     0
176
     1
290
     0
176
     1
290
     0
176
     1
290
     0
176
     1
290
     0
176
     1
 90
       50
176
     1
 40
0.0
176
     1
 40
1.0
176
     1
 90
        0
176
     1
 62
    18
420
        0
176
     1
 90
       50
176
     1
 90
        3
176
     1
 62
     5
420
      255
176
     1
290
     0
176
     1
 90
       50
176
     1
 90
       50
176
     1
 90
       50
176
     1
290
     0
176
     1
 90
       50
176
     1
 62
   256
176
     0
 40
1.0
176
     0
 90
        2
176
     1
  1
strokes_ogs.tif
176
     1
290
     0
176
     1
 40
1.0
176
     1
 40
1.0
176
     1
1001
ACAD
1000
AcDbSavedByObjectVersion
1070
     0
  0
VISUALSTYLE
  5
2B
102
{ACAD_REACTORS
330
2A
102
}
330
2A
100
AcDbVisualStyle
  2
Flat
 70
     0
177
     3
291
     1
 70
    58
 90
        2
176
     1
 90
        1
176
     1
 90
        1
176
     1
 90
        2
176
     1
 40
0.6
176
     1
 40
30.0
176
     1
 62
     7
420
 16777215
176
     1
 90
        0
176
     1
 90
        4
176
     1
 62
     7
176
     1
 62
   257
176
     1
 90
        1
176
     1
 90
        1
176
     1
 40
1.0
176
     1
 90
        8
176
     1
 62
     7
176
     1
 40
1.0
176
     1
 90
        1
176
     1
 90
        6
176
     1
 90
        2
176
     1
 62
     7
176
     1
 90
        5
176
     1
 90
        0
176
     1
 90
        0
176
     1
290
     0
176
     1
 90
       13
176
     1
 40
0.0
176
     1
 90
        0
176
     1
290
     0
176
     1
290
     1
176
     1
290
     1
176
     1
290
     0
176
     1
290
     0
176
     1
290
     0
176
     1
290
     0
176
     1
290
     0
176
     1
290
     0
176
     1
 90
       50
176
     1
 40
0.0
176
     1
 40
1.0
176
     1
 90
        0
176
     1
 62
    18
420
        0
176
     1
 90
       50
176
     1
 90
        3
176
     1
 62
     5
420
      255
176
     1
290
     0
176
     1
 90
       50
176
     1
 90
       50
176
     1
 90
       50
176
     1
290
     0
176
     1
 90
       50
176
     1
 62
   256
176
     0
 40
1.0
176
     0
 90
        2
176
     1
  1
strokes_ogs.tif
176
     1
290
     0
176
     1
 40
1.0
176
     1
 40
1.0
176
     1
1001
ACAD
1000
AcDbSavedByObjectVersion
1070
     0
  0
VISUALSTYLE
  5
2C
102
{ACAD_REACTORS
330
2A
102
}
330
2A
100
AcDbVisualStyle
  2
FlatWithEdges
 70
     1
177
     3
291
     1
 70
    58
 90
        2
176
     1
 90
        1
176
     1
 90
        1
176
     1
 90
        2
176
     1
 40
0.6
176
     1
 40
30.0
176
     1
 62
     7
420
 16777215
176
     1
 90
        1
176
     1
 90
        4
176
     1
 62
     7
176
     1
 62
   257
176
     1
 90
        1
176
     1
 90
        1
176
     1
 40
1.0
176
     1
 90
        0
176
     1
 62
   257
176
     1
 40
1.0
176
     1
 90
        1
176
     1
 90
        6
176
     1
 90
        2
176
     1
 62
     7
176
     1
 90
        5
176
     1
 90
        0
176
     1
 90
        0
176
     1
290
     0
176
     1
 90
       13
176
     1
 40
0.0
176
     1
 90
        0
176
     1
290
     0
176
     1
290
     1
176
     1
290
     1
176
     1
290
     0
176
     1
290
     0
176
     1
290
     0
176
     1
290
     0
176
     1
290
     0
176
     1
290
     0
176
     1
 90
       50
176
     1
 40
0.0
176
     1
 40
1.0
176
     1
 90
        0
176
     1
 62
    18
420
        0
176
     1
 90
       50
176
     1
 90
        3
176
     1
 62
     5
420
      255
176
     1
290
     0
176
     1
 90
       50
176
     1
 90
       50
176
     1
 90
       50
176
     1
290
     0
176
     1
 90
       50
176
     1
 62
   256
176
     0
 40
1.0
176
     0
 90
        2
176
     1
  1
strokes_ogs.tif
176
     1
290
     0
176
     1
 40
1.0
176
     1
 40
1.0
176
     1
1001
ACAD
1000
AcDbSavedByObjectVersion
1070
     0
  0
VISUALSTYLE
  5
2D
102
{ACAD_REACTORS
330
2A
102
}
330
2A
100
AcDbVisualStyle
  2
Gouraud
 70
     2
177
     3
291
     1
 70
    58
 90
        2
176
     1
 90
        2
176
     1
 90
        1
176
     1
 90
        2
176
     1
 40
0.6
176
     1
 40
30.0
176
     1
 62
     7
420
 16777215
176
     1
 90
        0
176
     1
 90
        4
176
     1
 62
     7
176
     1
 62
   257
176
     1
 90
        1
176
     1
 90
        1
176
     1
 40
1.0
176
     1
 90
        0
176
     1
 62
     7
176
     1
 40
1.0
176
     1
 90
        1
176
     1
 90
        6
176
     1
 90
        2
176
     1
 62
     7
176
     1
 90
        5
176
     1
 90
        0
176
     1
 90
        0
176
     1
290
     0
176
     1
 90
       13
176
     1
 40
0.0
176
     1
 90
        0
176
     1
290
     0
176
     1
290
     1
176
     1
290
     1
176
     1
290
     0
176
     1
290
     0
176
     1
290
     0
176
     1
290
     0
176
     1
290
     0
176
     1
290
     0
176
     1
 90
       50
176
     1
 40
0.0
176
     1
 40
1.0
176
     1
 90
        0
176
     1
 62
    18
420
        0
176
     1
 90
       50
176
     1
 90
        3
176
     1
 62
     5
420
      255
176
     1
290
     0
176
     1
 90
       50
176
     1
 90
       50
176
     1
 90
       50
176
     1
290
     0
176
     1
 90
       50
176
     1
 62
   256
176
     0
 40
1.0
176
     0
 90
        2
176
     1
  1
strokes_ogs.tif
176
     1
290
     0
176
     1
 40
1.0
176
     1
 40
1.0
176
     1
1001
ACAD
1000
AcDbSavedByObjectVersion
1070
     0
  0
VISUALSTYLE
  5
2E
102
{ACAD_REACTORS
330
2A
102
}
330
2A
100
AcDbVisualStyle
  2
GouraudWithEdges
 70
     3
177
     3
291
     1
 70
    58
 90
        2
176
     1
 90
        2
176
     1
 90
        1
176
     1
 90
        2
176
     1
 40
0.6
176
     1
 40
30.0
176
     1
 62
     7
420
 16777215
176
     1
 90
        1
176
     1
 90
        4
176
     1
 62
     7
176
     1
 62
   257
176
     1
 90
        1
176
     1
 90
        1
176
     1
 40
1.0
176
     1
 90
        0
176
     1
 62
   257
176
     1
 40
1.0
176
     1
 90
        1
176
     1
 90
        6
176
     1
 90
        2
176
     1
 62
     7
176
     1
 90
        5
176
     1
 90
        0
176
     1
 90
        0
176
     1
290
     0
176
     1
 90
       13
176
     1
 40
0.0
176
     1
 90
        0
176
     1
290
     0
176
     1
290
     1
176
     1
290
     1
176
     1
290
     0
176
     1
290
     0
176
     1
290
     0
176
     1
290
     0
176
     1
290
     0
176
     1
290
     0
176
     1
 90
       50
176
     1
 40
0.0
176
     1
 40
1.0
176
     1
 90
        0
176
     1
 62
    18
420
        0
176
     1
 90
       50
176
     1
 90
        3
176
     1
 62
     5
420
      255
176
     1
290
     0
176
     1
 90
       50
176
     1
 90
       50
176
     1
 90
       50
176
     1
290
     0
176
     1
 90
       50
176
     1
 62
   256
176
     0
 40
1.0
176
     0
 90
        2
176
     1
  1
strokes_ogs.tif
176
     1
290
     0
176
     1
 40
1.0
176
     1
 40
1.0
176
     1
1001
ACAD
1000
AcDbSavedByObjectVersion
1070
     0
  0
VISUALSTYLE
  5
5D4
102
{ACAD_REACTORS
330
2A
102
}
330
2A
100
AcDbVisualStyle
  2
Hidden
 70
     6
177
     3
291
     0
 70
    58
 90
        1
176
     1
 90
        2
176
     1
 90
        2
176
     1
 90
        0
176
     1
 40
0.6
176
     1
 40
30.0
176
     1
 62
     7
420
 16777215
176
     1
 90
        2
176
     1
 90
        2
176
     1
 62
     7
176
     1
 62
   257
176
     1
 90
        2
176
     1
 90
        1
176
     1
 40
40.0
176
     1
 90
        0
176
     1
 62
   257
176
     1
 40
1.0
176
     1
 90
        1
176
     1
 90
        6
176
     1
 90
        2
176
     1
 62
     7
176
     1
 90
        3
176
     1
 90
        0
176
     1
 90
        0
176
     1
290
     0
176
     1
 90
        1
176
     1
 40
0.0
176
     1
 90
        0
176
     1
290
     0
176
     1
290
     1
176
     1
290
     1
176
     1
290
     0
176
     1
290
     0
176
     1
290
     0
176
     1
290
     0
176
     1
290
     0
176
     1
290
     0
176
     1
 90
       50
176
     1
 40
0.0
176
     1
 40
1.0
176
     1
 90
        0
176
     1
 62
    18
420
        0
176
     1
 90
       50
176
     1
 90
        3
176
     1
 62
     5
420
      255
176
     1
290
     0
176
     1
 90
       50
176
     1
 90
       50
176
     1
 90
       50
176
     1
290
     0
176
     1
 90
       50
176
     1
 62
   256
176
     0
 40
1.0
176
     0
 90
        2
176
     1
  1
strokes_ogs.tif
176
     1
290
     0
176
     1
 40
1.0
176
     1
 40
1.0
176
     1
1001
ACAD
1000
AcDbSavedByObjectVersion
1070
     0
  0
VISUALSTYLE
  5
5DA
102
{ACAD_REACTORS
330
2A
102
}
330
2A
100
AcDbVisualStyle
  2
JitterOff
 70
    20
177
     3
291
     1
 70
    58
 90
        2
176
     0
 90
        2
176
     0
 90
        0
176
     0
 90
        0
176
     0
 40
0.6
176
     0
 40
30.0
176
     0
 62
     7
420
 16777215
176
     0
 90
        1
176
     0
 90
        4
176
     0
 62
     7
176
     0
 62
   257
176
     0
 90
        1
176
     0
 90
        1
176
     0
 40
1.0
176
     0
 90
       10
176
     2
 62
     7
176
     0
 40
1.0
176
     0
 90
        1
176
     0
 90
        6
176
     0
 90
        2
176
     0
 62
     7
176
     0
 90
        5
176
     0
 90
        0
176
     0
 90
        0
176
     0
290
     0
176
     0
 90
        1
176
     0
 40
0.0
176
     0
 90
        0
176
     0
290
     0
176
     1
290
     1
176
     1
290
     1
176
     1
290
     0
176
     1
290
     0
176
     1
290
     0
176
     1
290
     0
176
     1
290
     0
176
     1
290
     0
176
     1
 90
       50
176
     0
 40
0.0
176
     0
 40
1.0
176
     0
 90
        0
176
     0
 62
    18
420
        0
176
     0
 90
       50
176
     0
 90
        3
176
     0
 62
     5
420
      255
176
     0
290
     0
176
     1
 90
       50
176
     0
 90
       50
176
     0
 90
       50
176
     0
290
     0
176
     1
 90
       50
176
     0
 62
   256
176
     0
 40
1.0
176
     0
 90
        2
176
     0
  1
strokes_ogs.tif
176
     0
290
     0
176
     1
 40
1.0
176
     0
 40
1.0
176
     0
1001
ACAD
1000
AcDbSavedByObjectVersion
1070
     0
  0
VISUALSTYLE
  5
38
102
{ACAD_REACTORS
330
2A
102
}
330
2A
100
AcDbVisualStyle
  2
Linepattern
 70
    14
177
     3
291
     1
 70
    58
 90
        2
176
     1
 90
        2
176
     1
 90
        0
176
     1
 90
        0
176
     1
 40
0.6
176
     1
 40
30.0
176
     1
 62
     7
420
 16777215
176
     1
 90
        1
176
     1
 90
        4
176
     1
 62
     7
176
     1
 62
   257
176
     1
 90
        7
176
     1
 90
        7
176
     1
 40
1.0
176
     1
 90
        8
176
     1
 62
     7
176
     1
 40
1.0
176
     1
 90
        1
176
     1
 90
        6
176
     1
 90
        2
176
     1
 62
     7
176
     1
 90
        5
176
     1
 90
        0
176
     1
 90
        0
176
     1
290
     0
176
     1
 90
        1
176
     1
 40
0.0
176
     1
 90
        0
176
     1
290
     0
176
     1
290
     1
176
     1
290
     1
176
     1
290
     0
176
     1
290
     0
176
     1
290
     0
176
     1
290
     0
176
     1
290
     0
176
     1
290
     0
176
     1
 90
       50
176
     1
 40
0.0
176
     1
 40
1.0
176
     1
 90
        0
176
     1
 62
    18
420
        0
176
     1
 90
       50
176
     1
 90
        3
176
     1
 62
     5
420
      255
176
     1
290
     0
176
     1
 90
       50
176
     1
 90
       50
176
     1
 90
       50
176
     1
290
     0
176
     1
 90
       50
176
     1
 62
   256
176
     0
 40
1.0
176
     0
 90
        2
176
     1
  1
strokes_ogs.tif
176
     1
290
     0
176
     1
 40
1.0
176
     1
 40
1.0
176
     1
1001
ACAD
1000
AcDbSavedByObjectVersion
1070
     0
  0
VISUALSTYLE
  5
5DB
102
{ACAD_REACTORS
330
2A
102
}
330
2A
100
AcDbVisualStyle
  2
OverhangOff
 70
    21
177
     3
291
     1
 70
    58
 90
        2
176
     0
 90
        2
176
     0
 90
        0
176
     0
 90
        0
176
     0
 40
0.6
176
     0
 40
30.0
176
     0
 62
     7
420
 16777215
176
     0
 90
        1
176
     0
 90
        4
176
     0
 62
     7
176
     0
 62
   257
176
     0
 90
        1
176
     0
 90
        1
176
     0
 40
1.0
176
     0
 90
        9
176
     2
 62
     7
176
     0
 40
1.0
176
     0
 90
        1
176
     0
 90
        6
176
     0
 90
        2
176
     0
 62
     7
176
     0
 90
        5
176
     0
 90
        0
176
     0
 90
        0
176
     0
290
     0
176
     0
 90
        1
176
     0
 40
0.0
176
     0
 90
        0
176
     0
290
     0
176
     1
290
     1
176
     1
290
     1
176
     1
290
     0
176
     1
290
     0
176
     1
290
     0
176
     1
290
     0
176
     1
290
     0
176
     1
290
     0
176
     1
 90
       50
176
     0
 40
0.0
176
     0
 40
1.0
176
     0
 90
        0
176
     0
 62
    18
420
        0
176
     0
 90
       50
176
     0
 90
        3
176
     0
 62
     5
420
      255
176
     0
290
     0
176
     1
 90
       50
176
     0
 90
       50
176
     0
 90
       50
176
     0
290
     0
176
     1
 90
       50
176
     0
 62
   256
176
     0
 40
1.0
176
     0
 90
        2
176
     0
  1
strokes_ogs.tif
176
     0
290
     0
176
     1
 40
1.0
176
     0
 40
1.0
176
     0
1001
ACAD
1000
AcDbSavedByObjectVersion
1070
     0
  0
VISUALSTYLE
  5
33
102
{ACAD_REACTORS
330
2A
102
}
330
2A
100
AcDbVisualStyle
  2
Realistic
 70
     8
177
     3
291
     0
 70
    58
 90
        2
176
     1
 90
        2
176
     1
 90
        0
176
     1
 90
        0
176
     1
 40
0.6
176
     1
 40
30.0
176
     1
 62
     7
420
 16777215
176
     1
 90
        1
176
     1
 90
        0
176
     1
 62
     7
176
     1
 62
   257
176
     1
 90
        1
176
     1
 90
        1
176
     1
 40
1.0
176
     1
 90
        8
176
     1
 62
     8
420
  7895160
176
     1
 40
1.0
176
     1
 90
        1
176
     1
 90
        6
176
     1
 90
        2
176
     1
 62
     7
176
     1
 90
        5
176
     1
 90
        0
176
     1
 90
        0
176
     1
290
     0
176
     1
 90
       13
176
     1
 40
0.0
176
     1
 90
        0
176
     1
290
     0
176
     1
290
     1
176
     1
290
     1
176
     1
290
     0
176
     1
290
     0
176
     1
290
     0
176
     1
290
     0
176
     1
290
     0
176
     1
290
     0
176
     1
 90
       50
176
     1
 40
0.0
176
     1
 40
1.0
176
     1
 90
        0
176
     1
 62
    18
420
        0
176
     1
 90
       50
176
     1
 90
        3
176
     1
 62
     5
420
      255
176
     1
290
     0
176
     1
 90
       50
176
     1
 90
       50
176
     1
 90
       50
176
     1
290
     0
176
     1
 90
       50
176
     1
 62
   256
176
     0
 40
1.0
176
     0
 90
        2
176
     1
  1
strokes_ogs.tif
176
     1
290
     0
176
     1
 40
1.0
176
     1
 40
1.0
176
     1
1001
ACAD
1000
AcDbSavedByObjectVersion
1070
     0
  0
VISUALSTYLE
  5
5D9
102
{ACAD_REACTORS
330
2A
102
}
330
2A
100
AcDbVisualStyle
  2
Shaded
 70
    27
177
     3
291
     0
 70
    58
 90
        2
176
     1
 90
        2
176
     1
 90
        1
176
     1
 90
        2
176
     1
 40
0.6
176
     1
 40
30.0
176
     1
 62
     7
420
 16777215
176
     1
 90
        0
176
     1
 90
        4
176
     1
 62
     7
176
     1
 62
   257
176
     1
 90
        1
176
     1
 90
        1
176
     1
 40
1.0
176
     1
 90
        8
176
     1
 62
   257
176
     1
 40
1.0
176
     1
 90
        1
176
     1
 90
        6
176
     1
 90
        2
176
     1
 62
     8
420
  7895160
176
     1
 90
        3
176
     1
 90
        0
176
     1
 90
        0
176
     1
290
     0
176
     1
 90
        5
176
     1
 40
0.0
176
     1
 90
        0
176
     1
290
     0
176
     1
290
     1
176
     1
290
     1
176
     1
290
     0
176
     1
290
     0
176
     1
290
     0
176
     1
290
     0
176
     1
290
     0
176
     1
290
     0
176
     1
 90
       50
176
     1
 40
0.0
176
     1
 40
1.0
176
     1
 90
        0
176
     1
 62
    18
420
        0
176
     1
 90
       50
176
     1
 90
        3
176
     1
 62
     5
420
      255
176
     1
290
     0
176
     1
 90
       50
176
     1
 90
       50
176
     1
 90
       50
176
     1
290
     0
176
     1
 90
       50
176
     1
 62
   256
176
     0
 40
1.0
176
     0
 90
        2
176
     1
  1
strokes_ogs.tif
176
     1
290
     0
176
     1
 40
1.0
176
     1
 40
1.0
176
     1
1001
ACAD
1000
AcDbSavedByObjectVersion
1070
     0
  0
VISUALSTYLE
  5
5D8
102
{ACAD_REACTORS
330
2A
102
}
330
2A
100
AcDbVisualStyle
  2
Shaded with edges
 70
    26
177
     3
291
     0
 70
    58
 90
        2
176
     1
 90
        2
176
     1
 90
        1
176
     1
 90
        2
176
     1
 40
0.6
176
     1
 40
30.0
176
     1
 62
     7
420
 16777215
176
     1
 90
        1
176
     1
 90
        2
176
     1
 62
     7
176
     1
 62
   257
176
     1
 90
        2
176
     1
 90
        1
176
     1
 40
1.0
176
     1
 90
        8
176
     1
 62
   257
176
     1
 40
1.0
176
     1
 90
        1
176
     1
 90
        6
176
     1
 90
        2
176
     1
 62
     7
176
     1
 90
        3
176
     1
 90
        0
176
     1
 90
        0
176
     1
290
     0
176
     1
 90
        5
176
     1
 40
0.0
176
     1
 90
        0
176
     1
290
     0
176
     1
290
     1
176
     1
290
     1
176
     1
290
     0
176
     1
290
     0
176
     1
290
     0
176
     1
290
     0
176
     1
290
     0
176
     1
290
     0
176
     1
 90
       50
176
     1
 40
0.0
176
     1
 40
1.0
176
     1
 90
        0
176
     1
 62
    18
420
        0
176
     1
 90
       50
176
     1
 90
        3
176
     1
 62
     5
420
      255
176
     1
290
     0
176
     1
 90
       50
176
     1
 90
       50
176
     1
 90
       50
176
     1
290
     0
176
     1
 90
       50
176
     1
 62
   256
176
     0
 40
1.0
176
     0
 90
        2
176
     1
  1
strokes_ogs.tif
176
     1
290
     0
176
     1
 40
1.0
176
     1
 40
1.0
176
     1
1001
ACAD
1000
AcDbSavedByObjectVersion
1070
     0
  0
VISUALSTYLE
  5
5D5
102
{ACAD_REACTORS
330
2A
102
}
330
2A
100
AcDbVisualStyle
  2
Shades of Gray
 70
    23
177
     3
291
     0
 70
    58
 90
        2
176
     1
 90
        2
176
     1
 90
        3
176
     1
 90
        0
176
     1
 40
0.6
176
     1
 40
30.0
176
     1
 62
     7
420
 16777215
176
     1
 90
        2
176
     1
 90
        2
176
     1
 62
     7
176
     1
 62
     7
176
     1
 90
        1
176
     1
 90
        1
176
     1
 40
40.0
176
     1
 90
        8
176
     1
 62
     7
176
     1
 40
1.0
176
     1
 90
        1
176
     1
 90
        6
176
     1
 90
        2
176
     1
 62
     7
176
     1
 90
        3
176
     1
 90
        0
176
     1
 90
        0
176
     1
290
     0
176
     1
 90
        1
176
     1
 40
0.0
176
     1
 90
        0
176
     1
290
     0
176
     1
290
     1
176
     1
290
     1
176
     1
290
     0
176
     1
290
     0
176
     1
290
     0
176
     1
290
     0
176
     1
290
     0
176
     1
290
     0
176
     1
 90
       50
176
     1
 40
0.0
176
     1
 40
1.0
176
     1
 90
        0
176
     1
 62
    18
420
        0
176
     1
 90
       50
176
     1
 90
        3
176
     1
 62
     5
420
      255
176
     1
290
     0
176
     1
 90
       50
176
     1
 90
       50
176
     1
 90
       50
176
     1
290
     0
176
     1
 90
       50
176
     1
 62
   256
176
     0
 40
1.0
176
     0
 90
        2
176
     1
  1
strokes_ogs.tif
176
     1
290
     0
176
     1
 40
1.0
176
     1
 40
1.0
176
     1
1001
ACAD
1000
AcDbSavedByObjectVersion
1070
     0
  0
VISUALSTYLE
  5
5D6
102
{ACAD_REACTORS
330
2A
102
}
330
2A
100
AcDbVisualStyle
  2
Sketchy
 70
    24
177
     3
291
     0
 70
    58
 90
        1
176
     1
 90
        2
176
     1
 90
        2
176
     1
 90
        0
176
     1
 40
0.6
176
     1
 40
30.0
176
     1
 62
     7
420
 16777215
176
     1
 90
        2
176
     1
 90
        2
176
     1
 62
     7
176
     1
 62
     7
176
     1
 90
        1
176
     1
 90
        1
176
     1
 40
40.0
176
     1
 90
       11
176
     1
 62
     7
176
     1
 40
1.0
176
     1
 90
        1
176
     1
 90
        6
176
     1
 90
        2
176
     1
 62
     7
176
     1
 90
        6
176
     1
 90
        0
176
     1
 90
        0
176
     1
290
     0
176
     1
 90
        1
176
     1
 40
0.0
176
     1
 90
        0
176
     1
290
     0
176
     1
290
     1
176
     1
290
     1
176
     1
290
     0
176
     1
290
     0
176
     1
290
     0
176
     1
290
     0
176
     1
290
     0
176
     1
290
     0
176
     1
 90
       50
176
     1
 40
0.0
176
     1
 40
1.0
176
     1
 90
        0
176
     1
 62
    18
420
        0
176
     1
 90
       50
176
     1
 90
        3
176
     1
 62
     5
420
      255
176
     1
290
     0
176
     1
 90
       50
176
     1
 90
       50
176
     1
 90
       50
176
     1
290
     0
176
     1
 90
       50
176
     1
 62
   256
176
     0
 40
1.0
176
     0
 90
        2
176
     1
  1
strokes_ogs.tif
176
     1
290
     0
176
     1
 40
1.0
176
     1
 40
1.0
176
     1
1001
ACAD
1000
AcDbSavedByObjectVersion
1070
     0
  0
VISUALSTYLE
  5
37
102
{ACAD_REACTORS
330
2A
102
}
330
2A
100
AcDbVisualStyle
  2
Thicken
 70
    13
177
     3
291
     1
 70
    58
 90
        2
176
     1
 90
        2
176
     1
 90
        0
176
     1
 90
        0
176
     1
 40
0.6
176
     1
 40
30.0
176
     1
 62
     7
420
 16777215
176
     1
 90
        1
176
     1
 90
        4
176
     1
 62
     7
176
     1
 62
   257
176
     1
 90
        1
176
     1
 90
        1
176
     1
 40
1.0
176
     1
 90
       12
176
     1
 62
     7
176
     1
 40
1.0
176
     1
 90
        1
176
     1
 90
        6
176
     1
 90
        2
176
     1
 62
     7
176
     1
 90
        5
176
     1
 90
        0
176
     1
 90
        0
176
     1
290
     0
176
     1
 90
        1
176
     1
 40
0.0
176
     1
 90
        0
176
     1
290
     0
176
     1
290
     1
176
     1
290
     1
176
     1
290
     0
176
     1
290
     0
176
     1
290
     0
176
     1
290
     0
176
     1
290
     0
176
     1
290
     0
176
     1
 90
       50
176
     1
 40
0.0
176
     1
 40
1.0
176
     1
 90
        0
176
     1
 62
    18
420
        0
176
     1
 90
       50
176
     1
 90
        3
176
     1
 62
     5
420
      255
176
     1
290
     0
176
     1
 90
       50
176
     1
 90
       50
176
     1
 90
       50
176
     1
290
     0
176
     1
 90
       50
176
     1
 62
   256
176
     0
 40
1.0
176
     0
 90
        2
176
     1
  1
strokes_ogs.tif
176
     1
290
     0
176
     1
 40
1.0
176
     1
 40
1.0
176
     1
1001
ACAD
1000
AcDbSavedByObjectVersion
1070
     0
  0
VISUALSTYLE
  5
5D3
102
{ACAD_REACTORS
330
2A
102
}
330
2A
100
AcDbVisualStyle
  2
Wireframe
 70
     5
177
     3
291
     0
 70
    58
 90
        0
176
     1
 90
        2
176
     1
 90
        0
176
     1
 90
        0
176
     1
 40
0.6
176
     1
 40
30.0
176
     1
 62
     7
420
 16777215
176
     1
 90
        1
176
     1
 90
        4
176
     1
 62
     7
176
     1
 62
   257
176
     1
 90
        1
176
     1
 90
        1
176
     1
 40
1.0
176
     1
 90
        0
176
     1
 62
   257
176
     1
 40
1.0
176
     1
 90
        1
176
     1
 90
        6
176
     1
 90
        2
176
     1
 62
     7
176
     1
 90
        3
176
     1
 90
        0
176
     1
 90
        0
176
     1
290
     0
176
     1
 90
        1
176
     1
 40
0.0
176
     1
 90
        0
176
     1
290
     0
176
     1
290
     1
176
     1
290
     1
176
     1
290
     0
176
     1
290
     0
176
     1
290
     0
176
     1
290
     0
176
     1
290
     0
176
     1
290
     0
176
     1
 90
       50
176
     1
 40
0.0
176
     1
 40
1.0
176
     1
 90
        0
176
     1
 62
    18
420
        0
176
     1
 90
       50
176
     1
 90
        3
176
     1
 62
     5
420
      255
176
     1
290
     0
176
     1
 90
       50
176
     1
 90
       50
176
     1
 90
       50
176
     1
290
     0
176
     1
 90
       50
176
     1
 62
   256
176
     0
 40
1.0
176
     0
 90
        2
176
     1
  1
strokes_ogs.tif
176
     1
290
     0
176
     1
 40
1.0
176
     1
 40
1.0
176
     1
1001
ACAD
1000
AcDbSavedByObjectVersion
1070
     0
  0
VISUALSTYLE
  5
5D7
102
{ACAD_REACTORS
330
2A
102
}
330
2A
100
AcDbVisualStyle
  2
X-Ray
 70
    25
177
     3
291
     0
 70
    58
 90
        2
176
     1
 90
        2
176
     1
 90
        1
176
     1
 90
        1
176
     1
 40
0.5
176
     1
 40
30.0
176
     1
 62
     7
420
 16777215
176
     1
 90
        1
176
     1
 90
        0
176
     1
 62
     7
176
     1
 62
   257
176
     1
 90
        1
176
     1
 90
        1
176
     1
 40
1.0
176
     1
 90
        8
176
     1
 62
     7
176
     1
 40
1.0
176
     1
 90
        1
176
     1
 90
        6
176
     1
 90
        2
176
     1
 62
     7
176
     1
 90
        3
176
     1
 90
        0
176
     1
 90
        0
176
     1
290
     0
176
     1
 90
       13
176
     1
 40
0.0
176
     1
 90
        0
176
     1
290
     0
176
     1
290
     1
176
     1
290
     1
176
     1
290
     0
176
     1
290
     0
176
     1
290
     0
176
     1
290
     0
176
     1
290
     0
176
     1
290
     0
176
     1
 90
       50
176
     1
 40
0.0
176
     1
 40
1.0
176
     1
 90
        0
176
     1
 62
    18
420
        0
176
     1
 90
       50
176
     1
 90
        3
176
     1
 62
     5
420
      255
176
     1
290
     0
176
     1
 90
       50
176
     1
 90
       50
176
     1
 90
       50
176
     1
290
     0
176
     1
 90
       50
176
     1
 62
   256
176
     0
 40
1.0
176
     0
 90
        2
176
     1
  1
strokes_ogs.tif
176
     1
290
     0
176
     1
 40
1.0
176
     1
 40
1.0
176
     1
1001
ACAD
1000
AcDbSavedByObjectVersion
1070
     0
  0
DICTIONARYVAR
  5
7B5
102
{ACAD_REACTORS
330
7B0
102
}
330
7B0
100
DictionaryVariables
280
     0
  1
1:1
  0
DICTIONARYVAR
  5
7B2
102
{ACAD_REACTORS
330
7B0
102
}
330
7B0
100
DictionaryVariables
280
     0
  1
STANDARD
  0
DICTIONARYVAR
  5
7B1
102
{ACAD_REACTORS
330
7B0
102
}
330
7B0
100
DictionaryVariables
280
     0
  1
STANDARD
  0
DICTIONARYVAR
  5
7B3
102
{ACAD_REACTORS
330
7B0
102
}
330
7B0
100
DictionaryVariables
280
     0
  1
Imperial24
  0
DICTIONARYVAR
  5
7B4
102
{ACAD_REACTORS
330
7B0
102
}
330
7B0
100
DictionaryVariables
280
     0
  1
Imperial24
  0
DICTIONARY
  5
7C2
330
5F9
100
AcDbDictionary
280
     1
281
     1
  3
ACAD_XREC_ROUNDTRIP
360
7C3
  0
DICTIONARY
  5
7C0
330
5F7
100
AcDbDictionary
280
     1
281
     1
  3
ACAD_XREC_ROUNDTRIP
360
7C1
  0
DICTIONARY
  5
7BD
330
5DE
100
AcDbDictionary
280
     1
281
     1
  3
ACAD_ROUNDTRIP_2008_TABLESTYLE_CELLSTYLEMAP
360
7BE
  0
XRECORD
  5
7C3
102
{ACAD_REACTORS
330
7C2
102
}
330
7C2
100
AcDbXrecord
280
     1
102
DISPLAYNAME
  1
Imperial24
102
FLAGS
 90
        0
  0
XRECORD
  5
7C1
102
{ACAD_REACTORS
330
7C0
102
}
330
7C0
100
AcDbXrecord
280
     1
102
DISPLAYNAME
  1
Imperial24
102
FLAGS
 90
        0
  0
CELLSTYLEMAP
  5
7BE
102
{ACAD_REACTORS
330
7BD
102
}
330
7BD
100
AcDbCellStyleMap
 90
        3
300
CELLSTYLE
  1
TABLEFORMAT_BEGIN
 90
        5
170
     1
 91
        0
 92
    32768
 62
   257
 93
        1
300
CONTENTFORMAT
  1
CONTENTFORMAT_BEGIN
 90
        0
 91
        0
 92
      512
 93
        0
300

 40
0.0
140
1.0
 94
        5
 62
     0
340
11
144
0.25
309
CONTENTFORMAT_END
171
     0
 94
        0
309
TABLEFORMAT_END
  1
CELLSTYLE_BEGIN
 90
        1
 91
        1
300
_TITLE
309
CELLSTYLE_END
300
CELLSTYLE
  1
TABLEFORMAT_BEGIN
 90
        5
170
     1
 91
        0
 92
        0
 62
   257
 93
        1
300
CONTENTFORMAT
  1
CONTENTFORMAT_BEGIN
 90
        0
 91
        0
 92
      512
 93
        0
300

 40
0.0
140
1.0
 94
        5
 62
     0
340
11
144
0.18
309
CONTENTFORMAT_END
171
     0
 94
        0
309
TABLEFORMAT_END
  1
CELLSTYLE_BEGIN
 90
        2
 91
        1
300
_HEADER
309
CELLSTYLE_END
300
CELLSTYLE
  1
TABLEFORMAT_BEGIN
 90
        5
170
     1
 91
        0
 92
        0
 62
   257
 93
        1
300
CONTENTFORMAT
  1
CONTENTFORMAT_BEGIN
 90
        0
 91
        0
 92
      512
 93
        0
300

 40
0.0
140
1.0
 94
        2
 62
     0
340
11
144
0.18
309
CONTENTFORMAT_END
171
     0
 94
        0
309
TABLEFORMAT_END
  1
CELLSTYLE_BEGIN
 90
        3
 91
        2
300
_DATA
309
CELLSTYLE_END
  0
ENDSEC
  0
EOF
