  0
SECTION
  2
HEADER
  9
$ACADVER
  1
AC1032
  9
$ACADMAINTVER
 90
       55
  9
$DWGCODEPAGE
  3
ANSI_1252
  9
$LASTSAVEDBY
  1
ufficio.tecnico
  9
$REQUIREDVERSIONS
160
                 0
  9
$INSBASE
 10
0.0
 20
0.0
 30
0.0
  9
$EXTMIN
 10
-0.5411117145942397
 20
-12.42791579571932
 30
0.0
  9
$EXTMAX
 10
10.62784833436717
 20
-0.6818360729632215
 30
0.0
  9
$LIMMIN
 10
0.0
 20
0.0
  9
$LIMMAX
 10
12.0
 20
9.0
  9
$ORTHOMODE
 70
     0
  9
$REGENMODE
 70
     1
  9
$FILLMODE
 70
     1
  9
$QTEXTMODE
 70
     0
  9
$MIRRTEXT
 70
     0
  9
$LTSCALE
 40
1.0
  9
$ATTMODE
 70
     1
  9
$TEXTSIZE
 40
0.2
  9
$TRACEWID
 40
0.05
  9
$TEXTSTYLE
  7
Standard
  9
$CLAYER
  8
0
  9
$CELTYPE
  6
ByLayer
  9
$CECOLOR
 62
   256
  9
$CELTSCALE
 40
1.0
  9
$DISPSILH
 70
     0
  9
$DIMSCALE
 40
1.0
  9
$DIMASZ
 40
0.18
  9
$DIMEXO
 40
0.0625
  9
$DIMDLI
 40
0.38
  9
$DIMRND
 40
0.0
  9
$DIMDLE
 40
0.0
  9
$DIMEXE
 40
0.18
  9
$DIMTP
 40
0.0
  9
$DIMTM
 40
0.0
  9
$DIMTXT
 40
0.18
  9
$DIMCEN
 40
0.09
  9
$DIMTSZ
 40
0.0
  9
$DIMTOL
 70
     0
  9
$DIMLIM
 70
     0
  9
$DIMTIH
 70
     1
  9
$DIMTOH
 70
     1
  9
$DIMSE1
 70
     0
  9
$DIMSE2
 70
     0
  9
$DIMTAD
 70
     0
  9
$DIMZIN
 70
     0
  9
$DIMBLK
  1

  9
$DIMASO
 70
     1
  9
$DIMSHO
 70
     1
  9
$DIMPOST
  1

  9
$DIMAPOST
  1

  9
$DIMALT
 70
     0
  9
$DIMALTD
 70
     2
  9
$DIMALTF
 40
25.4
  9
$DIMLFAC
 40
1.0
  9
$DIMTOFL
 70
     0
  9
$DIMTVP
 40
0.0
  9
$DIMTIX
 70
     0
  9
$DIMSOXD
 70
     0
  9
$DIMSAH
 70
     0
  9
$DIMBLK1
  1

  9
$DIMBLK2
  1

  9
$DIMSTYLE
  2
Standard
  9
$DIMCLRD
 70
     0
  9
$DIMCLRE
 70
     0
  9
$DIMCLRT
 70
     0
  9
$DIMTFAC
 40
1.0
  9
$DIMGAP
 40
0.09
  9
$DIMJUST
 70
     0
  9
$DIMSD1
 70
     0
  9
$DIMSD2
 70
     0
  9
$DIMTOLJ
 70
     1
  9
$DIMTZIN
 70
     0
  9
$DIMALTZ
 70
     0
  9
$DIMALTTZ
 70
     0
  9
$DIMUPT
 70
     0
  9
$DIMDEC
 70
     4
  9
$DIMTDEC
 70
     4
  9
$DIMALTU
 70
     2
  9
$DIMALTTD
 70
     2
  9
$DIMTXSTY
  7
Standard
  9
$DIMAUNIT
 70
     0
  9
$DIMADEC
 70
     0
  9
$DIMALTRND
 40
0.0
  9
$DIMAZIN
 70
     0
  9
$DIMDSEP
 70
    46
  9
$DIMATFIT
 70
     3
  9
$DIMFRAC
 70
     0
  9
$DIMLDRBLK
  1

  9
$DIMLUNIT
 70
     2
  9
$DIMLWD
 70
    -2
  9
$DIMLWE
 70
    -2
  9
$DIMTMOVE
 70
     0
  9
$DIMFXL
 40
1.0
  9
$DIMFXLON
 70
     0
  9
$DIMJOGANG
 40
0.7853981633974483
  9
$DIMTFILL
 70
     0
  9
$DIMTFILLCLR
 70
     0
  9
$DIMARCSYM
 70
     0
  9
$DIMLTYPE
  6

  9
$DIMLTEX1
  6

  9
$DIMLTEX2
  6

  9
$DIMTXTDIRECTION
 70
     0
  9
$LUNITS
 70
     2
  9
$LUPREC
 70
     4
  9
$SKETCHINC
 40
0.1
  9
$FILLETRAD
 40
0.0
  9
$AUNITS
 70
     0
  9
$AUPREC
 70
     0
  9
$MENU
  1
.
  9
$ELEVATION
 40
0.0
  9
$PELEVATION
 40
0.0
  9
$THICKNESS
 40
0.0
  9
$LIMCHECK
 70
     0
  9
$CHAMFERA
 40
0.0
  9
$CHAMFERB
 40
0.0
  9
$CHAMFERC
 40
0.0
  9
$CHAMFERD
 40
0.0
  9
$SKPOLY
 70
     0
  9
$TDCREATE
 40
2459424.653356482
  9
$TDUCREATE
 40
2459424.570023148
  9
$TDUPDATE
 40
2459443.658518519
  9
$TDUUPDATE
 40
2459443.575185185
  9
$TDINDWG
 40
0.0044444444
  9
$TDUSRTIMER
 40
0.0044444444
  9
$USRTIMER
 70
     1
  9
$ANGBASE
 50
0.0
  9
$ANGDIR
 70
     0
  9
$PDMODE
 70
     0
  9
$PDSIZE
 40
0.0
  9
$PLINEWID
 40
0.0
  9
$SPLFRAME
 70
     0
  9
$SPLINETYPE
 70
     6
  9
$SPLINESEGS
 70
     8
  9
$HANDSEED
  5
164
  9
$SURFTAB1
 70
     6
  9
$SURFTAB2
 70
     6
  9
$SURFTYPE
 70
     6
  9
$SURFU
 70
     6
  9
$SURFV
 70
     6
  9
$UCSBASE
  2

  9
$UCSNAME
  2

  9
$UCSORG
 10
0.0
 20
0.0
 30
0.0
  9
$UCSXDIR
 10
1.0
 20
0.0
 30
0.0
  9
$UCSYDIR
 10
0.0
 20
1.0
 30
0.0
  9
$UCSORTHOREF
  2

  9
$UCSORTHOVIEW
 70
     0
  9
$UCSORGTOP
 10
0.0
 20
0.0
 30
0.0
  9
$UCSORGBOTTOM
 10
0.0
 20
0.0
 30
0.0
  9
$UCSORGLEFT
 10
0.0
 20
0.0
 30
0.0
  9
$UCSORGRIGHT
 10
0.0
 20
0.0
 30
0.0
  9
$UCSORGFRONT
 10
0.0
 20
0.0
 30
0.0
  9
$UCSORGBACK
 10
0.0
 20
0.0
 30
0.0
  9
$PUCSBASE
  2

  9
$PUCSNAME
  2

  9
$PUCSORG
 10
0.0
 20
0.0
 30
0.0
  9
$PUCSXDIR
 10
1.0
 20
0.0
 30
0.0
  9
$PUCSYDIR
 10
0.0
 20
1.0
 30
0.0
  9
$PUCSORTHOREF
  2

  9
$PUCSORTHOVIEW
 70
     0
  9
$PUCSORGTOP
 10
0.0
 20
0.0
 30
0.0
  9
$PUCSORGBOTTOM
 10
0.0
 20
0.0
 30
0.0
  9
$PUCSORGLEFT
 10
0.0
 20
0.0
 30
0.0
  9
$PUCSORGRIGHT
 10
0.0
 20
0.0
 30
0.0
  9
$PUCSORGFRONT
 10
0.0
 20
0.0
 30
0.0
  9
$PUCSORGBACK
 10
0.0
 20
0.0
 30
0.0
  9
$USERI1
 70
     0
  9
$USERI2
 70
     0
  9
$USERI3
 70
     0
  9
$USERI4
 70
     0
  9
$USERI5
 70
     0
  9
$USERR1
 40
0.0
  9
$USERR2
 40
0.0
  9
$USERR3
 40
0.0
  9
$USERR4
 40
0.0
  9
$USERR5
 40
0.0
  9
$WORLDVIEW
 70
     1
  9
$SHADEDGE
 70
     3
  9
$SHADEDIF
 70
    70
  9
$TILEMODE
 70
     1
  9
$MAXACTVP
 70
    64
  9
$PINSBASE
 10
0.0
 20
0.0
 30
0.0
  9
$PLIMCHECK
 70
     0
  9
$PEXTMIN
 10
1.000000000000000E+20
 20
1.000000000000000E+20
 30
1.000000000000000E+20
  9
$PEXTMAX
 10
-1.000000000000000E+20
 20
-1.000000000000000E+20
 30
-1.000000000000000E+20
  9
$PLIMMIN
 10
0.0
 20
0.0
  9
$PLIMMAX
 10
12.0
 20
9.0
  9
$UNITMODE
 70
     0
  9
$VISRETAIN
 70
     1
  9
$PLINEGEN
 70
     0
  9
$PSLTSCALE
 70
     1
  9
$TREEDEPTH
 70
  3020
  9
$CMLSTYLE
  2
Standard
  9
$CMLJUST
 70
     0
  9
$CMLSCALE
 40
1.0
  9
$PROXYGRAPHICS
 70
     1
  9
$MEASUREMENT
 70
     0
  9
$CELWEIGHT
370
    -1
  9
$ENDCAPS
280
     0
  9
$JOINSTYLE
280
     0
  9
$LWDISPLAY
290
     1
  9
$INSUNITS
 70
     5
  9
$HYPERLINKBASE
  1

  9
$STYLESHEET
  1

  9
$XEDIT
290
     1
  9
$CEPSNTYPE
380
     0
  9
$PSTYLEMODE
290
     1
  9
$FINGERPRINTGUID
  2
{6BBC1A25-6DB2-8049-890A-CA902AB60240}
  9
$VERSIONGUID
  2
{5EC56A48-D6E0-B94E-92C2-19A60CC14643}
  9
$EXTNAMES
290
     1
  9
$PSVPSCALE
 40
0.0
  9
$OLESTARTUP
290
     0
  9
$SORTENTS
280
   127
  9
$INDEXCTL
280
     0
  9
$HIDETEXT
280
     1
  9
$XCLIPFRAME
280
     2
  9
$HALOGAP
280
     0
  9
$OBSCOLOR
 70
   257
  9
$OBSLTYPE
280
     0
  9
$INTERSECTIONDISPLAY
280
     0
  9
$INTERSECTIONCOLOR
 70
   257
  9
$DIMASSOC
280
     2
  9
$PROJECTNAME
  1

  9
$CAMERADISPLAY
290
     0
  9
$LENSLENGTH
 40
50.0
  9
$CAMERAHEIGHT
 40
0.0
  9
$STEPSPERSEC
 40
2.0
  9
$STEPSIZE
 40
6.0
  9
$3DDWFPREC
 40
2.0
  9
$PSOLWIDTH
 40
0.25
  9
$PSOLHEIGHT
 40
4.0
  9
$LOFTANG1
 40
1.570796326794896
  9
$LOFTANG2
 40
1.570796326794896
  9
$LOFTMAG1
 40
0.0
  9
$LOFTMAG2
 40
0.0
  9
$LOFTPARAM
 70
     7
  9
$LOFTNORMALS
280
     1
  9
$LATITUDE
 40
37.795
  9
$LONGITUDE
 40
-122.394
  9
$NORTHDIRECTION
 40
0.0
  9
$TIMEZONE
 70
 -8000
  9
$LIGHTGLYPHDISPLAY
280
     1
  9
$TILEMODELIGHTSYNCH
280
     1
  9
$CMATERIAL
347
11
  9
$SOLIDHIST
280
     0
  9
$SHOWHIST
280
     1
  9
$DWFFRAME
280
     2
  9
$DGNFRAME
280
     0
  9
$REALWORLDSCALE
290
     1
  9
$INTERFERECOLOR
 62
     1
  9
$INTERFEREOBJVS
345
33
  9
$INTERFEREVPVS
346
30
  9
$CSHADOW
280
     0
  9
$SHADOWPLANELOCATION
 40
0.0
  0
ENDSEC
  0
SECTION
  2
CLASSES
  0
CLASS
  1
ACDBDICTIONARYWDFLT
  2
AcDbDictionaryWithDefault
  3
ObjectDBX Classes
 90
        0
 91
        1
280
     0
281
     0
  0
CLASS
  1
MATERIAL
  2
AcDbMaterial
  3
ObjectDBX Classes
 90
     1153
 91
        3
280
     0
281
     0
  0
CLASS
  1
VISUALSTYLE
  2
AcDbVisualStyle
  3
ObjectDBX Classes
 90
     4095
 91
       24
280
     0
281
     0
  0
CLASS
  1
SCALE
  2
AcDbScale
  3
ObjectDBX Classes
 90
     1153
 91
       17
280
     0
281
     0
  0
CLASS
  1
TABLESTYLE
  2
AcDbTableStyle
  3
ObjectDBX Classes
 90
     4095
 91
        1
280
     0
281
     0
  0
CLASS
  1
MLEADERSTYLE
  2
AcDbMLeaderStyle
  3
ACDB_MLEADERSTYLE_CLASS
 90
     4095
 91
        1
280
     0
281
     0
  0
CLASS
  1
ACDBSECTIONVIEWSTYLE
  2
AcDbSectionViewStyle
  3
ObjectDBX Classes
 90
     1025
 91
        1
280
     0
281
     0
  0
CLASS
  1
ACDBDETAILVIEWSTYLE
  2
AcDbDetailViewStyle
  3
ObjectDBX Classes
 90
     1025
 91
        1
280
     0
281
     0
  0
CLASS
  1
DICTIONARYVAR
  2
AcDbDictionaryVar
  3
ObjectDBX Classes
 90
        0
 91
        5
280
     0
281
     0
  0
CLASS
  1
CELLSTYLEMAP
  2
AcDbCellStyleMap
  3
ObjectDBX Classes
 90
     1152
 91
        3
280
     0
281
     0
  0
ENDSEC
  0
SECTION
  2
TABLES
  0
TABLE
  2
VPORT
  5
8
330
0
100
AcDbSymbolTable
 70
     1
  0
VPORT
  5
57
330
8
100
AcDbSymbolTableRecord
100
AcDbViewportTableRecord
  2
*Active
 70
     0
 10
0.0
 20
0.0
 11
1.0
 21
1.0
 12
-3.5276586217628
 22
2.872147046047359
 13
0.0
 23
0.0
 14
1.0
 24
1.0
 15
0.0
 25
0.0
 16
0.0
 26
0.0
 36
1.0
 17
5.320274166908643
 27
-6.220307897584719
 37
0.0
 40
20.96437513274543
 41
2.545333333333333
 42
50.0
 43
0.0
 44
0.0
 50
0.0
 51
0.0
 71
     0
 72
   100
 73
     1
 74
     0
 75
     1
 76
     0
 77
     0
 78
     0
281
     0
 65
     1
110
0.0
120
0.0
130
0.0
111
1.0
121
0.0
131
0.0
112
0.0
122
1.0
132
0.0
 79
     0
146
0.0
348
2F
 60
     3
 61
     5
292
     1
282
     1
141
0.0
142
0.0
 63
   250
421
  3355443
1001
ACAD_NAV_VCDISPLAY
1070
     3
  0
ENDTAB
  0
TABLE
  2
LTYPE
  5
5
330
0
100
AcDbSymbolTable
 70
     2
  0
LTYPE
  5
5B
330
5
100
AcDbSymbolTableRecord
100
AcDbLinetypeTableRecord
  2
ByBlock
 70
     0
  3

 72
    65
 73
     0
 40
0.0
  0
LTYPE
  5
5C
330
5
100
AcDbSymbolTableRecord
100
AcDbLinetypeTableRecord
  2
ByLayer
 70
     0
  3

 72
    65
 73
     0
 40
0.0
  0
LTYPE
  5
5D
330
5
100
AcDbSymbolTableRecord
100
AcDbLinetypeTableRecord
  2
Continuous
 70
     0
  3
Solid line
 72
    65
 73
     0
 40
0.0
  0
ENDTAB
  0
TABLE
  2
LAYER
  5
2
102
{ACAD_XDICTIONARY
360
150
102
}
330
0
100
AcDbSymbolTable
 70
     3
  0
LAYER
  5
54
330
2
100
AcDbSymbolTableRecord
100
AcDbLayerTableRecord
  2
0
 70
     0
 62
     7
  6
Continuous
370
    -3
390
F
347
21
348
0
  0
LAYER
  5
78
330
2
100
AcDbSymbolTableRecord
100
AcDbLayerTableRecord
  2
Livello 1
 70
     0
 62
     7
  6
Continuous
370
     0
390
F
347
21
348
0
  0
LAYER
  5
E0
330
2
100
AcDbSymbolTableRecord
100
AcDbLayerTableRecord
  2
Livello 2
 70
     0
 62
     7
  6
Continuous
370
     0
390
F
347
21
348
0
  0
ENDTAB
  0
TABLE
  2
STYLE
  5
3
330
0
100
AcDbSymbolTable
 70
     2
  0
STYLE
  5
55
330
3
100
AcDbSymbolTableRecord
100
AcDbTextStyleTableRecord
  2
Standard
 70
     0
 40
0.0
 41
1.0
 50
0.0
 71
     0
 42
0.2
  3
txt
  4

  0
STYLE
  5
5A
330
3
100
AcDbSymbolTableRecord
100
AcDbTextStyleTableRecord
  2
Annotative
 70
     0
 40
0.0
 41
1.0
 50
0.0
 71
     0
 42
0.2
  3
txt
  4

1001
AcadAnnotative
1000
AnnotativeData
1002
{
1070
     1
1070
     1
1002
}
  0
ENDTAB
  0
TABLE
  2
VIEW
  5
6
330
0
100
AcDbSymbolTable
 70
     0
  0
ENDTAB
  0
TABLE
  2
UCS
  5
7
330
0
100
AcDbSymbolTable
 70
     0
  0
ENDTAB
  0
TABLE
  2
APPID
  5
9
330
0
100
AcDbSymbolTable
 70
     4
  0
APPID
  5
56
330
9
100
AcDbSymbolTableRecord
100
AcDbRegAppTableRecord
  2
ACAD
 70
     0
  0
APPID
  5
5E
330
9
100
AcDbSymbolTableRecord
100
AcDbRegAppTableRecord
  2
AcadAnnotative
 70
     0
  0
APPID
  5
14F
330
9
100
AcDbSymbolTableRecord
100
AcDbRegAppTableRecord
  2
ACAD_NAV_VCDISPLAY
 70
     0
  0
APPID
  5
158
330
9
100
AcDbSymbolTableRecord
100
AcDbRegAppTableRecord
  2
ACAD_EXEMPT_FROM_CAD_STANDARDS
 70
     0
  0
ENDTAB
  0
TABLE
  2
DIMSTYLE
  5
A
330
0
100
AcDbSymbolTable
 70
     2
100
AcDbDimStyleTable
 71
     0
  0
DIMSTYLE
105
58
330
A
100
AcDbSymbolTableRecord
100
AcDbDimStyleTableRecord
  2
Standard
 70
     0
340
55
  0
DIMSTYLE
105
59
330
A
100
AcDbSymbolTableRecord
100
AcDbDimStyleTableRecord
  2
Annotative
 70
     0
340
55
1001
AcadAnnotative
1000
AnnotativeData
1002
{
1070
     1
1070
     1
1002
}
  0
ENDTAB
  0
TABLE
  2
BLOCK_RECORD
  5
1
330
0
100
AcDbSymbolTable
 70
     9
  0
BLOCK_RECORD
  5
70
330
1
100
AcDbSymbolTableRecord
100
AcDbBlockTableRecord
  2
*Model_Space
340
73
 70
     0
280
     1
281
     0
  0
BLOCK_RECORD
  5
6C
330
1
100
AcDbSymbolTableRecord
100
AcDbBlockTableRecord
  2
*Paper_Space
340
6F
 70
     0
280
     1
281
     0
  0
BLOCK_RECORD
  5
74
330
1
100
AcDbSymbolTableRecord
100
AcDbBlockTableRecord
  2
*Paper_Space0
340
77
 70
     0
280
     1
281
     0
  0
BLOCK_RECORD
  5
E2
330
1
100
AcDbSymbolTableRecord
100
AcDbBlockTableRecord
  2
Block_0
340
0
 70
     0
280
     1
281
     0
  0
BLOCK_RECORD
  5
E6
330
1
100
AcDbSymbolTableRecord
100
AcDbBlockTableRecord
  2
Block_1
340
0
102
{BLKREFS
331
E7
102
}
 70
     0
280
     1
281
     0
  0
BLOCK_RECORD
  5
EF
330
1
100
AcDbSymbolTableRecord
100
AcDbBlockTableRecord
  2
Block_2
340
0
 70
     0
280
     1
281
     0
  0
BLOCK_RECORD
  5
F3
330
1
100
AcDbSymbolTableRecord
100
AcDbBlockTableRecord
  2
Block_3
340
0
102
{BLKREFS
331
F4
102
}
 70
     0
280
     1
281
     0
  0
BLOCK_RECORD
  5
FF
330
1
100
AcDbSymbolTableRecord
100
AcDbBlockTableRecord
  2
Block_4
340
0
102
{BLKREFS
331
100
102
}
 70
     0
280
     1
281
     0
  0
BLOCK_RECORD
  5
103
330
1
100
AcDbSymbolTableRecord
100
AcDbBlockTableRecord
  2
Block_5
340
0
102
{BLKREFS
331
104
102
}
 70
     0
280
     1
281
     0
  0
ENDTAB
  0
ENDSEC
  0
SECTION
  2
BLOCKS
  0
BLOCK
  5
71
330
70
100
AcDbEntity
  8
0
100
AcDbBlockBegin
  2
*Model_Space
 70
     0
 10
0.0
 20
0.0
 30
0.0
  3
*Model_Space
  1

  0
ENDBLK
  5
72
330
70
100
AcDbEntity
  8
0
100
AcDbBlockEnd
  0
BLOCK
  5
6D
330
6C
100
AcDbEntity
 67
     1
  8
0
100
AcDbBlockBegin
  2
*Paper_Space
 70
     0
 10
0.0
 20
0.0
 30
0.0
  3
*Paper_Space
  1

  0
ENDBLK
  5
6E
330
6C
100
AcDbEntity
 67
     1
  8
0
100
AcDbBlockEnd
  0
BLOCK
  5
75
330
74
100
AcDbEntity
 67
     1
  8
0
100
AcDbBlockBegin
  2
*Paper_Space0
 70
     0
 10
0.0
 20
0.0
 30
0.0
  3
*Paper_Space0
  1

  0
ENDBLK
  5
76
330
74
100
AcDbEntity
 67
     1
  8
0
100
AcDbBlockEnd
  0
BLOCK
  5
E4
330
E2
100
AcDbEntity
  8
0
100
AcDbBlockBegin
  2
Block_0
 70
     0
 10
0.0
 20
0.0
 30
0.0
  3
Block_0
  1

  0
INSERT
  5
E7
330
E2
100
AcDbEntity
  8
Livello 2
100
AcDbBlockReference
  2
Block_1
 10
0.0
 20
0.0
 30
0.0
  0
ENDBLK
  5
E5
330
E2
100
AcDbEntity
  8
0
100
AcDbBlockEnd
  0
BLOCK
  5
E8
330
E6
100
AcDbEntity
  8
0
100
AcDbBlockBegin
  2
Block_1
 70
     0
 10
0.0
 20
0.0
 30
0.0
  3
Block_1
  1

  0
SPLINE
  5
EA
330
E6
100
AcDbEntity
  8
Livello 2
100
AcDbSpline
210
0.0
220
0.0
230
1.0
 70
    11
 71
     3
 72
    29
 73
    25
 74
     0
 42
0.000000001
 43
0.0000000001
 40
0.0
 40
0.0
 40
0.0
 40
0.0
 40
1.0
 40
1.0
 40
1.0
 40
2.0
 40
2.0
 40
2.0
 40
3.0
 40
3.0
 40
3.0
 40
4.0
 40
4.0
 40
4.0
 40
5.0
 40
5.0
 40
5.0
 40
6.0
 40
6.0
 40
6.0
 40
7.0
 40
7.0
 40
7.0
 40
8.0
 40
8.0
 40
8.0
 40
8.0
 10
5.134225801667832
 20
-7.92819824020545
 30
0.0
 10
5.134225801667832
 20
-7.92819824020545
 30
0.0
 10
5.134225801667832
 20
-7.952727320060427
 30
0.0
 10
5.134225801667832
 20
-7.952727320060427
 30
0.0
 10
5.134225801667832
 20
-7.952727320060427
 30
0.0
 10
5.014474282600547
 20
-8.203220212792944
 30
0.0
 10
5.014474282600547
 20
-8.203220212792944
 30
0.0
 10
5.014474282600547
 20
-8.203220212792944
 30
0.0
 10
4.975975340552881
 20
-8.203220212792944
 30
0.0
 10
4.975975340552881
 20
-8.203220212792944
 30
0.0
 10
4.975975340552881
 20
-8.203220212792944
 30
0.0
 10
5.095296222684508
 20
-7.959927569624601
 30
0.0
 10
5.095296222684508
 20
-7.959927569624601
 30
0.0
 10
5.095296222684508
 20
-7.959927569624601
 30
0.0
 10
5.095296222684508
 20
-7.959100746708139
 30
0.0
 10
5.095296222684508
 20
-7.959100746708139
 30
0.0
 10
5.095296222684508
 20
-7.959100746708139
 30
0.0
 10
4.960748018508075
 20
-7.959100746708139
 30
0.0
 10
4.960748018508075
 20
-7.959100746708139
 30
0.0
 10
4.960748018508075
 20
-7.959100746708139
 30
0.0
 10
4.960748018508075
 20
-7.92819824020545
 30
0.0
 10
4.960748018508075
 20
-7.92819824020545
 30
0.0
 10
4.960748018508075
 20
-7.92819824020545
 30
0.0
 10
5.134225801667832
 20
-7.92819824020545
 30
0.0
 10
5.134225801667832
 20
-7.92819824020545
 30
0.0
  0
HATCH
  5
EB
330
E6
100
AcDbEntity
  8
Livello 2
 62
   250
420
  1907995
440
 33554687
100
AcDbHatch
 10
0.0
 20
0.0
 30
0.0
210
0.0
220
0.0
230
1.0
  2
SOLID
 70
     1
 71
     1
 91
        1
 92
        1
 93
        1
 72
     4
 94
        3
 73
     0
 74
     0
 95
       29
 96
       25
 40
0.0
 40
0.0
 40
0.0
 40
0.0
 40
1.0
 40
1.0
 40
1.0
 40
2.0
 40
2.0
 40
2.0
 40
3.0
 40
3.0
 40
3.0
 40
4.0
 40
4.0
 40
4.0
 40
5.0
 40
5.0
 40
5.0
 40
6.0
 40
6.0
 40
6.0
 40
7.0
 40
7.0
 40
7.0
 40
8.0
 40
8.0
 40
8.0
 40
8.0
 10
5.134225801667832
 20
-7.92819824020545
 10
5.134225801667832
 20
-7.92819824020545
 10
5.134225801667832
 20
-7.952727320060427
 10
5.134225801667832
 20
-7.952727320060427
 10
5.134225801667832
 20
-7.952727320060427
 10
5.014474282600547
 20
-8.203220212792944
 10
5.014474282600547
 20
-8.203220212792944
 10
5.014474282600547
 20
-8.203220212792944
 10
4.975975340552881
 20
-8.203220212792944
 10
4.975975340552881
 20
-8.203220212792944
 10
4.975975340552881
 20
-8.203220212792944
 10
5.095296222684508
 20
-7.959927569624601
 10
5.095296222684508
 20
-7.959927569624601
 10
5.095296222684508
 20
-7.959927569624601
 10
5.095296222684508
 20
-7.959100746708139
 10
5.095296222684508
 20
-7.959100746708139
 10
5.095296222684508
 20
-7.959100746708139
 10
4.960748018508075
 20
-7.959100746708139
 10
4.960748018508075
 20
-7.959100746708139
 10
4.960748018508075
 20
-7.959100746708139
 10
4.960748018508075
 20
-7.92819824020545
 10
4.960748018508075
 20
-7.92819824020545
 10
4.960748018508075
 20
-7.92819824020545
 10
5.134225801667832
 20
-7.92819824020545
 10
5.134225801667832
 20
-7.92819824020545
 97
        0
 97
        1
330
EA
 75
     2
 76
     1
 98
        1
 10
0.0
 20
0.0
450
        0
451
        0
460
0.0
461
0.0
452
        0
462
0.0
453
        0
470

  0
SPLINE
  5
EC
330
E6
100
AcDbEntity
  8
Livello 2
100
AcDbSpline
210
0.0
220
0.0
230
1.0
 70
     9
 71
     3
 72
    59
 73
    55
 74
     0
 42
0.000000001
 43
0.0000000001
 40
0.0
 40
0.0
 40
0.0
 40
0.0
 40
1.0
 40
1.0
 40
1.0
 40
2.0
 40
2.0
 40
2.0
 40
3.0
 40
3.0
 40
3.0
 40
4.0
 40
4.0
 40
4.0
 40
5.0
 40
5.0
 40
5.0
 40
6.0
 40
6.0
 40
6.0
 40
7.0
 40
7.0
 40
7.0
 40
8.0
 40
8.0
 40
8.0
 40
9.0
 40
9.0
 40
9.0
 40
10.0
 40
10.0
 40
10.0
 40
11.0
 40
11.0
 40
11.0
 40
12.0
 40
12.0
 40
12.0
 40
13.0
 40
13.0
 40
13.0
 40
14.0
 40
14.0
 40
14.0
 40
15.0
 40
15.0
 40
15.0
 40
16.0
 40
16.0
 40
16.0
 40
17.0
 40
17.0
 40
17.0
 40
18.0
 40
18.0
 40
18.0
 40
18.0
 10
5.181733668409426
 20
-8.160501028775843
 30
0.0
 10
5.192310111549144
 20
-8.167253415926936
 30
0.0
 10
5.216839191404122
 20
-8.177829859066651
 30
0.0
 10
5.242642956588643
 20
-8.177829859066651
 30
0.0
 10
5.290460881923912
 20
-8.177829859066651
 30
0.0
 10
5.305274792510486
 20
-8.147375214977044
 30
0.0
 10
5.304826930097403
 20
-8.124534231909837
 30
0.0
 10
5.304413518639172
 20
-8.086018064384745
 30
0.0
 10
5.269721407102708
 20
-8.069516057010398
 30
0.0
 10
5.233754610236698
 20
-8.069516057010398
 30
0.0
 10
5.233754610236698
 20
-8.069516057010398
 30
0.0
 10
5.213015135415496
 20
-8.069516057010398
 30
0.0
 10
5.213015135415496
 20
-8.069516057010398
 30
0.0
 10
5.213015135415496
 20
-8.069516057010398
 30
0.0
 10
5.213015135415496
 20
-8.041610783579875
 30
0.0
 10
5.213015135415496
 20
-8.041610783579875
 30
0.0
 10
5.213015135415496
 20
-8.041610783579875
 30
0.0
 10
5.233754610236698
 20
-8.041610783579875
 30
0.0
 10
5.233754610236698
 20
-8.041610783579875
 30
0.0
 10
5.260833060750762
 20
-8.041610783579875
 30
0.0
 10
5.295111760828999
 20
-8.02762369590976
 30
0.0
 10
5.295111760828999
 20
-7.995067543574147
 30
0.0
 10
5.295111760828999
 20
-7.973053383423402
 30
0.0
 10
5.281159124113737
 20
-7.953588593931741
 30
0.0
 10
5.2468804240355
 20
-7.953588593931741
 30
0.0
 10
5.224866263884754
 20
-7.953588593931741
 30
0.0
 10
5.203713377605321
 20
-7.963338214154997
 30
0.0
 10
5.191862249136061
 20
-7.97177869809386
 30
0.0
 10
5.191862249136061
 20
-7.97177869809386
 30
0.0
 10
5.182147079867656
 20
-7.944700247579795
 30
0.0
 10
5.182147079867656
 20
-7.944700247579795
 30
0.0
 10
5.196513128041147
 20
-7.934123804440078
 30
0.0
 10
5.224452852426525
 20
-7.923547361300362
 30
0.0
 10
5.254080673599673
 20
-7.923547361300362
 30
0.0
 10
5.3082375746278
 20
-7.923547361300362
 30
0.0
 10
5.33276665448278
 20
-7.955690102177742
 30
0.0
 10
5.33276665448278
 20
-7.989141979339518
 30
0.0
 10
5.33276665448278
 20
-8.017495115183123
 30
0.0
 10
5.315851235650202
 20
-8.041610783579875
 30
0.0
 10
5.281985947030197
 20
-8.053875323507364
 30
0.0
 10
5.281985947030197
 20
-8.053875323507364
 30
0.0
 10
5.281985947030197
 20
-8.054702146423823
 30
0.0
 10
5.281985947030197
 20
-8.054702146423823
 30
0.0
 10
5.315851235650202
 20
-8.061488984529766
 30
0.0
 10
5.343343097622496
 20
-8.086879338256057
 30
0.0
 10
5.343343097622496
 20
-8.125361054826298
 30
0.0
 10
5.343343097622496
 20
-8.169354924172939
 30
0.0
 10
5.309064397544261
 20
-8.207871091698031
 30
0.0
 10
5.243056368046874
 20
-8.207871091698031
 30
0.0
 10
5.212188312499034
 20
-8.207871091698031
 30
0.0
 10
5.185109861984972
 20
-8.198155922429627
 30
0.0
 10
5.17157063672794
 20
-8.189267576077682
 30
0.0
 10
5.17157063672794
 20
-8.189267576077682
 30
0.0
 10
5.181733668409426
 20
-8.160501028775843
 30
0.0
 10
5.181733668409426
 20
-8.160501028775843
 30
0.0
  0
HATCH
  5
ED
330
E6
100
AcDbEntity
  8
Livello 2
 62
   250
420
  1907995
440
 33554687
100
AcDbHatch
 10
0.0
 20
0.0
 30
0.0
210
0.0
220
0.0
230
1.0
  2
SOLID
 70
     1
 71
     1
 91
        1
 92
        1
 93
        1
 72
     4
 94
        3
 73
     0
 74
     0
 95
       59
 96
       55
 40
0.0
 40
0.0
 40
0.0
 40
0.0
 40
1.0
 40
1.0
 40
1.0
 40
2.0
 40
2.0
 40
2.0
 40
3.0
 40
3.0
 40
3.0
 40
4.0
 40
4.0
 40
4.0
 40
5.0
 40
5.0
 40
5.0
 40
6.0
 40
6.0
 40
6.0
 40
7.0
 40
7.0
 40
7.0
 40
8.0
 40
8.0
 40
8.0
 40
9.0
 40
9.0
 40
9.0
 40
10.0
 40
10.0
 40
10.0
 40
11.0
 40
11.0
 40
11.0
 40
12.0
 40
12.0
 40
12.0
 40
13.0
 40
13.0
 40
13.0
 40
14.0
 40
14.0
 40
14.0
 40
15.0
 40
15.0
 40
15.0
 40
16.0
 40
16.0
 40
16.0
 40
17.0
 40
17.0
 40
17.0
 40
18.0
 40
18.0
 40
18.0
 40
18.0
 10
5.181733668409426
 20
-8.160501028775843
 10
5.192310111549144
 20
-8.167253415926936
 10
5.216839191404122
 20
-8.177829859066651
 10
5.242642956588643
 20
-8.177829859066651
 10
5.290460881923912
 20
-8.177829859066651
 10
5.305274792510486
 20
-8.147375214977044
 10
5.304826930097403
 20
-8.124534231909837
 10
5.304413518639172
 20
-8.086018064384745
 10
5.269721407102708
 20
-8.069516057010398
 10
5.233754610236698
 20
-8.069516057010398
 10
5.233754610236698
 20
-8.069516057010398
 10
5.213015135415496
 20
-8.069516057010398
 10
5.213015135415496
 20
-8.069516057010398
 10
5.213015135415496
 20
-8.069516057010398
 10
5.213015135415496
 20
-8.041610783579875
 10
5.213015135415496
 20
-8.041610783579875
 10
5.213015135415496
 20
-8.041610783579875
 10
5.233754610236698
 20
-8.041610783579875
 10
5.233754610236698
 20
-8.041610783579875
 10
5.260833060750762
 20
-8.041610783579875
 10
5.295111760828999
 20
-8.02762369590976
 10
5.295111760828999
 20
-7.995067543574147
 10
5.295111760828999
 20
-7.973053383423402
 10
5.281159124113737
 20
-7.953588593931741
 10
5.2468804240355
 20
-7.953588593931741
 10
5.224866263884754
 20
-7.953588593931741
 10
5.203713377605321
 20
-7.963338214154997
 10
5.191862249136061
 20
-7.97177869809386
 10
5.191862249136061
 20
-7.97177869809386
 10
5.182147079867656
 20
-7.944700247579795
 10
5.182147079867656
 20
-7.944700247579795
 10
5.196513128041147
 20
-7.934123804440078
 10
5.224452852426525
 20
-7.923547361300362
 10
5.254080673599673
 20
-7.923547361300362
 10
5.3082375746278
 20
-7.923547361300362
 10
5.33276665448278
 20
-7.955690102177742
 10
5.33276665448278
 20
-7.989141979339518
 10
5.33276665448278
 20
-8.017495115183123
 10
5.315851235650202
 20
-8.041610783579875
 10
5.281985947030197
 20
-8.053875323507364
 10
5.281985947030197
 20
-8.053875323507364
 10
5.281985947030197
 20
-8.054702146423823
 10
5.281985947030197
 20
-8.054702146423823
 10
5.315851235650202
 20
-8.061488984529766
 10
5.343343097622496
 20
-8.086879338256057
 10
5.343343097622496
 20
-8.125361054826298
 10
5.343343097622496
 20
-8.169354924172939
 10
5.309064397544261
 20
-8.207871091698031
 10
5.243056368046874
 20
-8.207871091698031
 10
5.212188312499034
 20
-8.207871091698031
 10
5.185109861984972
 20
-8.198155922429627
 10
5.17157063672794
 20
-8.189267576077682
 10
5.17157063672794
 20
-8.189267576077682
 10
5.181733668409426
 20
-8.160501028775843
 10
5.181733668409426
 20
-8.160501028775843
 97
        0
 97
        1
330
EC
 75
     2
 76
     1
 98
        1
 10
0.0
 20
0.0
450
        0
451
        0
460
0.0
461
0.0
452
        0
462
0.0
453
        0
470

  0
ENDBLK
  5
E9
330
E6
100
AcDbEntity
  8
0
100
AcDbBlockEnd
  0
BLOCK
  5
F1
330
EF
100
AcDbEntity
  8
0
100
AcDbBlockBegin
  2
Block_2
 70
     0
 10
0.0
 20
0.0
 30
0.0
  3
Block_2
  1

  0
INSERT
  5
F4
330
EF
100
AcDbEntity
  8
Livello 2
100
AcDbBlockReference
  2
Block_3
 10
0.0
 20
0.0
 30
0.0
  0
ENDBLK
  5
F2
330
EF
100
AcDbEntity
  8
0
100
AcDbBlockEnd
  0
BLOCK
  5
F5
330
F3
100
AcDbEntity
  8
0
100
AcDbBlockBegin
  2
Block_3
 70
     0
 10
0.0
 20
0.0
 30
0.0
  3
Block_3
  1

  0
SPLINE
  5
F7
330
F3
100
AcDbEntity
  8
Livello 2
100
AcDbSpline
210
0.0
220
0.0
230
1.0
 70
    11
 71
     3
 72
    29
 73
    25
 74
     0
 42
0.000000001
 43
0.0000000001
 40
0.0
 40
0.0
 40
0.0
 40
0.0
 40
1.0
 40
1.0
 40
1.0
 40
2.0
 40
2.0
 40
2.0
 40
3.0
 40
3.0
 40
3.0
 40
4.0
 40
4.0
 40
4.0
 40
5.0
 40
5.0
 40
5.0
 40
6.0
 40
6.0
 40
6.0
 40
7.0
 40
7.0
 40
7.0
 40
8.0
 40
8.0
 40
8.0
 40
8.0
 10
1.135417344551215
 20
-4.201362846171881
 30
0.0
 10
1.135417344551215
 20
-4.201362846171881
 30
0.0
 10
1.134573296157327
 20
-4.201362846171881
 30
0.0
 10
1.134573296157327
 20
-4.201362846171881
 30
0.0
 10
1.134573296157327
 20
-4.201362846171881
 30
0.0
 10
1.08675537082206
 20
-4.227166611356402
 30
0.0
 10
1.08675537082206
 20
-4.227166611356402
 30
0.0
 10
1.08675537082206
 20
-4.227166611356402
 30
0.0
 10
1.079572346735314
 20
-4.198813475512796
 30
0.0
 10
1.079572346735314
 20
-4.198813475512796
 30
0.0
 10
1.079572346735314
 20
-4.198813475512796
 30
0.0
 10
1.139637586520646
 20
-4.166653509157988
 30
0.0
 10
1.139637586520646
 20
-4.166653509157988
 30
0.0
 10
1.139637586520646
 20
-4.166653509157988
 30
0.0
 10
1.171384141417223
 20
-4.166653509157988
 30
0.0
 10
1.171384141417223
 20
-4.166653509157988
 30
0.0
 10
1.171384141417223
 20
-4.166653509157988
 30
0.0
 10
1.171384141417223
 20
-4.441675481745483
 30
0.0
 10
1.171384141417223
 20
-4.441675481745483
 30
0.0
 10
1.171384141417223
 20
-4.441675481745483
 30
0.0
 10
1.135417344551215
 20
-4.441675481745483
 30
0.0
 10
1.135417344551215
 20
-4.441675481745483
 30
0.0
 10
1.135417344551215
 20
-4.441675481745483
 30
0.0
 10
1.135417344551215
 20
-4.201362846171881
 30
0.0
 10
1.135417344551215
 20
-4.201362846171881
 30
0.0
  0
HATCH
  5
F8
330
F3
100
AcDbEntity
  8
Livello 2
 62
   250
420
  1907995
440
 33554687
100
AcDbHatch
 10
0.0
 20
0.0
 30
0.0
210
0.0
220
0.0
230
1.0
  2
SOLID
 70
     1
 71
     1
 91
        1
 92
        1
 93
        1
 72
     4
 94
        3
 73
     0
 74
     0
 95
       29
 96
       25
 40
0.0
 40
0.0
 40
0.0
 40
0.0
 40
1.0
 40
1.0
 40
1.0
 40
2.0
 40
2.0
 40
2.0
 40
3.0
 40
3.0
 40
3.0
 40
4.0
 40
4.0
 40
4.0
 40
5.0
 40
5.0
 40
5.0
 40
6.0
 40
6.0
 40
6.0
 40
7.0
 40
7.0
 40
7.0
 40
8.0
 40
8.0
 40
8.0
 40
8.0
 10
1.135417344551215
 20
-4.201362846171881
 10
1.135417344551215
 20
-4.201362846171881
 10
1.134573296157327
 20
-4.201362846171881
 10
1.134573296157327
 20
-4.201362846171881
 10
1.134573296157327
 20
-4.201362846171881
 10
1.08675537082206
 20
-4.227166611356402
 10
1.08675537082206
 20
-4.227166611356402
 10
1.08675537082206
 20
-4.227166611356402
 10
1.079572346735314
 20
-4.198813475512796
 10
1.079572346735314
 20
-4.198813475512796
 10
1.079572346735314
 20
-4.198813475512796
 10
1.139637586520646
 20
-4.166653509157988
 10
1.139637586520646
 20
-4.166653509157988
 10
1.139637586520646
 20
-4.166653509157988
 10
1.171384141417223
 20
-4.166653509157988
 10
1.171384141417223
 20
-4.166653509157988
 10
1.171384141417223
 20
-4.166653509157988
 10
1.171384141417223
 20
-4.441675481745483
 10
1.171384141417223
 20
-4.441675481745483
 10
1.171384141417223
 20
-4.441675481745483
 10
1.135417344551215
 20
-4.441675481745483
 10
1.135417344551215
 20
-4.441675481745483
 10
1.135417344551215
 20
-4.441675481745483
 10
1.135417344551215
 20
-4.201362846171881
 10
1.135417344551215
 20
-4.201362846171881
 97
        0
 97
        1
330
F7
 75
     2
 76
     1
 98
        1
 10
0.0
 20
0.0
450
        0
451
        0
460
0.0
461
0.0
452
        0
462
0.0
453
        0
470

  0
SPLINE
  5
F9
330
F3
100
AcDbEntity
  8
Livello 2
100
AcDbSpline
210
0.0
220
0.0
230
1.0
 70
     9
 71
     3
 72
    59
 73
    55
 74
     0
 42
0.000000001
 43
0.0000000001
 40
0.0
 40
0.0
 40
0.0
 40
0.0
 40
1.0
 40
1.0
 40
1.0
 40
2.0
 40
2.0
 40
2.0
 40
3.0
 40
3.0
 40
3.0
 40
4.0
 40
4.0
 40
4.0
 40
5.0
 40
5.0
 40
5.0
 40
6.0
 40
6.0
 40
6.0
 40
7.0
 40
7.0
 40
7.0
 40
8.0
 40
8.0
 40
8.0
 40
9.0
 40
9.0
 40
9.0
 40
10.0
 40
10.0
 40
10.0
 40
11.0
 40
11.0
 40
11.0
 40
12.0
 40
12.0
 40
12.0
 40
13.0
 40
13.0
 40
13.0
 40
14.0
 40
14.0
 40
14.0
 40
15.0
 40
15.0
 40
15.0
 40
16.0
 40
16.0
 40
16.0
 40
17.0
 40
17.0
 40
17.0
 40
18.0
 40
18.0
 40
18.0
 40
18.0
 10
1.280645344731921
 20
-4.398939072250959
 30
0.0
 10
1.291221787871639
 20
-4.405708684879474
 30
0.0
 10
1.315768093204043
 20
-4.416285128019191
 30
0.0
 10
1.341571858388564
 20
-4.416285128019191
 30
0.0
 10
1.389389783723832
 20
-4.416285128019191
 30
0.0
 10
1.404186468832981
 20
-4.385830483929582
 30
0.0
 10
1.40377305737475
 20
-4.362972275384951
 30
0.0
 10
1.403342420439094
 20
-4.324473333337283
 30
0.0
 10
1.368650308902627
 20
-4.307971325962936
 30
0.0
 10
1.33268351203662
 20
-4.307971325962936
 30
0.0
 10
1.33268351203662
 20
-4.307971325962936
 30
0.0
 10
1.311961262692842
 20
-4.307971325962936
 30
0.0
 10
1.311961262692842
 20
-4.307971325962936
 30
0.0
 10
1.311961262692842
 20
-4.307971325962936
 30
0.0
 10
1.311961262692842
 20
-4.280048827054987
 30
0.0
 10
1.311961262692842
 20
-4.280048827054987
 30
0.0
 10
1.311961262692842
 20
-4.280048827054987
 30
0.0
 10
1.33268351203662
 20
-4.280048827054987
 30
0.0
 10
1.33268351203662
 20
-4.280048827054987
 30
0.0
 10
1.359761962550684
 20
-4.280048827054987
 30
0.0
 10
1.394040662628919
 20
-4.266096190339725
 30
0.0
 10
1.394040662628919
 20
-4.233505587049261
 30
0.0
 10
1.394040662628919
 20
-4.211508652375941
 30
0.0
 10
1.380070800436231
 20
-4.192043862884279
 30
0.0
 10
1.345809325835422
 20
-4.192043862884279
 30
0.0
 10
1.323795165684676
 20
-4.192043862884279
 30
0.0
 10
1.302642279405241
 20
-4.201776257630109
 30
0.0
 10
1.290808376413407
 20
-4.210233967046399
 30
0.0
 10
1.290808376413407
 20
-4.210233967046399
 30
0.0
 10
1.281075981667577
 20
-4.183155516532336
 30
0.0
 10
1.281075981667577
 20
-4.183155516532336
 30
0.0
 10
1.295459255318495
 20
-4.172579073392618
 30
0.0
 10
1.323381754226446
 20
-4.162002630252901
 30
0.0
 10
1.352992349922167
 20
-4.162002630252901
 30
0.0
 10
1.407149250950294
 20
-4.162002630252901
 30
0.0
 10
1.4316955562827
 20
-4.194162596607708
 30
0.0
 10
1.4316955562827
 20
-4.227580022814631
 30
0.0
 10
1.4316955562827
 20
-4.255933158658238
 30
0.0
 10
1.414762911972698
 20
-4.280048827054987
 30
0.0
 10
1.380914848830117
 20
-4.292313366982477
 30
0.0
 10
1.380914848830117
 20
-4.292313366982477
 30
0.0
 10
1.380914848830117
 20
-4.293174640853789
 30
0.0
 10
1.380914848830117
 20
-4.293174640853789
 30
0.0
 10
1.414762911972698
 20
-4.299944253482305
 30
0.0
 10
1.442271999422418
 20
-4.325317381731169
 30
0.0
 10
1.442271999422418
 20
-4.363833549256263
 30
0.0
 10
1.442271999422418
 20
-4.407827418602903
 30
0.0
 10
1.407993299344181
 20
-4.44632636065057
 30
0.0
 10
1.34200249532422
 20
-4.44632636065057
 30
0.0
 10
1.311117214298956
 20
-4.44632636065057
 30
0.0
 10
1.284038763784892
 20
-4.43659396590474
 30
0.0
 10
1.27049953852786
 20
-4.427705619552794
 30
0.0
 10
1.27049953852786
 20
-4.427705619552794
 30
0.0
 10
1.280645344731921
 20
-4.398939072250959
 30
0.0
 10
1.280645344731921
 20
-4.398939072250959
 30
0.0
  0
HATCH
  5
FA
330
F3
100
AcDbEntity
  8
Livello 2
 62
   250
420
  1907995
440
 33554687
100
AcDbHatch
 10
0.0
 20
0.0
 30
0.0
210
0.0
220
0.0
230
1.0
  2
SOLID
 70
     1
 71
     1
 91
        1
 92
        1
 93
        1
 72
     4
 94
        3
 73
     0
 74
     0
 95
       59
 96
       55
 40
0.0
 40
0.0
 40
0.0
 40
0.0
 40
1.0
 40
1.0
 40
1.0
 40
2.0
 40
2.0
 40
2.0
 40
3.0
 40
3.0
 40
3.0
 40
4.0
 40
4.0
 40
4.0
 40
5.0
 40
5.0
 40
5.0
 40
6.0
 40
6.0
 40
6.0
 40
7.0
 40
7.0
 40
7.0
 40
8.0
 40
8.0
 40
8.0
 40
9.0
 40
9.0
 40
9.0
 40
10.0
 40
10.0
 40
10.0
 40
11.0
 40
11.0
 40
11.0
 40
12.0
 40
12.0
 40
12.0
 40
13.0
 40
13.0
 40
13.0
 40
14.0
 40
14.0
 40
14.0
 40
15.0
 40
15.0
 40
15.0
 40
16.0
 40
16.0
 40
16.0
 40
17.0
 40
17.0
 40
17.0
 40
18.0
 40
18.0
 40
18.0
 40
18.0
 10
1.280645344731921
 20
-4.398939072250959
 10
1.291221787871639
 20
-4.405708684879474
 10
1.315768093204043
 20
-4.416285128019191
 10
1.341571858388564
 20
-4.416285128019191
 10
1.389389783723832
 20
-4.416285128019191
 10
1.404186468832981
 20
-4.385830483929582
 10
1.40377305737475
 20
-4.362972275384951
 10
1.403342420439094
 20
-4.324473333337283
 10
1.368650308902627
 20
-4.307971325962936
 10
1.33268351203662
 20
-4.307971325962936
 10
1.33268351203662
 20
-4.307971325962936
 10
1.311961262692842
 20
-4.307971325962936
 10
1.311961262692842
 20
-4.307971325962936
 10
1.311961262692842
 20
-4.307971325962936
 10
1.311961262692842
 20
-4.280048827054987
 10
1.311961262692842
 20
-4.280048827054987
 10
1.311961262692842
 20
-4.280048827054987
 10
1.33268351203662
 20
-4.280048827054987
 10
1.33268351203662
 20
-4.280048827054987
 10
1.359761962550684
 20
-4.280048827054987
 10
1.394040662628919
 20
-4.266096190339725
 10
1.394040662628919
 20
-4.233505587049261
 10
1.394040662628919
 20
-4.211508652375941
 10
1.380070800436231
 20
-4.192043862884279
 10
1.345809325835422
 20
-4.192043862884279
 10
1.323795165684676
 20
-4.192043862884279
 10
1.302642279405241
 20
-4.201776257630109
 10
1.290808376413407
 20
-4.210233967046399
 10
1.290808376413407
 20
-4.210233967046399
 10
1.281075981667577
 20
-4.183155516532336
 10
1.281075981667577
 20
-4.183155516532336
 10
1.295459255318495
 20
-4.172579073392618
 10
1.323381754226446
 20
-4.162002630252901
 10
1.352992349922167
 20
-4.162002630252901
 10
1.407149250950294
 20
-4.162002630252901
 10
1.4316955562827
 20
-4.194162596607708
 10
1.4316955562827
 20
-4.227580022814631
 10
1.4316955562827
 20
-4.255933158658238
 10
1.414762911972698
 20
-4.280048827054987
 10
1.380914848830117
 20
-4.292313366982477
 10
1.380914848830117
 20
-4.292313366982477
 10
1.380914848830117
 20
-4.293174640853789
 10
1.380914848830117
 20
-4.293174640853789
 10
1.414762911972698
 20
-4.299944253482305
 10
1.442271999422418
 20
-4.325317381731169
 10
1.442271999422418
 20
-4.363833549256263
 10
1.442271999422418
 20
-4.407827418602903
 10
1.407993299344181
 20
-4.44632636065057
 10
1.34200249532422
 20
-4.44632636065057
 10
1.311117214298956
 20
-4.44632636065057
 10
1.284038763784892
 20
-4.43659396590474
 10
1.27049953852786
 20
-4.427705619552794
 10
1.27049953852786
 20
-4.427705619552794
 10
1.280645344731921
 20
-4.398939072250959
 10
1.280645344731921
 20
-4.398939072250959
 97
        0
 97
        1
330
F9
 75
     2
 76
     1
 98
        1
 10
0.0
 20
0.0
450
        0
451
        0
460
0.0
461
0.0
452
        0
462
0.0
453
        0
470

  0
SPLINE
  5
FB
330
F3
100
AcDbEntity
  8
Livello 2
100
AcDbSpline
210
0.0
220
0.0
230
1.0
 70
     9
 71
     3
 72
    17
 73
    13
 74
     0
 42
0.000000001
 43
0.0000000001
 40
0.0
 40
0.0
 40
0.0
 40
0.0
 40
1.0
 40
1.0
 40
1.0
 40
2.0
 40
2.0
 40
2.0
 40
3.0
 40
3.0
 40
3.0
 40
4.0
 40
4.0
 40
4.0
 40
4.0
 10
1.52235324397705
 20
-4.305439180781278
 30
0.0
 10
1.52235324397705
 20
-4.376942137577637
 30
0.0
 10
1.54435017865037
 20
-4.417559813348733
 30
0.0
 10
1.57819824179295
 20
-4.417559813348733
 30
0.0
 10
1.616283772382386
 20
-4.417559813348733
 30
0.0
 10
1.634473876544505
 20
-4.373135307066438
 30
0.0
 10
1.634473876544505
 20
-4.302889810122192
 30
0.0
 10
1.634473876544505
 20
-4.235193683837033
 30
0.0
 10
1.617127820776273
 20
-4.190769177554736
 30
0.0
 10
1.578628878728606
 20
-4.190769177554736
 30
0.0
 10
1.546038275438142
 20
-4.190769177554736
 30
0.0
 10
1.52235324397705
 20
-4.230542804931946
 30
0.0
 10
1.52235324397705
 20
-4.305439180781278
 30
0.0
  0
SPLINE
  5
FC
330
F3
100
AcDbEntity
  8
Livello 2
100
AcDbSpline
210
0.0
220
0.0
230
1.0
 70
     9
 71
     3
 72
    17
 73
    13
 74
     0
 42
0.000000001
 43
0.0000000001
 40
0.0
 40
0.0
 40
0.0
 40
0.0
 40
1.0
 40
1.0
 40
1.0
 40
2.0
 40
2.0
 40
2.0
 40
3.0
 40
3.0
 40
3.0
 40
4.0
 40
4.0
 40
4.0
 40
4.0
 10
1.671698133262629
 20
-4.301201713334421
 30
0.0
 10
1.671698133262629
 20
-4.394718830281528
 30
0.0
 10
1.637006021726165
 20
-4.44632636065057
 30
0.0
 10
1.57607950806952
 20
-4.44632636065057
 30
0.0
 10
1.52235324397705
 20
-4.44632636065057
 30
0.0
 10
1.485955810175386
 20
-4.395976290133643
 30
0.0
 10
1.485111761781499
 20
-4.305008543845621
 30
0.0
 10
1.485111761781499
 20
-4.212783337705483
 30
0.0
 10
1.524885389158709
 20
-4.162002630252901
 30
0.0
 10
1.580730386974608
 20
-4.162002630252901
 30
0.0
 10
1.638694118513936
 20
-4.162002630252901
 30
0.0
 10
1.671698133262629
 20
-4.21362738609937
 30
0.0
 10
1.671698133262629
 20
-4.301201713334421
 30
0.0
  0
HATCH
  5
FD
330
F3
100
AcDbEntity
  8
Livello 2
 62
   250
420
  1907995
440
 33554687
100
AcDbHatch
 10
0.0
 20
0.0
 30
0.0
210
0.0
220
0.0
230
1.0
  2
SOLID
 70
     1
 71
     1
 91
        2
 92
        1
 93
        1
 72
     4
 94
        3
 73
     0
 74
     0
 95
       17
 96
       13
 40
0.0
 40
0.0
 40
0.0
 40
0.0
 40
1.0
 40
1.0
 40
1.0
 40
2.0
 40
2.0
 40
2.0
 40
3.0
 40
3.0
 40
3.0
 40
4.0
 40
4.0
 40
4.0
 40
4.0
 10
1.52235324397705
 20
-4.305439180781278
 10
1.52235324397705
 20
-4.376942137577637
 10
1.54435017865037
 20
-4.417559813348733
 10
1.57819824179295
 20
-4.417559813348733
 10
1.616283772382386
 20
-4.417559813348733
 10
1.634473876544505
 20
-4.373135307066438
 10
1.634473876544505
 20
-4.302889810122192
 10
1.634473876544505
 20
-4.235193683837033
 10
1.617127820776273
 20
-4.190769177554736
 10
1.578628878728606
 20
-4.190769177554736
 10
1.546038275438142
 20
-4.190769177554736
 10
1.52235324397705
 20
-4.230542804931946
 10
1.52235324397705
 20
-4.305439180781278
 97
        0
 97
        1
330
FB
 92
        1
 93
        1
 72
     4
 94
        3
 73
     0
 74
     0
 95
       17
 96
       13
 40
0.0
 40
0.0
 40
0.0
 40
0.0
 40
1.0
 40
1.0
 40
1.0
 40
2.0
 40
2.0
 40
2.0
 40
3.0
 40
3.0
 40
3.0
 40
4.0
 40
4.0
 40
4.0
 40
4.0
 10
1.671698133262629
 20
-4.301201713334421
 10
1.671698133262629
 20
-4.394718830281528
 10
1.637006021726165
 20
-4.44632636065057
 10
1.57607950806952
 20
-4.44632636065057
 10
1.52235324397705
 20
-4.44632636065057
 10
1.485955810175386
 20
-4.395976290133643
 10
1.485111761781499
 20
-4.305008543845621
 10
1.485111761781499
 20
-4.212783337705483
 10
1.524885389158709
 20
-4.162002630252901
 10
1.580730386974608
 20
-4.162002630252901
 10
1.638694118513936
 20
-4.162002630252901
 10
1.671698133262629
 20
-4.21362738609937
 10
1.671698133262629
 20
-4.301201713334421
 97
        0
 97
        1
330
FC
 75
     2
 76
     1
 98
        1
 10
0.0
 20
0.0
450
        0
451
        0
460
0.0
461
0.0
452
        0
462
0.0
453
        0
470

  0
ENDBLK
  5
F6
330
F3
100
AcDbEntity
  8
0
100
AcDbBlockEnd
  0
BLOCK
  5
101
330
FF
100
AcDbEntity
  8
0
100
AcDbBlockBegin
  2
Block_4
 70
     0
 10
0.0
 20
0.0
 30
0.0
  3
Block_4
  1

  0
INSERT
  5
104
330
FF
100
AcDbEntity
  8
Livello 2
100
AcDbBlockReference
  2
Block_5
 10
0.0
 20
0.0
 30
0.0
  0
ENDBLK
  5
102
330
FF
100
AcDbEntity
  8
0
100
AcDbBlockEnd
  0
BLOCK
  5
105
330
103
100
AcDbEntity
  8
0
100
AcDbBlockBegin
  2
Block_5
 70
     0
 10
0.0
 20
0.0
 30
0.0
  3
Block_5
  1

  0
SPLINE
  5
107
330
103
100
AcDbEntity
  8
Livello 2
100
AcDbSpline
210
0.0
220
0.0
230
1.0
 70
    11
 71
     3
 72
    29
 73
    25
 74
     0
 42
0.000000001
 43
0.0000000001
 40
0.0
 40
0.0
 40
0.0
 40
0.0
 40
1.0
 40
1.0
 40
1.0
 40
2.0
 40
2.0
 40
2.0
 40
3.0
 40
3.0
 40
3.0
 40
4.0
 40
4.0
 40
4.0
 40
5.0
 40
5.0
 40
5.0
 40
6.0
 40
6.0
 40
6.0
 40
7.0
 40
7.0
 40
7.0
 40
8.0
 40
8.0
 40
8.0
 40
8.0
 10
5.249085285146061
 20
-0.7211962888822009
 30
0.0
 10
5.249085285146061
 20
-0.7211962888822009
 30
0.0
 10
5.248258462229602
 20
-0.7211962888822009
 30
0.0
 10
5.248258462229602
 20
-0.7211962888822009
 30
0.0
 10
5.248258462229602
 20
-0.7211962888822009
 30
0.0
 10
5.200440536894332
 20
-0.7470000540667222
 30
0.0
 10
5.200440536894332
 20
-0.7470000540667222
 30
0.0
 10
5.200440536894332
 20
-0.7470000540667222
 30
0.0
 10
5.193240287330161
 20
-0.718646918223116
 30
0.0
 10
5.193240287330161
 20
-0.718646918223116
 30
0.0
 10
5.193240287330161
 20
-0.718646918223116
 30
0.0
 10
5.253322752592918
 20
-0.6864869518683089
 30
0.0
 10
5.253322752592918
 20
-0.6864869518683089
 30
0.0
 10
5.253322752592918
 20
-0.6864869518683089
 30
0.0
 10
5.28505208201207
 20
-0.6864869518683089
 30
0.0
 10
5.28505208201207
 20
-0.6864869518683089
 30
0.0
 10
5.28505208201207
 20
-0.6864869518683089
 30
0.0
 10
5.28505208201207
 20
-0.9615089244558031
 30
0.0
 10
5.28505208201207
 20
-0.9615089244558031
 30
0.0
 10
5.28505208201207
 20
-0.9615089244558031
 30
0.0
 10
5.249085285146061
 20
-0.9615089244558031
 30
0.0
 10
5.249085285146061
 20
-0.9615089244558031
 30
0.0
 10
5.249085285146061
 20
-0.9615089244558031
 30
0.0
 10
5.249085285146061
 20
-0.7211962888822009
 30
0.0
 10
5.249085285146061
 20
-0.7211962888822009
 30
0.0
  0
HATCH
  5
108
330
103
100
AcDbEntity
  8
Livello 2
 62
   250
420
  1907995
440
 33554687
100
AcDbHatch
 10
0.0
 20
0.0
 30
0.0
210
0.0
220
0.0
230
1.0
  2
SOLID
 70
     1
 71
     1
 91
        1
 92
        1
 93
        1
 72
     4
 94
        3
 73
     0
 74
     0
 95
       29
 96
       25
 40
0.0
 40
0.0
 40
0.0
 40
0.0
 40
1.0
 40
1.0
 40
1.0
 40
2.0
 40
2.0
 40
2.0
 40
3.0
 40
3.0
 40
3.0
 40
4.0
 40
4.0
 40
4.0
 40
5.0
 40
5.0
 40
5.0
 40
6.0
 40
6.0
 40
6.0
 40
7.0
 40
7.0
 40
7.0
 40
8.0
 40
8.0
 40
8.0
 40
8.0
 10
5.249085285146061
 20
-0.7211962888822009
 10
5.249085285146061
 20
-0.7211962888822009
 10
5.248258462229602
 20
-0.7211962888822009
 10
5.248258462229602
 20
-0.7211962888822009
 10
5.248258462229602
 20
-0.7211962888822009
 10
5.200440536894332
 20
-0.7470000540667222
 10
5.200440536894332
 20
-0.7470000540667222
 10
5.200440536894332
 20
-0.7470000540667222
 10
5.193240287330161
 20
-0.718646918223116
 10
5.193240287330161
 20
-0.718646918223116
 10
5.193240287330161
 20
-0.718646918223116
 10
5.253322752592918
 20
-0.6864869518683089
 10
5.253322752592918
 20
-0.6864869518683089
 10
5.253322752592918
 20
-0.6864869518683089
 10
5.28505208201207
 20
-0.6864869518683089
 10
5.28505208201207
 20
-0.6864869518683089
 10
5.28505208201207
 20
-0.6864869518683089
 10
5.28505208201207
 20
-0.9615089244558031
 10
5.28505208201207
 20
-0.9615089244558031
 10
5.28505208201207
 20
-0.9615089244558031
 10
5.249085285146061
 20
-0.9615089244558031
 10
5.249085285146061
 20
-0.9615089244558031
 10
5.249085285146061
 20
-0.9615089244558031
 10
5.249085285146061
 20
-0.7211962888822009
 10
5.249085285146061
 20
-0.7211962888822009
 97
        0
 97
        1
330
107
 75
     2
 76
     1
 98
        1
 10
0.0
 20
0.0
450
        0
451
        0
460
0.0
461
0.0
452
        0
462
0.0
453
        0
470

  0
SPLINE
  5
109
330
103
100
AcDbEntity
  8
Livello 2
100
AcDbSpline
210
0.0
220
0.0
230
1.0
 70
    11
 71
     3
 72
    47
 73
    43
 74
     0
 42
0.000000001
 43
0.0000000001
 40
0.0
 40
0.0
 40
0.0
 40
0.0
 40
1.0
 40
1.0
 40
1.0
 40
2.0
 40
2.0
 40
2.0
 40
3.0
 40
3.0
 40
3.0
 40
4.0
 40
4.0
 40
4.0
 40
5.0
 40
5.0
 40
5.0
 40
6.0
 40
6.0
 40
6.0
 40
7.0
 40
7.0
 40
7.0
 40
8.0
 40
8.0
 40
8.0
 40
9.0
 40
9.0
 40
9.0
 40
10.0
 40
10.0
 40
10.0
 40
11.0
 40
11.0
 40
11.0
 40
12.0
 40
12.0
 40
12.0
 40
13.0
 40
13.0
 40
13.0
 40
14.0
 40
14.0
 40
14.0
 40
14.0
 10
5.385476615407101
 20
-0.9615089244558031
 30
0.0
 10
5.385476615407101
 20
-0.9615089244558031
 30
0.0
 10
5.385476615407101
 20
-0.9386679413885968
 30
0.0
 10
5.385476615407101
 20
-0.9386679413885968
 30
0.0
 10
5.385476615407101
 20
-0.9386679413885968
 30
0.0
 10
5.414656574167167
 20
-0.9103148055449905
 30
0.0
 10
5.414656574167167
 20
-0.9103148055449905
 30
0.0
 10
5.484902071111411
 20
-0.8434627276537176
 30
0.0
 10
5.516631400530563
 20
-0.8079265677233655
 30
0.0
 10
5.517044811988792
 20
-0.7664648435583839
 30
0.0
 10
5.517044811988792
 20
-0.7385423446504338
 30
0.0
 10
5.503505586731761
 20
-0.7127213539884864
 30
0.0
 10
5.462474499502437
 20
-0.7127213539884864
 30
0.0
 10
5.437497557234375
 20
-0.7127213539884864
 30
0.0
 10
5.41675808241317
 20
-0.7254165308516321
 30
0.0
 10
5.404080131027451
 20
-0.7359929739913489
 30
0.0
 10
5.404080131027451
 20
-0.7359929739913489
 30
0.0
 10
5.39222900255819
 20
-0.7097585718711716
 30
0.0
 10
5.39222900255819
 20
-0.7097585718711716
 30
0.0
 10
5.411280380591622
 20
-0.693687201432481
 30
0.0
 10
5.438358831105686
 20
-0.6818360729632215
 30
0.0
 10
5.470088160524838
 20
-0.6818360729632215
 30
0.0
 10
5.529309351916283
 20
-0.6818360729632215
 30
0.0
 10
5.554286294184343
 20
-0.7224537487343171
 30
0.0
 10
5.554286294184343
 20
-0.7618139646532966
 30
0.0
 10
5.554286294184343
 20
-0.8125774466284527
 30
0.0
 10
5.517458223447023
 20
-0.8536257593352043
 30
0.0
 10
5.459511717385121
 20
-0.9094707571511044
 30
0.0
 10
5.459511717385121
 20
-0.9094707571511044
 30
0.0
 10
5.437497557234375
 20
-0.9297795950366523
 30
0.0
 10
5.437497557234375
 20
-0.9297795950366523
 30
0.0
 10
5.437497557234375
 20
-0.9297795950366523
 30
0.0
 10
5.437497557234375
 20
-0.9306236434305382
 30
0.0
 10
5.437497557234375
 20
-0.9306236434305382
 30
0.0
 10
5.437497557234375
 20
-0.9306236434305382
 30
0.0
 10
5.561038681335433
 20
-0.9306236434305382
 30
0.0
 10
5.561038681335433
 20
-0.9306236434305382
 30
0.0
 10
5.561038681335433
 20
-0.9306236434305382
 30
0.0
 10
5.561038681335433
 20
-0.9615089244558031
 30
0.0
 10
5.561038681335433
 20
-0.9615089244558031
 30
0.0
 10
5.561038681335433
 20
-0.9615089244558031
 30
0.0
 10
5.385476615407101
 20
-0.9615089244558031
 30
0.0
 10
5.385476615407101
 20
-0.9615089244558031
 30
0.0
  0
HATCH
  5
10A
330
103
100
AcDbEntity
  8
Livello 2
 62
   250
420
  1907995
440
 33554687
100
AcDbHatch
 10
0.0
 20
0.0
 30
0.0
210
0.0
220
0.0
230
1.0
  2
SOLID
 70
     1
 71
     1
 91
        1
 92
        1
 93
        1
 72
     4
 94
        3
 73
     0
 74
     0
 95
       47
 96
       43
 40
0.0
 40
0.0
 40
0.0
 40
0.0
 40
1.0
 40
1.0
 40
1.0
 40
2.0
 40
2.0
 40
2.0
 40
3.0
 40
3.0
 40
3.0
 40
4.0
 40
4.0
 40
4.0
 40
5.0
 40
5.0
 40
5.0
 40
6.0
 40
6.0
 40
6.0
 40
7.0
 40
7.0
 40
7.0
 40
8.0
 40
8.0
 40
8.0
 40
9.0
 40
9.0
 40
9.0
 40
10.0
 40
10.0
 40
10.0
 40
11.0
 40
11.0
 40
11.0
 40
12.0
 40
12.0
 40
12.0
 40
13.0
 40
13.0
 40
13.0
 40
14.0
 40
14.0
 40
14.0
 40
14.0
 10
5.385476615407101
 20
-0.9615089244558031
 10
5.385476615407101
 20
-0.9615089244558031
 10
5.385476615407101
 20
-0.9386679413885968
 10
5.385476615407101
 20
-0.9386679413885968
 10
5.385476615407101
 20
-0.9386679413885968
 10
5.414656574167167
 20
-0.9103148055449905
 10
5.414656574167167
 20
-0.9103148055449905
 10
5.484902071111411
 20
-0.8434627276537176
 10
5.516631400530563
 20
-0.8079265677233655
 10
5.517044811988792
 20
-0.7664648435583839
 10
5.517044811988792
 20
-0.7385423446504338
 10
5.503505586731761
 20
-0.7127213539884864
 10
5.462474499502437
 20
-0.7127213539884864
 10
5.437497557234375
 20
-0.7127213539884864
 10
5.41675808241317
 20
-0.7254165308516321
 10
5.404080131027451
 20
-0.7359929739913489
 10
5.404080131027451
 20
-0.7359929739913489
 10
5.39222900255819
 20
-0.7097585718711716
 10
5.39222900255819
 20
-0.7097585718711716
 10
5.411280380591622
 20
-0.693687201432481
 10
5.438358831105686
 20
-0.6818360729632215
 10
5.470088160524838
 20
-0.6818360729632215
 10
5.529309351916283
 20
-0.6818360729632215
 10
5.554286294184343
 20
-0.7224537487343171
 10
5.554286294184343
 20
-0.7618139646532966
 10
5.554286294184343
 20
-0.8125774466284527
 10
5.517458223447023
 20
-0.8536257593352043
 10
5.459511717385121
 20
-0.9094707571511044
 10
5.459511717385121
 20
-0.9094707571511044
 10
5.437497557234375
 20
-0.9297795950366523
 10
5.437497557234375
 20
-0.9297795950366523
 10
5.437497557234375
 20
-0.9297795950366523
 10
5.437497557234375
 20
-0.9306236434305382
 10
5.437497557234375
 20
-0.9306236434305382
 10
5.437497557234375
 20
-0.9306236434305382
 10
5.561038681335433
 20
-0.9306236434305382
 10
5.561038681335433
 20
-0.9306236434305382
 10
5.561038681335433
 20
-0.9306236434305382
 10
5.561038681335433
 20
-0.9615089244558031
 10
5.561038681335433
 20
-0.9615089244558031
 10
5.561038681335433
 20
-0.9615089244558031
 10
5.385476615407101
 20
-0.9615089244558031
 10
5.385476615407101
 20
-0.9615089244558031
 97
        0
 97
        1
330
109
 75
     2
 76
     1
 98
        1
 10
0.0
 20
0.0
450
        0
451
        0
460
0.0
461
0.0
452
        0
462
0.0
453
        0
470

  0
ENDBLK
  5
106
330
103
100
AcDbEntity
  8
0
100
AcDbBlockEnd
  0
ENDSEC
  0
SECTION
  2
ENTITIES
  0
LINE
  5
79
330
70
100
AcDbEntity
  8
Livello 1
100
AcDbLine
 10
10.62784833436717
 20
-12.42791579571932
 30
0.0
 11
10.40348218452092
 21
-12.42791579571932
 31
0.0
  0
SPLINE
  5
7A
330
70
100
AcDbEntity
  8
Livello 1
100
AcDbSpline
210
0.0
220
0.0
230
1.0
 70
     8
 71
     3
 72
    14
 73
    10
 74
     0
 42
0.000000001
 43
0.0000000001
 40
0.0
 40
0.0
 40
0.0
 40
0.0
 40
1.0
 40
1.0
 40
1.0
 40
2.0
 40
2.0
 40
2.0
 40
3.0
 40
3.0
 40
3.0
 40
3.0
 10
3.966191092816571
 20
-5.763018631478351
 30
0.0
 10
4.206392839379241
 20
-5.511113384170924
 30
0.0
 10
4.20897666099318
 20
-5.115750189062381
 30
0.0
 10
3.972088665650383
 20
-4.860726995766762
 30
0.0
 10
3.735199593715248
 20
-4.605703802471143
 30
0.0
 10
3.340718935176714
 20
-4.579170915124907
 30
0.0
 10
3.071810930483199
 20
-4.8001740596518
 30
0.0
 10
2.802905078974363
 20
-5.02117666588246
 30
0.0
 10
2.752519480910245
 20
-5.413324887118277
 30
0.0
 10
2.956824409108951
 20
-5.695127776553849
 30
0.0
  0
LINE
  5
7B
330
70
100
AcDbEntity
  8
Livello 1
100
AcDbLine
 10
3.259062636029919
 20
-5.916223373447833
 30
0.0
 11
3.695096529082261
 21
-5.916223373447833
 31
0.0
  0
SPLINE
  5
7C
330
70
100
AcDbEntity
  8
Livello 1
100
AcDbSpline
210
0.0
220
0.0
230
1.0
 70
     8
 71
     3
 72
     8
 73
     4
 74
     0
 42
0.000000001
 43
0.0000000001
 40
0.0
 40
0.0
 40
0.0
 40
0.0
 40
1.0
 40
1.0
 40
1.0
 40
1.0
 10
3.538340378134037
 20
-6.021989823455641
 30
0.0
 10
3.574364234394019
 20
-6.021216022711882
 30
0.0
 10
3.609929462317528
 20
-6.013735051695279
 30
0.0
 10
3.643213391074398
 20
-5.999929773556437
 30
0.0
  0
LINE
  5
7D
330
70
100
AcDbEntity
  8
Livello 1
100
AcDbLine
 10
3.441096098508825
 20
-6.022056706754709
 30
0.0
 11
3.534229948583198
 21
-6.022056706754709
 31
0.0
  0
SPLINE
  5
7E
330
70
100
AcDbEntity
  8
Livello 1
100
AcDbSpline
210
0.0
220
0.0
230
1.0
 70
     8
 71
     3
 72
     8
 73
     4
 74
     0
 42
0.000000001
 43
0.0000000001
 40
0.0
 40
0.0
 40
0.0
 40
0.0
 40
1.0
 40
1.0
 40
1.0
 40
1.0
 10
3.346176181743818
 20
-6.002183081322258
 30
0.0
 10
3.377850604953673
 20
-6.014555280483661
 30
0.0
 10
3.411454281635268
 20
-6.021259624701619
 30
0.0
 10
3.445453067705327
 20
-6.021989823455641
 30
0.0
  0
LWPOLYLINE
  5
7F
330
70
100
AcDbEntity
  8
Livello 1
100
AcDbPolyline
 90
        4
 70
     0
 43
0.0
 10
3.394529173471638
 20
-6.110956722881369
 10
3.5511625928932
 20
-6.110956722881369
 10
3.5511625928932
 20
-6.022056706754709
 10
3.428396615276323
 20
-6.022056706754709
  0
SPLINE
  5
80
330
70
100
AcDbEntity
  8
Livello 1
100
AcDbSpline
210
0.0
220
0.0
230
1.0
 70
     8
 71
     3
 72
    17
 73
    13
 74
     0
 42
0.000000001
 43
0.0000000001
 40
0.0
 40
0.0
 40
0.0
 40
0.0
 40
1.0
 40
1.0
 40
1.0
 40
2.0
 40
2.0
 40
2.0
 40
3.0
 40
3.0
 40
3.0
 40
4.0
 40
4.0
 40
4.0
 40
4.0
 10
4.091237293007748
 20
-6.631818825259698
 30
0.0
 10
4.277932400315133
 20
-6.60618906431199
 30
0.0
 10
4.427327889440653
 20
-6.464055325088017
 30
0.0
 10
4.46221917055986
 20
-6.278867985351598
 30
0.0
 10
4.497112604863745
 20
-6.093680645615181
 30
0.0
 10
4.409685770779188
 20
-5.906925383710848
 30
0.0
 10
4.245120019002806
 20
-5.815111570418302
 30
0.0
 10
4.080553190634118
 20
-5.723297757125759
 30
0.0
 10
3.87571319604289
 20
-5.746993823658327
 30
0.0
 10
3.736454900382685
 20
-5.873954070454455
 30
0.0
 10
3.597196604722512
 20
-6.000914317250582
 30
0.0
 10
3.554716424204737
 20
-6.202697327894852
 30
0.0
 10
3.630966076624336
 20
-6.375027598195125
 30
0.0
  0
LINE
  5
81
330
70
100
AcDbEntity
  8
Livello 1
100
AcDbLine
 10
6.988629344827888
 20
-6.110956722881369
 30
0.0
 11
4.461329905287731
 21
-6.110956722881369
 31
0.0
  0
LINE
  5
82
330
70
100
AcDbEntity
  8
Livello 1
100
AcDbLine
 10
6.988629344827888
 20
-6.284523324909105
 30
0.0
 11
4.461329905287731
 21
-6.284523324909105
 31
0.0
  0
SPLINE
  5
83
330
70
100
AcDbEntity
  8
Livello 1
100
AcDbSpline
210
0.0
220
0.0
230
1.0
 70
     8
 71
     3
 72
    17
 73
    13
 74
     0
 42
0.000000001
 43
0.0000000001
 40
0.0
 40
0.0
 40
0.0
 40
0.0
 40
1.0
 40
1.0
 40
1.0
 40
2.0
 40
2.0
 40
2.0
 40
3.0
 40
3.0
 40
3.0
 40
4.0
 40
4.0
 40
4.0
 40
4.0
 10
7.624647801021964
 20
-5.801173871421747
 30
0.0
 10
7.783423639198417
 20
-5.639822420647941
 30
0.0
 10
7.821429501954757
 20
-5.395105445814917
 30
0.0
 10
7.719075715087984
 20
-5.193197281311221
 30
0.0
 10
7.616721928221212
 20
-4.991289385955612
 30
0.0
 10
7.39686670027596
 20
-4.877291714644862
 30
0.0
 10
7.172870898194371
 20
-4.909980826134358
 30
0.0
 10
6.948872942928105
 20
-4.942670475920023
 30
0.0
 10
6.770767965894722
 20
-5.114744651817623
 30
0.0
 10
6.730382834068882
 20
-5.33748326319518
 30
0.0
 10
6.689999855427719
 20
-5.560221874572738
 30
0.0
 10
6.796360718980772
 20
-5.783870610198993
 30
0.0
 10
6.994623810972222
 20
-5.893117548665199
 30
0.0
  0
LINE
  5
84
330
70
100
AcDbEntity
  8
Livello 1
100
AcDbLine
 10
6.984396183750387
 20
-5.895056760616077
 30
0.0
 11
7.111395322444766
 21
-5.895056760616077
 31
0.0
  0
SPLINE
  5
85
330
70
100
AcDbEntity
  8
Livello 1
100
AcDbSpline
210
0.0
220
0.0
230
1.0
 70
     8
 71
     3
 72
     8
 73
     4
 74
     0
 42
0.000000001
 43
0.0000000001
 40
0.0
 40
0.0
 40
0.0
 40
0.0
 40
1.0
 40
1.0
 40
1.0
 40
1.0
 10
6.982873882182842
 20
-5.895342595882119
 30
0.0
 10
7.004627506987517
 20
-5.921734853354022
 30
0.0
 10
7.03087913458512
 20
-5.944071049188213
 30
0.0
 10
7.060412215632425
 20
-5.961318327609332
 30
0.0
  0
SPLINE
  5
86
330
70
100
AcDbEntity
  8
Livello 1
100
AcDbSpline
210
0.0
220
0.0
230
1.0
 70
     8
 71
     3
 72
     8
 73
     4
 74
     0
 42
0.000000001
 43
0.0000000001
 40
0.0
 40
0.0
 40
0.0
 40
0.0
 40
1.0
 40
1.0
 40
1.0
 40
1.0
 10
6.906722199666074
 20
-6.367712826120878
 30
0.0
 10
6.913825555919721
 20
-6.388557806991316
 30
0.0
 10
6.922227282534376
 20
-6.408937027101037
 30
0.0
 10
6.931877856262432
 20
-6.428731119274432
 30
0.0
  0
SPLINE
  5
87
330
70
100
AcDbEntity
  8
Livello 1
100
AcDbSpline
210
0.0
220
0.0
230
1.0
 70
     8
 71
     3
 72
    11
 73
     7
 74
     0
 42
0.000000001
 43
0.0000000001
 40
0.0
 40
0.0
 40
0.0
 40
0.0
 40
1.0
 40
1.0
 40
1.0
 40
2.0
 40
2.0
 40
2.0
 40
2.0
 10
7.558366317070436
 20
-6.702168617086798
 30
0.0
 10
7.758590960303799
 20
-6.641535609416612
 30
0.0
 10
7.904001981182161
 20
-6.468217431071133
 30
0.0
 10
7.928912174725196
 20
-6.260500916323731
 30
0.0
 10
7.953824521452909
 20
-6.052784536150374
 30
0.0
 10
7.853522719584536
 20
-5.849997468575813
 30
0.0
 10
7.673314081120476
 20
-5.743737535554553
 30
0.0
  0
SPLINE
  5
88
330
70
100
AcDbEntity
  8
Livello 1
100
AcDbSpline
210
0.0
220
0.0
230
1.0
 70
     8
 71
     3
 72
     8
 73
     4
 74
     0
 42
0.000000001
 43
0.0000000001
 40
0.0
 40
0.0
 40
0.0
 40
0.0
 40
1.0
 40
1.0
 40
1.0
 40
1.0
 10
6.979857270448571
 20
-5.887073559273264
 30
0.0
 10
6.948521973825545
 20
-5.930015059608394
 30
0.0
 10
6.923865856074547
 20
-5.977449583496886
 30
0.0
 10
6.906722199666074
 20
-6.027767221669596
 30
0.0
  0
SPLINE
  5
89
330
70
100
AcDbEntity
  8
Livello 1
100
AcDbSpline
210
0.0
220
0.0
230
1.0
 70
     8
 71
     3
 72
     8
 73
     4
 74
     0
 42
0.000000001
 43
0.0000000001
 40
0.0
 40
0.0
 40
0.0
 40
0.0
 40
1.0
 40
1.0
 40
1.0
 40
1.0
 10
6.873606219314107
 20
-6.422830989533816
 30
0.0
 10
6.901653602933398
 20
-6.38098263414504
 30
0.0
 10
6.921635156747848
 20
-6.334260276088889
 30
0.0
 10
6.93251735211188
 20
-6.285070637539514
 30
0.0
  0
SPLINE
  5
8A
330
70
100
AcDbEntity
  8
Livello 1
100
AcDbSpline
210
0.0
220
0.0
230
1.0
 70
     8
 71
     3
 72
     8
 73
     4
 74
     0
 42
0.000000001
 43
0.0000000001
 40
0.0
 40
0.0
 40
0.0
 40
0.0
 40
1.0
 40
1.0
 40
1.0
 40
1.0
 10
6.93251735211188
 20
-6.110409410250959
 30
0.0
 10
6.921635156747848
 20
-6.061219771701583
 30
0.0
 10
6.901653602933398
 20
-6.014497413645432
 30
0.0
 10
6.873606219314107
 20
-5.972649058256656
 30
0.0
  0
SPLINE
  5
8B
330
70
100
AcDbEntity
  8
Livello 1
100
AcDbSpline
210
0.0
220
0.0
230
1.0
 70
     8
 71
     3
 72
    11
 73
     7
 74
     0
 42
0.000000001
 43
0.0000000001
 40
0.0
 40
0.0
 40
0.0
 40
0.0
 40
1.0
 40
1.0
 40
1.0
 40
2.0
 40
2.0
 40
2.0
 40
2.0
 10
6.857803996960203
 20
-6.420778062517117
 30
0.0
 10
6.858930112546945
 20
-6.424724715458362
 30
0.0
 10
6.862235251028105
 20
-6.427664216266344
 30
0.0
 10
6.866287544592633
 20
-6.428320533871094
 30
0.0
 10
6.870337684972477
 20
-6.428976851475843
 30
0.0
 10
6.874402897645071
 20
-6.427231426146009
 30
0.0
 10
6.876719724358902
 20
-6.423842178888353
 30
0.0
  0
LINE
  5
8C
330
70
100
AcDbEntity
  8
Livello 1
100
AcDbLine
 10
6.857397045056009
 20
-5.975490050865607
 30
0.0
 11
6.844695408638829
 21
-6.110956722881369
 31
0.0
  0
LINE
  5
8D
330
70
100
AcDbEntity
  8
Livello 1
100
AcDbLine
 10
6.844695408638829
 20
-6.284523324909105
 30
0.0
 11
6.857397045056009
 21
-6.419989996924866
 31
0.0
  0
SPLINE
  5
8E
330
70
100
AcDbEntity
  8
Livello 1
100
AcDbSpline
210
0.0
220
0.0
230
1.0
 70
     8
 71
     3
 72
     8
 73
     4
 74
     0
 42
0.000000001
 43
0.0000000001
 40
0.0
 40
0.0
 40
0.0
 40
0.0
 40
1.0
 40
1.0
 40
1.0
 40
1.0
 10
6.876719724358902
 20
-5.967404438676535
 30
0.0
 10
6.874374906244255
 20
-5.96397320431765
 30
0.0
 10
6.870240791661956
 20
-5.96223060504271
 30
0.0
 10
6.866147587588542
 20
-5.962949768725255
 30
0.0
  0
SPLINE
  5
8F
330
70
100
AcDbEntity
  8
Livello 1
100
AcDbSpline
210
0.0
220
0.0
230
1.0
 70
     8
 71
     3
 72
    14
 73
    10
 74
     0
 42
0.000000001
 43
0.0000000001
 40
0.0
 40
0.0
 40
0.0
 40
0.0
 40
1.0
 40
1.0
 40
1.0
 40
2.0
 40
2.0
 40
2.0
 40
3.0
 40
3.0
 40
3.0
 40
3.0
 10
6.893714811024577
 20
-6.476752385987755
 30
0.0
 10
6.699387740625025
 20
-6.611311086939494
 30
0.0
 10
6.646819889889469
 20
-6.875750695129407
 30
0.0
 10
6.774904233661701
 20
-7.074403177112519
 30
0.0
 10
6.902986424249255
 20
-7.273055591808612
 30
0.0
 10
7.165552223472893
 20
-7.334307976508909
 30
0.0
 10
7.368317624626629
 20
-7.212837543198142
 30
0.0
 10
7.571080872595686
 20
-7.091367042600357
 30
0.0
 10
7.640949562221232
 20
-6.830963040793712
 30
0.0
 10
7.526223576193054
 20
-6.624307575083557
 30
0.0
  0
LINE
  5
90
330
70
100
AcDbEntity
  8
Livello 1
100
AcDbLine
 10
7.094462678134763
 20
-6.479256674342638
 30
0.0
 11
6.878562850443512
 21
-6.479256674342638
 31
0.0
  0
SPLINE
  5
91
330
70
100
AcDbEntity
  8
Livello 1
100
AcDbSpline
210
0.0
220
0.0
230
1.0
 70
     8
 71
     3
 72
     8
 73
     4
 74
     0
 42
0.000000001
 43
0.0000000001
 40
0.0
 40
0.0
 40
0.0
 40
0.0
 40
1.0
 40
1.0
 40
1.0
 40
1.0
 10
7.024120287879997
 20
-6.380711063727492
 30
0.0
 10
6.968135333060008
 20
-6.396981065452754
 30
0.0
 10
6.918355856482826
 20
-6.42974849903492
 30
0.0
 10
6.881275863138147
 20
-6.474737408851012
 30
0.0
  0
SPLINE
  5
92
330
70
100
AcDbEntity
  8
Livello 1
100
AcDbSpline
210
0.0
220
0.0
230
1.0
 70
     8
 71
     3
 72
    11
 73
     7
 74
     0
 42
0.000000001
 43
0.0000000001
 40
0.0
 40
0.0
 40
0.0
 40
0.0
 40
1.0
 40
1.0
 40
1.0
 40
2.0
 40
2.0
 40
2.0
 40
2.0
 10
4.146912189234065
 20
-6.620978482422851
 30
0.0
 10
4.263591113765441
 20
-6.652222537845132
 30
0.0
 10
4.387992435145473
 20
-6.633912528211242
 30
0.0
 10
4.490720876146268
 20
-6.570375143558142
 30
0.0
 10
4.593448240554722
 20
-6.50683775890504
 30
0.0
 10
4.665390447025452
 20
-6.403709902146425
 30
0.0
 10
4.689545949338747
 20
-6.285360106304701
 30
0.0
  0
SPLINE
  5
93
330
70
100
AcDbEntity
  8
Livello 1
100
AcDbSpline
210
0.0
220
0.0
230
1.0
 70
     8
 71
     3
 72
    11
 73
     7
 74
     0
 42
0.000000001
 43
0.0000000001
 40
0.0
 40
0.0
 40
0.0
 40
0.0
 40
1.0
 40
1.0
 40
1.0
 40
2.0
 40
2.0
 40
2.0
 40
2.0
 10
4.689545949338747
 20
-6.110119941485772
 30
0.0
 10
4.665390447025452
 20
-5.991770145644048
 30
0.0
 10
4.593448240554722
 20
-5.888642423459477
 30
0.0
 10
4.490720876146268
 20
-5.825104904232331
 30
0.0
 10
4.387992435145473
 20
-5.761567519579231
 30
0.0
 10
4.263591113765441
 20
-5.74325750994534
 30
0.0
 10
4.146912189234065
 20
-5.774501565367623
 30
0.0
  0
LINE
  5
94
330
70
100
AcDbEntity
  8
Livello 1
100
AcDbLine
 10
3.695096529082261
 20
-6.479256674342638
 30
0.0
 11
3.441096098508825
 21
-6.479256674342638
 31
0.0
  0
SPLINE
  5
95
330
70
100
AcDbEntity
  8
Livello 1
100
AcDbSpline
210
0.0
220
0.0
230
1.0
 70
     8
 71
     3
 72
     8
 73
     4
 74
     0
 42
0.000000001
 43
0.0000000001
 40
0.0
 40
0.0
 40
0.0
 40
0.0
 40
1.0
 40
1.0
 40
1.0
 40
1.0
 10
3.629522366297548
 20
-6.371661901394888
 30
0.0
 10
3.555832850460392
 20
-6.381274659817032
 30
0.0
 10
3.488510301716916
 20
-6.418416557221211
 30
0.0
 10
3.441081026216078
 20
-6.47562600125293
 30
0.0
  0
LINE
  5
96
330
70
100
AcDbEntity
  8
Livello 1
100
AcDbLine
 10
3.601962679007888
 20
-6.284523324909105
 30
0.0
 11
3.394529173471638
 21
-6.284523324909105
 31
0.0
  0
SPLINE
  5
97
330
70
100
AcDbEntity
  8
Livello 1
100
AcDbSpline
210
0.0
220
0.0
230
1.0
 70
     8
 71
     3
 72
    11
 73
     7
 74
     0
 42
0.000000001
 43
0.0000000001
 40
0.0
 40
0.0
 40
0.0
 40
0.0
 40
1.0
 40
1.0
 40
1.0
 40
2.0
 40
2.0
 40
2.0
 40
2.0
 10
6.864293695580544
 20
-5.966790646469182
 30
0.0
 10
6.769616012091843
 20
-5.812111915013371
 30
0.0
 10
6.59012223094097
 20
-5.730884772487767
 30
0.0
 10
6.411433740859773
 20
-5.761855104307824
 30
0.0
 10
6.2327430975939
 20
-5.792825436127881
 30
0.0
 10
6.091053856431947
 20
-5.929719535011301
 30
0.0
 10
6.053951254648146
 20
-6.107238038367936
 30
0.0
  0
SPLINE
  5
98
330
70
100
AcDbEntity
  8
Livello 1
100
AcDbSpline
210
0.0
220
0.0
230
1.0
 70
     8
 71
     3
 72
    11
 73
     7
 74
     0
 42
0.000000001
 43
0.0000000001
 40
0.0
 40
0.0
 40
0.0
 40
0.0
 40
1.0
 40
1.0
 40
1.0
 40
2.0
 40
2.0
 40
2.0
 40
2.0
 10
6.053447409433427
 20
-6.285360106304701
 30
0.0
 10
6.08962306521323
 20
-6.462612691353568
 30
0.0
 10
6.231020549851275
 20
-6.599406667149446
 30
0.0
 10
6.409370989937981
 20
-6.629702379294991
 30
0.0
 10
6.587723583209365
 20
-6.659998091440535
 30
0.0
 10
6.766356090488924
 20
-6.577565703791261
 30
0.0
 10
6.859033465411503
 20
-6.422201048441375
 30
0.0
  0
LINE
  5
99
330
70
100
AcDbEntity
  8
Livello 1
100
AcDbLine
 10
3.555395753970701
 20
-6.110956722881369
 30
0.0
 11
3.601962679007888
 21
-6.110956722881369
 31
0.0
  0
LWPOLYLINE
  5
9A
330
70
100
AcDbEntity
  8
Livello 1
100
AcDbPolyline
 90
        5
 70
     0
 43
0.0
 10
5.130196270341325
 20
-6.110956722881369
 10
5.252963324550542
 20
-6.110956722881369
 10
5.252963324550542
 20
-6.022056706754709
 10
5.130196270341325
 20
-6.022056706754709
 10
5.130196270341325
 20
-6.110956722881369
  0
LINE
  5
9B
330
70
100
AcDbEntity
  8
Livello 1
100
AcDbLine
 10
5.138662592496325
 20
-6.005123389574495
 30
0.0
 11
5.2444959258032
 21
-6.005123389574495
 31
0.0
  0
LINE
  5
9C
330
70
100
AcDbEntity
  8
Livello 1
100
AcDbLine
 10
5.138662592496325
 20
-6.022056706754709
 30
0.0
 11
5.159829474476168
 21
-6.022056706754709
 31
0.0
  0
LWPOLYLINE
  5
9D
330
70
100
AcDbEntity
  8
Livello 1
100
AcDbPolyline
 90
        3
 70
     0
 43
0.0
 10
5.227563281493198
 20
-6.022056706754709
 10
5.2444959258032
 20
-6.022056706754709
 10
5.2444959258032
 20
-6.005123389574495
  0
LINE
  5
9E
330
70
100
AcDbEntity
  8
Livello 1
100
AcDbLine
 10
5.138662592496325
 20
-6.022056706754709
 30
0.0
 11
5.138662592496325
 21
-6.005123389574495
 31
0.0
  0
LWPOLYLINE
  5
9F
330
70
100
AcDbEntity
  8
Livello 1
100
AcDbPolyline
 90
        3
 70
     0
 43
0.0
 10
7.014030464477571
 20
-6.022056706754709
 10
7.005561989137891
 20
-6.022056706754709
 10
7.005561989137891
 20
-6.047456749812051
  0
LWPOLYLINE
  5
A0
330
70
100
AcDbEntity
  8
Livello 1
100
AcDbPolyline
 90
        3
 70
     0
 43
0.0
 10
7.014030464477571
 20
-6.022056706754709
 10
7.014030464477571
 20
-6.005123389574495
 10
7.022496786632572
 20
-6.005123389574495
  0
SPLINE
  5
A1
330
70
100
AcDbEntity
  8
Livello 1
100
AcDbSpline
210
0.0
220
0.0
230
1.0
 70
     8
 71
     3
 72
    17
 73
    13
 74
     0
 42
0.000000001
 43
0.0000000001
 40
0.0
 40
0.0
 40
0.0
 40
0.0
 40
1.0
 40
1.0
 40
1.0
 40
2.0
 40
2.0
 40
2.0
 40
3.0
 40
3.0
 40
3.0
 40
4.0
 40
4.0
 40
4.0
 40
4.0
 10
3.283035117645562
 20
-5.948546981838191
 30
0.0
 10
3.166961238008783
 20
-5.736886909352516
 30
0.0
 10
2.921928821620388
 20
-5.631139972580861
 30
0.0
 10
2.688296441511153
 20
-5.691880504910916
 30
0.0
 10
2.454665137994256
 20
-5.752621037240972
 30
0.0
 10
2.292164290324378
 20
-5.964320270772982
 30
0.0
 10
2.293876072143611
 20
-6.205712593888701
 30
0.0
 10
2.295588930555184
 20
-6.447104782430374
 30
0.0
 10
2.461077321966179
 20
-6.656476961621332
 30
0.0
 10
2.695548367507603
 20
-6.713896475733224
 30
0.0
 10
2.930017259864352
 20
-6.77131598984512
 30
0.0
 10
3.173525221500522
 20
-6.662102964037597
 30
0.0
 10
3.28658464258771
 20
-6.448817237119821
 30
0.0
  0
LWPOLYLINE
  5
A2
330
70
100
AcDbEntity
  8
Livello 1
100
AcDbPolyline
 90
        4
 70
     0
 43
0.0
 10
3.474962463721171
 20
-6.259123416425802
 10
3.390296012394138
 20
-6.259123416425802
 10
3.390296012394138
 20
-6.13635663136467
 10
3.474962463721171
 20
-6.13635663136467
  0
SPLINE
  5
A3
330
70
100
AcDbEntity
  8
Livello 1
100
AcDbSpline
210
0.0
220
0.0
230
1.0
 70
     8
 71
     3
 72
     8
 73
     4
 74
     0
 42
0.000000001
 43
0.0000000001
 40
0.0
 40
0.0
 40
0.0
 40
0.0
 40
1.0
 40
1.0
 40
1.0
 40
1.0
 10
3.390229263669111
 20
-6.149179518994047
 30
0.0
 10
3.388416282169998
 20
-6.064766739736925
 30
0.0
 10
3.349903344421923
 20
-5.985335891529175
 30
0.0
 10
3.284749052649475
 20
-5.931635061930717
 30
0.0
  0
SPLINE
  5
A4
330
70
100
AcDbEntity
  8
Livello 1
100
AcDbSpline
210
0.0
220
0.0
230
1.0
 70
     8
 71
     3
 72
     8
 73
     4
 74
     0
 42
0.000000001
 43
0.0000000001
 40
0.0
 40
0.0
 40
0.0
 40
0.0
 40
1.0
 40
1.0
 40
1.0
 40
1.0
 10
3.284749052649475
 20
-6.459611690208213
 30
0.0
 10
3.349903344421923
 20
-6.405910726035712
 30
0.0
 10
3.388416282169998
 20
-6.326480012402006
 30
0.0
 10
3.390229263669111
 20
-6.242067233144884
 30
0.0
  0
LINE
  5
A5
330
70
100
AcDbEntity
  8
Livello 1
100
AcDbLine
 10
3.390729879106811
 20
-6.143297556749152
 30
0.0
 11
3.390627602834593
 21
-6.143342504479313
 31
0.0
  0
LINE
  5
A6
330
70
100
AcDbEntity
  8
Livello 1
100
AcDbLine
 10
3.394529173471638
 20
-6.284523324909105
 30
0.0
 11
3.394529173471638
 21
-6.259123416425802
 31
0.0
  0
LINE
  5
A7
330
70
100
AcDbEntity
  8
Livello 1
100
AcDbLine
 10
3.394529173471638
 20
-6.13635663136467
 30
0.0
 11
3.394529173471638
 21
-6.110956722881369
 31
0.0
  0
SPLINE
  5
A8
330
70
100
AcDbEntity
  8
Livello 1
100
AcDbSpline
210
0.0
220
0.0
230
1.0
 70
     8
 71
     3
 72
    11
 73
     7
 74
     0
 42
0.000000001
 43
0.0000000001
 40
0.0
 40
0.0
 40
0.0
 40
0.0
 40
1.0
 40
1.0
 40
1.0
 40
2.0
 40
2.0
 40
2.0
 40
2.0
 10
3.286579259626013
 20
-5.933156690628049
 30
0.0
 10
3.28073443981682
 20
-5.933156690628049
 30
0.0
 10
3.275996356932261
 20
-6.051614683999856
 30
0.0
 10
3.275996356932261
 20
-6.197740023895237
 30
0.0
 10
3.275996356932261
 20
-6.34386549836466
 30
0.0
 10
3.28073443981682
 20
-6.462323357162424
 30
0.0
 10
3.286579259626013
 20
-6.462323357162424
 30
0.0
  0
SPLINE
  5
A9
330
70
100
AcDbEntity
  8
Livello 1
100
AcDbSpline
210
0.0
220
0.0
230
1.0
 70
     8
 71
     3
 72
    11
 73
     7
 74
     0
 42
0.000000001
 43
0.0000000001
 40
0.0
 40
0.0
 40
0.0
 40
0.0
 40
1.0
 40
1.0
 40
1.0
 40
2.0
 40
2.0
 40
2.0
 40
2.0
 10
3.47708012085226
 20
-6.259123416425802
 30
0.0
 10
3.480586582100841
 20
-6.259123416425802
 30
0.0
 10
3.483429862468511
 20
-6.231641243784562
 30
0.0
 10
3.483429862468511
 20
-6.197740023895237
 30
0.0
 10
3.483429862468511
 20
-6.163838938579955
 30
0.0
 10
3.480586582100841
 20
-6.13635663136467
 30
0.0
 10
3.47708012085226
 20
-6.13635663136467
 30
0.0
  0
SPLINE
  5
AA
330
70
100
AcDbEntity
  8
Livello 1
100
AcDbSpline
210
0.0
220
0.0
230
1.0
 70
     8
 71
     3
 72
    11
 73
     7
 74
     0
 42
0.000000001
 43
0.0000000001
 40
0.0
 40
0.0
 40
0.0
 40
0.0
 40
1.0
 40
1.0
 40
1.0
 40
2.0
 40
2.0
 40
2.0
 40
2.0
 10
6.986023991367168
 20
-6.139751261584023
 30
0.0
 10
6.969842808509884
 20
-6.148324300954642
 30
0.0
 10
6.958997217285382
 20
-6.171598074142183
 30
0.0
 10
6.958997217285382
 20
-6.197740023895237
 30
0.0
 10
6.958997217285382
 20
-6.223882108222332
 30
0.0
 10
6.969842808509884
 20
-6.247155881409874
 30
0.0
 10
6.986023991367168
 20
-6.255728920780492
 30
0.0
  0
SPLINE
  5
AB
330
70
100
AcDbEntity
  8
Livello 1
100
AcDbSpline
210
0.0
220
0.0
230
1.0
 70
     8
 71
     3
 72
     8
 73
     4
 74
     0
 42
0.000000001
 43
0.0000000001
 40
0.0
 40
0.0
 40
0.0
 40
0.0
 40
1.0
 40
1.0
 40
1.0
 40
1.0
 10
7.034935734519002
 20
-5.983439743271864
 30
0.0
 10
6.961904016601063
 20
-6.116973932038867
 30
0.0
 10
6.961904016601063
 20
-6.278506115751604
 30
0.0
 10
7.034935734519002
 20
-6.41204030451861
 30
0.0
  0
LINE
  5
AC
330
70
100
AcDbEntity
  8
Livello 1
100
AcDbLine
 10
7.047895753097576
 20
-5.98819007239428
 30
0.0
 11
7.047895753097576
 21
-6.41152340562178
 31
0.0
  0
SPLINE
  5
AD
330
70
100
AcDbEntity
  8
Livello 1
100
AcDbSpline
210
0.0
220
0.0
230
1.0
 70
     8
 71
     3
 72
    17
 73
    13
 74
     0
 42
0.000000001
 43
0.0000000001
 40
0.0
 40
0.0
 40
0.0
 40
0.0
 40
1.0
 40
1.0
 40
1.0
 40
2.0
 40
2.0
 40
2.0
 40
3.0
 40
3.0
 40
3.0
 40
4.0
 40
4.0
 40
4.0
 40
4.0
 10
7.04914460021098
 20
-6.412569449653297
 30
0.0
 10
7.146823823141204
 20
-6.586197282870321
 30
0.0
 10
7.349337301687581
 20
-6.672073689412504
 30
0.0
 10
7.542053789947778
 20
-6.621586218798295
 30
0.0
 10
7.734765971838619
 20
-6.571098748184086
 30
0.0
 10
7.869163453087572
 20
-6.396957918717463
 30
0.0
 10
7.869163453087572
 20
-6.197740023895237
 30
0.0
 10
7.869163453087572
 20
-5.998522129073013
 30
0.0
 10
7.734765971838619
 20
-5.824381299606387
 30
0.0
 10
7.542053789947778
 20
-5.773893828992178
 30
0.0
 10
7.349337301687581
 20
-5.723406358377968
 30
0.0
 10
7.146823823141204
 20
-5.809282764920153
 30
0.0
 10
7.04914460021098
 20
-5.982910598137177
 30
0.0
  0
SPLINE
  5
AE
330
70
100
AcDbEntity
  8
Livello 1
100
AcDbSpline
210
0.0
220
0.0
230
1.0
 70
     8
 71
     3
 72
    11
 73
     7
 74
     0
 42
0.000000001
 43
0.0000000001
 40
0.0
 40
0.0
 40
0.0
 40
0.0
 40
1.0
 40
1.0
 40
1.0
 40
2.0
 40
2.0
 40
2.0
 40
2.0
 10
7.051721962270883
 20
-5.983168576576442
 30
0.0
 10
7.05059584668414
 20
-5.979221923635196
 30
0.0
 10
7.04729070820298
 20
-5.976282557401257
 30
0.0
 10
7.043238414638454
 20
-5.975626239796508
 30
0.0
 10
7.039188274258608
 20
-5.974969922191759
 30
0.0
 10
7.035120908401335
 20
-5.976715347521592
 30
0.0
 10
7.032806234872182
 20
-5.980104460205207
 30
0.0
  0
SPLINE
  5
AF
330
70
100
AcDbEntity
  8
Livello 1
100
AcDbSpline
210
0.0
220
0.0
230
1.0
 70
     8
 71
     3
 72
    11
 73
     7
 74
     0
 42
0.000000001
 43
0.0000000001
 40
0.0
 40
0.0
 40
0.0
 40
0.0
 40
1.0
 40
1.0
 40
1.0
 40
2.0
 40
2.0
 40
2.0
 40
2.0
 10
7.032806234872182
 20
-6.411142291933723
 30
0.0
 10
7.035120908401335
 20
-6.414531404617338
 30
0.0
 10
7.039188274258608
 20
-6.41627682994717
 30
0.0
 10
7.043238414638454
 20
-6.415620512342423
 30
0.0
 10
7.04729070820298
 20
-6.414964194737672
 30
0.0
 10
7.05059584668414
 20
-6.412024693929692
 30
0.0
 10
7.051721962270883
 20
-6.408078040988445
 30
0.0
  0
LWPOLYLINE
  5
B0
330
70
100
AcDbEntity
  8
Livello 1
100
AcDbPolyline
 90
        4
 70
     0
 43
0.0
 10
3.585030034697886
 20
-6.110956722881369
 10
3.428396615276323
 20
-6.110956722881369
 10
3.428396615276323
 20
-6.022056706754709
 10
3.5469294318157
 20
-6.022056706754709
  0
LWPOLYLINE
  5
B1
330
70
100
AcDbEntity
  8
Livello 1
100
AcDbPolyline
 90
        5
 70
     0
 43
0.0
 10
4.842329474555576
 20
-1.606690315722931
 10
5.896429646546794
 20
-1.606690315722931
 10
5.896429646546794
 20
-1.344223562994494
 10
4.842329474555576
 20
-1.344223562994494
 10
4.842329474555576
 20
-1.606690315722931
  0
LINE
  5
B2
330
70
100
AcDbEntity
  8
Livello 1
100
AcDbLine
 10
5.138662592496325
 20
-1.66595672399262
 30
0.0
 11
5.138662592496325
 21
-1.632090358780275
 31
0.0
  0
LINE
  5
B3
330
70
100
AcDbEntity
  8
Livello 1
100
AcDbLine
 10
5.104796227283981
 20
-1.66595672399262
 30
0.0
 11
5.104796227283981
 21
-1.632090358780275
 31
0.0
  0
LINE
  5
B4
330
70
100
AcDbEntity
  8
Livello 1
100
AcDbLine
 10
5.070929862071636
 20
-1.615156637877933
 30
0.0
 11
5.17253003430101
 21
-1.615156637877933
 31
0.0
  0
LINE
  5
B5
330
70
100
AcDbEntity
  8
Livello 1
100
AcDbLine
 10
5.100563066206481
 20
-1.632090358780275
 30
0.0
 11
5.142895753573827
 21
-1.632090358780275
 31
0.0
  0
LWPOLYLINE
  5
B6
330
70
100
AcDbEntity
  8
Livello 1
100
AcDbPolyline
 90
        4
 70
     0
 43
0.0
 10
5.070929862071636
 20
-1.615156637877933
 10
5.070929862071636
 20
-1.606690315722931
 10
5.17253003430101
 20
-1.606690315722931
 10
5.17253003430101
 20
-1.615156637877933
  0
LINE
  5
B7
330
70
100
AcDbEntity
  8
Livello 1
100
AcDbLine
 10
5.104796227283981
 20
-1.66595672399262
 30
0.0
 11
5.138662592496325
 21
-1.66595672399262
 31
0.0
  0
SPLINE
  5
B8
330
70
100
AcDbEntity
  8
Livello 1
100
AcDbSpline
210
0.0
220
0.0
230
1.0
 70
     8
 71
     3
 72
     8
 73
     4
 74
     0
 42
0.000000001
 43
0.0000000001
 40
0.0
 40
0.0
 40
0.0
 40
0.0
 40
1.0
 40
1.0
 40
1.0
 40
1.0
 10
5.073032446909977
 20
-1.61354228766539
 30
0.0
 10
5.079647030241657
 20
-1.623884571971345
 30
0.0
 10
5.090623965731534
 20
-1.630638574010944
 30
0.0
 10
5.102836829226744
 20
-1.63188311475499
 30
0.0
  0
SPLINE
  5
B9
330
70
100
AcDbEntity
  8
Livello 1
100
AcDbSpline
210
0.0
220
0.0
230
1.0
 70
     8
 71
     3
 72
     8
 73
     4
 74
     0
 42
0.000000001
 43
0.0000000001
 40
0.0
 40
0.0
 40
0.0
 40
0.0
 40
1.0
 40
1.0
 40
1.0
 40
1.0
 10
5.144856228223402
 20
-1.63188311475499
 30
0.0
 10
5.157069091718613
 20
-1.630638574010944
 30
0.0
 10
5.168044950616151
 20
-1.623884571971345
 30
0.0
 10
5.17465953394783
 20
-1.61354228766539
 30
0.0
  0
SPLINE
  5
BA
330
70
100
AcDbEntity
  8
Livello 1
100
AcDbSpline
210
0.0
220
0.0
230
1.0
 70
     8
 71
     3
 72
     8
 73
     4
 74
     0
 42
0.000000001
 43
0.0000000001
 40
0.0
 40
0.0
 40
0.0
 40
0.0
 40
1.0
 40
1.0
 40
1.0
 40
1.0
 10
5.439229948106947
 20
-1.613040057339181
 30
0.0
 10
5.439229948106947
 20
-1.607195237529988
 30
0.0
 10
5.434490788630051
 20
-1.602456616349261
 30
0.0
 10
5.428645968820856
 20
-1.602456616349261
 30
0.0
  0
LINE
  5
BB
330
70
100
AcDbEntity
  8
Livello 1
100
AcDbLine
 10
5.434995710437108
 20
-1.615156637877933
 30
0.0
 11
5.434995710437108
 21
-1.737923692087149
 31
0.0
  0
SPLINE
  5
BC
330
70
100
AcDbEntity
  8
Livello 1
100
AcDbSpline
210
0.0
220
0.0
230
1.0
 70
     8
 71
     3
 72
     8
 73
     4
 74
     0
 42
0.000000001
 43
0.0000000001
 40
0.0
 40
0.0
 40
0.0
 40
0.0
 40
1.0
 40
1.0
 40
1.0
 40
1.0
 10
5.428645968820856
 20
-1.746390014242152
 30
0.0
 10
5.434490788630051
 20
-1.746390014242152
 30
0.0
 10
5.439229948106947
 20
-1.741651931357594
 30
0.0
 10
5.439229948106947
 20
-1.73580657325223
 30
0.0
  0
LINE
  5
BD
330
70
100
AcDbEntity
  8
Livello 1
100
AcDbLine
 10
5.426529388282105
 20
-1.746390014242152
 30
0.0
 11
5.320696054975231
 21
-1.746390014242152
 31
0.0
  0
SPLINE
  5
BE
330
70
100
AcDbEntity
  8
Livello 1
100
AcDbSpline
210
0.0
220
0.0
230
1.0
 70
     8
 71
     3
 72
     8
 73
     4
 74
     0
 42
0.000000001
 43
0.0000000001
 40
0.0
 40
0.0
 40
0.0
 40
0.0
 40
1.0
 40
1.0
 40
1.0
 40
1.0
 10
5.31222973282023
 20
-1.73580657325223
 30
0.0
 10
5.31222973282023
 20
-1.741651931357594
 30
0.0
 10
5.316967815704789
 20
-1.746390014242152
 30
0.0
 10
5.322812635513981
 20
-1.746390014242152
 30
0.0
  0
LINE
  5
BF
330
70
100
AcDbEntity
  8
Livello 1
100
AcDbLine
 10
5.31222973282023
 20
-1.737923692087149
 30
0.0
 11
5.31222973282023
 21
-1.615156637877933
 31
0.0
  0
SPLINE
  5
C0
330
70
100
AcDbEntity
  8
Livello 1
100
AcDbSpline
210
0.0
220
0.0
230
1.0
 70
     8
 71
     3
 72
     8
 73
     4
 74
     0
 42
0.000000001
 43
0.0000000001
 40
0.0
 40
0.0
 40
0.0
 40
0.0
 40
1.0
 40
1.0
 40
1.0
 40
1.0
 10
5.322812635513981
 20
-1.602456616349261
 30
0.0
 10
5.316967815704789
 20
-1.602456616349261
 30
0.0
 10
5.31222973282023
 20
-1.607195237529988
 30
0.0
 10
5.31222973282023
 20
-1.613040057339181
 30
0.0
  0
LINE
  5
C1
330
70
100
AcDbEntity
  8
Livello 1
100
AcDbLine
 10
5.320696054975231
 20
-1.606690315722931
 30
0.0
 11
5.426529388282105
 21
-1.606690315722931
 31
0.0
  0
LINE
  5
C2
330
70
100
AcDbEntity
  8
Livello 1
100
AcDbLine
 10
5.358796657857416
 20
-1.66595672399262
 30
0.0
 11
5.358796657857416
 21
-1.632090358780275
 31
0.0
  0
LINE
  5
C3
330
70
100
AcDbEntity
  8
Livello 1
100
AcDbLine
 10
5.324929216052733
 20
-1.66595672399262
 30
0.0
 11
5.324929216052733
 21
-1.632090358780275
 31
0.0
  0
LINE
  5
C4
330
70
100
AcDbEntity
  8
Livello 1
100
AcDbLine
 10
5.320696054975231
 20
-1.632090358780275
 30
0.0
 11
5.363029818934918
 21
-1.632090358780275
 31
0.0
  0
LWPOLYLINE
  5
C5
330
70
100
AcDbEntity
  8
Livello 1
100
AcDbPolyline
 90
        4
 70
     0
 43
0.0
 10
5.291062850840387
 20
-1.615156637877933
 10
5.291062850840387
 20
-1.606690315722931
 10
5.392663023069761
 20
-1.606690315722931
 10
5.392663023069761
 20
-1.615156637877933
  0
LINE
  5
C6
330
70
100
AcDbEntity
  8
Livello 1
100
AcDbLine
 10
5.324929216052733
 20
-1.66595672399262
 30
0.0
 11
5.358796657857416
 21
-1.66595672399262
 31
0.0
  0
SPLINE
  5
C7
330
70
100
AcDbEntity
  8
Livello 1
100
AcDbSpline
210
0.0
220
0.0
230
1.0
 70
     8
 71
     3
 72
     8
 73
     4
 74
     0
 42
0.000000001
 43
0.0000000001
 40
0.0
 40
0.0
 40
0.0
 40
0.0
 40
1.0
 40
1.0
 40
1.0
 40
1.0
 10
5.293166512271068
 20
-1.61354228766539
 30
0.0
 10
5.299781095602748
 20
-1.623884571971345
 30
0.0
 10
5.310756954500286
 20
-1.630638574010944
 30
0.0
 10
5.322969817995496
 20
-1.63188311475499
 30
0.0
  0
SPLINE
  5
C8
330
70
100
AcDbEntity
  8
Livello 1
100
AcDbSpline
210
0.0
220
0.0
230
1.0
 70
     8
 71
     3
 72
     8
 73
     4
 74
     0
 42
0.000000001
 43
0.0000000001
 40
0.0
 40
0.0
 40
0.0
 40
0.0
 40
1.0
 40
1.0
 40
1.0
 40
1.0
 10
5.364989216992153
 20
-1.63188311475499
 30
0.0
 10
5.377202080487363
 20
-1.630638574010944
 30
0.0
 10
5.388177939384902
 20
-1.623884571971345
 30
0.0
 10
5.394792522716581
 20
-1.61354228766539
 30
0.0
  0
LINE
  5
C9
330
70
100
AcDbEntity
  8
Livello 1
100
AcDbLine
 10
5.633962893818356
 20
-1.66595672399262
 30
0.0
 11
5.633962893818356
 21
-1.632090358780275
 31
0.0
  0
LINE
  5
CA
330
70
100
AcDbEntity
  8
Livello 1
100
AcDbLine
 10
5.667829259030702
 20
-1.66595672399262
 30
0.0
 11
5.667829259030702
 21
-1.632090358780275
 31
0.0
  0
LINE
  5
CB
330
70
100
AcDbEntity
  8
Livello 1
100
AcDbLine
 10
5.701696700835386
 20
-1.615156637877933
 30
0.0
 11
5.600096528606012
 21
-1.615156637877933
 31
0.0
  0
LINE
  5
CC
330
70
100
AcDbEntity
  8
Livello 1
100
AcDbLine
 10
5.672062420108202
 20
-1.632090358780275
 30
0.0
 11
5.629729732740854
 21
-1.632090358780275
 31
0.0
  0
LWPOLYLINE
  5
CD
330
70
100
AcDbEntity
  8
Livello 1
100
AcDbPolyline
 90
        4
 70
     0
 43
0.0
 10
5.701696700835386
 20
-1.615156637877933
 10
5.701696700835386
 20
-1.606690315722931
 10
5.600096528606012
 20
-1.606690315722931
 10
5.600096528606012
 20
-1.615156637877933
  0
LINE
  5
CE
330
70
100
AcDbEntity
  8
Livello 1
100
AcDbLine
 10
5.667829259030702
 20
-1.66595672399262
 30
0.0
 11
5.633962893818356
 21
-1.66595672399262
 31
0.0
  0
SPLINE
  5
CF
330
70
100
AcDbEntity
  8
Livello 1
100
AcDbSpline
210
0.0
220
0.0
230
1.0
 70
     8
 71
     3
 72
     8
 73
     4
 74
     0
 42
0.000000001
 43
0.0000000001
 40
0.0
 40
0.0
 40
0.0
 40
0.0
 40
1.0
 40
1.0
 40
1.0
 40
1.0
 10
5.674022894757777
 20
-1.63188311475499
 30
0.0
 10
5.686234681660647
 20
-1.630638574010944
 30
0.0
 10
5.697210540558186
 20
-1.623884571971345
 30
0.0
 10
5.703825123889865
 20
-1.61354228766539
 30
0.0
  0
SPLINE
  5
D0
330
70
100
AcDbEntity
  8
Livello 1
100
AcDbSpline
210
0.0
220
0.0
230
1.0
 70
     8
 71
     3
 72
     8
 73
     4
 74
     0
 42
0.000000001
 43
0.0000000001
 40
0.0
 40
0.0
 40
0.0
 40
0.0
 40
1.0
 40
1.0
 40
1.0
 40
1.0
 10
5.602200190036691
 20
-1.61354228766539
 30
0.0
 10
5.60881477336837
 20
-1.623884571971345
 30
0.0
 10
5.619790632265909
 20
-1.630638574010944
 30
0.0
 10
5.632003495761121
 20
-1.63188311475499
 30
0.0
  0
LINE
  5
D1
330
70
100
AcDbEntity
  8
Livello 1
100
AcDbLine
 10
5.291062850840387
 20
-1.615156637877933
 30
0.0
 11
5.392663023069761
 21
-1.615156637877933
 31
0.0
  0
LINE
  5
D2
330
70
100
AcDbEntity
  8
Livello 1
100
AcDbLine
 10
6.798128483601642
 20
-5.15422329289391
 30
0.0
 11
5.650896614720697
 21
-1.66595672399262
 31
0.0
  0
LINE
  5
D3
330
70
100
AcDbEntity
  8
Livello 1
100
AcDbLine
 10
6.810830120018821
 20
-5.141523271365238
 30
0.0
 11
5.663596097953201
 21
-1.66595672399262
 31
0.0
  0
LINE
  5
D4
330
70
100
AcDbEntity
  8
Livello 1
100
AcDbLine
 10
4.105729302484919
 20
-5.082256593947463
 30
0.0
 11
5.113262549438981
 21
-1.66595672399262
 31
0.0
  0
LINE
  5
D5
330
70
100
AcDbEntity
  8
Livello 1
100
AcDbLine
 10
4.114196701232261
 20
-5.103423475927306
 30
0.0
 11
5.125963109263824
 21
-1.66595672399262
 31
0.0
  0
LINE
  5
D6
330
70
100
AcDbEntity
  8
Livello 1
100
AcDbLine
 10
5.333396614800073
 20
-1.66595672399262
 30
0.0
 11
5.185229517533512
 21
-6.005123389574495
 31
0.0
  0
LINE
  5
D7
330
70
100
AcDbEntity
  8
Livello 1
100
AcDbLine
 10
5.350329259110076
 20
-1.66595672399262
 30
0.0
 11
5.197930077358353
 21
-6.005123389574495
 31
0.0
  0
SPLINE
  5
D8
330
70
100
AcDbEntity
  8
Livello 1
100
AcDbSpline
210
0.0
220
0.0
230
1.0
 70
     8
 71
     3
 72
    11
 73
     7
 74
     0
 42
0.000000001
 43
0.0000000001
 40
0.0
 40
0.0
 40
0.0
 40
0.0
 40
1.0
 40
1.0
 40
1.0
 40
2.0
 40
2.0
 40
2.0
 40
2.0
 10
6.876719724358902
 20
-5.967404438676535
 30
0.0
 10
6.874402897645071
 20
-5.96401532599292
 30
0.0
 10
6.870337684972477
 20
-5.962269900663088
 30
0.0
 10
6.866287544592633
 20
-5.962926218267837
 30
0.0
 10
6.862235251028105
 20
-5.963582535872586
 30
0.0
 10
6.858930112546945
 20
-5.966522036680567
 30
0.0
 10
6.857803996960203
 20
-5.970468689621813
 30
0.0
  0
LWPOLYLINE
  5
D9
330
70
100
AcDbEntity
  8
Livello 1
100
AcDbPolyline
 90
        5
 70
     0
 43
0.0
 10
6.573762333755388
 20
-4.59542342222469
 10
6.700763625634447
 20
-4.59542342222469
 10
6.700763625634447
 20
-4.561556787864259
 10
6.573762333755388
 20
-4.561556787864259
 10
6.573762333755388
 20
-4.59542342222469
  0
LWPOLYLINE
  5
DA
330
70
100
AcDbEntity
  8
Livello 1
100
AcDbPolyline
 90
       94
 70
     0
 43
0.0
 10
6.743095236409454
 20
-5.285456669258127
 10
6.730395753176952
 20
-5.162690153345081
 10
6.713463108866949
 20
-5.044156798509534
 10
6.704996786711946
 20
-4.984890121091759
 10
6.700763625634447
 20
-4.925623443673987
 10
6.692295150294767
 20
-4.866356766256212
 10
6.683828828139763
 20
-4.802856658612856
 10
6.671129344907263
 20
-4.74358998119508
 10
6.662663022752262
 20
-4.684323303777308
 10
6.649963539519759
 20
-4.625056626359533
 10
6.641497217364758
 20
-4.565789948941762
 10
6.633028742025078
 20
-4.536156744806915
 10
6.628795580947576
 20
-4.506523271523986
 10
6.620329258792575
 20
-4.476890067389144
 10
6.611862936637574
 20
-4.447256863254298
 10
6.607629775560074
 20
-4.417623389971369
 10
6.599163453405072
 20
-4.387990185836526
 10
6.590697131250071
 20
-4.358356712553596
 10
6.582228655910391
 20
-4.328723508418751
 10
6.573762333755388
 20
-4.303323465361407
 10
6.565296011600388
 20
-4.273689992078478
 10
6.556829689445387
 20
-4.244056787943635
 10
6.548363367290384
 20
-4.214423314660705
 10
6.535663884057883
 20
-4.184790110525861
 10
6.527195408718204
 20
-4.155156637242932
 10
6.518729086563202
 20
-4.129756863333674
 10
6.506029603330699
 20
-4.100123390050745
 10
6.497563281175699
 20
-4.070490185915899
 10
6.484863797943196
 20
-4.045090142858556
 10
6.472162161526014
 20
-4.015456669575628
 10
6.459462678293514
 20
-3.990056626518283
 10
6.446763195061011
 20
-3.96042342238344
 10
6.434063711828508
 20
-3.935023379326096
 10
6.421362075411327
 20
-3.905390175191252
 10
6.408662592178826
 20
-3.879990132133908
 10
6.395963108946324
 20
-3.854590089076564
 10
6.37903046463632
 20
-3.824956615793636
 10
6.366328828219142
 20
-3.799556841884376
 10
6.349396183909137
 20
-3.774156798827033
 10
6.332463539599133
 20
-3.748756755769689
 10
6.319761903181954
 20
-3.723356712712346
 10
6.302829258871951
 20
-3.697956669655003
 10
6.285896614561949
 20
-3.672556626597658
 10
6.268961817067268
 20
-3.647156852688401
 10
6.252029172757262
 20
-3.621756809631056
 10
6.235096528447262
 20
-3.596356766573712
 10
6.218161730952579
 20
-3.57095672351637
 10
6.184296442332573
 20
-3.520156637401683
 10
6.146195839450388
 20
-3.469356820435081
 10
6.108096313160543
 20
-3.422790164545978
 10
6.074229947948197
 20
-3.371990078431291
 10
5.998029818776167
 20
-3.274623605575587
 10
5.926062850681637
 20
-3.177256594423713
 10
5.887963324391792
 20
-3.130690207682696
 10
5.849862721509606
 20
-3.079890121568009
 10
5.815996356297262
 20
-3.033323196530823
 10
5.782129991084917
 20
-2.982523648712306
 10
5.765196270182575
 20
-2.957123605654962
 10
5.748262549280232
 20
-2.931723562597618
 10
5.731329904970229
 20
-2.906323519540276
 10
5.714396184067887
 20
-2.880923476482931
 10
5.697462463165545
 20
-2.855523433425588
 10
5.680529818855543
 20
-2.830123390368245
 10
5.667829259030702
 20
-2.8047233473109
 10
5.650896614720697
 20
-2.779323304253558
 10
5.633962893818356
 20
-2.753923261196213
 10
5.621263410585854
 20
-2.72852321813887
 10
5.608562850761011
 20
-2.703123175081526
 10
5.595863367528511
 20
-2.677723670320352
 10
5.578929646626168
 20
-2.648089927889338
 10
5.566229086801327
 20
-2.622689884831995
 10
5.553529603568825
 20
-2.597289841774652
 10
5.545063281413823
 20
-2.567656637639808
 10
5.532362721588981
 20
-2.542256594582463
 10
5.519663238356478
 20
-2.51262339044762
 10
5.511195839609139
 20
-2.487223347390275
 10
5.502729517454136
 20
-2.457590143255431
 10
5.490030034221637
 20
-2.432190100198087
 10
5.481562635474294
 20
-2.402556896063244
 10
5.473096313319294
 20
-2.372923691928399
 10
5.464629991164292
 20
-2.343289949497385
 10
5.456162592416951
 20
-2.317889906440042
 10
5.451929431339451
 20
-2.288256702305198
 10
5.443463109184448
 20
-2.258623498170353
 10
5.434995710437108
 20
-2.228990294035509
 10
5.430762549359609
 20
-2.199356551604496
 10
5.426529388282105
 20
-2.169723347469652
 10
5.418063066127105
 20
-2.140090143334806
 10
5.413829905049603
 20
-2.110456939199963
 10
5.401129345224763
 20
-2.051189992634105
 10
5.392663023069761
 20
-1.987689884990745
 10
5.384196700914761
 20
-1.928423476721057
 10
5.37572930216742
 20
-1.869156530155198
 10
5.358796657857416
 20
-1.746390014242152
  0
LWPOLYLINE
  5
DB
330
70
100
AcDbEntity
  8
Livello 1
100
AcDbPolyline
 90
       95
 70
     0
 43
0.0
 10
6.776962678214138
 20
-5.196556787705509
 10
6.764263194981636
 20
-5.078023432869962
 10
6.755796872826634
 20
-5.01875675545219
 10
6.747330550671632
 20
-4.963723508260001
 10
6.738862075331954
 20
-4.904456830842197
 10
6.730395753176952
 20
-4.845190153424455
 10
6.721929431021949
 20
-4.785923476006681
 10
6.713463108866949
 20
-4.726656798588908
 10
6.704996786711946
 20
-4.667390121171134
 10
6.692295150294767
 20
-4.608123443753362
 10
6.679595667062263
 20
-4.548856766335587
 10
6.666896183829763
 20
-4.489590088917815
 10
6.662663022752262
 20
-4.459956615634886
 10
6.654196700597259
 20
-4.434556841725627
 10
6.645730378442259
 20
-4.404923368442697
 10
6.641497217364758
 20
-4.375290164307822
 10
6.633028742025078
 20
-4.345656691024924
 10
6.624562419870077
 20
-4.316023486890079
 10
6.616096097715074
 20
-4.286390013607151
 10
6.607629775560074
 20
-4.256756809472306
 10
6.599163453405072
 20
-4.231356766414963
 10
6.590697131250071
 20
-4.201723293132033
 10
6.577995494832889
 20
-4.172090088997189
 10
6.569529172677889
 20
-4.142456615714261
 10
6.561062850522887
 20
-4.117056841805002
 10
6.548363367290384
 20
-4.087423368522072
 10
6.539897045135383
 20
-4.057790164387196
 10
6.527195408718204
 20
-4.032390121329886
 10
6.514495925485701
 20
-4.002756648046956
 10
6.501796442253198
 20
-3.977356874137696
 10
6.489096959020696
 20
-3.947723400854768
 10
6.476395322603516
 20
-3.922323357797424
 10
6.463695839371013
 20
-3.89269015366258
 10
6.450996356138513
 20
-3.867290110605237
 10
6.438296872906009
 20
-3.841890067547892
 10
6.421362075411327
 20
-3.812256863413049
 10
6.408662592178826
 20
-3.786856820355704
 10
6.391729947868824
 20
-3.761456777298361
 10
6.37903046463632
 20
-3.736056734241018
 10
6.362095667141639
 20
-3.710656691183674
 10
6.345163022831638
 20
-3.685256648126331
 10
6.328230378521634
 20
-3.659856874217071
 10
6.315528742104451
 20
-3.634456831159696
 10
6.29859609779445
 20
-3.609056788102384
 10
6.281663453484447
 20
-3.583656745045042
 10
6.264728655989766
 20
-3.558256701987698
 10
6.226628053107582
 20
-3.507456885021096
 10
6.192762764487575
 20
-3.46088995998391
 10
6.158896399275231
 20
-3.410090143017306
 10
6.120795796393045
 20
-3.363523756276289
 10
6.0826962701032
 20
-3.316956831239103
 10
6.010729302008669
 20
-3.2195903583834
 10
5.976862936796325
 20
-3.173023433346213
 10
5.938763410506478
 20
-3.126456508309026
 10
5.904895968701795
 20
-3.075656960490509
 10
5.866796442411949
 20
-3.029090035453323
 10
5.832930077199603
 20
-2.982523648712306
 10
5.799062635394919
 20
-2.931723562597618
 10
5.786363152162418
 20
-2.910556680617776
 10
5.769429431260077
 20
-2.885156637560433
 10
5.752495710357734
 20
-2.859756594503088
 10
5.73556306604773
 20
-2.838590250819415
 10
5.722862506222888
 20
-2.813190207762071
 10
5.705929861912887
 20
-2.787790164704728
 10
5.693229302088044
 20
-2.762390121647384
 10
5.676296657778042
 20
-2.736990078590042
 10
5.663596097953201
 20
-2.715823196610199
 10
5.650896614720697
 20
-2.690423691849024
 10
5.638196054895857
 20
-2.665023648791681
 10
5.625496571663353
 20
-2.639623605734338
 10
5.612796011838512
 20
-2.614223562676994
 10
5.600096528606012
 20
-2.58882351961965
 10
5.587395968781169
 20
-2.563423476562306
 10
5.578929646626168
 20
-2.533790272427463
 10
5.566229086801327
 20
-2.508390229370119
 10
5.557762764646326
 20
-2.482990186312775
 10
5.545063281413823
 20
-2.457590143255431
 10
5.536595882666483
 20
-2.432190100198087
 10
5.528129560511481
 20
-2.402556896063244
 10
5.519663238356478
 20
-2.3771568530059
 10
5.511195839609139
 20
-2.347523648871056
 10
5.502729517454136
 20
-2.322123605813712
 10
5.498496356376636
 20
-2.292489863382699
 10
5.490030034221637
 20
-2.267090358621524
 10
5.485795796551796
 20
-2.23745661619051
 10
5.477329474396793
 20
-2.207823412055667
 10
5.473096313319294
 20
-2.182423368998323
 10
5.464629991164292
 20
-2.152790164863479
 10
5.460395753494451
 20
-2.123156960728634
 10
5.456162592416951
 20
-2.09352321829762
 10
5.443463109184448
 20
-2.034256810027931
 10
5.434995710437108
 20
-1.979223562835743
 10
5.426529388282105
 20
-1.919956616269885
 10
5.418063066127105
 20
-1.860690208000196
 10
5.401129345224763
 20
-1.74215685316465
  0
LINE
  5
DC
330
70
100
AcDbEntity
  8
Livello 1
100
AcDbLine
 10
3.695096529082261
 20
-6.479256674342638
 30
0.0
 11
3.441096098508825
 21
-6.479256674342638
 31
0.0
  0
LINE
  5
DD
330
70
100
AcDbEntity
  8
Livello 1
100
AcDbLine
 10
3.655470394855513
 20
-6.372989339749048
 30
0.0
 11
3.655515611733758
 21
-6.373092019743393
 31
0.0
  0
SPLINE
  5
DE
330
70
100
AcDbEntity
  8
Livello 1
100
AcDbSpline
210
0.0
220
0.0
230
1.0
 70
     8
 71
     3
 72
    14
 73
    10
 74
     0
 42
0.000000001
 43
0.0000000001
 40
0.0
 40
0.0
 40
0.0
 40
0.0
 40
1.0
 40
1.0
 40
1.0
 40
2.0
 40
2.0
 40
2.0
 40
3.0
 40
3.0
 40
3.0
 40
3.0
 10
3.45624805908989
 20
-6.476752385987755
 30
0.0
 10
3.26265845444265
 20
-6.610801051318826
 30
0.0
 10
3.209636281739975
 20
-6.873888392243757
 30
0.0
 10
3.336189711205951
 20
-7.072458043903777
 30
0.0
 10
3.462743140671924
 20
-7.271027762850818
 30
0.0
 10
3.72361223036911
 20
-7.334064397492177
 30
0.0
 10
3.92687286399885
 20
-7.215191175912567
 30
0.0
 10
4.130134574220898
 20
-7.096318021619981
 30
0.0
 10
4.203093083859775
 20
-6.838048431412705
 30
0.0
 10
4.092073805255293
 20
-6.630393820724803
 30
0.0
  0
SPLINE
  5
DF
330
70
100
AcDbEntity
  8
Livello 1
100
AcDbSpline
210
0.0
220
0.0
230
1.0
 70
    11
 71
     3
 72
    17
 73
    13
 74
     0
 42
0.000000001
 43
0.0000000001
 40
0.0
 40
0.0
 40
0.0
 40
0.0
 40
1.0
 40
1.0
 40
1.0
 40
2.0
 40
2.0
 40
2.0
 40
3.0
 40
3.0
 40
3.0
 40
4.0
 40
4.0
 40
4.0
 40
4.0
 10
4.46979622744273
 20
-6.197740023895237
 30
0.0
 10
4.46979622744273
 20
-5.955756517011287
 30
0.0
 10
4.273629260735588
 20
-5.759590088600314
 30
0.0
 10
4.031645753851638
 20
-5.759590088600314
 30
0.0
 10
3.789663323560061
 20
-5.759590088600314
 30
0.0
 10
3.593496356852886
 20
-5.955756517011287
 30
0.0
 10
3.593496356852886
 20
-6.197740023895237
 30
0.0
 10
3.593496356852886
 20
-6.439723530779184
 30
0.0
 10
3.789663323560061
 20
-6.635889959190159
 30
0.0
 10
4.031645753851638
 20
-6.635889959190159
 30
0.0
 10
4.273629260735588
 20
-6.635889959190159
 30
0.0
 10
4.46979622744273
 20
-6.439723530779184
 30
0.0
 10
4.46979622744273
 20
-6.197740023895237
 30
0.0
  0
LINE
  5
E1
330
70
100
AcDbEntity
  8
Livello 1
100
AcDbLine
 10
2.293862675994873
 20
-7.710821511074636
 30
0.0
 11
7.932675408425108
 21
-7.710821511074636
 31
0.0
  0
LINE
  5
EE
330
70
100
AcDbEntity
  8
Livello 1
100
AcDbLine
 10
1.802169030282315
 20
-1.344223562994494
 30
0.0
 11
1.802169030282315
 21
-7.275177584741801
 31
0.0
  0
LINE
  5
FE
330
70
100
AcDbEntity
  8
Livello 1
100
AcDbLine
 10
4.808573195486891
 20
-1.117630023361269
 30
0.0
 11
5.862673367478107
 21
-1.117630023361269
 31
0.0
  0
INSERT
  5
100
330
70
100
AcDbEntity
  8
Livello 1
100
AcDbBlockReference
  2
Block_4
 10
0.0
 20
0.0
 30
0.0
  0
MTEXT
  5
157
330
70
100
AcDbEntity
  8
0
100
AcDbMText
 10
-0.3926451537313822
 20
-3.951213051199609
 30
0.0
 40
0.4
 41
3.395125530511613
 46
0.0
 71
     1
 72
     5
  1
1300mm
 73
     1
 44
1.0
101
Embedded Object
 70
     1
 10
1.0
 20
0.0
 30
0.0
 11
-0.3926451537313822
 21
-3.951213051199609
 31
0.0
 40
3.395125530511613
 41
0.0
 42
1.999999999999999
 43
0.4000000000000001
 71
     2
 72
     1
 44
3.395125530511613
 45
2.0
 73
     0
 74
     0
 46
0.0
  0
MTEXT
  5
15F
330
70
100
AcDbEntity
  8
0
100
AcDbMText
 10
4.348104671290753
 20
-7.900877167062022
 30
0.0
 40
0.4
 41
3.395125530511613
 46
0.0
 71
     1
 72
     5
  1
730mm
 73
     1
 44
1.0
101
Embedded Object
 70
     1
 10
1.0
 20
0.0
 30
0.0
 11
4.348104671290753
 21
-7.900877167062022
 31
0.0
 40
3.395125530511613
 41
0.0
 42
1.799999999999999
 43
0.4
 71
     2
 72
     1
 44
3.395125530511613
 45
2.0
 73
     0
 74
     0
 46
0.0
  0
ENDSEC
  0
SECTION
  2
OBJECTS
  0
DICTIONARY
  5
C
330
0
100
AcDbDictionary
281
     1
  3
ACAD_CIP_PREVIOUS_PRODUCT_INFO
350
14E
  3
ACAD_COLOR
350
63
  3
ACAD_DETAILVIEWSTYLE
350
6A
  3
ACAD_GROUP
350
D
  3
ACAD_LAYOUT
350
62
  3
ACAD_MATERIAL
350
10
  3
ACAD_MLEADERSTYLE
350
66
  3
ACAD_MLINESTYLE
350
5F
  3
ACAD_PLOTSETTINGS
350
61
  3
ACAD_PLOTSTYLENAME
350
E
  3
ACAD_SCALELIST
350
42
  3
ACAD_SECTIONVIEWSTYLE
350
68
  3
ACAD_TABLESTYLE
350
64
  3
ACAD_VISUALSTYLE
350
29
  3
ACDB_RECOMPOSE_DATA
350
163
  3
AcDbVariableDictionary
350
10B
  0
DICTIONARY
  5
150
330
2
100
AcDbDictionary
280
     1
281
     1
  3
ACAD_LAYERSTATES
360
151
  0
XRECORD
  5
14E
102
{ACAD_REACTORS
330
C
102
}
330
C
100
AcDbXrecord
280
     1
300
ACD
300
2019
300
ACD_F_S
  0
DICTIONARY
  5
63
102
{ACAD_REACTORS
330
C
102
}
330
C
100
AcDbDictionary
281
     1
  0
DICTIONARY
  5
6A
102
{ACAD_REACTORS
330
C
102
}
330
C
100
AcDbDictionary
281
     1
  3
Imperial24
350
6B
  0
DICTIONARY
  5
D
102
{ACAD_REACTORS
330
C
102
}
330
C
100
AcDbDictionary
281
     1
  0
DICTIONARY
  5
62
102
{ACAD_REACTORS
330
C
102
}
330
C
100
AcDbDictionary
281
     1
  3
Layout1
350
6F
  3
Layout2
350
77
  3
Model
350
73
  0
DICTIONARY
  5
10
102
{ACAD_REACTORS
330
C
102
}
330
C
100
AcDbDictionary
281
     1
  3
ByBlock
350
19
  3
ByLayer
350
11
  3
Global
350
21
  0
DICTIONARY
  5
66
102
{ACAD_REACTORS
330
C
102
}
330
C
100
AcDbDictionary
281
     1
  3
Standard
350
67
  0
DICTIONARY
  5
5F
102
{ACAD_REACTORS
330
C
102
}
330
C
100
AcDbDictionary
281
     1
  3
Standard
350
60
  0
DICTIONARY
  5
61
102
{ACAD_REACTORS
330
C
102
}
330
C
100
AcDbDictionary
281
     1
  0
ACDBDICTIONARYWDFLT
  5
E
102
{ACAD_REACTORS
330
C
102
}
330
C
100
AcDbDictionary
281
     1
  3
Normal
350
F
100
AcDbDictionaryWithDefault
340
F
  0
DICTIONARY
  5
42
102
{ACAD_REACTORS
330
C
102
}
330
C
100
AcDbDictionary
281
     1
  3
A0
350
43
  3
A1
350
44
  3
A2
350
45
  3
A3
350
46
  3
A4
350
47
  3
A5
350
48
  3
A6
350
49
  3
A7
350
4A
  3
A8
350
4B
  3
A9
350
4C
  3
B0
350
4D
  3
B1
350
4E
  3
B2
350
4F
  3
B3
350
50
  3
B4
350
51
  3
B5
350
52
  3
B6
350
53
  0
DICTIONARY
  5
68
102
{ACAD_REACTORS
330
C
102
}
330
C
100
AcDbDictionary
281
     1
  3
Imperial24
350
69
  0
DICTIONARY
  5
64
102
{ACAD_REACTORS
330
C
102
}
330
C
100
AcDbDictionary
281
     1
  3
Standard
350
65
  0
DICTIONARY
  5
29
102
{ACAD_REACTORS
330
C
102
}
330
C
100
AcDbDictionary
281
     1
  3
2dWireframe
350
2F
  3
Basic
350
2E
  3
Brighten
350
35
  3
ColorChange
350
39
  3
Conceptual
350
32
  3
Dim
350
34
  3
EdgeColorOff
350
41
  3
Facepattern
350
38
  3
Flat
350
2A
  3
FlatWithEdges
350
2B
  3
Gouraud
350
2C
  3
GouraudWithEdges
350
2D
  3
Hidden
350
31
  3
JitterOff
350
3F
  3
Linepattern
350
37
  3
OverhangOff
350
40
  3
Realistic
350
33
  3
Shaded
350
3E
  3
Shaded with edges
350
3D
  3
Shades of Gray
350
3A
  3
Sketchy
350
3B
  3
Thicken
350
36
  3
Wireframe
350
30
  3
X-Ray
350
3C
  0
XRECORD
  5
163
102
{ACAD_REACTORS
330
C
102
}
330
C
100
AcDbXrecord
280
     1
 90
        1
330
65
  0
DICTIONARY
  5
10B
102
{ACAD_REACTORS
330
C
102
}
330
C
100
AcDbDictionary
281
     1
  3
CANNOSCALE
350
110
  3
CMLEADERSTYLE
350
10D
  3
CTABLESTYLE
350
10C
  3
CVIEWDETAILSTYLE
350
10E
  3
CVIEWSECTIONSTYLE
350
10F
  0
DICTIONARY
  5
151
102
{ACAD_REACTORS
330
150
102
}
330
150
100
AcDbDictionary
281
     1
  0
ACDBDETAILVIEWSTYLE
  5
6B
102
{ACAD_REACTORS
330
6A
102
}
330
6A
100
AcDbModelDocViewStyle
 70
     0
  3
Imperial24
290
     0
300
Imperial24
 90
        0
100
AcDbDetailViewStyle
 70
     0
 71
     0
 90
        3
 71
     1
340
55
 62
   256
 40
0.24
340
0
 62
   256
 40
0.24
300

 40
0.36
280
     3
 71
     2
340
5D
 90
       25
 62
   256
 71
     3
340
55
 62
   256
 40
0.24
 90
        1
 40
0.75
 90
        1
300
%<\AcVar ViewType \f "%tc1">% %<\AcVar ViewDetailId>%\PSCALE %<\AcVar ViewScale \f "%sn">%
 71
     4
340
5D
 90
       25
 62
   256
340
5D
 90
       25
 62
   256
280
     0
  0
LAYOUT
  5
6F
102
{ACAD_REACTORS
330
62
102
}
330
62
100
AcDbPlotSettings
  1

  2

  4

  6

 40
0.0
 41
0.0
 42
0.0
 43
0.0
 44
0.0
 45
0.0
 46
0.0
 47
0.0
 48
0.0
 49
0.0
140
0.0
141
0.0
142
1.0
143
1.0
 70
   688
 72
     0
 73
     0
 74
     5
  7

 75
    16
147
1.0
 76
     0
 77
     2
 78
   300
148
0.0
149
0.0
100
AcDbLayout
  1
Layout1
 70
     1
 71
     1
 10
0.0
 20
0.0
 11
12.0
 21
9.0
 12
0.0
 22
0.0
 32
0.0
 14
1.000000000000000E+20
 24
1.000000000000000E+20
 34
1.000000000000000E+20
 15
-1.000000000000000E+20
 25
-1.000000000000000E+20
 35
-1.000000000000000E+20
146
0.0
 13
0.0
 23
0.0
 33
0.0
 16
1.0
 26
0.0
 36
0.0
 17
0.0
 27
1.0
 37
0.0
 76
     0
330
6C
  0
LAYOUT
  5
77
102
{ACAD_REACTORS
330
62
102
}
330
62
100
AcDbPlotSettings
  1

  2

  4

  6

 40
0.0
 41
0.0
 42
0.0
 43
0.0
 44
0.0
 45
0.0
 46
0.0
 47
0.0
 48
0.0
 49
0.0
140
0.0
141
0.0
142
1.0
143
1.0
 70
   688
 72
     0
 73
     0
 74
     5
  7

 75
    16
147
1.0
 76
     0
 77
     2
 78
   300
148
0.0
149
0.0
100
AcDbLayout
  1
Layout2
 70
     1
 71
     2
 10
0.0
 20
0.0
 11
12.0
 21
9.0
 12
0.0
 22
0.0
 32
0.0
 14
0.0
 24
0.0
 34
0.0
 15
0.0
 25
0.0
 35
0.0
146
0.0
 13
0.0
 23
0.0
 33
0.0
 16
1.0
 26
0.0
 36
0.0
 17
0.0
 27
1.0
 37
0.0
 76
     0
330
74
  0
LAYOUT
  5
73
102
{ACAD_REACTORS
330
62
102
}
330
62
100
AcDbPlotSettings
  1

  2

  4

  6

 40
0.0
 41
0.0
 42
0.0
 43
0.0
 44
0.0
 45
0.0
 46
0.0
 47
0.0
 48
0.0
 49
0.0
140
0.0
141
0.0
142
1.0
143
1.0
 70
  1712
 72
     0
 73
     0
 74
     0
  7

 75
     0
147
1.0
 76
     0
 77
     2
 78
   300
148
0.0
149
0.0
100
AcDbLayout
  1
Model
 70
     1
 71
     0
 10
0.0
 20
0.0
 11
12.0
 21
9.0
 12
0.0
 22
0.0
 32
0.0
 14
0.0
 24
0.0
 34
0.0
 15
0.0
 25
0.0
 35
0.0
146
0.0
 13
0.0
 23
0.0
 33
0.0
 16
1.0
 26
0.0
 36
0.0
 17
0.0
 27
1.0
 37
0.0
 76
     0
330
70
331
57
  0
MATERIAL
  5
19
102
{ACAD_XDICTIONARY
360
1A
102
}
102
{ACAD_REACTORS
330
10
102
}
330
10
100
AcDbMaterial
  1
ByBlock
 72
     0
 43
0.0208333333333333
 43
0.0
 43
0.0
 43
0.0
 43
0.0
 43
0.0208333333333333
 43
0.0
 43
0.0
 43
0.0
 43
0.0
 43
1.0
 43
0.0
 43
0.0
 43
0.0
 43
0.0
 43
1.0
 77
     0
 47
0.0208333333333333
 47
0.0
 47
0.0
 47
0.0
 47
0.0
 47
0.0208333333333333
 47
0.0
 47
0.0
 47
0.0
 47
0.0
 47
1.0
 47
0.0
 47
0.0
 47
0.0
 47
0.0
 47
1.0
171
     0
 49
0.0208333333333333
 49
0.0
 49
0.0
 49
0.0
 49
0.0
 49
0.0208333333333333
 49
0.0
 49
0.0
 49
0.0
 49
0.0
 49
1.0
 49
0.0
 49
0.0
 49
0.0
 49
0.0
 49
1.0
175
     0
142
0.0208333333333333
142
0.0
142
0.0
142
0.0
142
0.0
142
0.0208333333333333
142
0.0
142
0.0
142
0.0
142
0.0
142
1.0
142
0.0
142
0.0
142
0.0
142
0.0
142
1.0
179
     0
144
0.0208333333333333
144
0.0
144
0.0
144
0.0
144
0.0
144
0.0208333333333333
144
0.0
144
0.0
144
0.0
144
0.0
144
1.0
144
0.0
144
0.0
144
0.0
144
0.0
144
1.0
147
0.0208333333333333
147
0.0
147
0.0
147
0.0
147
0.0
147
0.0208333333333333
147
0.0
147
0.0
147
0.0
147
0.0
147
1.0
147
0.0
147
0.0
147
0.0
147
0.0
147
1.0
  0
MATERIAL
  5
11
102
{ACAD_XDICTIONARY
360
12
102
}
102
{ACAD_REACTORS
330
10
102
}
330
10
100
AcDbMaterial
  1
ByLayer
 72
     0
 43
0.0208333333333333
 43
0.0
 43
0.0
 43
0.0
 43
0.0
 43
0.0208333333333333
 43
0.0
 43
0.0
 43
0.0
 43
0.0
 43
1.0
 43
0.0
 43
0.0
 43
0.0
 43
0.0
 43
1.0
 77
     0
 47
0.0208333333333333
 47
0.0
 47
0.0
 47
0.0
 47
0.0
 47
0.0208333333333333
 47
0.0
 47
0.0
 47
0.0
 47
0.0
 47
1.0
 47
0.0
 47
0.0
 47
0.0
 47
0.0
 47
1.0
171
     0
 49
0.0208333333333333
 49
0.0
 49
0.0
 49
0.0
 49
0.0
 49
0.0208333333333333
 49
0.0
 49
0.0
 49
0.0
 49
0.0
 49
1.0
 49
0.0
 49
0.0
 49
0.0
 49
0.0
 49
1.0
175
     0
142
0.0208333333333333
142
0.0
142
0.0
142
0.0
142
0.0
142
0.0208333333333333
142
0.0
142
0.0
142
0.0
142
0.0
142
1.0
142
0.0
142
0.0
142
0.0
142
0.0
142
1.0
179
     0
144
0.0208333333333333
144
0.0
144
0.0
144
0.0
144
0.0
144
0.0208333333333333
144
0.0
144
0.0
144
0.0
144
0.0
144
1.0
144
0.0
144
0.0
144
0.0
144
0.0
144
1.0
147
0.0208333333333333
147
0.0
147
0.0
147
0.0
147
0.0
147
0.0208333333333333
147
0.0
147
0.0
147
0.0
147
0.0
147
1.0
147
0.0
147
0.0
147
0.0
147
0.0
147
1.0
  0
MATERIAL
  5
21
102
{ACAD_XDICTIONARY
360
22
102
}
102
{ACAD_REACTORS
330
10
102
}
330
10
100
AcDbMaterial
  1
Global
 72
     0
 43
0.0208333333333333
 43
0.0
 43
0.0
 43
0.0
 43
0.0
 43
0.0208333333333333
 43
0.0
 43
0.0
 43
0.0
 43
0.0
 43
1.0
 43
0.0
 43
0.0
 43
0.0
 43
0.0
 43
1.0
 77
     0
 47
0.0208333333333333
 47
0.0
 47
0.0
 47
0.0
 47
0.0
 47
0.0208333333333333
 47
0.0
 47
0.0
 47
0.0
 47
0.0
 47
1.0
 47
0.0
 47
0.0
 47
0.0
 47
0.0
 47
1.0
171
     0
 49
0.0208333333333333
 49
0.0
 49
0.0
 49
0.0
 49
0.0
 49
0.0208333333333333
 49
0.0
 49
0.0
 49
0.0
 49
0.0
 49
1.0
 49
0.0
 49
0.0
 49
0.0
 49
0.0
 49
1.0
175
     0
142
0.0208333333333333
142
0.0
142
0.0
142
0.0
142
0.0
142
0.0208333333333333
142
0.0
142
0.0
142
0.0
142
0.0
142
1.0
142
0.0
142
0.0
142
0.0
142
0.0
142
1.0
179
     0
144
0.0208333333333333
144
0.0
144
0.0
144
0.0
144
0.0
144
0.0208333333333333
144
0.0
144
0.0
144
0.0
144
0.0
144
1.0
144
0.0
144
0.0
144
0.0
144
0.0
144
1.0
147
0.0208333333333333
147
0.0
147
0.0
147
0.0
147
0.0
147
0.0208333333333333
147
0.0
147
0.0
147
0.0
147
0.0
147
1.0
147
0.0
147
0.0
147
0.0
147
0.0
147
1.0
  0
MLEADERSTYLE
  5
67
102
{ACAD_REACTORS
330
66
102
}
330
66
100
AcDbMLeaderStyle
179
     2
170
     2
171
     1
172
     0
 90
        2
 40
0.0
 41
0.0
173
     1
 91
-1056964608
340
5B
 92
       -2
290
     1
 42
0.09
291
     1
 43
0.36
  3
Standard
 44
0.18
300

342
55
174
     1
178
     6
175
     1
176
     0
 93
-1056964608
 45
0.18
292
     0
297
     0
 46
0.18
 94
-1056964608
 47
1.0
 49
1.0
140
1.0
293
     1
141
0.0
294
     1
177
     0
142
1.0
295
     0
296
     0
143
0.125
271
     0
272
     9
273
     9
298
     1
  0
MLINESTYLE
  5
60
102
{ACAD_REACTORS
330
5F
102
}
330
5F
100
AcDbMlineStyle
  2
STANDARD
 70
     0
  3

 62
   256
 51
90.0
 52
90.0
 71
     2
 49
0.5
 62
   256
  6
BYLAYER
 49
-0.5
 62
   256
  6
BYLAYER
  0
ACDBPLACEHOLDER
  5
F
102
{ACAD_REACTORS
330
E
102
}
330
E
  0
SCALE
  5
43
102
{ACAD_REACTORS
330
42
102
}
330
42
100
AcDbScale
 70
     0
300
1:1
140
1.0
141
1.0
290
     1
  0
SCALE
  5
44
102
{ACAD_REACTORS
330
42
102
}
330
42
100
AcDbScale
 70
     0
300
1/128" = 1'-0"
140
0.0078125
141
12.0
290
     0
  0
SCALE
  5
45
102
{ACAD_REACTORS
330
42
102
}
330
42
100
AcDbScale
 70
     0
300
1/64" = 1'-0"
140
0.015625
141
12.0
290
     0
  0
SCALE
  5
46
102
{ACAD_REACTORS
330
42
102
}
330
42
100
AcDbScale
 70
     0
300
1/32" = 1'-0"
140
0.03125
141
12.0
290
     0
  0
SCALE
  5
47
102
{ACAD_REACTORS
330
42
102
}
330
42
100
AcDbScale
 70
     0
300
1/16" = 1'-0"
140
0.0625
141
12.0
290
     0
  0
SCALE
  5
48
102
{ACAD_REACTORS
330
42
102
}
330
42
100
AcDbScale
 70
     0
300
3/32" = 1'-0"
140
0.09375
141
12.0
290
     0
  0
SCALE
  5
49
102
{ACAD_REACTORS
330
42
102
}
330
42
100
AcDbScale
 70
     0
300
1/8" = 1'-0"
140
0.125
141
12.0
290
     0
  0
SCALE
  5
4A
102
{ACAD_REACTORS
330
42
102
}
330
42
100
AcDbScale
 70
     0
300
3/16" = 1'-0"
140
0.1875
141
12.0
290
     0
  0
SCALE
  5
4B
102
{ACAD_REACTORS
330
42
102
}
330
42
100
AcDbScale
 70
     0
300
1/4" = 1'-0"
140
0.25
141
12.0
290
     0
  0
SCALE
  5
4C
102
{ACAD_REACTORS
330
42
102
}
330
42
100
AcDbScale
 70
     0
300
3/8" = 1'-0"
140
0.375
141
12.0
290
     0
  0
SCALE
  5
4D
102
{ACAD_REACTORS
330
42
102
}
330
42
100
AcDbScale
 70
     0
300
1/2" = 1'-0"
140
0.5
141
12.0
290
     0
  0
SCALE
  5
4E
102
{ACAD_REACTORS
330
42
102
}
330
42
100
AcDbScale
 70
     0
300
3/4" = 1'-0"
140
0.75
141
12.0
290
     0
  0
SCALE
  5
4F
102
{ACAD_REACTORS
330
42
102
}
330
42
100
AcDbScale
 70
     0
300
1" = 1'-0"
140
1.0
141
12.0
290
     0
  0
SCALE
  5
50
102
{ACAD_REACTORS
330
42
102
}
330
42
100
AcDbScale
 70
     0
300
1-1/2" = 1'-0"
140
1.5
141
12.0
290
     0
  0
SCALE
  5
51
102
{ACAD_REACTORS
330
42
102
}
330
42
100
AcDbScale
 70
     0
300
3" = 1'-0"
140
3.0
141
12.0
290
     0
  0
SCALE
  5
52
102
{ACAD_REACTORS
330
42
102
}
330
42
100
AcDbScale
 70
     0
300
6" = 1'-0"
140
6.0
141
12.0
290
     0
  0
SCALE
  5
53
102
{ACAD_REACTORS
330
42
102
}
330
42
100
AcDbScale
 70
     0
300
1'-0" = 1'-0"
140
12.0
141
12.0
290
     0
  0
ACDBSECTIONVIEWSTYLE
  5
69
102
{ACAD_REACTORS
330
68
102
}
330
68
100
AcDbModelDocViewStyle
 70
     0
  3
Imperial24
290
     0
300
Imperial24
 90
        0
100
AcDbSectionViewStyle
 70
     0
 71
     0
 90
       78
 71
     1
340
55
 62
   256
 40
0.24
340
0
340
0
 62
   256
 40
0.24
300
I, O, Q, S, X, Z
 40
0.48
 90
        3
 40
0.18
 90
        1
 71
     2
340
5D
 90
       25
 62
   256
340
5D
 90
       50
 62
   256
 40
0.24
 40
0.0
 40
0.24
 71
     3
340
55
 62
   256
 40
0.24
 90
        1
 40
0.75
 90
        1
300
%<\AcVar ViewType \f "%tc1">% %<\AcVar ViewSectionStartId>%-%<\AcVar ViewSectionEndId>%\PSCALE %<\AcVar ViewScale \f "%sn">%
 71
     4
 62
   256
 62
   257
300
ANSI31
 40
1.0
 90
        0
290
     0
290
     0
 90
        6
 40
0.0
 40
1.570796326794896
 40
0.2617993877991494
 40
1.308996938995747
 40
-0.2617993877991494
 40
1.832595714594045
  0
TABLESTYLE
  5
65
102
{ACAD_XDICTIONARY
360
111
102
}
102
{ACAD_REACTORS
330
64
102
}
330
64
100
AcDbTableStyle
280
     0
  3
Standard
 70
     0
 71
     0
 40
0.06
 41
0.06
280
     0
281
     0
  7
Standard
140
0.18
170
     2
 62
     0
 63
     7
283
     0
 90
      512
 91
        0
  1

274
    -2
284
     1
 64
     0
275
    -2
285
     1
 65
     0
276
    -2
286
     1
 66
     0
277
    -2
287
     1
 67
     0
278
    -2
288
     1
 68
     0
279
    -2
289
     1
 69
     0
  7
Standard
140
0.25
170
     5
 62
     0
 63
     7
283
     0
 90
      512
 91
        0
  1

274
    -2
284
     1
 64
     0
275
    -2
285
     1
 65
     0
276
    -2
286
     1
 66
     0
277
    -2
287
     1
 67
     0
278
    -2
288
     1
 68
     0
279
    -2
289
     1
 69
     0
  7
Standard
140
0.18
170
     5
 62
     0
 63
     7
283
     0
 90
      512
 91
        0
  1

274
    -2
284
     1
 64
     0
275
    -2
285
     1
 65
     0
276
    -2
286
     1
 66
     0
277
    -2
287
     1
 67
     0
278
    -2
288
     1
 68
     0
279
    -2
289
     1
 69
     0
  0
VISUALSTYLE
  5
2F
102
{ACAD_REACTORS
330
29
102
}
330
29
100
AcDbVisualStyle
  2
2dWireframe
 70
     4
177
     3
291
     0
 70
    58
 90
        0
176
     1
 90
        2
176
     1
 90
        0
176
     1
 90
        0
176
     1
 40
0.6
176
     1
 40
30.0
176
     1
 62
     7
420
 16777215
176
     1
 90
        1
176
     1
 90
        4
176
     1
 62
     7
176
     1
 62
   257
176
     1
 90
        1
176
     1
 90
        1
176
     1
 40
1.0
176
     1
 90
        0
176
     1
 62
   257
176
     1
 40
1.0
176
     1
 90
        1
176
     1
 90
        6
176
     1
 90
        2
176
     1
 62
     7
176
     1
 90
        5
176
     1
 90
        0
176
     1
 90
        0
176
     1
290
     0
176
     1
 90
        1
176
     1
 40
0.0
176
     1
 90
        0
176
     1
290
     1
176
     1
290
     1
176
     1
290
     0
176
     1
290
     0
176
     1
290
     0
176
     1
290
     0
176
     1
290
     0
176
     1
290
     0
176
     1
290
     0
176
     1
 90
       50
176
     1
 40
0.0
176
     1
 40
1.0
176
     1
 90
        0
176
     1
 62
    18
420
        0
176
     1
 90
       50
176
     1
 90
        3
176
     1
 62
     5
420
      255
176
     1
290
     0
176
     1
 90
       50
176
     1
 90
       50
176
     1
 90
       50
176
     1
290
     0
176
     1
 90
       50
176
     1
 62
   256
176
     0
 40
1.0
176
     0
 90
        2
176
     1
  1
strokes_ogs.tif
176
     1
290
     0
176
     1
 40
1.0
176
     1
 40
1.0
176
     1
1001
ACAD
1000
AcDbSavedByObjectVersion
1070
     0
  0
VISUALSTYLE
  5
2E
102
{ACAD_REACTORS
330
29
102
}
330
29
100
AcDbVisualStyle
  2
Basic
 70
     7
177
     3
291
     1
 70
    58
 90
        1
176
     1
 90
        0
176
     1
 90
        1
176
     1
 90
        0
176
     1
 40
0.6
176
     1
 40
30.0
176
     1
 62
     7
420
 16777215
176
     1
 90
        0
176
     1
 90
        4
176
     1
 62
     7
176
     1
 62
   257
176
     1
 90
        1
176
     1
 90
        1
176
     1
 40
1.0
176
     1
 90
        8
176
     1
 62
     7
176
     1
 40
1.0
176
     1
 90
        1
176
     1
 90
        6
176
     1
 90
        2
176
     1
 62
     7
176
     1
 90
        5
176
     1
 90
        0
176
     1
 90
        0
176
     1
290
     0
176
     1
 90
        1
176
     1
 40
0.0
176
     1
 90
        0
176
     1
290
     0
176
     1
290
     1
176
     1
290
     1
176
     1
290
     0
176
     1
290
     0
176
     1
290
     0
176
     1
290
     0
176
     1
290
     0
176
     1
290
     0
176
     1
 90
       50
176
     1
 40
0.0
176
     1
 40
1.0
176
     1
 90
        0
176
     1
 62
    18
420
        0
176
     1
 90
       50
176
     1
 90
        3
176
     1
 62
     5
420
      255
176
     1
290
     0
176
     1
 90
       50
176
     1
 90
       50
176
     1
 90
       50
176
     1
290
     0
176
     1
 90
       50
176
     1
 62
   256
176
     0
 40
1.0
176
     0
 90
        2
176
     1
  1
strokes_ogs.tif
176
     1
290
     0
176
     1
 40
1.0
176
     1
 40
1.0
176
     1
1001
ACAD
1000
AcDbSavedByObjectVersion
1070
     0
  0
VISUALSTYLE
  5
35
102
{ACAD_REACTORS
330
29
102
}
330
29
100
AcDbVisualStyle
  2
Brighten
 70
    12
177
     3
291
     1
 70
    58
 90
        2
176
     1
 90
        2
176
     1
 90
        0
176
     1
 90
        0
176
     1
 40
0.6
176
     1
 40
30.0
176
     1
 62
     7
420
 16777215
176
     1
 90
        1
176
     1
 90
        4
176
     1
 62
     7
176
     1
 62
   257
176
     1
 90
        1
176
     1
 90
        1
176
     1
 40
1.0
176
     1
 90
        8
176
     1
 62
     7
176
     1
 40
1.0
176
     1
 90
        1
176
     1
 90
        6
176
     1
 90
        2
176
     1
 62
     7
176
     1
 90
        5
176
     1
 90
        0
176
     1
 90
        0
176
     1
290
     0
176
     1
 90
        1
176
     1
 40
50.0
176
     1
 90
        0
176
     1
290
     0
176
     1
290
     1
176
     1
290
     1
176
     1
290
     0
176
     1
290
     0
176
     1
290
     0
176
     1
290
     0
176
     1
290
     0
176
     1
290
     0
176
     1
 90
       50
176
     1
 40
0.0
176
     1
 40
1.0
176
     1
 90
        0
176
     1
 62
    18
420
        0
176
     1
 90
       50
176
     1
 90
        3
176
     1
 62
     5
420
      255
176
     1
290
     0
176
     1
 90
       50
176
     1
 90
       50
176
     1
 90
       50
176
     1
290
     0
176
     1
 90
       50
176
     1
 62
   256
176
     0
 40
1.0
176
     0
 90
        2
176
     1
  1
strokes_ogs.tif
176
     1
290
     0
176
     1
 40
1.0
176
     1
 40
1.0
176
     1
1001
ACAD
1000
AcDbSavedByObjectVersion
1070
     0
  0
VISUALSTYLE
  5
39
102
{ACAD_REACTORS
330
29
102
}
330
29
100
AcDbVisualStyle
  2
ColorChange
 70
    16
177
     3
291
     1
 70
    58
 90
        2
176
     1
 90
        2
176
     1
 90
        3
176
     1
 90
        0
176
     1
 40
0.6
176
     1
 40
30.0
176
     1
 62
     8
420
  8421504
176
     1
 90
        1
176
     1
 90
        4
176
     1
 62
     7
176
     1
 62
   257
176
     1
 90
        1
176
     1
 90
        1
176
     1
 40
1.0
176
     1
 90
        8
176
     1
 62
     8
420
  8421504
176
     1
 40
1.0
176
     1
 90
        1
176
     1
 90
        6
176
     1
 90
        2
176
     1
 62
     7
176
     1
 90
        5
176
     1
 90
        0
176
     1
 90
        0
176
     1
290
     0
176
     1
 90
        1
176
     1
 40
0.0
176
     1
 90
        0
176
     1
290
     0
176
     1
290
     1
176
     1
290
     1
176
     1
290
     0
176
     1
290
     0
176
     1
290
     0
176
     1
290
     0
176
     1
290
     0
176
     1
290
     0
176
     1
 90
       50
176
     1
 40
0.0
176
     1
 40
1.0
176
     1
 90
        0
176
     1
 62
    18
420
        0
176
     1
 90
       50
176
     1
 90
        3
176
     1
 62
     5
420
      255
176
     1
290
     0
176
     1
 90
       50
176
     1
 90
       50
176
     1
 90
       50
176
     1
290
     0
176
     1
 90
       50
176
     1
 62
   256
176
     0
 40
1.0
176
     0
 90
        2
176
     1
  1
strokes_ogs.tif
176
     1
290
     0
176
     1
 40
1.0
176
     1
 40
1.0
176
     1
1001
ACAD
1000
AcDbSavedByObjectVersion
1070
     0
  0
VISUALSTYLE
  5
32
102
{ACAD_REACTORS
330
29
102
}
330
29
100
AcDbVisualStyle
  2
Conceptual
 70
     9
177
     3
291
     0
 70
    58
 90
        3
176
     1
 90
        2
176
     1
 90
        0
176
     1
 90
        0
176
     1
 40
0.6
176
     1
 40
30.0
176
     1
 62
     7
420
 16777215
176
     1
 90
        2
176
     1
 90
        2
176
     1
 62
     7
176
     1
 62
   257
176
     1
 90
        1
176
     1
 90
        1
176
     1
 40
179.0
176
     1
 90
        8
176
     1
 62
     7
176
     1
 40
1.0
176
     1
 90
        1
176
     1
 90
        6
176
     1
 90
        2
176
     1
 62
     7
176
     1
 90
        3
176
     1
 90
        0
176
     1
 90
        0
176
     1
290
     0
176
     1
 90
        1
176
     1
 40
0.0
176
     1
 90
        0
176
     1
290
     0
176
     1
290
     1
176
     1
290
     1
176
     1
290
     0
176
     1
290
     0
176
     1
290
     0
176
     1
290
     0
176
     1
290
     0
176
     1
290
     0
176
     1
 90
       50
176
     1
 40
0.0
176
     1
 40
1.0
176
     1
 90
        0
176
     1
 62
    18
420
        0
176
     1
 90
       50
176
     1
 90
        3
176
     1
 62
     5
420
      255
176
     1
290
     0
176
     1
 90
       50
176
     1
 90
       50
176
     1
 90
       50
176
     1
290
     0
176
     1
 90
       50
176
     1
 62
   256
176
     0
 40
1.0
176
     0
 90
        2
176
     1
  1
strokes_ogs.tif
176
     1
290
     0
176
     1
 40
1.0
176
     1
 40
1.0
176
     1
1001
ACAD
1000
AcDbSavedByObjectVersion
1070
     0
  0
VISUALSTYLE
  5
34
102
{ACAD_REACTORS
330
29
102
}
330
29
100
AcDbVisualStyle
  2
Dim
 70
    11
177
     3
291
     1
 70
    58
 90
        2
176
     1
 90
        2
176
     1
 90
        0
176
     1
 90
        0
176
     1
 40
0.6
176
     1
 40
30.0
176
     1
 62
     7
420
 16777215
176
     1
 90
        1
176
     1
 90
        4
176
     1
 62
     7
176
     1
 62
   257
176
     1
 90
        1
176
     1
 90
        1
176
     1
 40
1.0
176
     1
 90
        8
176
     1
 62
     7
176
     1
 40
1.0
176
     1
 90
        1
176
     1
 90
        6
176
     1
 90
        2
176
     1
 62
     7
176
     1
 90
        5
176
     1
 90
        0
176
     1
 90
        0
176
     1
290
     0
176
     1
 90
        1
176
     1
 40
-50.0
176
     1
 90
        0
176
     1
290
     0
176
     1
290
     1
176
     1
290
     1
176
     1
290
     0
176
     1
290
     0
176
     1
290
     0
176
     1
290
     0
176
     1
290
     0
176
     1
290
     0
176
     1
 90
       50
176
     1
 40
0.0
176
     1
 40
1.0
176
     1
 90
        0
176
     1
 62
    18
420
        0
176
     1
 90
       50
176
     1
 90
        3
176
     1
 62
     5
420
      255
176
     1
290
     0
176
     1
 90
       50
176
     1
 90
       50
176
     1
 90
       50
176
     1
290
     0
176
     1
 90
       50
176
     1
 62
   256
176
     0
 40
1.0
176
     0
 90
        2
176
     1
  1
strokes_ogs.tif
176
     1
290
     0
176
     1
 40
1.0
176
     1
 40
1.0
176
     1
1001
ACAD
1000
AcDbSavedByObjectVersion
1070
     0
  0
VISUALSTYLE
  5
41
102
{ACAD_REACTORS
330
29
102
}
330
29
100
AcDbVisualStyle
  2
EdgeColorOff
 70
    22
177
     3
291
     1
 70
    58
 90
        2
176
     0
 90
        2
176
     0
 90
        0
176
     0
 90
        0
176
     0
 40
0.6
176
     0
 40
30.0
176
     0
 62
     7
420
 16777215
176
     0
 90
        1
176
     0
 90
        4
176
     0
 62
     7
176
     0
 62
   257
176
     0
 90
        1
176
     0
 90
        1
176
     0
 40
1.0
176
     0
 90
        8
176
     2
 62
     7
176
     0
 40
1.0
176
     0
 90
        1
176
     0
 90
        6
176
     0
 90
        2
176
     0
 62
     7
176
     0
 90
        5
176
     0
 90
        0
176
     0
 90
        0
176
     0
290
     0
176
     0
 90
        1
176
     0
 40
0.0
176
     0
 90
        0
176
     0
290
     0
176
     0
290
     1
176
     0
290
     1
176
     0
290
     0
176
     0
290
     0
176
     0
290
     0
176
     0
290
     0
176
     0
290
     0
176
     0
290
     0
176
     0
 90
       50
176
     0
 40
0.0
176
     0
 40
1.0
176
     0
 90
        0
176
     0
 62
    18
420
        0
176
     0
 90
       50
176
     0
 90
        3
176
     0
 62
     5
420
      255
176
     0
290
     0
176
     0
 90
       50
176
     0
 90
       50
176
     0
 90
       50
176
     0
290
     0
176
     0
 90
       50
176
     0
 62
   256
176
     0
 40
1.0
176
     0
 90
        2
176
     0
  1
strokes_ogs.tif
176
     0
290
     0
176
     0
 40
1.0
176
     0
 40
1.0
176
     0
1001
ACAD
1000
AcDbSavedByObjectVersion
1070
     0
  0
VISUALSTYLE
  5
38
102
{ACAD_REACTORS
330
29
102
}
330
29
100
AcDbVisualStyle
  2
Facepattern
 70
    15
177
     3
291
     1
 70
    58
 90
        2
176
     1
 90
        2
176
     1
 90
        0
176
     1
 90
        0
176
     1
 40
0.6
176
     1
 40
30.0
176
     1
 62
     7
420
 16777215
176
     1
 90
        1
176
     1
 90
        4
176
     1
 62
     7
176
     1
 62
   257
176
     1
 90
        1
176
     1
 90
        1
176
     1
 40
1.0
176
     1
 90
        8
176
     1
 62
     7
176
     1
 40
1.0
176
     1
 90
        1
176
     1
 90
        6
176
     1
 90
        2
176
     1
 62
     7
176
     1
 90
        5
176
     1
 90
        0
176
     1
 90
        0
176
     1
290
     0
176
     1
 90
        1
176
     1
 40
0.0
176
     1
 90
        0
176
     1
290
     0
176
     1
290
     1
176
     1
290
     1
176
     1
290
     0
176
     1
290
     0
176
     1
290
     0
176
     1
290
     0
176
     1
290
     0
176
     1
290
     0
176
     1
 90
       50
176
     1
 40
0.0
176
     1
 40
1.0
176
     1
 90
        0
176
     1
 62
    18
420
        0
176
     1
 90
       50
176
     1
 90
        3
176
     1
 62
     5
420
      255
176
     1
290
     0
176
     1
 90
       50
176
     1
 90
       50
176
     1
 90
       50
176
     1
290
     0
176
     1
 90
       50
176
     1
 62
   256
176
     0
 40
1.0
176
     0
 90
        2
176
     1
  1
strokes_ogs.tif
176
     1
290
     0
176
     1
 40
1.0
176
     1
 40
1.0
176
     1
1001
ACAD
1000
AcDbSavedByObjectVersion
1070
     0
  0
VISUALSTYLE
  5
2A
102
{ACAD_REACTORS
330
29
102
}
330
29
100
AcDbVisualStyle
  2
Flat
 70
     0
177
     3
291
     1
 70
    58
 90
        2
176
     1
 90
        1
176
     1
 90
        1
176
     1
 90
        2
176
     1
 40
0.6
176
     1
 40
30.0
176
     1
 62
     7
420
 16777215
176
     1
 90
        0
176
     1
 90
        0
176
     1
 62
     7
176
     1
 62
   257
176
     1
 90
        1
176
     1
 90
        1
176
     1
 40
1.0
176
     1
 90
        8
176
     1
 62
     7
176
     1
 40
1.0
176
     1
 90
        1
176
     1
 90
        6
176
     1
 90
        2
176
     1
 62
     7
176
     1
 90
        5
176
     1
 90
        0
176
     1
 90
        0
176
     1
290
     0
176
     1
 90
       13
176
     1
 40
0.0
176
     1
 90
        0
176
     1
290
     0
176
     1
290
     1
176
     1
290
     1
176
     1
290
     0
176
     1
290
     0
176
     1
290
     0
176
     1
290
     0
176
     1
290
     0
176
     1
290
     0
176
     1
 90
       50
176
     1
 40
0.0
176
     1
 40
1.0
176
     1
 90
        0
176
     1
 62
    18
420
        0
176
     1
 90
       50
176
     1
 90
        3
176
     1
 62
     5
420
      255
176
     1
290
     0
176
     1
 90
       50
176
     1
 90
       50
176
     1
 90
       50
176
     1
290
     0
176
     1
 90
       50
176
     1
 62
   256
176
     0
 40
1.0
176
     0
 90
        2
176
     1
  1
strokes_ogs.tif
176
     1
290
     0
176
     1
 40
1.0
176
     1
 40
1.0
176
     1
1001
ACAD
1000
AcDbSavedByObjectVersion
1070
     0
  0
VISUALSTYLE
  5
2B
102
{ACAD_REACTORS
330
29
102
}
330
29
100
AcDbVisualStyle
  2
FlatWithEdges
 70
     1
177
     3
291
     1
 70
    58
 90
        2
176
     1
 90
        1
176
     1
 90
        1
176
     1
 90
        2
176
     1
 40
0.6
176
     1
 40
30.0
176
     1
 62
     7
420
 16777215
176
     1
 90
        1
176
     1
 90
        0
176
     1
 62
     7
176
     1
 62
   257
176
     1
 90
        1
176
     1
 90
        1
176
     1
 40
1.0
176
     1
 90
        0
176
     1
 62
   257
176
     1
 40
1.0
176
     1
 90
        1
176
     1
 90
        6
176
     1
 90
        2
176
     1
 62
     7
176
     1
 90
        5
176
     1
 90
        0
176
     1
 90
        0
176
     1
290
     0
176
     1
 90
       13
176
     1
 40
0.0
176
     1
 90
        0
176
     1
290
     0
176
     1
290
     1
176
     1
290
     1
176
     1
290
     0
176
     1
290
     0
176
     1
290
     0
176
     1
290
     0
176
     1
290
     0
176
     1
290
     0
176
     1
 90
       50
176
     1
 40
0.0
176
     1
 40
1.0
176
     1
 90
        0
176
     1
 62
    18
420
        0
176
     1
 90
       50
176
     1
 90
        3
176
     1
 62
     5
420
      255
176
     1
290
     0
176
     1
 90
       50
176
     1
 90
       50
176
     1
 90
       50
176
     1
290
     0
176
     1
 90
       50
176
     1
 62
   256
176
     0
 40
1.0
176
     0
 90
        2
176
     1
  1
strokes_ogs.tif
176
     1
290
     0
176
     1
 40
1.0
176
     1
 40
1.0
176
     1
1001
ACAD
1000
AcDbSavedByObjectVersion
1070
     0
  0
VISUALSTYLE
  5
2C
102
{ACAD_REACTORS
330
29
102
}
330
29
100
AcDbVisualStyle
  2
Gouraud
 70
     2
177
     3
291
     1
 70
    58
 90
        2
176
     1
 90
        2
176
     1
 90
        1
176
     1
 90
        2
176
     1
 40
0.6
176
     1
 40
30.0
176
     1
 62
     7
420
 16777215
176
     1
 90
        0
176
     1
 90
        0
176
     1
 62
     7
176
     1
 62
   257
176
     1
 90
        1
176
     1
 90
        1
176
     1
 40
1.0
176
     1
 90
        0
176
     1
 62
     7
176
     1
 40
1.0
176
     1
 90
        1
176
     1
 90
        6
176
     1
 90
        2
176
     1
 62
     7
176
     1
 90
        5
176
     1
 90
        0
176
     1
 90
        0
176
     1
290
     0
176
     1
 90
       13
176
     1
 40
0.0
176
     1
 90
        0
176
     1
290
     0
176
     1
290
     1
176
     1
290
     1
176
     1
290
     0
176
     1
290
     0
176
     1
290
     0
176
     1
290
     0
176
     1
290
     0
176
     1
290
     0
176
     1
 90
       50
176
     1
 40
0.0
176
     1
 40
1.0
176
     1
 90
        0
176
     1
 62
    18
420
        0
176
     1
 90
       50
176
     1
 90
        3
176
     1
 62
     5
420
      255
176
     1
290
     0
176
     1
 90
       50
176
     1
 90
       50
176
     1
 90
       50
176
     1
290
     0
176
     1
 90
       50
176
     1
 62
   256
176
     0
 40
1.0
176
     0
 90
        2
176
     1
  1
strokes_ogs.tif
176
     1
290
     0
176
     1
 40
1.0
176
     1
 40
1.0
176
     1
1001
ACAD
1000
AcDbSavedByObjectVersion
1070
     0
  0
VISUALSTYLE
  5
2D
102
{ACAD_REACTORS
330
29
102
}
330
29
100
AcDbVisualStyle
  2
GouraudWithEdges
 70
     3
177
     3
291
     1
 70
    58
 90
        2
176
     1
 90
        2
176
     1
 90
        1
176
     1
 90
        2
176
     1
 40
0.6
176
     1
 40
30.0
176
     1
 62
     7
420
 16777215
176
     1
 90
        1
176
     1
 90
        0
176
     1
 62
     7
176
     1
 62
   257
176
     1
 90
        1
176
     1
 90
        1
176
     1
 40
1.0
176
     1
 90
        0
176
     1
 62
   257
176
     1
 40
1.0
176
     1
 90
        1
176
     1
 90
        6
176
     1
 90
        2
176
     1
 62
     7
176
     1
 90
        5
176
     1
 90
        0
176
     1
 90
        0
176
     1
290
     0
176
     1
 90
       13
176
     1
 40
0.0
176
     1
 90
        0
176
     1
290
     0
176
     1
290
     1
176
     1
290
     1
176
     1
290
     0
176
     1
290
     0
176
     1
290
     0
176
     1
290
     0
176
     1
290
     0
176
     1
290
     0
176
     1
 90
       50
176
     1
 40
0.0
176
     1
 40
1.0
176
     1
 90
        0
176
     1
 62
    18
420
        0
176
     1
 90
       50
176
     1
 90
        3
176
     1
 62
     5
420
      255
176
     1
290
     0
176
     1
 90
       50
176
     1
 90
       50
176
     1
 90
       50
176
     1
290
     0
176
     1
 90
       50
176
     1
 62
   256
176
     0
 40
1.0
176
     0
 90
        2
176
     1
  1
strokes_ogs.tif
176
     1
290
     0
176
     1
 40
1.0
176
     1
 40
1.0
176
     1
1001
ACAD
1000
AcDbSavedByObjectVersion
1070
     0
  0
VISUALSTYLE
  5
31
102
{ACAD_REACTORS
330
29
102
}
330
29
100
AcDbVisualStyle
  2
Hidden
 70
     6
177
     3
291
     0
 70
    58
 90
        1
176
     1
 90
        2
176
     1
 90
        2
176
     1
 90
        0
176
     1
 40
0.6
176
     1
 40
30.0
176
     1
 62
     7
420
 16777215
176
     1
 90
        2
176
     1
 90
        2
176
     1
 62
     7
176
     1
 62
   257
176
     1
 90
        2
176
     1
 90
        1
176
     1
 40
40.0
176
     1
 90
        0
176
     1
 62
   257
176
     1
 40
1.0
176
     1
 90
        1
176
     1
 90
        6
176
     1
 90
        2
176
     1
 62
     7
176
     1
 90
        3
176
     1
 90
        0
176
     1
 90
        0
176
     1
290
     0
176
     1
 90
        1
176
     1
 40
0.0
176
     1
 90
        0
176
     1
290
     0
176
     1
290
     1
176
     1
290
     1
176
     1
290
     0
176
     1
290
     0
176
     1
290
     0
176
     1
290
     0
176
     1
290
     0
176
     1
290
     0
176
     1
 90
       50
176
     1
 40
0.0
176
     1
 40
1.0
176
     1
 90
        0
176
     1
 62
    18
420
        0
176
     1
 90
       50
176
     1
 90
        3
176
     1
 62
     5
420
      255
176
     1
290
     0
176
     1
 90
       50
176
     1
 90
       50
176
     1
 90
       50
176
     1
290
     0
176
     1
 90
       50
176
     1
 62
   256
176
     0
 40
1.0
176
     0
 90
        2
176
     1
  1
strokes_ogs.tif
176
     1
290
     0
176
     1
 40
1.0
176
     1
 40
1.0
176
     1
1001
ACAD
1000
AcDbSavedByObjectVersion
1070
     0
  0
VISUALSTYLE
  5
3F
102
{ACAD_REACTORS
330
29
102
}
330
29
100
AcDbVisualStyle
  2
JitterOff
 70
    20
177
     3
291
     1
 70
    58
 90
        2
176
     0
 90
        2
176
     0
 90
        0
176
     0
 90
        0
176
     0
 40
0.6
176
     0
 40
30.0
176
     0
 62
     7
420
 16777215
176
     0
 90
        1
176
     0
 90
        4
176
     0
 62
     7
176
     0
 62
   257
176
     0
 90
        1
176
     0
 90
        1
176
     0
 40
1.0
176
     0
 90
       10
176
     2
 62
     7
176
     0
 40
1.0
176
     0
 90
        1
176
     0
 90
        6
176
     0
 90
        2
176
     0
 62
     7
176
     0
 90
        5
176
     0
 90
        0
176
     0
 90
        0
176
     0
290
     0
176
     0
 90
        1
176
     0
 40
0.0
176
     0
 90
        0
176
     0
290
     0
176
     0
290
     1
176
     0
290
     1
176
     0
290
     0
176
     0
290
     0
176
     0
290
     0
176
     0
290
     0
176
     0
290
     0
176
     0
290
     0
176
     0
 90
       50
176
     0
 40
0.0
176
     0
 40
1.0
176
     0
 90
        0
176
     0
 62
    18
420
        0
176
     0
 90
       50
176
     0
 90
        3
176
     0
 62
     5
420
      255
176
     0
290
     0
176
     0
 90
       50
176
     0
 90
       50
176
     0
 90
       50
176
     0
290
     0
176
     0
 90
       50
176
     0
 62
   256
176
     0
 40
1.0
176
     0
 90
        2
176
     0
  1
strokes_ogs.tif
176
     0
290
     0
176
     0
 40
1.0
176
     0
 40
1.0
176
     0
1001
ACAD
1000
AcDbSavedByObjectVersion
1070
     0
  0
VISUALSTYLE
  5
37
102
{ACAD_REACTORS
330
29
102
}
330
29
100
AcDbVisualStyle
  2
Linepattern
 70
    14
177
     3
291
     1
 70
    58
 90
        2
176
     1
 90
        2
176
     1
 90
        0
176
     1
 90
        0
176
     1
 40
0.6
176
     1
 40
30.0
176
     1
 62
     7
420
 16777215
176
     1
 90
        1
176
     1
 90
        4
176
     1
 62
     7
176
     1
 62
   257
176
     1
 90
        7
176
     1
 90
        7
176
     1
 40
1.0
176
     1
 90
        8
176
     1
 62
     7
176
     1
 40
1.0
176
     1
 90
        1
176
     1
 90
        6
176
     1
 90
        2
176
     1
 62
     7
176
     1
 90
        5
176
     1
 90
        0
176
     1
 90
        0
176
     1
290
     0
176
     1
 90
        1
176
     1
 40
0.0
176
     1
 90
        0
176
     1
290
     0
176
     1
290
     1
176
     1
290
     1
176
     1
290
     0
176
     1
290
     0
176
     1
290
     0
176
     1
290
     0
176
     1
290
     0
176
     1
290
     0
176
     1
 90
       50
176
     1
 40
0.0
176
     1
 40
1.0
176
     1
 90
        0
176
     1
 62
    18
420
        0
176
     1
 90
       50
176
     1
 90
        3
176
     1
 62
     5
420
      255
176
     1
290
     0
176
     1
 90
       50
176
     1
 90
       50
176
     1
 90
       50
176
     1
290
     0
176
     1
 90
       50
176
     1
 62
   256
176
     0
 40
1.0
176
     0
 90
        2
176
     1
  1
strokes_ogs.tif
176
     1
290
     0
176
     1
 40
1.0
176
     1
 40
1.0
176
     1
1001
ACAD
1000
AcDbSavedByObjectVersion
1070
     0
  0
VISUALSTYLE
  5
40
102
{ACAD_REACTORS
330
29
102
}
330
29
100
AcDbVisualStyle
  2
OverhangOff
 70
    21
177
     3
291
     1
 70
    58
 90
        2
176
     0
 90
        2
176
     0
 90
        0
176
     0
 90
        0
176
     0
 40
0.6
176
     0
 40
30.0
176
     0
 62
     7
420
 16777215
176
     0
 90
        1
176
     0
 90
        4
176
     0
 62
     7
176
     0
 62
   257
176
     0
 90
        1
176
     0
 90
        1
176
     0
 40
1.0
176
     0
 90
        9
176
     2
 62
     7
176
     0
 40
1.0
176
     0
 90
        1
176
     0
 90
        6
176
     0
 90
        2
176
     0
 62
     7
176
     0
 90
        5
176
     0
 90
        0
176
     0
 90
        0
176
     0
290
     0
176
     0
 90
        1
176
     0
 40
0.0
176
     0
 90
        0
176
     0
290
     0
176
     0
290
     1
176
     0
290
     1
176
     0
290
     0
176
     0
290
     0
176
     0
290
     0
176
     0
290
     0
176
     0
290
     0
176
     0
290
     0
176
     0
 90
       50
176
     0
 40
0.0
176
     0
 40
1.0
176
     0
 90
        0
176
     0
 62
    18
420
        0
176
     0
 90
       50
176
     0
 90
        3
176
     0
 62
     5
420
      255
176
     0
290
     0
176
     0
 90
       50
176
     0
 90
       50
176
     0
 90
       50
176
     0
290
     0
176
     0
 90
       50
176
     0
 62
   256
176
     0
 40
1.0
176
     0
 90
        2
176
     0
  1
strokes_ogs.tif
176
     0
290
     0
176
     0
 40
1.0
176
     0
 40
1.0
176
     0
1001
ACAD
1000
AcDbSavedByObjectVersion
1070
     0
  0
VISUALSTYLE
  5
33
102
{ACAD_REACTORS
330
29
102
}
330
29
100
AcDbVisualStyle
  2
Realistic
 70
     8
177
     3
291
     0
 70
    58
 90
        2
176
     1
 90
        3
176
     1
 90
        0
176
     1
 90
        2
176
     1
 40
0.6
176
     1
 40
30.0
176
     1
 62
     7
420
 16777215
176
     1
 90
        0
176
     1
 90
        0
176
     1
 62
     7
176
     1
 62
   257
176
     1
 90
        1
176
     1
 90
        1
176
     1
 40
1.0
176
     1
 90
        8
176
     1
 62
   257
176
     1
 40
1.0
176
     1
 90
        1
176
     1
 90
        6
176
     1
 90
        2
176
     1
 62
     7
176
     1
 90
        3
176
     1
 90
        0
176
     1
 90
        0
176
     1
290
     0
176
     1
 90
       13
176
     1
 40
0.0
176
     1
 90
        0
176
     1
290
     0
176
     1
290
     1
176
     1
290
     1
176
     1
290
     0
176
     1
290
     0
176
     1
290
     0
176
     1
290
     0
176
     1
290
     0
176
     1
290
     0
176
     1
 90
       50
176
     1
 40
0.0
176
     1
 40
1.0
176
     1
 90
        0
176
     1
 62
    18
420
        0
176
     1
 90
       50
176
     1
 90
        3
176
     1
 62
     5
420
      255
176
     1
290
     0
176
     1
 90
       50
176
     1
 90
       50
176
     1
 90
       50
176
     1
290
     0
176
     1
 90
       50
176
     1
 62
   256
176
     0
 40
1.0
176
     0
 90
        2
176
     1
  1
strokes_ogs.tif
176
     1
290
     0
176
     1
 40
1.0
176
     1
 40
1.0
176
     1
1001
ACAD
1000
AcDbSavedByObjectVersion
1070
     0
  0
VISUALSTYLE
  5
3E
102
{ACAD_REACTORS
330
29
102
}
330
29
100
AcDbVisualStyle
  2
Shaded
 70
    27
177
     3
291
     0
 70
    58
 90
        2
176
     1
 90
        2
176
     1
 90
        1
176
     1
 90
        2
176
     1
 40
0.6
176
     1
 40
30.0
176
     1
 62
     7
420
 16777215
176
     1
 90
        0
176
     1
 90
        4
176
     1
 62
     7
176
     1
 62
   257
176
     1
 90
        1
176
     1
 90
        1
176
     1
 40
1.0
176
     1
 90
        8
176
     1
 62
   257
176
     1
 40
1.0
176
     1
 90
        1
176
     1
 90
        6
176
     1
 90
        2
176
     1
 62
     8
420
  7895160
176
     1
 90
        3
176
     1
 90
        0
176
     1
 90
        0
176
     1
290
     0
176
     1
 90
        5
176
     1
 40
0.0
176
     1
 90
        0
176
     1
290
     0
176
     1
290
     1
176
     1
290
     1
176
     1
290
     0
176
     1
290
     0
176
     1
290
     0
176
     1
290
     0
176
     1
290
     0
176
     1
290
     0
176
     1
 90
       50
176
     1
 40
0.0
176
     1
 40
1.0
176
     1
 90
        0
176
     1
 62
    18
420
        0
176
     1
 90
       50
176
     1
 90
        3
176
     1
 62
     5
420
      255
176
     1
290
     0
176
     1
 90
       50
176
     1
 90
       50
176
     1
 90
       50
176
     1
290
     0
176
     1
 90
       50
176
     1
 62
   256
176
     0
 40
1.0
176
     0
 90
        2
176
     1
  1
strokes_ogs.tif
176
     1
290
     0
176
     1
 40
1.0
176
     1
 40
1.0
176
     1
1001
ACAD
1000
AcDbSavedByObjectVersion
1070
     0
  0
VISUALSTYLE
  5
3D
102
{ACAD_REACTORS
330
29
102
}
330
29
100
AcDbVisualStyle
  2
Shaded with edges
 70
    26
177
     3
291
     0
 70
    58
 90
        2
176
     1
 90
        2
176
     1
 90
        1
176
     1
 90
        2
176
     1
 40
0.6
176
     1
 40
30.0
176
     1
 62
     7
420
 16777215
176
     1
 90
        1
176
     1
 90
        2
176
     1
 62
     7
176
     1
 62
   257
176
     1
 90
        2
176
     1
 90
        1
176
     1
 40
1.0
176
     1
 90
        8
176
     1
 62
   257
176
     1
 40
1.0
176
     1
 90
        1
176
     1
 90
        6
176
     1
 90
        2
176
     1
 62
     7
176
     1
 90
        3
176
     1
 90
        0
176
     1
 90
        0
176
     1
290
     0
176
     1
 90
        5
176
     1
 40
0.0
176
     1
 90
        0
176
     1
290
     0
176
     1
290
     1
176
     1
290
     1
176
     1
290
     0
176
     1
290
     0
176
     1
290
     0
176
     1
290
     0
176
     1
290
     0
176
     1
290
     0
176
     1
 90
       50
176
     1
 40
0.0
176
     1
 40
1.0
176
     1
 90
        0
176
     1
 62
    18
420
        0
176
     1
 90
       50
176
     1
 90
        3
176
     1
 62
     5
420
      255
176
     1
290
     0
176
     1
 90
       50
176
     1
 90
       50
176
     1
 90
       50
176
     1
290
     0
176
     1
 90
       50
176
     1
 62
   256
176
     0
 40
1.0
176
     0
 90
        2
176
     1
  1
strokes_ogs.tif
176
     1
290
     0
176
     1
 40
1.0
176
     1
 40
1.0
176
     1
1001
ACAD
1000
AcDbSavedByObjectVersion
1070
     0
  0
VISUALSTYLE
  5
3A
102
{ACAD_REACTORS
330
29
102
}
330
29
100
AcDbVisualStyle
  2
Shades of Gray
 70
    23
177
     3
291
     0
 70
    58
 90
        2
176
     1
 90
        2
176
     1
 90
        3
176
     1
 90
        0
176
     1
 40
0.6
176
     1
 40
30.0
176
     1
 62
     7
420
 16777215
176
     1
 90
        2
176
     1
 90
        2
176
     1
 62
     7
176
     1
 62
     7
176
     1
 90
        1
176
     1
 90
        1
176
     1
 40
40.0
176
     1
 90
        8
176
     1
 62
     7
176
     1
 40
1.0
176
     1
 90
        1
176
     1
 90
        6
176
     1
 90
        2
176
     1
 62
     7
176
     1
 90
        3
176
     1
 90
        0
176
     1
 90
        0
176
     1
290
     0
176
     1
 90
        1
176
     1
 40
0.0
176
     1
 90
        0
176
     1
290
     0
176
     1
290
     1
176
     1
290
     1
176
     1
290
     0
176
     1
290
     0
176
     1
290
     0
176
     1
290
     0
176
     1
290
     0
176
     1
290
     0
176
     1
 90
       50
176
     1
 40
0.0
176
     1
 40
1.0
176
     1
 90
        0
176
     1
 62
    18
420
        0
176
     1
 90
       50
176
     1
 90
        3
176
     1
 62
     5
420
      255
176
     1
290
     0
176
     1
 90
       50
176
     1
 90
       50
176
     1
 90
       50
176
     1
290
     0
176
     1
 90
       50
176
     1
 62
   256
176
     0
 40
1.0
176
     0
 90
        2
176
     1
  1
strokes_ogs.tif
176
     1
290
     0
176
     1
 40
1.0
176
     1
 40
1.0
176
     1
1001
ACAD
1000
AcDbSavedByObjectVersion
1070
     0
  0
VISUALSTYLE
  5
3B
102
{ACAD_REACTORS
330
29
102
}
330
29
100
AcDbVisualStyle
  2
Sketchy
 70
    24
177
     3
291
     0
 70
    58
 90
        1
176
     1
 90
        2
176
     1
 90
        2
176
     1
 90
        0
176
     1
 40
0.6
176
     1
 40
30.0
176
     1
 62
     7
420
 16777215
176
     1
 90
        2
176
     1
 90
        2
176
     1
 62
     7
176
     1
 62
     7
176
     1
 90
        1
176
     1
 90
        1
176
     1
 40
40.0
176
     1
 90
       11
176
     1
 62
     7
176
     1
 40
1.0
176
     1
 90
        1
176
     1
 90
        6
176
     1
 90
        2
176
     1
 62
     7
176
     1
 90
        6
176
     1
 90
        0
176
     1
 90
        0
176
     1
290
     0
176
     1
 90
        1
176
     1
 40
0.0
176
     1
 90
        0
176
     1
290
     0
176
     1
290
     1
176
     1
290
     1
176
     1
290
     0
176
     1
290
     0
176
     1
290
     0
176
     1
290
     0
176
     1
290
     0
176
     1
290
     0
176
     1
 90
       50
176
     1
 40
0.0
176
     1
 40
1.0
176
     1
 90
        0
176
     1
 62
    18
420
        0
176
     1
 90
       50
176
     1
 90
        3
176
     1
 62
     5
420
      255
176
     1
290
     0
176
     1
 90
       50
176
     1
 90
       50
176
     1
 90
       50
176
     1
290
     0
176
     1
 90
       50
176
     1
 62
   256
176
     0
 40
1.0
176
     0
 90
        2
176
     1
  1
strokes_ogs.tif
176
     1
290
     0
176
     1
 40
1.0
176
     1
 40
1.0
176
     1
1001
ACAD
1000
AcDbSavedByObjectVersion
1070
     0
  0
VISUALSTYLE
  5
36
102
{ACAD_REACTORS
330
29
102
}
330
29
100
AcDbVisualStyle
  2
Thicken
 70
    13
177
     3
291
     1
 70
    58
 90
        2
176
     1
 90
        2
176
     1
 90
        0
176
     1
 90
        0
176
     1
 40
0.6
176
     1
 40
30.0
176
     1
 62
     7
420
 16777215
176
     1
 90
        1
176
     1
 90
        4
176
     1
 62
     7
176
     1
 62
   257
176
     1
 90
        1
176
     1
 90
        1
176
     1
 40
1.0
176
     1
 90
       12
176
     1
 62
     7
176
     1
 40
1.0
176
     1
 90
        1
176
     1
 90
        6
176
     1
 90
        2
176
     1
 62
     7
176
     1
 90
        5
176
     1
 90
        0
176
     1
 90
        0
176
     1
290
     0
176
     1
 90
        1
176
     1
 40
0.0
176
     1
 90
        0
176
     1
290
     0
176
     1
290
     1
176
     1
290
     1
176
     1
290
     0
176
     1
290
     0
176
     1
290
     0
176
     1
290
     0
176
     1
290
     0
176
     1
290
     0
176
     1
 90
       50
176
     1
 40
0.0
176
     1
 40
1.0
176
     1
 90
        0
176
     1
 62
    18
420
        0
176
     1
 90
       50
176
     1
 90
        3
176
     1
 62
     5
420
      255
176
     1
290
     0
176
     1
 90
       50
176
     1
 90
       50
176
     1
 90
       50
176
     1
290
     0
176
     1
 90
       50
176
     1
 62
   256
176
     0
 40
1.0
176
     0
 90
        2
176
     1
  1
strokes_ogs.tif
176
     1
290
     0
176
     1
 40
1.0
176
     1
 40
1.0
176
     1
1001
ACAD
1000
AcDbSavedByObjectVersion
1070
     0
  0
VISUALSTYLE
  5
30
102
{ACAD_REACTORS
330
29
102
}
330
29
100
AcDbVisualStyle
  2
Wireframe
 70
     5
177
     3
291
     0
 70
    58
 90
        0
176
     1
 90
        2
176
     1
 90
        0
176
     1
 90
        0
176
     1
 40
0.6
176
     1
 40
30.0
176
     1
 62
     7
420
 16777215
176
     1
 90
        1
176
     1
 90
        4
176
     1
 62
     7
176
     1
 62
   257
176
     1
 90
        1
176
     1
 90
        1
176
     1
 40
1.0
176
     1
 90
        0
176
     1
 62
   257
176
     1
 40
1.0
176
     1
 90
        1
176
     1
 90
        6
176
     1
 90
        2
176
     1
 62
     7
176
     1
 90
        3
176
     1
 90
        0
176
     1
 90
        0
176
     1
290
     0
176
     1
 90
        1
176
     1
 40
0.0
176
     1
 90
        0
176
     1
290
     0
176
     1
290
     1
176
     1
290
     1
176
     1
290
     0
176
     1
290
     0
176
     1
290
     0
176
     1
290
     0
176
     1
290
     0
176
     1
290
     0
176
     1
 90
       50
176
     1
 40
0.0
176
     1
 40
1.0
176
     1
 90
        0
176
     1
 62
    18
420
        0
176
     1
 90
       50
176
     1
 90
        3
176
     1
 62
     5
420
      255
176
     1
290
     0
176
     1
 90
       50
176
     1
 90
       50
176
     1
 90
       50
176
     1
290
     0
176
     1
 90
       50
176
     1
 62
   256
176
     0
 40
1.0
176
     0
 90
        2
176
     1
  1
strokes_ogs.tif
176
     1
290
     0
176
     1
 40
1.0
176
     1
 40
1.0
176
     1
1001
ACAD
1000
AcDbSavedByObjectVersion
1070
     0
  0
VISUALSTYLE
  5
3C
102
{ACAD_REACTORS
330
29
102
}
330
29
100
AcDbVisualStyle
  2
X-Ray
 70
    25
177
     3
291
     0
 70
    58
 90
        2
176
     1
 90
        2
176
     1
 90
        1
176
     1
 90
        1
176
     1
 40
0.5
176
     1
 40
30.0
176
     1
 62
     7
420
 16777215
176
     1
 90
        1
176
     1
 90
        0
176
     1
 62
     7
176
     1
 62
   257
176
     1
 90
        1
176
     1
 90
        1
176
     1
 40
1.0
176
     1
 90
        8
176
     1
 62
     7
176
     1
 40
1.0
176
     1
 90
        1
176
     1
 90
        6
176
     1
 90
        2
176
     1
 62
     7
176
     1
 90
        3
176
     1
 90
        0
176
     1
 90
        0
176
     1
290
     0
176
     1
 90
       13
176
     1
 40
0.0
176
     1
 90
        0
176
     1
290
     0
176
     1
290
     1
176
     1
290
     1
176
     1
290
     0
176
     1
290
     0
176
     1
290
     0
176
     1
290
     0
176
     1
290
     0
176
     1
290
     0
176
     1
 90
       50
176
     1
 40
0.0
176
     1
 40
1.0
176
     1
 90
        0
176
     1
 62
    18
420
        0
176
     1
 90
       50
176
     1
 90
        3
176
     1
 62
     5
420
      255
176
     1
290
     0
176
     1
 90
       50
176
     1
 90
       50
176
     1
 90
       50
176
     1
290
     0
176
     1
 90
       50
176
     1
 62
   256
176
     0
 40
1.0
176
     0
 90
        2
176
     1
  1
strokes_ogs.tif
176
     1
290
     0
176
     1
 40
1.0
176
     1
 40
1.0
176
     1
1001
ACAD
1000
AcDbSavedByObjectVersion
1070
     0
  0
DICTIONARYVAR
  5
110
102
{ACAD_REACTORS
330
10B
102
}
330
10B
100
DictionaryVariables
280
     0
  1
1:1
  0
DICTIONARYVAR
  5
10D
102
{ACAD_REACTORS
330
10B
102
}
330
10B
100
DictionaryVariables
280
     0
  1
STANDARD
  0
DICTIONARYVAR
  5
10C
102
{ACAD_REACTORS
330
10B
102
}
330
10B
100
DictionaryVariables
280
     0
  1
STANDARD
  0
DICTIONARYVAR
  5
10E
102
{ACAD_REACTORS
330
10B
102
}
330
10B
100
DictionaryVariables
280
     0
  1
Imperial24
  0
DICTIONARYVAR
  5
10F
102
{ACAD_REACTORS
330
10B
102
}
330
10B
100
DictionaryVariables
280
     0
  1
Imperial24
  0
DICTIONARY
  5
1A
330
19
100
AcDbDictionary
280
     1
281
     1
  3
BUMPTILE
360
1C
  3
DIFFUSETILE
360
1B
  3
OPACITYTILE
360
1F
  3
REFLECTIONTILE
360
1E
  3
REFRACTIONTILE
360
20
  3
SPECULARTILE
360
1D
  0
DICTIONARY
  5
12
330
11
100
AcDbDictionary
280
     1
281
     1
  3
BUMPTILE
360
14
  3
DIFFUSETILE
360
13
  3
OPACITYTILE
360
17
  3
REFLECTIONTILE
360
16
  3
REFRACTIONTILE
360
18
  3
SPECULARTILE
360
15
  0
DICTIONARY
  5
22
330
21
100
AcDbDictionary
280
     1
281
     1
  3
BUMPTILE
360
24
  3
DIFFUSETILE
360
23
  3
OPACITYTILE
360
27
  3
REFLECTIONTILE
360
26
  3
REFRACTIONTILE
360
28
  3
SPECULARTILE
360
25
  0
DICTIONARY
  5
111
330
65
100
AcDbDictionary
280
     1
281
     1
  3
ACAD_ROUNDTRIP_2008_TABLESTYLE_CELLSTYLEMAP
360
162
  0
XRECORD
  5
1C
102
{ACAD_REACTORS
330
1A
102
}
330
1A
100
AcDbXrecord
280
     1
270
     1
271
     1
  0
XRECORD
  5
1B
102
{ACAD_REACTORS
330
1A
102
}
330
1A
100
AcDbXrecord
280
     1
270
     1
271
     1
  0
XRECORD
  5
1F
102
{ACAD_REACTORS
330
1A
102
}
330
1A
100
AcDbXrecord
280
     1
270
     1
271
     1
  0
XRECORD
  5
1E
102
{ACAD_REACTORS
330
1A
102
}
330
1A
100
AcDbXrecord
280
     1
270
     1
271
     1
  0
XRECORD
  5
20
102
{ACAD_REACTORS
330
1A
102
}
330
1A
100
AcDbXrecord
280
     1
270
     1
271
     1
  0
XRECORD
  5
1D
102
{ACAD_REACTORS
330
1A
102
}
330
1A
100
AcDbXrecord
280
     1
270
     1
271
     1
  0
XRECORD
  5
14
102
{ACAD_REACTORS
330
12
102
}
330
12
100
AcDbXrecord
280
     1
270
     1
271
     1
  0
XRECORD
  5
13
102
{ACAD_REACTORS
330
12
102
}
330
12
100
AcDbXrecord
280
     1
270
     1
271
     1
  0
XRECORD
  5
17
102
{ACAD_REACTORS
330
12
102
}
330
12
100
AcDbXrecord
280
     1
270
     1
271
     1
  0
XRECORD
  5
16
102
{ACAD_REACTORS
330
12
102
}
330
12
100
AcDbXrecord
280
     1
270
     1
271
     1
  0
XRECORD
  5
18
102
{ACAD_REACTORS
330
12
102
}
330
12
100
AcDbXrecord
280
     1
270
     1
271
     1
  0
XRECORD
  5
15
102
{ACAD_REACTORS
330
12
102
}
330
12
100
AcDbXrecord
280
     1
270
     1
271
     1
  0
XRECORD
  5
24
102
{ACAD_REACTORS
330
22
102
}
330
22
100
AcDbXrecord
280
     1
270
     1
271
     1
  0
XRECORD
  5
23
102
{ACAD_REACTORS
330
22
102
}
330
22
100
AcDbXrecord
280
     1
270
     1
271
     1
  0
XRECORD
  5
27
102
{ACAD_REACTORS
330
22
102
}
330
22
100
AcDbXrecord
280
     1
270
     1
271
     1
  0
XRECORD
  5
26
102
{ACAD_REACTORS
330
22
102
}
330
22
100
AcDbXrecord
280
     1
270
     1
271
     1
  0
XRECORD
  5
28
102
{ACAD_REACTORS
330
22
102
}
330
22
100
AcDbXrecord
280
     1
270
     1
271
     1
  0
XRECORD
  5
25
102
{ACAD_REACTORS
330
22
102
}
330
22
100
AcDbXrecord
280
     1
270
     1
271
     1
  0
CELLSTYLEMAP
  5
162
102
{ACAD_REACTORS
330
111
102
}
330
111
100
AcDbCellStyleMap
 90
        3
300
CELLSTYLE
  1
TABLEFORMAT_BEGIN
 90
        5
170
     1
 91
        0
 92
    32768
 62
   257
 93
        1
300
CONTENTFORMAT
  1
CONTENTFORMAT_BEGIN
 90
        0
 91
        0
 92
      512
 93
        0
300

 40
0.0
140
1.0
 94
        5
 62
     0
340
55
144
0.25
309
CONTENTFORMAT_END
171
     1
301
MARGIN
  1
CELLMARGIN_BEGIN
 40
0.06
 40
0.06
 40
0.06
 40
0.06
 40
0.18
 40
0.18
309
CELLMARGIN_END
 94
        6
 95
        1
302
GRIDFORMAT
  1
GRIDFORMAT_BEGIN
 90
        0
 91
        1
 62
     0
 92
       -2
340
0
 93
        0
 40
0.045
309
GRIDFORMAT_END
 95
        2
302
GRIDFORMAT
  1
GRIDFORMAT_BEGIN
 90
        0
 91
        1
 62
     0
 92
       -2
340
0
 93
        0
 40
0.045
309
GRIDFORMAT_END
 95
        4
302
GRIDFORMAT
  1
GRIDFORMAT_BEGIN
 90
        0
 91
        1
 62
     0
 92
       -2
340
0
 93
        0
 40
0.045
309
GRIDFORMAT_END
 95
        8
302
GRIDFORMAT
  1
GRIDFORMAT_BEGIN
 90
        0
 91
        1
 62
     0
 92
       -2
340
0
 93
        0
 40
0.045
309
GRIDFORMAT_END
 95
       16
302
GRIDFORMAT
  1
GRIDFORMAT_BEGIN
 90
        0
 91
        1
 62
     0
 92
       -2
340
0
 93
        0
 40
0.045
309
GRIDFORMAT_END
 95
       32
302
GRIDFORMAT
  1
GRIDFORMAT_BEGIN
 90
        0
 91
        1
 62
     0
 92
       -2
340
0
 93
        0
 40
0.045
309
GRIDFORMAT_END
309
TABLEFORMAT_END
  1
CELLSTYLE_BEGIN
 90
        1
 91
        1
300
_TITLE
309
CELLSTYLE_END
300
CELLSTYLE
  1
TABLEFORMAT_BEGIN
 90
        5
170
     1
 91
        0
 92
        0
 62
   257
 93
        1
300
CONTENTFORMAT
  1
CONTENTFORMAT_BEGIN
 90
        0
 91
        0
 92
      512
 93
        0
300

 40
0.0
140
1.0
 94
        5
 62
     0
340
55
144
0.18
309
CONTENTFORMAT_END
171
     1
301
MARGIN
  1
CELLMARGIN_BEGIN
 40
0.06
 40
0.06
 40
0.06
 40
0.06
 40
0.18
 40
0.18
309
CELLMARGIN_END
 94
        6
 95
        1
302
GRIDFORMAT
  1
GRIDFORMAT_BEGIN
 90
        0
 91
        1
 62
     0
 92
       -2
340
0
 93
        0
 40
0.045
309
GRIDFORMAT_END
 95
        2
302
GRIDFORMAT
  1
GRIDFORMAT_BEGIN
 90
        0
 91
        1
 62
     0
 92
       -2
340
0
 93
        0
 40
0.045
309
GRIDFORMAT_END
 95
        4
302
GRIDFORMAT
  1
GRIDFORMAT_BEGIN
 90
        0
 91
        1
 62
     0
 92
       -2
340
0
 93
        0
 40
0.045
309
GRIDFORMAT_END
 95
        8
302
GRIDFORMAT
  1
GRIDFORMAT_BEGIN
 90
        0
 91
        1
 62
     0
 92
       -2
340
0
 93
        0
 40
0.045
309
GRIDFORMAT_END
 95
       16
302
GRIDFORMAT
  1
GRIDFORMAT_BEGIN
 90
        0
 91
        1
 62
     0
 92
       -2
340
0
 93
        0
 40
0.045
309
GRIDFORMAT_END
 95
       32
302
GRIDFORMAT
  1
GRIDFORMAT_BEGIN
 90
        0
 91
        1
 62
     0
 92
       -2
340
0
 93
        0
 40
0.045
309
GRIDFORMAT_END
309
TABLEFORMAT_END
  1
CELLSTYLE_BEGIN
 90
        2
 91
        1
300
_HEADER
309
CELLSTYLE_END
300
CELLSTYLE
  1
TABLEFORMAT_BEGIN
 90
        5
170
     1
 91
        0
 92
        0
 62
   257
 93
        1
300
CONTENTFORMAT
  1
CONTENTFORMAT_BEGIN
 90
        0
 91
        0
 92
      512
 93
        0
300

 40
0.0
140
1.0
 94
        2
 62
     0
340
55
144
0.18
309
CONTENTFORMAT_END
171
     1
301
MARGIN
  1
CELLMARGIN_BEGIN
 40
0.06
 40
0.06
 40
0.06
 40
0.06
 40
0.18
 40
0.18
309
CELLMARGIN_END
 94
        6
 95
        1
302
GRIDFORMAT
  1
GRIDFORMAT_BEGIN
 90
        0
 91
        1
 62
     0
 92
       -2
340
0
 93
        0
 40
0.045
309
GRIDFORMAT_END
 95
        2
302
GRIDFORMAT
  1
GRIDFORMAT_BEGIN
 90
        0
 91
        1
 62
     0
 92
       -2
340
0
 93
        0
 40
0.045
309
GRIDFORMAT_END
 95
        4
302
GRIDFORMAT
  1
GRIDFORMAT_BEGIN
 90
        0
 91
        1
 62
     0
 92
       -2
340
0
 93
        0
 40
0.045
309
GRIDFORMAT_END
 95
        8
302
GRIDFORMAT
  1
GRIDFORMAT_BEGIN
 90
        0
 91
        1
 62
     0
 92
       -2
340
0
 93
        0
 40
0.045
309
GRIDFORMAT_END
 95
       16
302
GRIDFORMAT
  1
GRIDFORMAT_BEGIN
 90
        0
 91
        1
 62
     0
 92
       -2
340
0
 93
        0
 40
0.045
309
GRIDFORMAT_END
 95
       32
302
GRIDFORMAT
  1
GRIDFORMAT_BEGIN
 90
        0
 91
        1
 62
     0
 92
       -2
340
0
 93
        0
 40
0.045
309
GRIDFORMAT_END
309
TABLEFORMAT_END
  1
CELLSTYLE_BEGIN
 90
        3
 91
        2
300
_DATA
309
CELLSTYLE_END
  0
ENDSEC
  0
EOF
