  0
SECTION
  2
HEADER
  9
$ACADVER
  1
AC1032
  9
$ACADMAINTVER
 90
        4
  9
$DWGCODEPAGE
  3
ANSI_1252
  9
$LASTSAVEDBY
  1
andrea.ragusa
  9
$REQUIREDVERSIONS
160
                 0
  9
$INSBASE
 10
0.0
 20
0.0
 30
0.0
  9
$EXTMIN
 10
-5.718785173029263
 20
-9.372463328439915
 30
0.0
  9
$EXTMAX
 10
11.35923455643906
 20
4.14559834729028
 30
0.0
  9
$LIMMIN
 10
0.0
 20
0.0
  9
$LIMMAX
 10
12.0
 20
9.0
  9
$ORTHOMODE
 70
     1
  9
$REGENMODE
 70
     1
  9
$FILLMODE
 70
     1
  9
$QTEXTMODE
 70
     0
  9
$MIRRTEXT
 70
     0
  9
$LTSCALE
 40
1.0
  9
$ATTMODE
 70
     1
  9
$TEXTSIZE
 40
0.2
  9
$TRACEWID
 40
0.05
  9
$TEXTSTYLE
  7
Standard
  9
$CLAYER
  8
0
  9
$CELTYPE
  6
ByLayer
  9
$CECOLOR
 62
   256
  9
$CELTSCALE
 40
1.0
  9
$DISPSILH
 70
     0
  9
$DIMSCALE
 40
1.0
  9
$DIMASZ
 40
0.18
  9
$DIMEXO
 40
0.0625
  9
$DIMDLI
 40
0.38
  9
$DIMRND
 40
0.0
  9
$DIMDLE
 40
0.0
  9
$DIMEXE
 40
0.18
  9
$DIMTP
 40
0.0
  9
$DIMTM
 40
0.0
  9
$DIMTXT
 40
0.18
  9
$DIMCEN
 40
0.09
  9
$DIMTSZ
 40
0.0
  9
$DIMTOL
 70
     0
  9
$DIMLIM
 70
     0
  9
$DIMTIH
 70
     1
  9
$DIMTOH
 70
     1
  9
$DIMSE1
 70
     0
  9
$DIMSE2
 70
     0
  9
$DIMTAD
 70
     0
  9
$DIMZIN
 70
     0
  9
$DIMBLK
  1

  9
$DIMASO
 70
     1
  9
$DIMSHO
 70
     1
  9
$DIMPOST
  1

  9
$DIMAPOST
  1

  9
$DIMALT
 70
     0
  9
$DIMALTD
 70
     2
  9
$DIMALTF
 40
25.4
  9
$DIMLFAC
 40
1.0
  9
$DIMTOFL
 70
     0
  9
$DIMTVP
 40
0.0
  9
$DIMTIX
 70
     0
  9
$DIMSOXD
 70
     0
  9
$DIMSAH
 70
     0
  9
$DIMBLK1
  1

  9
$DIMBLK2
  1

  9
$DIMSTYLE
  2
Standard
  9
$DIMCLRD
 70
     0
  9
$DIMCLRE
 70
     0
  9
$DIMCLRT
 70
     0
  9
$DIMTFAC
 40
1.0
  9
$DIMGAP
 40
0.09
  9
$DIMJUST
 70
     0
  9
$DIMSD1
 70
     0
  9
$DIMSD2
 70
     0
  9
$DIMTOLJ
 70
     1
  9
$DIMTZIN
 70
     0
  9
$DIMALTZ
 70
     0
  9
$DIMALTTZ
 70
     0
  9
$DIMUPT
 70
     0
  9
$DIMDEC
 70
     4
  9
$DIMTDEC
 70
     4
  9
$DIMALTU
 70
     2
  9
$DIMALTTD
 70
     2
  9
$DIMTXSTY
  7
Standard
  9
$DIMAUNIT
 70
     0
  9
$DIMADEC
 70
     0
  9
$DIMALTRND
 40
0.0
  9
$DIMAZIN
 70
     0
  9
$DIMDSEP
 70
    46
  9
$DIMATFIT
 70
     3
  9
$DIMFRAC
 70
     0
  9
$DIMLDRBLK
  1

  9
$DIMLUNIT
 70
     2
  9
$DIMLWD
 70
    -2
  9
$DIMLWE
 70
    -2
  9
$DIMTMOVE
 70
     0
  9
$DIMFXL
 40
1.0
  9
$DIMFXLON
 70
     0
  9
$DIMJOGANG
 40
0.7853981633974483
  9
$DIMTFILL
 70
     0
  9
$DIMTFILLCLR
 70
     0
  9
$DIMARCSYM
 70
     0
  9
$DIMLTYPE
  6

  9
$DIMLTEX1
  6

  9
$DIMLTEX2
  6

  9
$DIMTXTDIRECTION
 70
     0
  9
$LUNITS
 70
     2
  9
$LUPREC
 70
     4
  9
$SKETCHINC
 40
0.1
  9
$FILLETRAD
 40
0.0
  9
$AUNITS
 70
     0
  9
$AUPREC
 70
     0
  9
$MENU
  1
.
  9
$ELEVATION
 40
0.0
  9
$PELEVATION
 40
0.0
  9
$THICKNESS
 40
0.0
  9
$LIMCHECK
 70
     0
  9
$CHAMFERA
 40
0.0
  9
$CHAMFERB
 40
0.0
  9
$CHAMFERC
 40
0.0
  9
$CHAMFERD
 40
0.0
  9
$SKPOLY
 70
     0
  9
$TDCREATE
 40
2459424.609409722
  9
$TDUCREATE
 40
2459424.567743056
  9
$TDUPDATE
 40
2460299.753272893
  9
$TDUUPDATE
 40
2460299.711606227
  9
$TDINDWG
 40
0.0052003819
  9
$TDUSRTIMER
 40
0.0001193634
  9
$USRTIMER
 70
     1
  9
$ANGBASE
 50
0.0
  9
$ANGDIR
 70
     0
  9
$PDMODE
 70
     0
  9
$PDSIZE
 40
0.0
  9
$PLINEWID
 40
0.0
  9
$SPLFRAME
 70
     0
  9
$SPLINETYPE
 70
     6
  9
$SPLINESEGS
 70
     8
  9
$HANDSEED
  5
260
  9
$SURFTAB1
 70
     6
  9
$SURFTAB2
 70
     6
  9
$SURFTYPE
 70
     6
  9
$SURFU
 70
     6
  9
$SURFV
 70
     6
  9
$UCSBASE
  2

  9
$UCSNAME
  2

  9
$UCSORG
 10
0.0
 20
0.0
 30
0.0
  9
$UCSXDIR
 10
1.0
 20
0.0
 30
0.0
  9
$UCSYDIR
 10
0.0
 20
1.0
 30
0.0
  9
$UCSORTHOREF
  2

  9
$UCSORTHOVIEW
 70
     0
  9
$UCSORGTOP
 10
0.0
 20
0.0
 30
0.0
  9
$UCSORGBOTTOM
 10
0.0
 20
0.0
 30
0.0
  9
$UCSORGLEFT
 10
0.0
 20
0.0
 30
0.0
  9
$UCSORGRIGHT
 10
0.0
 20
0.0
 30
0.0
  9
$UCSORGFRONT
 10
0.0
 20
0.0
 30
0.0
  9
$UCSORGBACK
 10
0.0
 20
0.0
 30
0.0
  9
$PUCSBASE
  2

  9
$PUCSNAME
  2

  9
$PUCSORG
 10
0.0
 20
0.0
 30
0.0
  9
$PUCSXDIR
 10
1.0
 20
0.0
 30
0.0
  9
$PUCSYDIR
 10
0.0
 20
1.0
 30
0.0
  9
$PUCSORTHOREF
  2

  9
$PUCSORTHOVIEW
 70
     0
  9
$PUCSORGTOP
 10
0.0
 20
0.0
 30
0.0
  9
$PUCSORGBOTTOM
 10
0.0
 20
0.0
 30
0.0
  9
$PUCSORGLEFT
 10
0.0
 20
0.0
 30
0.0
  9
$PUCSORGRIGHT
 10
0.0
 20
0.0
 30
0.0
  9
$PUCSORGFRONT
 10
0.0
 20
0.0
 30
0.0
  9
$PUCSORGBACK
 10
0.0
 20
0.0
 30
0.0
  9
$USERI1
 70
     0
  9
$USERI2
 70
     0
  9
$USERI3
 70
     0
  9
$USERI4
 70
     0
  9
$USERI5
 70
     0
  9
$USERR1
 40
0.0
  9
$USERR2
 40
0.0
  9
$USERR3
 40
0.0
  9
$USERR4
 40
0.0
  9
$USERR5
 40
0.0
  9
$WORLDVIEW
 70
     1
  9
$SHADEDGE
 70
     3
  9
$SHADEDIF
 70
    70
  9
$TILEMODE
 70
     1
  9
$MAXACTVP
 70
    64
  9
$PINSBASE
 10
0.0
 20
0.0
 30
0.0
  9
$PLIMCHECK
 70
     0
  9
$PEXTMIN
 10
1.000000000000000E+20
 20
1.000000000000000E+20
 30
1.000000000000000E+20
  9
$PEXTMAX
 10
-1.000000000000000E+20
 20
-1.000000000000000E+20
 30
-1.000000000000000E+20
  9
$PLIMMIN
 10
0.0
 20
0.0
  9
$PLIMMAX
 10
0.0
 20
0.0
  9
$UNITMODE
 70
     0
  9
$VISRETAIN
 70
     1
  9
$PLINEGEN
 70
     0
  9
$PSLTSCALE
 70
     1
  9
$TREEDEPTH
 70
  3020
  9
$CMLSTYLE
  2
Standard
  9
$CMLJUST
 70
     0
  9
$CMLSCALE
 40
1.0
  9
$PROXYGRAPHICS
 70
     1
  9
$MEASUREMENT
 70
     0
  9
$CELWEIGHT
370
    -1
  9
$ENDCAPS
280
     0
  9
$JOINSTYLE
280
     0
  9
$LWDISPLAY
290
     1
  9
$INSUNITS
 70
     5
  9
$HYPERLINKBASE
  1

  9
$STYLESHEET
  1

  9
$XEDIT
290
     1
  9
$CEPSNTYPE
380
     0
  9
$PSTYLEMODE
290
     1
  9
$FINGERPRINTGUID
  2
{EA34DDDF-0FAB-1746-A41F-C6569BE169D6}
  9
$VERSIONGUID
  2
{794B98BC-D7E2-EE40-AA7D-A1193958C354}
  9
$EXTNAMES
290
     1
  9
$PSVPSCALE
 40
0.0
  9
$OLESTARTUP
290
     0
  9
$SORTENTS
280
   127
  9
$INDEXCTL
280
     0
  9
$HIDETEXT
280
     1
  9
$XCLIPFRAME
280
     2
  9
$HALOGAP
280
     0
  9
$OBSCOLOR
 70
   257
  9
$OBSLTYPE
280
     0
  9
$INTERSECTIONDISPLAY
280
     0
  9
$INTERSECTIONCOLOR
 70
   257
  9
$DIMASSOC
280
     2
  9
$PROJECTNAME
  1

  9
$CAMERADISPLAY
290
     0
  9
$LENSLENGTH
 40
50.0
  9
$CAMERAHEIGHT
 40
0.0
  9
$STEPSPERSEC
 40
2.0
  9
$STEPSIZE
 40
6.0
  9
$3DDWFPREC
 40
2.0
  9
$PSOLWIDTH
 40
0.25
  9
$PSOLHEIGHT
 40
4.0
  9
$LOFTANG1
 40
1.570796326794896
  9
$LOFTANG2
 40
1.570796326794896
  9
$LOFTMAG1
 40
0.0
  9
$LOFTMAG2
 40
0.0
  9
$LOFTPARAM
 70
     7
  9
$LOFTNORMALS
280
     1
  9
$LATITUDE
 40
37.795
  9
$LONGITUDE
 40
-122.394
  9
$NORTHDIRECTION
 40
0.0
  9
$TIMEZONE
 70
 -8000
  9
$LIGHTGLYPHDISPLAY
280
     1
  9
$TILEMODELIGHTSYNCH
280
     1
  9
$CMATERIAL
347
11
  9
$SOLIDHIST
280
     0
  9
$SHOWHIST
280
     1
  9
$DWFFRAME
280
     2
  9
$DGNFRAME
280
     0
  9
$REALWORLDSCALE
290
     1
  9
$INTERFERECOLOR
 62
     1
  9
$INTERFEREOBJVS
345
33
  9
$INTERFEREVPVS
346
30
  9
$CSHADOW
280
     0
  9
$SHADOWPLANELOCATION
 40
0.0
  0
ENDSEC
  0
SECTION
  2
CLASSES
  0
CLASS
  1
ACDBDICTIONARYWDFLT
  2
AcDbDictionaryWithDefault
  3
ObjectDBX Classes
 90
        0
 91
        3
280
     0
281
     0
  0
CLASS
  1
MATERIAL
  2
AcDbMaterial
  3
ObjectDBX Classes
 90
     1153
 91
        3
280
     0
281
     0
  0
CLASS
  1
VISUALSTYLE
  2
AcDbVisualStyle
  3
ObjectDBX Classes
 90
     4095
 91
        3
280
     0
281
     0
  0
CLASS
  1
SCALE
  2
AcDbScale
  3
ObjectDBX Classes
 90
     1153
 91
        3
280
     0
281
     0
  0
CLASS
  1
TABLESTYLE
  2
AcDbTableStyle
  3
ObjectDBX Classes
 90
     4095
 91
        3
280
     0
281
     0
  0
CLASS
  1
MLEADERSTYLE
  2
AcDbMLeaderStyle
  3
ACDB_MLEADERSTYLE_CLASS
 90
     4095
 91
        3
280
     0
281
     0
  0
CLASS
  1
ACDBSECTIONVIEWSTYLE
  2
AcDbSectionViewStyle
  3
ObjectDBX Classes
 90
     1025
 91
        3
280
     0
281
     0
  0
CLASS
  1
ACDBDETAILVIEWSTYLE
  2
AcDbDetailViewStyle
  3
ObjectDBX Classes
 90
     1025
 91
        3
280
     0
281
     0
  0
CLASS
  1
DICTIONARYVAR
  2
AcDbDictionaryVar
  3
ObjectDBX Classes
 90
        0
 91
        3
280
     0
281
     0
  0
CLASS
  1
CELLSTYLEMAP
  2
AcDbCellStyleMap
  3
ObjectDBX Classes
 90
     1152
 91
        3
280
     0
281
     0
  0
CLASS
  1
SUN
  2
AcDbSun
  3
SCENEOE
 90
     1153
 91
        3
280
     0
281
     0
  0
ENDSEC
  0
SECTION
  2
TABLES
  0
TABLE
  2
VPORT
  5
8
330
0
100
AcDbSymbolTable
 70
     1
  0
VPORT
  5
57
330
8
100
AcDbSymbolTableRecord
100
AcDbViewportTableRecord
  2
*Active
 70
     0
 10
0.0
 20
0.0
 11
1.0
 21
1.0
 12
-0.5403603667075565
 22
-0.154894646702374
 13
0.0
 23
0.0
 14
1.0
 24
1.0
 15
0.0
 25
0.0
 16
0.0
 26
0.0
 36
1.0
 17
5.320274166908644
 27
-6.220307897584718
 37
0.0
 40
13.4042521734757
 41
2.481912144702842
 42
50.0
 43
0.0
 44
0.0
 50
0.0
 51
0.0
 71
     0
 72
   100
 73
     1
 74
     0
 75
     0
 76
     0
 77
     0
 78
     0
281
     0
 65
     1
110
0.0
120
0.0
130
0.0
111
1.0
121
0.0
131
0.0
112
0.0
122
1.0
132
0.0
 79
     0
146
0.0
348
2F
 60
     3
 61
     5
292
     1
282
     1
141
0.0
142
0.0
 63
   250
421
  3355443
361
25A
1001
ACAD_NAV_VCDISPLAY
1070
     3
  0
ENDTAB
  0
TABLE
  2
LTYPE
  5
5
330
0
100
AcDbSymbolTable
 70
     1
  0
LTYPE
  5
5B
330
5
100
AcDbSymbolTableRecord
100
AcDbLinetypeTableRecord
  2
ByBlock
 70
     0
  3

 72
    65
 73
     0
 40
0.0
  0
LTYPE
  5
5C
330
5
100
AcDbSymbolTableRecord
100
AcDbLinetypeTableRecord
  2
ByLayer
 70
     0
  3

 72
    65
 73
     0
 40
0.0
  0
LTYPE
  5
5D
330
5
100
AcDbSymbolTableRecord
100
AcDbLinetypeTableRecord
  2
Continuous
 70
     0
  3
Solid line
 72
    65
 73
     0
 40
0.0
  0
ENDTAB
  0
TABLE
  2
LAYER
  5
2
102
{ACAD_XDICTIONARY
360
142
102
}
330
0
100
AcDbSymbolTable
 70
     3
  0
LAYER
  5
54
330
2
100
AcDbSymbolTableRecord
100
AcDbLayerTableRecord
  2
0
 70
     0
 62
     7
  6
Continuous
370
    -3
390
F
347
21
348
0
  0
LAYER
  5
78
330
2
100
AcDbSymbolTableRecord
100
AcDbLayerTableRecord
  2
Livello 1
 70
     0
 62
     7
  6
Continuous
370
     0
390
F
347
21
348
0
  0
LAYER
  5
C2
330
2
100
AcDbSymbolTableRecord
100
AcDbLayerTableRecord
  2
Livello 2
 70
     0
 62
     7
  6
Continuous
370
     0
390
F
347
21
348
0
  0
ENDTAB
  0
TABLE
  2
STYLE
  5
3
330
0
100
AcDbSymbolTable
 70
     2
  0
STYLE
  5
55
330
3
100
AcDbSymbolTableRecord
100
AcDbTextStyleTableRecord
  2
Standard
 70
     0
 40
0.0
 41
1.0
 50
0.0
 71
     0
 42
0.2
  3
txt
  4

  0
STYLE
  5
5A
330
3
100
AcDbSymbolTableRecord
100
AcDbTextStyleTableRecord
  2
Annotative
 70
     0
 40
0.0
 41
1.0
 50
0.0
 71
     0
 42
0.2
  3
txt
  4

1001
AcadAnnotative
1000
AnnotativeData
1002
{
1070
     1
1070
     1
1002
}
  0
ENDTAB
  0
TABLE
  2
VIEW
  5
6
330
0
100
AcDbSymbolTable
 70
     0
  0
ENDTAB
  0
TABLE
  2
UCS
  5
7
330
0
100
AcDbSymbolTable
 70
     0
  0
ENDTAB
  0
TABLE
  2
APPID
  5
9
330
0
100
AcDbSymbolTable
 70
     5
  0
APPID
  5
56
330
9
100
AcDbSymbolTableRecord
100
AcDbRegAppTableRecord
  2
ACAD
 70
     0
  0
APPID
  5
5E
330
9
100
AcDbSymbolTableRecord
100
AcDbRegAppTableRecord
  2
AcadAnnotative
 70
     0
  0
APPID
  5
141
330
9
100
AcDbSymbolTableRecord
100
AcDbRegAppTableRecord
  2
ACAD_NAV_VCDISPLAY
 70
     0
  0
APPID
  5
14A
330
9
100
AcDbSymbolTableRecord
100
AcDbRegAppTableRecord
  2
ACAD_EXEMPT_FROM_CAD_STANDARDS
 70
     0
  0
APPID
  5
191
330
9
100
AcDbSymbolTableRecord
100
AcDbRegAppTableRecord
  2
ACAD_MLEADERVER
 70
     0
  0
ENDTAB
  0
TABLE
  2
DIMSTYLE
  5
A
330
0
100
AcDbSymbolTable
 70
     2
100
AcDbDimStyleTable
  0
DIMSTYLE
105
58
330
A
100
AcDbSymbolTableRecord
100
AcDbDimStyleTableRecord
  2
Standard
 70
     0
178
     0
340
55
  0
DIMSTYLE
105
59
330
A
100
AcDbSymbolTableRecord
100
AcDbDimStyleTableRecord
  2
Annotative
 70
     0
178
     0
340
55
1001
AcadAnnotative
1000
AnnotativeData
1002
{
1070
     1
1070
     1
1002
}
  0
ENDTAB
  0
TABLE
  2
BLOCK_RECORD
  5
1
330
0
100
AcDbSymbolTable
 70
     9
  0
BLOCK_RECORD
  5
70
102
{ACAD_XDICTIONARY
360
25B
102
}
330
1
100
AcDbSymbolTableRecord
100
AcDbBlockTableRecord
  2
*Model_Space
340
73
 70
     0
280
     1
281
     0
  0
BLOCK_RECORD
  5
6C
330
1
100
AcDbSymbolTableRecord
100
AcDbBlockTableRecord
  2
*Paper_Space
340
6F
 70
     0
280
     1
281
     0
  0
BLOCK_RECORD
  5
74
330
1
100
AcDbSymbolTableRecord
100
AcDbBlockTableRecord
  2
*Paper_Space0
340
77
 70
     0
280
     1
281
     0
  0
BLOCK_RECORD
  5
C4
330
1
100
AcDbSymbolTableRecord
100
AcDbBlockTableRecord
  2
Block_0
340
0
 70
     0
280
     1
281
     0
  0
BLOCK_RECORD
  5
C8
330
1
100
AcDbSymbolTableRecord
100
AcDbBlockTableRecord
  2
Block_1
340
0
102
{BLKREFS
331
C9
102
}
 70
     0
280
     1
281
     0
  0
BLOCK_RECORD
  5
D3
330
1
100
AcDbSymbolTableRecord
100
AcDbBlockTableRecord
  2
Block_2
340
0
 70
     0
280
     1
281
     0
  0
BLOCK_RECORD
  5
D7
330
1
100
AcDbSymbolTableRecord
100
AcDbBlockTableRecord
  2
Block_3
340
0
102
{BLKREFS
331
D8
102
}
 70
     0
280
     1
281
     0
  0
BLOCK_RECORD
  5
E1
330
1
100
AcDbSymbolTableRecord
100
AcDbBlockTableRecord
  2
Block_4
340
0
 70
     0
280
     1
281
     0
  0
BLOCK_RECORD
  5
E5
330
1
100
AcDbSymbolTableRecord
100
AcDbBlockTableRecord
  2
Block_5
340
0
102
{BLKREFS
331
E6
102
}
 70
     0
280
     1
281
     0
  0
BLOCK_RECORD
  5
F0
330
1
100
AcDbSymbolTableRecord
100
AcDbBlockTableRecord
  2
Block_6
340
0
102
{BLKREFS
331
F1
102
}
 70
     0
280
     1
281
     0
  0
BLOCK_RECORD
  5
F4
330
1
100
AcDbSymbolTableRecord
100
AcDbBlockTableRecord
  2
Block_7
340
0
102
{BLKREFS
331
F5
102
}
 70
     0
280
     1
281
     0
  0
ENDTAB
  0
ENDSEC
  0
SECTION
  2
BLOCKS
  0
BLOCK
  5
71
330
70
100
AcDbEntity
  8
0
100
AcDbBlockBegin
  2
*Model_Space
 70
     0
 10
0.0
 20
0.0
 30
0.0
  3
*Model_Space
  1

  0
ENDBLK
  5
72
330
70
100
AcDbEntity
  8
0
100
AcDbBlockEnd
  0
BLOCK
  5
6D
330
6C
100
AcDbEntity
 67
     1
  8
0
100
AcDbBlockBegin
  2
*Paper_Space
 70
     0
 10
0.0
 20
0.0
 30
0.0
  3
*Paper_Space
  1

  0
ENDBLK
  5
6E
330
6C
100
AcDbEntity
 67
     1
  8
0
100
AcDbBlockEnd
  0
BLOCK
  5
75
330
74
100
AcDbEntity
  8
0
100
AcDbBlockBegin
  2
*Paper_Space0
 70
     0
 10
0.0
 20
0.0
 30
0.0
  3
*Paper_Space0
  1

  0
ENDBLK
  5
76
330
74
100
AcDbEntity
  8
0
100
AcDbBlockEnd
  0
BLOCK
  5
C6
330
C4
100
AcDbEntity
  8
0
100
AcDbBlockBegin
  2
Block_0
 70
     0
 10
0.0
 20
0.0
 30
0.0
  3
Block_0
  1

  0
INSERT
  5
C9
330
C4
100
AcDbEntity
  8
Livello 2
100
AcDbBlockReference
  2
Block_1
 10
0.0
 20
0.0
 30
0.0
  0
ENDBLK
  5
C7
330
C4
100
AcDbEntity
  8
0
100
AcDbBlockEnd
  0
BLOCK
  5
CA
330
C8
100
AcDbEntity
  8
0
100
AcDbBlockBegin
  2
Block_1
 70
     0
 10
0.0
 20
0.0
 30
0.0
  3
Block_1
  1

  0
SPLINE
  5
CC
330
C8
100
AcDbEntity
  8
Livello 2
100
AcDbSpline
210
0.0
220
0.0
230
1.0
 70
    11
 71
     3
 72
    17
 73
    13
 74
     0
 42
0.000000001
 43
0.0000000001
 40
0.0
 40
0.0
 40
0.0
 40
0.0
 40
1.0
 40
1.0
 40
1.0
 40
2.0
 40
2.0
 40
2.0
 40
3.0
 40
3.0
 40
3.0
 40
4.0
 40
4.0
 40
4.0
 40
4.0
 10
4.929587129843992
 20
-8.009468042702494
 30
0.0
 10
4.929587129843992
 20
-8.036959904674788
 30
0.0
 10
4.950309379187769
 20
-8.051773815261361
 30
0.0
 10
4.982038708606919
 20
-8.060248750155075
 30
0.0
 10
5.005740965545439
 20
-8.05218722671959
 30
0.0
 10
5.023931069707559
 20
-8.035271807887014
 30
0.0
 10
5.023931069707559
 20
-8.010329316573804
 30
0.0
 10
5.023931069707559
 20
-7.988315156423058
 30
0.0
 10
5.010822481386182
 20
-7.965474173355853
 30
0.0
 10
4.977387829701831
 20
-7.965474173355853
 30
0.0
 10
4.946502548676566
 20
-7.965474173355853
 30
0.0
 10
4.929587129843992
 20
-7.985765785763975
 30
0.0
 10
4.929587129843992
 20
-8.009468042702494
 30
0.0
  0
SPLINE
  5
CD
330
C8
100
AcDbEntity
  8
Livello 2
100
AcDbSpline
210
0.0
220
0.0
230
1.0
 70
    11
 71
     3
 72
    17
 73
    13
 74
     0
 42
0.000000001
 43
0.0000000001
 40
0.0
 40
0.0
 40
0.0
 40
0.0
 40
1.0
 40
1.0
 40
1.0
 40
2.0
 40
2.0
 40
2.0
 40
3.0
 40
3.0
 40
3.0
 40
4.0
 40
4.0
 40
4.0
 40
4.0
 10
5.031975367665617
 20
-8.146961803518815
 30
0.0
 10
5.031975367665617
 20
-8.113544377311891
 30
0.0
 10
5.008703747662755
 20
-8.097490232350626
 30
0.0
 10
4.971462265467204
 20
-8.086913789210909
 30
0.0
 10
4.939319524589822
 20
-8.096215547021085
 30
0.0
 10
4.921956243344163
 20
-8.117368433300518
 30
0.0
 10
4.921956243344163
 20
-8.143585609943269
 30
0.0
 10
4.920698783492047
 20
-8.171525334328644
 30
0.0
 10
4.941851669771481
 20
-8.196054414183624
 30
0.0
 10
4.976974418243604
 20
-8.196054414183624
 30
0.0
 10
5.010391844450527
 20
-8.196054414183624
 30
0.0
 10
5.031975367665617
 20
-8.17531493936242
 30
0.0
 10
5.031975367665617
 20
-8.146961803518815
 30
0.0
  0
SPLINE
  5
CE
330
C8
100
AcDbEntity
  8
Livello 2
100
AcDbSpline
210
0.0
220
0.0
230
1.0
 70
    11
 71
     3
 72
    35
 73
    31
 74
     0
 42
0.000000001
 43
0.0000000001
 40
0.0
 40
0.0
 40
0.0
 40
0.0
 40
1.0
 40
1.0
 40
1.0
 40
2.0
 40
2.0
 40
2.0
 40
3.0
 40
3.0
 40
3.0
 40
4.0
 40
4.0
 40
4.0
 40
5.0
 40
5.0
 40
5.0
 40
6.0
 40
6.0
 40
6.0
 40
7.0
 40
7.0
 40
7.0
 40
8.0
 40
8.0
 40
8.0
 40
9.0
 40
9.0
 40
9.0
 40
10.0
 40
10.0
 40
10.0
 40
10.0
 10
4.883887938232152
 20
-8.148684351261437
 30
0.0
 10
4.883887938232152
 20
-8.113992239724972
 30
0.0
 10
4.904610187575928
 20
-8.089428708915142
 30
0.0
 10
4.938458250718506
 20
-8.07506266074165
 30
0.0
 10
4.938458250718506
 20
-8.07506266074165
 30
0.0
 10
4.93804483926028
 20
-8.073787975412108
 30
0.0
 10
4.93804483926028
 20
-8.073787975412108
 30
0.0
 10
4.907572969693243
 20
-8.059387476283762
 30
0.0
 10
4.894464381371868
 20
-8.035685219345245
 30
0.0
 10
4.894464381371868
 20
-8.012017413361576
 30
0.0
 10
4.894464381371868
 20
-7.968436955473168
 30
0.0
 10
4.931275226631762
 20
-7.938809134300017
 30
0.0
 10
4.979506563425262
 20
-7.938809134300017
 30
0.0
 10
5.032819416059503
 20
-7.938809134300017
 30
0.0
 10
5.05946722963791
 20
-7.972226560506942
 30
0.0
 10
5.05946722963791
 20
-8.006505260585179
 30
0.0
 10
5.05946722963791
 20
-8.029794106065468
 30
0.0
 10
5.048029512626881
 20
-8.054736597378676
 30
0.0
 10
5.014198674961727
 20
-8.070825193294793
 30
0.0
 10
5.014198674961727
 20
-8.070825193294793
 30
0.0
 10
5.014198674961727
 20
-8.072099878624336
 30
0.0
 10
5.014198674961727
 20
-8.072099878624336
 30
0.0
 10
5.048477375039961
 20
-8.085639103881368
 30
0.0
 10
5.069595810364543
 20
-8.109754772278116
 30
0.0
 10
5.069595810364543
 20
-8.14317219848504
 30
0.0
 10
5.069595810364543
 20
-8.190990123820308
 30
0.0
 10
5.028581948612646
 20
-8.22313286469769
 30
0.0
 10
4.976113144372289
 20
-8.22313286469769
 30
0.0
 10
4.918580049768618
 20
-8.22313286469769
 30
0.0
 10
4.883887938232152
 20
-8.188854164619451
 30
0.0
 10
4.883887938232152
 20
-8.148684351261437
 30
0.0
  0
HATCH
  5
CF
330
C8
100
AcDbEntity
  8
Livello 2
 62
   250
420
  1907995
440
 33554687
100
AcDbHatch
 10
0.0
 20
0.0
 30
0.0
210
0.0
220
0.0
230
1.0
  2
SOLID
 70
     1
 71
     1
 91
        3
 92
        1
 93
        1
 72
     4
 94
        3
 73
     0
 74
     0
 95
       17
 96
       13
 40
0.0
 40
0.0
 40
0.0
 40
0.0
 40
1.0
 40
1.0
 40
1.0
 40
2.0
 40
2.0
 40
2.0
 40
3.0
 40
3.0
 40
3.0
 40
4.0
 40
4.0
 40
4.0
 40
4.0
 10
4.929587129843992
 20
-8.009468042702494
 10
4.929587129843992
 20
-8.036959904674788
 10
4.950309379187769
 20
-8.051773815261361
 10
4.982038708606919
 20
-8.060248750155075
 10
5.005740965545439
 20
-8.05218722671959
 10
5.023931069707559
 20
-8.035271807887014
 10
5.023931069707559
 20
-8.010329316573804
 10
5.023931069707559
 20
-7.988315156423058
 10
5.010822481386182
 20
-7.965474173355853
 10
4.977387829701831
 20
-7.965474173355853
 10
4.946502548676566
 20
-7.965474173355853
 10
4.929587129843992
 20
-7.985765785763975
 10
4.929587129843992
 20
-8.009468042702494
 97
        0
 97
        1
330
CC
 92
        1
 93
        1
 72
     4
 94
        3
 73
     0
 74
     0
 95
       17
 96
       13
 40
0.0
 40
0.0
 40
0.0
 40
0.0
 40
1.0
 40
1.0
 40
1.0
 40
2.0
 40
2.0
 40
2.0
 40
3.0
 40
3.0
 40
3.0
 40
4.0
 40
4.0
 40
4.0
 40
4.0
 10
5.031975367665617
 20
-8.146961803518815
 10
5.031975367665617
 20
-8.113544377311891
 10
5.008703747662755
 20
-8.097490232350626
 10
4.971462265467204
 20
-8.086913789210909
 10
4.939319524589822
 20
-8.096215547021085
 10
4.921956243344163
 20
-8.117368433300518
 10
4.921956243344163
 20
-8.143585609943269
 10
4.920698783492047
 20
-8.171525334328644
 10
4.941851669771481
 20
-8.196054414183624
 10
4.976974418243604
 20
-8.196054414183624
 10
5.010391844450527
 20
-8.196054414183624
 10
5.031975367665617
 20
-8.17531493936242
 10
5.031975367665617
 20
-8.146961803518815
 97
        0
 97
        1
330
CD
 92
        1
 93
        1
 72
     4
 94
        3
 73
     0
 74
     0
 95
       35
 96
       31
 40
0.0
 40
0.0
 40
0.0
 40
0.0
 40
1.0
 40
1.0
 40
1.0
 40
2.0
 40
2.0
 40
2.0
 40
3.0
 40
3.0
 40
3.0
 40
4.0
 40
4.0
 40
4.0
 40
5.0
 40
5.0
 40
5.0
 40
6.0
 40
6.0
 40
6.0
 40
7.0
 40
7.0
 40
7.0
 40
8.0
 40
8.0
 40
8.0
 40
9.0
 40
9.0
 40
9.0
 40
10.0
 40
10.0
 40
10.0
 40
10.0
 10
4.883887938232152
 20
-8.148684351261437
 10
4.883887938232152
 20
-8.113992239724972
 10
4.904610187575928
 20
-8.089428708915142
 10
4.938458250718506
 20
-8.07506266074165
 10
4.938458250718506
 20
-8.07506266074165
 10
4.93804483926028
 20
-8.073787975412108
 10
4.93804483926028
 20
-8.073787975412108
 10
4.907572969693243
 20
-8.059387476283762
 10
4.894464381371868
 20
-8.035685219345245
 10
4.894464381371868
 20
-8.012017413361576
 10
4.894464381371868
 20
-7.968436955473168
 10
4.931275226631762
 20
-7.938809134300017
 10
4.979506563425262
 20
-7.938809134300017
 10
5.032819416059503
 20
-7.938809134300017
 10
5.05946722963791
 20
-7.972226560506942
 10
5.05946722963791
 20
-8.006505260585179
 10
5.05946722963791
 20
-8.029794106065468
 10
5.048029512626881
 20
-8.054736597378676
 10
5.014198674961727
 20
-8.070825193294793
 10
5.014198674961727
 20
-8.070825193294793
 10
5.014198674961727
 20
-8.072099878624336
 10
5.014198674961727
 20
-8.072099878624336
 10
5.048477375039961
 20
-8.085639103881368
 10
5.069595810364543
 20
-8.109754772278116
 10
5.069595810364543
 20
-8.14317219848504
 10
5.069595810364543
 20
-8.190990123820308
 10
5.028581948612646
 20
-8.22313286469769
 10
4.976113144372289
 20
-8.22313286469769
 10
4.918580049768618
 20
-8.22313286469769
 10
4.883887938232152
 20
-8.188854164619451
 10
4.883887938232152
 20
-8.148684351261437
 97
        0
 97
        1
330
CE
 75
     2
 76
     1
 98
        1
 10
0.0
 20
0.0
  0
SPLINE
  5
D0
330
C8
100
AcDbEntity
  8
Livello 2
100
AcDbSpline
210
0.0
220
0.0
230
1.0
 70
    11
 71
     3
 72
    29
 73
    25
 74
     0
 42
0.000000001
 43
0.0000000001
 40
0.0
 40
0.0
 40
0.0
 40
0.0
 40
1.0
 40
1.0
 40
1.0
 40
2.0
 40
2.0
 40
2.0
 40
3.0
 40
3.0
 40
3.0
 40
4.0
 40
4.0
 40
4.0
 40
5.0
 40
5.0
 40
5.0
 40
6.0
 40
6.0
 40
6.0
 40
7.0
 40
7.0
 40
7.0
 40
8.0
 40
8.0
 40
8.0
 40
8.0
 10
5.185213214849528
 20
-7.978152124741572
 30
0.0
 10
5.185213214849528
 20
-7.978152124741572
 30
0.0
 10
5.184386391933069
 20
-7.978152124741572
 30
0.0
 10
5.184386391933069
 20
-7.978152124741572
 30
0.0
 10
5.184386391933069
 20
-7.978152124741572
 30
0.0
 10
5.136568466597799
 20
-8.003955889926093
 30
0.0
 10
5.136568466597799
 20
-8.003955889926093
 30
0.0
 10
5.136568466597799
 20
-8.003955889926093
 30
0.0
 10
5.129402667988481
 20
-7.975637205037337
 30
0.0
 10
5.129402667988481
 20
-7.975637205037337
 30
0.0
 10
5.129402667988481
 20
-7.975637205037337
 30
0.0
 10
5.189485133251239
 20
-7.943460013205106
 30
0.0
 10
5.189485133251239
 20
-7.943460013205106
 30
0.0
 10
5.189485133251239
 20
-7.943460013205106
 30
0.0
 10
5.221180011715538
 20
-7.943460013205106
 30
0.0
 10
5.221180011715538
 20
-7.943460013205106
 30
0.0
 10
5.221180011715538
 20
-7.943460013205106
 30
0.0
 10
5.221180011715538
 20
-8.218481985792602
 30
0.0
 10
5.221180011715538
 20
-8.218481985792602
 30
0.0
 10
5.221180011715538
 20
-8.218481985792602
 30
0.0
 10
5.185213214849528
 20
-8.218481985792602
 30
0.0
 10
5.185213214849528
 20
-8.218481985792602
 30
0.0
 10
5.185213214849528
 20
-8.218481985792602
 30
0.0
 10
5.185213214849528
 20
-7.978152124741572
 30
0.0
 10
5.185213214849528
 20
-7.978152124741572
 30
0.0
  0
HATCH
  5
D1
330
C8
100
AcDbEntity
  8
Livello 2
 62
   250
420
  1907995
440
 33554687
100
AcDbHatch
 10
0.0
 20
0.0
 30
0.0
210
0.0
220
0.0
230
1.0
  2
SOLID
 70
     1
 71
     1
 91
        1
 92
        1
 93
        1
 72
     4
 94
        3
 73
     0
 74
     0
 95
       29
 96
       25
 40
0.0
 40
0.0
 40
0.0
 40
0.0
 40
1.0
 40
1.0
 40
1.0
 40
2.0
 40
2.0
 40
2.0
 40
3.0
 40
3.0
 40
3.0
 40
4.0
 40
4.0
 40
4.0
 40
5.0
 40
5.0
 40
5.0
 40
6.0
 40
6.0
 40
6.0
 40
7.0
 40
7.0
 40
7.0
 40
8.0
 40
8.0
 40
8.0
 40
8.0
 10
5.185213214849528
 20
-7.978152124741572
 10
5.185213214849528
 20
-7.978152124741572
 10
5.184386391933069
 20
-7.978152124741572
 10
5.184386391933069
 20
-7.978152124741572
 10
5.184386391933069
 20
-7.978152124741572
 10
5.136568466597799
 20
-8.003955889926093
 10
5.136568466597799
 20
-8.003955889926093
 10
5.136568466597799
 20
-8.003955889926093
 10
5.129402667988481
 20
-7.975637205037337
 10
5.129402667988481
 20
-7.975637205037337
 10
5.129402667988481
 20
-7.975637205037337
 10
5.189485133251239
 20
-7.943460013205106
 10
5.189485133251239
 20
-7.943460013205106
 10
5.189485133251239
 20
-7.943460013205106
 10
5.221180011715538
 20
-7.943460013205106
 10
5.221180011715538
 20
-7.943460013205106
 10
5.221180011715538
 20
-7.943460013205106
 10
5.221180011715538
 20
-8.218481985792602
 10
5.221180011715538
 20
-8.218481985792602
 10
5.221180011715538
 20
-8.218481985792602
 10
5.185213214849528
 20
-8.218481985792602
 10
5.185213214849528
 20
-8.218481985792602
 10
5.185213214849528
 20
-8.218481985792602
 10
5.185213214849528
 20
-7.978152124741572
 10
5.185213214849528
 20
-7.978152124741572
 97
        0
 97
        1
330
D0
 75
     2
 76
     1
 98
        1
 10
0.0
 20
0.0
  0
ENDBLK
  5
CB
330
C8
100
AcDbEntity
  8
0
100
AcDbBlockEnd
  0
BLOCK
  5
D5
330
D3
100
AcDbEntity
  8
0
100
AcDbBlockBegin
  2
Block_2
 70
     0
 10
0.0
 20
0.0
 30
0.0
  3
Block_2
  1

  0
INSERT
  5
D8
330
D3
100
AcDbEntity
  8
Livello 2
100
AcDbBlockReference
  2
Block_3
 10
0.0
 20
0.0
 30
0.0
  0
ENDBLK
  5
D6
330
D3
100
AcDbEntity
  8
0
100
AcDbBlockEnd
  0
BLOCK
  5
D9
330
D7
100
AcDbEntity
  8
0
100
AcDbBlockBegin
  2
Block_3
 70
     0
 10
0.0
 20
0.0
 30
0.0
  3
Block_3
  1

  0
SPLINE
  5
DB
330
D7
100
AcDbEntity
  8
Livello 2
100
AcDbSpline
210
0.0
220
0.0
230
1.0
 70
    11
 71
     3
 72
    59
 73
    55
 74
     0
 42
0.000000001
 43
0.0000000001
 40
0.0
 40
0.0
 40
0.0
 40
0.0
 40
1.0
 40
1.0
 40
1.0
 40
2.0
 40
2.0
 40
2.0
 40
3.0
 40
3.0
 40
3.0
 40
4.0
 40
4.0
 40
4.0
 40
5.0
 40
5.0
 40
5.0
 40
6.0
 40
6.0
 40
6.0
 40
7.0
 40
7.0
 40
7.0
 40
8.0
 40
8.0
 40
8.0
 40
9.0
 40
9.0
 40
9.0
 40
10.0
 40
10.0
 40
10.0
 40
11.0
 40
11.0
 40
11.0
 40
12.0
 40
12.0
 40
12.0
 40
13.0
 40
13.0
 40
13.0
 40
14.0
 40
14.0
 40
14.0
 40
15.0
 40
15.0
 40
15.0
 40
16.0
 40
16.0
 40
16.0
 40
17.0
 40
17.0
 40
17.0
 40
18.0
 40
18.0
 40
18.0
 40
18.0
 10
9.023773055469748
 20
-7.7041292298448
 30
0.0
 10
9.034349498609467
 20
-7.71088161699589
 30
0.0
 10
9.058878578464444
 20
-7.721458060135607
 30
0.0
 10
9.084682343648966
 20
-7.721458060135607
 30
0.0
 10
9.132500268984236
 20
-7.721458060135607
 30
0.0
 10
9.147314179570808
 20
-7.691003416045997
 30
0.0
 10
9.146866317157727
 20
-7.668162432978793
 30
0.0
 10
9.146452905699496
 20
-7.629646265453697
 30
0.0
 10
9.111760794163027
 20
-7.613144258079353
 30
0.0
 10
9.075793997297023
 20
-7.613144258079353
 30
0.0
 10
9.075793997297023
 20
-7.613144258079353
 30
0.0
 10
9.055054522475821
 20
-7.613144258079353
 30
0.0
 10
9.055054522475821
 20
-7.613144258079353
 30
0.0
 10
9.055054522475821
 20
-7.613144258079353
 30
0.0
 10
9.055054522475821
 20
-7.585238984648828
 30
0.0
 10
9.055054522475821
 20
-7.585238984648828
 30
0.0
 10
9.055054522475821
 20
-7.585238984648828
 30
0.0
 10
9.075793997297023
 20
-7.585238984648828
 30
0.0
 10
9.075793997297023
 20
-7.585238984648828
 30
0.0
 10
9.102872447811087
 20
-7.585238984648828
 30
0.0
 10
9.137151147889325
 20
-7.571251896978714
 30
0.0
 10
9.137151147889325
 20
-7.538695744643103
 30
0.0
 10
9.137151147889325
 20
-7.516681584492357
 30
0.0
 10
9.12319851117406
 20
-7.497216795000695
 30
0.0
 10
9.088919811095824
 20
-7.497216795000695
 30
0.0
 10
9.066905650945076
 20
-7.497216795000695
 30
0.0
 10
9.045752764665645
 20
-7.506966415223952
 30
0.0
 10
9.033901636196383
 20
-7.515406899162812
 30
0.0
 10
9.033901636196383
 20
-7.515406899162812
 30
0.0
 10
9.024186466927981
 20
-7.488328448648749
 30
0.0
 10
9.024186466927981
 20
-7.488328448648749
 30
0.0
 10
9.038552515101472
 20
-7.477752005509032
 30
0.0
 10
9.066492239486848
 20
-7.467175562369317
 30
0.0
 10
9.096120060659997
 20
-7.467175562369317
 30
0.0
 10
9.150276961688123
 20
-7.467175562369317
 30
0.0
 10
9.174806041543103
 20
-7.499318303246695
 30
0.0
 10
9.174806041543103
 20
-7.532770180408473
 30
0.0
 10
9.174806041543103
 20
-7.561123316252079
 30
0.0
 10
9.157890622710523
 20
-7.585238984648828
 30
0.0
 10
9.124025334090518
 20
-7.597503524576317
 30
0.0
 10
9.124025334090518
 20
-7.597503524576317
 30
0.0
 10
9.124025334090518
 20
-7.598330347492777
 30
0.0
 10
9.124025334090518
 20
-7.598330347492777
 30
0.0
 10
9.157890622710523
 20
-7.60511718559872
 30
0.0
 10
9.18538248468282
 20
-7.630507539325012
 30
0.0
 10
9.18538248468282
 20
-7.668989255895253
 30
0.0
 10
9.18538248468282
 20
-7.713017576196745
 30
0.0
 10
9.151103784604585
 20
-7.751499292766986
 30
0.0
 10
9.085095755107195
 20
-7.751499292766986
 30
0.0
 10
9.054227699559355
 20
-7.751499292766986
 30
0.0
 10
9.027149249045296
 20
-7.741784123498582
 30
0.0
 10
9.013610023788264
 20
-7.732895777146636
 30
0.0
 10
9.013610023788264
 20
-7.732895777146636
 30
0.0
 10
9.023773055469748
 20
-7.7041292298448
 30
0.0
 10
9.023773055469748
 20
-7.7041292298448
 30
0.0
  0
HATCH
  5
DC
330
D7
100
AcDbEntity
  8
Livello 2
 62
   250
420
  1907995
440
 33554687
100
AcDbHatch
 10
0.0
 20
0.0
 30
0.0
210
0.0
220
0.0
230
1.0
  2
SOLID
 70
     1
 71
     1
 91
        1
 92
        1
 93
        1
 72
     4
 94
        3
 73
     0
 74
     0
 95
       59
 96
       55
 40
0.0
 40
0.0
 40
0.0
 40
0.0
 40
1.0
 40
1.0
 40
1.0
 40
2.0
 40
2.0
 40
2.0
 40
3.0
 40
3.0
 40
3.0
 40
4.0
 40
4.0
 40
4.0
 40
5.0
 40
5.0
 40
5.0
 40
6.0
 40
6.0
 40
6.0
 40
7.0
 40
7.0
 40
7.0
 40
8.0
 40
8.0
 40
8.0
 40
9.0
 40
9.0
 40
9.0
 40
10.0
 40
10.0
 40
10.0
 40
11.0
 40
11.0
 40
11.0
 40
12.0
 40
12.0
 40
12.0
 40
13.0
 40
13.0
 40
13.0
 40
14.0
 40
14.0
 40
14.0
 40
15.0
 40
15.0
 40
15.0
 40
16.0
 40
16.0
 40
16.0
 40
17.0
 40
17.0
 40
17.0
 40
18.0
 40
18.0
 40
18.0
 40
18.0
 10
9.023773055469748
 20
-7.7041292298448
 10
9.034349498609467
 20
-7.71088161699589
 10
9.058878578464444
 20
-7.721458060135607
 10
9.084682343648966
 20
-7.721458060135607
 10
9.132500268984236
 20
-7.721458060135607
 10
9.147314179570808
 20
-7.691003416045997
 10
9.146866317157727
 20
-7.668162432978793
 10
9.146452905699496
 20
-7.629646265453697
 10
9.111760794163027
 20
-7.613144258079353
 10
9.075793997297023
 20
-7.613144258079353
 10
9.075793997297023
 20
-7.613144258079353
 10
9.055054522475821
 20
-7.613144258079353
 10
9.055054522475821
 20
-7.613144258079353
 10
9.055054522475821
 20
-7.613144258079353
 10
9.055054522475821
 20
-7.585238984648828
 10
9.055054522475821
 20
-7.585238984648828
 10
9.055054522475821
 20
-7.585238984648828
 10
9.075793997297023
 20
-7.585238984648828
 10
9.075793997297023
 20
-7.585238984648828
 10
9.102872447811087
 20
-7.585238984648828
 10
9.137151147889325
 20
-7.571251896978714
 10
9.137151147889325
 20
-7.538695744643103
 10
9.137151147889325
 20
-7.516681584492357
 10
9.12319851117406
 20
-7.497216795000695
 10
9.088919811095824
 20
-7.497216795000695
 10
9.066905650945076
 20
-7.497216795000695
 10
9.045752764665645
 20
-7.506966415223952
 10
9.033901636196383
 20
-7.515406899162812
 10
9.033901636196383
 20
-7.515406899162812
 10
9.024186466927981
 20
-7.488328448648749
 10
9.024186466927981
 20
-7.488328448648749
 10
9.038552515101472
 20
-7.477752005509032
 10
9.066492239486848
 20
-7.467175562369317
 10
9.096120060659997
 20
-7.467175562369317
 10
9.150276961688123
 20
-7.467175562369317
 10
9.174806041543103
 20
-7.499318303246695
 10
9.174806041543103
 20
-7.532770180408473
 10
9.174806041543103
 20
-7.561123316252079
 10
9.157890622710523
 20
-7.585238984648828
 10
9.124025334090518
 20
-7.597503524576317
 10
9.124025334090518
 20
-7.597503524576317
 10
9.124025334090518
 20
-7.598330347492777
 10
9.124025334090518
 20
-7.598330347492777
 10
9.157890622710523
 20
-7.60511718559872
 10
9.18538248468282
 20
-7.630507539325012
 10
9.18538248468282
 20
-7.668989255895253
 10
9.18538248468282
 20
-7.713017576196745
 10
9.151103784604585
 20
-7.751499292766986
 10
9.085095755107195
 20
-7.751499292766986
 10
9.054227699559355
 20
-7.751499292766986
 10
9.027149249045296
 20
-7.741784123498582
 10
9.013610023788264
 20
-7.732895777146636
 10
9.013610023788264
 20
-7.732895777146636
 10
9.023773055469748
 20
-7.7041292298448
 10
9.023773055469748
 20
-7.7041292298448
 97
        0
 97
        1
330
DB
 75
     2
 76
     1
 98
        1
 10
0.0
 20
0.0
  0
SPLINE
  5
DD
330
D7
100
AcDbEntity
  8
Livello 2
100
AcDbSpline
210
0.0
220
0.0
230
1.0
 70
    11
 71
     3
 72
    17
 73
    13
 74
     0
 42
0.000000001
 43
0.0000000001
 40
0.0
 40
0.0
 40
0.0
 40
0.0
 40
1.0
 40
1.0
 40
1.0
 40
2.0
 40
2.0
 40
2.0
 40
3.0
 40
3.0
 40
3.0
 40
4.0
 40
4.0
 40
4.0
 40
4.0
 10
9.265480954714882
 20
-7.610594887420268
 30
0.0
 10
9.265480954714882
 20
-7.682115069694053
 30
0.0
 10
9.287495114865628
 20
-7.722732745465147
 30
0.0
 10
9.32132595253078
 20
-7.722732745465147
 30
0.0
 10
9.359394257642787
 20
-7.722732745465147
 30
0.0
 10
9.377584361804908
 20
-7.678291013705424
 30
0.0
 10
9.377584361804908
 20
-7.608079967716034
 30
0.0
 10
9.377584361804908
 20
-7.540383841430875
 30
0.0
 10
9.3602555315141
 20
-7.495942109671152
 30
0.0
 10
9.321739363989007
 20
-7.495942109671152
 30
0.0
 10
9.289183211653398
 20
-7.495942109671152
 30
0.0
 10
9.265480954714882
 20
-7.535732962525787
 30
0.0
 10
9.265480954714882
 20
-7.610594887420268
 30
0.0
  0
SPLINE
  5
DE
330
D7
100
AcDbEntity
  8
Livello 2
100
AcDbSpline
210
0.0
220
0.0
230
1.0
 70
    11
 71
     3
 72
    17
 73
    13
 74
     0
 42
0.000000001
 43
0.0000000001
 40
0.0
 40
0.0
 40
0.0
 40
0.0
 40
1.0
 40
1.0
 40
1.0
 40
2.0
 40
2.0
 40
2.0
 40
3.0
 40
3.0
 40
3.0
 40
4.0
 40
4.0
 40
4.0
 40
4.0
 10
9.414825844000461
 20
-7.606391870928262
 30
0.0
 10
9.414825844000461
 20
-7.699891762397942
 30
0.0
 10
9.380133732463994
 20
-7.751499292766986
 30
0.0
 10
9.319224444284773
 20
-7.751499292766986
 30
0.0
 10
9.265480954714882
 20
-7.751499292766986
 30
0.0
 10
9.22910074639064
 20
-7.701166447727486
 30
0.0
 10
9.228239472519329
 20
-7.610181475962036
 30
0.0
 10
9.228239472519329
 20
-7.517956269821898
 30
0.0
 10
9.268030325373964
 20
-7.467175562369317
 30
0.0
 10
9.323875323189863
 20
-7.467175562369317
 30
0.0
 10
9.381821829251766
 20
-7.467175562369317
 30
0.0
 10
9.414825844000461
 20
-7.518783092738359
 30
0.0
 10
9.414825844000461
 20
-7.606391870928262
 30
0.0
  0
HATCH
  5
DF
330
D7
100
AcDbEntity
  8
Livello 2
 62
   250
420
  1907995
440
 33554687
100
AcDbHatch
 10
0.0
 20
0.0
 30
0.0
210
0.0
220
0.0
230
1.0
  2
SOLID
 70
     1
 71
     1
 91
        2
 92
        1
 93
        1
 72
     4
 94
        3
 73
     0
 74
     0
 95
       17
 96
       13
 40
0.0
 40
0.0
 40
0.0
 40
0.0
 40
1.0
 40
1.0
 40
1.0
 40
2.0
 40
2.0
 40
2.0
 40
3.0
 40
3.0
 40
3.0
 40
4.0
 40
4.0
 40
4.0
 40
4.0
 10
9.265480954714882
 20
-7.610594887420268
 10
9.265480954714882
 20
-7.682115069694053
 10
9.287495114865628
 20
-7.722732745465147
 10
9.32132595253078
 20
-7.722732745465147
 10
9.359394257642787
 20
-7.722732745465147
 10
9.377584361804908
 20
-7.678291013705424
 10
9.377584361804908
 20
-7.608079967716034
 10
9.377584361804908
 20
-7.540383841430875
 10
9.3602555315141
 20
-7.495942109671152
 10
9.321739363989007
 20
-7.495942109671152
 10
9.289183211653398
 20
-7.495942109671152
 10
9.265480954714882
 20
-7.535732962525787
 10
9.265480954714882
 20
-7.610594887420268
 97
        0
 97
        1
330
DD
 92
        1
 93
        1
 72
     4
 94
        3
 73
     0
 74
     0
 95
       17
 96
       13
 40
0.0
 40
0.0
 40
0.0
 40
0.0
 40
1.0
 40
1.0
 40
1.0
 40
2.0
 40
2.0
 40
2.0
 40
3.0
 40
3.0
 40
3.0
 40
4.0
 40
4.0
 40
4.0
 40
4.0
 10
9.414825844000461
 20
-7.606391870928262
 10
9.414825844000461
 20
-7.699891762397942
 10
9.380133732463994
 20
-7.751499292766986
 10
9.319224444284773
 20
-7.751499292766986
 10
9.265480954714882
 20
-7.751499292766986
 10
9.22910074639064
 20
-7.701166447727486
 10
9.228239472519329
 20
-7.610181475962036
 10
9.228239472519329
 20
-7.517956269821898
 10
9.268030325373964
 20
-7.467175562369317
 10
9.323875323189863
 20
-7.467175562369317
 10
9.381821829251766
 20
-7.467175562369317
 10
9.414825844000461
 20
-7.518783092738359
 10
9.414825844000461
 20
-7.606391870928262
 97
        0
 97
        1
330
DE
 75
     2
 76
     1
 98
        1
 10
0.0
 20
0.0
  0
ENDBLK
  5
DA
330
D7
100
AcDbEntity
  8
0
100
AcDbBlockEnd
  0
BLOCK
  5
E3
330
E1
100
AcDbEntity
  8
0
100
AcDbBlockBegin
  2
Block_4
 70
     0
 10
0.0
 20
0.0
 30
0.0
  3
Block_4
  1

  0
INSERT
  5
E6
330
E1
100
AcDbEntity
  8
Livello 2
100
AcDbBlockReference
  2
Block_5
 10
0.0
 20
0.0
 30
0.0
  0
ENDBLK
  5
E4
330
E1
100
AcDbEntity
  8
0
100
AcDbBlockEnd
  0
BLOCK
  5
E7
330
E5
100
AcDbEntity
  8
0
100
AcDbBlockBegin
  2
Block_5
 70
     0
 10
0.0
 20
0.0
 30
0.0
  3
Block_5
  1

  0
SPLINE
  5
E9
330
E5
100
AcDbEntity
  8
Livello 2
100
AcDbSpline
210
0.0
220
0.0
230
1.0
 70
    11
 71
     3
 72
    29
 73
    25
 74
     0
 42
0.000000001
 43
0.0000000001
 40
0.0
 40
0.0
 40
0.0
 40
0.0
 40
1.0
 40
1.0
 40
1.0
 40
2.0
 40
2.0
 40
2.0
 40
3.0
 40
3.0
 40
3.0
 40
4.0
 40
4.0
 40
4.0
 40
5.0
 40
5.0
 40
5.0
 40
6.0
 40
6.0
 40
6.0
 40
7.0
 40
7.0
 40
7.0
 40
8.0
 40
8.0
 40
8.0
 40
8.0
 10
1.419827202336014
 20
-4.014673121826192
 30
0.0
 10
1.419827202336014
 20
-4.014673121826192
 30
0.0
 10
1.418983153942128
 20
-4.014673121826192
 30
0.0
 10
1.418983153942128
 20
-4.014673121826192
 30
0.0
 10
1.418983153942128
 20
-4.014673121826192
 30
0.0
 10
1.37116522860686
 20
-4.040476887010711
 30
0.0
 10
1.37116522860686
 20
-4.040476887010711
 30
0.0
 10
1.37116522860686
 20
-4.040476887010711
 30
0.0
 10
1.363964979042687
 20
-4.012123751167107
 30
0.0
 10
1.363964979042687
 20
-4.012123751167107
 30
0.0
 10
1.363964979042687
 20
-4.012123751167107
 30
0.0
 10
1.424047444305446
 20
-3.979963784812298
 30
0.0
 10
1.424047444305446
 20
-3.979963784812298
 30
0.0
 10
1.424047444305446
 20
-3.979963784812298
 30
0.0
 10
1.455793999202023
 20
-3.979963784812298
 30
0.0
 10
1.455793999202023
 20
-3.979963784812298
 30
0.0
 10
1.455793999202023
 20
-3.979963784812298
 30
0.0
 10
1.455793999202023
 20
-4.254985757399794
 30
0.0
 10
1.455793999202023
 20
-4.254985757399794
 30
0.0
 10
1.455793999202023
 20
-4.254985757399794
 30
0.0
 10
1.419827202336014
 20
-4.254985757399794
 30
0.0
 10
1.419827202336014
 20
-4.254985757399794
 30
0.0
 10
1.419827202336014
 20
-4.254985757399794
 30
0.0
 10
1.419827202336014
 20
-4.014673121826192
 30
0.0
 10
1.419827202336014
 20
-4.014673121826192
 30
0.0
  0
HATCH
  5
EA
330
E5
100
AcDbEntity
  8
Livello 2
 62
   250
420
  1907995
440
 33554687
100
AcDbHatch
 10
0.0
 20
0.0
 30
0.0
210
0.0
220
0.0
230
1.0
  2
SOLID
 70
     1
 71
     1
 91
        1
 92
        1
 93
        1
 72
     4
 94
        3
 73
     0
 74
     0
 95
       29
 96
       25
 40
0.0
 40
0.0
 40
0.0
 40
0.0
 40
1.0
 40
1.0
 40
1.0
 40
2.0
 40
2.0
 40
2.0
 40
3.0
 40
3.0
 40
3.0
 40
4.0
 40
4.0
 40
4.0
 40
5.0
 40
5.0
 40
5.0
 40
6.0
 40
6.0
 40
6.0
 40
7.0
 40
7.0
 40
7.0
 40
8.0
 40
8.0
 40
8.0
 40
8.0
 10
1.419827202336014
 20
-4.014673121826192
 10
1.419827202336014
 20
-4.014673121826192
 10
1.418983153942128
 20
-4.014673121826192
 10
1.418983153942128
 20
-4.014673121826192
 10
1.418983153942128
 20
-4.014673121826192
 10
1.37116522860686
 20
-4.040476887010711
 10
1.37116522860686
 20
-4.040476887010711
 10
1.37116522860686
 20
-4.040476887010711
 10
1.363964979042687
 20
-4.012123751167107
 10
1.363964979042687
 20
-4.012123751167107
 10
1.363964979042687
 20
-4.012123751167107
 10
1.424047444305446
 20
-3.979963784812298
 10
1.424047444305446
 20
-3.979963784812298
 10
1.424047444305446
 20
-3.979963784812298
 10
1.455793999202023
 20
-3.979963784812298
 10
1.455793999202023
 20
-3.979963784812298
 10
1.455793999202023
 20
-3.979963784812298
 10
1.455793999202023
 20
-4.254985757399794
 10
1.455793999202023
 20
-4.254985757399794
 10
1.455793999202023
 20
-4.254985757399794
 10
1.419827202336014
 20
-4.254985757399794
 10
1.419827202336014
 20
-4.254985757399794
 10
1.419827202336014
 20
-4.254985757399794
 10
1.419827202336014
 20
-4.014673121826192
 10
1.419827202336014
 20
-4.014673121826192
 97
        0
 97
        1
330
E9
 75
     2
 76
     1
 98
        1
 10
0.0
 20
0.0
  0
SPLINE
  5
EB
330
E5
100
AcDbEntity
  8
Livello 2
100
AcDbSpline
210
0.0
220
0.0
230
1.0
 70
    11
 71
     3
 72
    47
 73
    43
 74
     0
 42
0.000000001
 43
0.0000000001
 40
0.0
 40
0.0
 40
0.0
 40
0.0
 40
1.0
 40
1.0
 40
1.0
 40
2.0
 40
2.0
 40
2.0
 40
3.0
 40
3.0
 40
3.0
 40
4.0
 40
4.0
 40
4.0
 40
5.0
 40
5.0
 40
5.0
 40
6.0
 40
6.0
 40
6.0
 40
7.0
 40
7.0
 40
7.0
 40
8.0
 40
8.0
 40
8.0
 40
9.0
 40
9.0
 40
9.0
 40
10.0
 40
10.0
 40
10.0
 40
11.0
 40
11.0
 40
11.0
 40
12.0
 40
12.0
 40
12.0
 40
13.0
 40
13.0
 40
13.0
 40
14.0
 40
14.0
 40
14.0
 40
14.0
 10
1.556166856164777
 20
-4.254985757399794
 30
0.0
 10
1.556166856164777
 20
-4.254985757399794
 30
0.0
 10
1.556166856164777
 20
-4.232144774332587
 30
0.0
 10
1.556166856164777
 20
-4.232144774332587
 30
0.0
 10
1.556166856164777
 20
-4.232144774332587
 30
0.0
 10
1.58536404040227
 20
-4.203791638488982
 30
0.0
 10
1.58536404040227
 20
-4.203791638488982
 30
0.0
 10
1.655592311869086
 20
-4.136939560597709
 30
0.0
 10
1.687338866765665
 20
-4.101403400667357
 30
0.0
 10
1.687752278223895
 20
-4.059941676502375
 30
0.0
 10
1.687752278223895
 20
-4.032019177594425
 30
0.0
 10
1.674213052966861
 20
-4.006198186932476
 30
0.0
 10
1.633181965737535
 20
-4.006198186932476
 30
0.0
 10
1.6082222489469
 20
-4.006198186932476
 30
0.0
 10
1.587482774125698
 20
-4.018893363795623
 30
0.0
 10
1.57478759726255
 20
-4.029469806935338
 30
0.0
 10
1.57478759726255
 20
-4.029469806935338
 30
0.0
 10
1.562936468793293
 20
-4.003235404815161
 30
0.0
 10
1.562936468793293
 20
-4.003235404815161
 30
0.0
 10
1.581987846826724
 20
-3.987164034376471
 30
0.0
 10
1.609066297340786
 20
-3.975312905907212
 30
0.0
 10
1.640795626759938
 20
-3.975312905907212
 30
0.0
 10
1.700034043628809
 20
-3.975312905907212
 30
0.0
 10
1.724993760419445
 20
-4.015930581678309
 30
0.0
 10
1.724993760419445
 20
-4.055290797597288
 30
0.0
 10
1.724993760419445
 20
-4.106054279572444
 30
0.0
 10
1.68818291515955
 20
-4.147102592279197
 30
0.0
 10
1.630219183620222
 20
-4.202947590095096
 30
0.0
 10
1.630219183620222
 20
-4.202947590095096
 30
0.0
 10
1.6082222489469
 20
-4.223256427980643
 30
0.0
 10
1.6082222489469
 20
-4.223256427980643
 30
0.0
 10
1.6082222489469
 20
-4.223256427980643
 30
0.0
 10
1.6082222489469
 20
-4.22410047637453
 30
0.0
 10
1.6082222489469
 20
-4.22410047637453
 30
0.0
 10
1.6082222489469
 20
-4.22410047637453
 30
0.0
 10
1.73176337304796
 20
-4.22410047637453
 30
0.0
 10
1.73176337304796
 20
-4.22410047637453
 30
0.0
 10
1.73176337304796
 20
-4.22410047637453
 30
0.0
 10
1.73176337304796
 20
-4.254985757399794
 30
0.0
 10
1.73176337304796
 20
-4.254985757399794
 30
0.0
 10
1.73176337304796
 20
-4.254985757399794
 30
0.0
 10
1.556166856164777
 20
-4.254985757399794
 30
0.0
 10
1.556166856164777
 20
-4.254985757399794
 30
0.0
  0
HATCH
  5
EC
330
E5
100
AcDbEntity
  8
Livello 2
 62
   250
420
  1907995
440
 33554687
100
AcDbHatch
 10
0.0
 20
0.0
 30
0.0
210
0.0
220
0.0
230
1.0
  2
SOLID
 70
     1
 71
     1
 91
        1
 92
        1
 93
        1
 72
     4
 94
        3
 73
     0
 74
     0
 95
       47
 96
       43
 40
0.0
 40
0.0
 40
0.0
 40
0.0
 40
1.0
 40
1.0
 40
1.0
 40
2.0
 40
2.0
 40
2.0
 40
3.0
 40
3.0
 40
3.0
 40
4.0
 40
4.0
 40
4.0
 40
5.0
 40
5.0
 40
5.0
 40
6.0
 40
6.0
 40
6.0
 40
7.0
 40
7.0
 40
7.0
 40
8.0
 40
8.0
 40
8.0
 40
9.0
 40
9.0
 40
9.0
 40
10.0
 40
10.0
 40
10.0
 40
11.0
 40
11.0
 40
11.0
 40
12.0
 40
12.0
 40
12.0
 40
13.0
 40
13.0
 40
13.0
 40
14.0
 40
14.0
 40
14.0
 40
14.0
 10
1.556166856164777
 20
-4.254985757399794
 10
1.556166856164777
 20
-4.254985757399794
 10
1.556166856164777
 20
-4.232144774332587
 10
1.556166856164777
 20
-4.232144774332587
 10
1.556166856164777
 20
-4.232144774332587
 10
1.58536404040227
 20
-4.203791638488982
 10
1.58536404040227
 20
-4.203791638488982
 10
1.655592311869086
 20
-4.136939560597709
 10
1.687338866765665
 20
-4.101403400667357
 10
1.687752278223895
 20
-4.059941676502375
 10
1.687752278223895
 20
-4.032019177594425
 10
1.674213052966861
 20
-4.006198186932476
 10
1.633181965737535
 20
-4.006198186932476
 10
1.6082222489469
 20
-4.006198186932476
 10
1.587482774125698
 20
-4.018893363795623
 10
1.57478759726255
 20
-4.029469806935338
 10
1.57478759726255
 20
-4.029469806935338
 10
1.562936468793293
 20
-4.003235404815161
 10
1.562936468793293
 20
-4.003235404815161
 10
1.581987846826724
 20
-3.987164034376471
 10
1.609066297340786
 20
-3.975312905907212
 10
1.640795626759938
 20
-3.975312905907212
 10
1.700034043628809
 20
-3.975312905907212
 10
1.724993760419445
 20
-4.015930581678309
 10
1.724993760419445
 20
-4.055290797597288
 10
1.724993760419445
 20
-4.106054279572444
 10
1.68818291515955
 20
-4.147102592279197
 10
1.630219183620222
 20
-4.202947590095096
 10
1.630219183620222
 20
-4.202947590095096
 10
1.6082222489469
 20
-4.223256427980643
 10
1.6082222489469
 20
-4.223256427980643
 10
1.6082222489469
 20
-4.223256427980643
 10
1.6082222489469
 20
-4.22410047637453
 10
1.6082222489469
 20
-4.22410047637453
 10
1.6082222489469
 20
-4.22410047637453
 10
1.73176337304796
 20
-4.22410047637453
 10
1.73176337304796
 20
-4.22410047637453
 10
1.73176337304796
 20
-4.22410047637453
 10
1.73176337304796
 20
-4.254985757399794
 10
1.73176337304796
 20
-4.254985757399794
 10
1.73176337304796
 20
-4.254985757399794
 10
1.556166856164777
 20
-4.254985757399794
 10
1.556166856164777
 20
-4.254985757399794
 97
        0
 97
        1
330
EB
 75
     2
 76
     1
 98
        1
 10
0.0
 20
0.0
  0
SPLINE
  5
ED
330
E5
100
AcDbEntity
  8
Livello 2
100
AcDbSpline
210
0.0
220
0.0
230
1.0
 70
    11
 71
     3
 72
    50
 73
    46
 74
     0
 42
0.000000001
 43
0.0000000001
 40
0.0
 40
0.0
 40
0.0
 40
0.0
 40
1.0
 40
1.0
 40
1.0
 40
2.0
 40
2.0
 40
2.0
 40
3.0
 40
3.0
 40
3.0
 40
4.0
 40
4.0
 40
4.0
 40
5.0
 40
5.0
 40
5.0
 40
6.0
 40
6.0
 40
6.0
 40
7.0
 40
7.0
 40
7.0
 40
8.0
 40
8.0
 40
8.0
 40
9.0
 40
9.0
 40
9.0
 40
10.0
 40
10.0
 40
10.0
 40
11.0
 40
11.0
 40
11.0
 40
12.0
 40
12.0
 40
12.0
 40
13.0
 40
13.0
 40
13.0
 40
14.0
 40
14.0
 40
14.0
 40
15.0
 40
15.0
 40
15.0
 40
15.0
 10
1.937504475427081
 20
-4.01127970277322
 30
0.0
 10
1.937504475427081
 20
-4.01127970277322
 30
0.0
 10
1.83256686694637
 20
-4.01127970277322
 30
0.0
 10
1.83256686694637
 20
-4.01127970277322
 30
0.0
 10
1.83256686694637
 20
-4.01127970277322
 30
0.0
 10
1.821990423806655
 20
-4.081938611175695
 30
0.0
 10
1.821990423806655
 20
-4.081938611175695
 30
0.0
 10
1.828329399499514
 20
-4.081094562781808
 30
0.0
 10
1.834254963734142
 20
-4.080250514387921
 30
0.0
 10
1.844417995415629
 20
-4.080250514387921
 30
0.0
 10
1.865570881695063
 20
-4.080250514387921
 30
0.0
 10
1.886723767974499
 20
-4.08490139329301
 30
0.0
 10
1.903656412284502
 20
-4.095047199497071
 30
0.0
 10
1.925222710022166
 20
-4.107328964901984
 30
0.0
 10
1.942999402726053
 20
-4.131013996363079
 30
0.0
 10
1.942999402726053
 20
-4.165706107899545
 30
0.0
 10
1.942999402726053
 20
-4.219449597469441
 30
0.0
 10
1.900262993231531
 20
-4.259636636304881
 30
0.0
 10
1.840611164904428
 20
-4.259636636304881
 30
0.0
 10
1.810569932273051
 20
-4.259636636304881
 30
0.0
 10
1.78517957854676
 20
-4.251178926888594
 30
0.0
 10
1.772070990225383
 20
-4.242721217472305
 30
0.0
 10
1.772070990225383
 20
-4.242721217472305
 30
0.0
 10
1.781372748035559
 20
-4.214368081628697
 30
0.0
 10
1.781372748035559
 20
-4.214368081628697
 30
0.0
 10
1.792793239569161
 20
-4.221137694257214
 30
0.0
 10
1.815220811178139
 20
-4.229595403673502
 30
0.0
 10
1.840180527968774
 20
-4.229595403673502
 30
0.0
 10
1.875303276440896
 20
-4.229595403673502
 30
0.0
 10
1.905344509072275
 20
-4.206754420606297
 30
0.0
 10
1.905344509072275
 20
-4.169943575346402
 30
0.0
 10
1.904913872136618
 20
-4.13440741541605
 30
0.0
 10
1.881228840675524
 20
-4.109017061689757
 30
0.0
 10
1.826227891253511
 20
-4.109017061689757
 30
0.0
 10
1.810569932273051
 20
-4.109017061689757
 30
0.0
 10
1.798288166868134
 20
-4.11070515847753
 30
0.0
 10
1.788142360664074
 20
-4.111979843807072
 30
0.0
 10
1.788142360664074
 20
-4.111979843807072
 30
0.0
 10
1.805919053367964
 20
-3.979963784812298
 30
0.0
 10
1.805919053367964
 20
-3.979963784812298
 30
0.0
 10
1.805919053367964
 20
-3.979963784812298
 30
0.0
 10
1.937504475427081
 20
-3.979963784812298
 30
0.0
 10
1.937504475427081
 20
-3.979963784812298
 30
0.0
 10
1.937504475427081
 20
-3.979963784812298
 30
0.0
 10
1.937504475427081
 20
-4.01127970277322
 30
0.0
 10
1.937504475427081
 20
-4.01127970277322
 30
0.0
  0
HATCH
  5
EE
330
E5
100
AcDbEntity
  8
Livello 2
 62
   250
420
  1907995
440
 33554687
100
AcDbHatch
 10
0.0
 20
0.0
 30
0.0
210
0.0
220
0.0
230
1.0
  2
SOLID
 70
     1
 71
     1
 91
        1
 92
        1
 93
        1
 72
     4
 94
        3
 73
     0
 74
     0
 95
       50
 96
       46
 40
0.0
 40
0.0
 40
0.0
 40
0.0
 40
1.0
 40
1.0
 40
1.0
 40
2.0
 40
2.0
 40
2.0
 40
3.0
 40
3.0
 40
3.0
 40
4.0
 40
4.0
 40
4.0
 40
5.0
 40
5.0
 40
5.0
 40
6.0
 40
6.0
 40
6.0
 40
7.0
 40
7.0
 40
7.0
 40
8.0
 40
8.0
 40
8.0
 40
9.0
 40
9.0
 40
9.0
 40
10.0
 40
10.0
 40
10.0
 40
11.0
 40
11.0
 40
11.0
 40
12.0
 40
12.0
 40
12.0
 40
13.0
 40
13.0
 40
13.0
 40
14.0
 40
14.0
 40
14.0
 40
15.0
 40
15.0
 40
15.0
 40
15.0
 10
1.937504475427081
 20
-4.01127970277322
 10
1.937504475427081
 20
-4.01127970277322
 10
1.83256686694637
 20
-4.01127970277322
 10
1.83256686694637
 20
-4.01127970277322
 10
1.83256686694637
 20
-4.01127970277322
 10
1.821990423806655
 20
-4.081938611175695
 10
1.821990423806655
 20
-4.081938611175695
 10
1.828329399499514
 20
-4.081094562781808
 10
1.834254963734142
 20
-4.080250514387921
 10
1.844417995415629
 20
-4.080250514387921
 10
1.865570881695063
 20
-4.080250514387921
 10
1.886723767974499
 20
-4.08490139329301
 10
1.903656412284502
 20
-4.095047199497071
 10
1.925222710022166
 20
-4.107328964901984
 10
1.942999402726053
 20
-4.131013996363079
 10
1.942999402726053
 20
-4.165706107899545
 10
1.942999402726053
 20
-4.219449597469441
 10
1.900262993231531
 20
-4.259636636304881
 10
1.840611164904428
 20
-4.259636636304881
 10
1.810569932273051
 20
-4.259636636304881
 10
1.78517957854676
 20
-4.251178926888594
 10
1.772070990225383
 20
-4.242721217472305
 10
1.772070990225383
 20
-4.242721217472305
 10
1.781372748035559
 20
-4.214368081628697
 10
1.781372748035559
 20
-4.214368081628697
 10
1.792793239569161
 20
-4.221137694257214
 10
1.815220811178139
 20
-4.229595403673502
 10
1.840180527968774
 20
-4.229595403673502
 10
1.875303276440896
 20
-4.229595403673502
 10
1.905344509072275
 20
-4.206754420606297
 10
1.905344509072275
 20
-4.169943575346402
 10
1.904913872136618
 20
-4.13440741541605
 10
1.881228840675524
 20
-4.109017061689757
 10
1.826227891253511
 20
-4.109017061689757
 10
1.810569932273051
 20
-4.109017061689757
 10
1.798288166868134
 20
-4.11070515847753
 10
1.788142360664074
 20
-4.111979843807072
 10
1.788142360664074
 20
-4.111979843807072
 10
1.805919053367964
 20
-3.979963784812298
 10
1.805919053367964
 20
-3.979963784812298
 10
1.805919053367964
 20
-3.979963784812298
 10
1.937504475427081
 20
-3.979963784812298
 10
1.937504475427081
 20
-3.979963784812298
 10
1.937504475427081
 20
-3.979963784812298
 10
1.937504475427081
 20
-4.01127970277322
 10
1.937504475427081
 20
-4.01127970277322
 97
        0
 97
        1
330
ED
 75
     2
 76
     1
 98
        1
 10
0.0
 20
0.0
  0
ENDBLK
  5
E8
330
E5
100
AcDbEntity
  8
0
100
AcDbBlockEnd
  0
BLOCK
  5
F2
330
F0
100
AcDbEntity
  8
0
100
AcDbBlockBegin
  2
Block_6
 70
     0
 10
0.0
 20
0.0
 30
0.0
  3
Block_6
  1

  0
INSERT
  5
F5
330
F0
100
AcDbEntity
  8
Livello 2
100
AcDbBlockReference
  2
Block_7
 10
0.0
 20
0.0
 30
0.0
  0
ENDBLK
  5
F3
330
F0
100
AcDbEntity
  8
0
100
AcDbBlockEnd
  0
BLOCK
  5
F6
330
F4
100
AcDbEntity
  8
0
100
AcDbBlockBegin
  2
Block_7
 70
     0
 10
0.0
 20
0.0
 30
0.0
  3
Block_7
  1

  0
SPLINE
  5
F8
330
F4
100
AcDbEntity
  8
Livello 2
100
AcDbSpline
210
0.0
220
0.0
230
1.0
 70
    11
 71
     3
 72
    29
 73
    25
 74
     0
 42
0.000000001
 43
0.0000000001
 40
0.0
 40
0.0
 40
0.0
 40
0.0
 40
1.0
 40
1.0
 40
1.0
 40
2.0
 40
2.0
 40
2.0
 40
3.0
 40
3.0
 40
3.0
 40
4.0
 40
4.0
 40
4.0
 40
5.0
 40
5.0
 40
5.0
 40
6.0
 40
6.0
 40
6.0
 40
7.0
 40
7.0
 40
7.0
 40
8.0
 40
8.0
 40
8.0
 40
8.0
 10
6.304042424639267
 20
-0.2622062173823651
 30
0.0
 10
6.304042424639267
 20
-0.2622062173823651
 30
0.0
 10
6.303215601722806
 20
-0.2622062173823651
 30
0.0
 10
6.303215601722806
 20
-0.2622062173823651
 30
0.0
 10
6.303215601722806
 20
-0.2622062173823651
 30
0.0
 10
6.255397676387539
 20
-0.2880272080443127
 30
0.0
 10
6.255397676387539
 20
-0.2880272080443127
 30
0.0
 10
6.255397676387539
 20
-0.2880272080443127
 30
0.0
 10
6.248197426823367
 20
-0.2596740722007065
 30
0.0
 10
6.248197426823367
 20
-0.2596740722007065
 30
0.0
 10
6.248197426823367
 20
-0.2596740722007065
 30
0.0
 10
6.308279892086122
 20
-0.2275141058458992
 30
0.0
 10
6.308279892086122
 20
-0.2275141058458992
 30
0.0
 10
6.308279892086122
 20
-0.2275141058458992
 30
0.0
 10
6.340009221505272
 20
-0.2275141058458992
 30
0.0
 10
6.340009221505272
 20
-0.2275141058458992
 30
0.0
 10
6.340009221505272
 20
-0.2275141058458992
 30
0.0
 10
6.340009221505272
 20
-0.5025360784333938
 30
0.0
 10
6.340009221505272
 20
-0.5025360784333938
 30
0.0
 10
6.340009221505272
 20
-0.5025360784333938
 30
0.0
 10
6.304042424639267
 20
-0.5025360784333938
 30
0.0
 10
6.304042424639267
 20
-0.5025360784333938
 30
0.0
 10
6.304042424639267
 20
-0.5025360784333938
 30
0.0
 10
6.304042424639267
 20
-0.2622062173823651
 30
0.0
 10
6.304042424639267
 20
-0.2622062173823651
 30
0.0
  0
HATCH
  5
F9
330
F4
100
AcDbEntity
  8
Livello 2
 62
   250
420
  1907995
440
 33554687
100
AcDbHatch
 10
0.0
 20
0.0
 30
0.0
210
0.0
220
0.0
230
1.0
  2
SOLID
 70
     1
 71
     1
 91
        1
 92
        1
 93
        1
 72
     4
 94
        3
 73
     0
 74
     0
 95
       29
 96
       25
 40
0.0
 40
0.0
 40
0.0
 40
0.0
 40
1.0
 40
1.0
 40
1.0
 40
2.0
 40
2.0
 40
2.0
 40
3.0
 40
3.0
 40
3.0
 40
4.0
 40
4.0
 40
4.0
 40
5.0
 40
5.0
 40
5.0
 40
6.0
 40
6.0
 40
6.0
 40
7.0
 40
7.0
 40
7.0
 40
8.0
 40
8.0
 40
8.0
 40
8.0
 10
6.304042424639267
 20
-0.2622062173823651
 10
6.304042424639267
 20
-0.2622062173823651
 10
6.303215601722806
 20
-0.2622062173823651
 10
6.303215601722806
 20
-0.2622062173823651
 10
6.303215601722806
 20
-0.2622062173823651
 10
6.255397676387539
 20
-0.2880272080443127
 10
6.255397676387539
 20
-0.2880272080443127
 10
6.255397676387539
 20
-0.2880272080443127
 10
6.248197426823367
 20
-0.2596740722007065
 10
6.248197426823367
 20
-0.2596740722007065
 10
6.248197426823367
 20
-0.2596740722007065
 10
6.308279892086122
 20
-0.2275141058458992
 10
6.308279892086122
 20
-0.2275141058458992
 10
6.308279892086122
 20
-0.2275141058458992
 10
6.340009221505272
 20
-0.2275141058458992
 10
6.340009221505272
 20
-0.2275141058458992
 10
6.340009221505272
 20
-0.2275141058458992
 10
6.340009221505272
 20
-0.5025360784333938
 10
6.340009221505272
 20
-0.5025360784333938
 10
6.340009221505272
 20
-0.5025360784333938
 10
6.304042424639267
 20
-0.5025360784333938
 10
6.304042424639267
 20
-0.5025360784333938
 10
6.304042424639267
 20
-0.5025360784333938
 10
6.304042424639267
 20
-0.2622062173823651
 10
6.304042424639267
 20
-0.2622062173823651
 97
        0
 97
        1
330
F8
 75
     2
 76
     1
 98
        1
 10
0.0
 20
0.0
  0
SPLINE
  5
FA
330
F4
100
AcDbEntity
  8
Livello 2
100
AcDbSpline
210
0.0
220
0.0
230
1.0
 70
    11
 71
     3
 72
    17
 73
    13
 74
     0
 42
0.000000001
 43
0.0000000001
 40
0.0
 40
0.0
 40
0.0
 40
0.0
 40
1.0
 40
1.0
 40
1.0
 40
2.0
 40
2.0
 40
2.0
 40
3.0
 40
3.0
 40
3.0
 40
4.0
 40
4.0
 40
4.0
 40
4.0
 10
6.473851181107231
 20
-0.3662997774691889
 30
0.0
 10
6.473851181107231
 20
-0.4378027342655493
 30
0.0
 10
6.495830890303125
 20
-0.4784204100366451
 30
0.0
 10
6.52969617892313
 20
-0.4784204100366451
 30
0.0
 10
6.567764484035143
 20
-0.4784204100366451
 30
0.0
 10
6.585954588197257
 20
-0.4339959037543484
 30
0.0
 10
6.585954588197257
 20
-0.3637676322875303
 30
0.0
 10
6.585954588197257
 20
-0.296071506002371
 30
0.0
 10
6.568625757906452
 20
-0.2516297742426481
 30
0.0
 10
6.530109590381361
 20
-0.2516297742426481
 30
0.0
 10
6.497553438045747
 20
-0.2516297742426481
 30
0.0
 10
6.473851181107231
 20
-0.2914034016198574
 30
0.0
 10
6.473851181107231
 20
-0.3662997774691889
 30
0.0
  0
SPLINE
  5
FB
330
F4
100
AcDbEntity
  8
Livello 2
100
AcDbSpline
210
0.0
220
0.0
230
1.0
 70
    11
 71
     3
 72
    17
 73
    13
 74
     0
 42
0.000000001
 43
0.0000000001
 40
0.0
 40
0.0
 40
0.0
 40
0.0
 40
1.0
 40
1.0
 40
1.0
 40
2.0
 40
2.0
 40
2.0
 40
3.0
 40
3.0
 40
3.0
 40
4.0
 40
4.0
 40
4.0
 40
4.0
 10
6.623196070392812
 20
-0.3620623100223316
 30
0.0
 10
6.623196070392812
 20
-0.4555794269694385
 30
0.0
 10
6.588503958856343
 20
-0.5071869573384812
 30
0.0
 10
6.527594670677128
 20
-0.5071869573384812
 30
0.0
 10
6.473851181107231
 20
-0.5071869573384812
 30
0.0
 10
6.437470972782992
 20
-0.4568368868215547
 30
0.0
 10
6.43660969891168
 20
-0.3658691405335327
 30
0.0
 10
6.43660969891168
 20
-0.2736439343933946
 30
0.0
 10
6.476400551766317
 20
-0.2228632269408119
 30
0.0
 10
6.532245549582214
 20
-0.2228632269408119
 30
0.0
 10
6.590192055644118
 20
-0.2228632269408119
 30
0.0
 10
6.623196070392812
 20
-0.2744879827872808
 30
0.0
 10
6.623196070392812
 20
-0.3620623100223316
 30
0.0
  0
HATCH
  5
FC
330
F4
100
AcDbEntity
  8
Livello 2
 62
   250
420
  1907995
440
 33554687
100
AcDbHatch
 10
0.0
 20
0.0
 30
0.0
210
0.0
220
0.0
230
1.0
  2
SOLID
 70
     1
 71
     1
 91
        2
 92
        1
 93
        1
 72
     4
 94
        3
 73
     0
 74
     0
 95
       17
 96
       13
 40
0.0
 40
0.0
 40
0.0
 40
0.0
 40
1.0
 40
1.0
 40
1.0
 40
2.0
 40
2.0
 40
2.0
 40
3.0
 40
3.0
 40
3.0
 40
4.0
 40
4.0
 40
4.0
 40
4.0
 10
6.473851181107231
 20
-0.3662997774691889
 10
6.473851181107231
 20
-0.4378027342655493
 10
6.495830890303125
 20
-0.4784204100366451
 10
6.52969617892313
 20
-0.4784204100366451
 10
6.567764484035143
 20
-0.4784204100366451
 10
6.585954588197257
 20
-0.4339959037543484
 10
6.585954588197257
 20
-0.3637676322875303
 10
6.585954588197257
 20
-0.296071506002371
 10
6.568625757906452
 20
-0.2516297742426481
 10
6.530109590381361
 20
-0.2516297742426481
 10
6.497553438045747
 20
-0.2516297742426481
 10
6.473851181107231
 20
-0.2914034016198574
 10
6.473851181107231
 20
-0.3662997774691889
 97
        0
 97
        1
330
FA
 92
        1
 93
        1
 72
     4
 94
        3
 73
     0
 74
     0
 95
       17
 96
       13
 40
0.0
 40
0.0
 40
0.0
 40
0.0
 40
1.0
 40
1.0
 40
1.0
 40
2.0
 40
2.0
 40
2.0
 40
3.0
 40
3.0
 40
3.0
 40
4.0
 40
4.0
 40
4.0
 40
4.0
 10
6.623196070392812
 20
-0.3620623100223316
 10
6.623196070392812
 20
-0.4555794269694385
 10
6.588503958856343
 20
-0.5071869573384812
 10
6.527594670677128
 20
-0.5071869573384812
 10
6.473851181107231
 20
-0.5071869573384812
 10
6.437470972782992
 20
-0.4568368868215547
 10
6.43660969891168
 20
-0.3658691405335327
 10
6.43660969891168
 20
-0.2736439343933946
 10
6.476400551766317
 20
-0.2228632269408119
 10
6.532245549582214
 20
-0.2228632269408119
 10
6.590192055644118
 20
-0.2228632269408119
 10
6.623196070392812
 20
-0.2744879827872808
 10
6.623196070392812
 20
-0.3620623100223316
 97
        0
 97
        1
330
FB
 75
     2
 76
     1
 98
        1
 10
0.0
 20
0.0
  0
ENDBLK
  5
F7
330
F4
100
AcDbEntity
  8
0
100
AcDbBlockEnd
  0
ENDSEC
  0
SECTION
  2
ENTITIES
  0
LINE
  5
79
330
70
100
AcDbEntity
  8
Livello 1
100
AcDbLine
 10
7.564880397963603
 20
-9.372463328439915
 30
0.0
 11
7.403336770074302
 21
-9.372463328439915
 31
0.0
  0
LINE
  5
7A
330
70
100
AcDbEntity
  8
Livello 1
100
AcDbLine
 10
6.713772211793344
 20
-4.742183371622869
 30
0.0
 11
5.144112689287822
 21
-4.742183371622869
 31
0.0
  0
LINE
  5
7B
330
70
100
AcDbEntity
  8
Livello 1
100
AcDbLine
 10
6.713772211793344
 20
-4.937650436343863
 30
0.0
 11
5.144112689287822
 21
-4.937650436343863
 31
0.0
  0
LWPOLYLINE
  5
7C
330
70
100
AcDbEntity
  8
Livello 1
100
AcDbPolyline
 90
        4
 70
     0
 43
0.0
 10
-0.0446518573488036
 20
-4.742183371622869
 10
-1.620234384591752
 20
-4.742183371622869
 10
-1.620234384591752
 20
-4.937650436343863
 10
-0.0446518573488036
 20
-4.937650436343863
  0
LWPOLYLINE
  5
7D
330
70
100
AcDbEntity
  8
Livello 1
100
AcDbPolyline
 90
        5
 70
     0
 43
0.0
 10
-0.234195540742619
 20
-4.937650436343863
 10
-0.234195540742619
 20
-5.044268852400276
 10
-0.0861143968700671
 20
-5.044268852400276
 10
-0.0861143968700671
 20
-4.937650436343863
 10
-0.234195540742619
 20
-4.937650436343863
  0
SPLINE
  5
7E
330
70
100
AcDbEntity
  8
Livello 1
100
AcDbSpline
210
0.0
220
0.0
230
1.0
 70
     8
 71
     3
 72
    17
 73
    13
 74
     0
 42
0.000000001
 43
0.0000000001
 40
0.0
 40
0.0
 40
0.0
 40
0.0
 40
1.0
 40
1.0
 40
1.0
 40
2.0
 40
2.0
 40
2.0
 40
3.0
 40
3.0
 40
3.0
 40
4.0
 40
4.0
 40
4.0
 40
4.0
 10
-0.0963907799621575
 20
-4.296790964454996
 30
0.0
 10
0.2459067738288333
 20
-4.153543350961519
 30
0.0
 10
0.4396321106182171
 20
-3.788717629069036
 30
0.0
 10
0.3665782040182174
 20
-3.424917172969683
 30
0.0
 10
0.2935242974185387
 20
-3.061116340280675
 30
0.0
 10
-0.0260212056214454
 20
-2.79935892218234
 30
0.0
 10
-0.3970841964586724
 20
-2.79935892218234
 30
0.0
 10
-0.7681471872959481
 20
-2.79935892218234
 30
0.0
 10
-1.087694196695195
 20
-3.061116340280675
 30
0.0
 10
-1.160746596935655
 20
-3.424917172969683
 30
0.0
 10
-1.233800503535608
 20
-3.788717629069036
 30
0.0
 10
-1.040076673105492
 20
-4.153543350961519
 30
0.0
 10
-0.6977791193143137
 20
-4.296790964454996
 30
0.0
  0
SPLINE
  5
7F
330
70
100
AcDbEntity
  8
Livello 1
100
AcDbSpline
210
0.0
220
0.0
230
1.0
 70
     8
 71
     3
 72
    11
 73
     7
 74
     0
 42
0.000000001
 43
0.0000000001
 40
0.0
 40
0.0
 40
0.0
 40
0.0
 40
1.0
 40
1.0
 40
1.0
 40
2.0
 40
2.0
 40
2.0
 40
2.0
 10
5.671263123636375
 20
-4.730326441043135
 30
0.0
 10
5.632887114305146
 20
-4.62179909117354
 30
0.0
 10
5.53770027062321
 20
-4.543348275819007
 30
0.0
 10
5.42384059715359
 20
-4.526408888987034
 30
0.0
 10
5.309983936402686
 20
-4.509469313860222
 30
0.0
 10
5.196079072154306
 20
-4.55681230346875
 30
0.0
 10
5.127774716403255
 20
-4.649468086949671
 30
0.0
  0
SPLINE
  5
80
330
70
100
AcDbEntity
  8
Livello 1
100
AcDbSpline
210
0.0
220
0.0
230
1.0
 70
     8
 71
     3
 72
    11
 73
     7
 74
     0
 42
0.000000001
 43
0.0000000001
 40
0.0
 40
0.0
 40
0.0
 40
0.0
 40
1.0
 40
1.0
 40
1.0
 40
2.0
 40
2.0
 40
2.0
 40
2.0
 10
5.127774716403255
 20
-5.018519334952278
 30
0.0
 10
5.196079072154306
 20
-5.111175118433195
 30
0.0
 10
5.309983936402686
 20
-5.158518108041724
 30
0.0
 10
5.42384059715359
 20
-5.141578532914917
 30
0.0
 10
5.53770027062321
 20
-5.124639146082846
 30
0.0
 10
5.632887114305146
 20
-5.046188330728593
 30
0.0
 10
5.671263123636375
 20
-4.937660980858807
 30
0.0
  0
SPLINE
  5
81
330
70
100
AcDbEntity
  8
Livello 1
100
AcDbSpline
210
0.0
220
0.0
230
1.0
 70
    11
 71
     3
 72
    17
 73
    13
 74
     0
 42
0.000000001
 43
0.0000000001
 40
0.0
 40
0.0
 40
0.0
 40
0.0
 40
1.0
 40
1.0
 40
1.0
 40
2.0
 40
2.0
 40
2.0
 40
3.0
 40
3.0
 40
3.0
 40
4.0
 40
4.0
 40
4.0
 40
4.0
 10
2.656348267141371
 20
-4.83399371095111
 30
0.0
 10
2.656348267141371
 20
-4.488869473947715
 30
0.0
 10
2.376570649418772
 20
-4.209091291340543
 30
0.0
 10
2.031445659235882
 20
-4.209091291340543
 30
0.0
 10
1.686322175412351
 20
-4.209091291340543
 30
0.0
 10
1.406544557689841
 20
-4.488869473947715
 30
0.0
 10
1.406544557689841
 20
-4.83399371095111
 30
0.0
 10
1.406544557689841
 20
-5.179117759659311
 30
0.0
 10
1.686322175412351
 20
-5.458896130561405
 30
0.0
 10
2.031445659235882
 20
-5.458896130561405
 30
0.0
 10
2.376570649418772
 20
-5.458896130561405
 30
0.0
 10
2.656348267141371
 20
-5.179117759659311
 30
0.0
 10
2.656348267141371
 20
-4.83399371095111
 30
0.0
  0
SPLINE
  5
82
330
70
100
AcDbEntity
  8
Livello 1
100
AcDbSpline
210
0.0
220
0.0
230
1.0
 70
    11
 71
     3
 72
    17
 73
    13
 74
     0
 42
0.000000001
 43
0.0000000001
 40
0.0
 40
0.0
 40
0.0
 40
0.0
 40
1.0
 40
1.0
 40
1.0
 40
2.0
 40
2.0
 40
2.0
 40
3.0
 40
3.0
 40
3.0
 40
4.0
 40
4.0
 40
4.0
 40
4.0
 10
0.9859931450217198
 20
-4.83399371095111
 30
0.0
 10
0.9859931450217198
 20
-4.547753246979561
 30
0.0
 10
0.7539505469137092
 20
-4.315709707396953
 30
0.0
 10
0.4677091414677906
 20
-4.315709707396953
 30
0.0
 10
0.1814692423811352
 20
-4.315709707396953
 30
0.0
 10
-0.0505748620861832
 20
-4.547753246979561
 30
0.0
 10
-0.0505748620861832
 20
-4.83399371095111
 30
0.0
 10
-0.0505748620861832
 20
-5.120233986627468
 30
0.0
 10
0.1814692423811352
 20
-5.352277714504996
 30
0.0
 10
0.4677091414677906
 20
-5.352277714504996
 30
0.0
 10
0.7539505469137092
 20
-5.352277714504996
 30
0.0
 10
0.9859931450217198
 20
-5.120233986627468
 30
0.0
 10
0.9859931450217198
 20
-4.83399371095111
 30
0.0
  0
SPLINE
  5
83
330
70
100
AcDbEntity
  8
Livello 1
100
AcDbSpline
210
0.0
220
0.0
230
1.0
 70
     8
 71
     3
 72
     8
 73
     4
 74
     0
 42
0.000000001
 43
0.0000000001
 40
0.0
 40
0.0
 40
0.0
 40
0.0
 40
1.0
 40
1.0
 40
1.0
 40
1.0
 10
-0.4739868510503429
 20
-4.489461096559864
 30
0.0
 10
-0.4921640886307588
 20
-4.461956105651584
 30
0.0
 10
-0.5124893945622297
 20
-4.435932619107211
 30
0.0
 10
-0.5347729675734672
 20
-4.41163410224735
 30
0.0
  0
SPLINE
  5
84
330
70
100
AcDbEntity
  8
Livello 1
100
AcDbSpline
210
0.0
220
0.0
230
1.0
 70
     8
 71
     3
 72
    11
 73
     7
 74
     0
 42
0.000000001
 43
0.0000000001
 40
0.0
 40
0.0
 40
0.0
 40
0.0
 40
1.0
 40
1.0
 40
1.0
 40
2.0
 40
2.0
 40
2.0
 40
2.0
 10
-0.826065195726438
 20
-4.23245228783574
 30
0.0
 10
-0.9967673370920044
 20
-4.184419385671195
 30
0.0
 10
-1.179836688247333
 20
-4.211171761818188
 30
0.0
 10
-1.329653158024691
 20
-4.306042646638434
 30
0.0
 10
-1.479471134161171
 20
-4.400913719753792
 30
0.0
 10
-1.581927667787881
 20
-4.554968519694974
 30
0.0
 10
-1.611489968899664
 20
-4.729816538422677
 30
0.0
  0
SPLINE
  5
85
330
70
100
AcDbEntity
  8
Livello 1
100
AcDbSpline
210
0.0
220
0.0
230
1.0
 70
     8
 71
     3
 72
    11
 73
     7
 74
     0
 42
0.000000001
 43
0.0000000001
 40
0.0
 40
0.0
 40
0.0
 40
0.0
 40
1.0
 40
1.0
 40
1.0
 40
2.0
 40
2.0
 40
2.0
 40
2.0
 10
-1.611489968899664
 20
-4.938170883479274
 30
0.0
 10
-1.560656368221015
 20
-5.238827205878193
 30
0.0
 10
-1.300255050075677
 20
-5.458896130561405
 30
0.0
 10
-0.9953317766863056
 20
-5.458896130561405
 30
0.0
 10
-0.6904100096564745
 20
-5.458896130561405
 30
0.0
 10
-0.4300071851516002
 20
-5.238827205878193
 30
0.0
 10
-0.3791750908322584
 20
-4.938170883479274
 30
0.0
  0
SPLINE
  5
86
330
70
100
AcDbEntity
  8
Livello 1
100
AcDbSpline
210
0.0
220
0.0
230
1.0
 70
     8
 71
     3
 72
    11
 73
     7
 74
     0
 42
0.000000001
 43
0.0000000001
 40
0.0
 40
0.0
 40
0.0
 40
0.0
 40
1.0
 40
1.0
 40
1.0
 40
2.0
 40
2.0
 40
2.0
 40
2.0
 10
-0.702150573980702
 20
-4.730326441043135
 30
0.0
 10
-0.7460820363819733
 20
-4.606084751035879
 30
0.0
 10
-0.8635524530753755
 20
-4.523023346477564
 30
0.0
 10
-0.9953317766863056
 20
-4.523023346477564
 30
0.0
 10
-1.127111100297466
 20
-4.523023346477564
 30
0.0
 10
-1.244583023349952
 20
-4.606084751035879
 30
0.0
 10
-1.288514485751223
 20
-4.730326441043135
 30
0.0
  0
SPLINE
  5
87
330
70
100
AcDbEntity
  8
Livello 1
100
AcDbSpline
210
0.0
220
0.0
230
1.0
 70
     8
 71
     3
 72
    11
 73
     7
 74
     0
 42
0.000000001
 43
0.0000000001
 40
0.0
 40
0.0
 40
0.0
 40
0.0
 40
1.0
 40
1.0
 40
1.0
 40
2.0
 40
2.0
 40
2.0
 40
2.0
 10
-1.288514485751223
 20
-4.937660980858807
 30
0.0
 10
-1.244583023349952
 20
-5.061902670866068
 30
0.0
 10
-1.127111100297466
 20
-5.144964075424292
 30
0.0
 10
-0.9953317766863056
 20
-5.144964075424292
 30
0.0
 10
-0.8635524530753755
 20
-5.144964075424292
 30
0.0
 10
-0.7460820363819733
 20
-5.061902670866068
 30
0.0
 10
-0.702150573980702
 20
-4.937660980858807
 30
0.0
  0
SPLINE
  5
88
330
70
100
AcDbEntity
  8
Livello 1
100
AcDbSpline
210
0.0
220
0.0
230
1.0
 70
     8
 71
     3
 72
     8
 73
     4
 74
     0
 42
0.000000001
 43
0.0000000001
 40
0.0
 40
0.0
 40
0.0
 40
0.0
 40
1.0
 40
1.0
 40
1.0
 40
1.0
 10
0.8883208085075972
 20
-5.145045230531312
 30
0.0
 10
1.051668903807736
 20
-5.362753125318596
 30
0.0
 10
1.355587435549063
 20
-5.417020472004326
 30
0.0
 10
1.584186496314867
 20
-5.269297088463767
 30
0.0
  0
SPLINE
  5
89
330
70
100
AcDbEntity
  8
Livello 1
100
AcDbSpline
210
0.0
220
0.0
230
1.0
 70
     8
 71
     3
 72
     8
 73
     4
 74
     0
 42
0.000000001
 43
0.0000000001
 40
0.0
 40
0.0
 40
0.0
 40
0.0
 40
1.0
 40
1.0
 40
1.0
 40
1.0
 10
1.584186496314867
 20
-4.39869033343818
 30
0.0
 10
1.355587435549063
 20
-4.25096694989762
 30
0.0
 10
1.051668903807736
 20
-4.305234108288429
 30
0.0
 10
0.8883208085075972
 20
-4.522942191370635
 30
0.0
  0
SPLINE
  5
8A
330
70
100
AcDbEntity
  8
Livello 1
100
AcDbSpline
210
0.0
220
0.0
230
1.0
 70
     8
 71
     3
 72
    14
 73
    10
 74
     0
 42
0.000000001
 43
0.0000000001
 40
0.0
 40
0.0
 40
0.0
 40
0.0
 40
1.0
 40
1.0
 40
1.0
 40
2.0
 40
2.0
 40
2.0
 40
3.0
 40
3.0
 40
3.0
 40
3.0
 10
-0.6066820411111081
 20
-5.329049842512218
 30
0.0
 10
-0.7351067025781823
 20
-5.546993576676458
 30
0.0
 10
-0.6874349500539896
 20
-5.825807312746855
 30
0.0
 10
-0.4938918827390127
 20
-5.988700393393192
 30
0.0
 10
-0.3003518281429371
 20
-6.151593474039902
 30
0.0
 10
-0.0174921993082313
 20
-6.150969747145211
 30
0.0
 10
0.1753293219056179
 20
-5.987224726171518
 30
0.0
 10
0.3681508431196506
 20
-5.823479705197728
 30
0.0
 10
0.4145919001017998
 20
-5.544458373987302
 30
0.0
 10
0.2852076877655727
 20
-5.327083102161207
 30
0.0
  0
LINE
  5
8B
330
70
100
AcDbEntity
  8
Livello 1
100
AcDbLine
 10
-0.4652017636575662
 20
-5.168657035848602
 30
0.0
 11
0.0619667470024816
 21
-5.168657035848602
 31
0.0
  0
SPLINE
  5
8C
330
70
100
AcDbEntity
  8
Livello 1
100
AcDbSpline
210
0.0
220
0.0
230
1.0
 70
     8
 71
     3
 72
     8
 73
     4
 74
     0
 42
0.000000001
 43
0.0000000001
 40
0.0
 40
0.0
 40
0.0
 40
0.0
 40
1.0
 40
1.0
 40
1.0
 40
1.0
 10
-0.0061899855377924
 20
-5.05514326013159
 30
0.0
 10
-0.0382483239971203
 20
-5.044780826264664
 30
0.0
 10
-0.0716443095079761
 20
-5.039148925460508
 30
0.0
 10
-0.1053265032843297
 20
-5.038425496410465
 30
0.0
  0
SPLINE
  5
8D
330
70
100
AcDbEntity
  8
Livello 1
100
AcDbSpline
210
0.0
220
0.0
230
1.0
 70
     8
 71
     3
 72
     8
 73
     4
 74
     0
 42
0.000000001
 43
0.0000000001
 40
0.0
 40
0.0
 40
0.0
 40
0.0
 40
1.0
 40
1.0
 40
1.0
 40
1.0
 10
-0.2149819279688623
 20
-5.038425496410465
 30
0.0
 10
-0.3009242446739339
 20
-5.040271539723097
 30
0.0
 10
-0.3831142203816398
 20
-5.073997229624077
 30
0.0
 10
-0.4455814338750369
 20
-5.133050656371267
 30
0.0
  0
SPLINE
  5
8E
330
70
100
AcDbEntity
  8
Livello 1
100
AcDbSpline
210
0.0
220
0.0
230
1.0
 70
     8
 71
     3
 72
     8
 73
     4
 74
     0
 42
0.000000001
 43
0.0000000001
 40
0.0
 40
0.0
 40
0.0
 40
0.0
 40
1.0
 40
1.0
 40
1.0
 40
1.0
 10
4.374088933519256
 20
3.03799987471928
 30
0.0
 10
4.374088933519256
 20
3.042906086934408
 30
0.0
 10
4.370112144987574
 20
3.046884381825586
 30
0.0
 10
4.365204426413136
 20
3.046884381825586
 30
0.0
  0
LINE
  5
8F
330
70
100
AcDbEntity
  8
Livello 1
100
AcDbLine
 10
4.368165928781873
 20
3.035038372350589
 30
0.0
 11
4.368165928781873
 21
2.886957228478042
 31
0.0
  0
SPLINE
  5
90
330
70
100
AcDbEntity
  8
Livello 1
100
AcDbSpline
210
0.0
220
0.0
230
1.0
 70
     8
 71
     3
 72
     8
 73
     4
 74
     0
 42
0.000000001
 43
0.0000000001
 40
0.0
 40
0.0
 40
0.0
 40
0.0
 40
1.0
 40
1.0
 40
1.0
 40
1.0
 10
4.365204426413136
 20
2.881033470561118
 30
0.0
 10
4.370112144987574
 20
2.881033470561118
 30
0.0
 10
4.374088933519256
 20
2.885011765452065
 30
0.0
 10
4.374088933519256
 20
2.889918730846732
 30
0.0
  0
LINE
  5
91
330
70
100
AcDbEntity
  8
Livello 1
100
AcDbLine
 10
4.36224292404449
 20
2.881033470561118
 30
0.0
 11
4.237853799121656
 21
2.881033470561118
 31
0.0
  0
SPLINE
  5
92
330
70
100
AcDbEntity
  8
Livello 1
100
AcDbSpline
210
0.0
220
0.0
230
1.0
 70
     8
 71
     3
 72
     8
 73
     4
 74
     0
 42
0.000000001
 43
0.0000000001
 40
0.0
 40
0.0
 40
0.0
 40
0.0
 40
1.0
 40
1.0
 40
1.0
 40
1.0
 10
4.231930794384091
 20
2.889918730846732
 30
0.0
 10
4.231930794384091
 20
2.885011765452065
 30
0.0
 10
4.235907582915954
 20
2.881033470561118
 30
0.0
 10
4.240818314208829
 20
2.881033470561118
 30
0.0
  0
LINE
  5
93
330
70
100
AcDbEntity
  8
Livello 1
100
AcDbLine
 10
4.226007789646706
 20
2.886957228478042
 30
0.0
 11
4.226007789646706
 21
3.035038372350589
 31
0.0
  0
SPLINE
  5
94
330
70
100
AcDbEntity
  8
Livello 1
100
AcDbSpline
210
0.0
220
0.0
230
1.0
 70
     8
 71
     3
 72
     8
 73
     4
 74
     0
 42
0.000000001
 43
0.0000000001
 40
0.0
 40
0.0
 40
0.0
 40
0.0
 40
1.0
 40
1.0
 40
1.0
 40
1.0
 10
4.240818314208829
 20
3.046884381825586
 30
0.0
 10
4.235907582915954
 20
3.046884381825586
 30
0.0
 10
4.231930794384091
 20
3.042906086934408
 30
0.0
 10
4.231930794384091
 20
3.03799987471928
 30
0.0
  0
LINE
  5
95
330
70
100
AcDbEntity
  8
Livello 1
100
AcDbLine
 10
4.237853799121656
 20
3.046884381825586
 30
0.0
 11
4.36224292404449
 21
3.046884381825586
 31
0.0
  0
LINE
  5
96
330
70
100
AcDbEntity
  8
Livello 1
100
AcDbLine
 10
6.713772211793344
 20
-4.937650436343863
 30
0.0
 11
6.713772211793344
 21
-4.742183371622869
 31
0.0
  0
LWPOLYLINE
  5
97
330
70
100
AcDbEntity
  8
Livello 1
100
AcDbPolyline
 90
        5
 70
     0
 43
0.0
 10
6.020753543048365
 20
-4.742183371622869
 10
6.020753543048365
 20
-4.635564955566274
 10
6.162908669464909
 20
-4.635564955566274
 10
6.162908669464909
 20
-4.742183371622869
 10
6.020753543048365
 20
-4.742183371622869
  0
LINE
  5
98
330
70
100
AcDbEntity
  8
Livello 1
100
AcDbLine
 10
5.777898297940077
 20
-4.511176772117947
 30
0.0
 11
6.405763914573292
 21
-4.511176772117947
 31
0.0
  0
SPLINE
  5
99
330
70
100
AcDbEntity
  8
Livello 1
100
AcDbSpline
210
0.0
220
0.0
230
1.0
 70
     8
 71
     3
 72
     8
 73
     4
 74
     0
 42
0.000000001
 43
0.0000000001
 40
0.0
 40
0.0
 40
0.0
 40
0.0
 40
1.0
 40
1.0
 40
1.0
 40
1.0
 10
6.14961956778808
 20
-4.635485118523971
 30
0.0
 10
6.250485386002135
 20
-4.633318408976757
 30
0.0
 10
6.345404097729928
 20
-4.587297626236897
 30
0.0
 10
6.409568978145877
 20
-4.509443140867324
 30
0.0
  0
SPLINE
  5
9A
330
70
100
AcDbEntity
  8
Livello 1
100
AcDbSpline
210
0.0
220
0.0
230
1.0
 70
     8
 71
     3
 72
     8
 73
     4
 74
     0
 42
0.000000001
 43
0.0000000001
 40
0.0
 40
0.0
 40
0.0
 40
0.0
 40
1.0
 40
1.0
 40
1.0
 40
1.0
 10
5.780016239105055
 20
-4.509443140867324
 30
0.0
 10
5.844184132239443
 20
-4.587297626236897
 30
0.0
 10
5.939099831248708
 20
-4.633318408976757
 30
0.0
 10
6.039965649462578
 20
-4.635485118523971
 30
0.0
  0
LWPOLYLINE
  5
9B
330
70
100
AcDbEntity
  8
Livello 1
100
AcDbPolyline
 90
        5
 70
     0
 43
0.0
 10
-0.4711247683949496
 20
-4.742183371622869
 10
-0.3289666292597793
 20
-4.742183371622869
 10
-0.3289666292597793
 20
-4.428251316485754
 10
-0.4711247683949496
 20
-4.428251316485754
 10
-0.4711247683949496
 20
-4.742183371622869
  0
SPLINE
  5
9C
330
70
100
AcDbEntity
  8
Livello 1
100
AcDbSpline
210
0.0
220
0.0
230
1.0
 70
     8
 71
     3
 72
    11
 73
     7
 74
     0
 42
0.000000001
 43
0.0000000001
 40
0.0
 40
0.0
 40
0.0
 40
0.0
 40
1.0
 40
1.0
 40
1.0
 40
2.0
 40
2.0
 40
2.0
 40
2.0
 10
1.007922723599363
 20
-4.932473079456116
 30
0.0
 10
1.037967059684704
 20
-5.022463548464162
 30
0.0
 10
1.107449388402439
 20
-5.093815645653518
 30
0.0
 10
1.196609288555766
 20
-5.126239652830856
 30
0.0
 10
1.285770695068402
 20
-5.158663848303388
 30
0.0
 10
1.384854490239713
 20
-5.148612101040497
 30
0.0
 10
1.465690248943479
 20
-5.098943104389609
 30
0.0
  0
SPLINE
  5
9D
330
70
100
AcDbEntity
  8
Livello 1
100
AcDbSpline
210
0.0
220
0.0
230
1.0
 70
     8
 71
     3
 72
    11
 73
     7
 74
     0
 42
0.000000001
 43
0.0000000001
 40
0.0
 40
0.0
 40
0.0
 40
0.0
 40
1.0
 40
1.0
 40
1.0
 40
2.0
 40
2.0
 40
2.0
 40
2.0
 10
1.465690248943479
 20
-4.569044317512339
 30
0.0
 10
1.384854490239713
 20
-4.519375320861449
 30
0.0
 10
1.285770695068402
 20
-4.509323573598555
 30
0.0
 10
1.196609288555766
 20
-4.541747580776172
 30
0.0
 10
1.107449388402439
 20
-4.574171587953509
 30
0.0
 10
1.037967059684704
 20
-4.645523685142867
 30
0.0
 10
1.007922723599363
 20
-4.735514342445833
 30
0.0
  0
LWPOLYLINE
  5
9E
330
70
100
AcDbEntity
  8
Livello 1
100
AcDbPolyline
 90
        5
 70
     0
 43
0.0
 10
2.585269197573511
 20
-5.109424540640639
 10
2.585269197573511
 20
-5.251582491480888
 10
2.733350341446338
 20
-5.251582491480888
 10
2.733350341446338
 20
-4.937650436343863
 10
2.644502257666326
 20
-4.937650436343863
  0
SPLINE
  5
9F
330
70
100
AcDbEntity
  8
Livello 1
100
AcDbSpline
210
0.0
220
0.0
230
1.0
 70
     8
 71
     3
 72
    17
 73
    13
 74
     0
 42
0.000000001
 43
0.0000000001
 40
0.0
 40
0.0
 40
0.0
 40
0.0
 40
1.0
 40
1.0
 40
1.0
 40
2.0
 40
2.0
 40
2.0
 40
3.0
 40
3.0
 40
3.0
 40
4.0
 40
4.0
 40
4.0
 40
4.0
 10
2.370183686019363
 20
-5.373380301831204
 30
0.0
 10
2.183800344420833
 20
-5.50243838738059
 30
0.0
 10
2.102925420375178
 20
-5.737652907421071
 30
0.0
 10
2.170530825414808
 20
-5.954040478288693
 30
0.0
 10
2.238136230454158
 20
-6.170428143303821
 30
0.0
 10
2.438530219830649
 20
-6.317766699118972
 30
0.0
 10
2.665234280606753
 20
-6.317766699118972
 30
0.0
 10
2.891936835023321
 20
-6.317766699118972
 30
0.0
 10
3.092332330759169
 20
-6.170428143303821
 30
0.0
 10
3.159934723080083
 20
-5.954040478288693
 30
0.0
 10
3.227540128119429
 20
-5.737652907421071
 30
0.0
 10
3.146665204074057
 20
-5.50243838738059
 30
0.0
 10
2.960284875193959
 20
-5.373380301831204
 30
0.0
  0
LINE
  5
A0
330
70
100
AcDbEntity
  8
Livello 1
100
AcDbLine
 10
2.348339969921224
 20
-5.375970674929214
 30
0.0
 11
2.970281075457975
 21
-5.375970674929214
 31
0.0
  0
SPLINE
  5
A1
330
70
100
AcDbEntity
  8
Livello 1
100
AcDbSpline
210
0.0
220
0.0
230
1.0
 70
     8
 71
     3
 72
     8
 73
     4
 74
     0
 42
0.000000001
 43
0.0000000001
 40
0.0
 40
0.0
 40
0.0
 40
0.0
 40
1.0
 40
1.0
 40
1.0
 40
1.0
 10
2.980010650127028
 20
-5.371781113147351
 30
0.0
 10
2.915844263351997
 20
-5.293926627777959
 30
0.0
 10
2.820927057983377
 20
-5.247905845038106
 30
0.0
 10
2.720061239769226
 20
-5.245739135490981
 30
0.0
  0
SPLINE
  5
A2
330
70
100
AcDbEntity
  8
Livello 1
100
AcDbSpline
210
0.0
220
0.0
230
1.0
 70
     8
 71
     3
 72
     8
 73
     4
 74
     0
 42
0.000000001
 43
0.0000000001
 40
0.0
 40
0.0
 40
0.0
 40
0.0
 40
1.0
 40
1.0
 40
1.0
 40
1.0
 10
2.610405815084739
 20
-5.245739135490981
 30
0.0
 10
2.561914603105573
 20
-5.246780782941747
 30
0.0
 10
2.5141825962096
 20
-5.257990920500289
 30
0.0
 10
2.470296324587007
 20
-5.278644424462392
 30
0.0
  0
LINE
  5
A3
330
70
100
AcDbEntity
  8
Livello 1
100
AcDbLine
 10
2.350709473088072
 20
-5.371473627556864
 30
0.0
 11
2.350540760847411
 21
-5.371678680715436
 31
0.0
  0
LINE
  5
A4
330
70
100
AcDbEntity
  8
Livello 1
100
AcDbLine
 10
2.350709473088072
 20
-5.371473627556864
 30
0.0
 11
2.350540760847411
 21
-5.371678680715436
 31
0.0
  0
SPLINE
  5
A5
330
70
100
AcDbEntity
  8
Livello 1
100
AcDbSpline
210
0.0
220
0.0
230
1.0
 70
     8
 71
     3
 72
     8
 73
     4
 74
     0
 42
0.000000001
 43
0.0000000001
 40
0.0
 40
0.0
 40
0.0
 40
0.0
 40
1.0
 40
1.0
 40
1.0
 40
1.0
 10
5.885895221043903
 20
-4.730348471547625
 30
0.0
 10
5.868285880916552
 20
-4.644068542066313
 30
0.0
 10
5.828981954261186
 20
-4.563698060088827
 30
0.0
 10
5.771695110374158
 20
-4.496821168062258
 30
0.0
  0
SPLINE
  5
A6
330
70
100
AcDbEntity
  8
Livello 1
100
AcDbSpline
210
0.0
220
0.0
230
1.0
 70
     8
 71
     3
 72
     8
 73
     4
 74
     0
 42
0.000000001
 43
0.0000000001
 40
0.0
 40
0.0
 40
0.0
 40
0.0
 40
1.0
 40
1.0
 40
1.0
 40
1.0
 10
5.630293163603847
 20
-4.381216189057555
 30
0.0
 10
5.427561304605711
 20
-4.268287822220344
 30
0.0
 10
5.174471854465382
 20
-4.303885540132026
 30
0.0
 10
5.010754701138309
 20
-4.468355873105057
 30
0.0
  0
SPLINE
  5
A7
330
70
100
AcDbEntity
  8
Livello 1
100
AcDbSpline
210
0.0
220
0.0
230
1.0
 70
     8
 71
     3
 72
    11
 73
     7
 74
     0
 42
0.000000001
 43
0.0000000001
 40
0.0
 40
0.0
 40
0.0
 40
0.0
 40
1.0
 40
1.0
 40
1.0
 40
2.0
 40
2.0
 40
2.0
 40
2.0
 10
5.010754701138309
 20
-5.199631548796889
 30
0.0
 10
5.145495527118114
 20
-5.334991111856155
 30
0.0
 10
5.343759524455139
 20
-5.385280163650663
 30
0.0
 10
5.5267219241008
 20
-5.330505362178424
 30
0.0
 10
5.709687336465079
 20
-5.275730560706273
 30
0.0
 10
5.847702987546255
 20
-5.124769446161753
 30
0.0
 10
5.885895221043903
 20
-4.937638950354233
 30
0.0
  0
SPLINE
  5
A8
330
70
100
AcDbEntity
  8
Livello 1
100
AcDbSpline
210
0.0
220
0.0
230
1.0
 70
     8
 71
     3
 72
    17
 73
    13
 74
     0
 42
0.000000001
 43
0.0000000001
 40
0.0
 40
0.0
 40
0.0
 40
0.0
 40
1.0
 40
1.0
 40
1.0
 40
2.0
 40
2.0
 40
2.0
 40
3.0
 40
3.0
 40
3.0
 40
4.0
 40
4.0
 40
4.0
 40
4.0
 10
6.396373270745097
 20
-4.510590421763549
 30
0.0
 10
6.646124628693576
 20
-4.372973014420139
 30
0.0
 10
6.771037966650299
 20
-4.083739226240006
 30
0.0
 10
6.699989024268466
 20
-3.807576117639491
 30
0.0
 10
6.628937069168283
 20
-3.531413009038883
 30
0.0
 10
6.379950941740065
 20
-3.338374195496967
 30
0.0
 10
6.094794114984682
 20
-3.338374195496967
 30
0.0
 10
5.809634275510683
 20
-3.338374195496967
 30
0.0
 10
5.560648148082374
 20
-3.531413009038883
 30
0.0
 10
5.489599205700815
 20
-3.807576117639491
 30
0.0
 10
5.418547250600542
 20
-4.083739226240006
 30
0.0
 10
5.543463601275705
 20
-4.372973014420139
 30
0.0
 10
5.793211946505835
 20
-4.510590421763549
 30
0.0
  0
SPLINE
  5
A9
330
70
100
AcDbEntity
  8
Livello 1
100
AcDbSpline
210
0.0
220
0.0
230
1.0
 70
    11
 71
     3
 72
    17
 73
    13
 74
     0
 42
0.000000001
 43
0.0000000001
 40
0.0
 40
0.0
 40
0.0
 40
0.0
 40
1.0
 40
1.0
 40
1.0
 40
2.0
 40
2.0
 40
2.0
 40
3.0
 40
3.0
 40
3.0
 40
4.0
 40
4.0
 40
4.0
 40
4.0
 10
5.155958698762591
 20
-4.83399371095111
 30
0.0
 10
5.155958698762591
 20
-4.547753246979561
 30
0.0
 10
4.923913087935954
 20
-4.315709707396953
 30
0.0
 10
4.637674695208704
 20
-4.315709707396953
 30
0.0
 10
4.351436302481362
 20
-4.315709707396953
 30
0.0
 10
4.119390691654732
 20
-4.547753246979561
 30
0.0
 10
4.119390691654732
 20
-4.83399371095111
 30
0.0
 10
4.119390691654732
 20
-5.120233986627468
 30
0.0
 10
4.351436302481362
 20
-5.352277714504996
 30
0.0
 10
4.637674695208704
 20
-5.352277714504996
 30
0.0
 10
4.923913087935954
 20
-5.352277714504996
 30
0.0
 10
5.155958698762591
 20
-5.120233986627468
 30
0.0
 10
5.155958698762591
 20
-4.83399371095111
 30
0.0
  0
LINE
  5
AA
330
70
100
AcDbEntity
  8
Livello 1
100
AcDbLine
 10
0.9741471355469028
 20
-4.937650436343863
 30
0.0
 11
1.412467562427225
 21
-4.937650436343863
 31
0.0
  0
LINE
  5
AB
330
70
100
AcDbEntity
  8
Livello 1
100
AcDbLine
 10
2.644502257666326
 20
-4.937650436343863
 30
0.0
 11
4.125313696392112
 21
-4.937650436343863
 31
0.0
  0
LINE
  5
AC
330
70
100
AcDbEntity
  8
Livello 1
100
AcDbLine
 10
0.9741471355469028
 20
-4.742183371622869
 30
0.0
 11
1.412467562427225
 21
-4.742183371622869
 31
0.0
  0
LINE
  5
AD
330
70
100
AcDbEntity
  8
Livello 1
100
AcDbLine
 10
2.644502257666326
 20
-4.742183371622869
 30
0.0
 11
4.125313696392112
 21
-4.742183371622869
 31
0.0
  0
LWPOLYLINE
  5
AE
330
70
100
AcDbEntity
  8
Livello 1
100
AcDbPolyline
 90
        5
 70
     0
 43
0.0
 10
3.775841353291577
 20
3.046884381825586
 10
4.818332365137095
 20
3.046884381825586
 10
4.818332365137095
 20
3.354893432225039
 10
3.775841353291577
 20
3.354893432225039
 10
3.775841353291577
 20
3.046884381825586
  0
LINE
  5
AF
330
70
100
AcDbEntity
  8
Livello 1
100
AcDbLine
 10
-0.7139785071439718
 20
-4.303863133037426
 30
0.0
 11
-0.0861143968700671
 21
-4.303863133037426
 31
0.0
  0
SPLINE
  5
B0
330
70
100
AcDbEntity
  8
Livello 1
100
AcDbSpline
210
0.0
220
0.0
230
1.0
 70
     8
 71
     3
 72
     8
 73
     4
 74
     0
 42
0.000000001
 43
0.0000000001
 40
0.0
 40
0.0
 40
0.0
 40
0.0
 40
1.0
 40
1.0
 40
1.0
 40
1.0
 10
-0.3422572372959223
 20
-4.428171479443265
 30
0.0
 10
-0.2413899127227875
 20
-4.426004769896147
 30
0.0
 10
-0.1464757200727392
 20
-4.379983987156476
 30
0.0
 10
-0.0823063205790897
 20
-4.302129501786894
 30
0.0
  0
SPLINE
  5
B1
330
70
100
AcDbEntity
  8
Livello 1
100
AcDbSpline
210
0.0
220
0.0
230
1.0
 70
     8
 71
     3
 72
     8
 73
     4
 74
     0
 42
0.000000001
 43
0.0000000001
 40
0.0
 40
0.0
 40
0.0
 40
0.0
 40
1.0
 40
1.0
 40
1.0
 40
1.0
 10
-0.7118620723382589
 20
-4.302129501786894
 30
0.0
 10
-0.6476926728446069
 20
-4.379983987156476
 30
0.0
 10
-0.5527799865539171
 20
-4.426004769896147
 30
0.0
 10
-0.4519126619807331
 20
-4.428171479443265
 30
0.0
  0
LINE
  5
B2
330
70
100
AcDbEntity
  8
Livello 1
100
AcDbLine
 10
4.273394840264666
 20
2.881033470561118
 30
0.0
 11
4.273394840264666
 21
-4.46971404430199
 31
0.0
  0
LINE
  5
B3
330
70
100
AcDbEntity
  8
Livello 1
100
AcDbLine
 10
4.32078189088244
 20
2.881033470561118
 30
0.0
 11
4.32078189088244
 21
-4.422328123453457
 31
0.0
  0
LINE
  5
B4
330
70
100
AcDbEntity
  8
Livello 1
100
AcDbLine
 10
0.7964494616280838
 20
2.969882307520435
 30
0.0
 11
0.7964494616280838
 21
-4.43417469781298
 31
0.0
  0
LWPOLYLINE
  5
B5
330
70
100
AcDbEntity
  8
Livello 1
100
AcDbPolyline
 90
        4
 70
     0
 43
0.0
 10
0.8082954711028522
 20
2.969882307520435
 10
0.7964494616280838
 20
2.969882307520435
 10
0.8082954711028522
 20
2.969882307520435
 10
0.8082954711028522
 20
-4.451944276909979
  0
LINE
  5
B6
330
70
100
AcDbEntity
  8
Livello 1
100
AcDbLine
 10
0.7786804474157084
 20
2.969882307520435
 30
0.0
 11
0.7786804474157084
 21
3.011344847041702
 31
0.0
  0
LINE
  5
B7
330
70
100
AcDbEntity
  8
Livello 1
100
AcDbLine
 10
0.8201429869369737
 20
2.969882307520435
 30
0.0
 11
0.8201429869369737
 21
3.011344847041702
 31
0.0
  0
LINE
  5
B8
330
70
100
AcDbEntity
  8
Livello 1
100
AcDbLine
 10
0.8616055264582404
 20
3.035038372350589
 30
0.0
 11
0.7431409126320049
 21
3.035038372350589
 31
0.0
  0
LINE
  5
B9
330
70
100
AcDbEntity
  8
Livello 1
100
AcDbLine
 10
0.8260659916743535
 20
3.011344847041702
 30
0.0
 11
0.7727559363189672
 21
3.011344847041702
 31
0.0
  0
LWPOLYLINE
  5
BA
330
70
100
AcDbEntity
  8
Livello 1
100
AcDbPolyline
 90
        4
 70
     0
 43
0.0
 10
0.8616055264582404
 20
3.035038372350589
 10
0.8616055264582404
 20
3.046884381825586
 10
0.7431409126320049
 20
3.046884381825586
 10
0.7431409126320049
 20
3.035038372350589
  0
LINE
  5
BB
330
70
100
AcDbEntity
  8
Livello 1
100
AcDbLine
 10
0.8201429869369737
 20
2.969882307520435
 30
0.0
 11
0.7786804474157084
 21
2.969882307520435
 31
0.0
  0
SPLINE
  5
BC
330
70
100
AcDbEntity
  8
Livello 1
100
AcDbSpline
210
0.0
220
0.0
230
1.0
 70
     8
 71
     3
 72
     8
 73
     4
 74
     0
 42
0.000000001
 43
0.0000000001
 40
0.0
 40
0.0
 40
0.0
 40
0.0
 40
1.0
 40
1.0
 40
1.0
 40
1.0
 10
0.8276069972304548
 20
3.01749681839152
 30
0.0
 10
0.8410979510525455
 20
3.018871371245766
 30
0.0
 10
0.8532226369963046
 20
3.026332368820627
 30
0.0
 10
0.8605299859233361
 20
3.037756597693787
 30
0.0
  0
SPLINE
  5
BD
330
70
100
AcDbEntity
  8
Livello 1
100
AcDbSpline
210
0.0
220
0.0
230
1.0
 70
     8
 71
     3
 72
     8
 73
     4
 74
     0
 42
0.000000001
 43
0.0000000001
 40
0.0
 40
0.0
 40
0.0
 40
0.0
 40
1.0
 40
1.0
 40
1.0
 40
1.0
 10
0.7442164531666825
 20
3.037756597693787
 30
0.0
 10
0.7515238020937113
 20
3.026332368820627
 30
0.0
 10
0.7636469816783894
 20
3.018871371245766
 30
0.0
 10
0.7771379355005282
 20
3.01749681839152
 30
0.0
  0
LINE
  5
BE
330
70
100
AcDbEntity
  8
Livello 1
100
AcDbLine
 10
0.7964494616280838
 20
2.969882307520435
 30
0.0
 11
0.8082954711028522
 21
2.969882307520435
 31
0.0
  0
LINE
  5
BF
330
70
100
AcDbEntity
  8
Livello 1
100
AcDbLine
 10
0.9563766149754488
 20
3.354893432225039
 30
0.0
 11
0.642445313018105
 21
3.354893432225039
 31
0.0
  0
LWPOLYLINE
  5
C0
330
70
100
AcDbEntity
  8
Livello 1
100
AcDbPolyline
 90
        4
 70
     0
 43
0.0
 10
0.9563766149754488
 20
3.354893432225039
 10
0.9563766149754488
 20
3.046884381825586
 10
0.642445313018105
 20
3.046884381825586
 10
0.642445313018105
 20
3.354893432225039
  0
LINE
  5
C1
330
70
100
AcDbEntity
  8
Livello 1
100
AcDbLine
 10
0.642445313018105
 20
3.046884381825586
 30
0.0
 11
0.9563766149754488
 21
3.046884381825586
 31
0.0
  0
LINE
  5
C3
330
70
100
AcDbEntity
  8
Livello 1
100
AcDbLine
 10
-1.611489968899664
 20
-6.792704135014993
 30
0.0
 11
6.713772211793344
 21
-6.792704135014993
 31
0.0
  0
LINE
  5
D2
330
70
100
AcDbEntity
  8
Livello 1
100
AcDbLine
 10
7.275168755961683
 20
-6.792704135014993
 30
0.0
 11
8.278198542944937
 21
-5.845573500475043
 31
0.0
  0
LINE
  5
E0
330
70
100
AcDbEntity
  8
Livello 1
100
AcDbLine
 10
-1.890448263023536
 20
3.354893432225039
 30
0.0
 11
-1.890448263023536
 21
-6.286008763367807
 31
0.0
  0
LINE
  5
EF
330
70
100
AcDbEntity
  8
Livello 1
100
AcDbLine
 10
3.775841353291577
 20
3.548878841122938
 30
0.0
 11
4.818332365137095
 21
3.548878841122938
 31
0.0
  0
INSERT
  5
F1
330
70
100
AcDbEntity
  8
Livello 1
100
AcDbBlockReference
  2
Block_6
 10
-4.969792943104753
 20
4.466521394085048
 30
0.0
 41
1.44
 42
1.44
 43
1.44
  0
MTEXT
  5
149
330
70
100
AcDbEntity
  8
0
100
AcDbMText
 10
-5.718785173029263
 20
-1.337459630867678
 30
0.0
 40
0.5760000000000002
 41
4.888980763936724
 46
0.0
 71
     1
 72
     5
  1
1250 mm
 73
     1
 44
1.0
101
Embedded Object
 70
     1
 10
1.0
 20
0.0
 30
0.0
 11
-5.718785173029263
 21
-1.337459630867678
 31
0.0
 40
4.888980763936724
 41
0.0
 42
3.552
 43
0.5760000000000002
 71
     2
 72
     1
 44
4.888980763936724
 45
2.88
 73
     0
 74
     0
 46
-0.5760000000000003
  0
MTEXT
  5
151
330
70
100
AcDbEntity
  8
0
100
AcDbMText
 10
1.427319767406433
 20
-7.038244519560467
 30
0.0
 40
0.5760000000000002
 41
4.888980763936724
 46
0.0
 71
     1
 72
     5
  1
810 mm
 73
     1
 44
1.0
101
Embedded Object
 70
     1
 10
1.0
 20
0.0
 30
0.0
 11
1.427319767406433
 21
-7.038244519560467
 31
0.0
 40
4.888980763936724
 41
0.0
 42
2.976000000000001
 43
0.5760000000000002
 71
     2
 72
     1
 44
4.888980763936724
 45
2.88
 73
     0
 74
     0
 46
-0.5760000000000003
  0
MTEXT
  5
157
330
70
100
AcDbEntity
  8
0
100
AcDbMText
 10
8.287234556439063
 20
-6.167421298238026
 30
0.0
 40
0.5760000000000002
 41
4.888980763936724
 46
0.0
 71
     1
 72
     5
  1
300 mm
 73
     1
 44
1.0
101
Embedded Object
 70
     1
 10
1.0
 20
0.0
 30
0.0
 11
8.287234556439063
 21
-6.167421298238026
 31
0.0
 40
4.888980763936724
 41
0.0
 42
3.072000000000001
 43
0.5760000000000002
 71
     2
 72
     1
 44
4.888980763936724
 45
2.88
 73
     0
 74
     0
 46
-0.5760000000000003
  0
ENDSEC
  0
SECTION
  2
OBJECTS
  0
DICTIONARY
  5
C
330
0
100
AcDbDictionary
281
     1
  3
ACAD_CIP_PREVIOUS_PRODUCT_INFO
350
140
  3
ACAD_COLOR
350
63
  3
ACAD_DETAILVIEWSTYLE
350
6A
  3
ACAD_GROUP
350
D
  3
ACAD_LAYOUT
350
62
  3
ACAD_MATERIAL
350
10
  3
ACAD_MLEADERSTYLE
350
66
  3
ACAD_MLINESTYLE
350
5F
  3
ACAD_PLOTSETTINGS
350
61
  3
ACAD_PLOTSTYLENAME
350
E
  3
ACAD_SCALELIST
350
42
  3
ACAD_SECTIONVIEWSTYLE
350
68
  3
ACAD_TABLESTYLE
350
64
  3
ACAD_VISUALSTYLE
350
29
  3
ACDB_RECOMPOSE_DATA
350
25F
  3
AcDbVariableDictionary
350
FD
  3
APPDATA
350
259
  0
SUN
  5
25A
330
57
100
AcDbSun
 90
        1
290
     0
 63
     7
421
 16777215
 40
1.0
291
     1
 91
  2455826
 92
 54000000
292
     0
 70
     2
 71
   256
280
     1
  0
DICTIONARY
  5
142
330
2
100
AcDbDictionary
280
     1
281
     1
  3
ACAD_LAYERSTATES
360
143
  0
DICTIONARY
  5
25B
330
70
100
AcDbDictionary
280
     1
281
     1
  3
DIM_BOUNDING_BOXES_V1
360
25C
  0
XRECORD
  5
140
102
{ACAD_REACTORS
330
C
102
}
330
C
100
AcDbXrecord
280
     1
300
ACD
300
2022
300

  0
DICTIONARY
  5
63
102
{ACAD_REACTORS
330
C
102
}
330
C
100
AcDbDictionary
281
     1
  0
DICTIONARY
  5
6A
102
{ACAD_REACTORS
330
C
102
}
330
C
100
AcDbDictionary
281
     1
  3
Imperial24
350
6B
  0
DICTIONARY
  5
D
102
{ACAD_REACTORS
330
C
102
}
330
C
100
AcDbDictionary
281
     1
  0
DICTIONARY
  5
62
102
{ACAD_REACTORS
330
C
102
}
330
C
100
AcDbDictionary
281
     1
  3
Layout1
350
6F
  3
Layout2
350
77
  3
Model
350
73
  0
DICTIONARY
  5
10
102
{ACAD_REACTORS
330
C
102
}
330
C
100
AcDbDictionary
281
     1
  3
ByBlock
350
19
  3
ByLayer
350
11
  3
Global
350
21
  0
DICTIONARY
  5
66
102
{ACAD_REACTORS
330
C
102
}
330
C
100
AcDbDictionary
281
     1
  3
Standard
350
67
  0
DICTIONARY
  5
5F
102
{ACAD_REACTORS
330
C
102
}
330
C
100
AcDbDictionary
281
     1
  3
Standard
350
60
  0
DICTIONARY
  5
61
102
{ACAD_REACTORS
330
C
102
}
330
C
100
AcDbDictionary
281
     1
  0
ACDBDICTIONARYWDFLT
  5
E
102
{ACAD_REACTORS
330
C
102
}
330
C
100
AcDbDictionary
281
     1
  3
Normal
350
F
100
AcDbDictionaryWithDefault
340
F
  0
DICTIONARY
  5
42
102
{ACAD_REACTORS
330
C
102
}
330
C
100
AcDbDictionary
281
     1
  3
A0
350
43
  3
A1
350
44
  3
A2
350
45
  3
A3
350
46
  3
A4
350
47
  3
A5
350
48
  3
A6
350
49
  3
A7
350
4A
  3
A8
350
4B
  3
A9
350
4C
  3
B0
350
4D
  3
B1
350
4E
  3
B2
350
4F
  3
B3
350
50
  3
B4
350
51
  3
B5
350
52
  3
B6
350
53
  0
DICTIONARY
  5
68
102
{ACAD_REACTORS
330
C
102
}
330
C
100
AcDbDictionary
281
     1
  3
Imperial24
350
69
  0
DICTIONARY
  5
64
102
{ACAD_REACTORS
330
C
102
}
330
C
100
AcDbDictionary
281
     1
  3
Standard
350
65
  0
DICTIONARY
  5
29
102
{ACAD_REACTORS
330
C
102
}
330
C
100
AcDbDictionary
281
     1
  3
2dWireframe
350
2F
  3
Basic
350
2E
  3
Brighten
350
35
  3
ColorChange
350
39
  3
Conceptual
350
32
  3
Dim
350
34
  3
EdgeColorOff
350
41
  3
Facepattern
350
38
  3
Flat
350
2A
  3
FlatWithEdges
350
2B
  3
Gouraud
350
2C
  3
GouraudWithEdges
350
2D
  3
Hidden
350
31
  3
JitterOff
350
3F
  3
Linepattern
350
37
  3
OverhangOff
350
40
  3
Realistic
350
33
  3
Shaded
350
3E
  3
Shaded with edges
350
3D
  3
Shades of Gray
350
3A
  3
Sketchy
350
3B
  3
Thicken
350
36
  3
Wireframe
350
30
  3
X-Ray
350
3C
  0
XRECORD
  5
25F
102
{ACAD_REACTORS
330
C
102
}
330
C
100
AcDbXrecord
280
     1
 90
        1
330
65
  0
DICTIONARY
  5
FD
102
{ACAD_REACTORS
330
C
102
}
330
C
100
AcDbDictionary
281
     1
  3
ANNOALLVISIBLE
350
258
  3
CANNOSCALE
350
102
  3
CMLEADERSTYLE
350
FF
  3
CTABLESTYLE
350
FE
  3
CVIEWDETAILSTYLE
350
100
  3
CVIEWSECTIONSTYLE
350
101
  0
DICTIONARY
  5
259
102
{ACAD_REACTORS
330
C
102
}
330
C
100
AcDbDictionary
281
     1
  0
DICTIONARY
  5
143
102
{ACAD_REACTORS
330
142
102
}
330
142
100
AcDbDictionary
281
     1
  0
DICTIONARY
  5
25C
102
{ACAD_REACTORS
330
25B
102
}
330
25B
100
AcDbDictionary
281
     1
  0
ACDBDETAILVIEWSTYLE
  5
6B
102
{ACAD_REACTORS
330
6A
102
}
330
6A
100
AcDbModelDocViewStyle
 70
     0
  3
Imperial24
290
     0
300
Imperial24
 90
        0
100
AcDbDetailViewStyle
 70
     0
 71
     0
 90
        3
 71
     1
340
55
 62
   256
 40
0.24
340
0
 62
   256
 40
0.24
300

 40
0.36
280
     3
 71
     2
340
5D
 90
       25
 62
   256
 71
     3
340
55
 62
   256
 40
0.24
 90
        1
 40
0.75
 90
        1
300
%<\AcVar ViewType \f "%tc1">% %<\AcVar ViewDetailId>%\PSCALE %<\AcVar ViewScale \f "%sn">%
 71
     4
340
5D
 90
       25
 62
   256
340
5D
 90
       25
 62
   256
280
     0
  0
LAYOUT
  5
6F
102
{ACAD_REACTORS
330
62
102
}
330
62
100
AcDbPlotSettings
  1

  2

  4

  6

 40
0.0
 41
0.0
 42
0.0
 43
0.0
 44
0.0
 45
0.0
 46
0.0
 47
0.0
 48
0.0
 49
0.0
140
0.0
141
0.0
142
1.0
143
1.0
 70
   688
 72
     0
 73
     0
 74
     5
  7

 75
    16
 76
     0
 77
     2
 78
   300
147
1.0
148
0.0
149
0.0
100
AcDbLayout
  1
Layout1
 70
     1
 71
     1
 10
0.0
 20
0.0
 11
12.0
 21
9.0
 12
0.0
 22
0.0
 32
0.0
 14
1.000000000000000E+20
 24
1.000000000000000E+20
 34
1.000000000000000E+20
 15
-1.000000000000000E+20
 25
-1.000000000000000E+20
 35
-1.000000000000000E+20
146
0.0
 13
0.0
 23
0.0
 33
0.0
 16
1.0
 26
0.0
 36
0.0
 17
0.0
 27
1.0
 37
0.0
 76
     0
330
6C
  0
LAYOUT
  5
77
102
{ACAD_REACTORS
330
62
102
}
330
62
100
AcDbPlotSettings
  1

  2

  4

  6

 40
0.0
 41
0.0
 42
0.0
 43
0.0
 44
0.0
 45
0.0
 46
0.0
 47
0.0
 48
0.0
 49
0.0
140
0.0
141
0.0
142
1.0
143
1.0
 70
   688
 72
     0
 73
     0
 74
     5
  7

 75
    16
 76
     0
 77
     2
 78
   300
147
1.0
148
0.0
149
0.0
100
AcDbLayout
  1
Layout2
 70
     1
 71
     2
 10
0.0
 20
0.0
 11
12.0
 21
9.0
 12
0.0
 22
0.0
 32
0.0
 14
0.0
 24
0.0
 34
0.0
 15
0.0
 25
0.0
 35
0.0
146
0.0
 13
0.0
 23
0.0
 33
0.0
 16
1.0
 26
0.0
 36
0.0
 17
0.0
 27
1.0
 37
0.0
 76
     0
330
74
  0
LAYOUT
  5
73
102
{ACAD_REACTORS
330
62
102
}
330
62
100
AcDbPlotSettings
  1

  2

  4

  6

 40
0.0
 41
0.0
 42
0.0
 43
0.0
 44
0.0
 45
0.0
 46
0.0
 47
0.0
 48
0.0
 49
0.0
140
0.0
141
0.0
142
1.0
143
1.0
 70
  1712
 72
     0
 73
     0
 74
     0
  7

 75
     0
 76
     0
 77
     2
 78
   300
147
1.0
148
0.0
149
0.0
100
AcDbLayout
  1
Model
 70
     1
 71
     0
 10
0.0
 20
0.0
 11
12.0
 21
9.0
 12
0.0
 22
0.0
 32
0.0
 14
-5.718785173029263
 24
-9.372463328439915
 34
0.0
 15
11.35923455643906
 25
4.14559834729028
 35
0.0
146
0.0
 13
0.0
 23
0.0
 33
0.0
 16
1.0
 26
0.0
 36
0.0
 17
0.0
 27
1.0
 37
0.0
 76
     0
330
70
331
57
  0
MATERIAL
  5
19
102
{ACAD_REACTORS
330
10
102
}
330
10
100
AcDbMaterial
  1
ByBlock
 72
     0
 73
     2
 43
0.0208333333333333
 43
0.0
 43
0.0
 43
0.0
 43
0.0
 43
0.0208333333333333
 43
0.0
 43
0.0
 43
0.0
 43
0.0
 43
1.0
 43
0.0
 43
0.0
 43
0.0
 43
0.0
 43
1.0
 77
     0
 78
     2
 47
0.0208333333333333
 47
0.0
 47
0.0
 47
0.0
 47
0.0
 47
0.0208333333333333
 47
0.0
 47
0.0
 47
0.0
 47
0.0
 47
1.0
 47
0.0
 47
0.0
 47
0.0
 47
0.0
 47
1.0
171
     0
172
     2
 49
0.0208333333333333
 49
0.0
 49
0.0
 49
0.0
 49
0.0
 49
0.0208333333333333
 49
0.0
 49
0.0
 49
0.0
 49
0.0
 49
1.0
 49
0.0
 49
0.0
 49
0.0
 49
0.0
 49
1.0
175
     0
176
     2
142
0.0208333333333333
142
0.0
142
0.0
142
0.0
142
0.0
142
0.0208333333333333
142
0.0
142
0.0
142
0.0
142
0.0
142
1.0
142
0.0
142
0.0
142
0.0
142
0.0
142
1.0
179
     0
270
     2
144
0.0208333333333333
144
0.0
144
0.0
144
0.0
144
0.0
144
0.0208333333333333
144
0.0
144
0.0
144
0.0
144
0.0
144
1.0
144
0.0
144
0.0
144
0.0
144
0.0
144
1.0
274
     2
147
0.0208333333333333
147
0.0
147
0.0
147
0.0
147
0.0
147
0.0208333333333333
147
0.0
147
0.0
147
0.0
147
0.0
147
1.0
147
0.0
147
0.0
147
0.0
147
0.0
147
1.0
 94
      127
  0
MATERIAL
  5
11
102
{ACAD_REACTORS
330
10
102
}
330
10
100
AcDbMaterial
  1
ByLayer
 72
     0
 73
     2
 43
0.0208333333333333
 43
0.0
 43
0.0
 43
0.0
 43
0.0
 43
0.0208333333333333
 43
0.0
 43
0.0
 43
0.0
 43
0.0
 43
1.0
 43
0.0
 43
0.0
 43
0.0
 43
0.0
 43
1.0
 77
     0
 78
     2
 47
0.0208333333333333
 47
0.0
 47
0.0
 47
0.0
 47
0.0
 47
0.0208333333333333
 47
0.0
 47
0.0
 47
0.0
 47
0.0
 47
1.0
 47
0.0
 47
0.0
 47
0.0
 47
0.0
 47
1.0
171
     0
172
     2
 49
0.0208333333333333
 49
0.0
 49
0.0
 49
0.0
 49
0.0
 49
0.0208333333333333
 49
0.0
 49
0.0
 49
0.0
 49
0.0
 49
1.0
 49
0.0
 49
0.0
 49
0.0
 49
0.0
 49
1.0
175
     0
176
     2
142
0.0208333333333333
142
0.0
142
0.0
142
0.0
142
0.0
142
0.0208333333333333
142
0.0
142
0.0
142
0.0
142
0.0
142
1.0
142
0.0
142
0.0
142
0.0
142
0.0
142
1.0
179
     0
270
     2
144
0.0208333333333333
144
0.0
144
0.0
144
0.0
144
0.0
144
0.0208333333333333
144
0.0
144
0.0
144
0.0
144
0.0
144
1.0
144
0.0
144
0.0
144
0.0
144
0.0
144
1.0
274
     2
147
0.0208333333333333
147
0.0
147
0.0
147
0.0
147
0.0
147
0.0208333333333333
147
0.0
147
0.0
147
0.0
147
0.0
147
1.0
147
0.0
147
0.0
147
0.0
147
0.0
147
1.0
 94
      127
  0
MATERIAL
  5
21
102
{ACAD_REACTORS
330
10
102
}
330
10
100
AcDbMaterial
  1
Global
 72
     0
 73
     2
 43
0.0208333333333333
 43
0.0
 43
0.0
 43
0.0
 43
0.0
 43
0.0208333333333333
 43
0.0
 43
0.0
 43
0.0
 43
0.0
 43
1.0
 43
0.0
 43
0.0
 43
0.0
 43
0.0
 43
1.0
 77
     0
 78
     2
 47
0.0208333333333333
 47
0.0
 47
0.0
 47
0.0
 47
0.0
 47
0.0208333333333333
 47
0.0
 47
0.0
 47
0.0
 47
0.0
 47
1.0
 47
0.0
 47
0.0
 47
0.0
 47
0.0
 47
1.0
171
     0
172
     2
 49
0.0208333333333333
 49
0.0
 49
0.0
 49
0.0
 49
0.0
 49
0.0208333333333333
 49
0.0
 49
0.0
 49
0.0
 49
0.0
 49
1.0
 49
0.0
 49
0.0
 49
0.0
 49
0.0
 49
1.0
175
     0
176
     2
142
0.0208333333333333
142
0.0
142
0.0
142
0.0
142
0.0
142
0.0208333333333333
142
0.0
142
0.0
142
0.0
142
0.0
142
1.0
142
0.0
142
0.0
142
0.0
142
0.0
142
1.0
179
     0
270
     2
144
0.0208333333333333
144
0.0
144
0.0
144
0.0
144
0.0
144
0.0208333333333333
144
0.0
144
0.0
144
0.0
144
0.0
144
1.0
144
0.0
144
0.0
144
0.0
144
0.0
144
1.0
274
     2
147
0.0208333333333333
147
0.0
147
0.0
147
0.0
147
0.0
147
0.0208333333333333
147
0.0
147
0.0
147
0.0
147
0.0
147
1.0
147
0.0
147
0.0
147
0.0
147
0.0
147
1.0
 94
      127
  0
MLEADERSTYLE
  5
67
102
{ACAD_REACTORS
330
66
102
}
330
66
100
AcDbMLeaderStyle
179
     2
170
     2
171
     1
172
     0
 90
        2
 40
0.0
 41
0.0
173
     1
 91
-1056964608
340
5B
 92
       -2
290
     1
 42
0.09
291
     1
 43
0.36
  3
Standard
341
0
 44
0.18
300

342
55
174
     1
178
     6
175
     1
176
     0
 93
-1056964608
 45
0.18
292
     0
297
     0
 46
0.18
343
0
 94
-1056964608
 47
1.0
 49
1.0
140
1.0
293
     1
141
0.0
294
     1
177
     0
142
1.0
295
     0
296
     0
143
0.125
271
     0
272
     9
273
     9
298
     1
  0
MLINESTYLE
  5
60
102
{ACAD_REACTORS
330
5F
102
}
330
5F
100
AcDbMlineStyle
  2
STANDARD
 70
     0
  3

 62
   256
 51
90.0
 52
90.0
 71
     2
 49
0.5
 62
   256
  6
BYLAYER
 49
-0.5
 62
   256
  6
BYLAYER
  0
ACDBPLACEHOLDER
  5
F
102
{ACAD_REACTORS
330
E
102
}
330
E
  0
SCALE
  5
43
102
{ACAD_REACTORS
330
42
102
}
330
42
100
AcDbScale
 70
     0
300
1:1
140
1.0
141
1.0
290
     1
  0
SCALE
  5
44
102
{ACAD_REACTORS
330
42
102
}
330
42
100
AcDbScale
 70
     0
300
1/128" = 1'-0"
140
0.0078125
141
12.0
290
     0
  0
SCALE
  5
45
102
{ACAD_REACTORS
330
42
102
}
330
42
100
AcDbScale
 70
     0
300
1/64" = 1'-0"
140
0.015625
141
12.0
290
     0
  0
SCALE
  5
46
102
{ACAD_REACTORS
330
42
102
}
330
42
100
AcDbScale
 70
     0
300
1/32" = 1'-0"
140
0.03125
141
12.0
290
     0
  0
SCALE
  5
47
102
{ACAD_REACTORS
330
42
102
}
330
42
100
AcDbScale
 70
     0
300
1/16" = 1'-0"
140
0.0625
141
12.0
290
     0
  0
SCALE
  5
48
102
{ACAD_REACTORS
330
42
102
}
330
42
100
AcDbScale
 70
     0
300
3/32" = 1'-0"
140
0.09375
141
12.0
290
     0
  0
SCALE
  5
49
102
{ACAD_REACTORS
330
42
102
}
330
42
100
AcDbScale
 70
     0
300
1/8" = 1'-0"
140
0.125
141
12.0
290
     0
  0
SCALE
  5
4A
102
{ACAD_REACTORS
330
42
102
}
330
42
100
AcDbScale
 70
     0
300
3/16" = 1'-0"
140
0.1875
141
12.0
290
     0
  0
SCALE
  5
4B
102
{ACAD_REACTORS
330
42
102
}
330
42
100
AcDbScale
 70
     0
300
1/4" = 1'-0"
140
0.25
141
12.0
290
     0
  0
SCALE
  5
4C
102
{ACAD_REACTORS
330
42
102
}
330
42
100
AcDbScale
 70
     0
300
3/8" = 1'-0"
140
0.375
141
12.0
290
     0
  0
SCALE
  5
4D
102
{ACAD_REACTORS
330
42
102
}
330
42
100
AcDbScale
 70
     0
300
1/2" = 1'-0"
140
0.5
141
12.0
290
     0
  0
SCALE
  5
4E
102
{ACAD_REACTORS
330
42
102
}
330
42
100
AcDbScale
 70
     0
300
3/4" = 1'-0"
140
0.75
141
12.0
290
     0
  0
SCALE
  5
4F
102
{ACAD_REACTORS
330
42
102
}
330
42
100
AcDbScale
 70
     0
300
1" = 1'-0"
140
1.0
141
12.0
290
     0
  0
SCALE
  5
50
102
{ACAD_REACTORS
330
42
102
}
330
42
100
AcDbScale
 70
     0
300
1-1/2" = 1'-0"
140
1.5
141
12.0
290
     0
  0
SCALE
  5
51
102
{ACAD_REACTORS
330
42
102
}
330
42
100
AcDbScale
 70
     0
300
3" = 1'-0"
140
3.0
141
12.0
290
     0
  0
SCALE
  5
52
102
{ACAD_REACTORS
330
42
102
}
330
42
100
AcDbScale
 70
     0
300
6" = 1'-0"
140
6.0
141
12.0
290
     0
  0
SCALE
  5
53
102
{ACAD_REACTORS
330
42
102
}
330
42
100
AcDbScale
 70
     0
300
1'-0" = 1'-0"
140
12.0
141
12.0
290
     0
  0
ACDBSECTIONVIEWSTYLE
  5
69
102
{ACAD_REACTORS
330
68
102
}
330
68
100
AcDbModelDocViewStyle
 70
     0
  3
Imperial24
290
     0
300
Imperial24
 90
        0
100
AcDbSectionViewStyle
 70
     0
 71
     0
 90
       78
 71
     1
340
55
 62
   256
 40
0.24
340
0
340
0
 62
   256
 40
0.24
300
I, O, Q, S, X, Z
 40
0.48
 90
        3
 40
0.18
 90
        1
 71
     2
340
5D
 90
       25
 62
   256
340
5D
 90
       50
 62
   256
 40
0.24
 40
0.0
 40
0.24
 71
     3
340
55
 62
   256
 40
0.24
 90
        1
 40
0.75
 90
        1
300
%<\AcVar ViewType \f "%tc1">% %<\AcVar ViewSectionStartId>%-%<\AcVar ViewSectionEndId>%\PSCALE %<\AcVar ViewScale \f "%sn">%
 71
     4
 62
   256
 62
   257
300
ANSI31
 40
1.0
 90
        0
290
     0
290
     0
 90
        6
 40
0.0
 40
1.570796326794896
 40
0.2617993877991494
 40
1.308996938995747
 40
-0.2617993877991494
 40
1.832595714594044
  0
TABLESTYLE
  5
65
102
{ACAD_REACTORS
330
64
102
}
102
{ACAD_XDICTIONARY
360
25D
102
}
330
64
100
AcDbTableStyle
  3
Standard
 70
     0
 71
     0
 40
0.06
 41
0.06
280
     0
281
     0
  7
Standard
140
0.18
170
     2
 62
     0
 63
   257
283
     0
 90
      512
 91
        0
  1

274
    -2
284
     1
 64
     0
275
    -2
285
     1
 65
     0
276
    -2
286
     1
 66
     0
277
    -2
287
     1
 67
     0
278
    -2
288
     1
 68
     0
279
    -2
289
     1
 69
     0
  7
Standard
140
0.25
170
     5
 62
     0
 63
   257
283
     0
 90
      512
 91
        0
  1

274
    -2
284
     1
 64
     0
275
    -2
285
     1
 65
     0
276
    -2
286
     1
 66
     0
277
    -2
287
     1
 67
     0
278
    -2
288
     1
 68
     0
279
    -2
289
     1
 69
     0
  7
Standard
140
0.18
170
     5
 62
     0
 63
   257
283
     0
 90
      512
 91
        0
  1

274
    -2
284
     1
 64
     0
275
    -2
285
     1
 65
     0
276
    -2
286
     1
 66
     0
277
    -2
287
     1
 67
     0
278
    -2
288
     1
 68
     0
279
    -2
289
     1
 69
     0
  0
VISUALSTYLE
  5
2F
102
{ACAD_REACTORS
330
29
102
}
330
29
100
AcDbVisualStyle
  2

 70
     4
177
     3
291
     0
 70
    58
 90
        0
176
     1
 90
        2
176
     1
 90
        0
176
     1
 90
        0
176
     1
 40
0.6
176
     1
 40
30.0
176
     1
 62
     7
420
 16777215
176
     1
 90
        1
176
     1
 90
        4
176
     1
 62
     7
176
     1
 62
   257
176
     1
 90
        1
176
     1
 90
        1
176
     1
 40
1.0
176
     1
 90
        0
176
     1
 62
   257
176
     1
 40
1.0
176
     1
 90
        1
176
     1
 90
        6
176
     1
 90
        2
176
     1
 62
     7
176
     1
 90
        5
176
     1
 90
        0
176
     1
 90
        0
176
     1
290
     0
176
     1
 90
        1
176
     1
 40
0.0
176
     1
 90
        0
176
     1
290
     1
176
     1
290
     1
176
     1
290
     0
176
     1
290
     0
176
     1
290
     0
176
     1
290
     0
176
     1
290
     0
176
     1
290
     0
176
     1
290
     0
176
     1
 90
       50
176
     1
 40
0.0
176
     1
 40
1.0
176
     1
 90
        0
176
     1
 62
    18
176
     1
 90
       50
176
     1
 90
        3
176
     1
 62
     5
420
      255
176
     1
290
     0
176
     1
 90
       50
176
     1
 90
       50
176
     1
 90
       50
176
     1
290
     0
176
     1
 90
       50
176
     1
 62
   256
176
     0
 40
1.0
176
     0
 90
        2
176
     1
  1
strokes_ogs.tif
176
     1
290
     0
176
     1
 40
1.0
176
     1
 40
1.0
176
     1
  0
VISUALSTYLE
  5
2E
102
{ACAD_REACTORS
330
29
102
}
330
29
100
AcDbVisualStyle
  2

 70
     7
177
     3
291
     1
 70
    58
 90
        1
176
     1
 90
        0
176
     1
 90
        1
176
     1
 90
        0
176
     1
 40
0.6
176
     1
 40
30.0
176
     1
 62
     7
420
 16777215
176
     1
 90
        0
176
     1
 90
        4
176
     1
 62
     7
176
     1
 62
   257
176
     1
 90
        1
176
     1
 90
        1
176
     1
 40
1.0
176
     1
 90
        8
176
     1
 62
     7
176
     1
 40
1.0
176
     1
 90
        1
176
     1
 90
        6
176
     1
 90
        2
176
     1
 62
     7
176
     1
 90
        5
176
     1
 90
        0
176
     1
 90
        0
176
     1
290
     0
176
     1
 90
        1
176
     1
 40
0.0
176
     1
 90
        0
176
     1
290
     0
176
     1
290
     1
176
     1
290
     1
176
     1
290
     0
176
     1
290
     0
176
     1
290
     0
176
     1
290
     0
176
     1
290
     0
176
     1
290
     0
176
     1
 90
       50
176
     1
 40
0.0
176
     1
 40
1.0
176
     1
 90
        0
176
     1
 62
    18
176
     1
 90
       50
176
     1
 90
        3
176
     1
 62
     5
420
      255
176
     1
290
     0
176
     1
 90
       50
176
     1
 90
       50
176
     1
 90
       50
176
     1
290
     0
176
     1
 90
       50
176
     1
 62
   256
176
     0
 40
1.0
176
     0
 90
        2
176
     1
  1
strokes_ogs.tif
176
     1
290
     0
176
     1
 40
1.0
176
     1
 40
1.0
176
     1
  0
VISUALSTYLE
  5
35
102
{ACAD_REACTORS
330
29
102
}
330
29
100
AcDbVisualStyle
  2

 70
    12
177
     3
291
     1
 70
    58
 90
        2
176
     1
 90
        2
176
     1
 90
        0
176
     1
 90
        0
176
     1
 40
0.6
176
     1
 40
30.0
176
     1
 62
     7
420
 16777215
176
     1
 90
        1
176
     1
 90
        4
176
     1
 62
     7
176
     1
 62
   257
176
     1
 90
        1
176
     1
 90
        1
176
     1
 40
1.0
176
     1
 90
        8
176
     1
 62
     7
176
     1
 40
1.0
176
     1
 90
        1
176
     1
 90
        6
176
     1
 90
        2
176
     1
 62
     7
176
     1
 90
        5
176
     1
 90
        0
176
     1
 90
        0
176
     1
290
     0
176
     1
 90
        1
176
     1
 40
50.0
176
     1
 90
        0
176
     1
290
     0
176
     1
290
     1
176
     1
290
     1
176
     1
290
     0
176
     1
290
     0
176
     1
290
     0
176
     1
290
     0
176
     1
290
     0
176
     1
290
     0
176
     1
 90
       50
176
     1
 40
0.0
176
     1
 40
1.0
176
     1
 90
        0
176
     1
 62
    18
176
     1
 90
       50
176
     1
 90
        3
176
     1
 62
     5
420
      255
176
     1
290
     0
176
     1
 90
       50
176
     1
 90
       50
176
     1
 90
       50
176
     1
290
     0
176
     1
 90
       50
176
     1
 62
   256
176
     0
 40
1.0
176
     0
 90
        2
176
     1
  1
strokes_ogs.tif
176
     1
290
     0
176
     1
 40
1.0
176
     1
 40
1.0
176
     1
  0
VISUALSTYLE
  5
39
102
{ACAD_REACTORS
330
29
102
}
330
29
100
AcDbVisualStyle
  2

 70
    16
177
     3
291
     1
 70
    58
 90
        2
176
     1
 90
        2
176
     1
 90
        3
176
     1
 90
        0
176
     1
 40
0.6
176
     1
 40
30.0
176
     1
 62
     8
420
  8421504
176
     1
 90
        1
176
     1
 90
        4
176
     1
 62
     7
176
     1
 62
   257
176
     1
 90
        1
176
     1
 90
        1
176
     1
 40
1.0
176
     1
 90
        8
176
     1
 62
     8
420
  8421504
176
     1
 40
1.0
176
     1
 90
        1
176
     1
 90
        6
176
     1
 90
        2
176
     1
 62
     7
176
     1
 90
        5
176
     1
 90
        0
176
     1
 90
        0
176
     1
290
     0
176
     1
 90
        1
176
     1
 40
0.0
176
     1
 90
        0
176
     1
290
     0
176
     1
290
     1
176
     1
290
     1
176
     1
290
     0
176
     1
290
     0
176
     1
290
     0
176
     1
290
     0
176
     1
290
     0
176
     1
290
     0
176
     1
 90
       50
176
     1
 40
0.0
176
     1
 40
1.0
176
     1
 90
        0
176
     1
 62
    18
176
     1
 90
       50
176
     1
 90
        3
176
     1
 62
     5
420
      255
176
     1
290
     0
176
     1
 90
       50
176
     1
 90
       50
176
     1
 90
       50
176
     1
290
     0
176
     1
 90
       50
176
     1
 62
   256
176
     0
 40
1.0
176
     0
 90
        2
176
     1
  1
strokes_ogs.tif
176
     1
290
     0
176
     1
 40
1.0
176
     1
 40
1.0
176
     1
  0
VISUALSTYLE
  5
32
102
{ACAD_REACTORS
330
29
102
}
330
29
100
AcDbVisualStyle
  2

 70
     9
177
     3
291
     0
 70
    58
 90
        3
176
     1
 90
        2
176
     1
 90
        0
176
     1
 90
        0
176
     1
 40
0.6
176
     1
 40
30.0
176
     1
 62
     7
420
 16777215
176
     1
 90
        2
176
     1
 90
        2
176
     1
 62
     7
176
     1
 62
   257
176
     1
 90
        1
176
     1
 90
        1
176
     1
 40
179.0
176
     1
 90
        8
176
     1
 62
     7
176
     1
 40
1.0
176
     1
 90
        1
176
     1
 90
        6
176
     1
 90
        2
176
     1
 62
     7
176
     1
 90
        3
176
     1
 90
        0
176
     1
 90
        0
176
     1
290
     0
176
     1
 90
        1
176
     1
 40
0.0
176
     1
 90
        0
176
     1
290
     0
176
     1
290
     1
176
     1
290
     1
176
     1
290
     0
176
     1
290
     0
176
     1
290
     0
176
     1
290
     0
176
     1
290
     0
176
     1
290
     0
176
     1
 90
       50
176
     1
 40
0.0
176
     1
 40
1.0
176
     1
 90
        0
176
     1
 62
    18
176
     1
 90
       50
176
     1
 90
        3
176
     1
 62
     5
420
      255
176
     1
290
     0
176
     1
 90
       50
176
     1
 90
       50
176
     1
 90
       50
176
     1
290
     0
176
     1
 90
       50
176
     1
 62
   256
176
     0
 40
1.0
176
     0
 90
        2
176
     1
  1
strokes_ogs.tif
176
     1
290
     0
176
     1
 40
1.0
176
     1
 40
1.0
176
     1
  0
VISUALSTYLE
  5
34
102
{ACAD_REACTORS
330
29
102
}
330
29
100
AcDbVisualStyle
  2

 70
    11
177
     3
291
     1
 70
    58
 90
        2
176
     1
 90
        2
176
     1
 90
        0
176
     1
 90
        0
176
     1
 40
0.6
176
     1
 40
30.0
176
     1
 62
     7
420
 16777215
176
     1
 90
        1
176
     1
 90
        4
176
     1
 62
     7
176
     1
 62
   257
176
     1
 90
        1
176
     1
 90
        1
176
     1
 40
1.0
176
     1
 90
        8
176
     1
 62
     7
176
     1
 40
1.0
176
     1
 90
        1
176
     1
 90
        6
176
     1
 90
        2
176
     1
 62
     7
176
     1
 90
        5
176
     1
 90
        0
176
     1
 90
        0
176
     1
290
     0
176
     1
 90
        1
176
     1
 40
-50.0
176
     1
 90
        0
176
     1
290
     0
176
     1
290
     1
176
     1
290
     1
176
     1
290
     0
176
     1
290
     0
176
     1
290
     0
176
     1
290
     0
176
     1
290
     0
176
     1
290
     0
176
     1
 90
       50
176
     1
 40
0.0
176
     1
 40
1.0
176
     1
 90
        0
176
     1
 62
    18
176
     1
 90
       50
176
     1
 90
        3
176
     1
 62
     5
420
      255
176
     1
290
     0
176
     1
 90
       50
176
     1
 90
       50
176
     1
 90
       50
176
     1
290
     0
176
     1
 90
       50
176
     1
 62
   256
176
     0
 40
1.0
176
     0
 90
        2
176
     1
  1
strokes_ogs.tif
176
     1
290
     0
176
     1
 40
1.0
176
     1
 40
1.0
176
     1
  0
VISUALSTYLE
  5
41
102
{ACAD_REACTORS
330
29
102
}
330
29
100
AcDbVisualStyle
  2

 70
    22
177
     3
291
     1
 70
    58
 90
        2
176
     0
 90
        2
176
     0
 90
        0
176
     0
 90
        0
176
     0
 40
0.6
176
     0
 40
30.0
176
     0
 62
     7
420
 16777215
176
     0
 90
        1
176
     0
 90
        4
176
     0
 62
     7
176
     0
 62
   257
176
     0
 90
        1
176
     0
 90
        1
176
     0
 40
1.0
176
     0
 90
        8
176
     2
 62
     7
176
     0
 40
1.0
176
     0
 90
        1
176
     0
 90
        6
176
     0
 90
        2
176
     0
 62
     7
176
     0
 90
        5
176
     0
 90
        0
176
     0
 90
        0
176
     0
290
     0
176
     0
 90
        1
176
     0
 40
0.0
176
     0
 90
        0
176
     0
290
     0
176
     0
290
     1
176
     0
290
     1
176
     0
290
     0
176
     0
290
     0
176
     0
290
     0
176
     0
290
     0
176
     0
290
     0
176
     0
290
     0
176
     0
 90
       50
176
     0
 40
0.0
176
     0
 40
1.0
176
     0
 90
        0
176
     0
 62
    18
176
     0
 90
       50
176
     0
 90
        3
176
     0
 62
     5
420
      255
176
     0
290
     0
176
     0
 90
       50
176
     0
 90
       50
176
     0
 90
       50
176
     0
290
     0
176
     0
 90
       50
176
     0
 62
   256
176
     0
 40
1.0
176
     0
 90
        2
176
     0
  1
strokes_ogs.tif
176
     0
290
     0
176
     0
 40
1.0
176
     0
 40
1.0
176
     0
  0
VISUALSTYLE
  5
38
102
{ACAD_REACTORS
330
29
102
}
330
29
100
AcDbVisualStyle
  2

 70
    15
177
     3
291
     1
 70
    58
 90
        2
176
     1
 90
        2
176
     1
 90
        0
176
     1
 90
        0
176
     1
 40
0.6
176
     1
 40
30.0
176
     1
 62
     7
420
 16777215
176
     1
 90
        1
176
     1
 90
        4
176
     1
 62
     7
176
     1
 62
   257
176
     1
 90
        1
176
     1
 90
        1
176
     1
 40
1.0
176
     1
 90
        8
176
     1
 62
     7
176
     1
 40
1.0
176
     1
 90
        1
176
     1
 90
        6
176
     1
 90
        2
176
     1
 62
     7
176
     1
 90
        5
176
     1
 90
        0
176
     1
 90
        0
176
     1
290
     0
176
     1
 90
        1
176
     1
 40
0.0
176
     1
 90
        0
176
     1
290
     0
176
     1
290
     1
176
     1
290
     1
176
     1
290
     0
176
     1
290
     0
176
     1
290
     0
176
     1
290
     0
176
     1
290
     0
176
     1
290
     0
176
     1
 90
       50
176
     1
 40
0.0
176
     1
 40
1.0
176
     1
 90
        0
176
     1
 62
    18
176
     1
 90
       50
176
     1
 90
        3
176
     1
 62
     5
420
      255
176
     1
290
     0
176
     1
 90
       50
176
     1
 90
       50
176
     1
 90
       50
176
     1
290
     0
176
     1
 90
       50
176
     1
 62
   256
176
     0
 40
1.0
176
     0
 90
        2
176
     1
  1
strokes_ogs.tif
176
     1
290
     0
176
     1
 40
1.0
176
     1
 40
1.0
176
     1
  0
VISUALSTYLE
  5
2A
102
{ACAD_REACTORS
330
29
102
}
330
29
100
AcDbVisualStyle
  2

 70
     0
177
     3
291
     1
 70
    58
 90
        2
176
     1
 90
        1
176
     1
 90
        1
176
     1
 90
        2
176
     1
 40
0.6
176
     1
 40
30.0
176
     1
 62
     7
420
 16777215
176
     1
 90
        0
176
     1
 90
        0
176
     1
 62
     7
176
     1
 62
   257
176
     1
 90
        1
176
     1
 90
        1
176
     1
 40
1.0
176
     1
 90
        8
176
     1
 62
     7
176
     1
 40
1.0
176
     1
 90
        1
176
     1
 90
        6
176
     1
 90
        2
176
     1
 62
     7
176
     1
 90
        5
176
     1
 90
        0
176
     1
 90
        0
176
     1
290
     0
176
     1
 90
       13
176
     1
 40
0.0
176
     1
 90
        0
176
     1
290
     0
176
     1
290
     1
176
     1
290
     1
176
     1
290
     0
176
     1
290
     0
176
     1
290
     0
176
     1
290
     0
176
     1
290
     0
176
     1
290
     0
176
     1
 90
       50
176
     1
 40
0.0
176
     1
 40
1.0
176
     1
 90
        0
176
     1
 62
    18
176
     1
 90
       50
176
     1
 90
        3
176
     1
 62
     5
420
      255
176
     1
290
     0
176
     1
 90
       50
176
     1
 90
       50
176
     1
 90
       50
176
     1
290
     0
176
     1
 90
       50
176
     1
 62
   256
176
     0
 40
1.0
176
     0
 90
        2
176
     1
  1
strokes_ogs.tif
176
     1
290
     0
176
     1
 40
1.0
176
     1
 40
1.0
176
     1
  0
VISUALSTYLE
  5
2B
102
{ACAD_REACTORS
330
29
102
}
330
29
100
AcDbVisualStyle
  2

 70
     1
177
     3
291
     1
 70
    58
 90
        2
176
     1
 90
        1
176
     1
 90
        1
176
     1
 90
        2
176
     1
 40
0.6
176
     1
 40
30.0
176
     1
 62
     7
420
 16777215
176
     1
 90
        1
176
     1
 90
        0
176
     1
 62
     7
176
     1
 62
   257
176
     1
 90
        1
176
     1
 90
        1
176
     1
 40
1.0
176
     1
 90
        0
176
     1
 62
   257
176
     1
 40
1.0
176
     1
 90
        1
176
     1
 90
        6
176
     1
 90
        2
176
     1
 62
     7
176
     1
 90
        5
176
     1
 90
        0
176
     1
 90
        0
176
     1
290
     0
176
     1
 90
       13
176
     1
 40
0.0
176
     1
 90
        0
176
     1
290
     0
176
     1
290
     1
176
     1
290
     1
176
     1
290
     0
176
     1
290
     0
176
     1
290
     0
176
     1
290
     0
176
     1
290
     0
176
     1
290
     0
176
     1
 90
       50
176
     1
 40
0.0
176
     1
 40
1.0
176
     1
 90
        0
176
     1
 62
    18
176
     1
 90
       50
176
     1
 90
        3
176
     1
 62
     5
420
      255
176
     1
290
     0
176
     1
 90
       50
176
     1
 90
       50
176
     1
 90
       50
176
     1
290
     0
176
     1
 90
       50
176
     1
 62
   256
176
     0
 40
1.0
176
     0
 90
        2
176
     1
  1
strokes_ogs.tif
176
     1
290
     0
176
     1
 40
1.0
176
     1
 40
1.0
176
     1
  0
VISUALSTYLE
  5
2C
102
{ACAD_REACTORS
330
29
102
}
330
29
100
AcDbVisualStyle
  2

 70
     2
177
     3
291
     1
 70
    58
 90
        2
176
     1
 90
        2
176
     1
 90
        1
176
     1
 90
        2
176
     1
 40
0.6
176
     1
 40
30.0
176
     1
 62
     7
420
 16777215
176
     1
 90
        0
176
     1
 90
        0
176
     1
 62
     7
176
     1
 62
   257
176
     1
 90
        1
176
     1
 90
        1
176
     1
 40
1.0
176
     1
 90
        0
176
     1
 62
     7
176
     1
 40
1.0
176
     1
 90
        1
176
     1
 90
        6
176
     1
 90
        2
176
     1
 62
     7
176
     1
 90
        5
176
     1
 90
        0
176
     1
 90
        0
176
     1
290
     0
176
     1
 90
       13
176
     1
 40
0.0
176
     1
 90
        0
176
     1
290
     0
176
     1
290
     1
176
     1
290
     1
176
     1
290
     0
176
     1
290
     0
176
     1
290
     0
176
     1
290
     0
176
     1
290
     0
176
     1
290
     0
176
     1
 90
       50
176
     1
 40
0.0
176
     1
 40
1.0
176
     1
 90
        0
176
     1
 62
    18
176
     1
 90
       50
176
     1
 90
        3
176
     1
 62
     5
420
      255
176
     1
290
     0
176
     1
 90
       50
176
     1
 90
       50
176
     1
 90
       50
176
     1
290
     0
176
     1
 90
       50
176
     1
 62
   256
176
     0
 40
1.0
176
     0
 90
        2
176
     1
  1
strokes_ogs.tif
176
     1
290
     0
176
     1
 40
1.0
176
     1
 40
1.0
176
     1
  0
VISUALSTYLE
  5
2D
102
{ACAD_REACTORS
330
29
102
}
330
29
100
AcDbVisualStyle
  2

 70
     3
177
     3
291
     1
 70
    58
 90
        2
176
     1
 90
        2
176
     1
 90
        1
176
     1
 90
        2
176
     1
 40
0.6
176
     1
 40
30.0
176
     1
 62
     7
420
 16777215
176
     1
 90
        1
176
     1
 90
        0
176
     1
 62
     7
176
     1
 62
   257
176
     1
 90
        1
176
     1
 90
        1
176
     1
 40
1.0
176
     1
 90
        0
176
     1
 62
   257
176
     1
 40
1.0
176
     1
 90
        1
176
     1
 90
        6
176
     1
 90
        2
176
     1
 62
     7
176
     1
 90
        5
176
     1
 90
        0
176
     1
 90
        0
176
     1
290
     0
176
     1
 90
       13
176
     1
 40
0.0
176
     1
 90
        0
176
     1
290
     0
176
     1
290
     1
176
     1
290
     1
176
     1
290
     0
176
     1
290
     0
176
     1
290
     0
176
     1
290
     0
176
     1
290
     0
176
     1
290
     0
176
     1
 90
       50
176
     1
 40
0.0
176
     1
 40
1.0
176
     1
 90
        0
176
     1
 62
    18
176
     1
 90
       50
176
     1
 90
        3
176
     1
 62
     5
420
      255
176
     1
290
     0
176
     1
 90
       50
176
     1
 90
       50
176
     1
 90
       50
176
     1
290
     0
176
     1
 90
       50
176
     1
 62
   256
176
     0
 40
1.0
176
     0
 90
        2
176
     1
  1
strokes_ogs.tif
176
     1
290
     0
176
     1
 40
1.0
176
     1
 40
1.0
176
     1
  0
VISUALSTYLE
  5
31
102
{ACAD_REACTORS
330
29
102
}
330
29
100
AcDbVisualStyle
  2

 70
     6
177
     3
291
     0
 70
    58
 90
        1
176
     1
 90
        2
176
     1
 90
        2
176
     1
 90
        0
176
     1
 40
0.6
176
     1
 40
30.0
176
     1
 62
     7
420
 16777215
176
     1
 90
        2
176
     1
 90
        2
176
     1
 62
     7
176
     1
 62
   257
176
     1
 90
        2
176
     1
 90
        1
176
     1
 40
40.0
176
     1
 90
        0
176
     1
 62
   257
176
     1
 40
1.0
176
     1
 90
        1
176
     1
 90
        6
176
     1
 90
        2
176
     1
 62
     7
176
     1
 90
        3
176
     1
 90
        0
176
     1
 90
        0
176
     1
290
     0
176
     1
 90
        1
176
     1
 40
0.0
176
     1
 90
        0
176
     1
290
     0
176
     1
290
     1
176
     1
290
     1
176
     1
290
     0
176
     1
290
     0
176
     1
290
     0
176
     1
290
     0
176
     1
290
     0
176
     1
290
     0
176
     1
 90
       50
176
     1
 40
0.0
176
     1
 40
1.0
176
     1
 90
        0
176
     1
 62
    18
176
     1
 90
       50
176
     1
 90
        3
176
     1
 62
     5
420
      255
176
     1
290
     0
176
     1
 90
       50
176
     1
 90
       50
176
     1
 90
       50
176
     1
290
     0
176
     1
 90
       50
176
     1
 62
   256
176
     0
 40
1.0
176
     0
 90
        2
176
     1
  1
strokes_ogs.tif
176
     1
290
     0
176
     1
 40
1.0
176
     1
 40
1.0
176
     1
  0
VISUALSTYLE
  5
3F
102
{ACAD_REACTORS
330
29
102
}
330
29
100
AcDbVisualStyle
  2

 70
    20
177
     3
291
     1
 70
    58
 90
        2
176
     0
 90
        2
176
     0
 90
        0
176
     0
 90
        0
176
     0
 40
0.6
176
     0
 40
30.0
176
     0
 62
     7
420
 16777215
176
     0
 90
        1
176
     0
 90
        4
176
     0
 62
     7
176
     0
 62
   257
176
     0
 90
        1
176
     0
 90
        1
176
     0
 40
1.0
176
     0
 90
       10
176
     2
 62
     7
176
     0
 40
1.0
176
     0
 90
        1
176
     0
 90
        6
176
     0
 90
        2
176
     0
 62
     7
176
     0
 90
        5
176
     0
 90
        0
176
     0
 90
        0
176
     0
290
     0
176
     0
 90
        1
176
     0
 40
0.0
176
     0
 90
        0
176
     0
290
     0
176
     0
290
     1
176
     0
290
     1
176
     0
290
     0
176
     0
290
     0
176
     0
290
     0
176
     0
290
     0
176
     0
290
     0
176
     0
290
     0
176
     0
 90
       50
176
     0
 40
0.0
176
     0
 40
1.0
176
     0
 90
        0
176
     0
 62
    18
176
     0
 90
       50
176
     0
 90
        3
176
     0
 62
     5
420
      255
176
     0
290
     0
176
     0
 90
       50
176
     0
 90
       50
176
     0
 90
       50
176
     0
290
     0
176
     0
 90
       50
176
     0
 62
   256
176
     0
 40
1.0
176
     0
 90
        2
176
     0
  1
strokes_ogs.tif
176
     0
290
     0
176
     0
 40
1.0
176
     0
 40
1.0
176
     0
  0
VISUALSTYLE
  5
37
102
{ACAD_REACTORS
330
29
102
}
330
29
100
AcDbVisualStyle
  2

 70
    14
177
     3
291
     1
 70
    58
 90
        2
176
     1
 90
        2
176
     1
 90
        0
176
     1
 90
        0
176
     1
 40
0.6
176
     1
 40
30.0
176
     1
 62
     7
420
 16777215
176
     1
 90
        1
176
     1
 90
        4
176
     1
 62
     7
176
     1
 62
   257
176
     1
 90
        7
176
     1
 90
        7
176
     1
 40
1.0
176
     1
 90
        8
176
     1
 62
     7
176
     1
 40
1.0
176
     1
 90
        1
176
     1
 90
        6
176
     1
 90
        2
176
     1
 62
     7
176
     1
 90
        5
176
     1
 90
        0
176
     1
 90
        0
176
     1
290
     0
176
     1
 90
        1
176
     1
 40
0.0
176
     1
 90
        0
176
     1
290
     0
176
     1
290
     1
176
     1
290
     1
176
     1
290
     0
176
     1
290
     0
176
     1
290
     0
176
     1
290
     0
176
     1
290
     0
176
     1
290
     0
176
     1
 90
       50
176
     1
 40
0.0
176
     1
 40
1.0
176
     1
 90
        0
176
     1
 62
    18
176
     1
 90
       50
176
     1
 90
        3
176
     1
 62
     5
420
      255
176
     1
290
     0
176
     1
 90
       50
176
     1
 90
       50
176
     1
 90
       50
176
     1
290
     0
176
     1
 90
       50
176
     1
 62
   256
176
     0
 40
1.0
176
     0
 90
        2
176
     1
  1
strokes_ogs.tif
176
     1
290
     0
176
     1
 40
1.0
176
     1
 40
1.0
176
     1
  0
VISUALSTYLE
  5
40
102
{ACAD_REACTORS
330
29
102
}
330
29
100
AcDbVisualStyle
  2

 70
    21
177
     3
291
     1
 70
    58
 90
        2
176
     0
 90
        2
176
     0
 90
        0
176
     0
 90
        0
176
     0
 40
0.6
176
     0
 40
30.0
176
     0
 62
     7
420
 16777215
176
     0
 90
        1
176
     0
 90
        4
176
     0
 62
     7
176
     0
 62
   257
176
     0
 90
        1
176
     0
 90
        1
176
     0
 40
1.0
176
     0
 90
        9
176
     2
 62
     7
176
     0
 40
1.0
176
     0
 90
        1
176
     0
 90
        6
176
     0
 90
        2
176
     0
 62
     7
176
     0
 90
        5
176
     0
 90
        0
176
     0
 90
        0
176
     0
290
     0
176
     0
 90
        1
176
     0
 40
0.0
176
     0
 90
        0
176
     0
290
     0
176
     0
290
     1
176
     0
290
     1
176
     0
290
     0
176
     0
290
     0
176
     0
290
     0
176
     0
290
     0
176
     0
290
     0
176
     0
290
     0
176
     0
 90
       50
176
     0
 40
0.0
176
     0
 40
1.0
176
     0
 90
        0
176
     0
 62
    18
176
     0
 90
       50
176
     0
 90
        3
176
     0
 62
     5
420
      255
176
     0
290
     0
176
     0
 90
       50
176
     0
 90
       50
176
     0
 90
       50
176
     0
290
     0
176
     0
 90
       50
176
     0
 62
   256
176
     0
 40
1.0
176
     0
 90
        2
176
     0
  1
strokes_ogs.tif
176
     0
290
     0
176
     0
 40
1.0
176
     0
 40
1.0
176
     0
  0
VISUALSTYLE
  5
33
102
{ACAD_REACTORS
330
29
102
}
330
29
100
AcDbVisualStyle
  2

 70
     8
177
     3
291
     0
 70
    58
 90
        2
176
     1
 90
        3
176
     1
 90
        0
176
     1
 90
        2
176
     1
 40
0.6
176
     1
 40
30.0
176
     1
 62
     7
420
 16777215
176
     1
 90
        0
176
     1
 90
        0
176
     1
 62
     7
176
     1
 62
   257
176
     1
 90
        1
176
     1
 90
        1
176
     1
 40
1.0
176
     1
 90
        8
176
     1
 62
   257
176
     1
 40
1.0
176
     1
 90
        1
176
     1
 90
        6
176
     1
 90
        2
176
     1
 62
     7
176
     1
 90
        3
176
     1
 90
        0
176
     1
 90
        0
176
     1
290
     0
176
     1
 90
       13
176
     1
 40
0.0
176
     1
 90
        0
176
     1
290
     0
176
     1
290
     1
176
     1
290
     1
176
     1
290
     0
176
     1
290
     0
176
     1
290
     0
176
     1
290
     0
176
     1
290
     0
176
     1
290
     0
176
     1
 90
       50
176
     1
 40
0.0
176
     1
 40
1.0
176
     1
 90
        0
176
     1
 62
    18
176
     1
 90
       50
176
     1
 90
        3
176
     1
 62
     5
420
      255
176
     1
290
     0
176
     1
 90
       50
176
     1
 90
       50
176
     1
 90
       50
176
     1
290
     0
176
     1
 90
       50
176
     1
 62
   256
176
     0
 40
1.0
176
     0
 90
        2
176
     1
  1
strokes_ogs.tif
176
     1
290
     0
176
     1
 40
1.0
176
     1
 40
1.0
176
     1
  0
VISUALSTYLE
  5
3E
102
{ACAD_REACTORS
330
29
102
}
330
29
100
AcDbVisualStyle
  2

 70
    27
177
     3
291
     0
 70
    58
 90
        2
176
     1
 90
        2
176
     1
 90
        1
176
     1
 90
        2
176
     1
 40
0.6
176
     1
 40
30.0
176
     1
 62
     7
420
 16777215
176
     1
 90
        0
176
     1
 90
        4
176
     1
 62
     7
176
     1
 62
   257
176
     1
 90
        1
176
     1
 90
        1
176
     1
 40
1.0
176
     1
 90
        8
176
     1
 62
   257
176
     1
 40
1.0
176
     1
 90
        1
176
     1
 90
        6
176
     1
 90
        2
176
     1
 62
     8
420
  7895160
176
     1
 90
        3
176
     1
 90
        0
176
     1
 90
        0
176
     1
290
     0
176
     1
 90
        5
176
     1
 40
0.0
176
     1
 90
        0
176
     1
290
     0
176
     1
290
     1
176
     1
290
     1
176
     1
290
     0
176
     1
290
     0
176
     1
290
     0
176
     1
290
     0
176
     1
290
     0
176
     1
290
     0
176
     1
 90
       50
176
     1
 40
0.0
176
     1
 40
1.0
176
     1
 90
        0
176
     1
 62
    18
176
     1
 90
       50
176
     1
 90
        3
176
     1
 62
     5
420
      255
176
     1
290
     0
176
     1
 90
       50
176
     1
 90
       50
176
     1
 90
       50
176
     1
290
     0
176
     1
 90
       50
176
     1
 62
   256
176
     0
 40
1.0
176
     0
 90
        2
176
     1
  1
strokes_ogs.tif
176
     1
290
     0
176
     1
 40
1.0
176
     1
 40
1.0
176
     1
  0
VISUALSTYLE
  5
3D
102
{ACAD_REACTORS
330
29
102
}
330
29
100
AcDbVisualStyle
  2

 70
    26
177
     3
291
     0
 70
    58
 90
        2
176
     1
 90
        2
176
     1
 90
        1
176
     1
 90
        2
176
     1
 40
0.6
176
     1
 40
30.0
176
     1
 62
     7
420
 16777215
176
     1
 90
        1
176
     1
 90
        2
176
     1
 62
     7
176
     1
 62
   257
176
     1
 90
        2
176
     1
 90
        1
176
     1
 40
1.0
176
     1
 90
        8
176
     1
 62
   257
176
     1
 40
1.0
176
     1
 90
        1
176
     1
 90
        6
176
     1
 90
        2
176
     1
 62
     7
176
     1
 90
        3
176
     1
 90
        0
176
     1
 90
        0
176
     1
290
     0
176
     1
 90
        5
176
     1
 40
0.0
176
     1
 90
        0
176
     1
290
     0
176
     1
290
     1
176
     1
290
     1
176
     1
290
     0
176
     1
290
     0
176
     1
290
     0
176
     1
290
     0
176
     1
290
     0
176
     1
290
     0
176
     1
 90
       50
176
     1
 40
0.0
176
     1
 40
1.0
176
     1
 90
        0
176
     1
 62
    18
176
     1
 90
       50
176
     1
 90
        3
176
     1
 62
     5
420
      255
176
     1
290
     0
176
     1
 90
       50
176
     1
 90
       50
176
     1
 90
       50
176
     1
290
     0
176
     1
 90
       50
176
     1
 62
   256
176
     0
 40
1.0
176
     0
 90
        2
176
     1
  1
strokes_ogs.tif
176
     1
290
     0
176
     1
 40
1.0
176
     1
 40
1.0
176
     1
  0
VISUALSTYLE
  5
3A
102
{ACAD_REACTORS
330
29
102
}
330
29
100
AcDbVisualStyle
  2

 70
    23
177
     3
291
     0
 70
    58
 90
        2
176
     1
 90
        2
176
     1
 90
        3
176
     1
 90
        0
176
     1
 40
0.6
176
     1
 40
30.0
176
     1
 62
     7
420
 16777215
176
     1
 90
        2
176
     1
 90
        2
176
     1
 62
     7
176
     1
 62
     7
176
     1
 90
        1
176
     1
 90
        1
176
     1
 40
40.0
176
     1
 90
        8
176
     1
 62
     7
176
     1
 40
1.0
176
     1
 90
        1
176
     1
 90
        6
176
     1
 90
        2
176
     1
 62
     7
176
     1
 90
        3
176
     1
 90
        0
176
     1
 90
        0
176
     1
290
     0
176
     1
 90
        1
176
     1
 40
0.0
176
     1
 90
        0
176
     1
290
     0
176
     1
290
     1
176
     1
290
     1
176
     1
290
     0
176
     1
290
     0
176
     1
290
     0
176
     1
290
     0
176
     1
290
     0
176
     1
290
     0
176
     1
 90
       50
176
     1
 40
0.0
176
     1
 40
1.0
176
     1
 90
        0
176
     1
 62
    18
176
     1
 90
       50
176
     1
 90
        3
176
     1
 62
     5
420
      255
176
     1
290
     0
176
     1
 90
       50
176
     1
 90
       50
176
     1
 90
       50
176
     1
290
     0
176
     1
 90
       50
176
     1
 62
   256
176
     0
 40
1.0
176
     0
 90
        2
176
     1
  1
strokes_ogs.tif
176
     1
290
     0
176
     1
 40
1.0
176
     1
 40
1.0
176
     1
  0
VISUALSTYLE
  5
3B
102
{ACAD_REACTORS
330
29
102
}
330
29
100
AcDbVisualStyle
  2

 70
    24
177
     3
291
     0
 70
    58
 90
        1
176
     1
 90
        2
176
     1
 90
        2
176
     1
 90
        0
176
     1
 40
0.6
176
     1
 40
30.0
176
     1
 62
     7
420
 16777215
176
     1
 90
        2
176
     1
 90
        2
176
     1
 62
     7
176
     1
 62
     7
176
     1
 90
        1
176
     1
 90
        1
176
     1
 40
40.0
176
     1
 90
       11
176
     1
 62
     7
176
     1
 40
1.0
176
     1
 90
        1
176
     1
 90
        6
176
     1
 90
        2
176
     1
 62
     7
176
     1
 90
        6
176
     1
 90
        0
176
     1
 90
        0
176
     1
290
     0
176
     1
 90
        1
176
     1
 40
0.0
176
     1
 90
        0
176
     1
290
     0
176
     1
290
     1
176
     1
290
     1
176
     1
290
     0
176
     1
290
     0
176
     1
290
     0
176
     1
290
     0
176
     1
290
     0
176
     1
290
     0
176
     1
 90
       50
176
     1
 40
0.0
176
     1
 40
1.0
176
     1
 90
        0
176
     1
 62
    18
176
     1
 90
       50
176
     1
 90
        3
176
     1
 62
     5
420
      255
176
     1
290
     0
176
     1
 90
       50
176
     1
 90
       50
176
     1
 90
       50
176
     1
290
     0
176
     1
 90
       50
176
     1
 62
   256
176
     0
 40
1.0
176
     0
 90
        2
176
     1
  1
strokes_ogs.tif
176
     1
290
     0
176
     1
 40
1.0
176
     1
 40
1.0
176
     1
  0
VISUALSTYLE
  5
36
102
{ACAD_REACTORS
330
29
102
}
330
29
100
AcDbVisualStyle
  2

 70
    13
177
     3
291
     1
 70
    58
 90
        2
176
     1
 90
        2
176
     1
 90
        0
176
     1
 90
        0
176
     1
 40
0.6
176
     1
 40
30.0
176
     1
 62
     7
420
 16777215
176
     1
 90
        1
176
     1
 90
        4
176
     1
 62
     7
176
     1
 62
   257
176
     1
 90
        1
176
     1
 90
        1
176
     1
 40
1.0
176
     1
 90
       12
176
     1
 62
     7
176
     1
 40
1.0
176
     1
 90
        1
176
     1
 90
        6
176
     1
 90
        2
176
     1
 62
     7
176
     1
 90
        5
176
     1
 90
        0
176
     1
 90
        0
176
     1
290
     0
176
     1
 90
        1
176
     1
 40
0.0
176
     1
 90
        0
176
     1
290
     0
176
     1
290
     1
176
     1
290
     1
176
     1
290
     0
176
     1
290
     0
176
     1
290
     0
176
     1
290
     0
176
     1
290
     0
176
     1
290
     0
176
     1
 90
       50
176
     1
 40
0.0
176
     1
 40
1.0
176
     1
 90
        0
176
     1
 62
    18
176
     1
 90
       50
176
     1
 90
        3
176
     1
 62
     5
420
      255
176
     1
290
     0
176
     1
 90
       50
176
     1
 90
       50
176
     1
 90
       50
176
     1
290
     0
176
     1
 90
       50
176
     1
 62
   256
176
     0
 40
1.0
176
     0
 90
        2
176
     1
  1
strokes_ogs.tif
176
     1
290
     0
176
     1
 40
1.0
176
     1
 40
1.0
176
     1
  0
VISUALSTYLE
  5
30
102
{ACAD_REACTORS
330
29
102
}
330
29
100
AcDbVisualStyle
  2

 70
     5
177
     3
291
     0
 70
    58
 90
        0
176
     1
 90
        2
176
     1
 90
        0
176
     1
 90
        0
176
     1
 40
0.6
176
     1
 40
30.0
176
     1
 62
     7
420
 16777215
176
     1
 90
        1
176
     1
 90
        4
176
     1
 62
     7
176
     1
 62
   257
176
     1
 90
        1
176
     1
 90
        1
176
     1
 40
1.0
176
     1
 90
        0
176
     1
 62
   257
176
     1
 40
1.0
176
     1
 90
        1
176
     1
 90
        6
176
     1
 90
        2
176
     1
 62
     7
176
     1
 90
        3
176
     1
 90
        0
176
     1
 90
        0
176
     1
290
     0
176
     1
 90
        1
176
     1
 40
0.0
176
     1
 90
        0
176
     1
290
     0
176
     1
290
     1
176
     1
290
     1
176
     1
290
     0
176
     1
290
     0
176
     1
290
     0
176
     1
290
     0
176
     1
290
     0
176
     1
290
     0
176
     1
 90
       50
176
     1
 40
0.0
176
     1
 40
1.0
176
     1
 90
        0
176
     1
 62
    18
176
     1
 90
       50
176
     1
 90
        3
176
     1
 62
     5
420
      255
176
     1
290
     0
176
     1
 90
       50
176
     1
 90
       50
176
     1
 90
       50
176
     1
290
     0
176
     1
 90
       50
176
     1
 62
   256
176
     0
 40
1.0
176
     0
 90
        2
176
     1
  1
strokes_ogs.tif
176
     1
290
     0
176
     1
 40
1.0
176
     1
 40
1.0
176
     1
  0
VISUALSTYLE
  5
3C
102
{ACAD_REACTORS
330
29
102
}
330
29
100
AcDbVisualStyle
  2

 70
    25
177
     3
291
     0
 70
    58
 90
        2
176
     1
 90
        2
176
     1
 90
        1
176
     1
 90
        1
176
     1
 40
0.5
176
     1
 40
30.0
176
     1
 62
     7
420
 16777215
176
     1
 90
        1
176
     1
 90
        0
176
     1
 62
     7
176
     1
 62
   257
176
     1
 90
        1
176
     1
 90
        1
176
     1
 40
1.0
176
     1
 90
        8
176
     1
 62
     7
176
     1
 40
1.0
176
     1
 90
        1
176
     1
 90
        6
176
     1
 90
        2
176
     1
 62
     7
176
     1
 90
        3
176
     1
 90
        0
176
     1
 90
        0
176
     1
290
     0
176
     1
 90
       13
176
     1
 40
0.0
176
     1
 90
        0
176
     1
290
     0
176
     1
290
     1
176
     1
290
     1
176
     1
290
     0
176
     1
290
     0
176
     1
290
     0
176
     1
290
     0
176
     1
290
     0
176
     1
290
     0
176
     1
 90
       50
176
     1
 40
0.0
176
     1
 40
1.0
176
     1
 90
        0
176
     1
 62
    18
176
     1
 90
       50
176
     1
 90
        3
176
     1
 62
     5
420
      255
176
     1
290
     0
176
     1
 90
       50
176
     1
 90
       50
176
     1
 90
       50
176
     1
290
     0
176
     1
 90
       50
176
     1
 62
   256
176
     0
 40
1.0
176
     0
 90
        2
176
     1
  1
strokes_ogs.tif
176
     1
290
     0
176
     1
 40
1.0
176
     1
 40
1.0
176
     1
  0
DICTIONARYVAR
  5
258
102
{ACAD_REACTORS
330
FD
102
}
330
FD
100
DictionaryVariables
280
     0
  1
0
  0
DICTIONARYVAR
  5
102
102
{ACAD_REACTORS
330
FD
102
}
330
FD
100
DictionaryVariables
280
     0
  1
1:1
  0
DICTIONARYVAR
  5
FF
102
{ACAD_REACTORS
330
FD
102
}
330
FD
100
DictionaryVariables
280
     0
  1
Standard
  0
DICTIONARYVAR
  5
FE
102
{ACAD_REACTORS
330
FD
102
}
330
FD
100
DictionaryVariables
280
     0
  1
Standard
  0
DICTIONARYVAR
  5
100
102
{ACAD_REACTORS
330
FD
102
}
330
FD
100
DictionaryVariables
280
     0
  1
Imperial24
  0
DICTIONARYVAR
  5
101
102
{ACAD_REACTORS
330
FD
102
}
330
FD
100
DictionaryVariables
280
     0
  1
Imperial24
  0
DICTIONARY
  5
25D
330
65
100
AcDbDictionary
280
     1
281
     1
  3
ACAD_ROUNDTRIP_2008_TABLESTYLE_CELLSTYLEMAP
360
25E
  0
CELLSTYLEMAP
  5
25E
102
{ACAD_REACTORS
330
25D
102
}
330
25D
100
AcDbCellStyleMap
 90
        3
300
CELLSTYLE
  1
TABLEFORMAT_BEGIN
 90
        5
170
     1
 91
        0
 92
    32768
 62
   257
 93
        1
300
CONTENTFORMAT
  1
CONTENTFORMAT_BEGIN
 90
        0
 91
        0
 92
      512
 93
        0
300

 40
0.0
140
1.0
 94
        5
 62
     0
340
55
144
0.25
309
CONTENTFORMAT_END
171
     1
301
MARGIN
  1
CELLMARGIN_BEGIN
 40
0.06
 40
0.06
 40
0.06
 40
0.06
 40
0.18
 40
0.18
309
CELLMARGIN_END
 94
        6
 95
        1
302
GRIDFORMAT
  1
GRIDFORMAT_BEGIN
 90
        0
 91
        1
 62
     0
 92
       -2
340
0
 93
        0
 40
0.045
309
GRIDFORMAT_END
 95
        2
302
GRIDFORMAT
  1
GRIDFORMAT_BEGIN
 90
        0
 91
        1
 62
     0
 92
       -2
340
0
 93
        0
 40
0.045
309
GRIDFORMAT_END
 95
        4
302
GRIDFORMAT
  1
GRIDFORMAT_BEGIN
 90
        0
 91
        1
 62
     0
 92
       -2
340
0
 93
        0
 40
0.045
309
GRIDFORMAT_END
 95
        8
302
GRIDFORMAT
  1
GRIDFORMAT_BEGIN
 90
        0
 91
        1
 62
     0
 92
       -2
340
0
 93
        0
 40
0.045
309
GRIDFORMAT_END
 95
       16
302
GRIDFORMAT
  1
GRIDFORMAT_BEGIN
 90
        0
 91
        1
 62
     0
 92
       -2
340
0
 93
        0
 40
0.045
309
GRIDFORMAT_END
 95
       32
302
GRIDFORMAT
  1
GRIDFORMAT_BEGIN
 90
        0
 91
        1
 62
     0
 92
       -2
340
0
 93
        0
 40
0.045
309
GRIDFORMAT_END
309
TABLEFORMAT_END
  1
CELLSTYLE_BEGIN
 90
        1
 91
        1
300
_TITLE
309
CELLSTYLE_END
300
CELLSTYLE
  1
TABLEFORMAT_BEGIN
 90
        5
170
     1
 91
        0
 92
        0
 62
   257
 93
        1
300
CONTENTFORMAT
  1
CONTENTFORMAT_BEGIN
 90
        0
 91
        0
 92
      512
 93
        0
300

 40
0.0
140
1.0
 94
        5
 62
     0
340
55
144
0.18
309
CONTENTFORMAT_END
171
     1
301
MARGIN
  1
CELLMARGIN_BEGIN
 40
0.06
 40
0.06
 40
0.06
 40
0.06
 40
0.18
 40
0.18
309
CELLMARGIN_END
 94
        6
 95
        1
302
GRIDFORMAT
  1
GRIDFORMAT_BEGIN
 90
        0
 91
        1
 62
     0
 92
       -2
340
0
 93
        0
 40
0.045
309
GRIDFORMAT_END
 95
        2
302
GRIDFORMAT
  1
GRIDFORMAT_BEGIN
 90
        0
 91
        1
 62
     0
 92
       -2
340
0
 93
        0
 40
0.045
309
GRIDFORMAT_END
 95
        4
302
GRIDFORMAT
  1
GRIDFORMAT_BEGIN
 90
        0
 91
        1
 62
     0
 92
       -2
340
0
 93
        0
 40
0.045
309
GRIDFORMAT_END
 95
        8
302
GRIDFORMAT
  1
GRIDFORMAT_BEGIN
 90
        0
 91
        1
 62
     0
 92
       -2
340
0
 93
        0
 40
0.045
309
GRIDFORMAT_END
 95
       16
302
GRIDFORMAT
  1
GRIDFORMAT_BEGIN
 90
        0
 91
        1
 62
     0
 92
       -2
340
0
 93
        0
 40
0.045
309
GRIDFORMAT_END
 95
       32
302
GRIDFORMAT
  1
GRIDFORMAT_BEGIN
 90
        0
 91
        1
 62
     0
 92
       -2
340
0
 93
        0
 40
0.045
309
GRIDFORMAT_END
309
TABLEFORMAT_END
  1
CELLSTYLE_BEGIN
 90
        2
 91
        1
300
_HEADER
309
CELLSTYLE_END
300
CELLSTYLE
  1
TABLEFORMAT_BEGIN
 90
        5
170
     1
 91
        0
 92
        0
 62
   257
 93
        1
300
CONTENTFORMAT
  1
CONTENTFORMAT_BEGIN
 90
        0
 91
        0
 92
      512
 93
        0
300

 40
0.0
140
1.0
 94
        2
 62
     0
340
55
144
0.18
309
CONTENTFORMAT_END
171
     1
301
MARGIN
  1
CELLMARGIN_BEGIN
 40
0.06
 40
0.06
 40
0.06
 40
0.06
 40
0.18
 40
0.18
309
CELLMARGIN_END
 94
        6
 95
        1
302
GRIDFORMAT
  1
GRIDFORMAT_BEGIN
 90
        0
 91
        1
 62
     0
 92
       -2
340
0
 93
        0
 40
0.045
309
GRIDFORMAT_END
 95
        2
302
GRIDFORMAT
  1
GRIDFORMAT_BEGIN
 90
        0
 91
        1
 62
     0
 92
       -2
340
0
 93
        0
 40
0.045
309
GRIDFORMAT_END
 95
        4
302
GRIDFORMAT
  1
GRIDFORMAT_BEGIN
 90
        0
 91
        1
 62
     0
 92
       -2
340
0
 93
        0
 40
0.045
309
GRIDFORMAT_END
 95
        8
302
GRIDFORMAT
  1
GRIDFORMAT_BEGIN
 90
        0
 91
        1
 62
     0
 92
       -2
340
0
 93
        0
 40
0.045
309
GRIDFORMAT_END
 95
       16
302
GRIDFORMAT
  1
GRIDFORMAT_BEGIN
 90
        0
 91
        1
 62
     0
 92
       -2
340
0
 93
        0
 40
0.045
309
GRIDFORMAT_END
 95
       32
302
GRIDFORMAT
  1
GRIDFORMAT_BEGIN
 90
        0
 91
        1
 62
     0
 92
       -2
340
0
 93
        0
 40
0.045
309
GRIDFORMAT_END
309
TABLEFORMAT_END
  1
CELLSTYLE_BEGIN
 90
        3
 91
        2
300
_DATA
309
CELLSTYLE_END
  0
ENDSEC
  0
EOF
