  0
SECTION
  2
HEADER
  9
$ACADVER
  1
AC1021
  9
$ACADMAINTVER
 70
    50
  9
$DWGCODEPAGE
  3
ANSI_1252
  9
$LASTSAVEDBY
  1
ufficio.tecnico
  9
$INSBASE
 10
0.0
 20
0.0
 30
0.0
  9
$EXTMIN
 10
48.76670463190555
 20
101.8028026455015
 30
0.0
  9
$EXTMAX
 10
185.983824280761
 20
243.0222031727514
 30
0.0
  9
$LIMMIN
 10
0.0
 20
0.0
  9
$LIMMAX
 10
12.0
 20
9.0
  9
$ORTHOMODE
 70
     0
  9
$REGENMODE
 70
     1
  9
$FILLMODE
 70
     1
  9
$QTEXTMODE
 70
     0
  9
$MIRRTEXT
 70
     0
  9
$LTSCALE
 40
1.0
  9
$ATTMODE
 70
     1
  9
$TEXTSIZE
 40
0.2
  9
$TRACEWID
 40
0.05
  9
$TEXTSTYLE
  7
Standard
  9
$CLAYER
  8
0
  9
$CELTYPE
  6
ByLayer
  9
$CECOLOR
 62
   256
  9
$CELTSCALE
 40
1.0
  9
$DISPSILH
 70
     0
  9
$DIMSCALE
 40
1.0
  9
$DIMASZ
 40
0.18
  9
$DIMEXO
 40
0.0625
  9
$DIMDLI
 40
0.38
  9
$DIMRND
 40
0.0
  9
$DIMDLE
 40
0.0
  9
$DIMEXE
 40
0.18
  9
$DIMTP
 40
0.0
  9
$DIMTM
 40
0.0
  9
$DIMTXT
 40
0.18
  9
$DIMCEN
 40
0.09
  9
$DIMTSZ
 40
0.0
  9
$DIMTOL
 70
     0
  9
$DIMLIM
 70
     0
  9
$DIMTIH
 70
     1
  9
$DIMTOH
 70
     1
  9
$DIMSE1
 70
     0
  9
$DIMSE2
 70
     0
  9
$DIMTAD
 70
     0
  9
$DIMZIN
 70
     0
  9
$DIMBLK
  1

  9
$DIMASO
 70
     1
  9
$DIMSHO
 70
     1
  9
$DIMPOST
  1

  9
$DIMAPOST
  1

  9
$DIMALT
 70
     0
  9
$DIMALTD
 70
     2
  9
$DIMALTF
 40
25.4
  9
$DIMLFAC
 40
1.0
  9
$DIMTOFL
 70
     0
  9
$DIMTVP
 40
0.0
  9
$DIMTIX
 70
     0
  9
$DIMSOXD
 70
     0
  9
$DIMSAH
 70
     0
  9
$DIMBLK1
  1

  9
$DIMBLK2
  1

  9
$DIMSTYLE
  2
Standard
  9
$DIMCLRD
 70
     0
  9
$DIMCLRE
 70
     0
  9
$DIMCLRT
 70
     0
  9
$DIMTFAC
 40
1.0
  9
$DIMGAP
 40
0.09
  9
$DIMJUST
 70
     0
  9
$DIMSD1
 70
     0
  9
$DIMSD2
 70
     0
  9
$DIMTOLJ
 70
     1
  9
$DIMTZIN
 70
     0
  9
$DIMALTZ
 70
     0
  9
$DIMALTTZ
 70
     0
  9
$DIMUPT
 70
     0
  9
$DIMDEC
 70
     4
  9
$DIMTDEC
 70
     4
  9
$DIMALTU
 70
     2
  9
$DIMALTTD
 70
     2
  9
$DIMTXSTY
  7
Standard
  9
$DIMAUNIT
 70
     0
  9
$DIMADEC
 70
     0
  9
$DIMALTRND
 40
0.0
  9
$DIMAZIN
 70
     0
  9
$DIMDSEP
 70
    46
  9
$DIMATFIT
 70
     3
  9
$DIMFRAC
 70
     0
  9
$DIMLDRBLK
  1

  9
$DIMLUNIT
 70
     2
  9
$DIMLWD
 70
    -2
  9
$DIMLWE
 70
    -2
  9
$DIMTMOVE
 70
     0
  9
$DIMFXL
 40
1.0
  9
$DIMFXLON
 70
     0
  9
$DIMJOGANG
 40
0.7853981633974483
  9
$DIMTFILL
 70
     0
  9
$DIMTFILLCLR
 70
     0
  9
$DIMARCSYM
 70
     0
  9
$DIMLTYPE
  6

  9
$DIMLTEX1
  6

  9
$DIMLTEX2
  6

  9
$LUNITS
 70
     2
  9
$LUPREC
 70
     4
  9
$SKETCHINC
 40
0.1
  9
$FILLETRAD
 40
0.0
  9
$AUNITS
 70
     0
  9
$AUPREC
 70
     0
  9
$MENU
  1
.
  9
$ELEVATION
 40
0.0
  9
$PELEVATION
 40
0.0
  9
$THICKNESS
 40
0.0
  9
$LIMCHECK
 70
     0
  9
$CHAMFERA
 40
0.0
  9
$CHAMFERB
 40
0.0
  9
$CHAMFERC
 40
0.0
  9
$CHAMFERD
 40
0.0
  9
$SKPOLY
 70
     0
  9
$TDCREATE
 40
2459457.423067130
  9
$TDUCREATE
 40
2459457.339733796
  9
$TDUPDATE
 40
2459457.696064815
  9
$TDUUPDATE
 40
2459457.612731482
  9
$TDINDWG
 40
0.0013310185
  9
$TDUSRTIMER
 40
0.0013310185
  9
$USRTIMER
 70
     1
  9
$ANGBASE
 50
0.0
  9
$ANGDIR
 70
     0
  9
$PDMODE
 70
     0
  9
$PDSIZE
 40
0.0
  9
$PLINEWID
 40
0.0
  9
$SPLFRAME
 70
     0
  9
$SPLINETYPE
 70
     6
  9
$SPLINESEGS
 70
     8
  9
$HANDSEED
  5
181
  9
$SURFTAB1
 70
     6
  9
$SURFTAB2
 70
     6
  9
$SURFTYPE
 70
     6
  9
$SURFU
 70
     6
  9
$SURFV
 70
     6
  9
$UCSBASE
  2

  9
$UCSNAME
  2

  9
$UCSORG
 10
0.0
 20
0.0
 30
0.0
  9
$UCSXDIR
 10
1.0
 20
0.0
 30
0.0
  9
$UCSYDIR
 10
0.0
 20
1.0
 30
0.0
  9
$UCSORTHOREF
  2

  9
$UCSORTHOVIEW
 70
     0
  9
$UCSORGTOP
 10
0.0
 20
0.0
 30
0.0
  9
$UCSORGBOTTOM
 10
0.0
 20
0.0
 30
0.0
  9
$UCSORGLEFT
 10
0.0
 20
0.0
 30
0.0
  9
$UCSORGRIGHT
 10
0.0
 20
0.0
 30
0.0
  9
$UCSORGFRONT
 10
0.0
 20
0.0
 30
0.0
  9
$UCSORGBACK
 10
0.0
 20
0.0
 30
0.0
  9
$PUCSBASE
  2

  9
$PUCSNAME
  2

  9
$PUCSORG
 10
0.0
 20
0.0
 30
0.0
  9
$PUCSXDIR
 10
1.0
 20
0.0
 30
0.0
  9
$PUCSYDIR
 10
0.0
 20
1.0
 30
0.0
  9
$PUCSORTHOREF
  2

  9
$PUCSORTHOVIEW
 70
     0
  9
$PUCSORGTOP
 10
0.0
 20
0.0
 30
0.0
  9
$PUCSORGBOTTOM
 10
0.0
 20
0.0
 30
0.0
  9
$PUCSORGLEFT
 10
0.0
 20
0.0
 30
0.0
  9
$PUCSORGRIGHT
 10
0.0
 20
0.0
 30
0.0
  9
$PUCSORGFRONT
 10
0.0
 20
0.0
 30
0.0
  9
$PUCSORGBACK
 10
0.0
 20
0.0
 30
0.0
  9
$USERI1
 70
     0
  9
$USERI2
 70
     0
  9
$USERI3
 70
     0
  9
$USERI4
 70
     0
  9
$USERI5
 70
     0
  9
$USERR1
 40
0.0
  9
$USERR2
 40
0.0
  9
$USERR3
 40
0.0
  9
$USERR4
 40
0.0
  9
$USERR5
 40
0.0
  9
$WORLDVIEW
 70
     1
  9
$SHADEDGE
 70
     3
  9
$SHADEDIF
 70
    70
  9
$TILEMODE
 70
     1
  9
$MAXACTVP
 70
    64
  9
$PINSBASE
 10
0.0
 20
0.0
 30
0.0
  9
$PLIMCHECK
 70
     0
  9
$PEXTMIN
 10
1.000000000000000E+20
 20
1.000000000000000E+20
 30
1.000000000000000E+20
  9
$PEXTMAX
 10
-1.000000000000000E+20
 20
-1.000000000000000E+20
 30
-1.000000000000000E+20
  9
$PLIMMIN
 10
0.0
 20
0.0
  9
$PLIMMAX
 10
12.0
 20
9.0
  9
$UNITMODE
 70
     0
  9
$VISRETAIN
 70
     1
  9
$PLINEGEN
 70
     0
  9
$PSLTSCALE
 70
     1
  9
$TREEDEPTH
 70
  3020
  9
$CMLSTYLE
  2
Standard
  9
$CMLJUST
 70
     0
  9
$CMLSCALE
 40
1.0
  9
$PROXYGRAPHICS
 70
     1
  9
$MEASUREMENT
 70
     0
  9
$CELWEIGHT
370
    -1
  9
$ENDCAPS
280
     0
  9
$JOINSTYLE
280
     0
  9
$LWDISPLAY
290
     1
  9
$INSUNITS
 70
     4
  9
$HYPERLINKBASE
  1

  9
$STYLESHEET
  1

  9
$XEDIT
290
     1
  9
$CEPSNTYPE
380
     0
  9
$PSTYLEMODE
290
     1
  9
$FINGERPRINTGUID
  2
{F2555BE7-3E5C-2746-9BE8-818A60898EE2}
  9
$VERSIONGUID
  2
{B1E4EC75-CF42-4248-A528-67F1D53B51EC}
  9
$EXTNAMES
290
     1
  9
$PSVPSCALE
 40
0.0
  9
$OLESTARTUP
290
     0
  9
$SORTENTS
280
   127
  9
$INDEXCTL
280
     0
  9
$HIDETEXT
280
     1
  9
$XCLIPFRAME
290
     0
  9
$HALOGAP
280
     0
  9
$OBSCOLOR
 70
   257
  9
$OBSLTYPE
280
     0
  9
$INTERSECTIONDISPLAY
280
     0
  9
$INTERSECTIONCOLOR
 70
   257
  9
$DIMASSOC
280
     2
  9
$PROJECTNAME
  1

  9
$CAMERADISPLAY
290
     0
  9
$LENSLENGTH
 40
50.0
  9
$CAMERAHEIGHT
 40
0.0
  9
$STEPSPERSEC
 40
2.0
  9
$STEPSIZE
 40
6.0
  9
$3DDWFPREC
 40
2.0
  9
$PSOLWIDTH
 40
0.25
  9
$PSOLHEIGHT
 40
4.0
  9
$LOFTANG1
 40
1.570796326794896
  9
$LOFTANG2
 40
1.570796326794896
  9
$LOFTMAG1
 40
0.0
  9
$LOFTMAG2
 40
0.0
  9
$LOFTPARAM
 70
     7
  9
$LOFTNORMALS
280
     1
  9
$LATITUDE
 40
37.795
  9
$LONGITUDE
 40
-122.394
  9
$NORTHDIRECTION
 40
0.0
  9
$TIMEZONE
 70
 -8000
  9
$LIGHTGLYPHDISPLAY
280
     1
  9
$TILEMODELIGHTSYNCH
280
     1
  9
$CMATERIAL
347
11
  9
$SOLIDHIST
280
     0
  9
$SHOWHIST
280
     1
  9
$DWFFRAME
280
     2
  9
$DGNFRAME
280
     0
  9
$REALWORLDSCALE
290
     1
  9
$INTERFERECOLOR
 62
     1
  9
$INTERFEREOBJVS
345
33
  9
$INTERFEREVPVS
346
30
  9
$CSHADOW
280
     0
  9
$SHADOWPLANELOCATION
 40
0.0
  0
ENDSEC
  0
SECTION
  2
CLASSES
  0
CLASS
  1
ACDBDICTIONARYWDFLT
  2
AcDbDictionaryWithDefault
  3
ObjectDBX Classes
 90
        0
 91
        1
280
     0
281
     0
  0
CLASS
  1
MATERIAL
  2
AcDbMaterial
  3
ObjectDBX Classes
 90
     1153
 91
        3
280
     0
281
     0
  0
CLASS
  1
VISUALSTYLE
  2
AcDbVisualStyle
  3
ObjectDBX Classes
 90
     4095
 91
       24
280
     0
281
     0
  0
CLASS
  1
SCALE
  2
AcDbScale
  3
ObjectDBX Classes
 90
     1153
 91
       17
280
     0
281
     0
  0
CLASS
  1
TABLESTYLE
  2
AcDbTableStyle
  3
ObjectDBX Classes
 90
     4095
 91
        1
280
     0
281
     0
  0
CLASS
  1
MLEADERSTYLE
  2
AcDbMLeaderStyle
  3
ACDB_MLEADERSTYLE_CLASS
 90
     4095
 91
        1
280
     0
281
     0
  0
CLASS
  1
ACDBSECTIONVIEWSTYLE
  2
AcDbSectionViewStyle
  3
ObjectDBX Classes
 90
     1025
 91
        1
280
     0
281
     0
  0
CLASS
  1
ACDBDETAILVIEWSTYLE
  2
AcDbDetailViewStyle
  3
ObjectDBX Classes
 90
     1025
 91
        1
280
     0
281
     0
  0
CLASS
  1
DICTIONARYVAR
  2
AcDbDictionaryVar
  3
ObjectDBX Classes
 90
        0
 91
        6
280
     0
281
     0
  0
CLASS
  1
CELLSTYLEMAP
  2
AcDbCellStyleMap
  3
ObjectDBX Classes
 90
     1152
 91
        2
280
     0
281
     0
  0
ENDSEC
  0
SECTION
  2
TABLES
  0
TABLE
  2
VPORT
  5
8
330
0
100
AcDbSymbolTable
 70
     1
  0
VPORT
  5
57
330
8
100
AcDbSymbolTableRecord
100
AcDbViewportTableRecord
  2
*Active
 70
     0
 10
0.0
 20
0.0
 11
1.0
 21
1.0
 12
36.50971195798224
 22
38.44922176378486
 13
0.0
 23
0.0
 14
1.0
 24
1.0
 15
0.0
 25
0.0
 16
0.0
 26
0.0
 36
1.0
 17
104.9999999737534
 27
148.4999999628701
 37
0.0
 40
308.9841537491252
 41
2.545333333333333
 42
50.0
 43
0.0
 44
0.0
 50
0.0
 51
0.0
 71
     0
 72
   100
 73
     1
 74
     0
 75
     1
 76
     0
 77
     0
 78
     0
281
     0
 65
     1
110
0.0
120
0.0
130
0.0
111
1.0
121
0.0
131
0.0
112
0.0
122
1.0
132
0.0
 79
     0
146
0.0
348
2F
 60
     3
 61
     5
292
     1
282
     1
141
0.0
142
0.0
 63
   250
421
  3355443
1001
ACAD_NAV_VCDISPLAY
1070
     3
  0
ENDTAB
  0
TABLE
  2
LTYPE
  5
5
330
0
100
AcDbSymbolTable
 70
     2
  0
LTYPE
  5
5B
330
5
100
AcDbSymbolTableRecord
100
AcDbLinetypeTableRecord
  2
ByBlock
 70
     0
  3

 72
    65
 73
     0
 40
0.0
  0
LTYPE
  5
5C
330
5
100
AcDbSymbolTableRecord
100
AcDbLinetypeTableRecord
  2
ByLayer
 70
     0
  3

 72
    65
 73
     0
 40
0.0
  0
LTYPE
  5
5D
330
5
100
AcDbSymbolTableRecord
100
AcDbLinetypeTableRecord
  2
Continuous
 70
     0
  3
Solid line
 72
    65
 73
     0
 40
0.0
  0
ENDTAB
  0
TABLE
  2
LAYER
  5
2
330
0
100
AcDbSymbolTable
 70
     3
  0
LAYER
  5
54
330
2
100
AcDbSymbolTableRecord
100
AcDbLayerTableRecord
  2
0
 70
     0
 62
     7
  6
Continuous
370
    -3
390
F
347
21
  0
LAYER
  5
78
330
2
100
AcDbSymbolTableRecord
100
AcDbLayerTableRecord
  2
Livello 2
 70
     0
 62
     7
  6
Continuous
370
     0
390
F
347
21
  0
LAYER
  5
83
330
2
100
AcDbSymbolTableRecord
100
AcDbLayerTableRecord
  2
Livello 3
 70
     0
 62
     7
  6
Continuous
370
     0
390
F
347
21
  0
ENDTAB
  0
TABLE
  2
STYLE
  5
3
330
0
100
AcDbSymbolTable
 70
     2
  0
STYLE
  5
55
330
3
100
AcDbSymbolTableRecord
100
AcDbTextStyleTableRecord
  2
Standard
 70
     0
 40
0.0
 41
1.0
 50
0.0
 71
     0
 42
0.2
  3
txt
  4

  0
STYLE
  5
5A
330
3
100
AcDbSymbolTableRecord
100
AcDbTextStyleTableRecord
  2
Annotative
 70
     0
 40
0.0
 41
1.0
 50
0.0
 71
     0
 42
0.2
  3
txt
  4

1001
AcadAnnotative
1000
AnnotativeData
1002
{
1070
     1
1070
     1
1002
}
  0
ENDTAB
  0
TABLE
  2
VIEW
  5
6
330
0
100
AcDbSymbolTable
 70
     0
  0
ENDTAB
  0
TABLE
  2
UCS
  5
7
330
0
100
AcDbSymbolTable
 70
     0
  0
ENDTAB
  0
TABLE
  2
APPID
  5
9
330
0
100
AcDbSymbolTable
 70
     5
  0
APPID
  5
56
330
9
100
AcDbSymbolTableRecord
100
AcDbRegAppTableRecord
  2
ACAD
 70
     0
  0
APPID
  5
5E
330
9
100
AcDbSymbolTableRecord
100
AcDbRegAppTableRecord
  2
AcadAnnotative
 70
     0
  0
APPID
  5
12B
330
9
100
AcDbSymbolTableRecord
100
AcDbRegAppTableRecord
  2
ACAD_EXEMPT_FROM_CAD_STANDARDS
 70
     0
  0
APPID
  5
12E
330
9
100
AcDbSymbolTableRecord
100
AcDbRegAppTableRecord
  2
ACAD_NAV_VCDISPLAY
 70
     0
  0
APPID
  5
17A
330
9
100
AcDbSymbolTableRecord
100
AcDbRegAppTableRecord
  2
ACAD_MLEADERVER
 70
     0
  0
ENDTAB
  0
TABLE
  2
DIMSTYLE
  5
A
330
0
100
AcDbSymbolTable
 70
     2
100
AcDbDimStyleTable
 71
     0
  0
DIMSTYLE
105
58
330
A
100
AcDbSymbolTableRecord
100
AcDbDimStyleTableRecord
  2
Standard
 70
     0
340
55
  0
DIMSTYLE
105
59
330
A
100
AcDbSymbolTableRecord
100
AcDbDimStyleTableRecord
  2
Annotative
 70
     0
340
55
1001
AcadAnnotative
1000
AnnotativeData
1002
{
1070
     1
1070
     1
1002
}
  0
ENDTAB
  0
TABLE
  2
BLOCK_RECORD
  5
1
330
0
100
AcDbSymbolTable
 70
    15
  0
BLOCK_RECORD
  5
70
330
1
100
AcDbSymbolTableRecord
100
AcDbBlockTableRecord
  2
*Model_Space
340
73
 70
     0
280
     1
281
     0
  0
BLOCK_RECORD
  5
6C
330
1
100
AcDbSymbolTableRecord
100
AcDbBlockTableRecord
  2
*Paper_Space
340
6F
 70
     0
280
     1
281
     0
  0
BLOCK_RECORD
  5
74
330
1
100
AcDbSymbolTableRecord
100
AcDbBlockTableRecord
  2
*Paper_Space0
340
77
 70
     0
280
     1
281
     0
  0
BLOCK_RECORD
  5
89
330
1
100
AcDbSymbolTableRecord
100
AcDbBlockTableRecord
  2
Block_0
340
0
 70
     0
280
     1
281
     0
  0
BLOCK_RECORD
  5
8D
330
1
100
AcDbSymbolTableRecord
100
AcDbBlockTableRecord
  2
Block_1
340
0
102
{BLKREFS
331
8E
102
}
 70
     0
280
     1
281
     0
  0
BLOCK_RECORD
  5
9D
330
1
100
AcDbSymbolTableRecord
100
AcDbBlockTableRecord
  2
Block_2
340
0
 70
     0
280
     1
281
     0
  0
BLOCK_RECORD
  5
A1
330
1
100
AcDbSymbolTableRecord
100
AcDbBlockTableRecord
  2
Block_3
340
0
102
{BLKREFS
331
A2
102
}
 70
     0
280
     1
281
     0
  0
BLOCK_RECORD
  5
B1
330
1
100
AcDbSymbolTableRecord
100
AcDbBlockTableRecord
  2
Block_4
340
0
 70
     0
280
     1
281
     0
  0
BLOCK_RECORD
  5
B5
330
1
100
AcDbSymbolTableRecord
100
AcDbBlockTableRecord
  2
Block_5
340
0
102
{BLKREFS
331
B6
102
}
 70
     0
280
     1
281
     0
  0
BLOCK_RECORD
  5
C4
330
1
100
AcDbSymbolTableRecord
100
AcDbBlockTableRecord
  2
Block_6
340
0
 70
     0
280
     1
281
     0
  0
BLOCK_RECORD
  5
C8
330
1
100
AcDbSymbolTableRecord
100
AcDbBlockTableRecord
  2
Block_7
340
0
102
{BLKREFS
331
C9
102
}
 70
     0
280
     1
281
     0
  0
BLOCK_RECORD
  5
D7
330
1
100
AcDbSymbolTableRecord
100
AcDbBlockTableRecord
  2
Block_8
340
0
 70
     0
280
     1
281
     0
  0
BLOCK_RECORD
  5
DB
330
1
100
AcDbSymbolTableRecord
100
AcDbBlockTableRecord
  2
Block_9
340
0
102
{BLKREFS
331
DC
102
}
 70
     0
280
     1
281
     0
  0
ENDTAB
  0
ENDSEC
  0
SECTION
  2
BLOCKS
  0
BLOCK
  5
71
330
70
100
AcDbEntity
  8
0
100
AcDbBlockBegin
  2
*Model_Space
 70
     0
 10
0.0
 20
0.0
 30
0.0
  3
*Model_Space
  1

  0
ENDBLK
  5
72
330
70
100
AcDbEntity
  8
0
100
AcDbBlockEnd
  0
BLOCK
  5
6D
330
6C
100
AcDbEntity
 67
     1
  8
0
100
AcDbBlockBegin
  2
*Paper_Space
 70
     0
 10
0.0
 20
0.0
 30
0.0
  3
*Paper_Space
  1

  0
ENDBLK
  5
6E
330
6C
100
AcDbEntity
 67
     1
  8
0
100
AcDbBlockEnd
  0
BLOCK
  5
75
330
74
100
AcDbEntity
 67
     1
  8
0
100
AcDbBlockBegin
  2
*Paper_Space0
 70
     0
 10
0.0
 20
0.0
 30
0.0
  3
*Paper_Space0
  1

  0
ENDBLK
  5
76
330
74
100
AcDbEntity
 67
     1
  8
0
100
AcDbBlockEnd
  0
BLOCK
  5
8B
330
89
100
AcDbEntity
  8
0
100
AcDbBlockBegin
  2
Block_0
 70
     0
 10
0.0
 20
0.0
 30
0.0
  3
Block_0
  1

  0
INSERT
  5
8E
330
89
100
AcDbEntity
  8
Livello 3
100
AcDbBlockReference
  2
Block_1
 10
0.0
 20
0.0
 30
0.0
  0
ENDBLK
  5
8C
330
89
100
AcDbEntity
  8
0
100
AcDbBlockEnd
  0
BLOCK
  5
8F
330
8D
100
AcDbEntity
  8
0
100
AcDbBlockBegin
  2
Block_1
 70
     0
 10
0.0
 20
0.0
 30
0.0
  3
Block_1
  1

  0
SPLINE
  5
91
330
8D
100
AcDbEntity
  8
Livello 3
100
AcDbSpline
210
0.0
220
0.0
230
1.0
 70
    11
 71
     3
 72
    29
 73
    25
 74
     0
 42
0.000000001
 43
0.0000000001
 40
0.0
 40
0.0
 40
0.0
 40
0.0
 40
1.0
 40
1.0
 40
1.0
 40
2.0
 40
2.0
 40
2.0
 40
3.0
 40
3.0
 40
3.0
 40
4.0
 40
4.0
 40
4.0
 40
5.0
 40
5.0
 40
5.0
 40
6.0
 40
6.0
 40
6.0
 40
7.0
 40
7.0
 40
7.0
 40
8.0
 40
8.0
 40
8.0
 40
8.0
 10
107.3030110408826
 20
105.627316596857
 30
0.0
 10
107.3030110408826
 20
105.627316596857
 30
0.0
 10
107.294742811718
 20
105.627316596857
 30
0.0
 10
107.294742811718
 20
105.627316596857
 30
0.0
 10
107.294742811718
 20
105.627316596857
 30
0.0
 10
106.8165635583653
 20
105.3692789450118
 30
0.0
 10
106.8165635583653
 20
105.3692789450118
 30
0.0
 10
106.8165635583653
 20
105.3692789450118
 30
0.0
 10
106.7445610627236
 20
105.6524657938994
 30
0.0
 10
106.7445610627236
 20
105.6524657938994
 30
0.0
 10
106.7445610627236
 20
105.6524657938994
 30
0.0
 10
107.3453857153511
 20
105.9742377122217
 30
0.0
 10
107.3453857153511
 20
105.9742377122217
 30
0.0
 10
107.3453857153511
 20
105.9742377122217
 30
0.0
 10
107.6626790095426
 20
105.9742377122217
 30
0.0
 10
107.6626790095426
 20
105.9742377122217
 30
0.0
 10
107.6626790095426
 20
105.9742377122217
 30
0.0
 10
107.6626790095426
 20
103.2240179863467
 30
0.0
 10
107.6626790095426
 20
103.2240179863467
 30
0.0
 10
107.6626790095426
 20
103.2240179863467
 30
0.0
 10
107.3030110408826
 20
103.2240179863467
 30
0.0
 10
107.3030110408826
 20
103.2240179863467
 30
0.0
 10
107.3030110408826
 20
103.2240179863467
 30
0.0
 10
107.3030110408826
 20
105.627316596857
 30
0.0
 10
107.3030110408826
 20
105.627316596857
 30
0.0
  0
HATCH
  5
92
330
8D
100
AcDbEntity
  8
Livello 3
 62
   250
420
  1907995
440
 33554687
100
AcDbHatch
 10
0.0
 20
0.0
 30
0.0
210
0.0
220
0.0
230
1.0
  2
SOLID
 70
     1
 71
     1
 91
        1
 92
        1
 93
        1
 72
     4
 94
        3
 73
     0
 74
     0
 95
       29
 96
       25
 40
0.0
 40
0.0
 40
0.0
 40
0.0
 40
1.0
 40
1.0
 40
1.0
 40
2.0
 40
2.0
 40
2.0
 40
3.0
 40
3.0
 40
3.0
 40
4.0
 40
4.0
 40
4.0
 40
5.0
 40
5.0
 40
5.0
 40
6.0
 40
6.0
 40
6.0
 40
7.0
 40
7.0
 40
7.0
 40
8.0
 40
8.0
 40
8.0
 40
8.0
 10
107.3030110408826
 20
105.627316596857
 10
107.3030110408826
 20
105.627316596857
 10
107.294742811718
 20
105.627316596857
 10
107.294742811718
 20
105.627316596857
 10
107.294742811718
 20
105.627316596857
 10
106.8165635583653
 20
105.3692789450118
 10
106.8165635583653
 20
105.3692789450118
 10
106.8165635583653
 20
105.3692789450118
 10
106.7445610627236
 20
105.6524657938994
 10
106.7445610627236
 20
105.6524657938994
 10
106.7445610627236
 20
105.6524657938994
 10
107.3453857153511
 20
105.9742377122217
 10
107.3453857153511
 20
105.9742377122217
 10
107.3453857153511
 20
105.9742377122217
 10
107.6626790095426
 20
105.9742377122217
 10
107.6626790095426
 20
105.9742377122217
 10
107.6626790095426
 20
105.9742377122217
 10
107.6626790095426
 20
103.2240179863467
 10
107.6626790095426
 20
103.2240179863467
 10
107.6626790095426
 20
103.2240179863467
 10
107.3030110408826
 20
103.2240179863467
 10
107.3030110408826
 20
103.2240179863467
 10
107.3030110408826
 20
103.2240179863467
 10
107.3030110408826
 20
105.627316596857
 10
107.3030110408826
 20
105.627316596857
 97
        1
330
91
 75
     2
 76
     1
 98
        1
 10
0.0
 20
0.0
450
        0
451
        0
460
0.0
461
0.0
452
        0
462
0.0
453
        0
470

  0
SPLINE
  5
93
330
8D
100
AcDbEntity
  8
Livello 3
100
AcDbSpline
210
0.0
220
0.0
230
1.0
 70
     9
 71
     3
 72
    17
 73
    13
 74
     0
 42
0.000000001
 43
0.0000000001
 40
0.0
 40
0.0
 40
0.0
 40
0.0
 40
1.0
 40
1.0
 40
1.0
 40
2.0
 40
2.0
 40
2.0
 40
3.0
 40
3.0
 40
3.0
 40
4.0
 40
4.0
 40
4.0
 40
4.0
 10
109.0899820690816
 20
105.3141574172478
 30
0.0
 10
109.0899820690816
 20
105.0392387975249
 30
0.0
 10
109.2973768172937
 20
104.8910996916591
 30
0.0
 10
109.6146701114852
 20
104.806350342722
 30
0.0
 10
109.8513481713219
 20
104.8869655770769
 30
0.0
 10
110.0332492129431
 20
105.0561197654026
 30
0.0
 10
110.0332492129431
 20
105.3055446785347
 30
0.0
 10
110.0332492129431
 20
105.5256862800422
 30
0.0
 10
109.9023355845036
 20
105.7540961107142
 30
0.0
 10
109.5681613224343
 20
105.7540961107142
 30
0.0
 10
109.2591362574074
 20
105.7540961107142
 30
0.0
 10
109.0899820690816
 20
105.551179986633
 30
0.0
 10
109.0899820690816
 20
105.3141574172478
 30
0.0
  0
SPLINE
  5
94
330
8D
100
AcDbEntity
  8
Livello 3
100
AcDbSpline
210
0.0
220
0.0
230
1.0
 70
     9
 71
     3
 72
    17
 73
    13
 74
     0
 42
0.000000001
 43
0.0000000001
 40
0.0
 40
0.0
 40
0.0
 40
0.0
 40
1.0
 40
1.0
 40
1.0
 40
2.0
 40
2.0
 40
2.0
 40
3.0
 40
3.0
 40
3.0
 40
4.0
 40
4.0
 40
4.0
 40
4.0
 10
110.1138644472979
 20
103.9392198090846
 30
0.0
 10
110.1138644472979
 20
104.2733940711539
 30
0.0
 10
109.880975992495
 20
104.4339355207665
 30
0.0
 10
109.508905680088
 20
104.5396999521637
 30
0.0
 10
109.1871337617657
 20
104.4466823740619
 30
0.0
 10
109.0138454588576
 20
104.2351535112675
 30
0.0
 10
109.0138454588576
 20
103.9729817448401
 30
0.0
 10
109.0010986055622
 20
103.6935845009863
 30
0.0
 10
109.2126274683566
 20
103.4482937024365
 30
0.0
 10
109.5636826983035
 20
103.4482937024365
 30
0.0
 10
109.8982014699213
 20
103.4482937024365
 30
0.0
 10
110.1138644472979
 20
103.6556884506486
 30
0.0
 10
110.1138644472979
 20
103.9392198090846
 30
0.0
  0
SPLINE
  5
95
330
8D
100
AcDbEntity
  8
Livello 3
100
AcDbSpline
210
0.0
220
0.0
230
1.0
 70
     9
 71
     3
 72
    35
 73
    31
 74
     0
 42
0.000000001
 43
0.0000000001
 40
0.0
 40
0.0
 40
0.0
 40
0.0
 40
1.0
 40
1.0
 40
1.0
 40
2.0
 40
2.0
 40
2.0
 40
3.0
 40
3.0
 40
3.0
 40
4.0
 40
4.0
 40
4.0
 40
5.0
 40
5.0
 40
5.0
 40
6.0
 40
6.0
 40
6.0
 40
7.0
 40
7.0
 40
7.0
 40
8.0
 40
8.0
 40
8.0
 40
9.0
 40
9.0
 40
9.0
 40
10.0
 40
10.0
 40
10.0
 40
10.0
 10
108.632817898189
 20
103.9219943316584
 30
0.0
 10
108.632817898189
 20
104.268915447023
 30
0.0
 10
108.840212646401
 20
104.5145507551213
 30
0.0
 10
109.1788655326011
 20
104.6582112368563
 30
0.0
 10
109.1788655326011
 20
104.6582112368563
 30
0.0
 10
109.1743869084703
 20
104.6709580901517
 30
0.0
 10
109.1743869084703
 20
104.6709580901517
 30
0.0
 10
108.8698404675742
 20
104.8149630814351
 30
0.0
 10
108.7385823295862
 20
105.0519856508203
 30
0.0
 10
108.7385823295862
 20
105.288663710657
 30
0.0
 10
108.7385823295862
 20
105.7244682895411
 30
0.0
 10
109.1068630369594
 20
106.0207465012726
 30
0.0
 10
109.5891764048944
 20
106.0207465012726
 30
0.0
 10
110.1221326764625
 20
106.0207465012726
 30
0.0
 10
110.3887830670208
 20
105.6865722392033
 30
0.0
 10
110.3887830670208
 20
105.343785238421
 30
0.0
 10
110.3887830670208
 20
105.1108967836181
 30
0.0
 10
110.2747504064591
 20
104.861471870486
 30
0.0
 10
109.936097520259
 20
104.7005859113248
 30
0.0
 10
109.936097520259
 20
104.7005859113248
 30
0.0
 10
109.936097520259
 20
104.6878390580294
 30
0.0
 10
109.936097520259
 20
104.6878390580294
 30
0.0
 10
110.2788845210414
 20
104.5524468054591
 30
0.0
 10
110.4904133838357
 20
104.3112901214916
 30
0.0
 10
110.4904133838357
 20
103.9771158594224
 30
0.0
 10
110.4904133838357
 20
103.4989366060697
 30
0.0
 10
110.0801025115424
 20
103.1775091972959
 30
0.0
 10
109.5554144691389
 20
103.1775091972959
 30
0.0
 10
108.9797390135537
 20
103.1775091972959
 30
0.0
 10
108.632817898189
 20
103.5202961980782
 30
0.0
 10
108.632817898189
 20
103.9219943316584
 30
0.0
  0
HATCH
  5
96
330
8D
100
AcDbEntity
  8
Livello 3
 62
   250
420
  1907995
440
 33554687
100
AcDbHatch
 10
0.0
 20
0.0
 30
0.0
210
0.0
220
0.0
230
1.0
  2
SOLID
 70
     1
 71
     1
 91
        3
 92
        1
 93
        1
 72
     4
 94
        3
 73
     0
 74
     0
 95
       17
 96
       13
 40
0.0
 40
0.0
 40
0.0
 40
0.0
 40
1.0
 40
1.0
 40
1.0
 40
2.0
 40
2.0
 40
2.0
 40
3.0
 40
3.0
 40
3.0
 40
4.0
 40
4.0
 40
4.0
 40
4.0
 10
109.0899820690816
 20
105.3141574172478
 10
109.0899820690816
 20
105.0392387975249
 10
109.2973768172937
 20
104.8910996916591
 10
109.6146701114852
 20
104.806350342722
 10
109.8513481713219
 20
104.8869655770769
 10
110.0332492129431
 20
105.0561197654026
 10
110.0332492129431
 20
105.3055446785347
 10
110.0332492129431
 20
105.5256862800422
 10
109.9023355845036
 20
105.7540961107142
 10
109.5681613224343
 20
105.7540961107142
 10
109.2591362574074
 20
105.7540961107142
 10
109.0899820690816
 20
105.551179986633
 10
109.0899820690816
 20
105.3141574172478
 97
        1
330
93
 92
        1
 93
        1
 72
     4
 94
        3
 73
     0
 74
     0
 95
       17
 96
       13
 40
0.0
 40
0.0
 40
0.0
 40
0.0
 40
1.0
 40
1.0
 40
1.0
 40
2.0
 40
2.0
 40
2.0
 40
3.0
 40
3.0
 40
3.0
 40
4.0
 40
4.0
 40
4.0
 40
4.0
 10
110.1138644472979
 20
103.9392198090846
 10
110.1138644472979
 20
104.2733940711539
 10
109.880975992495
 20
104.4339355207665
 10
109.508905680088
 20
104.5396999521637
 10
109.1871337617657
 20
104.4466823740619
 10
109.0138454588576
 20
104.2351535112675
 10
109.0138454588576
 20
103.9729817448401
 10
109.0010986055622
 20
103.6935845009863
 10
109.2126274683566
 20
103.4482937024365
 10
109.5636826983035
 20
103.4482937024365
 10
109.8982014699213
 20
103.4482937024365
 10
110.1138644472979
 20
103.6556884506486
 10
110.1138644472979
 20
103.9392198090846
 97
        1
330
94
 92
        1
 93
        1
 72
     4
 94
        3
 73
     0
 74
     0
 95
       35
 96
       31
 40
0.0
 40
0.0
 40
0.0
 40
0.0
 40
1.0
 40
1.0
 40
1.0
 40
2.0
 40
2.0
 40
2.0
 40
3.0
 40
3.0
 40
3.0
 40
4.0
 40
4.0
 40
4.0
 40
5.0
 40
5.0
 40
5.0
 40
6.0
 40
6.0
 40
6.0
 40
7.0
 40
7.0
 40
7.0
 40
8.0
 40
8.0
 40
8.0
 40
9.0
 40
9.0
 40
9.0
 40
10.0
 40
10.0
 40
10.0
 40
10.0
 10
108.632817898189
 20
103.9219943316584
 10
108.632817898189
 20
104.268915447023
 10
108.840212646401
 20
104.5145507551213
 10
109.1788655326011
 20
104.6582112368563
 10
109.1788655326011
 20
104.6582112368563
 10
109.1743869084703
 20
104.6709580901517
 10
109.1743869084703
 20
104.6709580901517
 10
108.8698404675742
 20
104.8149630814351
 10
108.7385823295862
 20
105.0519856508203
 10
108.7385823295862
 20
105.288663710657
 10
108.7385823295862
 20
105.7244682895411
 10
109.1068630369594
 20
106.0207465012726
 10
109.5891764048944
 20
106.0207465012726
 10
110.1221326764625
 20
106.0207465012726
 10
110.3887830670208
 20
105.6865722392033
 10
110.3887830670208
 20
105.343785238421
 10
110.3887830670208
 20
105.1108967836181
 10
110.2747504064591
 20
104.861471870486
 10
109.936097520259
 20
104.7005859113248
 10
109.936097520259
 20
104.7005859113248
 10
109.936097520259
 20
104.6878390580294
 10
109.936097520259
 20
104.6878390580294
 10
110.2788845210414
 20
104.5524468054591
 10
110.4904133838357
 20
104.3112901214916
 10
110.4904133838357
 20
103.9771158594224
 10
110.4904133838357
 20
103.4989366060697
 10
110.0801025115424
 20
103.1775091972959
 10
109.5554144691389
 20
103.1775091972959
 10
108.9797390135537
 20
103.1775091972959
 10
108.632817898189
 20
103.5202961980782
 10
108.632817898189
 20
103.9219943316584
 97
        1
330
95
 75
     2
 76
     1
 98
        1
 10
0.0
 20
0.0
450
        0
451
        0
460
0.0
461
0.0
452
        0
462
0.0
453
        0
470

  0
SPLINE
  5
97
330
8D
100
AcDbEntity
  8
Livello 3
100
AcDbSpline
210
0.0
220
0.0
230
1.0
 70
    11
 71
     3
 72
    50
 73
    46
 74
     0
 42
0.000000001
 43
0.0000000001
 40
0.0
 40
0.0
 40
0.0
 40
0.0
 40
1.0
 40
1.0
 40
1.0
 40
2.0
 40
2.0
 40
2.0
 40
3.0
 40
3.0
 40
3.0
 40
4.0
 40
4.0
 40
4.0
 40
5.0
 40
5.0
 40
5.0
 40
6.0
 40
6.0
 40
6.0
 40
7.0
 40
7.0
 40
7.0
 40
8.0
 40
8.0
 40
8.0
 40
9.0
 40
9.0
 40
9.0
 40
10.0
 40
10.0
 40
10.0
 40
11.0
 40
11.0
 40
11.0
 40
12.0
 40
12.0
 40
12.0
 40
13.0
 40
13.0
 40
13.0
 40
14.0
 40
14.0
 40
14.0
 40
15.0
 40
15.0
 40
15.0
 40
15.0
 10
112.4799560265675
 20
105.6610785326125
 30
0.0
 10
112.4799560265675
 20
105.6610785326125
 30
0.0
 10
111.4305799417604
 20
105.6610785326125
 30
0.0
 10
111.4305799417604
 20
105.6610785326125
 30
0.0
 10
111.4305799417604
 20
105.6610785326125
 30
0.0
 10
111.3248155103632
 20
104.9544894485877
 30
0.0
 10
111.3248155103632
 20
104.9544894485877
 30
0.0
 10
111.3882052672918
 20
104.9631021873009
 30
0.0
 10
111.4474609096381
 20
104.9713704164655
 30
0.0
 10
111.549091226453
 20
104.9713704164655
 30
0.0
 10
111.7606200892473
 20
104.9713704164655
 30
0.0
 10
111.9721489520417
 20
104.9248616274146
 30
0.0
 10
112.1413031403674
 20
104.8232313105997
 30
0.0
 10
112.3573106272926
 20
104.7005859113248
 30
0.0
 10
112.534733044783
 20
104.4635633419396
 30
0.0
 10
112.534733044783
 20
104.116642226575
 30
0.0
 10
112.534733044783
 20
103.5795518404245
 30
0.0
 10
112.107541204612
 20
103.1775091972959
 30
0.0
 10
111.5108506665667
 20
103.1775091972959
 30
0.0
 10
111.2104383402529
 20
103.1775091972959
 30
0.0
 10
110.9568793125385
 20
103.262258546233
 30
0.0
 10
110.8256211745505
 20
103.3466633856215
 30
0.0
 10
110.8256211745505
 20
103.3466633856215
 30
0.0
 10
110.9186387526523
 20
103.6301947440577
 30
0.0
 10
110.9186387526523
 20
103.6301947440577
 30
0.0
 10
111.0330159227626
 20
103.5623263629983
 30
0.0
 10
111.2569471293038
 20
103.4779215236097
 30
0.0
 10
111.5067165519844
 20
103.4779215236097
 30
0.0
 10
111.8577717819314
 20
103.4779215236097
 30
0.0
 10
112.1581841082452
 20
103.7063313542817
 30
0.0
 10
112.1581841082452
 20
104.0746120616549
 30
0.0
 10
112.1540499936628
 20
104.4298014061842
 30
0.0
 10
111.9170274242777
 20
104.6837049434471
 30
0.0
 10
111.3671901848318
 20
104.6837049434471
 30
0.0
 10
111.2104383402529
 20
104.6837049434471
 30
0.0
 10
111.087792940978
 20
104.6668239755694
 30
0.0
 10
110.9861626241632
 20
104.654077122274
 30
0.0
 10
110.9861626241632
 20
104.654077122274
 30
0.0
 10
111.163929551202
 20
105.9742377122217
 30
0.0
 10
111.163929551202
 20
105.9742377122217
 30
0.0
 10
111.163929551202
 20
105.9742377122217
 30
0.0
 10
112.4799560265675
 20
105.9742377122217
 30
0.0
 10
112.4799560265675
 20
105.9742377122217
 30
0.0
 10
112.4799560265675
 20
105.9742377122217
 30
0.0
 10
112.4799560265675
 20
105.6610785326125
 30
0.0
 10
112.4799560265675
 20
105.6610785326125
 30
0.0
  0
HATCH
  5
98
330
8D
100
AcDbEntity
  8
Livello 3
 62
   250
420
  1907995
440
 33554687
100
AcDbHatch
 10
0.0
 20
0.0
 30
0.0
210
0.0
220
0.0
230
1.0
  2
SOLID
 70
     1
 71
     1
 91
        1
 92
        1
 93
        1
 72
     4
 94
        3
 73
     0
 74
     0
 95
       50
 96
       46
 40
0.0
 40
0.0
 40
0.0
 40
0.0
 40
1.0
 40
1.0
 40
1.0
 40
2.0
 40
2.0
 40
2.0
 40
3.0
 40
3.0
 40
3.0
 40
4.0
 40
4.0
 40
4.0
 40
5.0
 40
5.0
 40
5.0
 40
6.0
 40
6.0
 40
6.0
 40
7.0
 40
7.0
 40
7.0
 40
8.0
 40
8.0
 40
8.0
 40
9.0
 40
9.0
 40
9.0
 40
10.0
 40
10.0
 40
10.0
 40
11.0
 40
11.0
 40
11.0
 40
12.0
 40
12.0
 40
12.0
 40
13.0
 40
13.0
 40
13.0
 40
14.0
 40
14.0
 40
14.0
 40
15.0
 40
15.0
 40
15.0
 40
15.0
 10
112.4799560265675
 20
105.6610785326125
 10
112.4799560265675
 20
105.6610785326125
 10
111.4305799417604
 20
105.6610785326125
 10
111.4305799417604
 20
105.6610785326125
 10
111.4305799417604
 20
105.6610785326125
 10
111.3248155103632
 20
104.9544894485877
 10
111.3248155103632
 20
104.9544894485877
 10
111.3882052672918
 20
104.9631021873009
 10
111.4474609096381
 20
104.9713704164655
 10
111.549091226453
 20
104.9713704164655
 10
111.7606200892473
 20
104.9713704164655
 10
111.9721489520417
 20
104.9248616274146
 10
112.1413031403674
 20
104.8232313105997
 10
112.3573106272926
 20
104.7005859113248
 10
112.534733044783
 20
104.4635633419396
 10
112.534733044783
 20
104.116642226575
 10
112.534733044783
 20
103.5795518404245
 10
112.107541204612
 20
103.1775091972959
 10
111.5108506665667
 20
103.1775091972959
 10
111.2104383402529
 20
103.1775091972959
 10
110.9568793125385
 20
103.262258546233
 10
110.8256211745505
 20
103.3466633856215
 10
110.8256211745505
 20
103.3466633856215
 10
110.9186387526523
 20
103.6301947440577
 10
110.9186387526523
 20
103.6301947440577
 10
111.0330159227626
 20
103.5623263629983
 10
111.2569471293038
 20
103.4779215236097
 10
111.5067165519844
 20
103.4779215236097
 10
111.8577717819314
 20
103.4779215236097
 10
112.1581841082452
 20
103.7063313542817
 10
112.1581841082452
 20
104.0746120616549
 10
112.1540499936628
 20
104.4298014061842
 10
111.9170274242777
 20
104.6837049434471
 10
111.3671901848318
 20
104.6837049434471
 10
111.2104383402529
 20
104.6837049434471
 10
111.087792940978
 20
104.6668239755694
 10
110.9861626241632
 20
104.654077122274
 10
110.9861626241632
 20
104.654077122274
 10
111.163929551202
 20
105.9742377122217
 10
111.163929551202
 20
105.9742377122217
 10
111.163929551202
 20
105.9742377122217
 10
112.4799560265675
 20
105.9742377122217
 10
112.4799560265675
 20
105.9742377122217
 10
112.4799560265675
 20
105.9742377122217
 10
112.4799560265675
 20
105.6610785326125
 10
112.4799560265675
 20
105.6610785326125
 97
        1
330
97
 75
     2
 76
     1
 98
        1
 10
0.0
 20
0.0
450
        0
451
        0
460
0.0
461
0.0
452
        0
462
0.0
453
        0
470

  0
SPLINE
  5
99
330
8D
100
AcDbEntity
  8
Livello 3
100
AcDbSpline
210
0.0
220
0.0
230
1.0
 70
     9
 71
     3
 72
    80
 73
    76
 74
     0
 42
0.000000001
 43
0.0000000001
 40
0.0
 40
0.0
 40
0.0
 40
0.0
 40
1.0
 40
1.0
 40
1.0
 40
2.0
 40
2.0
 40
2.0
 40
3.0
 40
3.0
 40
3.0
 40
4.0
 40
4.0
 40
4.0
 40
5.0
 40
5.0
 40
5.0
 40
6.0
 40
6.0
 40
6.0
 40
7.0
 40
7.0
 40
7.0
 40
8.0
 40
8.0
 40
8.0
 40
9.0
 40
9.0
 40
9.0
 40
10.0
 40
10.0
 40
10.0
 40
11.0
 40
11.0
 40
11.0
 40
12.0
 40
12.0
 40
12.0
 40
13.0
 40
13.0
 40
13.0
 40
14.0
 40
14.0
 40
14.0
 40
15.0
 40
15.0
 40
15.0
 40
16.0
 40
16.0
 40
16.0
 40
17.0
 40
17.0
 40
17.0
 40
18.0
 40
18.0
 40
18.0
 40
19.0
 40
19.0
 40
19.0
 40
20.0
 40
20.0
 40
20.0
 40
21.0
 40
21.0
 40
21.0
 40
22.0
 40
22.0
 40
22.0
 40
23.0
 40
23.0
 40
23.0
 40
24.0
 40
24.0
 40
24.0
 40
25.0
 40
25.0
 40
25.0
 40
25.0
 10
114.0261148803476
 20
104.7174668792026
 30
0.0
 10
114.0261148803476
 20
104.9289957419969
 30
0.0
 10
114.0216362562168
 20
105.1026285544535
 30
0.0
 10
114.0088894029214
 20
105.2717827427793
 30
0.0
 10
114.0088894029214
 20
105.2717827427793
 30
0.0
 10
114.334795435826
 20
105.2717827427793
 30
0.0
 10
114.334795435826
 20
105.2717827427793
 30
0.0
 10
114.334795435826
 20
105.2717827427793
 30
0.0
 10
114.3516764037037
 20
104.9417425952923
 30
0.0
 10
114.3516764037037
 20
104.9417425952923
 30
0.0
 10
114.3516764037037
 20
104.9417425952923
 30
0.0
 10
114.3644232569992
 20
104.9417425952923
 30
0.0
 10
114.3644232569992
 20
104.9417425952923
 30
0.0
 10
114.4788004271094
 20
105.1363904902089
 30
0.0
 10
114.6689696978952
 20
105.3182915318301
 30
0.0
 10
115.0076225840953
 20
105.3182915318301
 30
0.0
 10
115.2866753184005
 20
105.3182915318301
 30
0.0
 10
115.4982041811949
 20
105.1491373435044
 30
0.0
 10
115.5870876447143
 20
104.9079806595369
 30
0.0
 10
115.5870876447143
 20
104.9079806595369
 30
0.0
 10
115.5957003834275
 20
104.9079806595369
 30
0.0
 10
115.5957003834275
 20
104.9079806595369
 30
0.0
 10
115.659090140356
 20
105.0223578296472
 30
0.0
 10
115.7393608651624
 20
105.1108967836181
 30
0.0
 10
115.8241102140995
 20
105.1746310500952
 30
0.0
 10
115.9467556133744
 20
105.2676486281969
 30
0.0
 10
116.0821478659447
 20
105.3182915318301
 30
0.0
 10
116.2767957608613
 20
105.3182915318301
 30
0.0
 10
116.547580266002
 20
105.3182915318301
 30
0.0
 10
116.9496229091306
 20
105.1405246047912
 30
0.0
 10
116.9496229091306
 20
104.4298014061842
 30
0.0
 10
116.9496229091306
 20
104.4298014061842
 30
0.0
 10
116.9496229091306
 20
103.2240179863467
 30
0.0
 10
116.9496229091306
 20
103.2240179863467
 30
0.0
 10
116.9496229091306
 20
103.2240179863467
 30
0.0
 10
116.5858208258883
 20
103.2240179863467
 30
0.0
 10
116.5858208258883
 20
103.2240179863467
 30
0.0
 10
116.5858208258883
 20
103.2240179863467
 30
0.0
 10
116.5858208258883
 20
104.3832926171333
 30
0.0
 10
116.5858208258883
 20
104.3832926171333
 30
0.0
 10
116.5858208258883
 20
104.7767225215489
 30
0.0
 10
116.4418158346048
 20
105.013745090934
 30
0.0
 10
116.141403508291
 20
105.013745090934
 30
0.0
 10
115.9298746454967
 20
105.013745090934
 30
0.0
 10
115.7648545717532
 20
104.8573377559037
 30
0.0
 10
115.7014648148246
 20
104.675092204734
 30
0.0
 10
115.6845838469469
 20
104.6244493011007
 30
0.0
 10
115.6718369936515
 20
104.5569254295899
 30
0.0
 10
115.6718369936515
 20
104.4890570485305
 30
0.0
 10
115.6718369936515
 20
104.4890570485305
 30
0.0
 10
115.6718369936515
 20
103.2240179863467
 30
0.0
 10
115.6718369936515
 20
103.2240179863467
 30
0.0
 10
115.6718369936515
 20
103.2240179863467
 30
0.0
 10
115.3080349104091
 20
103.2240179863467
 30
0.0
 10
115.3080349104091
 20
103.2240179863467
 30
0.0
 10
115.3080349104091
 20
103.2240179863467
 30
0.0
 10
115.3080349104091
 20
104.4511609981928
 30
0.0
 10
115.3080349104091
 20
104.4511609981928
 30
0.0
 10
115.3080349104091
 20
104.7767225215489
 30
0.0
 10
115.1640299191256
 20
105.013745090934
 30
0.0
 10
114.8804985606896
 20
105.013745090934
 30
0.0
 10
114.6479546154352
 20
105.013745090934
 30
0.0
 10
114.4788004271094
 20
104.8277099347306
 30
0.0
 10
114.4195447847631
 20
104.6413302689785
 30
0.0
 10
114.3981851927546
 20
104.5865532507631
 30
0.0
 10
114.38991696359
 20
104.5228189842859
 30
0.0
 10
114.38991696359
 20
104.4594292273574
 30
0.0
 10
114.38991696359
 20
104.4594292273574
 30
0.0
 10
114.38991696359
 20
103.2240179863467
 30
0.0
 10
114.38991696359
 20
103.2240179863467
 30
0.0
 10
114.38991696359
 20
103.2240179863467
 30
0.0
 10
114.0261148803476
 20
103.2240179863467
 30
0.0
 10
114.0261148803476
 20
103.2240179863467
 30
0.0
 10
114.0261148803476
 20
103.2240179863467
 30
0.0
 10
114.0261148803476
 20
104.7174668792026
 30
0.0
 10
114.0261148803476
 20
104.7174668792026
 30
0.0
  0
HATCH
  5
9A
330
8D
100
AcDbEntity
  8
Livello 3
 62
   250
420
  1907995
440
 33554687
100
AcDbHatch
 10
0.0
 20
0.0
 30
0.0
210
0.0
220
0.0
230
1.0
  2
SOLID
 70
     1
 71
     1
 91
        1
 92
        1
 93
        1
 72
     4
 94
        3
 73
     0
 74
     0
 95
       80
 96
       76
 40
0.0
 40
0.0
 40
0.0
 40
0.0
 40
1.0
 40
1.0
 40
1.0
 40
2.0
 40
2.0
 40
2.0
 40
3.0
 40
3.0
 40
3.0
 40
4.0
 40
4.0
 40
4.0
 40
5.0
 40
5.0
 40
5.0
 40
6.0
 40
6.0
 40
6.0
 40
7.0
 40
7.0
 40
7.0
 40
8.0
 40
8.0
 40
8.0
 40
9.0
 40
9.0
 40
9.0
 40
10.0
 40
10.0
 40
10.0
 40
11.0
 40
11.0
 40
11.0
 40
12.0
 40
12.0
 40
12.0
 40
13.0
 40
13.0
 40
13.0
 40
14.0
 40
14.0
 40
14.0
 40
15.0
 40
15.0
 40
15.0
 40
16.0
 40
16.0
 40
16.0
 40
17.0
 40
17.0
 40
17.0
 40
18.0
 40
18.0
 40
18.0
 40
19.0
 40
19.0
 40
19.0
 40
20.0
 40
20.0
 40
20.0
 40
21.0
 40
21.0
 40
21.0
 40
22.0
 40
22.0
 40
22.0
 40
23.0
 40
23.0
 40
23.0
 40
24.0
 40
24.0
 40
24.0
 40
25.0
 40
25.0
 40
25.0
 40
25.0
 10
114.0261148803476
 20
104.7174668792026
 10
114.0261148803476
 20
104.9289957419969
 10
114.0216362562168
 20
105.1026285544535
 10
114.0088894029214
 20
105.2717827427793
 10
114.0088894029214
 20
105.2717827427793
 10
114.334795435826
 20
105.2717827427793
 10
114.334795435826
 20
105.2717827427793
 10
114.334795435826
 20
105.2717827427793
 10
114.3516764037037
 20
104.9417425952923
 10
114.3516764037037
 20
104.9417425952923
 10
114.3516764037037
 20
104.9417425952923
 10
114.3644232569992
 20
104.9417425952923
 10
114.3644232569992
 20
104.9417425952923
 10
114.4788004271094
 20
105.1363904902089
 10
114.6689696978952
 20
105.3182915318301
 10
115.0076225840953
 20
105.3182915318301
 10
115.2866753184005
 20
105.3182915318301
 10
115.4982041811949
 20
105.1491373435044
 10
115.5870876447143
 20
104.9079806595369
 10
115.5870876447143
 20
104.9079806595369
 10
115.5957003834275
 20
104.9079806595369
 10
115.5957003834275
 20
104.9079806595369
 10
115.659090140356
 20
105.0223578296472
 10
115.7393608651624
 20
105.1108967836181
 10
115.8241102140995
 20
105.1746310500952
 10
115.9467556133744
 20
105.2676486281969
 10
116.0821478659447
 20
105.3182915318301
 10
116.2767957608613
 20
105.3182915318301
 10
116.547580266002
 20
105.3182915318301
 10
116.9496229091306
 20
105.1405246047912
 10
116.9496229091306
 20
104.4298014061842
 10
116.9496229091306
 20
104.4298014061842
 10
116.9496229091306
 20
103.2240179863467
 10
116.9496229091306
 20
103.2240179863467
 10
116.9496229091306
 20
103.2240179863467
 10
116.5858208258883
 20
103.2240179863467
 10
116.5858208258883
 20
103.2240179863467
 10
116.5858208258883
 20
103.2240179863467
 10
116.5858208258883
 20
104.3832926171333
 10
116.5858208258883
 20
104.3832926171333
 10
116.5858208258883
 20
104.7767225215489
 10
116.4418158346048
 20
105.013745090934
 10
116.141403508291
 20
105.013745090934
 10
115.9298746454967
 20
105.013745090934
 10
115.7648545717532
 20
104.8573377559037
 10
115.7014648148246
 20
104.675092204734
 10
115.6845838469469
 20
104.6244493011007
 10
115.6718369936515
 20
104.5569254295899
 10
115.6718369936515
 20
104.4890570485305
 10
115.6718369936515
 20
104.4890570485305
 10
115.6718369936515
 20
103.2240179863467
 10
115.6718369936515
 20
103.2240179863467
 10
115.6718369936515
 20
103.2240179863467
 10
115.3080349104091
 20
103.2240179863467
 10
115.3080349104091
 20
103.2240179863467
 10
115.3080349104091
 20
103.2240179863467
 10
115.3080349104091
 20
104.4511609981928
 10
115.3080349104091
 20
104.4511609981928
 10
115.3080349104091
 20
104.7767225215489
 10
115.1640299191256
 20
105.013745090934
 10
114.8804985606896
 20
105.013745090934
 10
114.6479546154352
 20
105.013745090934
 10
114.4788004271094
 20
104.8277099347306
 10
114.4195447847631
 20
104.6413302689785
 10
114.3981851927546
 20
104.5865532507631
 10
114.38991696359
 20
104.5228189842859
 10
114.38991696359
 20
104.4594292273574
 10
114.38991696359
 20
104.4594292273574
 10
114.38991696359
 20
103.2240179863467
 10
114.38991696359
 20
103.2240179863467
 10
114.38991696359
 20
103.2240179863467
 10
114.0261148803476
 20
103.2240179863467
 10
114.0261148803476
 20
103.2240179863467
 10
114.0261148803476
 20
103.2240179863467
 10
114.0261148803476
 20
104.7174668792026
 10
114.0261148803476
 20
104.7174668792026
 97
        1
330
99
 75
     2
 76
     1
 98
        1
 10
0.0
 20
0.0
450
        0
451
        0
460
0.0
461
0.0
452
        0
462
0.0
453
        0
470

  0
SPLINE
  5
9B
330
8D
100
AcDbEntity
  8
Livello 3
100
AcDbSpline
210
0.0
220
0.0
230
1.0
 70
     9
 71
     3
 72
    80
 73
    76
 74
     0
 42
0.000000001
 43
0.0000000001
 40
0.0
 40
0.0
 40
0.0
 40
0.0
 40
1.0
 40
1.0
 40
1.0
 40
2.0
 40
2.0
 40
2.0
 40
3.0
 40
3.0
 40
3.0
 40
4.0
 40
4.0
 40
4.0
 40
5.0
 40
5.0
 40
5.0
 40
6.0
 40
6.0
 40
6.0
 40
7.0
 40
7.0
 40
7.0
 40
8.0
 40
8.0
 40
8.0
 40
9.0
 40
9.0
 40
9.0
 40
10.0
 40
10.0
 40
10.0
 40
11.0
 40
11.0
 40
11.0
 40
12.0
 40
12.0
 40
12.0
 40
13.0
 40
13.0
 40
13.0
 40
14.0
 40
14.0
 40
14.0
 40
15.0
 40
15.0
 40
15.0
 40
16.0
 40
16.0
 40
16.0
 40
17.0
 40
17.0
 40
17.0
 40
18.0
 40
18.0
 40
18.0
 40
19.0
 40
19.0
 40
19.0
 40
20.0
 40
20.0
 40
20.0
 40
21.0
 40
21.0
 40
21.0
 40
22.0
 40
22.0
 40
22.0
 40
23.0
 40
23.0
 40
23.0
 40
24.0
 40
24.0
 40
24.0
 40
25.0
 40
25.0
 40
25.0
 40
25.0
 10
117.5566487336316
 20
104.7174668792026
 30
0.0
 10
117.5566487336316
 20
104.9289957419969
 30
0.0
 10
117.5521701095008
 20
105.1026285544535
 30
0.0
 10
117.5394232562054
 20
105.2717827427793
 30
0.0
 10
117.5394232562054
 20
105.2717827427793
 30
0.0
 10
117.86532928911
 20
105.2717827427793
 30
0.0
 10
117.86532928911
 20
105.2717827427793
 30
0.0
 10
117.86532928911
 20
105.2717827427793
 30
0.0
 10
117.8822102569878
 20
104.9417425952923
 30
0.0
 10
117.8822102569878
 20
104.9417425952923
 30
0.0
 10
117.8822102569878
 20
104.9417425952923
 30
0.0
 10
117.8949571102832
 20
104.9417425952923
 30
0.0
 10
117.8949571102832
 20
104.9417425952923
 30
0.0
 10
118.0093342803935
 20
105.1363904902089
 30
0.0
 10
118.1995035511793
 20
105.3182915318301
 30
0.0
 10
118.5381564373793
 20
105.3182915318301
 30
0.0
 10
118.8172091716846
 20
105.3182915318301
 30
0.0
 10
119.0287380344789
 20
105.1491373435044
 30
0.0
 10
119.1176214979984
 20
104.9079806595369
 30
0.0
 10
119.1176214979984
 20
104.9079806595369
 30
0.0
 10
119.1262342367115
 20
104.9079806595369
 30
0.0
 10
119.1262342367115
 20
104.9079806595369
 30
0.0
 10
119.1896239936401
 20
105.0223578296472
 30
0.0
 10
119.2698947184464
 20
105.1108967836181
 30
0.0
 10
119.3546440673835
 20
105.1746310500952
 30
0.0
 10
119.4772894666584
 20
105.2676486281969
 30
0.0
 10
119.6126817192288
 20
105.3182915318301
 30
0.0
 10
119.8073296141454
 20
105.3182915318301
 30
0.0
 10
120.078114119286
 20
105.3182915318301
 30
0.0
 10
120.4801567624147
 20
105.1405246047912
 30
0.0
 10
120.4801567624147
 20
104.4298014061842
 30
0.0
 10
120.4801567624147
 20
104.4298014061842
 30
0.0
 10
120.4801567624147
 20
103.2240179863467
 30
0.0
 10
120.4801567624147
 20
103.2240179863467
 30
0.0
 10
120.4801567624147
 20
103.2240179863467
 30
0.0
 10
120.1163546791723
 20
103.2240179863467
 30
0.0
 10
120.1163546791723
 20
103.2240179863467
 30
0.0
 10
120.1163546791723
 20
103.2240179863467
 30
0.0
 10
120.1163546791723
 20
104.3832926171333
 30
0.0
 10
120.1163546791723
 20
104.3832926171333
 30
0.0
 10
120.1163546791723
 20
104.7767225215489
 30
0.0
 10
119.9723496878888
 20
105.013745090934
 30
0.0
 10
119.6719373615751
 20
105.013745090934
 30
0.0
 10
119.4604084987807
 20
105.013745090934
 30
0.0
 10
119.2953884250373
 20
104.8573377559037
 30
0.0
 10
119.2319986681086
 20
104.675092204734
 30
0.0
 10
119.2151177002309
 20
104.6244493011007
 30
0.0
 10
119.2023708469355
 20
104.5569254295899
 30
0.0
 10
119.2023708469355
 20
104.4890570485305
 30
0.0
 10
119.2023708469355
 20
104.4890570485305
 30
0.0
 10
119.2023708469355
 20
103.2240179863467
 30
0.0
 10
119.2023708469355
 20
103.2240179863467
 30
0.0
 10
119.2023708469355
 20
103.2240179863467
 30
0.0
 10
118.8385687636931
 20
103.2240179863467
 30
0.0
 10
118.8385687636931
 20
103.2240179863467
 30
0.0
 10
118.8385687636931
 20
103.2240179863467
 30
0.0
 10
118.8385687636931
 20
104.4511609981928
 30
0.0
 10
118.8385687636931
 20
104.4511609981928
 30
0.0
 10
118.8385687636931
 20
104.7767225215489
 30
0.0
 10
118.6945637724097
 20
105.013745090934
 30
0.0
 10
118.4110324139736
 20
105.013745090934
 30
0.0
 10
118.1784884687193
 20
105.013745090934
 30
0.0
 10
118.0093342803935
 20
104.8277099347306
 30
0.0
 10
117.9500786380472
 20
104.6413302689785
 30
0.0
 10
117.9287190460386
 20
104.5865532507631
 30
0.0
 10
117.9204508168741
 20
104.5228189842859
 30
0.0
 10
117.9204508168741
 20
104.4594292273574
 30
0.0
 10
117.9204508168741
 20
104.4594292273574
 30
0.0
 10
117.9204508168741
 20
103.2240179863467
 30
0.0
 10
117.9204508168741
 20
103.2240179863467
 30
0.0
 10
117.9204508168741
 20
103.2240179863467
 30
0.0
 10
117.5566487336316
 20
103.2240179863467
 30
0.0
 10
117.5566487336316
 20
103.2240179863467
 30
0.0
 10
117.5566487336316
 20
103.2240179863467
 30
0.0
 10
117.5566487336316
 20
104.7174668792026
 30
0.0
 10
117.5566487336316
 20
104.7174668792026
 30
0.0
  0
HATCH
  5
9C
330
8D
100
AcDbEntity
  8
Livello 3
 62
   250
420
  1907995
440
 33554687
100
AcDbHatch
 10
0.0
 20
0.0
 30
0.0
210
0.0
220
0.0
230
1.0
  2
SOLID
 70
     1
 71
     1
 91
        1
 92
        1
 93
        1
 72
     4
 94
        3
 73
     0
 74
     0
 95
       80
 96
       76
 40
0.0
 40
0.0
 40
0.0
 40
0.0
 40
1.0
 40
1.0
 40
1.0
 40
2.0
 40
2.0
 40
2.0
 40
3.0
 40
3.0
 40
3.0
 40
4.0
 40
4.0
 40
4.0
 40
5.0
 40
5.0
 40
5.0
 40
6.0
 40
6.0
 40
6.0
 40
7.0
 40
7.0
 40
7.0
 40
8.0
 40
8.0
 40
8.0
 40
9.0
 40
9.0
 40
9.0
 40
10.0
 40
10.0
 40
10.0
 40
11.0
 40
11.0
 40
11.0
 40
12.0
 40
12.0
 40
12.0
 40
13.0
 40
13.0
 40
13.0
 40
14.0
 40
14.0
 40
14.0
 40
15.0
 40
15.0
 40
15.0
 40
16.0
 40
16.0
 40
16.0
 40
17.0
 40
17.0
 40
17.0
 40
18.0
 40
18.0
 40
18.0
 40
19.0
 40
19.0
 40
19.0
 40
20.0
 40
20.0
 40
20.0
 40
21.0
 40
21.0
 40
21.0
 40
22.0
 40
22.0
 40
22.0
 40
23.0
 40
23.0
 40
23.0
 40
24.0
 40
24.0
 40
24.0
 40
25.0
 40
25.0
 40
25.0
 40
25.0
 10
117.5566487336316
 20
104.7174668792026
 10
117.5566487336316
 20
104.9289957419969
 10
117.5521701095008
 20
105.1026285544535
 10
117.5394232562054
 20
105.2717827427793
 10
117.5394232562054
 20
105.2717827427793
 10
117.86532928911
 20
105.2717827427793
 10
117.86532928911
 20
105.2717827427793
 10
117.86532928911
 20
105.2717827427793
 10
117.8822102569878
 20
104.9417425952923
 10
117.8822102569878
 20
104.9417425952923
 10
117.8822102569878
 20
104.9417425952923
 10
117.8949571102832
 20
104.9417425952923
 10
117.8949571102832
 20
104.9417425952923
 10
118.0093342803935
 20
105.1363904902089
 10
118.1995035511793
 20
105.3182915318301
 10
118.5381564373793
 20
105.3182915318301
 10
118.8172091716846
 20
105.3182915318301
 10
119.0287380344789
 20
105.1491373435044
 10
119.1176214979984
 20
104.9079806595369
 10
119.1176214979984
 20
104.9079806595369
 10
119.1262342367115
 20
104.9079806595369
 10
119.1262342367115
 20
104.9079806595369
 10
119.1896239936401
 20
105.0223578296472
 10
119.2698947184464
 20
105.1108967836181
 10
119.3546440673835
 20
105.1746310500952
 10
119.4772894666584
 20
105.2676486281969
 10
119.6126817192288
 20
105.3182915318301
 10
119.8073296141454
 20
105.3182915318301
 10
120.078114119286
 20
105.3182915318301
 10
120.4801567624147
 20
105.1405246047912
 10
120.4801567624147
 20
104.4298014061842
 10
120.4801567624147
 20
104.4298014061842
 10
120.4801567624147
 20
103.2240179863467
 10
120.4801567624147
 20
103.2240179863467
 10
120.4801567624147
 20
103.2240179863467
 10
120.1163546791723
 20
103.2240179863467
 10
120.1163546791723
 20
103.2240179863467
 10
120.1163546791723
 20
103.2240179863467
 10
120.1163546791723
 20
104.3832926171333
 10
120.1163546791723
 20
104.3832926171333
 10
120.1163546791723
 20
104.7767225215489
 10
119.9723496878888
 20
105.013745090934
 10
119.6719373615751
 20
105.013745090934
 10
119.4604084987807
 20
105.013745090934
 10
119.2953884250373
 20
104.8573377559037
 10
119.2319986681086
 20
104.675092204734
 10
119.2151177002309
 20
104.6244493011007
 10
119.2023708469355
 20
104.5569254295899
 10
119.2023708469355
 20
104.4890570485305
 10
119.2023708469355
 20
104.4890570485305
 10
119.2023708469355
 20
103.2240179863467
 10
119.2023708469355
 20
103.2240179863467
 10
119.2023708469355
 20
103.2240179863467
 10
118.8385687636931
 20
103.2240179863467
 10
118.8385687636931
 20
103.2240179863467
 10
118.8385687636931
 20
103.2240179863467
 10
118.8385687636931
 20
104.4511609981928
 10
118.8385687636931
 20
104.4511609981928
 10
118.8385687636931
 20
104.7767225215489
 10
118.6945637724097
 20
105.013745090934
 10
118.4110324139736
 20
105.013745090934
 10
118.1784884687193
 20
105.013745090934
 10
118.0093342803935
 20
104.8277099347306
 10
117.9500786380472
 20
104.6413302689785
 10
117.9287190460386
 20
104.5865532507631
 10
117.9204508168741
 20
104.5228189842859
 10
117.9204508168741
 20
104.4594292273574
 10
117.9204508168741
 20
104.4594292273574
 10
117.9204508168741
 20
103.2240179863467
 10
117.9204508168741
 20
103.2240179863467
 10
117.9204508168741
 20
103.2240179863467
 10
117.5566487336316
 20
103.2240179863467
 10
117.5566487336316
 20
103.2240179863467
 10
117.5566487336316
 20
103.2240179863467
 10
117.5566487336316
 20
104.7174668792026
 10
117.5566487336316
 20
104.7174668792026
 97
        1
330
9B
 75
     2
 76
     1
 98
        1
 10
0.0
 20
0.0
450
        0
451
        0
460
0.0
461
0.0
452
        0
462
0.0
453
        0
470

  0
ENDBLK
  5
90
330
8D
100
AcDbEntity
  8
0
100
AcDbBlockEnd
  0
BLOCK
  5
9F
330
9D
100
AcDbEntity
  8
0
100
AcDbBlockBegin
  2
Block_2
 70
     0
 10
0.0
 20
0.0
 30
0.0
  3
Block_2
  1

  0
INSERT
  5
A2
330
9D
100
AcDbEntity
  8
Livello 3
100
AcDbBlockReference
  2
Block_3
 10
0.0
 20
0.0
 30
0.0
  0
ENDBLK
  5
A0
330
9D
100
AcDbEntity
  8
0
100
AcDbBlockEnd
  0
BLOCK
  5
A3
330
A1
100
AcDbEntity
  8
0
100
AcDbBlockBegin
  2
Block_3
 70
     0
 10
0.0
 20
0.0
 30
0.0
  3
Block_3
  1

  0
SPLINE
  5
A5
330
A1
100
AcDbEntity
  8
Livello 3
100
AcDbSpline
210
0.0
220
0.0
230
1.0
 70
    11
 71
     3
 72
    29
 73
    25
 74
     0
 42
0.000000001
 43
0.0000000001
 40
0.0
 40
0.0
 40
0.0
 40
0.0
 40
1.0
 40
1.0
 40
1.0
 40
2.0
 40
2.0
 40
2.0
 40
3.0
 40
3.0
 40
3.0
 40
4.0
 40
4.0
 40
4.0
 40
5.0
 40
5.0
 40
5.0
 40
6.0
 40
6.0
 40
6.0
 40
7.0
 40
7.0
 40
7.0
 40
8.0
 40
8.0
 40
8.0
 40
8.0
 10
67.44360078609048
 20
121.5732855598844
 30
0.0
 10
67.44360078609048
 20
121.5732855598844
 30
0.0
 10
67.43533255692589
 20
121.5732855598844
 30
0.0
 10
67.43533255692589
 20
121.5732855598844
 30
0.0
 10
67.43533255692589
 20
121.5732855598844
 30
0.0
 10
66.95715330357322
 20
121.3152479080392
 30
0.0
 10
66.95715330357322
 20
121.3152479080392
 30
0.0
 10
66.95715330357322
 20
121.3152479080392
 30
0.0
 10
66.88515080793149
 20
121.5984347569268
 30
0.0
 10
66.88515080793149
 20
121.5984347569268
 30
0.0
 10
66.88515080793149
 20
121.5984347569268
 30
0.0
 10
67.48597546055906
 20
121.9202066752491
 30
0.0
 10
67.48597546055906
 20
121.9202066752491
 30
0.0
 10
67.48597546055906
 20
121.9202066752491
 30
0.0
 10
67.80326875475058
 20
121.9202066752491
 30
0.0
 10
67.80326875475058
 20
121.9202066752491
 30
0.0
 10
67.80326875475058
 20
121.9202066752491
 30
0.0
 10
67.80326875475058
 20
119.1699869493741
 30
0.0
 10
67.80326875475058
 20
119.1699869493741
 30
0.0
 10
67.80326875475058
 20
119.1699869493741
 30
0.0
 10
67.44360078609048
 20
119.1699869493741
 30
0.0
 10
67.44360078609048
 20
119.1699869493741
 30
0.0
 10
67.44360078609048
 20
119.1699869493741
 30
0.0
 10
67.44360078609048
 20
121.5732855598844
 30
0.0
 10
67.44360078609048
 20
121.5732855598844
 30
0.0
  0
HATCH
  5
A6
330
A1
100
AcDbEntity
  8
Livello 3
 62
   250
420
  1907995
440
 33554687
100
AcDbHatch
 10
0.0
 20
0.0
 30
0.0
210
0.0
220
0.0
230
1.0
  2
SOLID
 70
     1
 71
     1
 91
        1
 92
        1
 93
        1
 72
     4
 94
        3
 73
     0
 74
     0
 95
       29
 96
       25
 40
0.0
 40
0.0
 40
0.0
 40
0.0
 40
1.0
 40
1.0
 40
1.0
 40
2.0
 40
2.0
 40
2.0
 40
3.0
 40
3.0
 40
3.0
 40
4.0
 40
4.0
 40
4.0
 40
5.0
 40
5.0
 40
5.0
 40
6.0
 40
6.0
 40
6.0
 40
7.0
 40
7.0
 40
7.0
 40
8.0
 40
8.0
 40
8.0
 40
8.0
 10
67.44360078609048
 20
121.5732855598844
 10
67.44360078609048
 20
121.5732855598844
 10
67.43533255692589
 20
121.5732855598844
 10
67.43533255692589
 20
121.5732855598844
 10
67.43533255692589
 20
121.5732855598844
 10
66.95715330357322
 20
121.3152479080392
 10
66.95715330357322
 20
121.3152479080392
 10
66.95715330357322
 20
121.3152479080392
 10
66.88515080793149
 20
121.5984347569268
 10
66.88515080793149
 20
121.5984347569268
 10
66.88515080793149
 20
121.5984347569268
 10
67.48597546055906
 20
121.9202066752491
 10
67.48597546055906
 20
121.9202066752491
 10
67.48597546055906
 20
121.9202066752491
 10
67.80326875475058
 20
121.9202066752491
 10
67.80326875475058
 20
121.9202066752491
 10
67.80326875475058
 20
121.9202066752491
 10
67.80326875475058
 20
119.1699869493741
 10
67.80326875475058
 20
119.1699869493741
 10
67.80326875475058
 20
119.1699869493741
 10
67.44360078609048
 20
119.1699869493741
 10
67.44360078609048
 20
119.1699869493741
 10
67.44360078609048
 20
119.1699869493741
 10
67.44360078609048
 20
121.5732855598844
 10
67.44360078609048
 20
121.5732855598844
 97
        1
330
A5
 75
     2
 76
     1
 98
        1
 10
0.0
 20
0.0
450
        0
451
        0
460
0.0
461
0.0
452
        0
462
0.0
453
        0
470

  0
SPLINE
  5
A7
330
A1
100
AcDbEntity
  8
Livello 3
100
AcDbSpline
210
0.0
220
0.0
230
1.0
 70
     9
 71
     3
 72
    17
 73
    13
 74
     0
 42
0.000000001
 43
0.0000000001
 40
0.0
 40
0.0
 40
0.0
 40
0.0
 40
1.0
 40
1.0
 40
1.0
 40
2.0
 40
2.0
 40
2.0
 40
3.0
 40
3.0
 40
3.0
 40
4.0
 40
4.0
 40
4.0
 40
4.0
 10
69.23057181428958
 20
121.2601263802752
 30
0.0
 10
69.23057181428958
 20
120.9852077605523
 30
0.0
 10
69.43796656250163
 20
120.8370686546865
 30
0.0
 10
69.75525985669313
 20
120.7523193057494
 30
0.0
 10
69.99193791652979
 20
120.8329345401043
 30
0.0
 10
70.173838958151
 20
121.00208872843
 30
0.0
 10
70.173838958151
 20
121.2515136415621
 30
0.0
 10
70.173838958151
 20
121.4716552430696
 30
0.0
 10
70.04292532971149
 20
121.7000650737416
 30
0.0
 10
69.70875106764225
 20
121.7000650737416
 30
0.0
 10
69.39972600261535
 20
121.7000650737416
 30
0.0
 10
69.23057181428958
 20
121.4971489496604
 30
0.0
 10
69.23057181428958
 20
121.2601263802752
 30
0.0
  0
SPLINE
  5
A8
330
A1
100
AcDbEntity
  8
Livello 3
100
AcDbSpline
210
0.0
220
0.0
230
1.0
 70
     9
 71
     3
 72
    17
 73
    13
 74
     0
 42
0.000000001
 43
0.0000000001
 40
0.0
 40
0.0
 40
0.0
 40
0.0
 40
1.0
 40
1.0
 40
1.0
 40
2.0
 40
2.0
 40
2.0
 40
3.0
 40
3.0
 40
3.0
 40
4.0
 40
4.0
 40
4.0
 40
4.0
 10
70.25445419250583
 20
119.885188772112
 30
0.0
 10
70.25445419250583
 20
120.2193630341813
 30
0.0
 10
70.02156573770294
 20
120.3799044837939
 30
0.0
 10
69.64949542529597
 20
120.4856689151911
 30
0.0
 10
69.32772350697362
 20
120.3926513370893
 30
0.0
 10
69.15443520406556
 20
120.181122474295
 30
0.0
 10
69.15443520406556
 20
119.9189507078675
 30
0.0
 10
69.14168835077012
 20
119.6395534640137
 30
0.0
 10
69.35321721356448
 20
119.3942626654639
 30
0.0
 10
69.70427244351141
 20
119.3942626654639
 30
0.0
 10
70.03879121512921
 20
119.3942626654639
 30
0.0
 10
70.25445419250583
 20
119.601657413676
 30
0.0
 10
70.25445419250583
 20
119.885188772112
 30
0.0
  0
SPLINE
  5
A9
330
A1
100
AcDbEntity
  8
Livello 3
100
AcDbSpline
210
0.0
220
0.0
230
1.0
 70
     9
 71
     3
 72
    35
 73
    31
 74
     0
 42
0.000000001
 43
0.0000000001
 40
0.0
 40
0.0
 40
0.0
 40
0.0
 40
1.0
 40
1.0
 40
1.0
 40
2.0
 40
2.0
 40
2.0
 40
3.0
 40
3.0
 40
3.0
 40
4.0
 40
4.0
 40
4.0
 40
5.0
 40
5.0
 40
5.0
 40
6.0
 40
6.0
 40
6.0
 40
7.0
 40
7.0
 40
7.0
 40
8.0
 40
8.0
 40
8.0
 40
9.0
 40
9.0
 40
9.0
 40
10.0
 40
10.0
 40
10.0
 40
10.0
 10
68.77340764339692
 20
119.8679632946858
 30
0.0
 10
68.77340764339692
 20
120.2148844100504
 30
0.0
 10
68.98080239160897
 20
120.4605197181487
 30
0.0
 10
69.31945527780903
 20
120.6041801998837
 30
0.0
 10
69.31945527780903
 20
120.6041801998837
 30
0.0
 10
69.3149766536782
 20
120.6169270531791
 30
0.0
 10
69.3149766536782
 20
120.6169270531791
 30
0.0
 10
69.01043021278211
 20
120.7609320444625
 30
0.0
 10
68.8791720747941
 20
120.9979546138477
 30
0.0
 10
68.8791720747941
 20
121.2346326736844
 30
0.0
 10
68.8791720747941
 20
121.6704372525685
 30
0.0
 10
69.2474527821673
 20
121.9667154643
 30
0.0
 10
69.72976615010228
 20
121.9667154643
 30
0.0
 10
70.26272242167043
 20
121.9667154643
 30
0.0
 10
70.52937281222877
 20
121.6325412022307
 30
0.0
 10
70.52937281222877
 20
121.2897542014484
 30
0.0
 10
70.52937281222877
 20
121.0568657466455
 30
0.0
 10
70.41534015166701
 20
120.8074408335134
 30
0.0
 10
70.07668726546694
 20
120.6465548743522
 30
0.0
 10
70.07668726546694
 20
120.6465548743522
 30
0.0
 10
70.07668726546694
 20
120.6338080210568
 30
0.0
 10
70.07668726546694
 20
120.6338080210568
 30
0.0
 10
70.41947426624929
 20
120.4984157684865
 30
0.0
 10
70.63100312904365
 20
120.257259084519
 30
0.0
 10
70.63100312904365
 20
119.9230848224498
 30
0.0
 10
70.63100312904365
 20
119.4449055690971
 30
0.0
 10
70.22069225675038
 20
119.1234781603233
 30
0.0
 10
69.69600421434683
 20
119.1234781603233
 30
0.0
 10
69.1203287587616
 20
119.1234781603233
 30
0.0
 10
68.77340764339692
 20
119.4662651611056
 30
0.0
 10
68.77340764339692
 20
119.8679632946858
 30
0.0
  0
HATCH
  5
AA
330
A1
100
AcDbEntity
  8
Livello 3
 62
   250
420
  1907995
440
 33554687
100
AcDbHatch
 10
0.0
 20
0.0
 30
0.0
210
0.0
220
0.0
230
1.0
  2
SOLID
 70
     1
 71
     1
 91
        3
 92
        1
 93
        1
 72
     4
 94
        3
 73
     0
 74
     0
 95
       17
 96
       13
 40
0.0
 40
0.0
 40
0.0
 40
0.0
 40
1.0
 40
1.0
 40
1.0
 40
2.0
 40
2.0
 40
2.0
 40
3.0
 40
3.0
 40
3.0
 40
4.0
 40
4.0
 40
4.0
 40
4.0
 10
69.23057181428958
 20
121.2601263802752
 10
69.23057181428958
 20
120.9852077605523
 10
69.43796656250163
 20
120.8370686546865
 10
69.75525985669313
 20
120.7523193057494
 10
69.99193791652979
 20
120.8329345401043
 10
70.173838958151
 20
121.00208872843
 10
70.173838958151
 20
121.2515136415621
 10
70.173838958151
 20
121.4716552430696
 10
70.04292532971149
 20
121.7000650737416
 10
69.70875106764225
 20
121.7000650737416
 10
69.39972600261535
 20
121.7000650737416
 10
69.23057181428958
 20
121.4971489496604
 10
69.23057181428958
 20
121.2601263802752
 97
        1
330
A7
 92
        1
 93
        1
 72
     4
 94
        3
 73
     0
 74
     0
 95
       17
 96
       13
 40
0.0
 40
0.0
 40
0.0
 40
0.0
 40
1.0
 40
1.0
 40
1.0
 40
2.0
 40
2.0
 40
2.0
 40
3.0
 40
3.0
 40
3.0
 40
4.0
 40
4.0
 40
4.0
 40
4.0
 10
70.25445419250583
 20
119.885188772112
 10
70.25445419250583
 20
120.2193630341813
 10
70.02156573770294
 20
120.3799044837939
 10
69.64949542529597
 20
120.4856689151911
 10
69.32772350697362
 20
120.3926513370893
 10
69.15443520406556
 20
120.181122474295
 10
69.15443520406556
 20
119.9189507078675
 10
69.14168835077012
 20
119.6395534640137
 10
69.35321721356448
 20
119.3942626654639
 10
69.70427244351141
 20
119.3942626654639
 10
70.03879121512921
 20
119.3942626654639
 10
70.25445419250583
 20
119.601657413676
 10
70.25445419250583
 20
119.885188772112
 97
        1
330
A8
 92
        1
 93
        1
 72
     4
 94
        3
 73
     0
 74
     0
 95
       35
 96
       31
 40
0.0
 40
0.0
 40
0.0
 40
0.0
 40
1.0
 40
1.0
 40
1.0
 40
2.0
 40
2.0
 40
2.0
 40
3.0
 40
3.0
 40
3.0
 40
4.0
 40
4.0
 40
4.0
 40
5.0
 40
5.0
 40
5.0
 40
6.0
 40
6.0
 40
6.0
 40
7.0
 40
7.0
 40
7.0
 40
8.0
 40
8.0
 40
8.0
 40
9.0
 40
9.0
 40
9.0
 40
10.0
 40
10.0
 40
10.0
 40
10.0
 10
68.77340764339692
 20
119.8679632946858
 10
68.77340764339692
 20
120.2148844100504
 10
68.98080239160897
 20
120.4605197181487
 10
69.31945527780903
 20
120.6041801998837
 10
69.31945527780903
 20
120.6041801998837
 10
69.3149766536782
 20
120.6169270531791
 10
69.3149766536782
 20
120.6169270531791
 10
69.01043021278211
 20
120.7609320444625
 10
68.8791720747941
 20
120.9979546138477
 10
68.8791720747941
 20
121.2346326736844
 10
68.8791720747941
 20
121.6704372525685
 10
69.2474527821673
 20
121.9667154643
 10
69.72976615010228
 20
121.9667154643
 10
70.26272242167043
 20
121.9667154643
 10
70.52937281222877
 20
121.6325412022307
 10
70.52937281222877
 20
121.2897542014484
 10
70.52937281222877
 20
121.0568657466455
 10
70.41534015166701
 20
120.8074408335134
 10
70.07668726546694
 20
120.6465548743522
 10
70.07668726546694
 20
120.6465548743522
 10
70.07668726546694
 20
120.6338080210568
 10
70.07668726546694
 20
120.6338080210568
 10
70.41947426624929
 20
120.4984157684865
 10
70.63100312904365
 20
120.257259084519
 10
70.63100312904365
 20
119.9230848224498
 10
70.63100312904365
 20
119.4449055690971
 10
70.22069225675038
 20
119.1234781603233
 10
69.69600421434683
 20
119.1234781603233
 10
69.1203287587616
 20
119.1234781603233
 10
68.77340764339692
 20
119.4662651611056
 10
68.77340764339692
 20
119.8679632946858
 97
        1
330
A9
 75
     2
 76
     1
 98
        1
 10
0.0
 20
0.0
450
        0
451
        0
460
0.0
461
0.0
452
        0
462
0.0
453
        0
470

  0
SPLINE
  5
AB
330
A1
100
AcDbEntity
  8
Livello 3
100
AcDbSpline
210
0.0
220
0.0
230
1.0
 70
    11
 71
     3
 72
    50
 73
    46
 74
     0
 42
0.000000001
 43
0.0000000001
 40
0.0
 40
0.0
 40
0.0
 40
0.0
 40
1.0
 40
1.0
 40
1.0
 40
2.0
 40
2.0
 40
2.0
 40
3.0
 40
3.0
 40
3.0
 40
4.0
 40
4.0
 40
4.0
 40
5.0
 40
5.0
 40
5.0
 40
6.0
 40
6.0
 40
6.0
 40
7.0
 40
7.0
 40
7.0
 40
8.0
 40
8.0
 40
8.0
 40
9.0
 40
9.0
 40
9.0
 40
10.0
 40
10.0
 40
10.0
 40
11.0
 40
11.0
 40
11.0
 40
12.0
 40
12.0
 40
12.0
 40
13.0
 40
13.0
 40
13.0
 40
14.0
 40
14.0
 40
14.0
 40
15.0
 40
15.0
 40
15.0
 40
15.0
 10
72.62054577177543
 20
121.6070474956399
 30
0.0
 10
72.62054577177543
 20
121.6070474956399
 30
0.0
 10
71.57116968696832
 20
121.6070474956399
 30
0.0
 10
71.57116968696832
 20
121.6070474956399
 30
0.0
 10
71.57116968696832
 20
121.6070474956399
 30
0.0
 10
71.46540525557115
 20
120.9004584116151
 30
0.0
 10
71.46540525557115
 20
120.9004584116151
 30
0.0
 10
71.52879501249973
 20
120.9090711503283
 30
0.0
 10
71.58805065484604
 20
120.9173393794929
 30
0.0
 10
71.68968097166092
 20
120.9173393794929
 30
0.0
 10
71.90120983445526
 20
120.9173393794929
 30
0.0
 10
72.11273869724959
 20
120.870830590442
 30
0.0
 10
72.28189288557536
 20
120.7692002736271
 30
0.0
 10
72.49790037250051
 20
120.6465548743522
 30
0.0
 10
72.6753227899909
 20
120.409532304967
 30
0.0
 10
72.6753227899909
 20
120.0626111896024
 30
0.0
 10
72.6753227899909
 20
119.5255208034519
 30
0.0
 10
72.24813094981991
 20
119.1234781603233
 30
0.0
 10
71.65144041177464
 20
119.1234781603233
 30
0.0
 10
71.35102808546084
 20
119.1234781603233
 30
0.0
 10
71.09746905774645
 20
119.2082275092604
 30
0.0
 10
70.96621091975845
 20
119.292632348649
 30
0.0
 10
70.96621091975845
 20
119.292632348649
 30
0.0
 10
71.05922849786018
 20
119.5761637070851
 30
0.0
 10
71.05922849786018
 20
119.5761637070851
 30
0.0
 10
71.17360566797049
 20
119.5082953260257
 30
0.0
 10
71.39753687451174
 20
119.4238904866371
 30
0.0
 10
71.64730629719234
 20
119.4238904866371
 30
0.0
 10
71.99836152713929
 20
119.4238904866371
 30
0.0
 10
72.29877385345307
 20
119.6523003173091
 30
0.0
 10
72.29877385345307
 20
120.0205810246823
 30
0.0
 10
72.29463973887078
 20
120.3757703692116
 30
0.0
 10
72.05761716948559
 20
120.6296739064745
 30
0.0
 10
71.50777993003973
 20
120.6296739064745
 30
0.0
 10
71.35102808546084
 20
120.6296739064745
 30
0.0
 10
71.22838268618597
 20
120.6127929385968
 30
0.0
 10
71.12675236937109
 20
120.6000460853014
 30
0.0
 10
71.12675236937109
 20
120.6000460853014
 30
0.0
 10
71.30451929640996
 20
121.9202066752491
 30
0.0
 10
71.30451929640996
 20
121.9202066752491
 30
0.0
 10
71.30451929640996
 20
121.9202066752491
 30
0.0
 10
72.62054577177543
 20
121.9202066752491
 30
0.0
 10
72.62054577177543
 20
121.9202066752491
 30
0.0
 10
72.62054577177543
 20
121.9202066752491
 30
0.0
 10
72.62054577177543
 20
121.6070474956399
 30
0.0
 10
72.62054577177543
 20
121.6070474956399
 30
0.0
  0
HATCH
  5
AC
330
A1
100
AcDbEntity
  8
Livello 3
 62
   250
420
  1907995
440
 33554687
100
AcDbHatch
 10
0.0
 20
0.0
 30
0.0
210
0.0
220
0.0
230
1.0
  2
SOLID
 70
     1
 71
     1
 91
        1
 92
        1
 93
        1
 72
     4
 94
        3
 73
     0
 74
     0
 95
       50
 96
       46
 40
0.0
 40
0.0
 40
0.0
 40
0.0
 40
1.0
 40
1.0
 40
1.0
 40
2.0
 40
2.0
 40
2.0
 40
3.0
 40
3.0
 40
3.0
 40
4.0
 40
4.0
 40
4.0
 40
5.0
 40
5.0
 40
5.0
 40
6.0
 40
6.0
 40
6.0
 40
7.0
 40
7.0
 40
7.0
 40
8.0
 40
8.0
 40
8.0
 40
9.0
 40
9.0
 40
9.0
 40
10.0
 40
10.0
 40
10.0
 40
11.0
 40
11.0
 40
11.0
 40
12.0
 40
12.0
 40
12.0
 40
13.0
 40
13.0
 40
13.0
 40
14.0
 40
14.0
 40
14.0
 40
15.0
 40
15.0
 40
15.0
 40
15.0
 10
72.62054577177543
 20
121.6070474956399
 10
72.62054577177543
 20
121.6070474956399
 10
71.57116968696832
 20
121.6070474956399
 10
71.57116968696832
 20
121.6070474956399
 10
71.57116968696832
 20
121.6070474956399
 10
71.46540525557115
 20
120.9004584116151
 10
71.46540525557115
 20
120.9004584116151
 10
71.52879501249973
 20
120.9090711503283
 10
71.58805065484604
 20
120.9173393794929
 10
71.68968097166092
 20
120.9173393794929
 10
71.90120983445526
 20
120.9173393794929
 10
72.11273869724959
 20
120.870830590442
 10
72.28189288557536
 20
120.7692002736271
 10
72.49790037250051
 20
120.6465548743522
 10
72.6753227899909
 20
120.409532304967
 10
72.6753227899909
 20
120.0626111896024
 10
72.6753227899909
 20
119.5255208034519
 10
72.24813094981991
 20
119.1234781603233
 10
71.65144041177464
 20
119.1234781603233
 10
71.35102808546084
 20
119.1234781603233
 10
71.09746905774645
 20
119.2082275092604
 10
70.96621091975845
 20
119.292632348649
 10
70.96621091975845
 20
119.292632348649
 10
71.05922849786018
 20
119.5761637070851
 10
71.05922849786018
 20
119.5761637070851
 10
71.17360566797049
 20
119.5082953260257
 10
71.39753687451174
 20
119.4238904866371
 10
71.64730629719234
 20
119.4238904866371
 10
71.99836152713929
 20
119.4238904866371
 10
72.29877385345307
 20
119.6523003173091
 10
72.29877385345307
 20
120.0205810246823
 10
72.29463973887078
 20
120.3757703692116
 10
72.05761716948559
 20
120.6296739064745
 10
71.50777993003973
 20
120.6296739064745
 10
71.35102808546084
 20
120.6296739064745
 10
71.22838268618597
 20
120.6127929385968
 10
71.12675236937109
 20
120.6000460853014
 10
71.12675236937109
 20
120.6000460853014
 10
71.30451929640996
 20
121.9202066752491
 10
71.30451929640996
 20
121.9202066752491
 10
71.30451929640996
 20
121.9202066752491
 10
72.62054577177543
 20
121.9202066752491
 10
72.62054577177543
 20
121.9202066752491
 10
72.62054577177543
 20
121.9202066752491
 10
72.62054577177543
 20
121.6070474956399
 10
72.62054577177543
 20
121.6070474956399
 97
        1
330
AB
 75
     2
 76
     1
 98
        1
 10
0.0
 20
0.0
450
        0
451
        0
460
0.0
461
0.0
452
        0
462
0.0
453
        0
470

  0
SPLINE
  5
AD
330
A1
100
AcDbEntity
  8
Livello 3
100
AcDbSpline
210
0.0
220
0.0
230
1.0
 70
     9
 71
     3
 72
    80
 73
    76
 74
     0
 42
0.000000001
 43
0.0000000001
 40
0.0
 40
0.0
 40
0.0
 40
0.0
 40
1.0
 40
1.0
 40
1.0
 40
2.0
 40
2.0
 40
2.0
 40
3.0
 40
3.0
 40
3.0
 40
4.0
 40
4.0
 40
4.0
 40
5.0
 40
5.0
 40
5.0
 40
6.0
 40
6.0
 40
6.0
 40
7.0
 40
7.0
 40
7.0
 40
8.0
 40
8.0
 40
8.0
 40
9.0
 40
9.0
 40
9.0
 40
10.0
 40
10.0
 40
10.0
 40
11.0
 40
11.0
 40
11.0
 40
12.0
 40
12.0
 40
12.0
 40
13.0
 40
13.0
 40
13.0
 40
14.0
 40
14.0
 40
14.0
 40
15.0
 40
15.0
 40
15.0
 40
16.0
 40
16.0
 40
16.0
 40
17.0
 40
17.0
 40
17.0
 40
18.0
 40
18.0
 40
18.0
 40
19.0
 40
19.0
 40
19.0
 40
20.0
 40
20.0
 40
20.0
 40
21.0
 40
21.0
 40
21.0
 40
22.0
 40
22.0
 40
22.0
 40
23.0
 40
23.0
 40
23.0
 40
24.0
 40
24.0
 40
24.0
 40
25.0
 40
25.0
 40
25.0
 40
25.0
 10
74.16670462555554
 20
120.66343584223
 30
0.0
 10
74.16670462555554
 20
120.8749647050243
 30
0.0
 10
74.16222600142472
 20
121.0485975174809
 30
0.0
 10
74.1494791481293
 20
121.2177517058067
 30
0.0
 10
74.1494791481293
 20
121.2177517058067
 30
0.0
 10
74.47538518103392
 20
121.2177517058067
 30
0.0
 10
74.47538518103392
 20
121.2177517058067
 30
0.0
 10
74.47538518103392
 20
121.2177517058067
 30
0.0
 10
74.49226614891165
 20
120.8877115583197
 30
0.0
 10
74.49226614891165
 20
120.8877115583197
 30
0.0
 10
74.49226614891165
 20
120.8877115583197
 30
0.0
 10
74.50501300220707
 20
120.8877115583197
 30
0.0
 10
74.50501300220707
 20
120.8877115583197
 30
0.0
 10
74.61939017231737
 20
121.0823594532363
 30
0.0
 10
74.80955944310315
 20
121.2642604948575
 30
0.0
 10
75.14821232930323
 20
121.2642604948575
 30
0.0
 10
75.42726506360846
 20
121.2642604948575
 30
0.0
 10
75.63879392640281
 20
121.0951063065318
 30
0.0
 10
75.72767738992225
 20
120.8539496225643
 30
0.0
 10
75.72767738992225
 20
120.8539496225643
 30
0.0
 10
75.73629012863538
 20
120.8539496225643
 30
0.0
 10
75.73629012863538
 20
120.8539496225643
 30
0.0
 10
75.79967988556396
 20
120.9683267926746
 30
0.0
 10
75.87995061037029
 20
121.0568657466455
 30
0.0
 10
75.96469995930744
 20
121.1206000131226
 30
0.0
 10
76.08734535858234
 20
121.2136175912243
 30
0.0
 10
76.22273761115265
 20
121.2642604948575
 30
0.0
 10
76.41738550606927
 20
121.2642604948575
 30
0.0
 10
76.68817001120991
 20
121.2642604948575
 30
0.0
 10
77.09021265433856
 20
121.0864935678185
 30
0.0
 10
77.09021265433856
 20
120.3757703692116
 30
0.0
 10
77.09021265433856
 20
120.3757703692116
 30
0.0
 10
77.09021265433856
 20
119.1699869493741
 30
0.0
 10
77.09021265433856
 20
119.1699869493741
 30
0.0
 10
77.09021265433856
 20
119.1699869493741
 30
0.0
 10
76.72641057109619
 20
119.1699869493741
 30
0.0
 10
76.72641057109619
 20
119.1699869493741
 30
0.0
 10
76.72641057109619
 20
119.1699869493741
 30
0.0
 10
76.72641057109619
 20
120.3292615801607
 30
0.0
 10
76.72641057109619
 20
120.3292615801607
 30
0.0
 10
76.72641057109619
 20
120.7226914845763
 30
0.0
 10
76.58240557981272
 20
120.9597140539614
 30
0.0
 10
76.28199325349895
 20
120.9597140539614
 30
0.0
 10
76.07046439070463
 20
120.9597140539614
 30
0.0
 10
75.90544431696113
 20
120.8033067189311
 30
0.0
 10
75.84205456003255
 20
120.6210611677614
 30
0.0
 10
75.82517359215483
 20
120.5704182641282
 30
0.0
 10
75.8124267388594
 20
120.5028943926173
 30
0.0
 10
75.8124267388594
 20
120.4350260115579
 30
0.0
 10
75.8124267388594
 20
120.4350260115579
 30
0.0
 10
75.8124267388594
 20
119.1699869493741
 30
0.0
 10
75.8124267388594
 20
119.1699869493741
 30
0.0
 10
75.8124267388594
 20
119.1699869493741
 30
0.0
 10
75.44862465561703
 20
119.1699869493741
 30
0.0
 10
75.44862465561703
 20
119.1699869493741
 30
0.0
 10
75.44862465561703
 20
119.1699869493741
 30
0.0
 10
75.44862465561703
 20
120.3971299612202
 30
0.0
 10
75.44862465561703
 20
120.3971299612202
 30
0.0
 10
75.44862465561703
 20
120.7226914845763
 30
0.0
 10
75.30461966433356
 20
120.9597140539614
 30
0.0
 10
75.02108830589751
 20
120.9597140539614
 30
0.0
 10
74.78854436064314
 20
120.9597140539614
 30
0.0
 10
74.61939017231737
 20
120.773678897758
 30
0.0
 10
74.56013452997108
 20
120.5872992320059
 30
0.0
 10
74.53877493796253
 20
120.5325222137905
 30
0.0
 10
74.53050670879794
 20
120.4687879473133
 30
0.0
 10
74.53050670879794
 20
120.4053981903848
 30
0.0
 10
74.53050670879794
 20
120.4053981903848
 30
0.0
 10
74.53050670879794
 20
119.1699869493741
 30
0.0
 10
74.53050670879794
 20
119.1699869493741
 30
0.0
 10
74.53050670879794
 20
119.1699869493741
 30
0.0
 10
74.16670462555554
 20
119.1699869493741
 30
0.0
 10
74.16670462555554
 20
119.1699869493741
 30
0.0
 10
74.16670462555554
 20
119.1699869493741
 30
0.0
 10
74.16670462555554
 20
120.66343584223
 30
0.0
 10
74.16670462555554
 20
120.66343584223
 30
0.0
  0
HATCH
  5
AE
330
A1
100
AcDbEntity
  8
Livello 3
 62
   250
420
  1907995
440
 33554687
100
AcDbHatch
 10
0.0
 20
0.0
 30
0.0
210
0.0
220
0.0
230
1.0
  2
SOLID
 70
     1
 71
     1
 91
        1
 92
        1
 93
        1
 72
     4
 94
        3
 73
     0
 74
     0
 95
       80
 96
       76
 40
0.0
 40
0.0
 40
0.0
 40
0.0
 40
1.0
 40
1.0
 40
1.0
 40
2.0
 40
2.0
 40
2.0
 40
3.0
 40
3.0
 40
3.0
 40
4.0
 40
4.0
 40
4.0
 40
5.0
 40
5.0
 40
5.0
 40
6.0
 40
6.0
 40
6.0
 40
7.0
 40
7.0
 40
7.0
 40
8.0
 40
8.0
 40
8.0
 40
9.0
 40
9.0
 40
9.0
 40
10.0
 40
10.0
 40
10.0
 40
11.0
 40
11.0
 40
11.0
 40
12.0
 40
12.0
 40
12.0
 40
13.0
 40
13.0
 40
13.0
 40
14.0
 40
14.0
 40
14.0
 40
15.0
 40
15.0
 40
15.0
 40
16.0
 40
16.0
 40
16.0
 40
17.0
 40
17.0
 40
17.0
 40
18.0
 40
18.0
 40
18.0
 40
19.0
 40
19.0
 40
19.0
 40
20.0
 40
20.0
 40
20.0
 40
21.0
 40
21.0
 40
21.0
 40
22.0
 40
22.0
 40
22.0
 40
23.0
 40
23.0
 40
23.0
 40
24.0
 40
24.0
 40
24.0
 40
25.0
 40
25.0
 40
25.0
 40
25.0
 10
74.16670462555554
 20
120.66343584223
 10
74.16670462555554
 20
120.8749647050243
 10
74.16222600142472
 20
121.0485975174809
 10
74.1494791481293
 20
121.2177517058067
 10
74.1494791481293
 20
121.2177517058067
 10
74.47538518103392
 20
121.2177517058067
 10
74.47538518103392
 20
121.2177517058067
 10
74.47538518103392
 20
121.2177517058067
 10
74.49226614891165
 20
120.8877115583197
 10
74.49226614891165
 20
120.8877115583197
 10
74.49226614891165
 20
120.8877115583197
 10
74.50501300220707
 20
120.8877115583197
 10
74.50501300220707
 20
120.8877115583197
 10
74.61939017231737
 20
121.0823594532363
 10
74.80955944310315
 20
121.2642604948575
 10
75.14821232930323
 20
121.2642604948575
 10
75.42726506360846
 20
121.2642604948575
 10
75.63879392640281
 20
121.0951063065318
 10
75.72767738992225
 20
120.8539496225643
 10
75.72767738992225
 20
120.8539496225643
 10
75.73629012863538
 20
120.8539496225643
 10
75.73629012863538
 20
120.8539496225643
 10
75.79967988556396
 20
120.9683267926746
 10
75.87995061037029
 20
121.0568657466455
 10
75.96469995930744
 20
121.1206000131226
 10
76.08734535858234
 20
121.2136175912243
 10
76.22273761115265
 20
121.2642604948575
 10
76.41738550606927
 20
121.2642604948575
 10
76.68817001120991
 20
121.2642604948575
 10
77.09021265433856
 20
121.0864935678185
 10
77.09021265433856
 20
120.3757703692116
 10
77.09021265433856
 20
120.3757703692116
 10
77.09021265433856
 20
119.1699869493741
 10
77.09021265433856
 20
119.1699869493741
 10
77.09021265433856
 20
119.1699869493741
 10
76.72641057109619
 20
119.1699869493741
 10
76.72641057109619
 20
119.1699869493741
 10
76.72641057109619
 20
119.1699869493741
 10
76.72641057109619
 20
120.3292615801607
 10
76.72641057109619
 20
120.3292615801607
 10
76.72641057109619
 20
120.7226914845763
 10
76.58240557981272
 20
120.9597140539614
 10
76.28199325349895
 20
120.9597140539614
 10
76.07046439070463
 20
120.9597140539614
 10
75.90544431696113
 20
120.8033067189311
 10
75.84205456003255
 20
120.6210611677614
 10
75.82517359215483
 20
120.5704182641282
 10
75.8124267388594
 20
120.5028943926173
 10
75.8124267388594
 20
120.4350260115579
 10
75.8124267388594
 20
120.4350260115579
 10
75.8124267388594
 20
119.1699869493741
 10
75.8124267388594
 20
119.1699869493741
 10
75.8124267388594
 20
119.1699869493741
 10
75.44862465561703
 20
119.1699869493741
 10
75.44862465561703
 20
119.1699869493741
 10
75.44862465561703
 20
119.1699869493741
 10
75.44862465561703
 20
120.3971299612202
 10
75.44862465561703
 20
120.3971299612202
 10
75.44862465561703
 20
120.7226914845763
 10
75.30461966433356
 20
120.9597140539614
 10
75.02108830589751
 20
120.9597140539614
 10
74.78854436064314
 20
120.9597140539614
 10
74.61939017231737
 20
120.773678897758
 10
74.56013452997108
 20
120.5872992320059
 10
74.53877493796253
 20
120.5325222137905
 10
74.53050670879794
 20
120.4687879473133
 10
74.53050670879794
 20
120.4053981903848
 10
74.53050670879794
 20
120.4053981903848
 10
74.53050670879794
 20
119.1699869493741
 10
74.53050670879794
 20
119.1699869493741
 10
74.53050670879794
 20
119.1699869493741
 10
74.16670462555554
 20
119.1699869493741
 10
74.16670462555554
 20
119.1699869493741
 10
74.16670462555554
 20
119.1699869493741
 10
74.16670462555554
 20
120.66343584223
 10
74.16670462555554
 20
120.66343584223
 97
        1
330
AD
 75
     2
 76
     1
 98
        1
 10
0.0
 20
0.0
450
        0
451
        0
460
0.0
461
0.0
452
        0
462
0.0
453
        0
470

  0
SPLINE
  5
AF
330
A1
100
AcDbEntity
  8
Livello 3
100
AcDbSpline
210
0.0
220
0.0
230
1.0
 70
     9
 71
     3
 72
    80
 73
    76
 74
     0
 42
0.000000001
 43
0.0000000001
 40
0.0
 40
0.0
 40
0.0
 40
0.0
 40
1.0
 40
1.0
 40
1.0
 40
2.0
 40
2.0
 40
2.0
 40
3.0
 40
3.0
 40
3.0
 40
4.0
 40
4.0
 40
4.0
 40
5.0
 40
5.0
 40
5.0
 40
6.0
 40
6.0
 40
6.0
 40
7.0
 40
7.0
 40
7.0
 40
8.0
 40
8.0
 40
8.0
 40
9.0
 40
9.0
 40
9.0
 40
10.0
 40
10.0
 40
10.0
 40
11.0
 40
11.0
 40
11.0
 40
12.0
 40
12.0
 40
12.0
 40
13.0
 40
13.0
 40
13.0
 40
14.0
 40
14.0
 40
14.0
 40
15.0
 40
15.0
 40
15.0
 40
16.0
 40
16.0
 40
16.0
 40
17.0
 40
17.0
 40
17.0
 40
18.0
 40
18.0
 40
18.0
 40
19.0
 40
19.0
 40
19.0
 40
20.0
 40
20.0
 40
20.0
 40
21.0
 40
21.0
 40
21.0
 40
22.0
 40
22.0
 40
22.0
 40
23.0
 40
23.0
 40
23.0
 40
24.0
 40
24.0
 40
24.0
 40
25.0
 40
25.0
 40
25.0
 40
25.0
 10
77.69723847883958
 20
120.66343584223
 30
0.0
 10
77.69723847883958
 20
120.8749647050243
 30
0.0
 10
77.69275985470875
 20
121.0485975174809
 30
0.0
 10
77.68001300141333
 20
121.2177517058067
 30
0.0
 10
77.68001300141333
 20
121.2177517058067
 30
0.0
 10
78.00591903431797
 20
121.2177517058067
 30
0.0
 10
78.00591903431797
 20
121.2177517058067
 30
0.0
 10
78.00591903431797
 20
121.2177517058067
 30
0.0
 10
78.02280000219569
 20
120.8877115583197
 30
0.0
 10
78.02280000219569
 20
120.8877115583197
 30
0.0
 10
78.02280000219569
 20
120.8877115583197
 30
0.0
 10
78.03554685549112
 20
120.8877115583197
 30
0.0
 10
78.03554685549112
 20
120.8877115583197
 30
0.0
 10
78.1499240256014
 20
121.0823594532363
 30
0.0
 10
78.34009329638721
 20
121.2642604948575
 30
0.0
 10
78.67874618258726
 20
121.2642604948575
 30
0.0
 10
78.9577989168925
 20
121.2642604948575
 30
0.0
 10
79.16932777968684
 20
121.0951063065318
 30
0.0
 10
79.25821124320631
 20
120.8539496225643
 30
0.0
 10
79.25821124320631
 20
120.8539496225643
 30
0.0
 10
79.26682398191942
 20
120.8539496225643
 30
0.0
 10
79.26682398191942
 20
120.8539496225643
 30
0.0
 10
79.330213738848
 20
120.9683267926746
 30
0.0
 10
79.41048446365432
 20
121.0568657466455
 30
0.0
 10
79.49523381259147
 20
121.1206000131226
 30
0.0
 10
79.61787921186638
 20
121.2136175912243
 30
0.0
 10
79.75327146443667
 20
121.2642604948575
 30
0.0
 10
79.94791935935331
 20
121.2642604948575
 30
0.0
 10
80.21870386449394
 20
121.2642604948575
 30
0.0
 10
80.6207465076226
 20
121.0864935678185
 30
0.0
 10
80.6207465076226
 20
120.3757703692116
 30
0.0
 10
80.6207465076226
 20
120.3757703692116
 30
0.0
 10
80.6207465076226
 20
119.1699869493741
 30
0.0
 10
80.6207465076226
 20
119.1699869493741
 30
0.0
 10
80.6207465076226
 20
119.1699869493741
 30
0.0
 10
80.25694442438021
 20
119.1699869493741
 30
0.0
 10
80.25694442438021
 20
119.1699869493741
 30
0.0
 10
80.25694442438021
 20
119.1699869493741
 30
0.0
 10
80.25694442438021
 20
120.3292615801607
 30
0.0
 10
80.25694442438021
 20
120.3292615801607
 30
0.0
 10
80.25694442438021
 20
120.7226914845763
 30
0.0
 10
80.11293943309675
 20
120.9597140539614
 30
0.0
 10
79.81252710678298
 20
120.9597140539614
 30
0.0
 10
79.60099824398864
 20
120.9597140539614
 30
0.0
 10
79.43597817024516
 20
120.8033067189311
 30
0.0
 10
79.37258841331658
 20
120.6210611677614
 30
0.0
 10
79.35570744543884
 20
120.5704182641282
 30
0.0
 10
79.34296059214344
 20
120.5028943926173
 30
0.0
 10
79.34296059214344
 20
120.4350260115579
 30
0.0
 10
79.34296059214344
 20
120.4350260115579
 30
0.0
 10
79.34296059214344
 20
119.1699869493741
 30
0.0
 10
79.34296059214344
 20
119.1699869493741
 30
0.0
 10
79.34296059214344
 20
119.1699869493741
 30
0.0
 10
78.97915850890104
 20
119.1699869493741
 30
0.0
 10
78.97915850890104
 20
119.1699869493741
 30
0.0
 10
78.97915850890104
 20
119.1699869493741
 30
0.0
 10
78.97915850890104
 20
120.3971299612202
 30
0.0
 10
78.97915850890104
 20
120.3971299612202
 30
0.0
 10
78.97915850890104
 20
120.7226914845763
 30
0.0
 10
78.8351535176176
 20
120.9597140539614
 30
0.0
 10
78.55162215918155
 20
120.9597140539614
 30
0.0
 10
78.31907821392718
 20
120.9597140539614
 30
0.0
 10
78.1499240256014
 20
120.773678897758
 30
0.0
 10
78.09066838325513
 20
120.5872992320059
 30
0.0
 10
78.06930879124656
 20
120.5325222137905
 30
0.0
 10
78.06104056208197
 20
120.4687879473133
 30
0.0
 10
78.06104056208197
 20
120.4053981903848
 30
0.0
 10
78.06104056208197
 20
120.4053981903848
 30
0.0
 10
78.06104056208197
 20
119.1699869493741
 30
0.0
 10
78.06104056208197
 20
119.1699869493741
 30
0.0
 10
78.06104056208197
 20
119.1699869493741
 30
0.0
 10
77.69723847883958
 20
119.1699869493741
 30
0.0
 10
77.69723847883958
 20
119.1699869493741
 30
0.0
 10
77.69723847883958
 20
119.1699869493741
 30
0.0
 10
77.69723847883958
 20
120.66343584223
 30
0.0
 10
77.69723847883958
 20
120.66343584223
 30
0.0
  0
HATCH
  5
B0
330
A1
100
AcDbEntity
  8
Livello 3
 62
   250
420
  1907995
440
 33554687
100
AcDbHatch
 10
0.0
 20
0.0
 30
0.0
210
0.0
220
0.0
230
1.0
  2
SOLID
 70
     1
 71
     1
 91
        1
 92
        1
 93
        1
 72
     4
 94
        3
 73
     0
 74
     0
 95
       80
 96
       76
 40
0.0
 40
0.0
 40
0.0
 40
0.0
 40
1.0
 40
1.0
 40
1.0
 40
2.0
 40
2.0
 40
2.0
 40
3.0
 40
3.0
 40
3.0
 40
4.0
 40
4.0
 40
4.0
 40
5.0
 40
5.0
 40
5.0
 40
6.0
 40
6.0
 40
6.0
 40
7.0
 40
7.0
 40
7.0
 40
8.0
 40
8.0
 40
8.0
 40
9.0
 40
9.0
 40
9.0
 40
10.0
 40
10.0
 40
10.0
 40
11.0
 40
11.0
 40
11.0
 40
12.0
 40
12.0
 40
12.0
 40
13.0
 40
13.0
 40
13.0
 40
14.0
 40
14.0
 40
14.0
 40
15.0
 40
15.0
 40
15.0
 40
16.0
 40
16.0
 40
16.0
 40
17.0
 40
17.0
 40
17.0
 40
18.0
 40
18.0
 40
18.0
 40
19.0
 40
19.0
 40
19.0
 40
20.0
 40
20.0
 40
20.0
 40
21.0
 40
21.0
 40
21.0
 40
22.0
 40
22.0
 40
22.0
 40
23.0
 40
23.0
 40
23.0
 40
24.0
 40
24.0
 40
24.0
 40
25.0
 40
25.0
 40
25.0
 40
25.0
 10
77.69723847883958
 20
120.66343584223
 10
77.69723847883958
 20
120.8749647050243
 10
77.69275985470875
 20
121.0485975174809
 10
77.68001300141333
 20
121.2177517058067
 10
77.68001300141333
 20
121.2177517058067
 10
78.00591903431797
 20
121.2177517058067
 10
78.00591903431797
 20
121.2177517058067
 10
78.00591903431797
 20
121.2177517058067
 10
78.02280000219569
 20
120.8877115583197
 10
78.02280000219569
 20
120.8877115583197
 10
78.02280000219569
 20
120.8877115583197
 10
78.03554685549112
 20
120.8877115583197
 10
78.03554685549112
 20
120.8877115583197
 10
78.1499240256014
 20
121.0823594532363
 10
78.34009329638721
 20
121.2642604948575
 10
78.67874618258726
 20
121.2642604948575
 10
78.9577989168925
 20
121.2642604948575
 10
79.16932777968684
 20
121.0951063065318
 10
79.25821124320631
 20
120.8539496225643
 10
79.25821124320631
 20
120.8539496225643
 10
79.26682398191942
 20
120.8539496225643
 10
79.26682398191942
 20
120.8539496225643
 10
79.330213738848
 20
120.9683267926746
 10
79.41048446365432
 20
121.0568657466455
 10
79.49523381259147
 20
121.1206000131226
 10
79.61787921186638
 20
121.2136175912243
 10
79.75327146443667
 20
121.2642604948575
 10
79.94791935935331
 20
121.2642604948575
 10
80.21870386449394
 20
121.2642604948575
 10
80.6207465076226
 20
121.0864935678185
 10
80.6207465076226
 20
120.3757703692116
 10
80.6207465076226
 20
120.3757703692116
 10
80.6207465076226
 20
119.1699869493741
 10
80.6207465076226
 20
119.1699869493741
 10
80.6207465076226
 20
119.1699869493741
 10
80.25694442438021
 20
119.1699869493741
 10
80.25694442438021
 20
119.1699869493741
 10
80.25694442438021
 20
119.1699869493741
 10
80.25694442438021
 20
120.3292615801607
 10
80.25694442438021
 20
120.3292615801607
 10
80.25694442438021
 20
120.7226914845763
 10
80.11293943309675
 20
120.9597140539614
 10
79.81252710678298
 20
120.9597140539614
 10
79.60099824398864
 20
120.9597140539614
 10
79.43597817024516
 20
120.8033067189311
 10
79.37258841331658
 20
120.6210611677614
 10
79.35570744543884
 20
120.5704182641282
 10
79.34296059214344
 20
120.5028943926173
 10
79.34296059214344
 20
120.4350260115579
 10
79.34296059214344
 20
120.4350260115579
 10
79.34296059214344
 20
119.1699869493741
 10
79.34296059214344
 20
119.1699869493741
 10
79.34296059214344
 20
119.1699869493741
 10
78.97915850890104
 20
119.1699869493741
 10
78.97915850890104
 20
119.1699869493741
 10
78.97915850890104
 20
119.1699869493741
 10
78.97915850890104
 20
120.3971299612202
 10
78.97915850890104
 20
120.3971299612202
 10
78.97915850890104
 20
120.7226914845763
 10
78.8351535176176
 20
120.9597140539614
 10
78.55162215918155
 20
120.9597140539614
 10
78.31907821392718
 20
120.9597140539614
 10
78.1499240256014
 20
120.773678897758
 10
78.09066838325513
 20
120.5872992320059
 10
78.06930879124656
 20
120.5325222137905
 10
78.06104056208197
 20
120.4687879473133
 10
78.06104056208197
 20
120.4053981903848
 10
78.06104056208197
 20
120.4053981903848
 10
78.06104056208197
 20
119.1699869493741
 10
78.06104056208197
 20
119.1699869493741
 10
78.06104056208197
 20
119.1699869493741
 10
77.69723847883958
 20
119.1699869493741
 10
77.69723847883958
 20
119.1699869493741
 10
77.69723847883958
 20
119.1699869493741
 10
77.69723847883958
 20
120.66343584223
 10
77.69723847883958
 20
120.66343584223
 97
        1
330
AF
 75
     2
 76
     1
 98
        1
 10
0.0
 20
0.0
450
        0
451
        0
460
0.0
461
0.0
452
        0
462
0.0
453
        0
470

  0
ENDBLK
  5
A4
330
A1
100
AcDbEntity
  8
0
100
AcDbBlockEnd
  0
BLOCK
  5
B3
330
B1
100
AcDbEntity
  8
0
100
AcDbBlockBegin
  2
Block_4
 70
     0
 10
0.0
 20
0.0
 30
0.0
  3
Block_4
  1

  0
INSERT
  5
B6
330
B1
100
AcDbEntity
  8
Livello 3
100
AcDbBlockReference
  2
Block_5
 10
0.0
 20
0.0
 30
0.0
  0
ENDBLK
  5
B4
330
B1
100
AcDbEntity
  8
0
100
AcDbBlockEnd
  0
BLOCK
  5
B7
330
B5
100
AcDbEntity
  8
0
100
AcDbBlockBegin
  2
Block_5
 70
     0
 10
0.0
 20
0.0
 30
0.0
  3
Block_5
  1

  0
SPLINE
  5
B9
330
B5
100
AcDbEntity
  8
Livello 3
100
AcDbSpline
210
0.0
220
0.0
230
1.0
 70
    11
 71
     3
 72
    20
 73
    16
 74
     0
 42
0.000000001
 43
0.0000000001
 40
0.0
 40
0.0
 40
0.0
 40
0.0
 40
1.0
 40
1.0
 40
1.0
 40
2.0
 40
2.0
 40
2.0
 40
3.0
 40
3.0
 40
3.0
 40
4.0
 40
4.0
 40
4.0
 40
5.0
 40
5.0
 40
5.0
 40
5.0
 10
173.4626247396204
 20
177.0593044262213
 30
0.0
 10
173.4626247396204
 20
177.4527343306368
 30
0.0
 10
173.2383490235307
 20
177.689756900022
 30
0.0
 10
172.8955620227483
 20
177.689756900022
 30
0.0
 10
172.6712863066586
 20
177.689756900022
 30
0.0
 10
172.4642360679951
 20
177.5502305328694
 30
0.0
 10
172.3626057511802
 20
177.3511040138219
 30
0.0
 10
172.3371120445893
 20
177.3087293393534
 30
0.0
 10
172.3202310767115
 20
177.2539523211379
 30
0.0
 10
172.3202310767115
 20
177.1860839400785
 30
0.0
 10
172.3288438154247
 20
176.7333983933166
 30
0.0
 10
172.5358940540882
 20
176.3992241312474
 30
0.0
 10
172.9251898439215
 20
176.3992241312474
 30
0.0
 10
173.2469617622438
 20
176.3992241312474
 30
0.0
 10
173.4626247396204
 20
176.6658745218057
 30
0.0
 10
173.4626247396204
 20
177.0593044262213
 30
0.0
  0
SPLINE
  5
BA
330
B5
100
AcDbEntity
  8
Livello 3
100
AcDbSpline
210
0.0
220
0.0
230
1.0
 70
     9
 71
     3
 72
    38
 73
    34
 74
     0
 42
0.000000001
 43
0.0000000001
 40
0.0
 40
0.0
 40
0.0
 40
0.0
 40
1.0
 40
1.0
 40
1.0
 40
2.0
 40
2.0
 40
2.0
 40
3.0
 40
3.0
 40
3.0
 40
4.0
 40
4.0
 40
4.0
 40
5.0
 40
5.0
 40
5.0
 40
6.0
 40
6.0
 40
6.0
 40
7.0
 40
7.0
 40
7.0
 40
8.0
 40
8.0
 40
8.0
 40
9.0
 40
9.0
 40
9.0
 40
10.0
 40
10.0
 40
10.0
 40
11.0
 40
11.0
 40
11.0
 40
11.0
 10
173.5683891710176
 20
178.6457708971788
 30
0.0
 10
173.4922525607936
 20
178.6502495213096
 30
0.0
 10
173.394756358561
 20
178.6457708971788
 30
0.0
 10
173.2889919271638
 20
178.6288899293011
 30
0.0
 10
172.7053927519625
 20
178.5317382366171
 30
0.0
 10
172.3963676869356
 20
178.1042018868975
 30
0.0
 10
172.332977930007
 20
177.6515163401357
 30
0.0
 10
172.332977930007
 20
177.6515163401357
 30
0.0
 10
172.3457247833025
 20
177.6515163401357
 30
0.0
 10
172.3457247833025
 20
177.6515163401357
 30
0.0
 10
172.4766384117419
 20
177.8251491525923
 30
0.0
 10
172.7053927519625
 20
177.9688096343272
 30
0.0
 10
173.0099391928586
 20
177.9688096343272
 30
0.0
 10
173.4963866753759
 20
177.9688096343272
 30
0.0
 10
173.8391736761583
 20
177.6177544043803
 30
0.0
 10
173.8391736761583
 20
177.0803195086813
 30
0.0
 10
173.8391736761583
 20
176.5769910582863
 30
0.0
 10
173.4963866753759
 20
176.111558658229
 30
0.0
 10
172.9251898439215
 20
176.111558658229
 30
0.0
 10
172.3371120445893
 20
176.111558658229
 30
0.0
 10
171.9522948788869
 20
176.5683783195732
 30
0.0
 10
171.9522948788869
 20
177.283580142311
 30
0.0
 10
171.9522948788869
 20
177.8251491525923
 30
0.0
 10
172.1469427738035
 20
178.2523409927633
 30
0.0
 10
172.4177272789442
 20
178.5231254979039
 30
0.0
 10
172.6461371096162
 20
178.7474012139936
 30
0.0
 10
172.9506835505123
 20
178.8869275811463
 30
0.0
 10
173.297604665877
 20
178.9293022556149
 30
0.0
 10
173.4075032118564
 20
178.9461832234926
 30
0.0
 10
173.5008652995067
 20
178.9506618476234
 30
0.0
 10
173.5683891710176
 20
178.9506618476234
 30
0.0
 10
173.5683891710176
 20
178.9506618476234
 30
0.0
 10
173.5683891710176
 20
178.6457708971788
 30
0.0
 10
173.5683891710176
 20
178.6457708971788
 30
0.0
  0
HATCH
  5
BB
330
B5
100
AcDbEntity
  8
Livello 3
 62
   250
420
  1907995
440
 33554687
100
AcDbHatch
 10
0.0
 20
0.0
 30
0.0
210
0.0
220
0.0
230
1.0
  2
SOLID
 70
     1
 71
     1
 91
        2
 92
        1
 93
        1
 72
     4
 94
        3
 73
     0
 74
     0
 95
       20
 96
       16
 40
0.0
 40
0.0
 40
0.0
 40
0.0
 40
1.0
 40
1.0
 40
1.0
 40
2.0
 40
2.0
 40
2.0
 40
3.0
 40
3.0
 40
3.0
 40
4.0
 40
4.0
 40
4.0
 40
5.0
 40
5.0
 40
5.0
 40
5.0
 10
173.4626247396204
 20
177.0593044262213
 10
173.4626247396204
 20
177.4527343306368
 10
173.2383490235307
 20
177.689756900022
 10
172.8955620227483
 20
177.689756900022
 10
172.6712863066586
 20
177.689756900022
 10
172.4642360679951
 20
177.5502305328694
 10
172.3626057511802
 20
177.3511040138219
 10
172.3371120445893
 20
177.3087293393534
 10
172.3202310767115
 20
177.2539523211379
 10
172.3202310767115
 20
177.1860839400785
 10
172.3288438154247
 20
176.7333983933166
 10
172.5358940540882
 20
176.3992241312474
 10
172.9251898439215
 20
176.3992241312474
 10
173.2469617622438
 20
176.3992241312474
 10
173.4626247396204
 20
176.6658745218057
 10
173.4626247396204
 20
177.0593044262213
 97
        1
330
B9
 92
        1
 93
        1
 72
     4
 94
        3
 73
     0
 74
     0
 95
       38
 96
       34
 40
0.0
 40
0.0
 40
0.0
 40
0.0
 40
1.0
 40
1.0
 40
1.0
 40
2.0
 40
2.0
 40
2.0
 40
3.0
 40
3.0
 40
3.0
 40
4.0
 40
4.0
 40
4.0
 40
5.0
 40
5.0
 40
5.0
 40
6.0
 40
6.0
 40
6.0
 40
7.0
 40
7.0
 40
7.0
 40
8.0
 40
8.0
 40
8.0
 40
9.0
 40
9.0
 40
9.0
 40
10.0
 40
10.0
 40
10.0
 40
11.0
 40
11.0
 40
11.0
 40
11.0
 10
173.5683891710176
 20
178.6457708971788
 10
173.4922525607936
 20
178.6502495213096
 10
173.394756358561
 20
178.6457708971788
 10
173.2889919271638
 20
178.6288899293011
 10
172.7053927519625
 20
178.5317382366171
 10
172.3963676869356
 20
178.1042018868975
 10
172.332977930007
 20
177.6515163401357
 10
172.332977930007
 20
177.6515163401357
 10
172.3457247833025
 20
177.6515163401357
 10
172.3457247833025
 20
177.6515163401357
 10
172.4766384117419
 20
177.8251491525923
 10
172.7053927519625
 20
177.9688096343272
 10
173.0099391928586
 20
177.9688096343272
 10
173.4963866753759
 20
177.9688096343272
 10
173.8391736761583
 20
177.6177544043803
 10
173.8391736761583
 20
177.0803195086813
 10
173.8391736761583
 20
176.5769910582863
 10
173.4963866753759
 20
176.111558658229
 10
172.9251898439215
 20
176.111558658229
 10
172.3371120445893
 20
176.111558658229
 10
171.9522948788869
 20
176.5683783195732
 10
171.9522948788869
 20
177.283580142311
 10
171.9522948788869
 20
177.8251491525923
 10
172.1469427738035
 20
178.2523409927633
 10
172.4177272789442
 20
178.5231254979039
 10
172.6461371096162
 20
178.7474012139936
 10
172.9506835505123
 20
178.8869275811463
 10
173.297604665877
 20
178.9293022556149
 10
173.4075032118564
 20
178.9461832234926
 10
173.5008652995067
 20
178.9506618476234
 10
173.5683891710176
 20
178.9506618476234
 10
173.5683891710176
 20
178.9506618476234
 10
173.5683891710176
 20
178.6457708971788
 10
173.5683891710176
 20
178.6457708971788
 97
        1
330
BA
 75
     2
 76
     1
 98
        1
 10
0.0
 20
0.0
450
        0
451
        0
460
0.0
461
0.0
452
        0
462
0.0
453
        0
470

  0
SPLINE
  5
BC
330
B5
100
AcDbEntity
  8
Livello 3
100
AcDbSpline
210
0.0
220
0.0
230
1.0
 70
    11
 71
     3
 72
    50
 73
    46
 74
     0
 42
0.000000001
 43
0.0000000001
 40
0.0
 40
0.0
 40
0.0
 40
0.0
 40
1.0
 40
1.0
 40
1.0
 40
2.0
 40
2.0
 40
2.0
 40
3.0
 40
3.0
 40
3.0
 40
4.0
 40
4.0
 40
4.0
 40
5.0
 40
5.0
 40
5.0
 40
6.0
 40
6.0
 40
6.0
 40
7.0
 40
7.0
 40
7.0
 40
8.0
 40
8.0
 40
8.0
 40
9.0
 40
9.0
 40
9.0
 40
10.0
 40
10.0
 40
10.0
 40
11.0
 40
11.0
 40
11.0
 40
12.0
 40
12.0
 40
12.0
 40
13.0
 40
13.0
 40
13.0
 40
14.0
 40
14.0
 40
14.0
 40
15.0
 40
15.0
 40
15.0
 40
15.0
 10
175.8121798605608
 20
178.5951279935457
 30
0.0
 10
175.8121798605608
 20
178.5951279935457
 30
0.0
 10
174.7628037757536
 20
178.5951279935457
 30
0.0
 10
174.7628037757536
 20
178.5951279935457
 30
0.0
 10
174.7628037757536
 20
178.5951279935457
 30
0.0
 10
174.6570393443566
 20
177.8885389095209
 30
0.0
 10
174.6570393443566
 20
177.8885389095209
 30
0.0
 10
174.7204291012851
 20
177.897151648234
 30
0.0
 10
174.7796847436314
 20
177.9054198773986
 30
0.0
 10
174.8813150604463
 20
177.9054198773986
 30
0.0
 10
175.0928439232407
 20
177.9054198773986
 30
0.0
 10
175.304372786035
 20
177.8589110883478
 30
0.0
 10
175.4735269743608
 20
177.7572807715329
 30
0.0
 10
175.6895344612859
 20
177.634635372258
 30
0.0
 10
175.8669568787763
 20
177.3976128028728
 30
0.0
 10
175.8669568787763
 20
177.0506916875081
 30
0.0
 10
175.8669568787763
 20
176.5136013013577
 30
0.0
 10
175.4397650386053
 20
176.111558658229
 30
0.0
 10
174.8430745005601
 20
176.111558658229
 30
0.0
 10
174.5426621742463
 20
176.111558658229
 30
0.0
 10
174.2891031465319
 20
176.1963080071662
 30
0.0
 10
174.1578450085439
 20
176.2807128465548
 30
0.0
 10
174.1578450085439
 20
176.2807128465548
 30
0.0
 10
174.2508625866456
 20
176.5642442049909
 30
0.0
 10
174.2508625866456
 20
176.5642442049909
 30
0.0
 10
174.3652397567559
 20
176.4963758239314
 30
0.0
 10
174.5895154728456
 20
176.4119709845428
 30
0.0
 10
174.8389403859777
 20
176.4119709845428
 30
0.0
 10
175.1899956159247
 20
176.4119709845428
 30
0.0
 10
175.4904079422385
 20
176.6403808152149
 30
0.0
 10
175.4904079422385
 20
177.0086615225881
 30
0.0
 10
175.4862738276561
 20
177.3638508671174
 30
0.0
 10
175.249251258271
 20
177.6177544043803
 30
0.0
 10
174.6994140188251
 20
177.6177544043803
 30
0.0
 10
174.5426621742463
 20
177.6177544043803
 30
0.0
 10
174.4200167749714
 20
177.6008734365026
 30
0.0
 10
174.318730967705
 20
177.5881265832071
 30
0.0
 10
174.318730967705
 20
177.5881265832071
 30
0.0
 10
174.4961533851954
 20
178.9082871731549
 30
0.0
 10
174.4961533851954
 20
178.9082871731549
 30
0.0
 10
174.4961533851954
 20
178.9082871731549
 30
0.0
 10
175.8121798605608
 20
178.9082871731549
 30
0.0
 10
175.8121798605608
 20
178.9082871731549
 30
0.0
 10
175.8121798605608
 20
178.9082871731549
 30
0.0
 10
175.8121798605608
 20
178.5951279935457
 30
0.0
 10
175.8121798605608
 20
178.5951279935457
 30
0.0
  0
HATCH
  5
BD
330
B5
100
AcDbEntity
  8
Livello 3
 62
   250
420
  1907995
440
 33554687
100
AcDbHatch
 10
0.0
 20
0.0
 30
0.0
210
0.0
220
0.0
230
1.0
  2
SOLID
 70
     1
 71
     1
 91
        1
 92
        1
 93
        1
 72
     4
 94
        3
 73
     0
 74
     0
 95
       50
 96
       46
 40
0.0
 40
0.0
 40
0.0
 40
0.0
 40
1.0
 40
1.0
 40
1.0
 40
2.0
 40
2.0
 40
2.0
 40
3.0
 40
3.0
 40
3.0
 40
4.0
 40
4.0
 40
4.0
 40
5.0
 40
5.0
 40
5.0
 40
6.0
 40
6.0
 40
6.0
 40
7.0
 40
7.0
 40
7.0
 40
8.0
 40
8.0
 40
8.0
 40
9.0
 40
9.0
 40
9.0
 40
10.0
 40
10.0
 40
10.0
 40
11.0
 40
11.0
 40
11.0
 40
12.0
 40
12.0
 40
12.0
 40
13.0
 40
13.0
 40
13.0
 40
14.0
 40
14.0
 40
14.0
 40
15.0
 40
15.0
 40
15.0
 40
15.0
 10
175.8121798605608
 20
178.5951279935457
 10
175.8121798605608
 20
178.5951279935457
 10
174.7628037757536
 20
178.5951279935457
 10
174.7628037757536
 20
178.5951279935457
 10
174.7628037757536
 20
178.5951279935457
 10
174.6570393443566
 20
177.8885389095209
 10
174.6570393443566
 20
177.8885389095209
 10
174.7204291012851
 20
177.897151648234
 10
174.7796847436314
 20
177.9054198773986
 10
174.8813150604463
 20
177.9054198773986
 10
175.0928439232407
 20
177.9054198773986
 10
175.304372786035
 20
177.8589110883478
 10
175.4735269743608
 20
177.7572807715329
 10
175.6895344612859
 20
177.634635372258
 10
175.8669568787763
 20
177.3976128028728
 10
175.8669568787763
 20
177.0506916875081
 10
175.8669568787763
 20
176.5136013013577
 10
175.4397650386053
 20
176.111558658229
 10
174.8430745005601
 20
176.111558658229
 10
174.5426621742463
 20
176.111558658229
 10
174.2891031465319
 20
176.1963080071662
 10
174.1578450085439
 20
176.2807128465548
 10
174.1578450085439
 20
176.2807128465548
 10
174.2508625866456
 20
176.5642442049909
 10
174.2508625866456
 20
176.5642442049909
 10
174.3652397567559
 20
176.4963758239314
 10
174.5895154728456
 20
176.4119709845428
 10
174.8389403859777
 20
176.4119709845428
 10
175.1899956159247
 20
176.4119709845428
 10
175.4904079422385
 20
176.6403808152149
 10
175.4904079422385
 20
177.0086615225881
 10
175.4862738276561
 20
177.3638508671174
 10
175.249251258271
 20
177.6177544043803
 10
174.6994140188251
 20
177.6177544043803
 10
174.5426621742463
 20
177.6177544043803
 10
174.4200167749714
 20
177.6008734365026
 10
174.318730967705
 20
177.5881265832071
 10
174.318730967705
 20
177.5881265832071
 10
174.4961533851954
 20
178.9082871731549
 10
174.4961533851954
 20
178.9082871731549
 10
174.4961533851954
 20
178.9082871731549
 10
175.8121798605608
 20
178.9082871731549
 10
175.8121798605608
 20
178.9082871731549
 10
175.8121798605608
 20
178.9082871731549
 10
175.8121798605608
 20
178.5951279935457
 10
175.8121798605608
 20
178.5951279935457
 97
        1
330
BC
 75
     2
 76
     1
 98
        1
 10
0.0
 20
0.0
450
        0
451
        0
460
0.0
461
0.0
452
        0
462
0.0
453
        0
470

  0
SPLINE
  5
BE
330
B5
100
AcDbEntity
  8
Livello 3
100
AcDbSpline
210
0.0
220
0.0
230
1.0
 70
    11
 71
     3
 72
    50
 73
    46
 74
     0
 42
0.000000001
 43
0.0000000001
 40
0.0
 40
0.0
 40
0.0
 40
0.0
 40
1.0
 40
1.0
 40
1.0
 40
2.0
 40
2.0
 40
2.0
 40
3.0
 40
3.0
 40
3.0
 40
4.0
 40
4.0
 40
4.0
 40
5.0
 40
5.0
 40
5.0
 40
6.0
 40
6.0
 40
6.0
 40
7.0
 40
7.0
 40
7.0
 40
8.0
 40
8.0
 40
8.0
 40
9.0
 40
9.0
 40
9.0
 40
10.0
 40
10.0
 40
10.0
 40
11.0
 40
11.0
 40
11.0
 40
12.0
 40
12.0
 40
12.0
 40
13.0
 40
13.0
 40
13.0
 40
14.0
 40
14.0
 40
14.0
 40
15.0
 40
15.0
 40
15.0
 40
15.0
 10
177.9836235449138
 20
178.5951279935457
 30
0.0
 10
177.9836235449138
 20
178.5951279935457
 30
0.0
 10
176.9342474601067
 20
178.5951279935457
 30
0.0
 10
176.9342474601067
 20
178.5951279935457
 30
0.0
 10
176.9342474601067
 20
178.5951279935457
 30
0.0
 10
176.8284830287095
 20
177.8885389095209
 30
0.0
 10
176.8284830287095
 20
177.8885389095209
 30
0.0
 10
176.891872785638
 20
177.897151648234
 30
0.0
 10
176.9511284279844
 20
177.9054198773986
 30
0.0
 10
177.0527587447993
 20
177.9054198773986
 30
0.0
 10
177.2642876075936
 20
177.9054198773986
 30
0.0
 10
177.475816470388
 20
177.8589110883478
 30
0.0
 10
177.6449706587136
 20
177.7572807715329
 30
0.0
 10
177.8609781456389
 20
177.634635372258
 30
0.0
 10
178.0384005631293
 20
177.3976128028728
 30
0.0
 10
178.0384005631293
 20
177.0506916875081
 30
0.0
 10
178.0384005631293
 20
176.5136013013577
 30
0.0
 10
177.6112087229583
 20
176.111558658229
 30
0.0
 10
177.014518184913
 20
176.111558658229
 30
0.0
 10
176.7141058585992
 20
176.111558658229
 30
0.0
 10
176.4605468308849
 20
176.1963080071662
 30
0.0
 10
176.3292886928968
 20
176.2807128465548
 30
0.0
 10
176.3292886928968
 20
176.2807128465548
 30
0.0
 10
176.4223062709986
 20
176.5642442049909
 30
0.0
 10
176.4223062709986
 20
176.5642442049909
 30
0.0
 10
176.5366834411089
 20
176.4963758239314
 30
0.0
 10
176.7606146476501
 20
176.4119709845428
 30
0.0
 10
177.0103840703307
 20
176.4119709845428
 30
0.0
 10
177.3614393002777
 20
176.4119709845428
 30
0.0
 10
177.6618516265915
 20
176.6403808152149
 30
0.0
 10
177.6618516265915
 20
177.0086615225881
 30
0.0
 10
177.6577175120092
 20
177.3638508671174
 30
0.0
 10
177.420694942624
 20
177.6177544043803
 30
0.0
 10
176.8708577031781
 20
177.6177544043803
 30
0.0
 10
176.7141058585992
 20
177.6177544043803
 30
0.0
 10
176.5914604593243
 20
177.6008734365026
 30
0.0
 10
176.4898301425095
 20
177.5881265832071
 30
0.0
 10
176.4898301425095
 20
177.5881265832071
 30
0.0
 10
176.6675970695484
 20
178.9082871731549
 30
0.0
 10
176.6675970695484
 20
178.9082871731549
 30
0.0
 10
176.6675970695484
 20
178.9082871731549
 30
0.0
 10
177.9836235449138
 20
178.9082871731549
 30
0.0
 10
177.9836235449138
 20
178.9082871731549
 30
0.0
 10
177.9836235449138
 20
178.9082871731549
 30
0.0
 10
177.9836235449138
 20
178.5951279935457
 30
0.0
 10
177.9836235449138
 20
178.5951279935457
 30
0.0
  0
HATCH
  5
BF
330
B5
100
AcDbEntity
  8
Livello 3
 62
   250
420
  1907995
440
 33554687
100
AcDbHatch
 10
0.0
 20
0.0
 30
0.0
210
0.0
220
0.0
230
1.0
  2
SOLID
 70
     1
 71
     1
 91
        1
 92
        1
 93
        1
 72
     4
 94
        3
 73
     0
 74
     0
 95
       50
 96
       46
 40
0.0
 40
0.0
 40
0.0
 40
0.0
 40
1.0
 40
1.0
 40
1.0
 40
2.0
 40
2.0
 40
2.0
 40
3.0
 40
3.0
 40
3.0
 40
4.0
 40
4.0
 40
4.0
 40
5.0
 40
5.0
 40
5.0
 40
6.0
 40
6.0
 40
6.0
 40
7.0
 40
7.0
 40
7.0
 40
8.0
 40
8.0
 40
8.0
 40
9.0
 40
9.0
 40
9.0
 40
10.0
 40
10.0
 40
10.0
 40
11.0
 40
11.0
 40
11.0
 40
12.0
 40
12.0
 40
12.0
 40
13.0
 40
13.0
 40
13.0
 40
14.0
 40
14.0
 40
14.0
 40
15.0
 40
15.0
 40
15.0
 40
15.0
 10
177.9836235449138
 20
178.5951279935457
 10
177.9836235449138
 20
178.5951279935457
 10
176.9342474601067
 20
178.5951279935457
 10
176.9342474601067
 20
178.5951279935457
 10
176.9342474601067
 20
178.5951279935457
 10
176.8284830287095
 20
177.8885389095209
 10
176.8284830287095
 20
177.8885389095209
 10
176.891872785638
 20
177.897151648234
 10
176.9511284279844
 20
177.9054198773986
 10
177.0527587447993
 20
177.9054198773986
 10
177.2642876075936
 20
177.9054198773986
 10
177.475816470388
 20
177.8589110883478
 10
177.6449706587136
 20
177.7572807715329
 10
177.8609781456389
 20
177.634635372258
 10
178.0384005631293
 20
177.3976128028728
 10
178.0384005631293
 20
177.0506916875081
 10
178.0384005631293
 20
176.5136013013577
 10
177.6112087229583
 20
176.111558658229
 10
177.014518184913
 20
176.111558658229
 10
176.7141058585992
 20
176.111558658229
 10
176.4605468308849
 20
176.1963080071662
 10
176.3292886928968
 20
176.2807128465548
 10
176.3292886928968
 20
176.2807128465548
 10
176.4223062709986
 20
176.5642442049909
 10
176.4223062709986
 20
176.5642442049909
 10
176.5366834411089
 20
176.4963758239314
 10
176.7606146476501
 20
176.4119709845428
 10
177.0103840703307
 20
176.4119709845428
 10
177.3614393002777
 20
176.4119709845428
 10
177.6618516265915
 20
176.6403808152149
 10
177.6618516265915
 20
177.0086615225881
 10
177.6577175120092
 20
177.3638508671174
 10
177.420694942624
 20
177.6177544043803
 10
176.8708577031781
 20
177.6177544043803
 10
176.7141058585992
 20
177.6177544043803
 10
176.5914604593243
 20
177.6008734365026
 10
176.4898301425095
 20
177.5881265832071
 10
176.4898301425095
 20
177.5881265832071
 10
176.6675970695484
 20
178.9082871731549
 10
176.6675970695484
 20
178.9082871731549
 10
176.6675970695484
 20
178.9082871731549
 10
177.9836235449138
 20
178.9082871731549
 10
177.9836235449138
 20
178.9082871731549
 10
177.9836235449138
 20
178.9082871731549
 10
177.9836235449138
 20
178.5951279935457
 10
177.9836235449138
 20
178.5951279935457
 97
        1
330
BE
 75
     2
 76
     1
 98
        1
 10
0.0
 20
0.0
450
        0
451
        0
460
0.0
461
0.0
452
        0
462
0.0
453
        0
470

  0
SPLINE
  5
C0
330
B5
100
AcDbEntity
  8
Livello 3
100
AcDbSpline
210
0.0
220
0.0
230
1.0
 70
     9
 71
     3
 72
    80
 73
    76
 74
     0
 42
0.000000001
 43
0.0000000001
 40
0.0
 40
0.0
 40
0.0
 40
0.0
 40
1.0
 40
1.0
 40
1.0
 40
2.0
 40
2.0
 40
2.0
 40
3.0
 40
3.0
 40
3.0
 40
4.0
 40
4.0
 40
4.0
 40
5.0
 40
5.0
 40
5.0
 40
6.0
 40
6.0
 40
6.0
 40
7.0
 40
7.0
 40
7.0
 40
8.0
 40
8.0
 40
8.0
 40
9.0
 40
9.0
 40
9.0
 40
10.0
 40
10.0
 40
10.0
 40
11.0
 40
11.0
 40
11.0
 40
12.0
 40
12.0
 40
12.0
 40
13.0
 40
13.0
 40
13.0
 40
14.0
 40
14.0
 40
14.0
 40
15.0
 40
15.0
 40
15.0
 40
16.0
 40
16.0
 40
16.0
 40
17.0
 40
17.0
 40
17.0
 40
18.0
 40
18.0
 40
18.0
 40
19.0
 40
19.0
 40
19.0
 40
20.0
 40
20.0
 40
20.0
 40
21.0
 40
21.0
 40
21.0
 40
22.0
 40
22.0
 40
22.0
 40
23.0
 40
23.0
 40
23.0
 40
24.0
 40
24.0
 40
24.0
 40
25.0
 40
25.0
 40
25.0
 40
25.0
 10
179.5297823986939
 20
177.6515163401357
 30
0.0
 10
179.5297823986939
 20
177.86304520293
 30
0.0
 10
179.5253037745631
 20
178.0366780153867
 30
0.0
 10
179.5125569212677
 20
178.2058322037124
 30
0.0
 10
179.5125569212677
 20
178.2058322037124
 30
0.0
 10
179.8384629541723
 20
178.2058322037124
 30
0.0
 10
179.8384629541723
 20
178.2058322037124
 30
0.0
 10
179.8384629541723
 20
178.2058322037124
 30
0.0
 10
179.85534392205
 20
177.8757920562255
 30
0.0
 10
179.85534392205
 20
177.8757920562255
 30
0.0
 10
179.85534392205
 20
177.8757920562255
 30
0.0
 10
179.8680907753455
 20
177.8757920562255
 30
0.0
 10
179.8680907753455
 20
177.8757920562255
 30
0.0
 10
179.9824679454557
 20
178.0704399511421
 30
0.0
 10
180.1726372162416
 20
178.2523409927633
 30
0.0
 10
180.5112901024416
 20
178.2523409927633
 30
0.0
 10
180.7903428367469
 20
178.2523409927633
 30
0.0
 10
181.0018716995412
 20
178.0831868044375
 30
0.0
 10
181.0907551630606
 20
177.84203012047
 30
0.0
 10
181.0907551630606
 20
177.84203012047
 30
0.0
 10
181.0993679017738
 20
177.84203012047
 30
0.0
 10
181.0993679017738
 20
177.84203012047
 30
0.0
 10
181.1627576587023
 20
177.9564072905803
 30
0.0
 10
181.2430283835087
 20
178.0449462445513
 30
0.0
 10
181.3277777324458
 20
178.1086805110284
 30
0.0
 10
181.4504231317207
 20
178.2016980891301
 30
0.0
 10
181.585815384291
 20
178.2523409927633
 30
0.0
 10
181.7804632792077
 20
178.2523409927633
 30
0.0
 10
182.0512477843483
 20
178.2523409927633
 30
0.0
 10
182.4532904274769
 20
178.0745740657244
 30
0.0
 10
182.4532904274769
 20
177.3638508671174
 30
0.0
 10
182.4532904274769
 20
177.3638508671174
 30
0.0
 10
182.4532904274769
 20
176.1580674472799
 30
0.0
 10
182.4532904274769
 20
176.1580674472799
 30
0.0
 10
182.4532904274769
 20
176.1580674472799
 30
0.0
 10
182.0894883442346
 20
176.1580674472799
 30
0.0
 10
182.0894883442346
 20
176.1580674472799
 30
0.0
 10
182.0894883442346
 20
176.1580674472799
 30
0.0
 10
182.0894883442346
 20
177.3173420780665
 30
0.0
 10
182.0894883442346
 20
177.3173420780665
 30
0.0
 10
182.0894883442346
 20
177.710771982482
 30
0.0
 10
181.9454833529511
 20
177.9477945518672
 30
0.0
 10
181.6450710266373
 20
177.9477945518672
 30
0.0
 10
181.433542163843
 20
177.9477945518672
 30
0.0
 10
181.2685220900995
 20
177.7913872168369
 30
0.0
 10
181.2051323331709
 20
177.6091416656672
 30
0.0
 10
181.1882513652932
 20
177.558498762034
 30
0.0
 10
181.1755045119978
 20
177.4909748905231
 30
0.0
 10
181.1755045119978
 20
177.4231065094637
 30
0.0
 10
181.1755045119978
 20
177.4231065094637
 30
0.0
 10
181.1755045119978
 20
176.1580674472799
 30
0.0
 10
181.1755045119978
 20
176.1580674472799
 30
0.0
 10
181.1755045119978
 20
176.1580674472799
 30
0.0
 10
180.8117024287554
 20
176.1580674472799
 30
0.0
 10
180.8117024287554
 20
176.1580674472799
 30
0.0
 10
180.8117024287554
 20
176.1580674472799
 30
0.0
 10
180.8117024287554
 20
177.3852104591259
 30
0.0
 10
180.8117024287554
 20
177.3852104591259
 30
0.0
 10
180.8117024287554
 20
177.710771982482
 30
0.0
 10
180.667697437472
 20
177.9477945518672
 30
0.0
 10
180.3841660790359
 20
177.9477945518672
 30
0.0
 10
180.1516221337815
 20
177.9477945518672
 30
0.0
 10
179.9824679454557
 20
177.7617593956637
 30
0.0
 10
179.9232123031095
 20
177.5753797299117
 30
0.0
 10
179.9018527111009
 20
177.5206027116962
 30
0.0
 10
179.8935844819363
 20
177.4568684452191
 30
0.0
 10
179.8935844819363
 20
177.3934786882905
 30
0.0
 10
179.8935844819363
 20
177.3934786882905
 30
0.0
 10
179.8935844819363
 20
176.1580674472799
 30
0.0
 10
179.8935844819363
 20
176.1580674472799
 30
0.0
 10
179.8935844819363
 20
176.1580674472799
 30
0.0
 10
179.5297823986939
 20
176.1580674472799
 30
0.0
 10
179.5297823986939
 20
176.1580674472799
 30
0.0
 10
179.5297823986939
 20
176.1580674472799
 30
0.0
 10
179.5297823986939
 20
177.6515163401357
 30
0.0
 10
179.5297823986939
 20
177.6515163401357
 30
0.0
  0
HATCH
  5
C1
330
B5
100
AcDbEntity
  8
Livello 3
 62
   250
420
  1907995
440
 33554687
100
AcDbHatch
 10
0.0
 20
0.0
 30
0.0
210
0.0
220
0.0
230
1.0
  2
SOLID
 70
     1
 71
     1
 91
        1
 92
        1
 93
        1
 72
     4
 94
        3
 73
     0
 74
     0
 95
       80
 96
       76
 40
0.0
 40
0.0
 40
0.0
 40
0.0
 40
1.0
 40
1.0
 40
1.0
 40
2.0
 40
2.0
 40
2.0
 40
3.0
 40
3.0
 40
3.0
 40
4.0
 40
4.0
 40
4.0
 40
5.0
 40
5.0
 40
5.0
 40
6.0
 40
6.0
 40
6.0
 40
7.0
 40
7.0
 40
7.0
 40
8.0
 40
8.0
 40
8.0
 40
9.0
 40
9.0
 40
9.0
 40
10.0
 40
10.0
 40
10.0
 40
11.0
 40
11.0
 40
11.0
 40
12.0
 40
12.0
 40
12.0
 40
13.0
 40
13.0
 40
13.0
 40
14.0
 40
14.0
 40
14.0
 40
15.0
 40
15.0
 40
15.0
 40
16.0
 40
16.0
 40
16.0
 40
17.0
 40
17.0
 40
17.0
 40
18.0
 40
18.0
 40
18.0
 40
19.0
 40
19.0
 40
19.0
 40
20.0
 40
20.0
 40
20.0
 40
21.0
 40
21.0
 40
21.0
 40
22.0
 40
22.0
 40
22.0
 40
23.0
 40
23.0
 40
23.0
 40
24.0
 40
24.0
 40
24.0
 40
25.0
 40
25.0
 40
25.0
 40
25.0
 10
179.5297823986939
 20
177.6515163401357
 10
179.5297823986939
 20
177.86304520293
 10
179.5253037745631
 20
178.0366780153867
 10
179.5125569212677
 20
178.2058322037124
 10
179.5125569212677
 20
178.2058322037124
 10
179.8384629541723
 20
178.2058322037124
 10
179.8384629541723
 20
178.2058322037124
 10
179.8384629541723
 20
178.2058322037124
 10
179.85534392205
 20
177.8757920562255
 10
179.85534392205
 20
177.8757920562255
 10
179.85534392205
 20
177.8757920562255
 10
179.8680907753455
 20
177.8757920562255
 10
179.8680907753455
 20
177.8757920562255
 10
179.9824679454557
 20
178.0704399511421
 10
180.1726372162416
 20
178.2523409927633
 10
180.5112901024416
 20
178.2523409927633
 10
180.7903428367469
 20
178.2523409927633
 10
181.0018716995412
 20
178.0831868044375
 10
181.0907551630606
 20
177.84203012047
 10
181.0907551630606
 20
177.84203012047
 10
181.0993679017738
 20
177.84203012047
 10
181.0993679017738
 20
177.84203012047
 10
181.1627576587023
 20
177.9564072905803
 10
181.2430283835087
 20
178.0449462445513
 10
181.3277777324458
 20
178.1086805110284
 10
181.4504231317207
 20
178.2016980891301
 10
181.585815384291
 20
178.2523409927633
 10
181.7804632792077
 20
178.2523409927633
 10
182.0512477843483
 20
178.2523409927633
 10
182.4532904274769
 20
178.0745740657244
 10
182.4532904274769
 20
177.3638508671174
 10
182.4532904274769
 20
177.3638508671174
 10
182.4532904274769
 20
176.1580674472799
 10
182.4532904274769
 20
176.1580674472799
 10
182.4532904274769
 20
176.1580674472799
 10
182.0894883442346
 20
176.1580674472799
 10
182.0894883442346
 20
176.1580674472799
 10
182.0894883442346
 20
176.1580674472799
 10
182.0894883442346
 20
177.3173420780665
 10
182.0894883442346
 20
177.3173420780665
 10
182.0894883442346
 20
177.710771982482
 10
181.9454833529511
 20
177.9477945518672
 10
181.6450710266373
 20
177.9477945518672
 10
181.433542163843
 20
177.9477945518672
 10
181.2685220900995
 20
177.7913872168369
 10
181.2051323331709
 20
177.6091416656672
 10
181.1882513652932
 20
177.558498762034
 10
181.1755045119978
 20
177.4909748905231
 10
181.1755045119978
 20
177.4231065094637
 10
181.1755045119978
 20
177.4231065094637
 10
181.1755045119978
 20
176.1580674472799
 10
181.1755045119978
 20
176.1580674472799
 10
181.1755045119978
 20
176.1580674472799
 10
180.8117024287554
 20
176.1580674472799
 10
180.8117024287554
 20
176.1580674472799
 10
180.8117024287554
 20
176.1580674472799
 10
180.8117024287554
 20
177.3852104591259
 10
180.8117024287554
 20
177.3852104591259
 10
180.8117024287554
 20
177.710771982482
 10
180.667697437472
 20
177.9477945518672
 10
180.3841660790359
 20
177.9477945518672
 10
180.1516221337815
 20
177.9477945518672
 10
179.9824679454557
 20
177.7617593956637
 10
179.9232123031095
 20
177.5753797299117
 10
179.9018527111009
 20
177.5206027116962
 10
179.8935844819363
 20
177.4568684452191
 10
179.8935844819363
 20
177.3934786882905
 10
179.8935844819363
 20
177.3934786882905
 10
179.8935844819363
 20
176.1580674472799
 10
179.8935844819363
 20
176.1580674472799
 10
179.8935844819363
 20
176.1580674472799
 10
179.5297823986939
 20
176.1580674472799
 10
179.5297823986939
 20
176.1580674472799
 10
179.5297823986939
 20
176.1580674472799
 10
179.5297823986939
 20
177.6515163401357
 10
179.5297823986939
 20
177.6515163401357
 97
        1
330
C0
 75
     2
 76
     1
 98
        1
 10
0.0
 20
0.0
450
        0
451
        0
460
0.0
461
0.0
452
        0
462
0.0
453
        0
470

  0
SPLINE
  5
C2
330
B5
100
AcDbEntity
  8
Livello 3
100
AcDbSpline
210
0.0
220
0.0
230
1.0
 70
     9
 71
     3
 72
    80
 73
    76
 74
     0
 42
0.000000001
 43
0.0000000001
 40
0.0
 40
0.0
 40
0.0
 40
0.0
 40
1.0
 40
1.0
 40
1.0
 40
2.0
 40
2.0
 40
2.0
 40
3.0
 40
3.0
 40
3.0
 40
4.0
 40
4.0
 40
4.0
 40
5.0
 40
5.0
 40
5.0
 40
6.0
 40
6.0
 40
6.0
 40
7.0
 40
7.0
 40
7.0
 40
8.0
 40
8.0
 40
8.0
 40
9.0
 40
9.0
 40
9.0
 40
10.0
 40
10.0
 40
10.0
 40
11.0
 40
11.0
 40
11.0
 40
12.0
 40
12.0
 40
12.0
 40
13.0
 40
13.0
 40
13.0
 40
14.0
 40
14.0
 40
14.0
 40
15.0
 40
15.0
 40
15.0
 40
16.0
 40
16.0
 40
16.0
 40
17.0
 40
17.0
 40
17.0
 40
18.0
 40
18.0
 40
18.0
 40
19.0
 40
19.0
 40
19.0
 40
20.0
 40
20.0
 40
20.0
 40
21.0
 40
21.0
 40
21.0
 40
22.0
 40
22.0
 40
22.0
 40
23.0
 40
23.0
 40
23.0
 40
24.0
 40
24.0
 40
24.0
 40
25.0
 40
25.0
 40
25.0
 40
25.0
 10
183.060316251978
 20
177.6515163401357
 30
0.0
 10
183.060316251978
 20
177.86304520293
 30
0.0
 10
183.0558376278471
 20
178.0366780153867
 30
0.0
 10
183.0430907745517
 20
178.2058322037124
 30
0.0
 10
183.0430907745517
 20
178.2058322037124
 30
0.0
 10
183.3689968074564
 20
178.2058322037124
 30
0.0
 10
183.3689968074564
 20
178.2058322037124
 30
0.0
 10
183.3689968074564
 20
178.2058322037124
 30
0.0
 10
183.3858777753341
 20
177.8757920562255
 30
0.0
 10
183.3858777753341
 20
177.8757920562255
 30
0.0
 10
183.3858777753341
 20
177.8757920562255
 30
0.0
 10
183.3986246286295
 20
177.8757920562255
 30
0.0
 10
183.3986246286295
 20
177.8757920562255
 30
0.0
 10
183.5130017987398
 20
178.0704399511421
 30
0.0
 10
183.7031710695256
 20
178.2523409927633
 30
0.0
 10
184.0418239557257
 20
178.2523409927633
 30
0.0
 10
184.3208766900309
 20
178.2523409927633
 30
0.0
 10
184.5324055528252
 20
178.0831868044375
 30
0.0
 10
184.6212890163447
 20
177.84203012047
 30
0.0
 10
184.6212890163447
 20
177.84203012047
 30
0.0
 10
184.6299017550578
 20
177.84203012047
 30
0.0
 10
184.6299017550578
 20
177.84203012047
 30
0.0
 10
184.6932915119864
 20
177.9564072905803
 30
0.0
 10
184.7735622367927
 20
178.0449462445513
 30
0.0
 10
184.8583115857298
 20
178.1086805110284
 30
0.0
 10
184.9809569850048
 20
178.2016980891301
 30
0.0
 10
185.1163492375751
 20
178.2523409927633
 30
0.0
 10
185.3109971324917
 20
178.2523409927633
 30
0.0
 10
185.5817816376323
 20
178.2523409927633
 30
0.0
 10
185.983824280761
 20
178.0745740657244
 30
0.0
 10
185.983824280761
 20
177.3638508671174
 30
0.0
 10
185.983824280761
 20
177.3638508671174
 30
0.0
 10
185.983824280761
 20
176.1580674472799
 30
0.0
 10
185.983824280761
 20
176.1580674472799
 30
0.0
 10
185.983824280761
 20
176.1580674472799
 30
0.0
 10
185.6200221975186
 20
176.1580674472799
 30
0.0
 10
185.6200221975186
 20
176.1580674472799
 30
0.0
 10
185.6200221975186
 20
176.1580674472799
 30
0.0
 10
185.6200221975186
 20
177.3173420780665
 30
0.0
 10
185.6200221975186
 20
177.3173420780665
 30
0.0
 10
185.6200221975186
 20
177.710771982482
 30
0.0
 10
185.4760172062352
 20
177.9477945518672
 30
0.0
 10
185.1756048799214
 20
177.9477945518672
 30
0.0
 10
184.964076017127
 20
177.9477945518672
 30
0.0
 10
184.7990559433835
 20
177.7913872168369
 30
0.0
 10
184.735666186455
 20
177.6091416656672
 30
0.0
 10
184.7187852185772
 20
177.558498762034
 30
0.0
 10
184.7060383652818
 20
177.4909748905231
 30
0.0
 10
184.7060383652818
 20
177.4231065094637
 30
0.0
 10
184.7060383652818
 20
177.4231065094637
 30
0.0
 10
184.7060383652818
 20
176.1580674472799
 30
0.0
 10
184.7060383652818
 20
176.1580674472799
 30
0.0
 10
184.7060383652818
 20
176.1580674472799
 30
0.0
 10
184.3422362820394
 20
176.1580674472799
 30
0.0
 10
184.3422362820394
 20
176.1580674472799
 30
0.0
 10
184.3422362820394
 20
176.1580674472799
 30
0.0
 10
184.3422362820394
 20
177.3852104591259
 30
0.0
 10
184.3422362820394
 20
177.3852104591259
 30
0.0
 10
184.3422362820394
 20
177.710771982482
 30
0.0
 10
184.198231290756
 20
177.9477945518672
 30
0.0
 10
183.9146999323199
 20
177.9477945518672
 30
0.0
 10
183.6821559870656
 20
177.9477945518672
 30
0.0
 10
183.5130017987398
 20
177.7617593956637
 30
0.0
 10
183.4537461563935
 20
177.5753797299117
 30
0.0
 10
183.4323865643849
 20
177.5206027116962
 30
0.0
 10
183.4241183352203
 20
177.4568684452191
 30
0.0
 10
183.4241183352203
 20
177.3934786882905
 30
0.0
 10
183.4241183352203
 20
177.3934786882905
 30
0.0
 10
183.4241183352203
 20
176.1580674472799
 30
0.0
 10
183.4241183352203
 20
176.1580674472799
 30
0.0
 10
183.4241183352203
 20
176.1580674472799
 30
0.0
 10
183.060316251978
 20
176.1580674472799
 30
0.0
 10
183.060316251978
 20
176.1580674472799
 30
0.0
 10
183.060316251978
 20
176.1580674472799
 30
0.0
 10
183.060316251978
 20
177.6515163401357
 30
0.0
 10
183.060316251978
 20
177.6515163401357
 30
0.0
  0
HATCH
  5
C3
330
B5
100
AcDbEntity
  8
Livello 3
 62
   250
420
  1907995
440
 33554687
100
AcDbHatch
 10
0.0
 20
0.0
 30
0.0
210
0.0
220
0.0
230
1.0
  2
SOLID
 70
     1
 71
     1
 91
        1
 92
        1
 93
        1
 72
     4
 94
        3
 73
     0
 74
     0
 95
       80
 96
       76
 40
0.0
 40
0.0
 40
0.0
 40
0.0
 40
1.0
 40
1.0
 40
1.0
 40
2.0
 40
2.0
 40
2.0
 40
3.0
 40
3.0
 40
3.0
 40
4.0
 40
4.0
 40
4.0
 40
5.0
 40
5.0
 40
5.0
 40
6.0
 40
6.0
 40
6.0
 40
7.0
 40
7.0
 40
7.0
 40
8.0
 40
8.0
 40
8.0
 40
9.0
 40
9.0
 40
9.0
 40
10.0
 40
10.0
 40
10.0
 40
11.0
 40
11.0
 40
11.0
 40
12.0
 40
12.0
 40
12.0
 40
13.0
 40
13.0
 40
13.0
 40
14.0
 40
14.0
 40
14.0
 40
15.0
 40
15.0
 40
15.0
 40
16.0
 40
16.0
 40
16.0
 40
17.0
 40
17.0
 40
17.0
 40
18.0
 40
18.0
 40
18.0
 40
19.0
 40
19.0
 40
19.0
 40
20.0
 40
20.0
 40
20.0
 40
21.0
 40
21.0
 40
21.0
 40
22.0
 40
22.0
 40
22.0
 40
23.0
 40
23.0
 40
23.0
 40
24.0
 40
24.0
 40
24.0
 40
25.0
 40
25.0
 40
25.0
 40
25.0
 10
183.060316251978
 20
177.6515163401357
 10
183.060316251978
 20
177.86304520293
 10
183.0558376278471
 20
178.0366780153867
 10
183.0430907745517
 20
178.2058322037124
 10
183.0430907745517
 20
178.2058322037124
 10
183.3689968074564
 20
178.2058322037124
 10
183.3689968074564
 20
178.2058322037124
 10
183.3689968074564
 20
178.2058322037124
 10
183.3858777753341
 20
177.8757920562255
 10
183.3858777753341
 20
177.8757920562255
 10
183.3858777753341
 20
177.8757920562255
 10
183.3986246286295
 20
177.8757920562255
 10
183.3986246286295
 20
177.8757920562255
 10
183.5130017987398
 20
178.0704399511421
 10
183.7031710695256
 20
178.2523409927633
 10
184.0418239557257
 20
178.2523409927633
 10
184.3208766900309
 20
178.2523409927633
 10
184.5324055528252
 20
178.0831868044375
 10
184.6212890163447
 20
177.84203012047
 10
184.6212890163447
 20
177.84203012047
 10
184.6299017550578
 20
177.84203012047
 10
184.6299017550578
 20
177.84203012047
 10
184.6932915119864
 20
177.9564072905803
 10
184.7735622367927
 20
178.0449462445513
 10
184.8583115857298
 20
178.1086805110284
 10
184.9809569850048
 20
178.2016980891301
 10
185.1163492375751
 20
178.2523409927633
 10
185.3109971324917
 20
178.2523409927633
 10
185.5817816376323
 20
178.2523409927633
 10
185.983824280761
 20
178.0745740657244
 10
185.983824280761
 20
177.3638508671174
 10
185.983824280761
 20
177.3638508671174
 10
185.983824280761
 20
176.1580674472799
 10
185.983824280761
 20
176.1580674472799
 10
185.983824280761
 20
176.1580674472799
 10
185.6200221975186
 20
176.1580674472799
 10
185.6200221975186
 20
176.1580674472799
 10
185.6200221975186
 20
176.1580674472799
 10
185.6200221975186
 20
177.3173420780665
 10
185.6200221975186
 20
177.3173420780665
 10
185.6200221975186
 20
177.710771982482
 10
185.4760172062352
 20
177.9477945518672
 10
185.1756048799214
 20
177.9477945518672
 10
184.964076017127
 20
177.9477945518672
 10
184.7990559433835
 20
177.7913872168369
 10
184.735666186455
 20
177.6091416656672
 10
184.7187852185772
 20
177.558498762034
 10
184.7060383652818
 20
177.4909748905231
 10
184.7060383652818
 20
177.4231065094637
 10
184.7060383652818
 20
177.4231065094637
 10
184.7060383652818
 20
176.1580674472799
 10
184.7060383652818
 20
176.1580674472799
 10
184.7060383652818
 20
176.1580674472799
 10
184.3422362820394
 20
176.1580674472799
 10
184.3422362820394
 20
176.1580674472799
 10
184.3422362820394
 20
176.1580674472799
 10
184.3422362820394
 20
177.3852104591259
 10
184.3422362820394
 20
177.3852104591259
 10
184.3422362820394
 20
177.710771982482
 10
184.198231290756
 20
177.9477945518672
 10
183.9146999323199
 20
177.9477945518672
 10
183.6821559870656
 20
177.9477945518672
 10
183.5130017987398
 20
177.7617593956637
 10
183.4537461563935
 20
177.5753797299117
 10
183.4323865643849
 20
177.5206027116962
 10
183.4241183352203
 20
177.4568684452191
 10
183.4241183352203
 20
177.3934786882905
 10
183.4241183352203
 20
177.3934786882905
 10
183.4241183352203
 20
176.1580674472799
 10
183.4241183352203
 20
176.1580674472799
 10
183.4241183352203
 20
176.1580674472799
 10
183.060316251978
 20
176.1580674472799
 10
183.060316251978
 20
176.1580674472799
 10
183.060316251978
 20
176.1580674472799
 10
183.060316251978
 20
177.6515163401357
 10
183.060316251978
 20
177.6515163401357
 97
        1
330
C2
 75
     2
 76
     1
 98
        1
 10
0.0
 20
0.0
450
        0
451
        0
460
0.0
461
0.0
452
        0
462
0.0
453
        0
470

  0
ENDBLK
  5
B8
330
B5
100
AcDbEntity
  8
0
100
AcDbBlockEnd
  0
BLOCK
  5
C6
330
C4
100
AcDbEntity
  8
0
100
AcDbBlockBegin
  2
Block_6
 70
     0
 10
0.0
 20
0.0
 30
0.0
  3
Block_6
  1

  0
INSERT
  5
C9
330
C4
100
AcDbEntity
  8
Livello 3
100
AcDbBlockReference
  2
Block_7
 10
0.0
 20
0.0
 30
0.0
  0
ENDBLK
  5
C7
330
C4
100
AcDbEntity
  8
0
100
AcDbBlockEnd
  0
BLOCK
  5
CA
330
C8
100
AcDbEntity
  8
0
100
AcDbBlockBegin
  2
Block_7
 70
     0
 10
0.0
 20
0.0
 30
0.0
  3
Block_7
  1

  0
SPLINE
  5
CC
330
C8
100
AcDbEntity
  8
Livello 3
100
AcDbSpline
210
0.0
220
0.0
230
1.0
 70
    11
 71
     3
 72
    29
 73
    25
 74
     0
 42
0.000000001
 43
0.0000000001
 40
0.0
 40
0.0
 40
0.0
 40
0.0
 40
1.0
 40
1.0
 40
1.0
 40
2.0
 40
2.0
 40
2.0
 40
3.0
 40
3.0
 40
3.0
 40
4.0
 40
4.0
 40
4.0
 40
5.0
 40
5.0
 40
5.0
 40
6.0
 40
6.0
 40
6.0
 40
7.0
 40
7.0
 40
7.0
 40
8.0
 40
8.0
 40
8.0
 40
8.0
 10
80.32274574814847
 20
242.6287732683359
 30
0.0
 10
80.32274574814847
 20
242.6287732683359
 30
0.0
 10
80.31447751898388
 20
242.6287732683359
 30
0.0
 10
80.31447751898388
 20
242.6287732683359
 30
0.0
 10
80.31447751898388
 20
242.6287732683359
 30
0.0
 10
79.8362982656312
 20
242.3707356164907
 30
0.0
 10
79.8362982656312
 20
242.3707356164907
 30
0.0
 10
79.8362982656312
 20
242.3707356164907
 30
0.0
 10
79.76429576998949
 20
242.6539224653782
 30
0.0
 10
79.76429576998949
 20
242.6539224653782
 30
0.0
 10
79.76429576998949
 20
242.6539224653782
 30
0.0
 10
80.36512042261703
 20
242.9756943837005
 30
0.0
 10
80.36512042261703
 20
242.9756943837005
 30
0.0
 10
80.36512042261703
 20
242.9756943837005
 30
0.0
 10
80.68241371680857
 20
242.9756943837005
 30
0.0
 10
80.68241371680857
 20
242.9756943837005
 30
0.0
 10
80.68241371680857
 20
242.9756943837005
 30
0.0
 10
80.68241371680857
 20
240.2254746578256
 30
0.0
 10
80.68241371680857
 20
240.2254746578256
 30
0.0
 10
80.68241371680857
 20
240.2254746578256
 30
0.0
 10
80.32274574814847
 20
240.2254746578256
 30
0.0
 10
80.32274574814847
 20
240.2254746578256
 30
0.0
 10
80.32274574814847
 20
240.2254746578256
 30
0.0
 10
80.32274574814847
 20
242.6287732683359
 30
0.0
 10
80.32274574814847
 20
242.6287732683359
 30
0.0
  0
HATCH
  5
CD
330
C8
100
AcDbEntity
  8
Livello 3
 62
   250
420
  1907995
440
 33554687
100
AcDbHatch
 10
0.0
 20
0.0
 30
0.0
210
0.0
220
0.0
230
1.0
  2
SOLID
 70
     1
 71
     1
 91
        1
 92
        1
 93
        1
 72
     4
 94
        3
 73
     0
 74
     0
 95
       29
 96
       25
 40
0.0
 40
0.0
 40
0.0
 40
0.0
 40
1.0
 40
1.0
 40
1.0
 40
2.0
 40
2.0
 40
2.0
 40
3.0
 40
3.0
 40
3.0
 40
4.0
 40
4.0
 40
4.0
 40
5.0
 40
5.0
 40
5.0
 40
6.0
 40
6.0
 40
6.0
 40
7.0
 40
7.0
 40
7.0
 40
8.0
 40
8.0
 40
8.0
 40
8.0
 10
80.32274574814847
 20
242.6287732683359
 10
80.32274574814847
 20
242.6287732683359
 10
80.31447751898388
 20
242.6287732683359
 10
80.31447751898388
 20
242.6287732683359
 10
80.31447751898388
 20
242.6287732683359
 10
79.8362982656312
 20
242.3707356164907
 10
79.8362982656312
 20
242.3707356164907
 10
79.8362982656312
 20
242.3707356164907
 10
79.76429576998949
 20
242.6539224653782
 10
79.76429576998949
 20
242.6539224653782
 10
79.76429576998949
 20
242.6539224653782
 10
80.36512042261703
 20
242.9756943837005
 10
80.36512042261703
 20
242.9756943837005
 10
80.36512042261703
 20
242.9756943837005
 10
80.68241371680857
 20
242.9756943837005
 10
80.68241371680857
 20
242.9756943837005
 10
80.68241371680857
 20
242.9756943837005
 10
80.68241371680857
 20
240.2254746578256
 10
80.68241371680857
 20
240.2254746578256
 10
80.68241371680857
 20
240.2254746578256
 10
80.32274574814847
 20
240.2254746578256
 10
80.32274574814847
 20
240.2254746578256
 10
80.32274574814847
 20
240.2254746578256
 10
80.32274574814847
 20
242.6287732683359
 10
80.32274574814847
 20
242.6287732683359
 97
        1
330
CC
 75
     2
 76
     1
 98
        1
 10
0.0
 20
0.0
450
        0
451
        0
460
0.0
461
0.0
452
        0
462
0.0
453
        0
470

  0
SPLINE
  5
CE
330
C8
100
AcDbEntity
  8
Livello 3
100
AcDbSpline
210
0.0
220
0.0
230
1.0
 70
    11
 71
     3
 72
    47
 73
    43
 74
     0
 42
0.000000001
 43
0.0000000001
 40
0.0
 40
0.0
 40
0.0
 40
0.0
 40
1.0
 40
1.0
 40
1.0
 40
2.0
 40
2.0
 40
2.0
 40
3.0
 40
3.0
 40
3.0
 40
4.0
 40
4.0
 40
4.0
 40
5.0
 40
5.0
 40
5.0
 40
6.0
 40
6.0
 40
6.0
 40
7.0
 40
7.0
 40
7.0
 40
8.0
 40
8.0
 40
8.0
 40
9.0
 40
9.0
 40
9.0
 40
10.0
 40
10.0
 40
10.0
 40
11.0
 40
11.0
 40
11.0
 40
12.0
 40
12.0
 40
12.0
 40
13.0
 40
13.0
 40
13.0
 40
14.0
 40
14.0
 40
14.0
 40
14.0
 10
81.68665905075888
 20
240.2254746578256
 30
0.0
 10
81.68665905075888
 20
240.2254746578256
 30
0.0
 10
81.68665905075888
 20
240.4538844884977
 30
0.0
 10
81.68665905075888
 20
240.4538844884977
 30
0.0
 10
81.68665905075888
 20
240.4538844884977
 30
0.0
 10
81.97845863835956
 20
240.7374158469337
 30
0.0
 10
81.97845863835956
 20
240.7374158469337
 30
0.0
 10
82.680913607802
 20
241.4057643710722
 30
0.0
 10
82.99820690199352
 20
241.76129822515
 30
0.0
 10
83.00234101657581
 20
242.176087721574
 30
0.0
 10
83.00234101657581
 20
242.4551404558793
 30
0.0
 10
82.86694876400549
 20
242.7131781077245
 30
0.0
 10
82.45663789171223
 20
242.7131781077245
 30
0.0
 10
82.20686846903161
 20
242.7131781077245
 30
0.0
 10
81.99947372081958
 20
242.5863985938673
 30
0.0
 10
81.87269420696237
 20
242.4806341624701
 30
0.0
 10
81.87269420696237
 20
242.4806341624701
 30
0.0
 10
81.75418292226979
 20
242.7428059288976
 30
0.0
 10
81.75418292226979
 20
242.7428059288976
 30
0.0
 10
81.94469670260408
 20
242.9036918880588
 30
0.0
 10
82.21548120774475
 20
243.0222031727514
 30
0.0
 10
82.53277450193627
 20
243.0222031727514
 30
0.0
 10
83.12498641585071
 20
243.0222031727514
 30
0.0
 10
83.37475583853132
 20
242.6160264150404
 30
0.0
 10
83.37475583853132
 20
242.2225965106249
 30
0.0
 10
83.37475583853132
 20
241.7147894360991
 30
0.0
 10
83.0064751311581
 20
241.3044785638058
 30
0.0
 10
82.42701007053907
 20
240.7460285856468
 30
0.0
 10
82.42701007053907
 20
240.7460285856468
 30
0.0
 10
82.20686846903161
 20
240.5427679520171
 30
0.0
 10
82.20686846903161
 20
240.5427679520171
 30
0.0
 10
82.20686846903161
 20
240.5427679520171
 30
0.0
 10
82.20686846903161
 20
240.5344997228525
 30
0.0
 10
82.20686846903161
 20
240.5344997228525
 30
0.0
 10
82.20686846903161
 20
240.5344997228525
 30
0.0
 10
83.44227971004221
 20
240.5344997228525
 30
0.0
 10
83.44227971004221
 20
240.5344997228525
 30
0.0
 10
83.44227971004221
 20
240.5344997228525
 30
0.0
 10
83.44227971004221
 20
240.2254746578256
 30
0.0
 10
83.44227971004221
 20
240.2254746578256
 30
0.0
 10
83.44227971004221
 20
240.2254746578256
 30
0.0
 10
81.68665905075888
 20
240.2254746578256
 30
0.0
 10
81.68665905075888
 20
240.2254746578256
 30
0.0
  0
HATCH
  5
CF
330
C8
100
AcDbEntity
  8
Livello 3
 62
   250
420
  1907995
440
 33554687
100
AcDbHatch
 10
0.0
 20
0.0
 30
0.0
210
0.0
220
0.0
230
1.0
  2
SOLID
 70
     1
 71
     1
 91
        1
 92
        1
 93
        1
 72
     4
 94
        3
 73
     0
 74
     0
 95
       47
 96
       43
 40
0.0
 40
0.0
 40
0.0
 40
0.0
 40
1.0
 40
1.0
 40
1.0
 40
2.0
 40
2.0
 40
2.0
 40
3.0
 40
3.0
 40
3.0
 40
4.0
 40
4.0
 40
4.0
 40
5.0
 40
5.0
 40
5.0
 40
6.0
 40
6.0
 40
6.0
 40
7.0
 40
7.0
 40
7.0
 40
8.0
 40
8.0
 40
8.0
 40
9.0
 40
9.0
 40
9.0
 40
10.0
 40
10.0
 40
10.0
 40
11.0
 40
11.0
 40
11.0
 40
12.0
 40
12.0
 40
12.0
 40
13.0
 40
13.0
 40
13.0
 40
14.0
 40
14.0
 40
14.0
 40
14.0
 10
81.68665905075888
 20
240.2254746578256
 10
81.68665905075888
 20
240.2254746578256
 10
81.68665905075888
 20
240.4538844884977
 10
81.68665905075888
 20
240.4538844884977
 10
81.68665905075888
 20
240.4538844884977
 10
81.97845863835956
 20
240.7374158469337
 10
81.97845863835956
 20
240.7374158469337
 10
82.680913607802
 20
241.4057643710722
 10
82.99820690199352
 20
241.76129822515
 10
83.00234101657581
 20
242.176087721574
 10
83.00234101657581
 20
242.4551404558793
 10
82.86694876400549
 20
242.7131781077245
 10
82.45663789171223
 20
242.7131781077245
 10
82.20686846903161
 20
242.7131781077245
 10
81.99947372081958
 20
242.5863985938673
 10
81.87269420696237
 20
242.4806341624701
 10
81.87269420696237
 20
242.4806341624701
 10
81.75418292226979
 20
242.7428059288976
 10
81.75418292226979
 20
242.7428059288976
 10
81.94469670260408
 20
242.9036918880588
 10
82.21548120774475
 20
243.0222031727514
 10
82.53277450193627
 20
243.0222031727514
 10
83.12498641585071
 20
243.0222031727514
 10
83.37475583853132
 20
242.6160264150404
 10
83.37475583853132
 20
242.2225965106249
 10
83.37475583853132
 20
241.7147894360991
 10
83.0064751311581
 20
241.3044785638058
 10
82.42701007053907
 20
240.7460285856468
 10
82.42701007053907
 20
240.7460285856468
 10
82.20686846903161
 20
240.5427679520171
 10
82.20686846903161
 20
240.5427679520171
 10
82.20686846903161
 20
240.5427679520171
 10
82.20686846903161
 20
240.5344997228525
 10
82.20686846903161
 20
240.5344997228525
 10
82.20686846903161
 20
240.5344997228525
 10
83.44227971004221
 20
240.5344997228525
 10
83.44227971004221
 20
240.5344997228525
 10
83.44227971004221
 20
240.5344997228525
 10
83.44227971004221
 20
240.2254746578256
 10
83.44227971004221
 20
240.2254746578256
 10
83.44227971004221
 20
240.2254746578256
 10
81.68665905075888
 20
240.2254746578256
 10
81.68665905075888
 20
240.2254746578256
 97
        1
330
CE
 75
     2
 76
     1
 98
        1
 10
0.0
 20
0.0
450
        0
451
        0
460
0.0
461
0.0
452
        0
462
0.0
453
        0
470

  0
SPLINE
  5
D0
330
C8
100
AcDbEntity
  8
Livello 3
100
AcDbSpline
210
0.0
220
0.0
230
1.0
 70
     9
 71
     3
 72
    17
 73
    13
 74
     0
 42
0.000000001
 43
0.0000000001
 40
0.0
 40
0.0
 40
0.0
 40
0.0
 40
1.0
 40
1.0
 40
1.0
 40
2.0
 40
2.0
 40
2.0
 40
3.0
 40
3.0
 40
3.0
 40
4.0
 40
4.0
 40
4.0
 40
4.0
 10
84.1922769971811
 20
241.5880099222419
 30
0.0
 10
84.1922769971811
 20
240.872808099504
 30
0.0
 10
84.41241859868856
 20
240.4666313417931
 30
0.0
 10
84.75072697534008
 20
240.4666313417931
 30
0.0
 10
85.13141002646021
 20
240.4666313417931
 30
0.0
 10
85.3133110680814
 20
240.9110486593903
 30
0.0
 10
85.3133110680814
 20
241.6131591192842
 30
0.0
 10
85.3133110680814
 20
242.2901203821358
 30
0.0
 10
85.14002276517333
 20
242.734537699733
 30
0.0
 10
84.75486108992241
 20
242.734537699733
 30
0.0
 10
84.42929956656627
 20
242.734537699733
 30
0.0
 10
84.1922769971811
 20
242.3366291711867
 30
0.0
 10
84.1922769971811
 20
241.5880099222419
 30
0.0
  0
SPLINE
  5
D1
330
C8
100
AcDbEntity
  8
Livello 3
100
AcDbSpline
210
0.0
220
0.0
230
1.0
 70
     9
 71
     3
 72
    17
 73
    13
 74
     0
 42
0.000000001
 43
0.0000000001
 40
0.0
 40
0.0
 40
0.0
 40
0.0
 40
1.0
 40
1.0
 40
1.0
 40
2.0
 40
2.0
 40
2.0
 40
3.0
 40
3.0
 40
3.0
 40
4.0
 40
4.0
 40
4.0
 40
4.0
 10
85.68572589003691
 20
241.630040087162
 30
0.0
 10
85.68572589003691
 20
240.6950411724651
 30
0.0
 10
85.33880477467223
 20
240.1789658687746
 30
0.0
 10
84.72971189288008
 20
240.1789658687746
 30
0.0
 10
84.1922769971811
 20
240.1789658687746
 30
0.0
 10
83.82847491393873
 20
240.6822943191697
 30
0.0
 10
83.81986217522559
 20
241.5921440368242
 30
0.0
 10
83.81986217522559
 20
242.5143960982256
 30
0.0
 10
84.21777070377194
 20
243.0222031727514
 30
0.0
 10
84.77622068193095
 20
243.0222031727514
 30
0.0
 10
85.35568574254995
 20
243.0222031727514
 30
0.0
 10
85.68572589003691
 20
242.506127869061
 30
0.0
 10
85.68572589003691
 20
241.630040087162
 30
0.0
  0
HATCH
  5
D2
330
C8
100
AcDbEntity
  8
Livello 3
 62
   250
420
  1907995
440
 33554687
100
AcDbHatch
 10
0.0
 20
0.0
 30
0.0
210
0.0
220
0.0
230
1.0
  2
SOLID
 70
     1
 71
     1
 91
        2
 92
        1
 93
        1
 72
     4
 94
        3
 73
     0
 74
     0
 95
       17
 96
       13
 40
0.0
 40
0.0
 40
0.0
 40
0.0
 40
1.0
 40
1.0
 40
1.0
 40
2.0
 40
2.0
 40
2.0
 40
3.0
 40
3.0
 40
3.0
 40
4.0
 40
4.0
 40
4.0
 40
4.0
 10
84.1922769971811
 20
241.5880099222419
 10
84.1922769971811
 20
240.872808099504
 10
84.41241859868856
 20
240.4666313417931
 10
84.75072697534008
 20
240.4666313417931
 10
85.13141002646021
 20
240.4666313417931
 10
85.3133110680814
 20
240.9110486593903
 10
85.3133110680814
 20
241.6131591192842
 10
85.3133110680814
 20
242.2901203821358
 10
85.14002276517333
 20
242.734537699733
 10
84.75486108992241
 20
242.734537699733
 10
84.42929956656627
 20
242.734537699733
 10
84.1922769971811
 20
242.3366291711867
 10
84.1922769971811
 20
241.5880099222419
 97
        1
330
D0
 92
        1
 93
        1
 72
     4
 94
        3
 73
     0
 74
     0
 95
       17
 96
       13
 40
0.0
 40
0.0
 40
0.0
 40
0.0
 40
1.0
 40
1.0
 40
1.0
 40
2.0
 40
2.0
 40
2.0
 40
3.0
 40
3.0
 40
3.0
 40
4.0
 40
4.0
 40
4.0
 40
4.0
 10
85.68572589003691
 20
241.630040087162
 10
85.68572589003691
 20
240.6950411724651
 10
85.33880477467223
 20
240.1789658687746
 10
84.72971189288008
 20
240.1789658687746
 10
84.1922769971811
 20
240.1789658687746
 10
83.82847491393873
 20
240.6822943191697
 10
83.81986217522559
 20
241.5921440368242
 10
83.81986217522559
 20
242.5143960982256
 10
84.21777070377194
 20
243.0222031727514
 10
84.77622068193095
 20
243.0222031727514
 10
85.35568574254995
 20
243.0222031727514
 10
85.68572589003691
 20
242.506127869061
 10
85.68572589003691
 20
241.630040087162
 97
        1
330
D1
 75
     2
 76
     1
 98
        1
 10
0.0
 20
0.0
450
        0
451
        0
460
0.0
461
0.0
452
        0
462
0.0
453
        0
470

  0
SPLINE
  5
D3
330
C8
100
AcDbEntity
  8
Livello 3
100
AcDbSpline
210
0.0
220
0.0
230
1.0
 70
     9
 71
     3
 72
    80
 73
    76
 74
     0
 42
0.000000001
 43
0.0000000001
 40
0.0
 40
0.0
 40
0.0
 40
0.0
 40
1.0
 40
1.0
 40
1.0
 40
2.0
 40
2.0
 40
2.0
 40
3.0
 40
3.0
 40
3.0
 40
4.0
 40
4.0
 40
4.0
 40
5.0
 40
5.0
 40
5.0
 40
6.0
 40
6.0
 40
6.0
 40
7.0
 40
7.0
 40
7.0
 40
8.0
 40
8.0
 40
8.0
 40
9.0
 40
9.0
 40
9.0
 40
10.0
 40
10.0
 40
10.0
 40
11.0
 40
11.0
 40
11.0
 40
12.0
 40
12.0
 40
12.0
 40
13.0
 40
13.0
 40
13.0
 40
14.0
 40
14.0
 40
14.0
 40
15.0
 40
15.0
 40
15.0
 40
16.0
 40
16.0
 40
16.0
 40
17.0
 40
17.0
 40
17.0
 40
18.0
 40
18.0
 40
18.0
 40
19.0
 40
19.0
 40
19.0
 40
20.0
 40
20.0
 40
20.0
 40
21.0
 40
21.0
 40
21.0
 40
22.0
 40
22.0
 40
22.0
 40
23.0
 40
23.0
 40
23.0
 40
24.0
 40
24.0
 40
24.0
 40
25.0
 40
25.0
 40
25.0
 40
25.0
 10
87.04584958761355
 20
241.7189235506814
 30
0.0
 10
87.04584958761355
 20
241.9304524134757
 30
0.0
 10
87.04137096348272
 20
242.1040852259323
 30
0.0
 10
87.02862411018729
 20
242.2732394142581
 30
0.0
 10
87.02862411018729
 20
242.2732394142581
 30
0.0
 10
87.35453014309191
 20
242.2732394142581
 30
0.0
 10
87.35453014309191
 20
242.2732394142581
 30
0.0
 10
87.35453014309191
 20
242.2732394142581
 30
0.0
 10
87.37141111096965
 20
241.9431992667711
 30
0.0
 10
87.37141111096965
 20
241.9431992667711
 30
0.0
 10
87.37141111096965
 20
241.9431992667711
 30
0.0
 10
87.38415796426506
 20
241.9431992667711
 30
0.0
 10
87.38415796426506
 20
241.9431992667711
 30
0.0
 10
87.49853513437539
 20
242.1378471616878
 30
0.0
 10
87.68870440516115
 20
242.3197482033089
 30
0.0
 10
88.02735729136122
 20
242.3197482033089
 30
0.0
 10
88.30641002566645
 20
242.3197482033089
 30
0.0
 10
88.5179388884608
 20
242.1505940149832
 30
0.0
 10
88.60682235198025
 20
241.9094373310157
 30
0.0
 10
88.60682235198025
 20
241.9094373310157
 30
0.0
 10
88.61543509069338
 20
241.9094373310157
 30
0.0
 10
88.61543509069338
 20
241.9094373310157
 30
0.0
 10
88.67882484762196
 20
242.023814501126
 30
0.0
 10
88.75909557242826
 20
242.1123534550969
 30
0.0
 10
88.84384492136543
 20
242.176087721574
 30
0.0
 10
88.96649032064033
 20
242.2691052996758
 30
0.0
 10
89.10188257321065
 20
242.3197482033089
 30
0.0
 10
89.29653046812727
 20
242.3197482033089
 30
0.0
 10
89.5673149732679
 20
242.3197482033089
 30
0.0
 10
89.96935761639653
 20
242.14198127627
 30
0.0
 10
89.96935761639653
 20
241.431258077663
 30
0.0
 10
89.96935761639653
 20
241.431258077663
 30
0.0
 10
89.96935761639653
 20
240.2254746578256
 30
0.0
 10
89.96935761639653
 20
240.2254746578256
 30
0.0
 10
89.96935761639653
 20
240.2254746578256
 30
0.0
 10
89.60555553315415
 20
240.2254746578256
 30
0.0
 10
89.60555553315415
 20
240.2254746578256
 30
0.0
 10
89.60555553315415
 20
240.2254746578256
 30
0.0
 10
89.60555553315415
 20
241.3847492886122
 30
0.0
 10
89.60555553315415
 20
241.3847492886122
 30
0.0
 10
89.60555553315415
 20
241.7781791930277
 30
0.0
 10
89.46155054187071
 20
242.0152017624129
 30
0.0
 10
89.16113821555695
 20
242.0152017624129
 30
0.0
 10
88.94960935276261
 20
242.0152017624129
 30
0.0
 10
88.78458927901913
 20
241.8587944273825
 30
0.0
 10
88.72119952209054
 20
241.6765488762128
 30
0.0
 10
88.70431855421282
 20
241.6259059725796
 30
0.0
 10
88.69157170091739
 20
241.5583821010688
 30
0.0
 10
88.69157170091739
 20
241.4905137200093
 30
0.0
 10
88.69157170091739
 20
241.4905137200093
 30
0.0
 10
88.69157170091739
 20
240.2254746578256
 30
0.0
 10
88.69157170091739
 20
240.2254746578256
 30
0.0
 10
88.69157170091739
 20
240.2254746578256
 30
0.0
 10
88.327769617675
 20
240.2254746578256
 30
0.0
 10
88.327769617675
 20
240.2254746578256
 30
0.0
 10
88.327769617675
 20
240.2254746578256
 30
0.0
 10
88.327769617675
 20
241.4526176696716
 30
0.0
 10
88.327769617675
 20
241.4526176696716
 30
0.0
 10
88.327769617675
 20
241.7781791930277
 30
0.0
 10
88.18376462639156
 20
242.0152017624129
 30
0.0
 10
87.9002332679555
 20
242.0152017624129
 30
0.0
 10
87.66768932270116
 20
242.0152017624129
 30
0.0
 10
87.49853513437539
 20
241.8291666062094
 30
0.0
 10
87.43927949202905
 20
241.6427869404574
 30
0.0
 10
87.41791990002052
 20
241.5880099222419
 30
0.0
 10
87.40965167085592
 20
241.5242756557648
 30
0.0
 10
87.40965167085592
 20
241.4608858988362
 30
0.0
 10
87.40965167085592
 20
241.4608858988362
 30
0.0
 10
87.40965167085592
 20
240.2254746578256
 30
0.0
 10
87.40965167085592
 20
240.2254746578256
 30
0.0
 10
87.40965167085592
 20
240.2254746578256
 30
0.0
 10
87.04584958761355
 20
240.2254746578256
 30
0.0
 10
87.04584958761355
 20
240.2254746578256
 30
0.0
 10
87.04584958761355
 20
240.2254746578256
 30
0.0
 10
87.04584958761355
 20
241.7189235506814
 30
0.0
 10
87.04584958761355
 20
241.7189235506814
 30
0.0
  0
HATCH
  5
D4
330
C8
100
AcDbEntity
  8
Livello 3
 62
   250
420
  1907995
440
 33554687
100
AcDbHatch
 10
0.0
 20
0.0
 30
0.0
210
0.0
220
0.0
230
1.0
  2
SOLID
 70
     1
 71
     1
 91
        1
 92
        1
 93
        1
 72
     4
 94
        3
 73
     0
 74
     0
 95
       80
 96
       76
 40
0.0
 40
0.0
 40
0.0
 40
0.0
 40
1.0
 40
1.0
 40
1.0
 40
2.0
 40
2.0
 40
2.0
 40
3.0
 40
3.0
 40
3.0
 40
4.0
 40
4.0
 40
4.0
 40
5.0
 40
5.0
 40
5.0
 40
6.0
 40
6.0
 40
6.0
 40
7.0
 40
7.0
 40
7.0
 40
8.0
 40
8.0
 40
8.0
 40
9.0
 40
9.0
 40
9.0
 40
10.0
 40
10.0
 40
10.0
 40
11.0
 40
11.0
 40
11.0
 40
12.0
 40
12.0
 40
12.0
 40
13.0
 40
13.0
 40
13.0
 40
14.0
 40
14.0
 40
14.0
 40
15.0
 40
15.0
 40
15.0
 40
16.0
 40
16.0
 40
16.0
 40
17.0
 40
17.0
 40
17.0
 40
18.0
 40
18.0
 40
18.0
 40
19.0
 40
19.0
 40
19.0
 40
20.0
 40
20.0
 40
20.0
 40
21.0
 40
21.0
 40
21.0
 40
22.0
 40
22.0
 40
22.0
 40
23.0
 40
23.0
 40
23.0
 40
24.0
 40
24.0
 40
24.0
 40
25.0
 40
25.0
 40
25.0
 40
25.0
 10
87.04584958761355
 20
241.7189235506814
 10
87.04584958761355
 20
241.9304524134757
 10
87.04137096348272
 20
242.1040852259323
 10
87.02862411018729
 20
242.2732394142581
 10
87.02862411018729
 20
242.2732394142581
 10
87.35453014309191
 20
242.2732394142581
 10
87.35453014309191
 20
242.2732394142581
 10
87.35453014309191
 20
242.2732394142581
 10
87.37141111096965
 20
241.9431992667711
 10
87.37141111096965
 20
241.9431992667711
 10
87.37141111096965
 20
241.9431992667711
 10
87.38415796426506
 20
241.9431992667711
 10
87.38415796426506
 20
241.9431992667711
 10
87.49853513437539
 20
242.1378471616878
 10
87.68870440516115
 20
242.3197482033089
 10
88.02735729136122
 20
242.3197482033089
 10
88.30641002566645
 20
242.3197482033089
 10
88.5179388884608
 20
242.1505940149832
 10
88.60682235198025
 20
241.9094373310157
 10
88.60682235198025
 20
241.9094373310157
 10
88.61543509069338
 20
241.9094373310157
 10
88.61543509069338
 20
241.9094373310157
 10
88.67882484762196
 20
242.023814501126
 10
88.75909557242826
 20
242.1123534550969
 10
88.84384492136543
 20
242.176087721574
 10
88.96649032064033
 20
242.2691052996758
 10
89.10188257321065
 20
242.3197482033089
 10
89.29653046812727
 20
242.3197482033089
 10
89.5673149732679
 20
242.3197482033089
 10
89.96935761639653
 20
242.14198127627
 10
89.96935761639653
 20
241.431258077663
 10
89.96935761639653
 20
241.431258077663
 10
89.96935761639653
 20
240.2254746578256
 10
89.96935761639653
 20
240.2254746578256
 10
89.96935761639653
 20
240.2254746578256
 10
89.60555553315415
 20
240.2254746578256
 10
89.60555553315415
 20
240.2254746578256
 10
89.60555553315415
 20
240.2254746578256
 10
89.60555553315415
 20
241.3847492886122
 10
89.60555553315415
 20
241.3847492886122
 10
89.60555553315415
 20
241.7781791930277
 10
89.46155054187071
 20
242.0152017624129
 10
89.16113821555695
 20
242.0152017624129
 10
88.94960935276261
 20
242.0152017624129
 10
88.78458927901913
 20
241.8587944273825
 10
88.72119952209054
 20
241.6765488762128
 10
88.70431855421282
 20
241.6259059725796
 10
88.69157170091739
 20
241.5583821010688
 10
88.69157170091739
 20
241.4905137200093
 10
88.69157170091739
 20
241.4905137200093
 10
88.69157170091739
 20
240.2254746578256
 10
88.69157170091739
 20
240.2254746578256
 10
88.69157170091739
 20
240.2254746578256
 10
88.327769617675
 20
240.2254746578256
 10
88.327769617675
 20
240.2254746578256
 10
88.327769617675
 20
240.2254746578256
 10
88.327769617675
 20
241.4526176696716
 10
88.327769617675
 20
241.4526176696716
 10
88.327769617675
 20
241.7781791930277
 10
88.18376462639156
 20
242.0152017624129
 10
87.9002332679555
 20
242.0152017624129
 10
87.66768932270116
 20
242.0152017624129
 10
87.49853513437539
 20
241.8291666062094
 10
87.43927949202905
 20
241.6427869404574
 10
87.41791990002052
 20
241.5880099222419
 10
87.40965167085592
 20
241.5242756557648
 10
87.40965167085592
 20
241.4608858988362
 10
87.40965167085592
 20
241.4608858988362
 10
87.40965167085592
 20
240.2254746578256
 10
87.40965167085592
 20
240.2254746578256
 10
87.40965167085592
 20
240.2254746578256
 10
87.04584958761355
 20
240.2254746578256
 10
87.04584958761355
 20
240.2254746578256
 10
87.04584958761355
 20
240.2254746578256
 10
87.04584958761355
 20
241.7189235506814
 10
87.04584958761355
 20
241.7189235506814
 97
        1
330
D3
 75
     2
 76
     1
 98
        1
 10
0.0
 20
0.0
450
        0
451
        0
460
0.0
461
0.0
452
        0
462
0.0
453
        0
470

  0
SPLINE
  5
D5
330
C8
100
AcDbEntity
  8
Livello 3
100
AcDbSpline
210
0.0
220
0.0
230
1.0
 70
     9
 71
     3
 72
    80
 73
    76
 74
     0
 42
0.000000001
 43
0.0000000001
 40
0.0
 40
0.0
 40
0.0
 40
0.0
 40
1.0
 40
1.0
 40
1.0
 40
2.0
 40
2.0
 40
2.0
 40
3.0
 40
3.0
 40
3.0
 40
4.0
 40
4.0
 40
4.0
 40
5.0
 40
5.0
 40
5.0
 40
6.0
 40
6.0
 40
6.0
 40
7.0
 40
7.0
 40
7.0
 40
8.0
 40
8.0
 40
8.0
 40
9.0
 40
9.0
 40
9.0
 40
10.0
 40
10.0
 40
10.0
 40
11.0
 40
11.0
 40
11.0
 40
12.0
 40
12.0
 40
12.0
 40
13.0
 40
13.0
 40
13.0
 40
14.0
 40
14.0
 40
14.0
 40
15.0
 40
15.0
 40
15.0
 40
16.0
 40
16.0
 40
16.0
 40
17.0
 40
17.0
 40
17.0
 40
18.0
 40
18.0
 40
18.0
 40
19.0
 40
19.0
 40
19.0
 40
20.0
 40
20.0
 40
20.0
 40
21.0
 40
21.0
 40
21.0
 40
22.0
 40
22.0
 40
22.0
 40
23.0
 40
23.0
 40
23.0
 40
24.0
 40
24.0
 40
24.0
 40
25.0
 40
25.0
 40
25.0
 40
25.0
 10
90.57638344089758
 20
241.7189235506814
 30
0.0
 10
90.57638344089758
 20
241.9304524134757
 30
0.0
 10
90.57190481676675
 20
242.1040852259323
 30
0.0
 10
90.55915796347132
 20
242.2732394142581
 30
0.0
 10
90.55915796347132
 20
242.2732394142581
 30
0.0
 10
90.88506399637596
 20
242.2732394142581
 30
0.0
 10
90.88506399637596
 20
242.2732394142581
 30
0.0
 10
90.88506399637596
 20
242.2732394142581
 30
0.0
 10
90.90194496425368
 20
241.9431992667711
 30
0.0
 10
90.90194496425368
 20
241.9431992667711
 30
0.0
 10
90.90194496425368
 20
241.9431992667711
 30
0.0
 10
90.91469181754913
 20
241.9431992667711
 30
0.0
 10
90.91469181754913
 20
241.9431992667711
 30
0.0
 10
91.0290689876594
 20
242.1378471616878
 30
0.0
 10
91.21923825844518
 20
242.3197482033089
 30
0.0
 10
91.55789114464523
 20
242.3197482033089
 30
0.0
 10
91.8369438789505
 20
242.3197482033089
 30
0.0
 10
92.04847274174484
 20
242.1505940149832
 30
0.0
 10
92.13735620526428
 20
241.9094373310157
 30
0.0
 10
92.13735620526428
 20
241.9094373310157
 30
0.0
 10
92.14596894397741
 20
241.9094373310157
 30
0.0
 10
92.14596894397741
 20
241.9094373310157
 30
0.0
 10
92.20935870090599
 20
242.023814501126
 30
0.0
 10
92.28962942571232
 20
242.1123534550969
 30
0.0
 10
92.37437877464945
 20
242.176087721574
 30
0.0
 10
92.49702417392434
 20
242.2691052996758
 30
0.0
 10
92.63241642649466
 20
242.3197482033089
 30
0.0
 10
92.82706432141131
 20
242.3197482033089
 30
0.0
 10
93.09784882655192
 20
242.3197482033089
 30
0.0
 10
93.49989146968059
 20
242.14198127627
 30
0.0
 10
93.49989146968059
 20
241.431258077663
 30
0.0
 10
93.49989146968059
 20
241.431258077663
 30
0.0
 10
93.49989146968059
 20
240.2254746578256
 30
0.0
 10
93.49989146968059
 20
240.2254746578256
 30
0.0
 10
93.49989146968059
 20
240.2254746578256
 30
0.0
 10
93.1360893864382
 20
240.2254746578256
 30
0.0
 10
93.1360893864382
 20
240.2254746578256
 30
0.0
 10
93.1360893864382
 20
240.2254746578256
 30
0.0
 10
93.1360893864382
 20
241.3847492886122
 30
0.0
 10
93.1360893864382
 20
241.3847492886122
 30
0.0
 10
93.1360893864382
 20
241.7781791930277
 30
0.0
 10
92.99208439515476
 20
242.0152017624129
 30
0.0
 10
92.69167206884096
 20
242.0152017624129
 30
0.0
 10
92.48014320604664
 20
242.0152017624129
 30
0.0
 10
92.31512313230316
 20
241.8587944273825
 30
0.0
 10
92.25173337537457
 20
241.6765488762128
 30
0.0
 10
92.23485240749687
 20
241.6259059725796
 30
0.0
 10
92.22210555420144
 20
241.5583821010688
 30
0.0
 10
92.22210555420144
 20
241.4905137200093
 30
0.0
 10
92.22210555420144
 20
241.4905137200093
 30
0.0
 10
92.22210555420144
 20
240.2254746578256
 30
0.0
 10
92.22210555420144
 20
240.2254746578256
 30
0.0
 10
92.22210555420144
 20
240.2254746578256
 30
0.0
 10
91.85830347095906
 20
240.2254746578256
 30
0.0
 10
91.85830347095906
 20
240.2254746578256
 30
0.0
 10
91.85830347095906
 20
240.2254746578256
 30
0.0
 10
91.85830347095906
 20
241.4526176696716
 30
0.0
 10
91.85830347095906
 20
241.4526176696716
 30
0.0
 10
91.85830347095906
 20
241.7781791930277
 30
0.0
 10
91.71429847967559
 20
242.0152017624129
 30
0.0
 10
91.43076712123956
 20
242.0152017624129
 30
0.0
 10
91.19822317598517
 20
242.0152017624129
 30
0.0
 10
91.0290689876594
 20
241.8291666062094
 30
0.0
 10
90.96981334531312
 20
241.6427869404574
 30
0.0
 10
90.94845375330455
 20
241.5880099222419
 30
0.0
 10
90.94018552413997
 20
241.5242756557648
 30
0.0
 10
90.94018552413997
 20
241.4608858988362
 30
0.0
 10
90.94018552413997
 20
241.4608858988362
 30
0.0
 10
90.94018552413997
 20
240.2254746578256
 30
0.0
 10
90.94018552413997
 20
240.2254746578256
 30
0.0
 10
90.94018552413997
 20
240.2254746578256
 30
0.0
 10
90.57638344089758
 20
240.2254746578256
 30
0.0
 10
90.57638344089758
 20
240.2254746578256
 30
0.0
 10
90.57638344089758
 20
240.2254746578256
 30
0.0
 10
90.57638344089758
 20
241.7189235506814
 30
0.0
 10
90.57638344089758
 20
241.7189235506814
 30
0.0
  0
HATCH
  5
D6
330
C8
100
AcDbEntity
  8
Livello 3
 62
   250
420
  1907995
440
 33554687
100
AcDbHatch
 10
0.0
 20
0.0
 30
0.0
210
0.0
220
0.0
230
1.0
  2
SOLID
 70
     1
 71
     1
 91
        1
 92
        1
 93
        1
 72
     4
 94
        3
 73
     0
 74
     0
 95
       80
 96
       76
 40
0.0
 40
0.0
 40
0.0
 40
0.0
 40
1.0
 40
1.0
 40
1.0
 40
2.0
 40
2.0
 40
2.0
 40
3.0
 40
3.0
 40
3.0
 40
4.0
 40
4.0
 40
4.0
 40
5.0
 40
5.0
 40
5.0
 40
6.0
 40
6.0
 40
6.0
 40
7.0
 40
7.0
 40
7.0
 40
8.0
 40
8.0
 40
8.0
 40
9.0
 40
9.0
 40
9.0
 40
10.0
 40
10.0
 40
10.0
 40
11.0
 40
11.0
 40
11.0
 40
12.0
 40
12.0
 40
12.0
 40
13.0
 40
13.0
 40
13.0
 40
14.0
 40
14.0
 40
14.0
 40
15.0
 40
15.0
 40
15.0
 40
16.0
 40
16.0
 40
16.0
 40
17.0
 40
17.0
 40
17.0
 40
18.0
 40
18.0
 40
18.0
 40
19.0
 40
19.0
 40
19.0
 40
20.0
 40
20.0
 40
20.0
 40
21.0
 40
21.0
 40
21.0
 40
22.0
 40
22.0
 40
22.0
 40
23.0
 40
23.0
 40
23.0
 40
24.0
 40
24.0
 40
24.0
 40
25.0
 40
25.0
 40
25.0
 40
25.0
 10
90.57638344089758
 20
241.7189235506814
 10
90.57638344089758
 20
241.9304524134757
 10
90.57190481676675
 20
242.1040852259323
 10
90.55915796347132
 20
242.2732394142581
 10
90.55915796347132
 20
242.2732394142581
 10
90.88506399637596
 20
242.2732394142581
 10
90.88506399637596
 20
242.2732394142581
 10
90.88506399637596
 20
242.2732394142581
 10
90.90194496425368
 20
241.9431992667711
 10
90.90194496425368
 20
241.9431992667711
 10
90.90194496425368
 20
241.9431992667711
 10
90.91469181754913
 20
241.9431992667711
 10
90.91469181754913
 20
241.9431992667711
 10
91.0290689876594
 20
242.1378471616878
 10
91.21923825844518
 20
242.3197482033089
 10
91.55789114464523
 20
242.3197482033089
 10
91.8369438789505
 20
242.3197482033089
 10
92.04847274174484
 20
242.1505940149832
 10
92.13735620526428
 20
241.9094373310157
 10
92.13735620526428
 20
241.9094373310157
 10
92.14596894397741
 20
241.9094373310157
 10
92.14596894397741
 20
241.9094373310157
 10
92.20935870090599
 20
242.023814501126
 10
92.28962942571232
 20
242.1123534550969
 10
92.37437877464945
 20
242.176087721574
 10
92.49702417392434
 20
242.2691052996758
 10
92.63241642649466
 20
242.3197482033089
 10
92.82706432141131
 20
242.3197482033089
 10
93.09784882655192
 20
242.3197482033089
 10
93.49989146968059
 20
242.14198127627
 10
93.49989146968059
 20
241.431258077663
 10
93.49989146968059
 20
241.431258077663
 10
93.49989146968059
 20
240.2254746578256
 10
93.49989146968059
 20
240.2254746578256
 10
93.49989146968059
 20
240.2254746578256
 10
93.1360893864382
 20
240.2254746578256
 10
93.1360893864382
 20
240.2254746578256
 10
93.1360893864382
 20
240.2254746578256
 10
93.1360893864382
 20
241.3847492886122
 10
93.1360893864382
 20
241.3847492886122
 10
93.1360893864382
 20
241.7781791930277
 10
92.99208439515476
 20
242.0152017624129
 10
92.69167206884096
 20
242.0152017624129
 10
92.48014320604664
 20
242.0152017624129
 10
92.31512313230316
 20
241.8587944273825
 10
92.25173337537457
 20
241.6765488762128
 10
92.23485240749687
 20
241.6259059725796
 10
92.22210555420144
 20
241.5583821010688
 10
92.22210555420144
 20
241.4905137200093
 10
92.22210555420144
 20
241.4905137200093
 10
92.22210555420144
 20
240.2254746578256
 10
92.22210555420144
 20
240.2254746578256
 10
92.22210555420144
 20
240.2254746578256
 10
91.85830347095906
 20
240.2254746578256
 10
91.85830347095906
 20
240.2254746578256
 10
91.85830347095906
 20
240.2254746578256
 10
91.85830347095906
 20
241.4526176696716
 10
91.85830347095906
 20
241.4526176696716
 10
91.85830347095906
 20
241.7781791930277
 10
91.71429847967559
 20
242.0152017624129
 10
91.43076712123956
 20
242.0152017624129
 10
91.19822317598517
 20
242.0152017624129
 10
91.0290689876594
 20
241.8291666062094
 10
90.96981334531312
 20
241.6427869404574
 10
90.94845375330455
 20
241.5880099222419
 10
90.94018552413997
 20
241.5242756557648
 10
90.94018552413997
 20
241.4608858988362
 10
90.94018552413997
 20
241.4608858988362
 10
90.94018552413997
 20
240.2254746578256
 10
90.94018552413997
 20
240.2254746578256
 10
90.94018552413997
 20
240.2254746578256
 10
90.57638344089758
 20
240.2254746578256
 10
90.57638344089758
 20
240.2254746578256
 10
90.57638344089758
 20
240.2254746578256
 10
90.57638344089758
 20
241.7189235506814
 10
90.57638344089758
 20
241.7189235506814
 97
        1
330
D5
 75
     2
 76
     1
 98
        1
 10
0.0
 20
0.0
450
        0
451
        0
460
0.0
461
0.0
452
        0
462
0.0
453
        0
470

  0
ENDBLK
  5
CB
330
C8
100
AcDbEntity
  8
0
100
AcDbBlockEnd
  0
BLOCK
  5
D9
330
D7
100
AcDbEntity
  8
0
100
AcDbBlockBegin
  2
Block_8
 70
     0
 10
0.0
 20
0.0
 30
0.0
  3
Block_8
  1

  0
INSERT
  5
DC
330
D7
100
AcDbEntity
  8
Livello 3
100
AcDbBlockReference
  2
Block_9
 10
0.0
 20
0.0
 30
0.0
  0
ENDBLK
  5
DA
330
D7
100
AcDbEntity
  8
0
100
AcDbBlockEnd
  0
BLOCK
  5
DD
330
DB
100
AcDbEntity
  8
0
100
AcDbBlockBegin
  2
Block_9
 70
     0
 10
0.0
 20
0.0
 30
0.0
  3
Block_9
  1

  0
SPLINE
  5
DF
330
DB
100
AcDbEntity
  8
Livello 3
100
AcDbSpline
210
0.0
220
0.0
230
1.0
 70
    11
 71
     3
 72
    29
 73
    25
 74
     0
 42
0.000000001
 43
0.0000000001
 40
0.0
 40
0.0
 40
0.0
 40
0.0
 40
1.0
 40
1.0
 40
1.0
 40
2.0
 40
2.0
 40
2.0
 40
3.0
 40
3.0
 40
3.0
 40
4.0
 40
4.0
 40
4.0
 40
5.0
 40
5.0
 40
5.0
 40
6.0
 40
6.0
 40
6.0
 40
7.0
 40
7.0
 40
7.0
 40
8.0
 40
8.0
 40
8.0
 40
8.0
 10
49.32515461006453
 20
229.2237344804545
 30
0.0
 10
49.32515461006453
 20
229.2237344804545
 30
0.0
 10
49.31688638089994
 20
229.2237344804545
 30
0.0
 10
49.31688638089994
 20
229.2237344804545
 30
0.0
 10
49.31688638089994
 20
229.2237344804545
 30
0.0
 10
48.83870712754728
 20
228.9656968286093
 30
0.0
 10
48.83870712754728
 20
228.9656968286093
 30
0.0
 10
48.83870712754728
 20
228.9656968286093
 30
0.0
 10
48.76670463190555
 20
229.2488836774968
 30
0.0
 10
48.76670463190555
 20
229.2488836774968
 30
0.0
 10
48.76670463190555
 20
229.2488836774968
 30
0.0
 10
49.36752928453312
 20
229.5706555958191
 30
0.0
 10
49.36752928453312
 20
229.5706555958191
 30
0.0
 10
49.36752928453312
 20
229.5706555958191
 30
0.0
 10
49.68482257872461
 20
229.5706555958191
 30
0.0
 10
49.68482257872461
 20
229.5706555958191
 30
0.0
 10
49.68482257872461
 20
229.5706555958191
 30
0.0
 10
49.68482257872461
 20
226.8204358699442
 30
0.0
 10
49.68482257872461
 20
226.8204358699442
 30
0.0
 10
49.68482257872461
 20
226.8204358699442
 30
0.0
 10
49.32515461006453
 20
226.8204358699442
 30
0.0
 10
49.32515461006453
 20
226.8204358699442
 30
0.0
 10
49.32515461006453
 20
226.8204358699442
 30
0.0
 10
49.32515461006453
 20
229.2237344804545
 30
0.0
 10
49.32515461006453
 20
229.2237344804545
 30
0.0
  0
HATCH
  5
E0
330
DB
100
AcDbEntity
  8
Livello 3
 62
   250
420
  1907995
440
 33554687
100
AcDbHatch
 10
0.0
 20
0.0
 30
0.0
210
0.0
220
0.0
230
1.0
  2
SOLID
 70
     1
 71
     1
 91
        1
 92
        1
 93
        1
 72
     4
 94
        3
 73
     0
 74
     0
 95
       29
 96
       25
 40
0.0
 40
0.0
 40
0.0
 40
0.0
 40
1.0
 40
1.0
 40
1.0
 40
2.0
 40
2.0
 40
2.0
 40
3.0
 40
3.0
 40
3.0
 40
4.0
 40
4.0
 40
4.0
 40
5.0
 40
5.0
 40
5.0
 40
6.0
 40
6.0
 40
6.0
 40
7.0
 40
7.0
 40
7.0
 40
8.0
 40
8.0
 40
8.0
 40
8.0
 10
49.32515461006453
 20
229.2237344804545
 10
49.32515461006453
 20
229.2237344804545
 10
49.31688638089994
 20
229.2237344804545
 10
49.31688638089994
 20
229.2237344804545
 10
49.31688638089994
 20
229.2237344804545
 10
48.83870712754728
 20
228.9656968286093
 10
48.83870712754728
 20
228.9656968286093
 10
48.83870712754728
 20
228.9656968286093
 10
48.76670463190555
 20
229.2488836774968
 10
48.76670463190555
 20
229.2488836774968
 10
48.76670463190555
 20
229.2488836774968
 10
49.36752928453312
 20
229.5706555958191
 10
49.36752928453312
 20
229.5706555958191
 10
49.36752928453312
 20
229.5706555958191
 10
49.68482257872461
 20
229.5706555958191
 10
49.68482257872461
 20
229.5706555958191
 10
49.68482257872461
 20
229.5706555958191
 10
49.68482257872461
 20
226.8204358699442
 10
49.68482257872461
 20
226.8204358699442
 10
49.68482257872461
 20
226.8204358699442
 10
49.32515461006453
 20
226.8204358699442
 10
49.32515461006453
 20
226.8204358699442
 10
49.32515461006453
 20
226.8204358699442
 10
49.32515461006453
 20
229.2237344804545
 10
49.32515461006453
 20
229.2237344804545
 97
        1
330
DF
 75
     2
 76
     1
 98
        1
 10
0.0
 20
0.0
450
        0
451
        0
460
0.0
461
0.0
452
        0
462
0.0
453
        0
470

  0
SPLINE
  5
E1
330
DB
100
AcDbEntity
  8
Livello 3
100
AcDbSpline
210
0.0
220
0.0
230
1.0
 70
    11
 71
     3
 72
    50
 73
    46
 74
     0
 42
0.000000001
 43
0.0000000001
 40
0.0
 40
0.0
 40
0.0
 40
0.0
 40
1.0
 40
1.0
 40
1.0
 40
2.0
 40
2.0
 40
2.0
 40
3.0
 40
3.0
 40
3.0
 40
4.0
 40
4.0
 40
4.0
 40
5.0
 40
5.0
 40
5.0
 40
6.0
 40
6.0
 40
6.0
 40
7.0
 40
7.0
 40
7.0
 40
8.0
 40
8.0
 40
8.0
 40
9.0
 40
9.0
 40
9.0
 40
10.0
 40
10.0
 40
10.0
 40
11.0
 40
11.0
 40
11.0
 40
12.0
 40
12.0
 40
12.0
 40
13.0
 40
13.0
 40
13.0
 40
14.0
 40
14.0
 40
14.0
 40
15.0
 40
15.0
 40
15.0
 40
15.0
 10
52.3306559113965
 20
229.2574964162099
 30
0.0
 10
52.3306559113965
 20
229.2574964162099
 30
0.0
 10
51.2812798265894
 20
229.2574964162099
 30
0.0
 10
51.2812798265894
 20
229.2574964162099
 30
0.0
 10
51.2812798265894
 20
229.2574964162099
 30
0.0
 10
51.17551539519222
 20
228.5509073321852
 30
0.0
 10
51.17551539519222
 20
228.5509073321852
 30
0.0
 10
51.23890515212083
 20
228.5595200708983
 30
0.0
 10
51.29816079446714
 20
228.5677883000629
 30
0.0
 10
51.399791111282
 20
228.5677883000629
 30
0.0
 10
51.61131997407633
 20
228.5677883000629
 30
0.0
 10
51.82284883687067
 20
228.521279511012
 30
0.0
 10
51.99200302519646
 20
228.4196491941972
 30
0.0
 10
52.20801051212161
 20
228.2970037949223
 30
0.0
 10
52.38543292961198
 20
228.0599812255371
 30
0.0
 10
52.38543292961198
 20
227.7130601101724
 30
0.0
 10
52.38543292961198
 20
227.175969724022
 30
0.0
 10
51.95824108944099
 20
226.7739270808934
 30
0.0
 10
51.36155055139572
 20
226.7739270808934
 30
0.0
 10
51.06113822508194
 20
226.7739270808934
 30
0.0
 10
50.80757919736754
 20
226.8586764298305
 30
0.0
 10
50.67632105937953
 20
226.9430812692191
 30
0.0
 10
50.67632105937953
 20
226.9430812692191
 30
0.0
 10
50.76933863748127
 20
227.2266126276552
 30
0.0
 10
50.76933863748127
 20
227.2266126276552
 30
0.0
 10
50.88371580759157
 20
227.1587442465957
 30
0.0
 10
51.10799152368134
 20
227.0743394072071
 30
0.0
 10
51.35741643681342
 20
227.0743394072071
 30
0.0
 10
51.70847166676039
 20
227.0743394072071
 30
0.0
 10
52.00888399307417
 20
227.3027492378792
 30
0.0
 10
52.00888399307417
 20
227.6710299452524
 30
0.0
 10
52.00474987849187
 20
228.0262192897816
 30
0.0
 10
51.76772730910668
 20
228.2801228270446
 30
0.0
 10
51.21789006966082
 20
228.2801228270446
 30
0.0
 10
51.06113822508194
 20
228.2801228270446
 30
0.0
 10
50.93849282580705
 20
228.2632418591668
 30
0.0
 10
50.83720701854071
 20
228.2504950058714
 30
0.0
 10
50.83720701854071
 20
228.2504950058714
 30
0.0
 10
51.01462943603106
 20
229.5706555958191
 30
0.0
 10
51.01462943603106
 20
229.5706555958191
 30
0.0
 10
51.01462943603106
 20
229.5706555958191
 30
0.0
 10
52.3306559113965
 20
229.5706555958191
 30
0.0
 10
52.3306559113965
 20
229.5706555958191
 30
0.0
 10
52.3306559113965
 20
229.5706555958191
 30
0.0
 10
52.3306559113965
 20
229.2574964162099
 30
0.0
 10
52.3306559113965
 20
229.2574964162099
 30
0.0
  0
HATCH
  5
E2
330
DB
100
AcDbEntity
  8
Livello 3
 62
   250
420
  1907995
440
 33554687
100
AcDbHatch
 10
0.0
 20
0.0
 30
0.0
210
0.0
220
0.0
230
1.0
  2
SOLID
 70
     1
 71
     1
 91
        1
 92
        1
 93
        1
 72
     4
 94
        3
 73
     0
 74
     0
 95
       50
 96
       46
 40
0.0
 40
0.0
 40
0.0
 40
0.0
 40
1.0
 40
1.0
 40
1.0
 40
2.0
 40
2.0
 40
2.0
 40
3.0
 40
3.0
 40
3.0
 40
4.0
 40
4.0
 40
4.0
 40
5.0
 40
5.0
 40
5.0
 40
6.0
 40
6.0
 40
6.0
 40
7.0
 40
7.0
 40
7.0
 40
8.0
 40
8.0
 40
8.0
 40
9.0
 40
9.0
 40
9.0
 40
10.0
 40
10.0
 40
10.0
 40
11.0
 40
11.0
 40
11.0
 40
12.0
 40
12.0
 40
12.0
 40
13.0
 40
13.0
 40
13.0
 40
14.0
 40
14.0
 40
14.0
 40
15.0
 40
15.0
 40
15.0
 40
15.0
 10
52.3306559113965
 20
229.2574964162099
 10
52.3306559113965
 20
229.2574964162099
 10
51.2812798265894
 20
229.2574964162099
 10
51.2812798265894
 20
229.2574964162099
 10
51.2812798265894
 20
229.2574964162099
 10
51.17551539519222
 20
228.5509073321852
 10
51.17551539519222
 20
228.5509073321852
 10
51.23890515212083
 20
228.5595200708983
 10
51.29816079446714
 20
228.5677883000629
 10
51.399791111282
 20
228.5677883000629
 10
51.61131997407633
 20
228.5677883000629
 10
51.82284883687067
 20
228.521279511012
 10
51.99200302519646
 20
228.4196491941972
 10
52.20801051212161
 20
228.2970037949223
 10
52.38543292961198
 20
228.0599812255371
 10
52.38543292961198
 20
227.7130601101724
 10
52.38543292961198
 20
227.175969724022
 10
51.95824108944099
 20
226.7739270808934
 10
51.36155055139572
 20
226.7739270808934
 10
51.06113822508194
 20
226.7739270808934
 10
50.80757919736754
 20
226.8586764298305
 10
50.67632105937953
 20
226.9430812692191
 10
50.67632105937953
 20
226.9430812692191
 10
50.76933863748127
 20
227.2266126276552
 10
50.76933863748127
 20
227.2266126276552
 10
50.88371580759157
 20
227.1587442465957
 10
51.10799152368134
 20
227.0743394072071
 10
51.35741643681342
 20
227.0743394072071
 10
51.70847166676039
 20
227.0743394072071
 10
52.00888399307417
 20
227.3027492378792
 10
52.00888399307417
 20
227.6710299452524
 10
52.00474987849187
 20
228.0262192897816
 10
51.76772730910668
 20
228.2801228270446
 10
51.21789006966082
 20
228.2801228270446
 10
51.06113822508194
 20
228.2801228270446
 10
50.93849282580705
 20
228.2632418591668
 10
50.83720701854071
 20
228.2504950058714
 10
50.83720701854071
 20
228.2504950058714
 10
51.01462943603106
 20
229.5706555958191
 10
51.01462943603106
 20
229.5706555958191
 10
51.01462943603106
 20
229.5706555958191
 10
52.3306559113965
 20
229.5706555958191
 10
52.3306559113965
 20
229.5706555958191
 10
52.3306559113965
 20
229.5706555958191
 10
52.3306559113965
 20
229.2574964162099
 10
52.3306559113965
 20
229.2574964162099
 97
        1
330
E1
 75
     2
 76
     1
 98
        1
 10
0.0
 20
0.0
450
        0
451
        0
460
0.0
461
0.0
452
        0
462
0.0
453
        0
470

  0
SPLINE
  5
E3
330
DB
100
AcDbEntity
  8
Livello 3
100
AcDbSpline
210
0.0
220
0.0
230
1.0
 70
     9
 71
     3
 72
    80
 73
    76
 74
     0
 42
0.000000001
 43
0.0000000001
 40
0.0
 40
0.0
 40
0.0
 40
0.0
 40
1.0
 40
1.0
 40
1.0
 40
2.0
 40
2.0
 40
2.0
 40
3.0
 40
3.0
 40
3.0
 40
4.0
 40
4.0
 40
4.0
 40
5.0
 40
5.0
 40
5.0
 40
6.0
 40
6.0
 40
6.0
 40
7.0
 40
7.0
 40
7.0
 40
8.0
 40
8.0
 40
8.0
 40
9.0
 40
9.0
 40
9.0
 40
10.0
 40
10.0
 40
10.0
 40
11.0
 40
11.0
 40
11.0
 40
12.0
 40
12.0
 40
12.0
 40
13.0
 40
13.0
 40
13.0
 40
14.0
 40
14.0
 40
14.0
 40
15.0
 40
15.0
 40
15.0
 40
16.0
 40
16.0
 40
16.0
 40
17.0
 40
17.0
 40
17.0
 40
18.0
 40
18.0
 40
18.0
 40
19.0
 40
19.0
 40
19.0
 40
20.0
 40
20.0
 40
20.0
 40
21.0
 40
21.0
 40
21.0
 40
22.0
 40
22.0
 40
22.0
 40
23.0
 40
23.0
 40
23.0
 40
24.0
 40
24.0
 40
24.0
 40
25.0
 40
25.0
 40
25.0
 40
25.0
 10
53.87647025562809
 20
228.3138847628
 30
0.0
 10
53.87647025562809
 20
228.5254136255943
 30
0.0
 10
53.87199163149728
 20
228.6990464380509
 30
0.0
 10
53.85924477820186
 20
228.8682006263767
 30
0.0
 10
53.85924477820186
 20
228.8682006263767
 30
0.0
 10
54.18515081110649
 20
228.8682006263767
 30
0.0
 10
54.18515081110649
 20
228.8682006263767
 30
0.0
 10
54.18515081110649
 20
228.8682006263767
 30
0.0
 10
54.20203177898422
 20
228.5381604788898
 30
0.0
 10
54.20203177898422
 20
228.5381604788898
 30
0.0
 10
54.20203177898422
 20
228.5381604788898
 30
0.0
 10
54.21477863227964
 20
228.5381604788898
 30
0.0
 10
54.21477863227964
 20
228.5381604788898
 30
0.0
 10
54.32915580238994
 20
228.7328083738064
 30
0.0
 10
54.51932507317573
 20
228.9147094154276
 30
0.0
 10
54.85797795937578
 20
228.9147094154276
 30
0.0
 10
55.13703069368101
 20
228.9147094154276
 30
0.0
 10
55.34855955647536
 20
228.7455552271018
 30
0.0
 10
55.43744301999481
 20
228.5043985431343
 30
0.0
 10
55.43744301999481
 20
228.5043985431343
 30
0.0
 10
55.44605575870793
 20
228.5043985431343
 30
0.0
 10
55.44605575870793
 20
228.5043985431343
 30
0.0
 10
55.50944551563652
 20
228.6187757132446
 30
0.0
 10
55.58971624044286
 20
228.7073146672156
 30
0.0
 10
55.67446558938001
 20
228.7710489336927
 30
0.0
 10
55.79711098865489
 20
228.8640665117944
 30
0.0
 10
55.93250324122521
 20
228.9147094154276
 30
0.0
 10
56.12715113614182
 20
228.9147094154276
 30
0.0
 10
56.39793564128247
 20
228.9147094154276
 30
0.0
 10
56.79997828441112
 20
228.7369424883887
 30
0.0
 10
56.79997828441112
 20
228.0262192897816
 30
0.0
 10
56.79997828441112
 20
228.0262192897816
 30
0.0
 10
56.79997828441112
 20
226.8204358699442
 30
0.0
 10
56.79997828441112
 20
226.8204358699442
 30
0.0
 10
56.79997828441112
 20
226.8204358699442
 30
0.0
 10
56.43617620116875
 20
226.8204358699442
 30
0.0
 10
56.43617620116875
 20
226.8204358699442
 30
0.0
 10
56.43617620116875
 20
226.8204358699442
 30
0.0
 10
56.43617620116875
 20
227.9797105007308
 30
0.0
 10
56.43617620116875
 20
227.9797105007308
 30
0.0
 10
56.43617620116875
 20
228.3731404051463
 30
0.0
 10
56.29217120988529
 20
228.6101629745315
 30
0.0
 10
55.99175888357152
 20
228.6101629745315
 30
0.0
 10
55.78023002077717
 20
228.6101629745315
 30
0.0
 10
55.6152099470337
 20
228.4537556395012
 30
0.0
 10
55.5518201901051
 20
228.2715100883315
 30
0.0
 10
55.53493922222738
 20
228.2208671846983
 30
0.0
 10
55.52219236893195
 20
228.1533433131874
 30
0.0
 10
55.52219236893195
 20
228.0854749321279
 30
0.0
 10
55.52219236893195
 20
228.0854749321279
 30
0.0
 10
55.52219236893195
 20
226.8204358699442
 30
0.0
 10
55.52219236893195
 20
226.8204358699442
 30
0.0
 10
55.52219236893195
 20
226.8204358699442
 30
0.0
 10
55.15839028568957
 20
226.8204358699442
 30
0.0
 10
55.15839028568957
 20
226.8204358699442
 30
0.0
 10
55.15839028568957
 20
226.8204358699442
 30
0.0
 10
55.15839028568957
 20
228.0475788817902
 30
0.0
 10
55.15839028568957
 20
228.0475788817902
 30
0.0
 10
55.15839028568957
 20
228.3731404051463
 30
0.0
 10
55.01438529440612
 20
228.6101629745315
 30
0.0
 10
54.73085393597006
 20
228.6101629745315
 30
0.0
 10
54.4983099907157
 20
228.6101629745315
 30
0.0
 10
54.32915580238994
 20
228.424127818328
 30
0.0
 10
54.26990016004364
 20
228.237748152576
 30
0.0
 10
54.2485405680351
 20
228.1829711343605
 30
0.0
 10
54.24027233887048
 20
228.1192368678834
 30
0.0
 10
54.24027233887048
 20
228.0558471109548
 30
0.0
 10
54.24027233887048
 20
228.0558471109548
 30
0.0
 10
54.24027233887048
 20
226.8204358699442
 30
0.0
 10
54.24027233887048
 20
226.8204358699442
 30
0.0
 10
54.24027233887048
 20
226.8204358699442
 30
0.0
 10
53.87647025562809
 20
226.8204358699442
 30
0.0
 10
53.87647025562809
 20
226.8204358699442
 30
0.0
 10
53.87647025562809
 20
226.8204358699442
 30
0.0
 10
53.87647025562809
 20
228.3138847628
 30
0.0
 10
53.87647025562809
 20
228.3138847628
 30
0.0
  0
HATCH
  5
E4
330
DB
100
AcDbEntity
  8
Livello 3
 62
   250
420
  1907995
440
 33554687
100
AcDbHatch
 10
0.0
 20
0.0
 30
0.0
210
0.0
220
0.0
230
1.0
  2
SOLID
 70
     1
 71
     1
 91
        1
 92
        1
 93
        1
 72
     4
 94
        3
 73
     0
 74
     0
 95
       80
 96
       76
 40
0.0
 40
0.0
 40
0.0
 40
0.0
 40
1.0
 40
1.0
 40
1.0
 40
2.0
 40
2.0
 40
2.0
 40
3.0
 40
3.0
 40
3.0
 40
4.0
 40
4.0
 40
4.0
 40
5.0
 40
5.0
 40
5.0
 40
6.0
 40
6.0
 40
6.0
 40
7.0
 40
7.0
 40
7.0
 40
8.0
 40
8.0
 40
8.0
 40
9.0
 40
9.0
 40
9.0
 40
10.0
 40
10.0
 40
10.0
 40
11.0
 40
11.0
 40
11.0
 40
12.0
 40
12.0
 40
12.0
 40
13.0
 40
13.0
 40
13.0
 40
14.0
 40
14.0
 40
14.0
 40
15.0
 40
15.0
 40
15.0
 40
16.0
 40
16.0
 40
16.0
 40
17.0
 40
17.0
 40
17.0
 40
18.0
 40
18.0
 40
18.0
 40
19.0
 40
19.0
 40
19.0
 40
20.0
 40
20.0
 40
20.0
 40
21.0
 40
21.0
 40
21.0
 40
22.0
 40
22.0
 40
22.0
 40
23.0
 40
23.0
 40
23.0
 40
24.0
 40
24.0
 40
24.0
 40
25.0
 40
25.0
 40
25.0
 40
25.0
 10
53.87647025562809
 20
228.3138847628
 10
53.87647025562809
 20
228.5254136255943
 10
53.87199163149728
 20
228.6990464380509
 10
53.85924477820186
 20
228.8682006263767
 10
53.85924477820186
 20
228.8682006263767
 10
54.18515081110649
 20
228.8682006263767
 10
54.18515081110649
 20
228.8682006263767
 10
54.18515081110649
 20
228.8682006263767
 10
54.20203177898422
 20
228.5381604788898
 10
54.20203177898422
 20
228.5381604788898
 10
54.20203177898422
 20
228.5381604788898
 10
54.21477863227964
 20
228.5381604788898
 10
54.21477863227964
 20
228.5381604788898
 10
54.32915580238994
 20
228.7328083738064
 10
54.51932507317573
 20
228.9147094154276
 10
54.85797795937578
 20
228.9147094154276
 10
55.13703069368101
 20
228.9147094154276
 10
55.34855955647536
 20
228.7455552271018
 10
55.43744301999481
 20
228.5043985431343
 10
55.43744301999481
 20
228.5043985431343
 10
55.44605575870793
 20
228.5043985431343
 10
55.44605575870793
 20
228.5043985431343
 10
55.50944551563652
 20
228.6187757132446
 10
55.58971624044286
 20
228.7073146672156
 10
55.67446558938001
 20
228.7710489336927
 10
55.79711098865489
 20
228.8640665117944
 10
55.93250324122521
 20
228.9147094154276
 10
56.12715113614182
 20
228.9147094154276
 10
56.39793564128247
 20
228.9147094154276
 10
56.79997828441112
 20
228.7369424883887
 10
56.79997828441112
 20
228.0262192897816
 10
56.79997828441112
 20
228.0262192897816
 10
56.79997828441112
 20
226.8204358699442
 10
56.79997828441112
 20
226.8204358699442
 10
56.79997828441112
 20
226.8204358699442
 10
56.43617620116875
 20
226.8204358699442
 10
56.43617620116875
 20
226.8204358699442
 10
56.43617620116875
 20
226.8204358699442
 10
56.43617620116875
 20
227.9797105007308
 10
56.43617620116875
 20
227.9797105007308
 10
56.43617620116875
 20
228.3731404051463
 10
56.29217120988529
 20
228.6101629745315
 10
55.99175888357152
 20
228.6101629745315
 10
55.78023002077717
 20
228.6101629745315
 10
55.6152099470337
 20
228.4537556395012
 10
55.5518201901051
 20
228.2715100883315
 10
55.53493922222738
 20
228.2208671846983
 10
55.52219236893195
 20
228.1533433131874
 10
55.52219236893195
 20
228.0854749321279
 10
55.52219236893195
 20
228.0854749321279
 10
55.52219236893195
 20
226.8204358699442
 10
55.52219236893195
 20
226.8204358699442
 10
55.52219236893195
 20
226.8204358699442
 10
55.15839028568957
 20
226.8204358699442
 10
55.15839028568957
 20
226.8204358699442
 10
55.15839028568957
 20
226.8204358699442
 10
55.15839028568957
 20
228.0475788817902
 10
55.15839028568957
 20
228.0475788817902
 10
55.15839028568957
 20
228.3731404051463
 10
55.01438529440612
 20
228.6101629745315
 10
54.73085393597006
 20
228.6101629745315
 10
54.4983099907157
 20
228.6101629745315
 10
54.32915580238994
 20
228.424127818328
 10
54.26990016004364
 20
228.237748152576
 10
54.2485405680351
 20
228.1829711343605
 10
54.24027233887048
 20
228.1192368678834
 10
54.24027233887048
 20
228.0558471109548
 10
54.24027233887048
 20
228.0558471109548
 10
54.24027233887048
 20
226.8204358699442
 10
54.24027233887048
 20
226.8204358699442
 10
54.24027233887048
 20
226.8204358699442
 10
53.87647025562809
 20
226.8204358699442
 10
53.87647025562809
 20
226.8204358699442
 10
53.87647025562809
 20
226.8204358699442
 10
53.87647025562809
 20
228.3138847628
 10
53.87647025562809
 20
228.3138847628
 97
        1
330
E3
 75
     2
 76
     1
 98
        1
 10
0.0
 20
0.0
450
        0
451
        0
460
0.0
461
0.0
452
        0
462
0.0
453
        0
470

  0
SPLINE
  5
E5
330
DB
100
AcDbEntity
  8
Livello 3
100
AcDbSpline
210
0.0
220
0.0
230
1.0
 70
     9
 71
     3
 72
    80
 73
    76
 74
     0
 42
0.000000001
 43
0.0000000001
 40
0.0
 40
0.0
 40
0.0
 40
0.0
 40
1.0
 40
1.0
 40
1.0
 40
2.0
 40
2.0
 40
2.0
 40
3.0
 40
3.0
 40
3.0
 40
4.0
 40
4.0
 40
4.0
 40
5.0
 40
5.0
 40
5.0
 40
6.0
 40
6.0
 40
6.0
 40
7.0
 40
7.0
 40
7.0
 40
8.0
 40
8.0
 40
8.0
 40
9.0
 40
9.0
 40
9.0
 40
10.0
 40
10.0
 40
10.0
 40
11.0
 40
11.0
 40
11.0
 40
12.0
 40
12.0
 40
12.0
 40
13.0
 40
13.0
 40
13.0
 40
14.0
 40
14.0
 40
14.0
 40
15.0
 40
15.0
 40
15.0
 40
16.0
 40
16.0
 40
16.0
 40
17.0
 40
17.0
 40
17.0
 40
18.0
 40
18.0
 40
18.0
 40
19.0
 40
19.0
 40
19.0
 40
20.0
 40
20.0
 40
20.0
 40
21.0
 40
21.0
 40
21.0
 40
22.0
 40
22.0
 40
22.0
 40
23.0
 40
23.0
 40
23.0
 40
24.0
 40
24.0
 40
24.0
 40
25.0
 40
25.0
 40
25.0
 40
25.0
 10
57.40700410891214
 20
228.3138847628
 30
0.0
 10
57.40700410891214
 20
228.5254136255943
 30
0.0
 10
57.40252548478132
 20
228.6990464380509
 30
0.0
 10
57.38977863148589
 20
228.8682006263767
 30
0.0
 10
57.38977863148589
 20
228.8682006263767
 30
0.0
 10
57.71568466439052
 20
228.8682006263767
 30
0.0
 10
57.71568466439052
 20
228.8682006263767
 30
0.0
 10
57.71568466439052
 20
228.8682006263767
 30
0.0
 10
57.73256563226825
 20
228.5381604788898
 30
0.0
 10
57.73256563226825
 20
228.5381604788898
 30
0.0
 10
57.73256563226825
 20
228.5381604788898
 30
0.0
 10
57.74531248556368
 20
228.5381604788898
 30
0.0
 10
57.74531248556368
 20
228.5381604788898
 30
0.0
 10
57.85968965567397
 20
228.7328083738064
 30
0.0
 10
58.04985892645976
 20
228.9147094154276
 30
0.0
 10
58.38851181265981
 20
228.9147094154276
 30
0.0
 10
58.66756454696504
 20
228.9147094154276
 30
0.0
 10
58.8790934097594
 20
228.7455552271018
 30
0.0
 10
58.96797687327885
 20
228.5043985431343
 30
0.0
 10
58.96797687327885
 20
228.5043985431343
 30
0.0
 10
58.97658961199197
 20
228.5043985431343
 30
0.0
 10
58.97658961199197
 20
228.5043985431343
 30
0.0
 10
59.03997936892056
 20
228.6187757132446
 30
0.0
 10
59.1202500937269
 20
228.7073146672156
 30
0.0
 10
59.20499944266403
 20
228.7710489336927
 30
0.0
 10
59.32764484193892
 20
228.8640665117944
 30
0.0
 10
59.46303709450925
 20
228.9147094154276
 30
0.0
 10
59.65768498942586
 20
228.9147094154276
 30
0.0
 10
59.9284694945665
 20
228.9147094154276
 30
0.0
 10
60.33051213769515
 20
228.7369424883887
 30
0.0
 10
60.33051213769515
 20
228.0262192897816
 30
0.0
 10
60.33051213769515
 20
228.0262192897816
 30
0.0
 10
60.33051213769515
 20
226.8204358699442
 30
0.0
 10
60.33051213769515
 20
226.8204358699442
 30
0.0
 10
60.33051213769515
 20
226.8204358699442
 30
0.0
 10
59.96671005445278
 20
226.8204358699442
 30
0.0
 10
59.96671005445278
 20
226.8204358699442
 30
0.0
 10
59.96671005445278
 20
226.8204358699442
 30
0.0
 10
59.96671005445278
 20
227.9797105007308
 30
0.0
 10
59.96671005445278
 20
227.9797105007308
 30
0.0
 10
59.96671005445278
 20
228.3731404051463
 30
0.0
 10
59.82270506316933
 20
228.6101629745315
 30
0.0
 10
59.52229273685553
 20
228.6101629745315
 30
0.0
 10
59.3107638740612
 20
228.6101629745315
 30
0.0
 10
59.14574380031773
 20
228.4537556395012
 30
0.0
 10
59.08235404338913
 20
228.2715100883315
 30
0.0
 10
59.0654730755114
 20
228.2208671846983
 30
0.0
 10
59.05272622221597
 20
228.1533433131874
 30
0.0
 10
59.05272622221597
 20
228.0854749321279
 30
0.0
 10
59.05272622221597
 20
228.0854749321279
 30
0.0
 10
59.05272622221597
 20
226.8204358699442
 30
0.0
 10
59.05272622221597
 20
226.8204358699442
 30
0.0
 10
59.05272622221597
 20
226.8204358699442
 30
0.0
 10
58.68892413897359
 20
226.8204358699442
 30
0.0
 10
58.68892413897359
 20
226.8204358699442
 30
0.0
 10
58.68892413897359
 20
226.8204358699442
 30
0.0
 10
58.68892413897359
 20
228.0475788817902
 30
0.0
 10
58.68892413897359
 20
228.0475788817902
 30
0.0
 10
58.68892413897359
 20
228.3731404051463
 30
0.0
 10
58.54491914769015
 20
228.6101629745315
 30
0.0
 10
58.2613877892541
 20
228.6101629745315
 30
0.0
 10
58.02884384399973
 20
228.6101629745315
 30
0.0
 10
57.85968965567397
 20
228.424127818328
 30
0.0
 10
57.80043401332767
 20
228.237748152576
 30
0.0
 10
57.77907442131912
 20
228.1829711343605
 30
0.0
 10
57.77080619215452
 20
228.1192368678834
 30
0.0
 10
57.77080619215452
 20
228.0558471109548
 30
0.0
 10
57.77080619215452
 20
228.0558471109548
 30
0.0
 10
57.77080619215452
 20
226.8204358699442
 30
0.0
 10
57.77080619215452
 20
226.8204358699442
 30
0.0
 10
57.77080619215452
 20
226.8204358699442
 30
0.0
 10
57.40700410891214
 20
226.8204358699442
 30
0.0
 10
57.40700410891214
 20
226.8204358699442
 30
0.0
 10
57.40700410891214
 20
226.8204358699442
 30
0.0
 10
57.40700410891214
 20
228.3138847628
 30
0.0
 10
57.40700410891214
 20
228.3138847628
 30
0.0
  0
HATCH
  5
E6
330
DB
100
AcDbEntity
  8
Livello 3
 62
   250
420
  1907995
440
 33554687
100
AcDbHatch
 10
0.0
 20
0.0
 30
0.0
210
0.0
220
0.0
230
1.0
  2
SOLID
 70
     1
 71
     1
 91
        1
 92
        1
 93
        1
 72
     4
 94
        3
 73
     0
 74
     0
 95
       80
 96
       76
 40
0.0
 40
0.0
 40
0.0
 40
0.0
 40
1.0
 40
1.0
 40
1.0
 40
2.0
 40
2.0
 40
2.0
 40
3.0
 40
3.0
 40
3.0
 40
4.0
 40
4.0
 40
4.0
 40
5.0
 40
5.0
 40
5.0
 40
6.0
 40
6.0
 40
6.0
 40
7.0
 40
7.0
 40
7.0
 40
8.0
 40
8.0
 40
8.0
 40
9.0
 40
9.0
 40
9.0
 40
10.0
 40
10.0
 40
10.0
 40
11.0
 40
11.0
 40
11.0
 40
12.0
 40
12.0
 40
12.0
 40
13.0
 40
13.0
 40
13.0
 40
14.0
 40
14.0
 40
14.0
 40
15.0
 40
15.0
 40
15.0
 40
16.0
 40
16.0
 40
16.0
 40
17.0
 40
17.0
 40
17.0
 40
18.0
 40
18.0
 40
18.0
 40
19.0
 40
19.0
 40
19.0
 40
20.0
 40
20.0
 40
20.0
 40
21.0
 40
21.0
 40
21.0
 40
22.0
 40
22.0
 40
22.0
 40
23.0
 40
23.0
 40
23.0
 40
24.0
 40
24.0
 40
24.0
 40
25.0
 40
25.0
 40
25.0
 40
25.0
 10
57.40700410891214
 20
228.3138847628
 10
57.40700410891214
 20
228.5254136255943
 10
57.40252548478132
 20
228.6990464380509
 10
57.38977863148589
 20
228.8682006263767
 10
57.38977863148589
 20
228.8682006263767
 10
57.71568466439052
 20
228.8682006263767
 10
57.71568466439052
 20
228.8682006263767
 10
57.71568466439052
 20
228.8682006263767
 10
57.73256563226825
 20
228.5381604788898
 10
57.73256563226825
 20
228.5381604788898
 10
57.73256563226825
 20
228.5381604788898
 10
57.74531248556368
 20
228.5381604788898
 10
57.74531248556368
 20
228.5381604788898
 10
57.85968965567397
 20
228.7328083738064
 10
58.04985892645976
 20
228.9147094154276
 10
58.38851181265981
 20
228.9147094154276
 10
58.66756454696504
 20
228.9147094154276
 10
58.8790934097594
 20
228.7455552271018
 10
58.96797687327885
 20
228.5043985431343
 10
58.96797687327885
 20
228.5043985431343
 10
58.97658961199197
 20
228.5043985431343
 10
58.97658961199197
 20
228.5043985431343
 10
59.03997936892056
 20
228.6187757132446
 10
59.1202500937269
 20
228.7073146672156
 10
59.20499944266403
 20
228.7710489336927
 10
59.32764484193892
 20
228.8640665117944
 10
59.46303709450925
 20
228.9147094154276
 10
59.65768498942586
 20
228.9147094154276
 10
59.9284694945665
 20
228.9147094154276
 10
60.33051213769515
 20
228.7369424883887
 10
60.33051213769515
 20
228.0262192897816
 10
60.33051213769515
 20
228.0262192897816
 10
60.33051213769515
 20
226.8204358699442
 10
60.33051213769515
 20
226.8204358699442
 10
60.33051213769515
 20
226.8204358699442
 10
59.96671005445278
 20
226.8204358699442
 10
59.96671005445278
 20
226.8204358699442
 10
59.96671005445278
 20
226.8204358699442
 10
59.96671005445278
 20
227.9797105007308
 10
59.96671005445278
 20
227.9797105007308
 10
59.96671005445278
 20
228.3731404051463
 10
59.82270506316933
 20
228.6101629745315
 10
59.52229273685553
 20
228.6101629745315
 10
59.3107638740612
 20
228.6101629745315
 10
59.14574380031773
 20
228.4537556395012
 10
59.08235404338913
 20
228.2715100883315
 10
59.0654730755114
 20
228.2208671846983
 10
59.05272622221597
 20
228.1533433131874
 10
59.05272622221597
 20
228.0854749321279
 10
59.05272622221597
 20
228.0854749321279
 10
59.05272622221597
 20
226.8204358699442
 10
59.05272622221597
 20
226.8204358699442
 10
59.05272622221597
 20
226.8204358699442
 10
58.68892413897359
 20
226.8204358699442
 10
58.68892413897359
 20
226.8204358699442
 10
58.68892413897359
 20
226.8204358699442
 10
58.68892413897359
 20
228.0475788817902
 10
58.68892413897359
 20
228.0475788817902
 10
58.68892413897359
 20
228.3731404051463
 10
58.54491914769015
 20
228.6101629745315
 10
58.2613877892541
 20
228.6101629745315
 10
58.02884384399973
 20
228.6101629745315
 10
57.85968965567397
 20
228.424127818328
 10
57.80043401332767
 20
228.237748152576
 10
57.77907442131912
 20
228.1829711343605
 10
57.77080619215452
 20
228.1192368678834
 10
57.77080619215452
 20
228.0558471109548
 10
57.77080619215452
 20
228.0558471109548
 10
57.77080619215452
 20
226.8204358699442
 10
57.77080619215452
 20
226.8204358699442
 10
57.77080619215452
 20
226.8204358699442
 10
57.40700410891214
 20
226.8204358699442
 10
57.40700410891214
 20
226.8204358699442
 10
57.40700410891214
 20
226.8204358699442
 10
57.40700410891214
 20
228.3138847628
 10
57.40700410891214
 20
228.3138847628
 97
        1
330
E5
 75
     2
 76
     1
 98
        1
 10
0.0
 20
0.0
450
        0
451
        0
460
0.0
461
0.0
452
        0
462
0.0
453
        0
470

  0
ENDBLK
  5
DE
330
DB
100
AcDbEntity
  8
0
100
AcDbBlockEnd
  0
ENDSEC
  0
SECTION
  2
ENTITIES
  0
SPLINE
  5
79
330
70
100
AcDbEntity
  8
0
100
AcDbSpline
210
0.0
220
0.0
230
1.0
 70
     8
 71
     3
 72
    14
 73
    10
 74
     0
 42
0.000000001
 43
0.0000000001
 40
0.0
 40
0.0
 40
0.0
 40
0.0
 40
1.0
 40
1.0
 40
1.0
 40
2.0
 40
2.0
 40
2.0
 40
3.0
 40
3.0
 40
3.0
 40
3.0
 10
100.6298610859536
 20
226.8361110544021
 30
0.0
 10
100.6298610859536
 20
226.8361110544021
 30
0.0
 10
149.7238636215559
 20
191.2055555077541
 30
0.0
 10
149.7238636215559
 20
191.2055555077541
 30
0.0
 10
149.7238636215559
 20
191.2055555077541
 30
0.0
 10
152.2478865174681
 20
191.8179804719004
 30
0.0
 10
150.7243055178745
 20
193.7631943960036
 30
0.0
 10
150.7243055178745
 20
193.7631943960036
 30
0.0
 10
100.6298610859536
 20
230.0111110536084
 30
0.0
 10
100.6298610859536
 20
230.0111110536084
 30
0.0
  0
LWPOLYLINE
  5
7A
330
70
100
AcDbEntity
  8
0
100
AcDbPolyline
 90
        4
 70
     1
 43
0.0
 10
119.8562499700359
 20
123.3840277469318
 10
117.2411385504551
 20
123.3840277469318
 10
117.2411385504551
 20
130.5839471182254
 10
119.8562499700359
 20
130.5839471182254
  0
SPLINE
  5
7B
330
70
100
AcDbEntity
  8
0
100
AcDbSpline
210
0.0
220
0.0
230
1.0
 70
     8
 71
     3
 72
    23
 73
    19
 74
     0
 42
0.000000001
 43
0.0000000001
 40
0.0
 40
0.0
 40
0.0
 40
0.0
 40
1.0
 40
1.0
 40
1.0
 40
2.0
 40
2.0
 40
2.0
 40
3.0
 40
3.0
 40
3.0
 40
4.0
 40
4.0
 40
4.0
 40
5.0
 40
5.0
 40
5.0
 40
6.0
 40
6.0
 40
6.0
 40
6.0
 10
118.6636734509127
 20
130.5147395604075
 30
0.0
 10
118.5041595636276
 20
129.8589683125567
 30
0.0
 10
117.2411385504551
 20
130.4850690689915
 30
0.0
 10
117.2411385504551
 20
130.5839471182254
 30
0.0
 10
116.0546019596478
 20
131.0783373643955
 30
0.0
 10
116.4501141565834
 20
132.0671178567344
 30
0.0
 10
116.4501141565834
 20
132.0671178567344
 30
0.0
 10
116.4501141565834
 20
132.0671178567344
 30
0.0
 10
147.3938156262873
 20
197.5455664941676
 30
0.0
 10
147.3938156262873
 20
197.5455664941676
 30
0.0
 10
147.3938156262873
 20
197.5455664941676
 30
0.0
 10
147.7802954052454
 20
198.6304826734379
 30
0.0
 10
149.0297194580067
 20
198.1761466542522
 30
0.0
 10
149.0297194580067
 20
198.1903446548521
 30
0.0
 10
150.1180055386838
 20
197.6848328432675
 30
0.0
 10
149.5692434807902
 20
196.5024397004068
 30
0.0
 10
149.5692434807902
 20
196.5024397004068
 30
0.0
 10
122.9014483483392
 20
139.0425303530662
 30
0.0
 10
122.9014483483392
 20
139.0425303530662
 30
0.0
  0
LWPOLYLINE
  5
7C
330
70
100
AcDbEntity
  8
0
100
AcDbPolyline
 90
        4
 70
     1
 43
0.0
 10
121.2673610807943
 20
122.6784721915526
 10
103.4520833074703
 20
122.6784721915526
 10
103.4520833074703
 20
123.3840277469318
 10
121.2673610807943
 20
123.3840277469318
  0
LWPOLYLINE
  5
7D
330
70
100
AcDbEntity
  8
0
100
AcDbPolyline
 90
        4
 70
     1
 43
0.0
 10
129.6458333009218
 20
118.0041666371655
 10
95.0736110873427
 20
118.0041666371655
 10
95.0736110873427
 20
122.6784721915526
 10
129.6458333009218
 20
122.6784721915526
  0
LWPOLYLINE
  5
7E
330
70
100
AcDbEntity
  8
0
100
AcDbPolyline
 90
        4
 70
     1
 43
0.0
 10
100.6298610859536
 20
226.8204486712006
 10
73.28958331501095
 20
226.8204486712006
 10
73.28958331501095
 20
230.0111110536084
 10
100.6298610859536
 20
230.0111110536084
  0
LINE
  5
7F
330
70
100
AcDbEntity
  8
0
100
AcDbLine
 10
95.5145833094547
 20
230.0111110536084
 30
0.0
 11
95.5145833094547
 21
226.8204486712006
 31
0.0
  0
SPLINE
  5
80
330
70
100
AcDbEntity
  8
0
100
AcDbSpline
210
0.0
220
0.0
230
1.0
 70
     9
 71
     3
 72
    32
 73
    28
 74
     0
 42
0.000000001
 43
0.0000000001
 40
0.0
 40
0.0
 40
0.0
 40
0.0
 40
1.0
 40
1.0
 40
1.0
 40
2.0
 40
2.0
 40
2.0
 40
3.0
 40
3.0
 40
3.0
 40
4.0
 40
4.0
 40
4.0
 40
5.0
 40
5.0
 40
5.0
 40
6.0
 40
6.0
 40
6.0
 40
7.0
 40
7.0
 40
7.0
 40
8.0
 40
8.0
 40
8.0
 40
9.0
 40
9.0
 40
9.0
 40
9.0
 10
120.3163923032171
 20
131.292051706272
 30
0.0
 10
119.7422590024203
 20
131.6930071007204
 30
0.0
 10
118.9504053512735
 20
132.4234031130362
 30
0.0
 10
119.0487892541083
 20
133.172364965435
 30
0.0
 10
119.1146979546243
 20
133.6741045895518
 30
0.0
 10
119.5157692669887
 20
134.1755804909136
 30
0.0
 10
119.8120401788558
 20
134.5644703363876
 30
0.0
 10
121.1342739349984
 20
136.3000551019213
 30
0.0
 10
123.0233195094523
 20
137.5456582015965
 30
0.0
 10
124.914221592596
 20
138.577110862766
 30
0.0
 10
125.7116901015747
 20
139.0121154159455
 30
0.0
 10
125.0003148455947
 20
140.2310264482724
 30
0.0
 10
124.2020067949383
 20
139.7955639403912
 30
0.0
 10
121.9614674819624
 20
138.5733905357376
 30
0.0
 10
119.7544446521039
 20
137.0352272641541
 30
0.0
 10
118.3141202023065
 20
134.8832111727498
 30
0.0
 10
117.8281535827968
 20
134.157119225052
 30
0.0
 10
117.4274130109247
 20
133.2633865008131
 30
0.0
 10
117.7015967843063
 20
132.3828515054237
 30
0.0
 10
117.9977960893729
 20
131.43161412728
 30
0.0
 10
118.8052097811888
 20
130.6315708254024
 30
0.0
 10
119.6041775055594
 20
130.0735986286467
 30
0.0
 10
120.3503525441142
 20
129.5524950687311
 30
0.0
 10
121.0563933879527
 20
130.7752598281314
 30
0.0
 10
120.3163923032171
 20
131.292051706272
 30
0.0
 10
120.3163923032171
 20
131.292051706272
 30
0.0
 10
120.3163923032171
 20
131.292051706272
 30
0.0
 10
120.3163923032171
 20
131.292051706272
 30
0.0
  0
SPLINE
  5
81
330
70
100
AcDbEntity
  8
0
100
AcDbSpline
210
0.0
220
0.0
230
1.0
 70
     9
 71
     3
 72
    23
 73
    19
 74
     0
 42
0.000000001
 43
0.0000000001
 40
0.0
 40
0.0
 40
0.0
 40
0.0
 40
1.0
 40
1.0
 40
1.0
 40
2.0
 40
2.0
 40
2.0
 40
3.0
 40
3.0
 40
3.0
 40
4.0
 40
4.0
 40
4.0
 40
5.0
 40
5.0
 40
5.0
 40
6.0
 40
6.0
 40
6.0
 40
6.0
 10
144.5221692568576
 20
193.0592702472699
 30
0.0
 10
144.4451447189392
 20
193.0276480256901
 30
0.0
 10
144.2134372141389
 20
193.0984982298987
 30
0.0
 10
144.1415046304929
 20
193.2737096394602
 30
0.0
 10
144.0695720468469
 20
193.4489210490218
 30
0.0
 10
144.1846537904019
 20
193.6621446675949
 30
0.0
 10
144.261678328321
 20
193.6937668891756
 30
0.0
 10
144.261678328321
 20
193.6937668891756
 30
0.0
 10
149.8974233955243
 20
196.6894263901644
 30
0.0
 10
149.8974233955243
 20
196.6894263901644
 30
0.0
 10
149.8974233955243
 20
196.6894263901644
 30
0.0
 10
150.324128231907
 20
196.9631011177632
 30
0.0
 10
150.5093347142573
 20
196.7257294334135
 30
0.0
 10
150.535195300665
 20
196.7238101204331
 30
0.0
 10
150.7705639681534
 20
196.4558615532462
 30
0.0
 10
150.262890379195
 20
196.1351235174864
 30
0.0
 10
150.327892017331
 20
196.2347618668687
 30
0.0
 10
144.5221692568576
 20
193.0592702472699
 30
0.0
 10
144.5221692568576
 20
193.0592702472699
 30
0.0
  0
SPLINE
  5
82
330
70
100
AcDbEntity
  8
0
100
AcDbSpline
210
0.0
220
0.0
230
1.0
 70
     9
 71
     3
 72
    41
 73
    37
 74
     0
 42
0.000000001
 43
0.0000000001
 40
0.0
 40
0.0
 40
0.0
 40
0.0
 40
1.0
 40
1.0
 40
1.0
 40
2.0
 40
2.0
 40
2.0
 40
3.0
 40
3.0
 40
3.0
 40
4.0
 40
4.0
 40
4.0
 40
5.0
 40
5.0
 40
5.0
 40
6.0
 40
6.0
 40
6.0
 40
7.0
 40
7.0
 40
7.0
 40
8.0
 40
8.0
 40
8.0
 40
9.0
 40
9.0
 40
9.0
 40
10.0
 40
10.0
 40
10.0
 40
11.0
 40
11.0
 40
11.0
 40
12.0
 40
12.0
 40
12.0
 40
12.0
 10
103.4371186739562
 20
228.4947738076224
 30
0.0
 10
103.4371186739562
 20
229.1015627818088
 30
0.0
 10
103.0503851738902
 20
229.6137838849251
 30
0.0
 10
102.5116583673842
 20
229.8104988371329
 30
0.0
 10
102.6173366713942
 20
230.7893150600327
 30
0.0
 10
102.702322870646
 20
231.5170914812918
 30
0.0
 10
102.717718141096
 20
231.4799705774382
 30
0.0
 10
102.7394222426531
 20
232.0800846791219
 30
0.0
 10
102.3853956178498
 20
232.0369779218627
 30
0.0
 10
102.3692036690691
 20
232.0167164540401
 30
0.0
 10
102.068726747215
 20
231.9977684288712
 30
0.0
 10
102.0538697729349
 20
231.4910594785313
 30
0.0
 10
102.0538697729349
 20
231.4910594785313
 30
0.0
 10
102.0538697729349
 20
231.4910594785313
 30
0.0
 10
101.8747248077019
 20
229.8842669442108
 30
0.0
 10
101.8747248077019
 20
229.8842669442108
 30
0.0
 10
101.1734971535261
 20
229.8052450665179
 30
0.0
 10
100.6264375223152
 20
229.2171242034922
 30
0.0
 10
100.6264375223152
 20
228.4947738076224
 30
0.0
 10
100.6264375223152
 20
227.8804271552152
 30
0.0
 10
101.0231402674417
 20
227.3637274279681
 30
0.0
 10
101.5723961470247
 20
227.1726753514642
 30
0.0
 10
101.5723961470247
 20
227.1726753514642
 30
0.0
 10
101.3466562653537
 20
225.1479281392426
 30
0.0
 10
101.3466562653537
 20
225.1479281392426
 30
0.0
 10
101.3293015968465
 20
225.0664946947099
 30
0.0
 10
101.440384394399
 20
224.851154695035
 30
0.0
 10
101.6256228722719
 20
224.8116652880354
 30
0.0
 10
101.810861350144
 20
224.7721758810357
 30
0.0
 10
102.0001047515185
 20
224.9234801683785
 30
0.0
 10
102.0174594200251
 20
225.0049136129111
 30
0.0
 10
102.0174594200251
 20
225.0049136129111
 30
0.0
 10
102.1109722306029
 20
225.9454462122311
 30
0.0
 10
102.2297418974569
 20
227.1093932537695
 30
0.0
 10
102.9112894436732
 20
227.2063726916793
 30
0.0
 10
103.4371186739562
 20
227.7864191121615
 30
0.0
 10
103.4371186739562
 20
228.4947738076224
 30
0.0
  0
LINE
  5
84
330
70
100
AcDbEntity
  8
0
100
AcDbLine
 10
95.0736110873427
 20
110.06666663915
 30
0.0
 11
129.6458333009218
 21
110.06666663915
 31
0.0
  0
LINE
  5
85
330
70
100
AcDbEntity
  8
0
100
AcDbLine
 10
77.8165628427245
 20
111.3892480195166
 30
0.0
 11
89.26747682953573
 21
122.8401620063278
 31
0.0
  0
LINE
  5
86
330
70
100
AcDbEntity
  8
0
100
AcDbLine
 10
167.4518518099887
 20
230.0111110536084
 30
0.0
 11
167.4518518099887
 21
118.0041666371655
 31
0.0
  0
LINE
  5
87
330
70
100
AcDbEntity
  8
0
100
AcDbLine
 10
73.28958331501095
 20
236.1259258668944
 30
0.0
 11
100.6298610859536
 21
236.1259258668944
 31
0.0
  0
LINE
  5
88
330
70
100
AcDbEntity
  8
0
100
AcDbLine
 10
68.43888887177917
 20
230.0111110536084
 30
0.0
 11
68.43888887177917
 21
226.8204486712006
 31
0.0
  0
MTEXT
  5
12D
330
70
100
AcDbEntity
  8
0
100
AcDbMText
 10
107.3030110408826
 20
108.027316596857
 30
0.0
 40
2.4
 41
311.9340506414892
 46
0.0
 71
     1
 72
     5
  1
185 mm
 73
     1
 44
1.0
1001
ACAD
1000
ACAD_MTEXT_COLUMN_INFO_BEGIN
1070
    75
1070
     2
1070
    79
1070
     0
1070
    76
1070
     1
1070
    78
1070
     0
1070
    48
1040
311.9340506414892
1070
    49
1040
12.0
1070
    50
1070
     1
1040
0.0
1000
ACAD_MTEXT_COLUMN_INFO_END
  0
MTEXT
  5
134
330
70
100
AcDbEntity
  8
0
100
AcDbMText
 10
68.60497253131339
 20
119.2472628003382
 30
0.0
 40
2.4
 41
311.9340506414892
 46
0.0
 71
     1
 72
     5
  1
185 mm
 73
     1
 44
1.0
1001
ACAD
1000
ACAD_MTEXT_COLUMN_INFO_BEGIN
1070
    75
1070
     2
1070
    79
1070
     0
1070
    76
1070
     1
1070
    78
1070
     0
1070
    48
1040
311.9340506414892
1070
    49
1040
12.0
1070
    50
1070
     1
1040
0.0
1000
ACAD_MTEXT_COLUMN_INFO_END
  0
MTEXT
  5
13A
330
70
100
AcDbEntity
  8
0
100
AcDbMText
 10
169.8706319785796
 20
183.6496951832017
 30
0.0
 40
2.4
 41
311.9340506414892
 46
0.0
 71
     1
 72
     5
  1
655 mm
 73
     1
 44
1.0
1001
ACAD
1000
ACAD_MTEXT_COLUMN_INFO_BEGIN
1070
    75
1070
     2
1070
    79
1070
     0
1070
    76
1070
     1
1070
    78
1070
     0
1070
    48
1040
311.9340506414892
1070
    49
1040
12.0
1070
    50
1070
     1
1040
0.0
1000
ACAD_MTEXT_COLUMN_INFO_END
  0
MTEXT
  5
140
330
70
100
AcDbEntity
  8
0
100
AcDbMText
 10
79.81243461717409
 20
239.8511428713502
 30
0.0
 40
2.4
 41
311.9340506414892
 46
0.0
 71
     1
 72
     5
  1
120 mm
 73
     1
 44
1.0
1001
ACAD
1000
ACAD_MTEXT_COLUMN_INFO_BEGIN
1070
    75
1070
     2
1070
    79
1070
     0
1070
    76
1070
     1
1070
    78
1070
     0
1070
    48
1040
311.9340506414892
1070
    49
1040
12.0
1070
    50
1070
     1
1040
0.0
1000
ACAD_MTEXT_COLUMN_INFO_END
  0
MTEXT
  5
146
330
70
100
AcDbEntity
  8
0
100
AcDbMText
 10
53.87647014407523
 20
230.7138848053059
 30
0.0
 40
2.4
 41
311.9340506414892
 46
0.0
 71
     1
 72
     5
  1
15 mm
 73
     1
 44
1.0
1001
ACAD
1000
ACAD_MTEXT_COLUMN_INFO_BEGIN
1070
    75
1070
     2
1070
    79
1070
     0
1070
    76
1070
     1
1070
    78
1070
     0
1070
    48
1040
311.9340506414892
1070
    49
1040
12.0
1070
    50
1070
     1
1040
0.0
1000
ACAD_MTEXT_COLUMN_INFO_END
  0
ENDSEC
  0
SECTION
  2
OBJECTS
  0
DICTIONARY
  5
C
330
0
100
AcDbDictionary
281
     1
  3
ACAD_CIP_PREVIOUS_PRODUCT_INFO
350
12A
  3
ACAD_COLOR
350
63
  3
ACAD_DETAILVIEWSTYLE
350
6A
  3
ACAD_GROUP
350
D
  3
ACAD_LAYOUT
350
62
  3
ACAD_MATERIAL
350
10
  3
ACAD_MLEADERSTYLE
350
66
  3
ACAD_MLINESTYLE
350
5F
  3
ACAD_PLOTSETTINGS
350
61
  3
ACAD_PLOTSTYLENAME
350
E
  3
ACAD_SCALELIST
350
42
  3
ACAD_SECTIONVIEWSTYLE
350
68
  3
ACAD_TABLESTYLE
350
64
  3
ACAD_VISUALSTYLE
350
29
  3
ACDB_RECOMPOSE_DATA
350
149
  3
AcDbVariableDictionary
350
E7
  0
XRECORD
  5
12A
102
{ACAD_REACTORS
330
C
102
}
330
C
100
AcDbXrecord
280
     1
300
ACD
300
2019
300
ACD_F_S
  0
DICTIONARY
  5
63
102
{ACAD_REACTORS
330
C
102
}
330
C
100
AcDbDictionary
281
     1
  0
DICTIONARY
  5
6A
102
{ACAD_REACTORS
330
C
102
}
330
C
100
AcDbDictionary
281
     1
  3
Imperial24
350
6B
  0
DICTIONARY
  5
D
102
{ACAD_REACTORS
330
C
102
}
330
C
100
AcDbDictionary
281
     1
  0
DICTIONARY
  5
62
102
{ACAD_REACTORS
330
C
102
}
330
C
100
AcDbDictionary
281
     1
  3
Layout1
350
6F
  3
Layout2
350
77
  3
Model
350
73
  0
DICTIONARY
  5
10
102
{ACAD_REACTORS
330
C
102
}
330
C
100
AcDbDictionary
281
     1
  3
ByBlock
350
19
  3
ByLayer
350
11
  3
Global
350
21
  0
DICTIONARY
  5
66
102
{ACAD_REACTORS
330
C
102
}
330
C
100
AcDbDictionary
281
     1
  3
Standard
350
67
  0
DICTIONARY
  5
5F
102
{ACAD_REACTORS
330
C
102
}
330
C
100
AcDbDictionary
281
     1
  3
Standard
350
60
  0
DICTIONARY
  5
61
102
{ACAD_REACTORS
330
C
102
}
330
C
100
AcDbDictionary
281
     1
  0
ACDBDICTIONARYWDFLT
  5
E
102
{ACAD_REACTORS
330
C
102
}
330
C
100
AcDbDictionary
281
     1
  3
Normal
350
F
100
AcDbDictionaryWithDefault
340
F
  0
DICTIONARY
  5
42
102
{ACAD_REACTORS
330
C
102
}
330
C
100
AcDbDictionary
281
     1
  3
A0
350
43
  3
A1
350
44
  3
A2
350
45
  3
A3
350
46
  3
A4
350
47
  3
A5
350
48
  3
A6
350
49
  3
A7
350
4A
  3
A8
350
4B
  3
A9
350
4C
  3
B0
350
4D
  3
B1
350
4E
  3
B2
350
4F
  3
B3
350
50
  3
B4
350
51
  3
B5
350
52
  3
B6
350
53
  0
DICTIONARY
  5
68
102
{ACAD_REACTORS
330
C
102
}
330
C
100
AcDbDictionary
281
     1
  3
Imperial24
350
69
  0
DICTIONARY
  5
64
102
{ACAD_REACTORS
330
C
102
}
330
C
100
AcDbDictionary
281
     1
  3
Standard
350
65
  0
DICTIONARY
  5
29
102
{ACAD_REACTORS
330
C
102
}
330
C
100
AcDbDictionary
281
     1
  3
2dWireframe
350
2F
  3
Basic
350
2E
  3
Brighten
350
35
  3
ColorChange
350
39
  3
Conceptual
350
32
  3
Dim
350
34
  3
EdgeColorOff
350
41
  3
Facepattern
350
38
  3
Flat
350
2A
  3
FlatWithEdges
350
2B
  3
Gouraud
350
2C
  3
GouraudWithEdges
350
2D
  3
Hidden
350
31
  3
JitterOff
350
3F
  3
Linepattern
350
37
  3
OverhangOff
350
40
  3
Realistic
350
33
  3
Shaded
350
3E
  3
Shaded with edges
350
3D
  3
Shades of Gray
350
3A
  3
Sketchy
350
3B
  3
Thicken
350
36
  3
Wireframe
350
30
  3
X-Ray
350
3C
  0
XRECORD
  5
149
102
{ACAD_REACTORS
330
C
102
}
330
C
100
AcDbXrecord
280
     1
 90
        1
330
65
330
12D
330
134
330
13A
330
140
330
146
  0
DICTIONARY
  5
E7
102
{ACAD_REACTORS
330
C
102
}
330
C
100
AcDbDictionary
281
     1
  3
CANNOSCALE
350
EC
  3
CMLEADERSTYLE
350
E9
  3
CTABLESTYLE
350
E8
  3
CVIEWDETAILSTYLE
350
EA
  3
CVIEWSECTIONSTYLE
350
EB
  3
XCLIPFRAME
350
147
  0
ACDBDETAILVIEWSTYLE
  5
6B
102
{ACAD_XDICTIONARY
360
17F
102
}
102
{ACAD_REACTORS
330
6A
102
}
330
6A
100
AcDbModelDocViewStyle
 70
     0
  3
Imperial24
290
     0
100
AcDbDetailViewStyle
 70
     0
 71
     0
 90
        3
 71
     1
340
55
 62
   256
 40
0.24
340
0
 62
   256
 40
0.24
300

 40
0.36
280
     3
 71
     2
340
5D
 90
       25
 62
   256
 71
     3
340
55
 62
   256
 40
0.24
 90
        1
 40
0.75
 90
        1
300
%<\AcVar ViewType \f "%tc1">% %<\AcVar ViewDetailId>%\PSCALE %<\AcVar ViewScale \f "%sn">%
 71
     4
340
5D
 90
       25
 62
   256
340
5D
 90
       25
 62
   256
280
     0
  0
LAYOUT
  5
6F
102
{ACAD_REACTORS
330
62
102
}
330
62
100
AcDbPlotSettings
  1

  2

  4

  6

 40
0.0
 41
0.0
 42
0.0
 43
0.0
 44
0.0
 45
0.0
 46
0.0
 47
0.0
 48
0.0
 49
0.0
140
0.0
141
0.0
142
1.0
143
1.0
 70
   688
 72
     0
 73
     0
 74
     5
  7

 75
    16
147
1.0
 76
     0
 77
     2
 78
   300
148
0.0
149
0.0
100
AcDbLayout
  1
Layout1
 70
     1
 71
     1
 10
0.0
 20
0.0
 11
12.0
 21
9.0
 12
0.0
 22
0.0
 32
0.0
 14
1.000000000000000E+20
 24
1.000000000000000E+20
 34
1.000000000000000E+20
 15
-1.000000000000000E+20
 25
-1.000000000000000E+20
 35
-1.000000000000000E+20
146
0.0
 13
0.0
 23
0.0
 33
0.0
 16
1.0
 26
0.0
 36
0.0
 17
0.0
 27
1.0
 37
0.0
 76
     0
330
6C
  0
LAYOUT
  5
77
102
{ACAD_REACTORS
330
62
102
}
330
62
100
AcDbPlotSettings
  1

  2

  4

  6

 40
0.0
 41
0.0
 42
0.0
 43
0.0
 44
0.0
 45
0.0
 46
0.0
 47
0.0
 48
0.0
 49
0.0
140
0.0
141
0.0
142
1.0
143
1.0
 70
   688
 72
     0
 73
     0
 74
     5
  7

 75
    16
147
1.0
 76
     0
 77
     2
 78
   300
148
0.0
149
0.0
100
AcDbLayout
  1
Layout2
 70
     1
 71
     2
 10
0.0
 20
0.0
 11
12.0
 21
9.0
 12
0.0
 22
0.0
 32
0.0
 14
0.0
 24
0.0
 34
0.0
 15
0.0
 25
0.0
 35
0.0
146
0.0
 13
0.0
 23
0.0
 33
0.0
 16
1.0
 26
0.0
 36
0.0
 17
0.0
 27
1.0
 37
0.0
 76
     0
330
74
  0
LAYOUT
  5
73
102
{ACAD_REACTORS
330
62
102
}
330
62
100
AcDbPlotSettings
  1

  2

  4

  6

 40
0.0
 41
0.0
 42
0.0
 43
0.0
 44
0.0
 45
0.0
 46
0.0
 47
0.0
 48
0.0
 49
0.0
140
0.0
141
0.0
142
1.0
143
1.0
 70
  1712
 72
     0
 73
     0
 74
     0
  7

 75
     0
147
1.0
 76
     0
 77
     2
 78
   300
148
0.0
149
0.0
100
AcDbLayout
  1
Model
 70
     1
 71
     0
 10
0.0
 20
0.0
 11
12.0
 21
9.0
 12
0.0
 22
0.0
 32
0.0
 14
0.0
 24
0.0
 34
0.0
 15
0.0
 25
0.0
 35
0.0
146
0.0
 13
0.0
 23
0.0
 33
0.0
 16
1.0
 26
0.0
 36
0.0
 17
0.0
 27
1.0
 37
0.0
 76
     0
330
70
331
57
  0
MATERIAL
  5
19
102
{ACAD_XDICTIONARY
360
1A
102
}
102
{ACAD_REACTORS
330
10
102
}
330
10
100
AcDbMaterial
  1
ByBlock
 72
     0
 43
0.0208333333333333
 43
0.0
 43
0.0
 43
0.0
 43
0.0
 43
0.0208333333333333
 43
0.0
 43
0.0
 43
0.0
 43
0.0
 43
1.0
 43
0.0
 43
0.0
 43
0.0
 43
0.0
 43
1.0
 77
     0
 47
0.0208333333333333
 47
0.0
 47
0.0
 47
0.0
 47
0.0
 47
0.0208333333333333
 47
0.0
 47
0.0
 47
0.0
 47
0.0
 47
1.0
 47
0.0
 47
0.0
 47
0.0
 47
0.0
 47
1.0
171
     0
 49
0.0208333333333333
 49
0.0
 49
0.0
 49
0.0
 49
0.0
 49
0.0208333333333333
 49
0.0
 49
0.0
 49
0.0
 49
0.0
 49
1.0
 49
0.0
 49
0.0
 49
0.0
 49
0.0
 49
1.0
175
     0
142
0.0208333333333333
142
0.0
142
0.0
142
0.0
142
0.0
142
0.0208333333333333
142
0.0
142
0.0
142
0.0
142
0.0
142
1.0
142
0.0
142
0.0
142
0.0
142
0.0
142
1.0
179
     0
144
0.0208333333333333
144
0.0
144
0.0
144
0.0
144
0.0
144
0.0208333333333333
144
0.0
144
0.0
144
0.0
144
0.0
144
1.0
144
0.0
144
0.0
144
0.0
144
0.0
144
1.0
147
0.0208333333333333
147
0.0
147
0.0
147
0.0
147
0.0
147
0.0208333333333333
147
0.0
147
0.0
147
0.0
147
0.0
147
1.0
147
0.0
147
0.0
147
0.0
147
0.0
147
1.0
  0
MATERIAL
  5
11
102
{ACAD_XDICTIONARY
360
12
102
}
102
{ACAD_REACTORS
330
10
102
}
330
10
100
AcDbMaterial
  1
ByLayer
 72
     0
 43
0.0208333333333333
 43
0.0
 43
0.0
 43
0.0
 43
0.0
 43
0.0208333333333333
 43
0.0
 43
0.0
 43
0.0
 43
0.0
 43
1.0
 43
0.0
 43
0.0
 43
0.0
 43
0.0
 43
1.0
 77
     0
 47
0.0208333333333333
 47
0.0
 47
0.0
 47
0.0
 47
0.0
 47
0.0208333333333333
 47
0.0
 47
0.0
 47
0.0
 47
0.0
 47
1.0
 47
0.0
 47
0.0
 47
0.0
 47
0.0
 47
1.0
171
     0
 49
0.0208333333333333
 49
0.0
 49
0.0
 49
0.0
 49
0.0
 49
0.0208333333333333
 49
0.0
 49
0.0
 49
0.0
 49
0.0
 49
1.0
 49
0.0
 49
0.0
 49
0.0
 49
0.0
 49
1.0
175
     0
142
0.0208333333333333
142
0.0
142
0.0
142
0.0
142
0.0
142
0.0208333333333333
142
0.0
142
0.0
142
0.0
142
0.0
142
1.0
142
0.0
142
0.0
142
0.0
142
0.0
142
1.0
179
     0
144
0.0208333333333333
144
0.0
144
0.0
144
0.0
144
0.0
144
0.0208333333333333
144
0.0
144
0.0
144
0.0
144
0.0
144
1.0
144
0.0
144
0.0
144
0.0
144
0.0
144
1.0
147
0.0208333333333333
147
0.0
147
0.0
147
0.0
147
0.0
147
0.0208333333333333
147
0.0
147
0.0
147
0.0
147
0.0
147
1.0
147
0.0
147
0.0
147
0.0
147
0.0
147
1.0
  0
MATERIAL
  5
21
102
{ACAD_XDICTIONARY
360
22
102
}
102
{ACAD_REACTORS
330
10
102
}
330
10
100
AcDbMaterial
  1
Global
 72
     0
 43
0.0208333333333333
 43
0.0
 43
0.0
 43
0.0
 43
0.0
 43
0.0208333333333333
 43
0.0
 43
0.0
 43
0.0
 43
0.0
 43
1.0
 43
0.0
 43
0.0
 43
0.0
 43
0.0
 43
1.0
 77
     0
 47
0.0208333333333333
 47
0.0
 47
0.0
 47
0.0
 47
0.0
 47
0.0208333333333333
 47
0.0
 47
0.0
 47
0.0
 47
0.0
 47
1.0
 47
0.0
 47
0.0
 47
0.0
 47
0.0
 47
1.0
171
     0
 49
0.0208333333333333
 49
0.0
 49
0.0
 49
0.0
 49
0.0
 49
0.0208333333333333
 49
0.0
 49
0.0
 49
0.0
 49
0.0
 49
1.0
 49
0.0
 49
0.0
 49
0.0
 49
0.0
 49
1.0
175
     0
142
0.0208333333333333
142
0.0
142
0.0
142
0.0
142
0.0
142
0.0208333333333333
142
0.0
142
0.0
142
0.0
142
0.0
142
1.0
142
0.0
142
0.0
142
0.0
142
0.0
142
1.0
179
     0
144
0.0208333333333333
144
0.0
144
0.0
144
0.0
144
0.0
144
0.0208333333333333
144
0.0
144
0.0
144
0.0
144
0.0
144
1.0
144
0.0
144
0.0
144
0.0
144
0.0
144
1.0
147
0.0208333333333333
147
0.0
147
0.0
147
0.0
147
0.0
147
0.0208333333333333
147
0.0
147
0.0
147
0.0
147
0.0
147
1.0
147
0.0
147
0.0
147
0.0
147
0.0
147
1.0
  0
MLEADERSTYLE
  5
67
102
{ACAD_XDICTIONARY
360
17B
102
}
102
{ACAD_REACTORS
330
66
102
}
330
66
100
AcDbMLeaderStyle
170
     2
171
     1
172
     0
 90
        2
 40
0.0
 41
0.0
173
     1
 91
-1056964608
340
5B
 92
       -2
290
     1
 42
0.09
291
     1
 43
0.36
  3
Standard
 44
0.18
300

342
55
174
     1
178
     6
175
     1
176
     0
 93
-1056964608
 45
0.18
292
     0
297
     0
 46
0.18
 94
-1056964608
 47
1.0
 49
1.0
140
1.0
293
     1
141
0.0
294
     1
177
     0
142
1.0
295
     0
296
     0
143
0.125
1001
ACAD_MLEADERVER
1070
     2
  0
MLINESTYLE
  5
60
102
{ACAD_REACTORS
330
5F
102
}
330
5F
100
AcDbMlineStyle
  2
STANDARD
 70
     0
  3

 62
   256
 51
90.0
 52
90.0
 71
     2
 49
0.5
 62
   256
  6
BYLAYER
 49
-0.5
 62
   256
  6
BYLAYER
  0
ACDBPLACEHOLDER
  5
F
102
{ACAD_REACTORS
330
E
102
}
330
E
  0
SCALE
  5
43
102
{ACAD_REACTORS
330
42
102
}
330
42
100
AcDbScale
 70
     0
300
1:1
140
1.0
141
1.0
290
     1
  0
SCALE
  5
44
102
{ACAD_REACTORS
330
42
102
}
330
42
100
AcDbScale
 70
     0
300
1/128" = 1'-0"
140
0.0078125
141
12.0
290
     0
  0
SCALE
  5
45
102
{ACAD_REACTORS
330
42
102
}
330
42
100
AcDbScale
 70
     0
300
1/64" = 1'-0"
140
0.015625
141
12.0
290
     0
  0
SCALE
  5
46
102
{ACAD_REACTORS
330
42
102
}
330
42
100
AcDbScale
 70
     0
300
1/32" = 1'-0"
140
0.03125
141
12.0
290
     0
  0
SCALE
  5
47
102
{ACAD_REACTORS
330
42
102
}
330
42
100
AcDbScale
 70
     0
300
1/16" = 1'-0"
140
0.0625
141
12.0
290
     0
  0
SCALE
  5
48
102
{ACAD_REACTORS
330
42
102
}
330
42
100
AcDbScale
 70
     0
300
3/32" = 1'-0"
140
0.09375
141
12.0
290
     0
  0
SCALE
  5
49
102
{ACAD_REACTORS
330
42
102
}
330
42
100
AcDbScale
 70
     0
300
1/8" = 1'-0"
140
0.125
141
12.0
290
     0
  0
SCALE
  5
4A
102
{ACAD_REACTORS
330
42
102
}
330
42
100
AcDbScale
 70
     0
300
3/16" = 1'-0"
140
0.1875
141
12.0
290
     0
  0
SCALE
  5
4B
102
{ACAD_REACTORS
330
42
102
}
330
42
100
AcDbScale
 70
     0
300
1/4" = 1'-0"
140
0.25
141
12.0
290
     0
  0
SCALE
  5
4C
102
{ACAD_REACTORS
330
42
102
}
330
42
100
AcDbScale
 70
     0
300
3/8" = 1'-0"
140
0.375
141
12.0
290
     0
  0
SCALE
  5
4D
102
{ACAD_REACTORS
330
42
102
}
330
42
100
AcDbScale
 70
     0
300
1/2" = 1'-0"
140
0.5
141
12.0
290
     0
  0
SCALE
  5
4E
102
{ACAD_REACTORS
330
42
102
}
330
42
100
AcDbScale
 70
     0
300
3/4" = 1'-0"
140
0.75
141
12.0
290
     0
  0
SCALE
  5
4F
102
{ACAD_REACTORS
330
42
102
}
330
42
100
AcDbScale
 70
     0
300
1" = 1'-0"
140
1.0
141
12.0
290
     0
  0
SCALE
  5
50
102
{ACAD_REACTORS
330
42
102
}
330
42
100
AcDbScale
 70
     0
300
1-1/2" = 1'-0"
140
1.5
141
12.0
290
     0
  0
SCALE
  5
51
102
{ACAD_REACTORS
330
42
102
}
330
42
100
AcDbScale
 70
     0
300
3" = 1'-0"
140
3.0
141
12.0
290
     0
  0
SCALE
  5
52
102
{ACAD_REACTORS
330
42
102
}
330
42
100
AcDbScale
 70
     0
300
6" = 1'-0"
140
6.0
141
12.0
290
     0
  0
SCALE
  5
53
102
{ACAD_REACTORS
330
42
102
}
330
42
100
AcDbScale
 70
     0
300
1'-0" = 1'-0"
140
12.0
141
12.0
290
     0
  0
ACDBSECTIONVIEWSTYLE
  5
69
102
{ACAD_XDICTIONARY
360
17D
102
}
102
{ACAD_REACTORS
330
68
102
}
330
68
100
AcDbModelDocViewStyle
 70
     0
  3
Imperial24
290
     0
100
AcDbSectionViewStyle
 70
     0
 71
     0
 90
       78
 71
     1
340
55
 62
   256
 40
0.24
340
0
340
0
 62
   256
 40
0.24
300
I, O, Q, S, X, Z
 40
0.48
 90
        3
 40
0.18
 90
        1
 71
     2
340
5D
 90
       25
 62
   256
340
5D
 90
       50
 62
   256
 40
0.24
 40
0.0
 40
0.24
 71
     3
340
55
 62
   256
 40
0.24
 90
        1
 40
0.75
 90
        1
300
%<\AcVar ViewType \f "%tc1">% %<\AcVar ViewSectionStartId>%-%<\AcVar ViewSectionEndId>%\PSCALE %<\AcVar ViewScale \f "%sn">%
 71
     4
 62
   256
 62
   257
300
ANSI31
 40
1.0
 90
        0
290
     0
290
     0
 90
        6
 40
0.0
 40
1.570796326794896
 40
0.2617993877991494
 40
1.308996938995747
 40
-0.2617993877991494
 40
1.832595714594045
  0
TABLESTYLE
  5
65
102
{ACAD_XDICTIONARY
360
ED
102
}
102
{ACAD_REACTORS
330
64
102
}
330
64
100
AcDbTableStyle
  3
Standard
 70
     0
 71
     0
 40
0.06
 41
0.06
280
     0
281
     0
  7
Standard
140
0.18
170
     2
 62
     0
 63
     7
283
     0
 90
      512
 91
        0
  1

274
    -2
284
     1
 64
     0
275
    -2
285
     1
 65
     0
276
    -2
286
     1
 66
     0
277
    -2
287
     1
 67
     0
278
    -2
288
     1
 68
     0
279
    -2
289
     1
 69
     0
  7
Standard
140
0.25
170
     5
 62
     0
 63
     7
283
     0
 90
      512
 91
        0
  1

274
    -2
284
     1
 64
     0
275
    -2
285
     1
 65
     0
276
    -2
286
     1
 66
     0
277
    -2
287
     1
 67
     0
278
    -2
288
     1
 68
     0
279
    -2
289
     1
 69
     0
  7
Standard
140
0.18
170
     5
 62
     0
 63
     7
283
     0
 90
      512
 91
        0
  1

274
    -2
284
     1
 64
     0
275
    -2
285
     1
 65
     0
276
    -2
286
     1
 66
     0
277
    -2
287
     1
 67
     0
278
    -2
288
     1
 68
     0
279
    -2
289
     1
 69
     0
  0
VISUALSTYLE
  5
2F
102
{ACAD_XDICTIONARY
360
154
102
}
102
{ACAD_REACTORS
330
29
102
}
330
29
100
AcDbVisualStyle
  2
2dWireframe
 70
     4
 71
     0
 72
     2
 73
     0
 90
        0
 40
-0.6
 41
-30.0
 62
     5
 63
     7
421
 16777215
 74
     1
 91
        4
 64
     7
 65
   257
 75
     1
175
     1
 42
1.0
 92
        0
 66
   257
 43
1.0
 76
     1
 77
     6
 78
     2
 67
     7
 79
     5
170
     0
171
     0
290
     0
174
     0
 93
        1
 44
0.0
173
     0
291
     0
 45
0.0
1001
ACAD
1000
AcDbSavedByObjectVersion
1070
     0
  0
VISUALSTYLE
  5
2E
102
{ACAD_XDICTIONARY
360
152
102
}
102
{ACAD_REACTORS
330
29
102
}
330
29
100
AcDbVisualStyle
  2
Basic
 70
     7
 71
     1
 72
     0
 73
     1
 90
        0
 40
-0.6
 41
-30.0
 62
     5
 63
     7
421
 16777215
 74
     0
 91
        4
 64
     7
 65
   257
 75
     1
175
     1
 42
1.0
 92
        8
 66
     7
 43
1.0
 76
     1
 77
     6
 78
     2
 67
     7
 79
     5
170
     0
171
     0
290
     0
174
     0
 93
        1
 44
0.0
173
     0
291
     1
 45
0.0
1001
ACAD
1000
AcDbSavedByObjectVersion
1070
     0
  0
VISUALSTYLE
  5
35
102
{ACAD_XDICTIONARY
360
160
102
}
102
{ACAD_REACTORS
330
29
102
}
330
29
100
AcDbVisualStyle
  2
Brighten
 70
    12
 71
     2
 72
     2
 73
     0
 90
        0
 40
-0.6
 41
-30.0
 62
     5
 63
     7
421
 16777215
 74
     1
 91
        4
 64
     7
 65
   257
 75
     1
175
     1
 42
1.0
 92
        8
 66
     7
 43
1.0
 76
     1
 77
     6
 78
     2
 67
     7
 79
     5
170
     0
171
     0
290
     0
174
     0
 93
        1
 44
50.0
173
     0
291
     1
 45
0.0
1001
ACAD
1000
AcDbSavedByObjectVersion
1070
     0
  0
VISUALSTYLE
  5
39
102
{ACAD_XDICTIONARY
360
168
102
}
102
{ACAD_REACTORS
330
29
102
}
330
29
100
AcDbVisualStyle
  2
ColorChange
 70
    16
 71
     2
 72
     2
 73
     3
 90
        0
 40
-0.6
 41
-30.0
 62
     5
 63
     8
421
  8421504
 74
     1
 91
        4
 64
     7
 65
   257
 75
     1
175
     1
 42
1.0
 92
        8
 66
     8
424
  8421504
 43
1.0
 76
     1
 77
     6
 78
     2
 67
     7
 79
     5
170
     0
171
     0
290
     0
174
     0
 93
        1
 44
0.0
173
     0
291
     1
 45
0.0
1001
ACAD
1000
AcDbSavedByObjectVersion
1070
     0
  0
VISUALSTYLE
  5
32
102
{ACAD_XDICTIONARY
360
15A
102
}
102
{ACAD_REACTORS
330
29
102
}
330
29
100
AcDbVisualStyle
  2
Conceptual
 70
     9
 71
     3
 72
     2
 73
     0
 90
        0
 40
-0.6
 41
-30.0
 62
     5
 63
     7
421
 16777215
 74
     2
 91
        2
 64
     7
 65
   257
 75
     1
175
     1
 42
179.0
 92
        8
 66
     7
 43
1.0
 76
     1
 77
     6
 78
     2
 67
     7
 79
     3
170
     0
171
     0
290
     0
174
     0
 93
        1
 44
0.0
173
     0
291
     0
 45
0.0
1001
ACAD
1000
AcDbSavedByObjectVersion
1070
     0
  0
VISUALSTYLE
  5
34
102
{ACAD_XDICTIONARY
360
15E
102
}
102
{ACAD_REACTORS
330
29
102
}
330
29
100
AcDbVisualStyle
  2
Dim
 70
    11
 71
     2
 72
     2
 73
     0
 90
        0
 40
-0.6
 41
-30.0
 62
     5
 63
     7
421
 16777215
 74
     1
 91
        4
 64
     7
 65
   257
 75
     1
175
     1
 42
1.0
 92
        8
 66
     7
 43
1.0
 76
     1
 77
     6
 78
     2
 67
     7
 79
     5
170
     0
171
     0
290
     0
174
     0
 93
        1
 44
-50.0
173
     0
291
     1
 45
0.0
1001
ACAD
1000
AcDbSavedByObjectVersion
1070
     0
  0
VISUALSTYLE
  5
41
102
{ACAD_XDICTIONARY
360
178
102
}
102
{ACAD_REACTORS
330
29
102
}
330
29
100
AcDbVisualStyle
  2
EdgeColorOff
 70
    22
 71
     2
 72
     2
 73
     0
 90
        0
 40
-0.6
 41
-30.0
 62
     5
 63
     7
421
 16777215
 74
     1
 91
        4
 64
     7
 65
   257
 75
     1
175
     1
 42
1.0
 92
        8
 66
     7
 43
1.0
 76
     1
 77
     6
 78
     2
 67
     7
 79
     5
170
     0
171
     0
290
     0
174
     0
 93
        1
 44
0.0
173
     0
291
     1
 45
0.0
1001
ACAD
1000
AcDbSavedByObjectVersion
1070
     0
  0
VISUALSTYLE
  5
38
102
{ACAD_XDICTIONARY
360
166
102
}
102
{ACAD_REACTORS
330
29
102
}
330
29
100
AcDbVisualStyle
  2
Facepattern
 70
    15
 71
     2
 72
     2
 73
     0
 90
        0
 40
-0.6
 41
-30.0
 62
     5
 63
     7
421
 16777215
 74
     1
 91
        4
 64
     7
 65
   257
 75
     1
175
     1
 42
1.0
 92
        8
 66
     7
 43
1.0
 76
     1
 77
     6
 78
     2
 67
     7
 79
     5
170
     0
171
     0
290
     0
174
     0
 93
        1
 44
0.0
173
     0
291
     1
 45
0.0
1001
ACAD
1000
AcDbSavedByObjectVersion
1070
     0
  0
VISUALSTYLE
  5
2A
102
{ACAD_XDICTIONARY
360
14A
102
}
102
{ACAD_REACTORS
330
29
102
}
330
29
100
AcDbVisualStyle
  2
Flat
 70
     0
 71
     2
 72
     1
 73
     1
 90
        2
 40
-0.6
 41
30.0
 62
     5
 63
     7
421
 16777215
 74
     0
 91
        0
 64
     7
 65
   257
 75
     1
175
     1
 42
1.0
 92
        8
 66
     7
 43
1.0
 76
     1
 77
     6
 78
     2
 67
     7
 79
     5
170
     0
171
     0
290
     0
174
     0
 93
       13
 44
0.0
173
     0
291
     1
 45
0.0
1001
ACAD
1000
AcDbSavedByObjectVersion
1070
     0
  0
VISUALSTYLE
  5
2B
102
{ACAD_XDICTIONARY
360
14C
102
}
102
{ACAD_REACTORS
330
29
102
}
330
29
100
AcDbVisualStyle
  2
FlatWithEdges
 70
     1
 71
     2
 72
     1
 73
     1
 90
        2
 40
-0.6
 41
30.0
 62
     5
 63
     7
421
 16777215
 74
     1
 91
        0
 64
     7
 65
   257
 75
     1
175
     1
 42
1.0
 92
        0
 66
   257
 43
1.0
 76
     1
 77
     6
 78
     2
 67
     7
 79
     5
170
     0
171
     0
290
     0
174
     0
 93
       13
 44
0.0
173
     0
291
     1
 45
0.0
1001
ACAD
1000
AcDbSavedByObjectVersion
1070
     0
  0
VISUALSTYLE
  5
2C
102
{ACAD_XDICTIONARY
360
14E
102
}
102
{ACAD_REACTORS
330
29
102
}
330
29
100
AcDbVisualStyle
  2
Gouraud
 70
     2
 71
     2
 72
     2
 73
     1
 90
        2
 40
-0.6
 41
30.0
 62
     5
 63
     7
421
 16777215
 74
     0
 91
        0
 64
     7
 65
   257
 75
     1
175
     1
 42
1.0
 92
        0
 66
     7
 43
1.0
 76
     1
 77
     6
 78
     2
 67
     7
 79
     5
170
     0
171
     0
290
     0
174
     0
 93
       13
 44
0.0
173
     0
291
     1
 45
0.0
1001
ACAD
1000
AcDbSavedByObjectVersion
1070
     0
  0
VISUALSTYLE
  5
2D
102
{ACAD_XDICTIONARY
360
150
102
}
102
{ACAD_REACTORS
330
29
102
}
330
29
100
AcDbVisualStyle
  2
GouraudWithEdges
 70
     3
 71
     2
 72
     2
 73
     1
 90
        2
 40
-0.6
 41
30.0
 62
     5
 63
     7
421
 16777215
 74
     1
 91
        0
 64
     7
 65
   257
 75
     1
175
     1
 42
1.0
 92
        0
 66
   257
 43
1.0
 76
     1
 77
     6
 78
     2
 67
     7
 79
     5
170
     0
171
     0
290
     0
174
     0
 93
       13
 44
0.0
173
     0
291
     1
 45
0.0
1001
ACAD
1000
AcDbSavedByObjectVersion
1070
     0
  0
VISUALSTYLE
  5
31
102
{ACAD_XDICTIONARY
360
158
102
}
102
{ACAD_REACTORS
330
29
102
}
330
29
100
AcDbVisualStyle
  2
Hidden
 70
     6
 71
     1
 72
     2
 73
     2
 90
        0
 40
-0.6
 41
-30.0
 62
     5
 63
     7
421
 16777215
 74
     2
 91
        2
 64
     7
 65
   257
 75
     2
175
     1
 42
40.0
 92
        0
 66
   257
 43
1.0
 76
     1
 77
     6
 78
     2
 67
     7
 79
     3
170
     0
171
     0
290
     0
174
     0
 93
        1
 44
0.0
173
     0
291
     0
 45
0.0
1001
ACAD
1000
AcDbSavedByObjectVersion
1070
     0
  0
VISUALSTYLE
  5
3F
102
{ACAD_XDICTIONARY
360
174
102
}
102
{ACAD_REACTORS
330
29
102
}
330
29
100
AcDbVisualStyle
  2
JitterOff
 70
    20
 71
     2
 72
     2
 73
     0
 90
        0
 40
-0.6
 41
-30.0
 62
     5
 63
     7
421
 16777215
 74
     1
 91
        4
 64
     7
 65
   257
 75
     1
175
     1
 42
1.0
 92
       10
 66
     7
 43
1.0
 76
     1
 77
     6
 78
     2
 67
     7
 79
     5
170
     0
171
     0
290
     0
174
     0
 93
        1
 44
0.0
173
     0
291
     1
 45
0.0
1001
ACAD
1000
AcDbSavedByObjectVersion
1070
     0
  0
VISUALSTYLE
  5
37
102
{ACAD_XDICTIONARY
360
164
102
}
102
{ACAD_REACTORS
330
29
102
}
330
29
100
AcDbVisualStyle
  2
Linepattern
 70
    14
 71
     2
 72
     2
 73
     0
 90
        0
 40
-0.6
 41
-30.0
 62
     5
 63
     7
421
 16777215
 74
     1
 91
        4
 64
     7
 65
   257
 75
     7
175
     7
 42
1.0
 92
        8
 66
     7
 43
1.0
 76
     1
 77
     6
 78
     2
 67
     7
 79
     5
170
     0
171
     0
290
     0
174
     0
 93
        1
 44
0.0
173
     0
291
     1
 45
0.0
1001
ACAD
1000
AcDbSavedByObjectVersion
1070
     0
  0
VISUALSTYLE
  5
40
102
{ACAD_XDICTIONARY
360
176
102
}
102
{ACAD_REACTORS
330
29
102
}
330
29
100
AcDbVisualStyle
  2
OverhangOff
 70
    21
 71
     2
 72
     2
 73
     0
 90
        0
 40
-0.6
 41
-30.0
 62
     5
 63
     7
421
 16777215
 74
     1
 91
        4
 64
     7
 65
   257
 75
     1
175
     1
 42
1.0
 92
        9
 66
     7
 43
1.0
 76
     1
 77
     6
 78
     2
 67
     7
 79
     5
170
     0
171
     0
290
     0
174
     0
 93
        1
 44
0.0
173
     0
291
     1
 45
0.0
1001
ACAD
1000
AcDbSavedByObjectVersion
1070
     0
  0
VISUALSTYLE
  5
33
102
{ACAD_XDICTIONARY
360
15C
102
}
102
{ACAD_REACTORS
330
29
102
}
330
29
100
AcDbVisualStyle
  2
Realistic
 70
     8
 71
     2
 72
     3
 73
     0
 90
        2
 40
-0.6
 41
30.0
 62
     5
 63
     7
421
 16777215
 74
     0
 91
        0
 64
     7
 65
   257
 75
     1
175
     1
 42
1.0
 92
        8
 66
   257
 43
1.0
 76
     1
 77
     6
 78
     2
 67
     7
 79
     3
170
     0
171
     0
290
     0
174
     0
 93
       13
 44
0.0
173
     0
291
     0
 45
0.0
1001
ACAD
1000
AcDbSavedByObjectVersion
1070
     0
  0
VISUALSTYLE
  5
3E
102
{ACAD_XDICTIONARY
360
172
102
}
102
{ACAD_REACTORS
330
29
102
}
330
29
100
AcDbVisualStyle
  2
Shaded
 70
    27
 71
     2
 72
     2
 73
     1
 90
        2
 40
-0.6
 41
30.0
 62
     5
 63
     7
421
 16777215
 74
     0
 91
        4
 64
     7
 65
   257
 75
     1
175
     1
 42
1.0
 92
        8
 66
   257
 43
1.0
 76
     1
 77
     6
 78
     2
 67
     8
425
  7895160
 79
     3
170
     0
171
     0
290
     0
174
     0
 93
        5
 44
0.0
173
     0
291
     0
 45
0.0
1001
ACAD
1000
AcDbSavedByObjectVersion
1070
     0
  0
VISUALSTYLE
  5
3D
102
{ACAD_XDICTIONARY
360
170
102
}
102
{ACAD_REACTORS
330
29
102
}
330
29
100
AcDbVisualStyle
  2
Shaded with edges
 70
    26
 71
     2
 72
     2
 73
     1
 90
        2
 40
-0.6
 41
30.0
 62
     5
 63
     7
421
 16777215
 74
     1
 91
        2
 64
     7
 65
   257
 75
     2
175
     1
 42
1.0
 92
        8
 66
   257
 43
1.0
 76
     1
 77
     6
 78
     2
 67
     7
 79
     3
170
     0
171
     0
290
     0
174
     0
 93
        5
 44
0.0
173
     0
291
     0
 45
0.0
1001
ACAD
1000
AcDbSavedByObjectVersion
1070
     0
  0
VISUALSTYLE
  5
3A
102
{ACAD_XDICTIONARY
360
16A
102
}
102
{ACAD_REACTORS
330
29
102
}
330
29
100
AcDbVisualStyle
  2
Shades of Gray
 70
    23
 71
     2
 72
     2
 73
     3
 90
        0
 40
-0.6
 41
-30.0
 62
     5
 63
     7
421
 16777215
 74
     2
 91
        2
 64
     7
 65
     7
 75
     1
175
     1
 42
40.0
 92
        8
 66
     7
 43
1.0
 76
     1
 77
     6
 78
     2
 67
     7
 79
     3
170
     0
171
     0
290
     0
174
     0
 93
        1
 44
0.0
173
     0
291
     0
 45
0.0
1001
ACAD
1000
AcDbSavedByObjectVersion
1070
     0
  0
VISUALSTYLE
  5
3B
102
{ACAD_XDICTIONARY
360
16C
102
}
102
{ACAD_REACTORS
330
29
102
}
330
29
100
AcDbVisualStyle
  2
Sketchy
 70
    24
 71
     1
 72
     2
 73
     2
 90
        0
 40
-0.6
 41
-30.0
 62
     5
 63
     7
421
 16777215
 74
     2
 91
        2
 64
     7
 65
     7
 75
     1
175
     1
 42
40.0
 92
       11
 66
     7
 43
1.0
 76
     1
 77
     6
 78
     2
 67
     7
 79
     6
170
     0
171
     0
290
     0
174
     0
 93
        1
 44
0.0
173
     0
291
     0
 45
0.0
1001
ACAD
1000
AcDbSavedByObjectVersion
1070
     0
  0
VISUALSTYLE
  5
36
102
{ACAD_XDICTIONARY
360
162
102
}
102
{ACAD_REACTORS
330
29
102
}
330
29
100
AcDbVisualStyle
  2
Thicken
 70
    13
 71
     2
 72
     2
 73
     0
 90
        0
 40
-0.6
 41
-30.0
 62
     5
 63
     7
421
 16777215
 74
     1
 91
        4
 64
     7
 65
   257
 75
     1
175
     1
 42
1.0
 92
       12
 66
     7
 43
1.0
 76
     1
 77
     6
 78
     2
 67
     7
 79
     5
170
     0
171
     0
290
     0
174
     0
 93
        1
 44
0.0
173
     0
291
     1
 45
0.0
1001
ACAD
1000
AcDbSavedByObjectVersion
1070
     0
  0
VISUALSTYLE
  5
30
102
{ACAD_XDICTIONARY
360
156
102
}
102
{ACAD_REACTORS
330
29
102
}
330
29
100
AcDbVisualStyle
  2
Wireframe
 70
     5
 71
     0
 72
     2
 73
     0
 90
        0
 40
-0.6
 41
-30.0
 62
     5
 63
     7
421
 16777215
 74
     1
 91
        4
 64
     7
 65
   257
 75
     1
175
     1
 42
1.0
 92
        0
 66
   257
 43
1.0
 76
     1
 77
     6
 78
     2
 67
     7
 79
     3
170
     0
171
     0
290
     0
174
     0
 93
        1
 44
0.0
173
     0
291
     0
 45
0.0
1001
ACAD
1000
AcDbSavedByObjectVersion
1070
     0
  0
VISUALSTYLE
  5
3C
102
{ACAD_XDICTIONARY
360
16E
102
}
102
{ACAD_REACTORS
330
29
102
}
330
29
100
AcDbVisualStyle
  2
X-Ray
 70
    25
 71
     2
 72
     2
 73
     1
 90
        1
 40
0.5
 41
-30.0
 62
     5
 63
     7
421
 16777215
 74
     1
 91
        0
 64
     7
 65
   257
 75
     1
175
     1
 42
1.0
 92
        8
 66
     7
 43
1.0
 76
     1
 77
     6
 78
     2
 67
     7
 79
     3
170
     0
171
     0
290
     0
174
     0
 93
       13
 44
0.0
173
     0
291
     0
 45
0.0
1001
ACAD
1000
AcDbSavedByObjectVersion
1070
     0
  0
DICTIONARYVAR
  5
EC
102
{ACAD_REACTORS
330
E7
102
}
330
E7
100
DictionaryVariables
280
     0
  1
1:1
  0
DICTIONARYVAR
  5
E9
102
{ACAD_REACTORS
330
E7
102
}
330
E7
100
DictionaryVariables
280
     0
  1
STANDARD
  0
DICTIONARYVAR
  5
E8
102
{ACAD_REACTORS
330
E7
102
}
330
E7
100
DictionaryVariables
280
     0
  1
STANDARD
  0
DICTIONARYVAR
  5
EA
102
{ACAD_REACTORS
330
E7
102
}
330
E7
100
DictionaryVariables
280
     0
  1
Imperial24
  0
DICTIONARYVAR
  5
EB
102
{ACAD_REACTORS
330
E7
102
}
330
E7
100
DictionaryVariables
280
     0
  1
Imperial24
  0
DICTIONARYVAR
  5
147
102
{ACAD_REACTORS
330
E7
102
}
330
E7
100
DictionaryVariables
280
     0
  1
2
  0
DICTIONARY
  5
17F
330
6B
100
AcDbDictionary
280
     1
281
     1
  3
ACAD_XREC_ROUNDTRIP
360
180
  0
DICTIONARY
  5
1A
330
19
100
AcDbDictionary
280
     1
281
     1
  3
BUMPTILE
360
1C
  3
DIFFUSETILE
360
1B
  3
OPACITYTILE
360
1F
  3
REFLECTIONTILE
360
1E
  3
REFRACTIONTILE
360
20
  3
SPECULARTILE
360
1D
  0
DICTIONARY
  5
12
330
11
100
AcDbDictionary
280
     1
281
     1
  3
BUMPTILE
360
14
  3
DIFFUSETILE
360
13
  3
OPACITYTILE
360
17
  3
REFLECTIONTILE
360
16
  3
REFRACTIONTILE
360
18
  3
SPECULARTILE
360
15
  0
DICTIONARY
  5
22
330
21
100
AcDbDictionary
280
     1
281
     1
  3
BUMPTILE
360
24
  3
DIFFUSETILE
360
23
  3
OPACITYTILE
360
27
  3
REFLECTIONTILE
360
26
  3
REFRACTIONTILE
360
28
  3
SPECULARTILE
360
25
  0
DICTIONARY
  5
17B
330
67
100
AcDbDictionary
280
     1
281
     1
  3
ACAD_XREC_ROUNDTRIP
360
17C
  0
DICTIONARY
  5
17D
330
69
100
AcDbDictionary
280
     1
281
     1
  3
ACAD_XREC_ROUNDTRIP
360
17E
  0
DICTIONARY
  5
ED
330
65
100
AcDbDictionary
280
     1
281
     1
  3
ACAD_ROUNDTRIP_2008_TABLESTYLE_CELLSTYLEMAP
360
148
  0
DICTIONARY
  5
154
330
2F
100
AcDbDictionary
280
     1
281
     1
  3
ACAD_XREC_ROUNDTRIP
360
155
  0
DICTIONARY
  5
152
330
2E
100
AcDbDictionary
280
     1
281
     1
  3
ACAD_XREC_ROUNDTRIP
360
153
  0
DICTIONARY
  5
160
330
35
100
AcDbDictionary
280
     1
281
     1
  3
ACAD_XREC_ROUNDTRIP
360
161
  0
DICTIONARY
  5
168
330
39
100
AcDbDictionary
280
     1
281
     1
  3
ACAD_XREC_ROUNDTRIP
360
169
  0
DICTIONARY
  5
15A
330
32
100
AcDbDictionary
280
     1
281
     1
  3
ACAD_XREC_ROUNDTRIP
360
15B
  0
DICTIONARY
  5
15E
330
34
100
AcDbDictionary
280
     1
281
     1
  3
ACAD_XREC_ROUNDTRIP
360
15F
  0
DICTIONARY
  5
178
330
41
100
AcDbDictionary
280
     1
281
     1
  3
ACAD_XREC_ROUNDTRIP
360
179
  0
DICTIONARY
  5
166
330
38
100
AcDbDictionary
280
     1
281
     1
  3
ACAD_XREC_ROUNDTRIP
360
167
  0
DICTIONARY
  5
14A
330
2A
100
AcDbDictionary
280
     1
281
     1
  3
ACAD_XREC_ROUNDTRIP
360
14B
  0
DICTIONARY
  5
14C
330
2B
100
AcDbDictionary
280
     1
281
     1
  3
ACAD_XREC_ROUNDTRIP
360
14D
  0
DICTIONARY
  5
14E
330
2C
100
AcDbDictionary
280
     1
281
     1
  3
ACAD_XREC_ROUNDTRIP
360
14F
  0
DICTIONARY
  5
150
330
2D
100
AcDbDictionary
280
     1
281
     1
  3
ACAD_XREC_ROUNDTRIP
360
151
  0
DICTIONARY
  5
158
330
31
100
AcDbDictionary
280
     1
281
     1
  3
ACAD_XREC_ROUNDTRIP
360
159
  0
DICTIONARY
  5
174
330
3F
100
AcDbDictionary
280
     1
281
     1
  3
ACAD_XREC_ROUNDTRIP
360
175
  0
DICTIONARY
  5
164
330
37
100
AcDbDictionary
280
     1
281
     1
  3
ACAD_XREC_ROUNDTRIP
360
165
  0
DICTIONARY
  5
176
330
40
100
AcDbDictionary
280
     1
281
     1
  3
ACAD_XREC_ROUNDTRIP
360
177
  0
DICTIONARY
  5
15C
330
33
100
AcDbDictionary
280
     1
281
     1
  3
ACAD_XREC_ROUNDTRIP
360
15D
  0
DICTIONARY
  5
172
330
3E
100
AcDbDictionary
280
     1
281
     1
  3
ACAD_XREC_ROUNDTRIP
360
173
  0
DICTIONARY
  5
170
330
3D
100
AcDbDictionary
280
     1
281
     1
  3
ACAD_XREC_ROUNDTRIP
360
171
  0
DICTIONARY
  5
16A
330
3A
100
AcDbDictionary
280
     1
281
     1
  3
ACAD_XREC_ROUNDTRIP
360
16B
  0
DICTIONARY
  5
16C
330
3B
100
AcDbDictionary
280
     1
281
     1
  3
ACAD_XREC_ROUNDTRIP
360
16D
  0
DICTIONARY
  5
162
330
36
100
AcDbDictionary
280
     1
281
     1
  3
ACAD_XREC_ROUNDTRIP
360
163
  0
DICTIONARY
  5
156
330
30
100
AcDbDictionary
280
     1
281
     1
  3
ACAD_XREC_ROUNDTRIP
360
157
  0
DICTIONARY
  5
16E
330
3C
100
AcDbDictionary
280
     1
281
     1
  3
ACAD_XREC_ROUNDTRIP
360
16F
  0
XRECORD
  5
180
102
{ACAD_REACTORS
330
17F
102
}
330
17F
100
AcDbXrecord
280
     1
102
DISPLAYNAME
  1
Imperial24
102
FLAGS
 90
        0
  0
XRECORD
  5
1C
102
{ACAD_REACTORS
330
1A
102
}
330
1A
100
AcDbXrecord
280
     1
270
     1
271
     1
  0
XRECORD
  5
1B
102
{ACAD_REACTORS
330
1A
102
}
330
1A
100
AcDbXrecord
280
     1
270
     1
271
     1
  0
XRECORD
  5
1F
102
{ACAD_REACTORS
330
1A
102
}
330
1A
100
AcDbXrecord
280
     1
270
     1
271
     1
  0
XRECORD
  5
1E
102
{ACAD_REACTORS
330
1A
102
}
330
1A
100
AcDbXrecord
280
     1
270
     1
271
     1
  0
XRECORD
  5
20
102
{ACAD_REACTORS
330
1A
102
}
330
1A
100
AcDbXrecord
280
     1
270
     1
271
     1
  0
XRECORD
  5
1D
102
{ACAD_REACTORS
330
1A
102
}
330
1A
100
AcDbXrecord
280
     1
270
     1
271
     1
  0
XRECORD
  5
14
102
{ACAD_REACTORS
330
12
102
}
330
12
100
AcDbXrecord
280
     1
270
     1
271
     1
  0
XRECORD
  5
13
102
{ACAD_REACTORS
330
12
102
}
330
12
100
AcDbXrecord
280
     1
270
     1
271
     1
  0
XRECORD
  5
17
102
{ACAD_REACTORS
330
12
102
}
330
12
100
AcDbXrecord
280
     1
270
     1
271
     1
  0
XRECORD
  5
16
102
{ACAD_REACTORS
330
12
102
}
330
12
100
AcDbXrecord
280
     1
270
     1
271
     1
  0
XRECORD
  5
18
102
{ACAD_REACTORS
330
12
102
}
330
12
100
AcDbXrecord
280
     1
270
     1
271
     1
  0
XRECORD
  5
15
102
{ACAD_REACTORS
330
12
102
}
330
12
100
AcDbXrecord
280
     1
270
     1
271
     1
  0
XRECORD
  5
24
102
{ACAD_REACTORS
330
22
102
}
330
22
100
AcDbXrecord
280
     1
270
     1
271
     1
  0
XRECORD
  5
23
102
{ACAD_REACTORS
330
22
102
}
330
22
100
AcDbXrecord
280
     1
270
     1
271
     1
  0
XRECORD
  5
27
102
{ACAD_REACTORS
330
22
102
}
330
22
100
AcDbXrecord
280
     1
270
     1
271
     1
  0
XRECORD
  5
26
102
{ACAD_REACTORS
330
22
102
}
330
22
100
AcDbXrecord
280
     1
270
     1
271
     1
  0
XRECORD
  5
28
102
{ACAD_REACTORS
330
22
102
}
330
22
100
AcDbXrecord
280
     1
270
     1
271
     1
  0
XRECORD
  5
25
102
{ACAD_REACTORS
330
22
102
}
330
22
100
AcDbXrecord
280
     1
270
     1
271
     1
  0
XRECORD
  5
17C
102
{ACAD_REACTORS
330
17B
102
}
330
17B
100
AcDbXrecord
280
     1
102
ACAD_ROUNDTRIP_2012_MLEADER_STYLE
298
     1
  0
XRECORD
  5
17E
102
{ACAD_REACTORS
330
17D
102
}
330
17D
100
AcDbXrecord
280
     1
102
DISPLAYNAME
  1
Imperial24
102
FLAGS
 90
        0
  0
CELLSTYLEMAP
  5
148
102
{ACAD_REACTORS
330
ED
102
}
330
ED
100
AcDbCellStyleMap
 90
        3
300
CELLSTYLE
  1
TABLEFORMAT_BEGIN
 90
        5
170
     1
 91
        0
 92
    32768
 62
   257
 93
        1
300
CONTENTFORMAT
  1
CONTENTFORMAT_BEGIN
 90
        0
 91
        0
 92
      512
 93
        0
300

 40
0.0
140
1.0
 94
        5
 62
     0
340
55
144
0.25
309
CONTENTFORMAT_END
171
     1
301
MARGIN
  1
CELLMARGIN_BEGIN
 40
0.06
 40
0.06
 40
0.06
 40
0.06
 40
0.18
 40
0.18
309
CELLMARGIN_END
 94
        6
 95
        1
302
GRIDFORMAT
  1
GRIDFORMAT_BEGIN
 90
        0
 91
        1
 62
     0
 92
       -2
340
0
 93
        0
 40
0.045
309
GRIDFORMAT_END
 95
        2
302
GRIDFORMAT
  1
GRIDFORMAT_BEGIN
 90
        0
 91
        1
 62
     0
 92
       -2
340
0
 93
        0
 40
0.045
309
GRIDFORMAT_END
 95
        4
302
GRIDFORMAT
  1
GRIDFORMAT_BEGIN
 90
        0
 91
        1
 62
     0
 92
       -2
340
0
 93
        0
 40
0.045
309
GRIDFORMAT_END
 95
        8
302
GRIDFORMAT
  1
GRIDFORMAT_BEGIN
 90
        0
 91
        1
 62
     0
 92
       -2
340
0
 93
        0
 40
0.045
309
GRIDFORMAT_END
 95
       16
302
GRIDFORMAT
  1
GRIDFORMAT_BEGIN
 90
        0
 91
        1
 62
     0
 92
       -2
340
0
 93
        0
 40
0.045
309
GRIDFORMAT_END
 95
       32
302
GRIDFORMAT
  1
GRIDFORMAT_BEGIN
 90
        0
 91
        1
 62
     0
 92
       -2
340
0
 93
        0
 40
0.045
309
GRIDFORMAT_END
309
TABLEFORMAT_END
  1
CELLSTYLE_BEGIN
 90
        1
 91
        1
300
_TITLE
309
CELLSTYLE_END
300
CELLSTYLE
  1
TABLEFORMAT_BEGIN
 90
        5
170
     1
 91
        0
 92
        0
 62
   257
 93
        1
300
CONTENTFORMAT
  1
CONTENTFORMAT_BEGIN
 90
        0
 91
        0
 92
      512
 93
        0
300

 40
0.0
140
1.0
 94
        5
 62
     0
340
55
144
0.18
309
CONTENTFORMAT_END
171
     1
301
MARGIN
  1
CELLMARGIN_BEGIN
 40
0.06
 40
0.06
 40
0.06
 40
0.06
 40
0.18
 40
0.18
309
CELLMARGIN_END
 94
        6
 95
        1
302
GRIDFORMAT
  1
GRIDFORMAT_BEGIN
 90
        0
 91
        1
 62
     0
 92
       -2
340
0
 93
        0
 40
0.045
309
GRIDFORMAT_END
 95
        2
302
GRIDFORMAT
  1
GRIDFORMAT_BEGIN
 90
        0
 91
        1
 62
     0
 92
       -2
340
0
 93
        0
 40
0.045
309
GRIDFORMAT_END
 95
        4
302
GRIDFORMAT
  1
GRIDFORMAT_BEGIN
 90
        0
 91
        1
 62
     0
 92
       -2
340
0
 93
        0
 40
0.045
309
GRIDFORMAT_END
 95
        8
302
GRIDFORMAT
  1
GRIDFORMAT_BEGIN
 90
        0
 91
        1
 62
     0
 92
       -2
340
0
 93
        0
 40
0.045
309
GRIDFORMAT_END
 95
       16
302
GRIDFORMAT
  1
GRIDFORMAT_BEGIN
 90
        0
 91
        1
 62
     0
 92
       -2
340
0
 93
        0
 40
0.045
309
GRIDFORMAT_END
 95
       32
302
GRIDFORMAT
  1
GRIDFORMAT_BEGIN
 90
        0
 91
        1
 62
     0
 92
       -2
340
0
 93
        0
 40
0.045
309
GRIDFORMAT_END
309
TABLEFORMAT_END
  1
CELLSTYLE_BEGIN
 90
        2
 91
        1
300
_HEADER
309
CELLSTYLE_END
300
CELLSTYLE
  1
TABLEFORMAT_BEGIN
 90
        5
170
     1
 91
        0
 92
        0
 62
   257
 93
        1
300
CONTENTFORMAT
  1
CONTENTFORMAT_BEGIN
 90
        0
 91
        0
 92
      512
 93
        0
300

 40
0.0
140
1.0
 94
        2
 62
     0
340
55
144
0.18
309
CONTENTFORMAT_END
171
     1
301
MARGIN
  1
CELLMARGIN_BEGIN
 40
0.06
 40
0.06
 40
0.06
 40
0.06
 40
0.18
 40
0.18
309
CELLMARGIN_END
 94
        6
 95
        1
302
GRIDFORMAT
  1
GRIDFORMAT_BEGIN
 90
        0
 91
        1
 62
     0
 92
       -2
340
0
 93
        0
 40
0.045
309
GRIDFORMAT_END
 95
        2
302
GRIDFORMAT
  1
GRIDFORMAT_BEGIN
 90
        0
 91
        1
 62
     0
 92
       -2
340
0
 93
        0
 40
0.045
309
GRIDFORMAT_END
 95
        4
302
GRIDFORMAT
  1
GRIDFORMAT_BEGIN
 90
        0
 91
        1
 62
     0
 92
       -2
340
0
 93
        0
 40
0.045
309
GRIDFORMAT_END
 95
        8
302
GRIDFORMAT
  1
GRIDFORMAT_BEGIN
 90
        0
 91
        1
 62
     0
 92
       -2
340
0
 93
        0
 40
0.045
309
GRIDFORMAT_END
 95
       16
302
GRIDFORMAT
  1
GRIDFORMAT_BEGIN
 90
        0
 91
        1
 62
     0
 92
       -2
340
0
 93
        0
 40
0.045
309
GRIDFORMAT_END
 95
       32
302
GRIDFORMAT
  1
GRIDFORMAT_BEGIN
 90
        0
 91
        1
 62
     0
 92
       -2
340
0
 93
        0
 40
0.045
309
GRIDFORMAT_END
309
TABLEFORMAT_END
  1
CELLSTYLE_BEGIN
 90
        3
 91
        2
300
_DATA
309
CELLSTYLE_END
  0
XRECORD
  5
155
102
{ACAD_REACTORS
330
154
102
}
330
154
100
AcDbXrecord
280
     1
102
RTVSPost2010Prop28
280
     1
102
RTVSPost2010PropOp28
 70
     1
102
RTVSPost2010Prop29
280
     1
102
RTVSPost2010PropOp29
 70
     1
102
RTVSPost2010Prop30
280
     0
102
RTVSPost2010PropOp30
 70
     1
102
RTVSPost2010Prop31
280
     0
102
RTVSPost2010PropOp31
 70
     1
102
RTVSPost2010Prop32
280
     0
102
RTVSPost2010PropOp32
 70
     1
102
RTVSPost2010Prop33
280
     0
102
RTVSPost2010PropOp33
 70
     1
102
RTVSPost2010Prop34
280
     0
102
RTVSPost2010PropOp34
 70
     1
102
RTVSPost2010Prop35
280
     0
102
RTVSPost2010PropOp35
 70
     1
102
RTVSPost2010Prop36
280
     0
102
RTVSPost2010PropOp36
 70
     1
102
RTVSPost2010Prop37
 90
       50
102
RTVSPost2010PropOp37
 70
     1
102
RTVSPost2010Prop38
140
0.0
102
RTVSPost2010PropOp38
 70
     1
102
RTVSPost2010Prop39
140
1.0
102
RTVSPost2010PropOp39
 70
     1
102
RTVSPost2010Prop40
 90
        0
102
RTVSPost2010PropOp40
 70
     1
102
RTVSPost2010Prop41ColorIndex
 90
       18
102
RTVSPost2010Prop41ColorRGB
 90
        0
102
RTVSPost2010PropOp41
 70
     1
102
RTVSPost2010Prop42
 90
       50
102
RTVSPost2010PropOp42
 70
     1
102
RTVSPost2010Prop43
 90
        3
102
RTVSPost2010PropOp43
 70
     1
102
RTVSPost2010Prop44ColorIndex
 90
        5
102
RTVSPost2010Prop44ColorRGB
 90
      255
102
RTVSPost2010PropOp44
 70
     1
102
RTVSPost2010Prop45
280
     0
102
RTVSPost2010PropOp45
 70
     1
102
RTVSPost2010Prop46
 90
       50
102
RTVSPost2010PropOp46
 70
     1
102
RTVSPost2010Prop47
 90
       50
102
RTVSPost2010PropOp47
 70
     1
102
RTVSPost2010Prop48
 90
       50
102
RTVSPost2010PropOp48
 70
     1
102
RTVSPost2010Prop49
280
     0
102
RTVSPost2010PropOp49
 70
     1
102
RTVSPost2010Prop50
 90
       50
102
RTVSPost2010PropOp50
 70
     1
102
RTVSPost2010Prop51ColorIndex
 90
      256
102
RTVSPost2010Prop51ColorRGB
 90
-16777216
102
RTVSPost2010PropOp51
 70
     0
102
RTVSPost2010Prop52
140
1.0
102
RTVSPost2010PropOp52
 70
     0
102
RTVSPost2010Prop53
 90
        2
102
RTVSPost2010PropOp53
 70
     1
102
RTVSPost2010Prop54
  1
strokes_ogs.tif
102
RTVSPost2010PropOp54
 70
     1
102
RTVSPost2010Prop55
280
     0
102
RTVSPost2010PropOp55
 70
     1
102
RTVSPost2010Prop56
140
1.0
102
RTVSPost2010PropOp56
 70
     1
102
RTVSPost2010Prop57
140
1.0
102
RTVSPost2010PropOp57
 70
     1
102
RTVSPropertyOp0
 70
     1
102
RTVSPropertyOp1
 70
     1
102
RTVSPropertyOp2
 70
     1
102
RTVSPropertyOp3
 70
     1
102
RTVSPropertyOp4
 70
     1
102
RTVSPropertyOp5
 70
     1
102
RTVSPropertyOp6
 70
     1
102
RTVSPropertyOp7
 70
     1
102
RTVSPropertyOp8
 70
     1
102
RTVSPropertyOp9
 70
     1
102
RTVSPropertyOp10
 70
     1
102
RTVSPropertyOp11
 70
     1
102
RTVSPropertyOp12
 70
     1
102
RTVSPropertyOp13
 70
     1
102
RTVSPropertyOp14
 70
     1
102
RTVSPropertyOp15
 70
     1
102
RTVSPropertyOp16
 70
     1
102
RTVSPropertyOp17
 70
     1
102
RTVSPropertyOp18
 70
     1
102
RTVSPropertyOp19
 70
     1
102
RTVSPropertyOp20
 70
     1
102
RTVSPropertyOp21
 70
     1
102
RTVSPropertyOp22
 70
     1
102
RTVSPropertyOp23
 70
     1
102
RTVSPropertyOp24
 70
     1
102
RTVSPropertyOp25
 70
     1
102
RTVSPropertyOp26
 70
     1
102
RTVSPropertyOp27
 70
     1
102
RTVSPropertyOp28
 70
     1
102
RTVSPropertyOp29
 70
     1
102
RTVSPropertyOp30
 70
     1
102
RTVSPropertyOp31
 70
     1
102
RTVSPropertyOp32
 70
     1
102
RTVSPropertyOp33
 70
     1
102
RTVSPropertyOp34
 70
     1
102
RTVSPropertyOp35
 70
     1
102
RTVSPropertyOp36
 70
     1
102
RTVSPropertyOp37
 70
     1
102
RTVSPropertyOp38
 70
     1
102
RTVSPropertyOp39
 70
     1
102
RTVSPropertyOp40
 70
     1
102
RTVSPropertyOp41
 70
     1
102
RTVSPropertyOp42
 70
     1
102
RTVSPropertyOp43
 70
     1
102
RTVSPropertyOp44
 70
     1
102
RTVSPropertyOp45
 70
     1
102
RTVSPropertyOp46
 70
     1
102
RTVSPropertyOp47
 70
     1
102
RTVSPropertyOp48
 70
     1
102
RTVSPropertyOp49
 70
     1
102
RTVSPropertyOp50
 70
     1
102
RTVSPropertyOp51
 70
     0
102
RTVSPropertyOp52
 70
     0
102
RTVSPropertyOp53
 70
     1
102
RTVSPropertyOp54
 70
     1
102
RTVSPropertyOp55
 70
     1
102
RTVSPropertyOp56
 70
     1
102
RTVSPropertyOp57
 70
     1
102
RTVSPropertyOp58
 70
     1
102
RTVSPropertyOp59
 70
     1
102
RTVSPropertyOp60
 70
     1
102
RTVSPropertyOp61
 70
     1
102
RTVSPropertyOp62
 70
     1
  0
XRECORD
  5
153
102
{ACAD_REACTORS
330
152
102
}
330
152
100
AcDbXrecord
280
     1
102
RTVSPost2010Prop28
280
     0
102
RTVSPost2010PropOp28
 70
     1
102
RTVSPost2010Prop29
280
     1
102
RTVSPost2010PropOp29
 70
     1
102
RTVSPost2010Prop30
280
     1
102
RTVSPost2010PropOp30
 70
     1
102
RTVSPost2010Prop31
280
     0
102
RTVSPost2010PropOp31
 70
     1
102
RTVSPost2010Prop32
280
     0
102
RTVSPost2010PropOp32
 70
     1
102
RTVSPost2010Prop33
280
     0
102
RTVSPost2010PropOp33
 70
     1
102
RTVSPost2010Prop34
280
     0
102
RTVSPost2010PropOp34
 70
     1
102
RTVSPost2010Prop35
280
     0
102
RTVSPost2010PropOp35
 70
     1
102
RTVSPost2010Prop36
280
     0
102
RTVSPost2010PropOp36
 70
     1
102
RTVSPost2010Prop37
 90
       50
102
RTVSPost2010PropOp37
 70
     1
102
RTVSPost2010Prop38
140
0.0
102
RTVSPost2010PropOp38
 70
     1
102
RTVSPost2010Prop39
140
1.0
102
RTVSPost2010PropOp39
 70
     1
102
RTVSPost2010Prop40
 90
        0
102
RTVSPost2010PropOp40
 70
     1
102
RTVSPost2010Prop41ColorIndex
 90
       18
102
RTVSPost2010Prop41ColorRGB
 90
        0
102
RTVSPost2010PropOp41
 70
     1
102
RTVSPost2010Prop42
 90
       50
102
RTVSPost2010PropOp42
 70
     1
102
RTVSPost2010Prop43
 90
        3
102
RTVSPost2010PropOp43
 70
     1
102
RTVSPost2010Prop44ColorIndex
 90
        5
102
RTVSPost2010Prop44ColorRGB
 90
      255
102
RTVSPost2010PropOp44
 70
     1
102
RTVSPost2010Prop45
280
     0
102
RTVSPost2010PropOp45
 70
     1
102
RTVSPost2010Prop46
 90
       50
102
RTVSPost2010PropOp46
 70
     1
102
RTVSPost2010Prop47
 90
       50
102
RTVSPost2010PropOp47
 70
     1
102
RTVSPost2010Prop48
 90
       50
102
RTVSPost2010PropOp48
 70
     1
102
RTVSPost2010Prop49
280
     0
102
RTVSPost2010PropOp49
 70
     1
102
RTVSPost2010Prop50
 90
       50
102
RTVSPost2010PropOp50
 70
     1
102
RTVSPost2010Prop51ColorIndex
 90
      256
102
RTVSPost2010Prop51ColorRGB
 90
-16777216
102
RTVSPost2010PropOp51
 70
     0
102
RTVSPost2010Prop52
140
1.0
102
RTVSPost2010PropOp52
 70
     0
102
RTVSPost2010Prop53
 90
        2
102
RTVSPost2010PropOp53
 70
     1
102
RTVSPost2010Prop54
  1
strokes_ogs.tif
102
RTVSPost2010PropOp54
 70
     1
102
RTVSPost2010Prop55
280
     0
102
RTVSPost2010PropOp55
 70
     1
102
RTVSPost2010Prop56
140
1.0
102
RTVSPost2010PropOp56
 70
     1
102
RTVSPost2010Prop57
140
1.0
102
RTVSPost2010PropOp57
 70
     1
102
RTVSPropertyOp0
 70
     1
102
RTVSPropertyOp1
 70
     1
102
RTVSPropertyOp2
 70
     1
102
RTVSPropertyOp3
 70
     1
102
RTVSPropertyOp4
 70
     1
102
RTVSPropertyOp5
 70
     1
102
RTVSPropertyOp6
 70
     1
102
RTVSPropertyOp7
 70
     1
102
RTVSPropertyOp8
 70
     1
102
RTVSPropertyOp9
 70
     1
102
RTVSPropertyOp10
 70
     1
102
RTVSPropertyOp11
 70
     1
102
RTVSPropertyOp12
 70
     1
102
RTVSPropertyOp13
 70
     1
102
RTVSPropertyOp14
 70
     1
102
RTVSPropertyOp15
 70
     1
102
RTVSPropertyOp16
 70
     1
102
RTVSPropertyOp17
 70
     1
102
RTVSPropertyOp18
 70
     1
102
RTVSPropertyOp19
 70
     1
102
RTVSPropertyOp20
 70
     1
102
RTVSPropertyOp21
 70
     1
102
RTVSPropertyOp22
 70
     1
102
RTVSPropertyOp23
 70
     1
102
RTVSPropertyOp24
 70
     1
102
RTVSPropertyOp25
 70
     1
102
RTVSPropertyOp26
 70
     1
102
RTVSPropertyOp27
 70
     1
102
RTVSPropertyOp28
 70
     1
102
RTVSPropertyOp29
 70
     1
102
RTVSPropertyOp30
 70
     1
102
RTVSPropertyOp31
 70
     1
102
RTVSPropertyOp32
 70
     1
102
RTVSPropertyOp33
 70
     1
102
RTVSPropertyOp34
 70
     1
102
RTVSPropertyOp35
 70
     1
102
RTVSPropertyOp36
 70
     1
102
RTVSPropertyOp37
 70
     1
102
RTVSPropertyOp38
 70
     1
102
RTVSPropertyOp39
 70
     1
102
RTVSPropertyOp40
 70
     1
102
RTVSPropertyOp41
 70
     1
102
RTVSPropertyOp42
 70
     1
102
RTVSPropertyOp43
 70
     1
102
RTVSPropertyOp44
 70
     1
102
RTVSPropertyOp45
 70
     1
102
RTVSPropertyOp46
 70
     1
102
RTVSPropertyOp47
 70
     1
102
RTVSPropertyOp48
 70
     1
102
RTVSPropertyOp49
 70
     1
102
RTVSPropertyOp50
 70
     1
102
RTVSPropertyOp51
 70
     0
102
RTVSPropertyOp52
 70
     0
102
RTVSPropertyOp53
 70
     1
102
RTVSPropertyOp54
 70
     1
102
RTVSPropertyOp55
 70
     1
102
RTVSPropertyOp56
 70
     1
102
RTVSPropertyOp57
 70
     1
102
RTVSPropertyOp58
 70
     1
102
RTVSPropertyOp59
 70
     1
102
RTVSPropertyOp60
 70
     1
102
RTVSPropertyOp61
 70
     1
102
RTVSPropertyOp62
 70
     1
  0
XRECORD
  5
161
102
{ACAD_REACTORS
330
160
102
}
330
160
100
AcDbXrecord
280
     1
102
RTVSPost2010Prop28
280
     0
102
RTVSPost2010PropOp28
 70
     1
102
RTVSPost2010Prop29
280
     1
102
RTVSPost2010PropOp29
 70
     1
102
RTVSPost2010Prop30
280
     1
102
RTVSPost2010PropOp30
 70
     1
102
RTVSPost2010Prop31
280
     0
102
RTVSPost2010PropOp31
 70
     1
102
RTVSPost2010Prop32
280
     0
102
RTVSPost2010PropOp32
 70
     1
102
RTVSPost2010Prop33
280
     0
102
RTVSPost2010PropOp33
 70
     1
102
RTVSPost2010Prop34
280
     0
102
RTVSPost2010PropOp34
 70
     1
102
RTVSPost2010Prop35
280
     0
102
RTVSPost2010PropOp35
 70
     1
102
RTVSPost2010Prop36
280
     0
102
RTVSPost2010PropOp36
 70
     1
102
RTVSPost2010Prop37
 90
       50
102
RTVSPost2010PropOp37
 70
     1
102
RTVSPost2010Prop38
140
0.0
102
RTVSPost2010PropOp38
 70
     1
102
RTVSPost2010Prop39
140
1.0
102
RTVSPost2010PropOp39
 70
     1
102
RTVSPost2010Prop40
 90
        0
102
RTVSPost2010PropOp40
 70
     1
102
RTVSPost2010Prop41ColorIndex
 90
       18
102
RTVSPost2010Prop41ColorRGB
 90
        0
102
RTVSPost2010PropOp41
 70
     1
102
RTVSPost2010Prop42
 90
       50
102
RTVSPost2010PropOp42
 70
     1
102
RTVSPost2010Prop43
 90
        3
102
RTVSPost2010PropOp43
 70
     1
102
RTVSPost2010Prop44ColorIndex
 90
        5
102
RTVSPost2010Prop44ColorRGB
 90
      255
102
RTVSPost2010PropOp44
 70
     1
102
RTVSPost2010Prop45
280
     0
102
RTVSPost2010PropOp45
 70
     1
102
RTVSPost2010Prop46
 90
       50
102
RTVSPost2010PropOp46
 70
     1
102
RTVSPost2010Prop47
 90
       50
102
RTVSPost2010PropOp47
 70
     1
102
RTVSPost2010Prop48
 90
       50
102
RTVSPost2010PropOp48
 70
     1
102
RTVSPost2010Prop49
280
     0
102
RTVSPost2010PropOp49
 70
     1
102
RTVSPost2010Prop50
 90
       50
102
RTVSPost2010PropOp50
 70
     1
102
RTVSPost2010Prop51ColorIndex
 90
      256
102
RTVSPost2010Prop51ColorRGB
 90
-16777216
102
RTVSPost2010PropOp51
 70
     0
102
RTVSPost2010Prop52
140
1.0
102
RTVSPost2010PropOp52
 70
     0
102
RTVSPost2010Prop53
 90
        2
102
RTVSPost2010PropOp53
 70
     1
102
RTVSPost2010Prop54
  1
strokes_ogs.tif
102
RTVSPost2010PropOp54
 70
     1
102
RTVSPost2010Prop55
280
     0
102
RTVSPost2010PropOp55
 70
     1
102
RTVSPost2010Prop56
140
1.0
102
RTVSPost2010PropOp56
 70
     1
102
RTVSPost2010Prop57
140
1.0
102
RTVSPost2010PropOp57
 70
     1
102
RTVSPropertyOp0
 70
     1
102
RTVSPropertyOp1
 70
     1
102
RTVSPropertyOp2
 70
     1
102
RTVSPropertyOp3
 70
     1
102
RTVSPropertyOp4
 70
     1
102
RTVSPropertyOp5
 70
     1
102
RTVSPropertyOp6
 70
     1
102
RTVSPropertyOp7
 70
     1
102
RTVSPropertyOp8
 70
     1
102
RTVSPropertyOp9
 70
     1
102
RTVSPropertyOp10
 70
     1
102
RTVSPropertyOp11
 70
     1
102
RTVSPropertyOp12
 70
     1
102
RTVSPropertyOp13
 70
     1
102
RTVSPropertyOp14
 70
     1
102
RTVSPropertyOp15
 70
     1
102
RTVSPropertyOp16
 70
     1
102
RTVSPropertyOp17
 70
     1
102
RTVSPropertyOp18
 70
     1
102
RTVSPropertyOp19
 70
     1
102
RTVSPropertyOp20
 70
     1
102
RTVSPropertyOp21
 70
     1
102
RTVSPropertyOp22
 70
     1
102
RTVSPropertyOp23
 70
     1
102
RTVSPropertyOp24
 70
     1
102
RTVSPropertyOp25
 70
     1
102
RTVSPropertyOp26
 70
     1
102
RTVSPropertyOp27
 70
     1
102
RTVSPropertyOp28
 70
     1
102
RTVSPropertyOp29
 70
     1
102
RTVSPropertyOp30
 70
     1
102
RTVSPropertyOp31
 70
     1
102
RTVSPropertyOp32
 70
     1
102
RTVSPropertyOp33
 70
     1
102
RTVSPropertyOp34
 70
     1
102
RTVSPropertyOp35
 70
     1
102
RTVSPropertyOp36
 70
     1
102
RTVSPropertyOp37
 70
     1
102
RTVSPropertyOp38
 70
     1
102
RTVSPropertyOp39
 70
     1
102
RTVSPropertyOp40
 70
     1
102
RTVSPropertyOp41
 70
     1
102
RTVSPropertyOp42
 70
     1
102
RTVSPropertyOp43
 70
     1
102
RTVSPropertyOp44
 70
     1
102
RTVSPropertyOp45
 70
     1
102
RTVSPropertyOp46
 70
     1
102
RTVSPropertyOp47
 70
     1
102
RTVSPropertyOp48
 70
     1
102
RTVSPropertyOp49
 70
     1
102
RTVSPropertyOp50
 70
     1
102
RTVSPropertyOp51
 70
     0
102
RTVSPropertyOp52
 70
     0
102
RTVSPropertyOp53
 70
     1
102
RTVSPropertyOp54
 70
     1
102
RTVSPropertyOp55
 70
     1
102
RTVSPropertyOp56
 70
     1
102
RTVSPropertyOp57
 70
     1
102
RTVSPropertyOp58
 70
     1
102
RTVSPropertyOp59
 70
     1
102
RTVSPropertyOp60
 70
     1
102
RTVSPropertyOp61
 70
     1
102
RTVSPropertyOp62
 70
     1
  0
XRECORD
  5
169
102
{ACAD_REACTORS
330
168
102
}
330
168
100
AcDbXrecord
280
     1
102
RTVSPost2010Prop28
280
     0
102
RTVSPost2010PropOp28
 70
     1
102
RTVSPost2010Prop29
280
     1
102
RTVSPost2010PropOp29
 70
     1
102
RTVSPost2010Prop30
280
     1
102
RTVSPost2010PropOp30
 70
     1
102
RTVSPost2010Prop31
280
     0
102
RTVSPost2010PropOp31
 70
     1
102
RTVSPost2010Prop32
280
     0
102
RTVSPost2010PropOp32
 70
     1
102
RTVSPost2010Prop33
280
     0
102
RTVSPost2010PropOp33
 70
     1
102
RTVSPost2010Prop34
280
     0
102
RTVSPost2010PropOp34
 70
     1
102
RTVSPost2010Prop35
280
     0
102
RTVSPost2010PropOp35
 70
     1
102
RTVSPost2010Prop36
280
     0
102
RTVSPost2010PropOp36
 70
     1
102
RTVSPost2010Prop37
 90
       50
102
RTVSPost2010PropOp37
 70
     1
102
RTVSPost2010Prop38
140
0.0
102
RTVSPost2010PropOp38
 70
     1
102
RTVSPost2010Prop39
140
1.0
102
RTVSPost2010PropOp39
 70
     1
102
RTVSPost2010Prop40
 90
        0
102
RTVSPost2010PropOp40
 70
     1
102
RTVSPost2010Prop41ColorIndex
 90
       18
102
RTVSPost2010Prop41ColorRGB
 90
        0
102
RTVSPost2010PropOp41
 70
     1
102
RTVSPost2010Prop42
 90
       50
102
RTVSPost2010PropOp42
 70
     1
102
RTVSPost2010Prop43
 90
        3
102
RTVSPost2010PropOp43
 70
     1
102
RTVSPost2010Prop44ColorIndex
 90
        5
102
RTVSPost2010Prop44ColorRGB
 90
      255
102
RTVSPost2010PropOp44
 70
     1
102
RTVSPost2010Prop45
280
     0
102
RTVSPost2010PropOp45
 70
     1
102
RTVSPost2010Prop46
 90
       50
102
RTVSPost2010PropOp46
 70
     1
102
RTVSPost2010Prop47
 90
       50
102
RTVSPost2010PropOp47
 70
     1
102
RTVSPost2010Prop48
 90
       50
102
RTVSPost2010PropOp48
 70
     1
102
RTVSPost2010Prop49
280
     0
102
RTVSPost2010PropOp49
 70
     1
102
RTVSPost2010Prop50
 90
       50
102
RTVSPost2010PropOp50
 70
     1
102
RTVSPost2010Prop51ColorIndex
 90
      256
102
RTVSPost2010Prop51ColorRGB
 90
-16777216
102
RTVSPost2010PropOp51
 70
     0
102
RTVSPost2010Prop52
140
1.0
102
RTVSPost2010PropOp52
 70
     0
102
RTVSPost2010Prop53
 90
        2
102
RTVSPost2010PropOp53
 70
     1
102
RTVSPost2010Prop54
  1
strokes_ogs.tif
102
RTVSPost2010PropOp54
 70
     1
102
RTVSPost2010Prop55
280
     0
102
RTVSPost2010PropOp55
 70
     1
102
RTVSPost2010Prop56
140
1.0
102
RTVSPost2010PropOp56
 70
     1
102
RTVSPost2010Prop57
140
1.0
102
RTVSPost2010PropOp57
 70
     1
102
RTVSPropertyOp0
 70
     1
102
RTVSPropertyOp1
 70
     1
102
RTVSPropertyOp2
 70
     1
102
RTVSPropertyOp3
 70
     1
102
RTVSPropertyOp4
 70
     1
102
RTVSPropertyOp5
 70
     1
102
RTVSPropertyOp6
 70
     1
102
RTVSPropertyOp7
 70
     1
102
RTVSPropertyOp8
 70
     1
102
RTVSPropertyOp9
 70
     1
102
RTVSPropertyOp10
 70
     1
102
RTVSPropertyOp11
 70
     1
102
RTVSPropertyOp12
 70
     1
102
RTVSPropertyOp13
 70
     1
102
RTVSPropertyOp14
 70
     1
102
RTVSPropertyOp15
 70
     1
102
RTVSPropertyOp16
 70
     1
102
RTVSPropertyOp17
 70
     1
102
RTVSPropertyOp18
 70
     1
102
RTVSPropertyOp19
 70
     1
102
RTVSPropertyOp20
 70
     1
102
RTVSPropertyOp21
 70
     1
102
RTVSPropertyOp22
 70
     1
102
RTVSPropertyOp23
 70
     1
102
RTVSPropertyOp24
 70
     1
102
RTVSPropertyOp25
 70
     1
102
RTVSPropertyOp26
 70
     1
102
RTVSPropertyOp27
 70
     1
102
RTVSPropertyOp28
 70
     1
102
RTVSPropertyOp29
 70
     1
102
RTVSPropertyOp30
 70
     1
102
RTVSPropertyOp31
 70
     1
102
RTVSPropertyOp32
 70
     1
102
RTVSPropertyOp33
 70
     1
102
RTVSPropertyOp34
 70
     1
102
RTVSPropertyOp35
 70
     1
102
RTVSPropertyOp36
 70
     1
102
RTVSPropertyOp37
 70
     1
102
RTVSPropertyOp38
 70
     1
102
RTVSPropertyOp39
 70
     1
102
RTVSPropertyOp40
 70
     1
102
RTVSPropertyOp41
 70
     1
102
RTVSPropertyOp42
 70
     1
102
RTVSPropertyOp43
 70
     1
102
RTVSPropertyOp44
 70
     1
102
RTVSPropertyOp45
 70
     1
102
RTVSPropertyOp46
 70
     1
102
RTVSPropertyOp47
 70
     1
102
RTVSPropertyOp48
 70
     1
102
RTVSPropertyOp49
 70
     1
102
RTVSPropertyOp50
 70
     1
102
RTVSPropertyOp51
 70
     0
102
RTVSPropertyOp52
 70
     0
102
RTVSPropertyOp53
 70
     1
102
RTVSPropertyOp54
 70
     1
102
RTVSPropertyOp55
 70
     1
102
RTVSPropertyOp56
 70
     1
102
RTVSPropertyOp57
 70
     1
102
RTVSPropertyOp58
 70
     1
102
RTVSPropertyOp59
 70
     1
102
RTVSPropertyOp60
 70
     1
102
RTVSPropertyOp61
 70
     1
102
RTVSPropertyOp62
 70
     1
  0
XRECORD
  5
15B
102
{ACAD_REACTORS
330
15A
102
}
330
15A
100
AcDbXrecord
280
     1
102
RTVSPost2010Prop28
280
     0
102
RTVSPost2010PropOp28
 70
     1
102
RTVSPost2010Prop29
280
     1
102
RTVSPost2010PropOp29
 70
     1
102
RTVSPost2010Prop30
280
     1
102
RTVSPost2010PropOp30
 70
     1
102
RTVSPost2010Prop31
280
     0
102
RTVSPost2010PropOp31
 70
     1
102
RTVSPost2010Prop32
280
     0
102
RTVSPost2010PropOp32
 70
     1
102
RTVSPost2010Prop33
280
     0
102
RTVSPost2010PropOp33
 70
     1
102
RTVSPost2010Prop34
280
     0
102
RTVSPost2010PropOp34
 70
     1
102
RTVSPost2010Prop35
280
     0
102
RTVSPost2010PropOp35
 70
     1
102
RTVSPost2010Prop36
280
     0
102
RTVSPost2010PropOp36
 70
     1
102
RTVSPost2010Prop37
 90
       50
102
RTVSPost2010PropOp37
 70
     1
102
RTVSPost2010Prop38
140
0.0
102
RTVSPost2010PropOp38
 70
     1
102
RTVSPost2010Prop39
140
1.0
102
RTVSPost2010PropOp39
 70
     1
102
RTVSPost2010Prop40
 90
        0
102
RTVSPost2010PropOp40
 70
     1
102
RTVSPost2010Prop41ColorIndex
 90
       18
102
RTVSPost2010Prop41ColorRGB
 90
        0
102
RTVSPost2010PropOp41
 70
     1
102
RTVSPost2010Prop42
 90
       50
102
RTVSPost2010PropOp42
 70
     1
102
RTVSPost2010Prop43
 90
        3
102
RTVSPost2010PropOp43
 70
     1
102
RTVSPost2010Prop44ColorIndex
 90
        5
102
RTVSPost2010Prop44ColorRGB
 90
      255
102
RTVSPost2010PropOp44
 70
     1
102
RTVSPost2010Prop45
280
     0
102
RTVSPost2010PropOp45
 70
     1
102
RTVSPost2010Prop46
 90
       50
102
RTVSPost2010PropOp46
 70
     1
102
RTVSPost2010Prop47
 90
       50
102
RTVSPost2010PropOp47
 70
     1
102
RTVSPost2010Prop48
 90
       50
102
RTVSPost2010PropOp48
 70
     1
102
RTVSPost2010Prop49
280
     0
102
RTVSPost2010PropOp49
 70
     1
102
RTVSPost2010Prop50
 90
       50
102
RTVSPost2010PropOp50
 70
     1
102
RTVSPost2010Prop51ColorIndex
 90
      256
102
RTVSPost2010Prop51ColorRGB
 90
-16777216
102
RTVSPost2010PropOp51
 70
     0
102
RTVSPost2010Prop52
140
1.0
102
RTVSPost2010PropOp52
 70
     0
102
RTVSPost2010Prop53
 90
        2
102
RTVSPost2010PropOp53
 70
     1
102
RTVSPost2010Prop54
  1
strokes_ogs.tif
102
RTVSPost2010PropOp54
 70
     1
102
RTVSPost2010Prop55
280
     0
102
RTVSPost2010PropOp55
 70
     1
102
RTVSPost2010Prop56
140
1.0
102
RTVSPost2010PropOp56
 70
     1
102
RTVSPost2010Prop57
140
1.0
102
RTVSPost2010PropOp57
 70
     1
102
RTVSPropertyOp0
 70
     1
102
RTVSPropertyOp1
 70
     1
102
RTVSPropertyOp2
 70
     1
102
RTVSPropertyOp3
 70
     1
102
RTVSPropertyOp4
 70
     1
102
RTVSPropertyOp5
 70
     1
102
RTVSPropertyOp6
 70
     1
102
RTVSPropertyOp7
 70
     1
102
RTVSPropertyOp8
 70
     1
102
RTVSPropertyOp9
 70
     1
102
RTVSPropertyOp10
 70
     1
102
RTVSPropertyOp11
 70
     1
102
RTVSPropertyOp12
 70
     1
102
RTVSPropertyOp13
 70
     1
102
RTVSPropertyOp14
 70
     1
102
RTVSPropertyOp15
 70
     1
102
RTVSPropertyOp16
 70
     1
102
RTVSPropertyOp17
 70
     1
102
RTVSPropertyOp18
 70
     1
102
RTVSPropertyOp19
 70
     1
102
RTVSPropertyOp20
 70
     1
102
RTVSPropertyOp21
 70
     1
102
RTVSPropertyOp22
 70
     1
102
RTVSPropertyOp23
 70
     1
102
RTVSPropertyOp24
 70
     1
102
RTVSPropertyOp25
 70
     1
102
RTVSPropertyOp26
 70
     1
102
RTVSPropertyOp27
 70
     1
102
RTVSPropertyOp28
 70
     1
102
RTVSPropertyOp29
 70
     1
102
RTVSPropertyOp30
 70
     1
102
RTVSPropertyOp31
 70
     1
102
RTVSPropertyOp32
 70
     1
102
RTVSPropertyOp33
 70
     1
102
RTVSPropertyOp34
 70
     1
102
RTVSPropertyOp35
 70
     1
102
RTVSPropertyOp36
 70
     1
102
RTVSPropertyOp37
 70
     1
102
RTVSPropertyOp38
 70
     1
102
RTVSPropertyOp39
 70
     1
102
RTVSPropertyOp40
 70
     1
102
RTVSPropertyOp41
 70
     1
102
RTVSPropertyOp42
 70
     1
102
RTVSPropertyOp43
 70
     1
102
RTVSPropertyOp44
 70
     1
102
RTVSPropertyOp45
 70
     1
102
RTVSPropertyOp46
 70
     1
102
RTVSPropertyOp47
 70
     1
102
RTVSPropertyOp48
 70
     1
102
RTVSPropertyOp49
 70
     1
102
RTVSPropertyOp50
 70
     1
102
RTVSPropertyOp51
 70
     0
102
RTVSPropertyOp52
 70
     0
102
RTVSPropertyOp53
 70
     1
102
RTVSPropertyOp54
 70
     1
102
RTVSPropertyOp55
 70
     1
102
RTVSPropertyOp56
 70
     1
102
RTVSPropertyOp57
 70
     1
102
RTVSPropertyOp58
 70
     1
102
RTVSPropertyOp59
 70
     1
102
RTVSPropertyOp60
 70
     1
102
RTVSPropertyOp61
 70
     1
102
RTVSPropertyOp62
 70
     1
  0
XRECORD
  5
15F
102
{ACAD_REACTORS
330
15E
102
}
330
15E
100
AcDbXrecord
280
     1
102
RTVSPost2010Prop28
280
     0
102
RTVSPost2010PropOp28
 70
     1
102
RTVSPost2010Prop29
280
     1
102
RTVSPost2010PropOp29
 70
     1
102
RTVSPost2010Prop30
280
     1
102
RTVSPost2010PropOp30
 70
     1
102
RTVSPost2010Prop31
280
     0
102
RTVSPost2010PropOp31
 70
     1
102
RTVSPost2010Prop32
280
     0
102
RTVSPost2010PropOp32
 70
     1
102
RTVSPost2010Prop33
280
     0
102
RTVSPost2010PropOp33
 70
     1
102
RTVSPost2010Prop34
280
     0
102
RTVSPost2010PropOp34
 70
     1
102
RTVSPost2010Prop35
280
     0
102
RTVSPost2010PropOp35
 70
     1
102
RTVSPost2010Prop36
280
     0
102
RTVSPost2010PropOp36
 70
     1
102
RTVSPost2010Prop37
 90
       50
102
RTVSPost2010PropOp37
 70
     1
102
RTVSPost2010Prop38
140
0.0
102
RTVSPost2010PropOp38
 70
     1
102
RTVSPost2010Prop39
140
1.0
102
RTVSPost2010PropOp39
 70
     1
102
RTVSPost2010Prop40
 90
        0
102
RTVSPost2010PropOp40
 70
     1
102
RTVSPost2010Prop41ColorIndex
 90
       18
102
RTVSPost2010Prop41ColorRGB
 90
        0
102
RTVSPost2010PropOp41
 70
     1
102
RTVSPost2010Prop42
 90
       50
102
RTVSPost2010PropOp42
 70
     1
102
RTVSPost2010Prop43
 90
        3
102
RTVSPost2010PropOp43
 70
     1
102
RTVSPost2010Prop44ColorIndex
 90
        5
102
RTVSPost2010Prop44ColorRGB
 90
      255
102
RTVSPost2010PropOp44
 70
     1
102
RTVSPost2010Prop45
280
     0
102
RTVSPost2010PropOp45
 70
     1
102
RTVSPost2010Prop46
 90
       50
102
RTVSPost2010PropOp46
 70
     1
102
RTVSPost2010Prop47
 90
       50
102
RTVSPost2010PropOp47
 70
     1
102
RTVSPost2010Prop48
 90
       50
102
RTVSPost2010PropOp48
 70
     1
102
RTVSPost2010Prop49
280
     0
102
RTVSPost2010PropOp49
 70
     1
102
RTVSPost2010Prop50
 90
       50
102
RTVSPost2010PropOp50
 70
     1
102
RTVSPost2010Prop51ColorIndex
 90
      256
102
RTVSPost2010Prop51ColorRGB
 90
-16777216
102
RTVSPost2010PropOp51
 70
     0
102
RTVSPost2010Prop52
140
1.0
102
RTVSPost2010PropOp52
 70
     0
102
RTVSPost2010Prop53
 90
        2
102
RTVSPost2010PropOp53
 70
     1
102
RTVSPost2010Prop54
  1
strokes_ogs.tif
102
RTVSPost2010PropOp54
 70
     1
102
RTVSPost2010Prop55
280
     0
102
RTVSPost2010PropOp55
 70
     1
102
RTVSPost2010Prop56
140
1.0
102
RTVSPost2010PropOp56
 70
     1
102
RTVSPost2010Prop57
140
1.0
102
RTVSPost2010PropOp57
 70
     1
102
RTVSPropertyOp0
 70
     1
102
RTVSPropertyOp1
 70
     1
102
RTVSPropertyOp2
 70
     1
102
RTVSPropertyOp3
 70
     1
102
RTVSPropertyOp4
 70
     1
102
RTVSPropertyOp5
 70
     1
102
RTVSPropertyOp6
 70
     1
102
RTVSPropertyOp7
 70
     1
102
RTVSPropertyOp8
 70
     1
102
RTVSPropertyOp9
 70
     1
102
RTVSPropertyOp10
 70
     1
102
RTVSPropertyOp11
 70
     1
102
RTVSPropertyOp12
 70
     1
102
RTVSPropertyOp13
 70
     1
102
RTVSPropertyOp14
 70
     1
102
RTVSPropertyOp15
 70
     1
102
RTVSPropertyOp16
 70
     1
102
RTVSPropertyOp17
 70
     1
102
RTVSPropertyOp18
 70
     1
102
RTVSPropertyOp19
 70
     1
102
RTVSPropertyOp20
 70
     1
102
RTVSPropertyOp21
 70
     1
102
RTVSPropertyOp22
 70
     1
102
RTVSPropertyOp23
 70
     1
102
RTVSPropertyOp24
 70
     1
102
RTVSPropertyOp25
 70
     1
102
RTVSPropertyOp26
 70
     1
102
RTVSPropertyOp27
 70
     1
102
RTVSPropertyOp28
 70
     1
102
RTVSPropertyOp29
 70
     1
102
RTVSPropertyOp30
 70
     1
102
RTVSPropertyOp31
 70
     1
102
RTVSPropertyOp32
 70
     1
102
RTVSPropertyOp33
 70
     1
102
RTVSPropertyOp34
 70
     1
102
RTVSPropertyOp35
 70
     1
102
RTVSPropertyOp36
 70
     1
102
RTVSPropertyOp37
 70
     1
102
RTVSPropertyOp38
 70
     1
102
RTVSPropertyOp39
 70
     1
102
RTVSPropertyOp40
 70
     1
102
RTVSPropertyOp41
 70
     1
102
RTVSPropertyOp42
 70
     1
102
RTVSPropertyOp43
 70
     1
102
RTVSPropertyOp44
 70
     1
102
RTVSPropertyOp45
 70
     1
102
RTVSPropertyOp46
 70
     1
102
RTVSPropertyOp47
 70
     1
102
RTVSPropertyOp48
 70
     1
102
RTVSPropertyOp49
 70
     1
102
RTVSPropertyOp50
 70
     1
102
RTVSPropertyOp51
 70
     0
102
RTVSPropertyOp52
 70
     0
102
RTVSPropertyOp53
 70
     1
102
RTVSPropertyOp54
 70
     1
102
RTVSPropertyOp55
 70
     1
102
RTVSPropertyOp56
 70
     1
102
RTVSPropertyOp57
 70
     1
102
RTVSPropertyOp58
 70
     1
102
RTVSPropertyOp59
 70
     1
102
RTVSPropertyOp60
 70
     1
102
RTVSPropertyOp61
 70
     1
102
RTVSPropertyOp62
 70
     1
  0
XRECORD
  5
179
102
{ACAD_REACTORS
330
178
102
}
330
178
100
AcDbXrecord
280
     1
102
RTVSPost2010Prop28
280
     0
102
RTVSPost2010PropOp28
 70
     0
102
RTVSPost2010Prop29
280
     1
102
RTVSPost2010PropOp29
 70
     0
102
RTVSPost2010Prop30
280
     1
102
RTVSPost2010PropOp30
 70
     0
102
RTVSPost2010Prop31
280
     0
102
RTVSPost2010PropOp31
 70
     0
102
RTVSPost2010Prop32
280
     0
102
RTVSPost2010PropOp32
 70
     0
102
RTVSPost2010Prop33
280
     0
102
RTVSPost2010PropOp33
 70
     0
102
RTVSPost2010Prop34
280
     0
102
RTVSPost2010PropOp34
 70
     0
102
RTVSPost2010Prop35
280
     0
102
RTVSPost2010PropOp35
 70
     0
102
RTVSPost2010Prop36
280
     0
102
RTVSPost2010PropOp36
 70
     0
102
RTVSPost2010Prop37
 90
       50
102
RTVSPost2010PropOp37
 70
     0
102
RTVSPost2010Prop38
140
0.0
102
RTVSPost2010PropOp38
 70
     0
102
RTVSPost2010Prop39
140
1.0
102
RTVSPost2010PropOp39
 70
     0
102
RTVSPost2010Prop40
 90
        0
102
RTVSPost2010PropOp40
 70
     0
102
RTVSPost2010Prop41ColorIndex
 90
       18
102
RTVSPost2010Prop41ColorRGB
 90
        0
102
RTVSPost2010PropOp41
 70
     0
102
RTVSPost2010Prop42
 90
       50
102
RTVSPost2010PropOp42
 70
     0
102
RTVSPost2010Prop43
 90
        3
102
RTVSPost2010PropOp43
 70
     0
102
RTVSPost2010Prop44ColorIndex
 90
        5
102
RTVSPost2010Prop44ColorRGB
 90
      255
102
RTVSPost2010PropOp44
 70
     0
102
RTVSPost2010Prop45
280
     0
102
RTVSPost2010PropOp45
 70
     0
102
RTVSPost2010Prop46
 90
       50
102
RTVSPost2010PropOp46
 70
     0
102
RTVSPost2010Prop47
 90
       50
102
RTVSPost2010PropOp47
 70
     0
102
RTVSPost2010Prop48
 90
       50
102
RTVSPost2010PropOp48
 70
     0
102
RTVSPost2010Prop49
280
     0
102
RTVSPost2010PropOp49
 70
     0
102
RTVSPost2010Prop50
 90
       50
102
RTVSPost2010PropOp50
 70
     0
102
RTVSPost2010Prop51ColorIndex
 90
      256
102
RTVSPost2010Prop51ColorRGB
 90
-16777216
102
RTVSPost2010PropOp51
 70
     0
102
RTVSPost2010Prop52
140
1.0
102
RTVSPost2010PropOp52
 70
     0
102
RTVSPost2010Prop53
 90
        2
102
RTVSPost2010PropOp53
 70
     0
102
RTVSPost2010Prop54
  1
strokes_ogs.tif
102
RTVSPost2010PropOp54
 70
     0
102
RTVSPost2010Prop55
280
     0
102
RTVSPost2010PropOp55
 70
     0
102
RTVSPost2010Prop56
140
1.0
102
RTVSPost2010PropOp56
 70
     0
102
RTVSPost2010Prop57
140
1.0
102
RTVSPost2010PropOp57
 70
     0
102
RTVSPropertyOp0
 70
     0
102
RTVSPropertyOp1
 70
     0
102
RTVSPropertyOp2
 70
     0
102
RTVSPropertyOp3
 70
     0
102
RTVSPropertyOp4
 70
     0
102
RTVSPropertyOp5
 70
     0
102
RTVSPropertyOp6
 70
     0
102
RTVSPropertyOp7
 70
     0
102
RTVSPropertyOp8
 70
     0
102
RTVSPropertyOp9
 70
     0
102
RTVSPropertyOp10
 70
     0
102
RTVSPropertyOp11
 70
     0
102
RTVSPropertyOp12
 70
     0
102
RTVSPropertyOp13
 70
     0
102
RTVSPropertyOp14
 70
     2
102
RTVSPropertyOp15
 70
     0
102
RTVSPropertyOp16
 70
     0
102
RTVSPropertyOp17
 70
     0
102
RTVSPropertyOp18
 70
     0
102
RTVSPropertyOp19
 70
     0
102
RTVSPropertyOp20
 70
     0
102
RTVSPropertyOp21
 70
     0
102
RTVSPropertyOp22
 70
     0
102
RTVSPropertyOp23
 70
     0
102
RTVSPropertyOp24
 70
     0
102
RTVSPropertyOp25
 70
     0
102
RTVSPropertyOp26
 70
     0
102
RTVSPropertyOp27
 70
     0
102
RTVSPropertyOp28
 70
     0
102
RTVSPropertyOp29
 70
     0
102
RTVSPropertyOp30
 70
     0
102
RTVSPropertyOp31
 70
     0
102
RTVSPropertyOp32
 70
     0
102
RTVSPropertyOp33
 70
     0
102
RTVSPropertyOp34
 70
     0
102
RTVSPropertyOp35
 70
     0
102
RTVSPropertyOp36
 70
     0
102
RTVSPropertyOp37
 70
     0
102
RTVSPropertyOp38
 70
     0
102
RTVSPropertyOp39
 70
     0
102
RTVSPropertyOp40
 70
     0
102
RTVSPropertyOp41
 70
     0
102
RTVSPropertyOp42
 70
     0
102
RTVSPropertyOp43
 70
     0
102
RTVSPropertyOp44
 70
     0
102
RTVSPropertyOp45
 70
     0
102
RTVSPropertyOp46
 70
     0
102
RTVSPropertyOp47
 70
     0
102
RTVSPropertyOp48
 70
     0
102
RTVSPropertyOp49
 70
     0
102
RTVSPropertyOp50
 70
     0
102
RTVSPropertyOp51
 70
     0
102
RTVSPropertyOp52
 70
     0
102
RTVSPropertyOp53
 70
     0
102
RTVSPropertyOp54
 70
     0
102
RTVSPropertyOp55
 70
     0
102
RTVSPropertyOp56
 70
     0
102
RTVSPropertyOp57
 70
     0
102
RTVSPropertyOp58
 70
     1
102
RTVSPropertyOp59
 70
     1
102
RTVSPropertyOp60
 70
     1
102
RTVSPropertyOp61
 70
     1
102
RTVSPropertyOp62
 70
     1
  0
XRECORD
  5
167
102
{ACAD_REACTORS
330
166
102
}
330
166
100
AcDbXrecord
280
     1
102
RTVSPost2010Prop28
280
     0
102
RTVSPost2010PropOp28
 70
     1
102
RTVSPost2010Prop29
280
     1
102
RTVSPost2010PropOp29
 70
     1
102
RTVSPost2010Prop30
280
     1
102
RTVSPost2010PropOp30
 70
     1
102
RTVSPost2010Prop31
280
     0
102
RTVSPost2010PropOp31
 70
     1
102
RTVSPost2010Prop32
280
     0
102
RTVSPost2010PropOp32
 70
     1
102
RTVSPost2010Prop33
280
     0
102
RTVSPost2010PropOp33
 70
     1
102
RTVSPost2010Prop34
280
     0
102
RTVSPost2010PropOp34
 70
     1
102
RTVSPost2010Prop35
280
     0
102
RTVSPost2010PropOp35
 70
     1
102
RTVSPost2010Prop36
280
     0
102
RTVSPost2010PropOp36
 70
     1
102
RTVSPost2010Prop37
 90
       50
102
RTVSPost2010PropOp37
 70
     1
102
RTVSPost2010Prop38
140
0.0
102
RTVSPost2010PropOp38
 70
     1
102
RTVSPost2010Prop39
140
1.0
102
RTVSPost2010PropOp39
 70
     1
102
RTVSPost2010Prop40
 90
        0
102
RTVSPost2010PropOp40
 70
     1
102
RTVSPost2010Prop41ColorIndex
 90
       18
102
RTVSPost2010Prop41ColorRGB
 90
        0
102
RTVSPost2010PropOp41
 70
     1
102
RTVSPost2010Prop42
 90
       50
102
RTVSPost2010PropOp42
 70
     1
102
RTVSPost2010Prop43
 90
        3
102
RTVSPost2010PropOp43
 70
     1
102
RTVSPost2010Prop44ColorIndex
 90
        5
102
RTVSPost2010Prop44ColorRGB
 90
      255
102
RTVSPost2010PropOp44
 70
     1
102
RTVSPost2010Prop45
280
     0
102
RTVSPost2010PropOp45
 70
     1
102
RTVSPost2010Prop46
 90
       50
102
RTVSPost2010PropOp46
 70
     1
102
RTVSPost2010Prop47
 90
       50
102
RTVSPost2010PropOp47
 70
     1
102
RTVSPost2010Prop48
 90
       50
102
RTVSPost2010PropOp48
 70
     1
102
RTVSPost2010Prop49
280
     0
102
RTVSPost2010PropOp49
 70
     1
102
RTVSPost2010Prop50
 90
       50
102
RTVSPost2010PropOp50
 70
     1
102
RTVSPost2010Prop51ColorIndex
 90
      256
102
RTVSPost2010Prop51ColorRGB
 90
-16777216
102
RTVSPost2010PropOp51
 70
     0
102
RTVSPost2010Prop52
140
1.0
102
RTVSPost2010PropOp52
 70
     0
102
RTVSPost2010Prop53
 90
        2
102
RTVSPost2010PropOp53
 70
     1
102
RTVSPost2010Prop54
  1
strokes_ogs.tif
102
RTVSPost2010PropOp54
 70
     1
102
RTVSPost2010Prop55
280
     0
102
RTVSPost2010PropOp55
 70
     1
102
RTVSPost2010Prop56
140
1.0
102
RTVSPost2010PropOp56
 70
     1
102
RTVSPost2010Prop57
140
1.0
102
RTVSPost2010PropOp57
 70
     1
102
RTVSPropertyOp0
 70
     1
102
RTVSPropertyOp1
 70
     1
102
RTVSPropertyOp2
 70
     1
102
RTVSPropertyOp3
 70
     1
102
RTVSPropertyOp4
 70
     1
102
RTVSPropertyOp5
 70
     1
102
RTVSPropertyOp6
 70
     1
102
RTVSPropertyOp7
 70
     1
102
RTVSPropertyOp8
 70
     1
102
RTVSPropertyOp9
 70
     1
102
RTVSPropertyOp10
 70
     1
102
RTVSPropertyOp11
 70
     1
102
RTVSPropertyOp12
 70
     1
102
RTVSPropertyOp13
 70
     1
102
RTVSPropertyOp14
 70
     1
102
RTVSPropertyOp15
 70
     1
102
RTVSPropertyOp16
 70
     1
102
RTVSPropertyOp17
 70
     1
102
RTVSPropertyOp18
 70
     1
102
RTVSPropertyOp19
 70
     1
102
RTVSPropertyOp20
 70
     1
102
RTVSPropertyOp21
 70
     1
102
RTVSPropertyOp22
 70
     1
102
RTVSPropertyOp23
 70
     1
102
RTVSPropertyOp24
 70
     1
102
RTVSPropertyOp25
 70
     1
102
RTVSPropertyOp26
 70
     1
102
RTVSPropertyOp27
 70
     1
102
RTVSPropertyOp28
 70
     1
102
RTVSPropertyOp29
 70
     1
102
RTVSPropertyOp30
 70
     1
102
RTVSPropertyOp31
 70
     1
102
RTVSPropertyOp32
 70
     1
102
RTVSPropertyOp33
 70
     1
102
RTVSPropertyOp34
 70
     1
102
RTVSPropertyOp35
 70
     1
102
RTVSPropertyOp36
 70
     1
102
RTVSPropertyOp37
 70
     1
102
RTVSPropertyOp38
 70
     1
102
RTVSPropertyOp39
 70
     1
102
RTVSPropertyOp40
 70
     1
102
RTVSPropertyOp41
 70
     1
102
RTVSPropertyOp42
 70
     1
102
RTVSPropertyOp43
 70
     1
102
RTVSPropertyOp44
 70
     1
102
RTVSPropertyOp45
 70
     1
102
RTVSPropertyOp46
 70
     1
102
RTVSPropertyOp47
 70
     1
102
RTVSPropertyOp48
 70
     1
102
RTVSPropertyOp49
 70
     1
102
RTVSPropertyOp50
 70
     1
102
RTVSPropertyOp51
 70
     0
102
RTVSPropertyOp52
 70
     0
102
RTVSPropertyOp53
 70
     1
102
RTVSPropertyOp54
 70
     1
102
RTVSPropertyOp55
 70
     1
102
RTVSPropertyOp56
 70
     1
102
RTVSPropertyOp57
 70
     1
102
RTVSPropertyOp58
 70
     1
102
RTVSPropertyOp59
 70
     1
102
RTVSPropertyOp60
 70
     1
102
RTVSPropertyOp61
 70
     1
102
RTVSPropertyOp62
 70
     1
  0
XRECORD
  5
14B
102
{ACAD_REACTORS
330
14A
102
}
330
14A
100
AcDbXrecord
280
     1
102
RTVSPost2010Prop28
280
     0
102
RTVSPost2010PropOp28
 70
     1
102
RTVSPost2010Prop29
280
     1
102
RTVSPost2010PropOp29
 70
     1
102
RTVSPost2010Prop30
280
     1
102
RTVSPost2010PropOp30
 70
     1
102
RTVSPost2010Prop31
280
     0
102
RTVSPost2010PropOp31
 70
     1
102
RTVSPost2010Prop32
280
     0
102
RTVSPost2010PropOp32
 70
     1
102
RTVSPost2010Prop33
280
     0
102
RTVSPost2010PropOp33
 70
     1
102
RTVSPost2010Prop34
280
     0
102
RTVSPost2010PropOp34
 70
     1
102
RTVSPost2010Prop35
280
     0
102
RTVSPost2010PropOp35
 70
     1
102
RTVSPost2010Prop36
280
     0
102
RTVSPost2010PropOp36
 70
     1
102
RTVSPost2010Prop37
 90
       50
102
RTVSPost2010PropOp37
 70
     1
102
RTVSPost2010Prop38
140
0.0
102
RTVSPost2010PropOp38
 70
     1
102
RTVSPost2010Prop39
140
1.0
102
RTVSPost2010PropOp39
 70
     1
102
RTVSPost2010Prop40
 90
        0
102
RTVSPost2010PropOp40
 70
     1
102
RTVSPost2010Prop41ColorIndex
 90
       18
102
RTVSPost2010Prop41ColorRGB
 90
        0
102
RTVSPost2010PropOp41
 70
     1
102
RTVSPost2010Prop42
 90
       50
102
RTVSPost2010PropOp42
 70
     1
102
RTVSPost2010Prop43
 90
        3
102
RTVSPost2010PropOp43
 70
     1
102
RTVSPost2010Prop44ColorIndex
 90
        5
102
RTVSPost2010Prop44ColorRGB
 90
      255
102
RTVSPost2010PropOp44
 70
     1
102
RTVSPost2010Prop45
280
     0
102
RTVSPost2010PropOp45
 70
     1
102
RTVSPost2010Prop46
 90
       50
102
RTVSPost2010PropOp46
 70
     1
102
RTVSPost2010Prop47
 90
       50
102
RTVSPost2010PropOp47
 70
     1
102
RTVSPost2010Prop48
 90
       50
102
RTVSPost2010PropOp48
 70
     1
102
RTVSPost2010Prop49
280
     0
102
RTVSPost2010PropOp49
 70
     1
102
RTVSPost2010Prop50
 90
       50
102
RTVSPost2010PropOp50
 70
     1
102
RTVSPost2010Prop51ColorIndex
 90
      256
102
RTVSPost2010Prop51ColorRGB
 90
-16777216
102
RTVSPost2010PropOp51
 70
     0
102
RTVSPost2010Prop52
140
1.0
102
RTVSPost2010PropOp52
 70
     0
102
RTVSPost2010Prop53
 90
        2
102
RTVSPost2010PropOp53
 70
     1
102
RTVSPost2010Prop54
  1
strokes_ogs.tif
102
RTVSPost2010PropOp54
 70
     1
102
RTVSPost2010Prop55
280
     0
102
RTVSPost2010PropOp55
 70
     1
102
RTVSPost2010Prop56
140
1.0
102
RTVSPost2010PropOp56
 70
     1
102
RTVSPost2010Prop57
140
1.0
102
RTVSPost2010PropOp57
 70
     1
102
RTVSPropertyOp0
 70
     1
102
RTVSPropertyOp1
 70
     1
102
RTVSPropertyOp2
 70
     1
102
RTVSPropertyOp3
 70
     1
102
RTVSPropertyOp4
 70
     1
102
RTVSPropertyOp5
 70
     1
102
RTVSPropertyOp6
 70
     1
102
RTVSPropertyOp7
 70
     1
102
RTVSPropertyOp8
 70
     1
102
RTVSPropertyOp9
 70
     1
102
RTVSPropertyOp10
 70
     1
102
RTVSPropertyOp11
 70
     1
102
RTVSPropertyOp12
 70
     1
102
RTVSPropertyOp13
 70
     1
102
RTVSPropertyOp14
 70
     1
102
RTVSPropertyOp15
 70
     1
102
RTVSPropertyOp16
 70
     1
102
RTVSPropertyOp17
 70
     1
102
RTVSPropertyOp18
 70
     1
102
RTVSPropertyOp19
 70
     1
102
RTVSPropertyOp20
 70
     1
102
RTVSPropertyOp21
 70
     1
102
RTVSPropertyOp22
 70
     1
102
RTVSPropertyOp23
 70
     1
102
RTVSPropertyOp24
 70
     1
102
RTVSPropertyOp25
 70
     1
102
RTVSPropertyOp26
 70
     1
102
RTVSPropertyOp27
 70
     1
102
RTVSPropertyOp28
 70
     1
102
RTVSPropertyOp29
 70
     1
102
RTVSPropertyOp30
 70
     1
102
RTVSPropertyOp31
 70
     1
102
RTVSPropertyOp32
 70
     1
102
RTVSPropertyOp33
 70
     1
102
RTVSPropertyOp34
 70
     1
102
RTVSPropertyOp35
 70
     1
102
RTVSPropertyOp36
 70
     1
102
RTVSPropertyOp37
 70
     1
102
RTVSPropertyOp38
 70
     1
102
RTVSPropertyOp39
 70
     1
102
RTVSPropertyOp40
 70
     1
102
RTVSPropertyOp41
 70
     1
102
RTVSPropertyOp42
 70
     1
102
RTVSPropertyOp43
 70
     1
102
RTVSPropertyOp44
 70
     1
102
RTVSPropertyOp45
 70
     1
102
RTVSPropertyOp46
 70
     1
102
RTVSPropertyOp47
 70
     1
102
RTVSPropertyOp48
 70
     1
102
RTVSPropertyOp49
 70
     1
102
RTVSPropertyOp50
 70
     1
102
RTVSPropertyOp51
 70
     0
102
RTVSPropertyOp52
 70
     0
102
RTVSPropertyOp53
 70
     1
102
RTVSPropertyOp54
 70
     1
102
RTVSPropertyOp55
 70
     1
102
RTVSPropertyOp56
 70
     1
102
RTVSPropertyOp57
 70
     1
102
RTVSPropertyOp58
 70
     1
102
RTVSPropertyOp59
 70
     1
102
RTVSPropertyOp60
 70
     1
102
RTVSPropertyOp61
 70
     1
102
RTVSPropertyOp62
 70
     1
  0
XRECORD
  5
14D
102
{ACAD_REACTORS
330
14C
102
}
330
14C
100
AcDbXrecord
280
     1
102
RTVSPost2010Prop28
280
     0
102
RTVSPost2010PropOp28
 70
     1
102
RTVSPost2010Prop29
280
     1
102
RTVSPost2010PropOp29
 70
     1
102
RTVSPost2010Prop30
280
     1
102
RTVSPost2010PropOp30
 70
     1
102
RTVSPost2010Prop31
280
     0
102
RTVSPost2010PropOp31
 70
     1
102
RTVSPost2010Prop32
280
     0
102
RTVSPost2010PropOp32
 70
     1
102
RTVSPost2010Prop33
280
     0
102
RTVSPost2010PropOp33
 70
     1
102
RTVSPost2010Prop34
280
     0
102
RTVSPost2010PropOp34
 70
     1
102
RTVSPost2010Prop35
280
     0
102
RTVSPost2010PropOp35
 70
     1
102
RTVSPost2010Prop36
280
     0
102
RTVSPost2010PropOp36
 70
     1
102
RTVSPost2010Prop37
 90
       50
102
RTVSPost2010PropOp37
 70
     1
102
RTVSPost2010Prop38
140
0.0
102
RTVSPost2010PropOp38
 70
     1
102
RTVSPost2010Prop39
140
1.0
102
RTVSPost2010PropOp39
 70
     1
102
RTVSPost2010Prop40
 90
        0
102
RTVSPost2010PropOp40
 70
     1
102
RTVSPost2010Prop41ColorIndex
 90
       18
102
RTVSPost2010Prop41ColorRGB
 90
        0
102
RTVSPost2010PropOp41
 70
     1
102
RTVSPost2010Prop42
 90
       50
102
RTVSPost2010PropOp42
 70
     1
102
RTVSPost2010Prop43
 90
        3
102
RTVSPost2010PropOp43
 70
     1
102
RTVSPost2010Prop44ColorIndex
 90
        5
102
RTVSPost2010Prop44ColorRGB
 90
      255
102
RTVSPost2010PropOp44
 70
     1
102
RTVSPost2010Prop45
280
     0
102
RTVSPost2010PropOp45
 70
     1
102
RTVSPost2010Prop46
 90
       50
102
RTVSPost2010PropOp46
 70
     1
102
RTVSPost2010Prop47
 90
       50
102
RTVSPost2010PropOp47
 70
     1
102
RTVSPost2010Prop48
 90
       50
102
RTVSPost2010PropOp48
 70
     1
102
RTVSPost2010Prop49
280
     0
102
RTVSPost2010PropOp49
 70
     1
102
RTVSPost2010Prop50
 90
       50
102
RTVSPost2010PropOp50
 70
     1
102
RTVSPost2010Prop51ColorIndex
 90
      256
102
RTVSPost2010Prop51ColorRGB
 90
-16777216
102
RTVSPost2010PropOp51
 70
     0
102
RTVSPost2010Prop52
140
1.0
102
RTVSPost2010PropOp52
 70
     0
102
RTVSPost2010Prop53
 90
        2
102
RTVSPost2010PropOp53
 70
     1
102
RTVSPost2010Prop54
  1
strokes_ogs.tif
102
RTVSPost2010PropOp54
 70
     1
102
RTVSPost2010Prop55
280
     0
102
RTVSPost2010PropOp55
 70
     1
102
RTVSPost2010Prop56
140
1.0
102
RTVSPost2010PropOp56
 70
     1
102
RTVSPost2010Prop57
140
1.0
102
RTVSPost2010PropOp57
 70
     1
102
RTVSPropertyOp0
 70
     1
102
RTVSPropertyOp1
 70
     1
102
RTVSPropertyOp2
 70
     1
102
RTVSPropertyOp3
 70
     1
102
RTVSPropertyOp4
 70
     1
102
RTVSPropertyOp5
 70
     1
102
RTVSPropertyOp6
 70
     1
102
RTVSPropertyOp7
 70
     1
102
RTVSPropertyOp8
 70
     1
102
RTVSPropertyOp9
 70
     1
102
RTVSPropertyOp10
 70
     1
102
RTVSPropertyOp11
 70
     1
102
RTVSPropertyOp12
 70
     1
102
RTVSPropertyOp13
 70
     1
102
RTVSPropertyOp14
 70
     1
102
RTVSPropertyOp15
 70
     1
102
RTVSPropertyOp16
 70
     1
102
RTVSPropertyOp17
 70
     1
102
RTVSPropertyOp18
 70
     1
102
RTVSPropertyOp19
 70
     1
102
RTVSPropertyOp20
 70
     1
102
RTVSPropertyOp21
 70
     1
102
RTVSPropertyOp22
 70
     1
102
RTVSPropertyOp23
 70
     1
102
RTVSPropertyOp24
 70
     1
102
RTVSPropertyOp25
 70
     1
102
RTVSPropertyOp26
 70
     1
102
RTVSPropertyOp27
 70
     1
102
RTVSPropertyOp28
 70
     1
102
RTVSPropertyOp29
 70
     1
102
RTVSPropertyOp30
 70
     1
102
RTVSPropertyOp31
 70
     1
102
RTVSPropertyOp32
 70
     1
102
RTVSPropertyOp33
 70
     1
102
RTVSPropertyOp34
 70
     1
102
RTVSPropertyOp35
 70
     1
102
RTVSPropertyOp36
 70
     1
102
RTVSPropertyOp37
 70
     1
102
RTVSPropertyOp38
 70
     1
102
RTVSPropertyOp39
 70
     1
102
RTVSPropertyOp40
 70
     1
102
RTVSPropertyOp41
 70
     1
102
RTVSPropertyOp42
 70
     1
102
RTVSPropertyOp43
 70
     1
102
RTVSPropertyOp44
 70
     1
102
RTVSPropertyOp45
 70
     1
102
RTVSPropertyOp46
 70
     1
102
RTVSPropertyOp47
 70
     1
102
RTVSPropertyOp48
 70
     1
102
RTVSPropertyOp49
 70
     1
102
RTVSPropertyOp50
 70
     1
102
RTVSPropertyOp51
 70
     0
102
RTVSPropertyOp52
 70
     0
102
RTVSPropertyOp53
 70
     1
102
RTVSPropertyOp54
 70
     1
102
RTVSPropertyOp55
 70
     1
102
RTVSPropertyOp56
 70
     1
102
RTVSPropertyOp57
 70
     1
102
RTVSPropertyOp58
 70
     1
102
RTVSPropertyOp59
 70
     1
102
RTVSPropertyOp60
 70
     1
102
RTVSPropertyOp61
 70
     1
102
RTVSPropertyOp62
 70
     1
  0
XRECORD
  5
14F
102
{ACAD_REACTORS
330
14E
102
}
330
14E
100
AcDbXrecord
280
     1
102
RTVSPost2010Prop28
280
     0
102
RTVSPost2010PropOp28
 70
     1
102
RTVSPost2010Prop29
280
     1
102
RTVSPost2010PropOp29
 70
     1
102
RTVSPost2010Prop30
280
     1
102
RTVSPost2010PropOp30
 70
     1
102
RTVSPost2010Prop31
280
     0
102
RTVSPost2010PropOp31
 70
     1
102
RTVSPost2010Prop32
280
     0
102
RTVSPost2010PropOp32
 70
     1
102
RTVSPost2010Prop33
280
     0
102
RTVSPost2010PropOp33
 70
     1
102
RTVSPost2010Prop34
280
     0
102
RTVSPost2010PropOp34
 70
     1
102
RTVSPost2010Prop35
280
     0
102
RTVSPost2010PropOp35
 70
     1
102
RTVSPost2010Prop36
280
     0
102
RTVSPost2010PropOp36
 70
     1
102
RTVSPost2010Prop37
 90
       50
102
RTVSPost2010PropOp37
 70
     1
102
RTVSPost2010Prop38
140
0.0
102
RTVSPost2010PropOp38
 70
     1
102
RTVSPost2010Prop39
140
1.0
102
RTVSPost2010PropOp39
 70
     1
102
RTVSPost2010Prop40
 90
        0
102
RTVSPost2010PropOp40
 70
     1
102
RTVSPost2010Prop41ColorIndex
 90
       18
102
RTVSPost2010Prop41ColorRGB
 90
        0
102
RTVSPost2010PropOp41
 70
     1
102
RTVSPost2010Prop42
 90
       50
102
RTVSPost2010PropOp42
 70
     1
102
RTVSPost2010Prop43
 90
        3
102
RTVSPost2010PropOp43
 70
     1
102
RTVSPost2010Prop44ColorIndex
 90
        5
102
RTVSPost2010Prop44ColorRGB
 90
      255
102
RTVSPost2010PropOp44
 70
     1
102
RTVSPost2010Prop45
280
     0
102
RTVSPost2010PropOp45
 70
     1
102
RTVSPost2010Prop46
 90
       50
102
RTVSPost2010PropOp46
 70
     1
102
RTVSPost2010Prop47
 90
       50
102
RTVSPost2010PropOp47
 70
     1
102
RTVSPost2010Prop48
 90
       50
102
RTVSPost2010PropOp48
 70
     1
102
RTVSPost2010Prop49
280
     0
102
RTVSPost2010PropOp49
 70
     1
102
RTVSPost2010Prop50
 90
       50
102
RTVSPost2010PropOp50
 70
     1
102
RTVSPost2010Prop51ColorIndex
 90
      256
102
RTVSPost2010Prop51ColorRGB
 90
-16777216
102
RTVSPost2010PropOp51
 70
     0
102
RTVSPost2010Prop52
140
1.0
102
RTVSPost2010PropOp52
 70
     0
102
RTVSPost2010Prop53
 90
        2
102
RTVSPost2010PropOp53
 70
     1
102
RTVSPost2010Prop54
  1
strokes_ogs.tif
102
RTVSPost2010PropOp54
 70
     1
102
RTVSPost2010Prop55
280
     0
102
RTVSPost2010PropOp55
 70
     1
102
RTVSPost2010Prop56
140
1.0
102
RTVSPost2010PropOp56
 70
     1
102
RTVSPost2010Prop57
140
1.0
102
RTVSPost2010PropOp57
 70
     1
102
RTVSPropertyOp0
 70
     1
102
RTVSPropertyOp1
 70
     1
102
RTVSPropertyOp2
 70
     1
102
RTVSPropertyOp3
 70
     1
102
RTVSPropertyOp4
 70
     1
102
RTVSPropertyOp5
 70
     1
102
RTVSPropertyOp6
 70
     1
102
RTVSPropertyOp7
 70
     1
102
RTVSPropertyOp8
 70
     1
102
RTVSPropertyOp9
 70
     1
102
RTVSPropertyOp10
 70
     1
102
RTVSPropertyOp11
 70
     1
102
RTVSPropertyOp12
 70
     1
102
RTVSPropertyOp13
 70
     1
102
RTVSPropertyOp14
 70
     1
102
RTVSPropertyOp15
 70
     1
102
RTVSPropertyOp16
 70
     1
102
RTVSPropertyOp17
 70
     1
102
RTVSPropertyOp18
 70
     1
102
RTVSPropertyOp19
 70
     1
102
RTVSPropertyOp20
 70
     1
102
RTVSPropertyOp21
 70
     1
102
RTVSPropertyOp22
 70
     1
102
RTVSPropertyOp23
 70
     1
102
RTVSPropertyOp24
 70
     1
102
RTVSPropertyOp25
 70
     1
102
RTVSPropertyOp26
 70
     1
102
RTVSPropertyOp27
 70
     1
102
RTVSPropertyOp28
 70
     1
102
RTVSPropertyOp29
 70
     1
102
RTVSPropertyOp30
 70
     1
102
RTVSPropertyOp31
 70
     1
102
RTVSPropertyOp32
 70
     1
102
RTVSPropertyOp33
 70
     1
102
RTVSPropertyOp34
 70
     1
102
RTVSPropertyOp35
 70
     1
102
RTVSPropertyOp36
 70
     1
102
RTVSPropertyOp37
 70
     1
102
RTVSPropertyOp38
 70
     1
102
RTVSPropertyOp39
 70
     1
102
RTVSPropertyOp40
 70
     1
102
RTVSPropertyOp41
 70
     1
102
RTVSPropertyOp42
 70
     1
102
RTVSPropertyOp43
 70
     1
102
RTVSPropertyOp44
 70
     1
102
RTVSPropertyOp45
 70
     1
102
RTVSPropertyOp46
 70
     1
102
RTVSPropertyOp47
 70
     1
102
RTVSPropertyOp48
 70
     1
102
RTVSPropertyOp49
 70
     1
102
RTVSPropertyOp50
 70
     1
102
RTVSPropertyOp51
 70
     0
102
RTVSPropertyOp52
 70
     0
102
RTVSPropertyOp53
 70
     1
102
RTVSPropertyOp54
 70
     1
102
RTVSPropertyOp55
 70
     1
102
RTVSPropertyOp56
 70
     1
102
RTVSPropertyOp57
 70
     1
102
RTVSPropertyOp58
 70
     1
102
RTVSPropertyOp59
 70
     1
102
RTVSPropertyOp60
 70
     1
102
RTVSPropertyOp61
 70
     1
102
RTVSPropertyOp62
 70
     1
  0
XRECORD
  5
151
102
{ACAD_REACTORS
330
150
102
}
330
150
100
AcDbXrecord
280
     1
102
RTVSPost2010Prop28
280
     0
102
RTVSPost2010PropOp28
 70
     1
102
RTVSPost2010Prop29
280
     1
102
RTVSPost2010PropOp29
 70
     1
102
RTVSPost2010Prop30
280
     1
102
RTVSPost2010PropOp30
 70
     1
102
RTVSPost2010Prop31
280
     0
102
RTVSPost2010PropOp31
 70
     1
102
RTVSPost2010Prop32
280
     0
102
RTVSPost2010PropOp32
 70
     1
102
RTVSPost2010Prop33
280
     0
102
RTVSPost2010PropOp33
 70
     1
102
RTVSPost2010Prop34
280
     0
102
RTVSPost2010PropOp34
 70
     1
102
RTVSPost2010Prop35
280
     0
102
RTVSPost2010PropOp35
 70
     1
102
RTVSPost2010Prop36
280
     0
102
RTVSPost2010PropOp36
 70
     1
102
RTVSPost2010Prop37
 90
       50
102
RTVSPost2010PropOp37
 70
     1
102
RTVSPost2010Prop38
140
0.0
102
RTVSPost2010PropOp38
 70
     1
102
RTVSPost2010Prop39
140
1.0
102
RTVSPost2010PropOp39
 70
     1
102
RTVSPost2010Prop40
 90
        0
102
RTVSPost2010PropOp40
 70
     1
102
RTVSPost2010Prop41ColorIndex
 90
       18
102
RTVSPost2010Prop41ColorRGB
 90
        0
102
RTVSPost2010PropOp41
 70
     1
102
RTVSPost2010Prop42
 90
       50
102
RTVSPost2010PropOp42
 70
     1
102
RTVSPost2010Prop43
 90
        3
102
RTVSPost2010PropOp43
 70
     1
102
RTVSPost2010Prop44ColorIndex
 90
        5
102
RTVSPost2010Prop44ColorRGB
 90
      255
102
RTVSPost2010PropOp44
 70
     1
102
RTVSPost2010Prop45
280
     0
102
RTVSPost2010PropOp45
 70
     1
102
RTVSPost2010Prop46
 90
       50
102
RTVSPost2010PropOp46
 70
     1
102
RTVSPost2010Prop47
 90
       50
102
RTVSPost2010PropOp47
 70
     1
102
RTVSPost2010Prop48
 90
       50
102
RTVSPost2010PropOp48
 70
     1
102
RTVSPost2010Prop49
280
     0
102
RTVSPost2010PropOp49
 70
     1
102
RTVSPost2010Prop50
 90
       50
102
RTVSPost2010PropOp50
 70
     1
102
RTVSPost2010Prop51ColorIndex
 90
      256
102
RTVSPost2010Prop51ColorRGB
 90
-16777216
102
RTVSPost2010PropOp51
 70
     0
102
RTVSPost2010Prop52
140
1.0
102
RTVSPost2010PropOp52
 70
     0
102
RTVSPost2010Prop53
 90
        2
102
RTVSPost2010PropOp53
 70
     1
102
RTVSPost2010Prop54
  1
strokes_ogs.tif
102
RTVSPost2010PropOp54
 70
     1
102
RTVSPost2010Prop55
280
     0
102
RTVSPost2010PropOp55
 70
     1
102
RTVSPost2010Prop56
140
1.0
102
RTVSPost2010PropOp56
 70
     1
102
RTVSPost2010Prop57
140
1.0
102
RTVSPost2010PropOp57
 70
     1
102
RTVSPropertyOp0
 70
     1
102
RTVSPropertyOp1
 70
     1
102
RTVSPropertyOp2
 70
     1
102
RTVSPropertyOp3
 70
     1
102
RTVSPropertyOp4
 70
     1
102
RTVSPropertyOp5
 70
     1
102
RTVSPropertyOp6
 70
     1
102
RTVSPropertyOp7
 70
     1
102
RTVSPropertyOp8
 70
     1
102
RTVSPropertyOp9
 70
     1
102
RTVSPropertyOp10
 70
     1
102
RTVSPropertyOp11
 70
     1
102
RTVSPropertyOp12
 70
     1
102
RTVSPropertyOp13
 70
     1
102
RTVSPropertyOp14
 70
     1
102
RTVSPropertyOp15
 70
     1
102
RTVSPropertyOp16
 70
     1
102
RTVSPropertyOp17
 70
     1
102
RTVSPropertyOp18
 70
     1
102
RTVSPropertyOp19
 70
     1
102
RTVSPropertyOp20
 70
     1
102
RTVSPropertyOp21
 70
     1
102
RTVSPropertyOp22
 70
     1
102
RTVSPropertyOp23
 70
     1
102
RTVSPropertyOp24
 70
     1
102
RTVSPropertyOp25
 70
     1
102
RTVSPropertyOp26
 70
     1
102
RTVSPropertyOp27
 70
     1
102
RTVSPropertyOp28
 70
     1
102
RTVSPropertyOp29
 70
     1
102
RTVSPropertyOp30
 70
     1
102
RTVSPropertyOp31
 70
     1
102
RTVSPropertyOp32
 70
     1
102
RTVSPropertyOp33
 70
     1
102
RTVSPropertyOp34
 70
     1
102
RTVSPropertyOp35
 70
     1
102
RTVSPropertyOp36
 70
     1
102
RTVSPropertyOp37
 70
     1
102
RTVSPropertyOp38
 70
     1
102
RTVSPropertyOp39
 70
     1
102
RTVSPropertyOp40
 70
     1
102
RTVSPropertyOp41
 70
     1
102
RTVSPropertyOp42
 70
     1
102
RTVSPropertyOp43
 70
     1
102
RTVSPropertyOp44
 70
     1
102
RTVSPropertyOp45
 70
     1
102
RTVSPropertyOp46
 70
     1
102
RTVSPropertyOp47
 70
     1
102
RTVSPropertyOp48
 70
     1
102
RTVSPropertyOp49
 70
     1
102
RTVSPropertyOp50
 70
     1
102
RTVSPropertyOp51
 70
     0
102
RTVSPropertyOp52
 70
     0
102
RTVSPropertyOp53
 70
     1
102
RTVSPropertyOp54
 70
     1
102
RTVSPropertyOp55
 70
     1
102
RTVSPropertyOp56
 70
     1
102
RTVSPropertyOp57
 70
     1
102
RTVSPropertyOp58
 70
     1
102
RTVSPropertyOp59
 70
     1
102
RTVSPropertyOp60
 70
     1
102
RTVSPropertyOp61
 70
     1
102
RTVSPropertyOp62
 70
     1
  0
XRECORD
  5
159
102
{ACAD_REACTORS
330
158
102
}
330
158
100
AcDbXrecord
280
     1
102
RTVSPost2010Prop28
280
     0
102
RTVSPost2010PropOp28
 70
     1
102
RTVSPost2010Prop29
280
     1
102
RTVSPost2010PropOp29
 70
     1
102
RTVSPost2010Prop30
280
     1
102
RTVSPost2010PropOp30
 70
     1
102
RTVSPost2010Prop31
280
     0
102
RTVSPost2010PropOp31
 70
     1
102
RTVSPost2010Prop32
280
     0
102
RTVSPost2010PropOp32
 70
     1
102
RTVSPost2010Prop33
280
     0
102
RTVSPost2010PropOp33
 70
     1
102
RTVSPost2010Prop34
280
     0
102
RTVSPost2010PropOp34
 70
     1
102
RTVSPost2010Prop35
280
     0
102
RTVSPost2010PropOp35
 70
     1
102
RTVSPost2010Prop36
280
     0
102
RTVSPost2010PropOp36
 70
     1
102
RTVSPost2010Prop37
 90
       50
102
RTVSPost2010PropOp37
 70
     1
102
RTVSPost2010Prop38
140
0.0
102
RTVSPost2010PropOp38
 70
     1
102
RTVSPost2010Prop39
140
1.0
102
RTVSPost2010PropOp39
 70
     1
102
RTVSPost2010Prop40
 90
        0
102
RTVSPost2010PropOp40
 70
     1
102
RTVSPost2010Prop41ColorIndex
 90
       18
102
RTVSPost2010Prop41ColorRGB
 90
        0
102
RTVSPost2010PropOp41
 70
     1
102
RTVSPost2010Prop42
 90
       50
102
RTVSPost2010PropOp42
 70
     1
102
RTVSPost2010Prop43
 90
        3
102
RTVSPost2010PropOp43
 70
     1
102
RTVSPost2010Prop44ColorIndex
 90
        5
102
RTVSPost2010Prop44ColorRGB
 90
      255
102
RTVSPost2010PropOp44
 70
     1
102
RTVSPost2010Prop45
280
     0
102
RTVSPost2010PropOp45
 70
     1
102
RTVSPost2010Prop46
 90
       50
102
RTVSPost2010PropOp46
 70
     1
102
RTVSPost2010Prop47
 90
       50
102
RTVSPost2010PropOp47
 70
     1
102
RTVSPost2010Prop48
 90
       50
102
RTVSPost2010PropOp48
 70
     1
102
RTVSPost2010Prop49
280
     0
102
RTVSPost2010PropOp49
 70
     1
102
RTVSPost2010Prop50
 90
       50
102
RTVSPost2010PropOp50
 70
     1
102
RTVSPost2010Prop51ColorIndex
 90
      256
102
RTVSPost2010Prop51ColorRGB
 90
-16777216
102
RTVSPost2010PropOp51
 70
     0
102
RTVSPost2010Prop52
140
1.0
102
RTVSPost2010PropOp52
 70
     0
102
RTVSPost2010Prop53
 90
        2
102
RTVSPost2010PropOp53
 70
     1
102
RTVSPost2010Prop54
  1
strokes_ogs.tif
102
RTVSPost2010PropOp54
 70
     1
102
RTVSPost2010Prop55
280
     0
102
RTVSPost2010PropOp55
 70
     1
102
RTVSPost2010Prop56
140
1.0
102
RTVSPost2010PropOp56
 70
     1
102
RTVSPost2010Prop57
140
1.0
102
RTVSPost2010PropOp57
 70
     1
102
RTVSPropertyOp0
 70
     1
102
RTVSPropertyOp1
 70
     1
102
RTVSPropertyOp2
 70
     1
102
RTVSPropertyOp3
 70
     1
102
RTVSPropertyOp4
 70
     1
102
RTVSPropertyOp5
 70
     1
102
RTVSPropertyOp6
 70
     1
102
RTVSPropertyOp7
 70
     1
102
RTVSPropertyOp8
 70
     1
102
RTVSPropertyOp9
 70
     1
102
RTVSPropertyOp10
 70
     1
102
RTVSPropertyOp11
 70
     1
102
RTVSPropertyOp12
 70
     1
102
RTVSPropertyOp13
 70
     1
102
RTVSPropertyOp14
 70
     1
102
RTVSPropertyOp15
 70
     1
102
RTVSPropertyOp16
 70
     1
102
RTVSPropertyOp17
 70
     1
102
RTVSPropertyOp18
 70
     1
102
RTVSPropertyOp19
 70
     1
102
RTVSPropertyOp20
 70
     1
102
RTVSPropertyOp21
 70
     1
102
RTVSPropertyOp22
 70
     1
102
RTVSPropertyOp23
 70
     1
102
RTVSPropertyOp24
 70
     1
102
RTVSPropertyOp25
 70
     1
102
RTVSPropertyOp26
 70
     1
102
RTVSPropertyOp27
 70
     1
102
RTVSPropertyOp28
 70
     1
102
RTVSPropertyOp29
 70
     1
102
RTVSPropertyOp30
 70
     1
102
RTVSPropertyOp31
 70
     1
102
RTVSPropertyOp32
 70
     1
102
RTVSPropertyOp33
 70
     1
102
RTVSPropertyOp34
 70
     1
102
RTVSPropertyOp35
 70
     1
102
RTVSPropertyOp36
 70
     1
102
RTVSPropertyOp37
 70
     1
102
RTVSPropertyOp38
 70
     1
102
RTVSPropertyOp39
 70
     1
102
RTVSPropertyOp40
 70
     1
102
RTVSPropertyOp41
 70
     1
102
RTVSPropertyOp42
 70
     1
102
RTVSPropertyOp43
 70
     1
102
RTVSPropertyOp44
 70
     1
102
RTVSPropertyOp45
 70
     1
102
RTVSPropertyOp46
 70
     1
102
RTVSPropertyOp47
 70
     1
102
RTVSPropertyOp48
 70
     1
102
RTVSPropertyOp49
 70
     1
102
RTVSPropertyOp50
 70
     1
102
RTVSPropertyOp51
 70
     0
102
RTVSPropertyOp52
 70
     0
102
RTVSPropertyOp53
 70
     1
102
RTVSPropertyOp54
 70
     1
102
RTVSPropertyOp55
 70
     1
102
RTVSPropertyOp56
 70
     1
102
RTVSPropertyOp57
 70
     1
102
RTVSPropertyOp58
 70
     1
102
RTVSPropertyOp59
 70
     1
102
RTVSPropertyOp60
 70
     1
102
RTVSPropertyOp61
 70
     1
102
RTVSPropertyOp62
 70
     1
  0
XRECORD
  5
175
102
{ACAD_REACTORS
330
174
102
}
330
174
100
AcDbXrecord
280
     1
102
RTVSPost2010Prop28
280
     0
102
RTVSPost2010PropOp28
 70
     0
102
RTVSPost2010Prop29
280
     1
102
RTVSPost2010PropOp29
 70
     0
102
RTVSPost2010Prop30
280
     1
102
RTVSPost2010PropOp30
 70
     0
102
RTVSPost2010Prop31
280
     0
102
RTVSPost2010PropOp31
 70
     0
102
RTVSPost2010Prop32
280
     0
102
RTVSPost2010PropOp32
 70
     0
102
RTVSPost2010Prop33
280
     0
102
RTVSPost2010PropOp33
 70
     0
102
RTVSPost2010Prop34
280
     0
102
RTVSPost2010PropOp34
 70
     0
102
RTVSPost2010Prop35
280
     0
102
RTVSPost2010PropOp35
 70
     0
102
RTVSPost2010Prop36
280
     0
102
RTVSPost2010PropOp36
 70
     0
102
RTVSPost2010Prop37
 90
       50
102
RTVSPost2010PropOp37
 70
     0
102
RTVSPost2010Prop38
140
0.0
102
RTVSPost2010PropOp38
 70
     0
102
RTVSPost2010Prop39
140
1.0
102
RTVSPost2010PropOp39
 70
     0
102
RTVSPost2010Prop40
 90
        0
102
RTVSPost2010PropOp40
 70
     0
102
RTVSPost2010Prop41ColorIndex
 90
       18
102
RTVSPost2010Prop41ColorRGB
 90
        0
102
RTVSPost2010PropOp41
 70
     0
102
RTVSPost2010Prop42
 90
       50
102
RTVSPost2010PropOp42
 70
     0
102
RTVSPost2010Prop43
 90
        3
102
RTVSPost2010PropOp43
 70
     0
102
RTVSPost2010Prop44ColorIndex
 90
        5
102
RTVSPost2010Prop44ColorRGB
 90
      255
102
RTVSPost2010PropOp44
 70
     0
102
RTVSPost2010Prop45
280
     0
102
RTVSPost2010PropOp45
 70
     0
102
RTVSPost2010Prop46
 90
       50
102
RTVSPost2010PropOp46
 70
     0
102
RTVSPost2010Prop47
 90
       50
102
RTVSPost2010PropOp47
 70
     0
102
RTVSPost2010Prop48
 90
       50
102
RTVSPost2010PropOp48
 70
     0
102
RTVSPost2010Prop49
280
     0
102
RTVSPost2010PropOp49
 70
     0
102
RTVSPost2010Prop50
 90
       50
102
RTVSPost2010PropOp50
 70
     0
102
RTVSPost2010Prop51ColorIndex
 90
      256
102
RTVSPost2010Prop51ColorRGB
 90
-16777216
102
RTVSPost2010PropOp51
 70
     0
102
RTVSPost2010Prop52
140
1.0
102
RTVSPost2010PropOp52
 70
     0
102
RTVSPost2010Prop53
 90
        2
102
RTVSPost2010PropOp53
 70
     0
102
RTVSPost2010Prop54
  1
strokes_ogs.tif
102
RTVSPost2010PropOp54
 70
     0
102
RTVSPost2010Prop55
280
     0
102
RTVSPost2010PropOp55
 70
     0
102
RTVSPost2010Prop56
140
1.0
102
RTVSPost2010PropOp56
 70
     0
102
RTVSPost2010Prop57
140
1.0
102
RTVSPost2010PropOp57
 70
     0
102
RTVSPropertyOp0
 70
     0
102
RTVSPropertyOp1
 70
     0
102
RTVSPropertyOp2
 70
     0
102
RTVSPropertyOp3
 70
     0
102
RTVSPropertyOp4
 70
     0
102
RTVSPropertyOp5
 70
     0
102
RTVSPropertyOp6
 70
     0
102
RTVSPropertyOp7
 70
     0
102
RTVSPropertyOp8
 70
     0
102
RTVSPropertyOp9
 70
     0
102
RTVSPropertyOp10
 70
     0
102
RTVSPropertyOp11
 70
     0
102
RTVSPropertyOp12
 70
     0
102
RTVSPropertyOp13
 70
     0
102
RTVSPropertyOp14
 70
     2
102
RTVSPropertyOp15
 70
     0
102
RTVSPropertyOp16
 70
     0
102
RTVSPropertyOp17
 70
     0
102
RTVSPropertyOp18
 70
     0
102
RTVSPropertyOp19
 70
     0
102
RTVSPropertyOp20
 70
     0
102
RTVSPropertyOp21
 70
     0
102
RTVSPropertyOp22
 70
     0
102
RTVSPropertyOp23
 70
     0
102
RTVSPropertyOp24
 70
     0
102
RTVSPropertyOp25
 70
     0
102
RTVSPropertyOp26
 70
     0
102
RTVSPropertyOp27
 70
     0
102
RTVSPropertyOp28
 70
     0
102
RTVSPropertyOp29
 70
     0
102
RTVSPropertyOp30
 70
     0
102
RTVSPropertyOp31
 70
     0
102
RTVSPropertyOp32
 70
     0
102
RTVSPropertyOp33
 70
     0
102
RTVSPropertyOp34
 70
     0
102
RTVSPropertyOp35
 70
     0
102
RTVSPropertyOp36
 70
     0
102
RTVSPropertyOp37
 70
     0
102
RTVSPropertyOp38
 70
     0
102
RTVSPropertyOp39
 70
     0
102
RTVSPropertyOp40
 70
     0
102
RTVSPropertyOp41
 70
     0
102
RTVSPropertyOp42
 70
     0
102
RTVSPropertyOp43
 70
     0
102
RTVSPropertyOp44
 70
     0
102
RTVSPropertyOp45
 70
     0
102
RTVSPropertyOp46
 70
     0
102
RTVSPropertyOp47
 70
     0
102
RTVSPropertyOp48
 70
     0
102
RTVSPropertyOp49
 70
     0
102
RTVSPropertyOp50
 70
     0
102
RTVSPropertyOp51
 70
     0
102
RTVSPropertyOp52
 70
     0
102
RTVSPropertyOp53
 70
     0
102
RTVSPropertyOp54
 70
     0
102
RTVSPropertyOp55
 70
     0
102
RTVSPropertyOp56
 70
     0
102
RTVSPropertyOp57
 70
     0
102
RTVSPropertyOp58
 70
     1
102
RTVSPropertyOp59
 70
     1
102
RTVSPropertyOp60
 70
     1
102
RTVSPropertyOp61
 70
     1
102
RTVSPropertyOp62
 70
     1
  0
XRECORD
  5
165
102
{ACAD_REACTORS
330
164
102
}
330
164
100
AcDbXrecord
280
     1
102
RTVSPost2010Prop28
280
     0
102
RTVSPost2010PropOp28
 70
     1
102
RTVSPost2010Prop29
280
     1
102
RTVSPost2010PropOp29
 70
     1
102
RTVSPost2010Prop30
280
     1
102
RTVSPost2010PropOp30
 70
     1
102
RTVSPost2010Prop31
280
     0
102
RTVSPost2010PropOp31
 70
     1
102
RTVSPost2010Prop32
280
     0
102
RTVSPost2010PropOp32
 70
     1
102
RTVSPost2010Prop33
280
     0
102
RTVSPost2010PropOp33
 70
     1
102
RTVSPost2010Prop34
280
     0
102
RTVSPost2010PropOp34
 70
     1
102
RTVSPost2010Prop35
280
     0
102
RTVSPost2010PropOp35
 70
     1
102
RTVSPost2010Prop36
280
     0
102
RTVSPost2010PropOp36
 70
     1
102
RTVSPost2010Prop37
 90
       50
102
RTVSPost2010PropOp37
 70
     1
102
RTVSPost2010Prop38
140
0.0
102
RTVSPost2010PropOp38
 70
     1
102
RTVSPost2010Prop39
140
1.0
102
RTVSPost2010PropOp39
 70
     1
102
RTVSPost2010Prop40
 90
        0
102
RTVSPost2010PropOp40
 70
     1
102
RTVSPost2010Prop41ColorIndex
 90
       18
102
RTVSPost2010Prop41ColorRGB
 90
        0
102
RTVSPost2010PropOp41
 70
     1
102
RTVSPost2010Prop42
 90
       50
102
RTVSPost2010PropOp42
 70
     1
102
RTVSPost2010Prop43
 90
        3
102
RTVSPost2010PropOp43
 70
     1
102
RTVSPost2010Prop44ColorIndex
 90
        5
102
RTVSPost2010Prop44ColorRGB
 90
      255
102
RTVSPost2010PropOp44
 70
     1
102
RTVSPost2010Prop45
280
     0
102
RTVSPost2010PropOp45
 70
     1
102
RTVSPost2010Prop46
 90
       50
102
RTVSPost2010PropOp46
 70
     1
102
RTVSPost2010Prop47
 90
       50
102
RTVSPost2010PropOp47
 70
     1
102
RTVSPost2010Prop48
 90
       50
102
RTVSPost2010PropOp48
 70
     1
102
RTVSPost2010Prop49
280
     0
102
RTVSPost2010PropOp49
 70
     1
102
RTVSPost2010Prop50
 90
       50
102
RTVSPost2010PropOp50
 70
     1
102
RTVSPost2010Prop51ColorIndex
 90
      256
102
RTVSPost2010Prop51ColorRGB
 90
-16777216
102
RTVSPost2010PropOp51
 70
     0
102
RTVSPost2010Prop52
140
1.0
102
RTVSPost2010PropOp52
 70
     0
102
RTVSPost2010Prop53
 90
        2
102
RTVSPost2010PropOp53
 70
     1
102
RTVSPost2010Prop54
  1
strokes_ogs.tif
102
RTVSPost2010PropOp54
 70
     1
102
RTVSPost2010Prop55
280
     0
102
RTVSPost2010PropOp55
 70
     1
102
RTVSPost2010Prop56
140
1.0
102
RTVSPost2010PropOp56
 70
     1
102
RTVSPost2010Prop57
140
1.0
102
RTVSPost2010PropOp57
 70
     1
102
RTVSPropertyOp0
 70
     1
102
RTVSPropertyOp1
 70
     1
102
RTVSPropertyOp2
 70
     1
102
RTVSPropertyOp3
 70
     1
102
RTVSPropertyOp4
 70
     1
102
RTVSPropertyOp5
 70
     1
102
RTVSPropertyOp6
 70
     1
102
RTVSPropertyOp7
 70
     1
102
RTVSPropertyOp8
 70
     1
102
RTVSPropertyOp9
 70
     1
102
RTVSPropertyOp10
 70
     1
102
RTVSPropertyOp11
 70
     1
102
RTVSPropertyOp12
 70
     1
102
RTVSPropertyOp13
 70
     1
102
RTVSPropertyOp14
 70
     1
102
RTVSPropertyOp15
 70
     1
102
RTVSPropertyOp16
 70
     1
102
RTVSPropertyOp17
 70
     1
102
RTVSPropertyOp18
 70
     1
102
RTVSPropertyOp19
 70
     1
102
RTVSPropertyOp20
 70
     1
102
RTVSPropertyOp21
 70
     1
102
RTVSPropertyOp22
 70
     1
102
RTVSPropertyOp23
 70
     1
102
RTVSPropertyOp24
 70
     1
102
RTVSPropertyOp25
 70
     1
102
RTVSPropertyOp26
 70
     1
102
RTVSPropertyOp27
 70
     1
102
RTVSPropertyOp28
 70
     1
102
RTVSPropertyOp29
 70
     1
102
RTVSPropertyOp30
 70
     1
102
RTVSPropertyOp31
 70
     1
102
RTVSPropertyOp32
 70
     1
102
RTVSPropertyOp33
 70
     1
102
RTVSPropertyOp34
 70
     1
102
RTVSPropertyOp35
 70
     1
102
RTVSPropertyOp36
 70
     1
102
RTVSPropertyOp37
 70
     1
102
RTVSPropertyOp38
 70
     1
102
RTVSPropertyOp39
 70
     1
102
RTVSPropertyOp40
 70
     1
102
RTVSPropertyOp41
 70
     1
102
RTVSPropertyOp42
 70
     1
102
RTVSPropertyOp43
 70
     1
102
RTVSPropertyOp44
 70
     1
102
RTVSPropertyOp45
 70
     1
102
RTVSPropertyOp46
 70
     1
102
RTVSPropertyOp47
 70
     1
102
RTVSPropertyOp48
 70
     1
102
RTVSPropertyOp49
 70
     1
102
RTVSPropertyOp50
 70
     1
102
RTVSPropertyOp51
 70
     0
102
RTVSPropertyOp52
 70
     0
102
RTVSPropertyOp53
 70
     1
102
RTVSPropertyOp54
 70
     1
102
RTVSPropertyOp55
 70
     1
102
RTVSPropertyOp56
 70
     1
102
RTVSPropertyOp57
 70
     1
102
RTVSPropertyOp58
 70
     1
102
RTVSPropertyOp59
 70
     1
102
RTVSPropertyOp60
 70
     1
102
RTVSPropertyOp61
 70
     1
102
RTVSPropertyOp62
 70
     1
  0
XRECORD
  5
177
102
{ACAD_REACTORS
330
176
102
}
330
176
100
AcDbXrecord
280
     1
102
RTVSPost2010Prop28
280
     0
102
RTVSPost2010PropOp28
 70
     0
102
RTVSPost2010Prop29
280
     1
102
RTVSPost2010PropOp29
 70
     0
102
RTVSPost2010Prop30
280
     1
102
RTVSPost2010PropOp30
 70
     0
102
RTVSPost2010Prop31
280
     0
102
RTVSPost2010PropOp31
 70
     0
102
RTVSPost2010Prop32
280
     0
102
RTVSPost2010PropOp32
 70
     0
102
RTVSPost2010Prop33
280
     0
102
RTVSPost2010PropOp33
 70
     0
102
RTVSPost2010Prop34
280
     0
102
RTVSPost2010PropOp34
 70
     0
102
RTVSPost2010Prop35
280
     0
102
RTVSPost2010PropOp35
 70
     0
102
RTVSPost2010Prop36
280
     0
102
RTVSPost2010PropOp36
 70
     0
102
RTVSPost2010Prop37
 90
       50
102
RTVSPost2010PropOp37
 70
     0
102
RTVSPost2010Prop38
140
0.0
102
RTVSPost2010PropOp38
 70
     0
102
RTVSPost2010Prop39
140
1.0
102
RTVSPost2010PropOp39
 70
     0
102
RTVSPost2010Prop40
 90
        0
102
RTVSPost2010PropOp40
 70
     0
102
RTVSPost2010Prop41ColorIndex
 90
       18
102
RTVSPost2010Prop41ColorRGB
 90
        0
102
RTVSPost2010PropOp41
 70
     0
102
RTVSPost2010Prop42
 90
       50
102
RTVSPost2010PropOp42
 70
     0
102
RTVSPost2010Prop43
 90
        3
102
RTVSPost2010PropOp43
 70
     0
102
RTVSPost2010Prop44ColorIndex
 90
        5
102
RTVSPost2010Prop44ColorRGB
 90
      255
102
RTVSPost2010PropOp44
 70
     0
102
RTVSPost2010Prop45
280
     0
102
RTVSPost2010PropOp45
 70
     0
102
RTVSPost2010Prop46
 90
       50
102
RTVSPost2010PropOp46
 70
     0
102
RTVSPost2010Prop47
 90
       50
102
RTVSPost2010PropOp47
 70
     0
102
RTVSPost2010Prop48
 90
       50
102
RTVSPost2010PropOp48
 70
     0
102
RTVSPost2010Prop49
280
     0
102
RTVSPost2010PropOp49
 70
     0
102
RTVSPost2010Prop50
 90
       50
102
RTVSPost2010PropOp50
 70
     0
102
RTVSPost2010Prop51ColorIndex
 90
      256
102
RTVSPost2010Prop51ColorRGB
 90
-16777216
102
RTVSPost2010PropOp51
 70
     0
102
RTVSPost2010Prop52
140
1.0
102
RTVSPost2010PropOp52
 70
     0
102
RTVSPost2010Prop53
 90
        2
102
RTVSPost2010PropOp53
 70
     0
102
RTVSPost2010Prop54
  1
strokes_ogs.tif
102
RTVSPost2010PropOp54
 70
     0
102
RTVSPost2010Prop55
280
     0
102
RTVSPost2010PropOp55
 70
     0
102
RTVSPost2010Prop56
140
1.0
102
RTVSPost2010PropOp56
 70
     0
102
RTVSPost2010Prop57
140
1.0
102
RTVSPost2010PropOp57
 70
     0
102
RTVSPropertyOp0
 70
     0
102
RTVSPropertyOp1
 70
     0
102
RTVSPropertyOp2
 70
     0
102
RTVSPropertyOp3
 70
     0
102
RTVSPropertyOp4
 70
     0
102
RTVSPropertyOp5
 70
     0
102
RTVSPropertyOp6
 70
     0
102
RTVSPropertyOp7
 70
     0
102
RTVSPropertyOp8
 70
     0
102
RTVSPropertyOp9
 70
     0
102
RTVSPropertyOp10
 70
     0
102
RTVSPropertyOp11
 70
     0
102
RTVSPropertyOp12
 70
     0
102
RTVSPropertyOp13
 70
     0
102
RTVSPropertyOp14
 70
     2
102
RTVSPropertyOp15
 70
     0
102
RTVSPropertyOp16
 70
     0
102
RTVSPropertyOp17
 70
     0
102
RTVSPropertyOp18
 70
     0
102
RTVSPropertyOp19
 70
     0
102
RTVSPropertyOp20
 70
     0
102
RTVSPropertyOp21
 70
     0
102
RTVSPropertyOp22
 70
     0
102
RTVSPropertyOp23
 70
     0
102
RTVSPropertyOp24
 70
     0
102
RTVSPropertyOp25
 70
     0
102
RTVSPropertyOp26
 70
     0
102
RTVSPropertyOp27
 70
     0
102
RTVSPropertyOp28
 70
     0
102
RTVSPropertyOp29
 70
     0
102
RTVSPropertyOp30
 70
     0
102
RTVSPropertyOp31
 70
     0
102
RTVSPropertyOp32
 70
     0
102
RTVSPropertyOp33
 70
     0
102
RTVSPropertyOp34
 70
     0
102
RTVSPropertyOp35
 70
     0
102
RTVSPropertyOp36
 70
     0
102
RTVSPropertyOp37
 70
     0
102
RTVSPropertyOp38
 70
     0
102
RTVSPropertyOp39
 70
     0
102
RTVSPropertyOp40
 70
     0
102
RTVSPropertyOp41
 70
     0
102
RTVSPropertyOp42
 70
     0
102
RTVSPropertyOp43
 70
     0
102
RTVSPropertyOp44
 70
     0
102
RTVSPropertyOp45
 70
     0
102
RTVSPropertyOp46
 70
     0
102
RTVSPropertyOp47
 70
     0
102
RTVSPropertyOp48
 70
     0
102
RTVSPropertyOp49
 70
     0
102
RTVSPropertyOp50
 70
     0
102
RTVSPropertyOp51
 70
     0
102
RTVSPropertyOp52
 70
     0
102
RTVSPropertyOp53
 70
     0
102
RTVSPropertyOp54
 70
     0
102
RTVSPropertyOp55
 70
     0
102
RTVSPropertyOp56
 70
     0
102
RTVSPropertyOp57
 70
     0
102
RTVSPropertyOp58
 70
     1
102
RTVSPropertyOp59
 70
     1
102
RTVSPropertyOp60
 70
     1
102
RTVSPropertyOp61
 70
     1
102
RTVSPropertyOp62
 70
     1
  0
XRECORD
  5
15D
102
{ACAD_REACTORS
330
15C
102
}
330
15C
100
AcDbXrecord
280
     1
102
RTVSPost2010Prop28
280
     0
102
RTVSPost2010PropOp28
 70
     1
102
RTVSPost2010Prop29
280
     1
102
RTVSPost2010PropOp29
 70
     1
102
RTVSPost2010Prop30
280
     1
102
RTVSPost2010PropOp30
 70
     1
102
RTVSPost2010Prop31
280
     0
102
RTVSPost2010PropOp31
 70
     1
102
RTVSPost2010Prop32
280
     0
102
RTVSPost2010PropOp32
 70
     1
102
RTVSPost2010Prop33
280
     0
102
RTVSPost2010PropOp33
 70
     1
102
RTVSPost2010Prop34
280
     0
102
RTVSPost2010PropOp34
 70
     1
102
RTVSPost2010Prop35
280
     0
102
RTVSPost2010PropOp35
 70
     1
102
RTVSPost2010Prop36
280
     0
102
RTVSPost2010PropOp36
 70
     1
102
RTVSPost2010Prop37
 90
       50
102
RTVSPost2010PropOp37
 70
     1
102
RTVSPost2010Prop38
140
0.0
102
RTVSPost2010PropOp38
 70
     1
102
RTVSPost2010Prop39
140
1.0
102
RTVSPost2010PropOp39
 70
     1
102
RTVSPost2010Prop40
 90
        0
102
RTVSPost2010PropOp40
 70
     1
102
RTVSPost2010Prop41ColorIndex
 90
       18
102
RTVSPost2010Prop41ColorRGB
 90
        0
102
RTVSPost2010PropOp41
 70
     1
102
RTVSPost2010Prop42
 90
       50
102
RTVSPost2010PropOp42
 70
     1
102
RTVSPost2010Prop43
 90
        3
102
RTVSPost2010PropOp43
 70
     1
102
RTVSPost2010Prop44ColorIndex
 90
        5
102
RTVSPost2010Prop44ColorRGB
 90
      255
102
RTVSPost2010PropOp44
 70
     1
102
RTVSPost2010Prop45
280
     0
102
RTVSPost2010PropOp45
 70
     1
102
RTVSPost2010Prop46
 90
       50
102
RTVSPost2010PropOp46
 70
     1
102
RTVSPost2010Prop47
 90
       50
102
RTVSPost2010PropOp47
 70
     1
102
RTVSPost2010Prop48
 90
       50
102
RTVSPost2010PropOp48
 70
     1
102
RTVSPost2010Prop49
280
     0
102
RTVSPost2010PropOp49
 70
     1
102
RTVSPost2010Prop50
 90
       50
102
RTVSPost2010PropOp50
 70
     1
102
RTVSPost2010Prop51ColorIndex
 90
      256
102
RTVSPost2010Prop51ColorRGB
 90
-16777216
102
RTVSPost2010PropOp51
 70
     0
102
RTVSPost2010Prop52
140
1.0
102
RTVSPost2010PropOp52
 70
     0
102
RTVSPost2010Prop53
 90
        2
102
RTVSPost2010PropOp53
 70
     1
102
RTVSPost2010Prop54
  1
strokes_ogs.tif
102
RTVSPost2010PropOp54
 70
     1
102
RTVSPost2010Prop55
280
     0
102
RTVSPost2010PropOp55
 70
     1
102
RTVSPost2010Prop56
140
1.0
102
RTVSPost2010PropOp56
 70
     1
102
RTVSPost2010Prop57
140
1.0
102
RTVSPost2010PropOp57
 70
     1
102
RTVSPropertyOp0
 70
     1
102
RTVSPropertyOp1
 70
     1
102
RTVSPropertyOp2
 70
     1
102
RTVSPropertyOp3
 70
     1
102
RTVSPropertyOp4
 70
     1
102
RTVSPropertyOp5
 70
     1
102
RTVSPropertyOp6
 70
     1
102
RTVSPropertyOp7
 70
     1
102
RTVSPropertyOp8
 70
     1
102
RTVSPropertyOp9
 70
     1
102
RTVSPropertyOp10
 70
     1
102
RTVSPropertyOp11
 70
     1
102
RTVSPropertyOp12
 70
     1
102
RTVSPropertyOp13
 70
     1
102
RTVSPropertyOp14
 70
     1
102
RTVSPropertyOp15
 70
     1
102
RTVSPropertyOp16
 70
     1
102
RTVSPropertyOp17
 70
     1
102
RTVSPropertyOp18
 70
     1
102
RTVSPropertyOp19
 70
     1
102
RTVSPropertyOp20
 70
     1
102
RTVSPropertyOp21
 70
     1
102
RTVSPropertyOp22
 70
     1
102
RTVSPropertyOp23
 70
     1
102
RTVSPropertyOp24
 70
     1
102
RTVSPropertyOp25
 70
     1
102
RTVSPropertyOp26
 70
     1
102
RTVSPropertyOp27
 70
     1
102
RTVSPropertyOp28
 70
     1
102
RTVSPropertyOp29
 70
     1
102
RTVSPropertyOp30
 70
     1
102
RTVSPropertyOp31
 70
     1
102
RTVSPropertyOp32
 70
     1
102
RTVSPropertyOp33
 70
     1
102
RTVSPropertyOp34
 70
     1
102
RTVSPropertyOp35
 70
     1
102
RTVSPropertyOp36
 70
     1
102
RTVSPropertyOp37
 70
     1
102
RTVSPropertyOp38
 70
     1
102
RTVSPropertyOp39
 70
     1
102
RTVSPropertyOp40
 70
     1
102
RTVSPropertyOp41
 70
     1
102
RTVSPropertyOp42
 70
     1
102
RTVSPropertyOp43
 70
     1
102
RTVSPropertyOp44
 70
     1
102
RTVSPropertyOp45
 70
     1
102
RTVSPropertyOp46
 70
     1
102
RTVSPropertyOp47
 70
     1
102
RTVSPropertyOp48
 70
     1
102
RTVSPropertyOp49
 70
     1
102
RTVSPropertyOp50
 70
     1
102
RTVSPropertyOp51
 70
     0
102
RTVSPropertyOp52
 70
     0
102
RTVSPropertyOp53
 70
     1
102
RTVSPropertyOp54
 70
     1
102
RTVSPropertyOp55
 70
     1
102
RTVSPropertyOp56
 70
     1
102
RTVSPropertyOp57
 70
     1
102
RTVSPropertyOp58
 70
     1
102
RTVSPropertyOp59
 70
     1
102
RTVSPropertyOp60
 70
     1
102
RTVSPropertyOp61
 70
     1
102
RTVSPropertyOp62
 70
     1
  0
XRECORD
  5
173
102
{ACAD_REACTORS
330
172
102
}
330
172
100
AcDbXrecord
280
     1
102
RTVSPost2010Prop28
280
     0
102
RTVSPost2010PropOp28
 70
     1
102
RTVSPost2010Prop29
280
     1
102
RTVSPost2010PropOp29
 70
     1
102
RTVSPost2010Prop30
280
     1
102
RTVSPost2010PropOp30
 70
     1
102
RTVSPost2010Prop31
280
     0
102
RTVSPost2010PropOp31
 70
     1
102
RTVSPost2010Prop32
280
     0
102
RTVSPost2010PropOp32
 70
     1
102
RTVSPost2010Prop33
280
     0
102
RTVSPost2010PropOp33
 70
     1
102
RTVSPost2010Prop34
280
     0
102
RTVSPost2010PropOp34
 70
     1
102
RTVSPost2010Prop35
280
     0
102
RTVSPost2010PropOp35
 70
     1
102
RTVSPost2010Prop36
280
     0
102
RTVSPost2010PropOp36
 70
     1
102
RTVSPost2010Prop37
 90
       50
102
RTVSPost2010PropOp37
 70
     1
102
RTVSPost2010Prop38
140
0.0
102
RTVSPost2010PropOp38
 70
     1
102
RTVSPost2010Prop39
140
1.0
102
RTVSPost2010PropOp39
 70
     1
102
RTVSPost2010Prop40
 90
        0
102
RTVSPost2010PropOp40
 70
     1
102
RTVSPost2010Prop41ColorIndex
 90
       18
102
RTVSPost2010Prop41ColorRGB
 90
        0
102
RTVSPost2010PropOp41
 70
     1
102
RTVSPost2010Prop42
 90
       50
102
RTVSPost2010PropOp42
 70
     1
102
RTVSPost2010Prop43
 90
        3
102
RTVSPost2010PropOp43
 70
     1
102
RTVSPost2010Prop44ColorIndex
 90
        5
102
RTVSPost2010Prop44ColorRGB
 90
      255
102
RTVSPost2010PropOp44
 70
     1
102
RTVSPost2010Prop45
280
     0
102
RTVSPost2010PropOp45
 70
     1
102
RTVSPost2010Prop46
 90
       50
102
RTVSPost2010PropOp46
 70
     1
102
RTVSPost2010Prop47
 90
       50
102
RTVSPost2010PropOp47
 70
     1
102
RTVSPost2010Prop48
 90
       50
102
RTVSPost2010PropOp48
 70
     1
102
RTVSPost2010Prop49
280
     0
102
RTVSPost2010PropOp49
 70
     1
102
RTVSPost2010Prop50
 90
       50
102
RTVSPost2010PropOp50
 70
     1
102
RTVSPost2010Prop51ColorIndex
 90
      256
102
RTVSPost2010Prop51ColorRGB
 90
-16777216
102
RTVSPost2010PropOp51
 70
     0
102
RTVSPost2010Prop52
140
1.0
102
RTVSPost2010PropOp52
 70
     0
102
RTVSPost2010Prop53
 90
        2
102
RTVSPost2010PropOp53
 70
     1
102
RTVSPost2010Prop54
  1
strokes_ogs.tif
102
RTVSPost2010PropOp54
 70
     1
102
RTVSPost2010Prop55
280
     0
102
RTVSPost2010PropOp55
 70
     1
102
RTVSPost2010Prop56
140
1.0
102
RTVSPost2010PropOp56
 70
     1
102
RTVSPost2010Prop57
140
1.0
102
RTVSPost2010PropOp57
 70
     1
102
RTVSPropertyOp0
 70
     1
102
RTVSPropertyOp1
 70
     1
102
RTVSPropertyOp2
 70
     1
102
RTVSPropertyOp3
 70
     1
102
RTVSPropertyOp4
 70
     1
102
RTVSPropertyOp5
 70
     1
102
RTVSPropertyOp6
 70
     1
102
RTVSPropertyOp7
 70
     1
102
RTVSPropertyOp8
 70
     1
102
RTVSPropertyOp9
 70
     1
102
RTVSPropertyOp10
 70
     1
102
RTVSPropertyOp11
 70
     1
102
RTVSPropertyOp12
 70
     1
102
RTVSPropertyOp13
 70
     1
102
RTVSPropertyOp14
 70
     1
102
RTVSPropertyOp15
 70
     1
102
RTVSPropertyOp16
 70
     1
102
RTVSPropertyOp17
 70
     1
102
RTVSPropertyOp18
 70
     1
102
RTVSPropertyOp19
 70
     1
102
RTVSPropertyOp20
 70
     1
102
RTVSPropertyOp21
 70
     1
102
RTVSPropertyOp22
 70
     1
102
RTVSPropertyOp23
 70
     1
102
RTVSPropertyOp24
 70
     1
102
RTVSPropertyOp25
 70
     1
102
RTVSPropertyOp26
 70
     1
102
RTVSPropertyOp27
 70
     1
102
RTVSPropertyOp28
 70
     1
102
RTVSPropertyOp29
 70
     1
102
RTVSPropertyOp30
 70
     1
102
RTVSPropertyOp31
 70
     1
102
RTVSPropertyOp32
 70
     1
102
RTVSPropertyOp33
 70
     1
102
RTVSPropertyOp34
 70
     1
102
RTVSPropertyOp35
 70
     1
102
RTVSPropertyOp36
 70
     1
102
RTVSPropertyOp37
 70
     1
102
RTVSPropertyOp38
 70
     1
102
RTVSPropertyOp39
 70
     1
102
RTVSPropertyOp40
 70
     1
102
RTVSPropertyOp41
 70
     1
102
RTVSPropertyOp42
 70
     1
102
RTVSPropertyOp43
 70
     1
102
RTVSPropertyOp44
 70
     1
102
RTVSPropertyOp45
 70
     1
102
RTVSPropertyOp46
 70
     1
102
RTVSPropertyOp47
 70
     1
102
RTVSPropertyOp48
 70
     1
102
RTVSPropertyOp49
 70
     1
102
RTVSPropertyOp50
 70
     1
102
RTVSPropertyOp51
 70
     0
102
RTVSPropertyOp52
 70
     0
102
RTVSPropertyOp53
 70
     1
102
RTVSPropertyOp54
 70
     1
102
RTVSPropertyOp55
 70
     1
102
RTVSPropertyOp56
 70
     1
102
RTVSPropertyOp57
 70
     1
102
RTVSPropertyOp58
 70
     1
102
RTVSPropertyOp59
 70
     1
102
RTVSPropertyOp60
 70
     1
102
RTVSPropertyOp61
 70
     1
102
RTVSPropertyOp62
 70
     1
  0
XRECORD
  5
171
102
{ACAD_REACTORS
330
170
102
}
330
170
100
AcDbXrecord
280
     1
102
RTVSPost2010Prop28
280
     0
102
RTVSPost2010PropOp28
 70
     1
102
RTVSPost2010Prop29
280
     1
102
RTVSPost2010PropOp29
 70
     1
102
RTVSPost2010Prop30
280
     1
102
RTVSPost2010PropOp30
 70
     1
102
RTVSPost2010Prop31
280
     0
102
RTVSPost2010PropOp31
 70
     1
102
RTVSPost2010Prop32
280
     0
102
RTVSPost2010PropOp32
 70
     1
102
RTVSPost2010Prop33
280
     0
102
RTVSPost2010PropOp33
 70
     1
102
RTVSPost2010Prop34
280
     0
102
RTVSPost2010PropOp34
 70
     1
102
RTVSPost2010Prop35
280
     0
102
RTVSPost2010PropOp35
 70
     1
102
RTVSPost2010Prop36
280
     0
102
RTVSPost2010PropOp36
 70
     1
102
RTVSPost2010Prop37
 90
       50
102
RTVSPost2010PropOp37
 70
     1
102
RTVSPost2010Prop38
140
0.0
102
RTVSPost2010PropOp38
 70
     1
102
RTVSPost2010Prop39
140
1.0
102
RTVSPost2010PropOp39
 70
     1
102
RTVSPost2010Prop40
 90
        0
102
RTVSPost2010PropOp40
 70
     1
102
RTVSPost2010Prop41ColorIndex
 90
       18
102
RTVSPost2010Prop41ColorRGB
 90
        0
102
RTVSPost2010PropOp41
 70
     1
102
RTVSPost2010Prop42
 90
       50
102
RTVSPost2010PropOp42
 70
     1
102
RTVSPost2010Prop43
 90
        3
102
RTVSPost2010PropOp43
 70
     1
102
RTVSPost2010Prop44ColorIndex
 90
        5
102
RTVSPost2010Prop44ColorRGB
 90
      255
102
RTVSPost2010PropOp44
 70
     1
102
RTVSPost2010Prop45
280
     0
102
RTVSPost2010PropOp45
 70
     1
102
RTVSPost2010Prop46
 90
       50
102
RTVSPost2010PropOp46
 70
     1
102
RTVSPost2010Prop47
 90
       50
102
RTVSPost2010PropOp47
 70
     1
102
RTVSPost2010Prop48
 90
       50
102
RTVSPost2010PropOp48
 70
     1
102
RTVSPost2010Prop49
280
     0
102
RTVSPost2010PropOp49
 70
     1
102
RTVSPost2010Prop50
 90
       50
102
RTVSPost2010PropOp50
 70
     1
102
RTVSPost2010Prop51ColorIndex
 90
      256
102
RTVSPost2010Prop51ColorRGB
 90
-16777216
102
RTVSPost2010PropOp51
 70
     0
102
RTVSPost2010Prop52
140
1.0
102
RTVSPost2010PropOp52
 70
     0
102
RTVSPost2010Prop53
 90
        2
102
RTVSPost2010PropOp53
 70
     1
102
RTVSPost2010Prop54
  1
strokes_ogs.tif
102
RTVSPost2010PropOp54
 70
     1
102
RTVSPost2010Prop55
280
     0
102
RTVSPost2010PropOp55
 70
     1
102
RTVSPost2010Prop56
140
1.0
102
RTVSPost2010PropOp56
 70
     1
102
RTVSPost2010Prop57
140
1.0
102
RTVSPost2010PropOp57
 70
     1
102
RTVSPropertyOp0
 70
     1
102
RTVSPropertyOp1
 70
     1
102
RTVSPropertyOp2
 70
     1
102
RTVSPropertyOp3
 70
     1
102
RTVSPropertyOp4
 70
     1
102
RTVSPropertyOp5
 70
     1
102
RTVSPropertyOp6
 70
     1
102
RTVSPropertyOp7
 70
     1
102
RTVSPropertyOp8
 70
     1
102
RTVSPropertyOp9
 70
     1
102
RTVSPropertyOp10
 70
     1
102
RTVSPropertyOp11
 70
     1
102
RTVSPropertyOp12
 70
     1
102
RTVSPropertyOp13
 70
     1
102
RTVSPropertyOp14
 70
     1
102
RTVSPropertyOp15
 70
     1
102
RTVSPropertyOp16
 70
     1
102
RTVSPropertyOp17
 70
     1
102
RTVSPropertyOp18
 70
     1
102
RTVSPropertyOp19
 70
     1
102
RTVSPropertyOp20
 70
     1
102
RTVSPropertyOp21
 70
     1
102
RTVSPropertyOp22
 70
     1
102
RTVSPropertyOp23
 70
     1
102
RTVSPropertyOp24
 70
     1
102
RTVSPropertyOp25
 70
     1
102
RTVSPropertyOp26
 70
     1
102
RTVSPropertyOp27
 70
     1
102
RTVSPropertyOp28
 70
     1
102
RTVSPropertyOp29
 70
     1
102
RTVSPropertyOp30
 70
     1
102
RTVSPropertyOp31
 70
     1
102
RTVSPropertyOp32
 70
     1
102
RTVSPropertyOp33
 70
     1
102
RTVSPropertyOp34
 70
     1
102
RTVSPropertyOp35
 70
     1
102
RTVSPropertyOp36
 70
     1
102
RTVSPropertyOp37
 70
     1
102
RTVSPropertyOp38
 70
     1
102
RTVSPropertyOp39
 70
     1
102
RTVSPropertyOp40
 70
     1
102
RTVSPropertyOp41
 70
     1
102
RTVSPropertyOp42
 70
     1
102
RTVSPropertyOp43
 70
     1
102
RTVSPropertyOp44
 70
     1
102
RTVSPropertyOp45
 70
     1
102
RTVSPropertyOp46
 70
     1
102
RTVSPropertyOp47
 70
     1
102
RTVSPropertyOp48
 70
     1
102
RTVSPropertyOp49
 70
     1
102
RTVSPropertyOp50
 70
     1
102
RTVSPropertyOp51
 70
     0
102
RTVSPropertyOp52
 70
     0
102
RTVSPropertyOp53
 70
     1
102
RTVSPropertyOp54
 70
     1
102
RTVSPropertyOp55
 70
     1
102
RTVSPropertyOp56
 70
     1
102
RTVSPropertyOp57
 70
     1
102
RTVSPropertyOp58
 70
     1
102
RTVSPropertyOp59
 70
     1
102
RTVSPropertyOp60
 70
     1
102
RTVSPropertyOp61
 70
     1
102
RTVSPropertyOp62
 70
     1
  0
XRECORD
  5
16B
102
{ACAD_REACTORS
330
16A
102
}
330
16A
100
AcDbXrecord
280
     1
102
RTVSPost2010Prop28
280
     0
102
RTVSPost2010PropOp28
 70
     1
102
RTVSPost2010Prop29
280
     1
102
RTVSPost2010PropOp29
 70
     1
102
RTVSPost2010Prop30
280
     1
102
RTVSPost2010PropOp30
 70
     1
102
RTVSPost2010Prop31
280
     0
102
RTVSPost2010PropOp31
 70
     1
102
RTVSPost2010Prop32
280
     0
102
RTVSPost2010PropOp32
 70
     1
102
RTVSPost2010Prop33
280
     0
102
RTVSPost2010PropOp33
 70
     1
102
RTVSPost2010Prop34
280
     0
102
RTVSPost2010PropOp34
 70
     1
102
RTVSPost2010Prop35
280
     0
102
RTVSPost2010PropOp35
 70
     1
102
RTVSPost2010Prop36
280
     0
102
RTVSPost2010PropOp36
 70
     1
102
RTVSPost2010Prop37
 90
       50
102
RTVSPost2010PropOp37
 70
     1
102
RTVSPost2010Prop38
140
0.0
102
RTVSPost2010PropOp38
 70
     1
102
RTVSPost2010Prop39
140
1.0
102
RTVSPost2010PropOp39
 70
     1
102
RTVSPost2010Prop40
 90
        0
102
RTVSPost2010PropOp40
 70
     1
102
RTVSPost2010Prop41ColorIndex
 90
       18
102
RTVSPost2010Prop41ColorRGB
 90
        0
102
RTVSPost2010PropOp41
 70
     1
102
RTVSPost2010Prop42
 90
       50
102
RTVSPost2010PropOp42
 70
     1
102
RTVSPost2010Prop43
 90
        3
102
RTVSPost2010PropOp43
 70
     1
102
RTVSPost2010Prop44ColorIndex
 90
        5
102
RTVSPost2010Prop44ColorRGB
 90
      255
102
RTVSPost2010PropOp44
 70
     1
102
RTVSPost2010Prop45
280
     0
102
RTVSPost2010PropOp45
 70
     1
102
RTVSPost2010Prop46
 90
       50
102
RTVSPost2010PropOp46
 70
     1
102
RTVSPost2010Prop47
 90
       50
102
RTVSPost2010PropOp47
 70
     1
102
RTVSPost2010Prop48
 90
       50
102
RTVSPost2010PropOp48
 70
     1
102
RTVSPost2010Prop49
280
     0
102
RTVSPost2010PropOp49
 70
     1
102
RTVSPost2010Prop50
 90
       50
102
RTVSPost2010PropOp50
 70
     1
102
RTVSPost2010Prop51ColorIndex
 90
      256
102
RTVSPost2010Prop51ColorRGB
 90
-16777216
102
RTVSPost2010PropOp51
 70
     0
102
RTVSPost2010Prop52
140
1.0
102
RTVSPost2010PropOp52
 70
     0
102
RTVSPost2010Prop53
 90
        2
102
RTVSPost2010PropOp53
 70
     1
102
RTVSPost2010Prop54
  1
strokes_ogs.tif
102
RTVSPost2010PropOp54
 70
     1
102
RTVSPost2010Prop55
280
     0
102
RTVSPost2010PropOp55
 70
     1
102
RTVSPost2010Prop56
140
1.0
102
RTVSPost2010PropOp56
 70
     1
102
RTVSPost2010Prop57
140
1.0
102
RTVSPost2010PropOp57
 70
     1
102
RTVSPropertyOp0
 70
     1
102
RTVSPropertyOp1
 70
     1
102
RTVSPropertyOp2
 70
     1
102
RTVSPropertyOp3
 70
     1
102
RTVSPropertyOp4
 70
     1
102
RTVSPropertyOp5
 70
     1
102
RTVSPropertyOp6
 70
     1
102
RTVSPropertyOp7
 70
     1
102
RTVSPropertyOp8
 70
     1
102
RTVSPropertyOp9
 70
     1
102
RTVSPropertyOp10
 70
     1
102
RTVSPropertyOp11
 70
     1
102
RTVSPropertyOp12
 70
     1
102
RTVSPropertyOp13
 70
     1
102
RTVSPropertyOp14
 70
     1
102
RTVSPropertyOp15
 70
     1
102
RTVSPropertyOp16
 70
     1
102
RTVSPropertyOp17
 70
     1
102
RTVSPropertyOp18
 70
     1
102
RTVSPropertyOp19
 70
     1
102
RTVSPropertyOp20
 70
     1
102
RTVSPropertyOp21
 70
     1
102
RTVSPropertyOp22
 70
     1
102
RTVSPropertyOp23
 70
     1
102
RTVSPropertyOp24
 70
     1
102
RTVSPropertyOp25
 70
     1
102
RTVSPropertyOp26
 70
     1
102
RTVSPropertyOp27
 70
     1
102
RTVSPropertyOp28
 70
     1
102
RTVSPropertyOp29
 70
     1
102
RTVSPropertyOp30
 70
     1
102
RTVSPropertyOp31
 70
     1
102
RTVSPropertyOp32
 70
     1
102
RTVSPropertyOp33
 70
     1
102
RTVSPropertyOp34
 70
     1
102
RTVSPropertyOp35
 70
     1
102
RTVSPropertyOp36
 70
     1
102
RTVSPropertyOp37
 70
     1
102
RTVSPropertyOp38
 70
     1
102
RTVSPropertyOp39
 70
     1
102
RTVSPropertyOp40
 70
     1
102
RTVSPropertyOp41
 70
     1
102
RTVSPropertyOp42
 70
     1
102
RTVSPropertyOp43
 70
     1
102
RTVSPropertyOp44
 70
     1
102
RTVSPropertyOp45
 70
     1
102
RTVSPropertyOp46
 70
     1
102
RTVSPropertyOp47
 70
     1
102
RTVSPropertyOp48
 70
     1
102
RTVSPropertyOp49
 70
     1
102
RTVSPropertyOp50
 70
     1
102
RTVSPropertyOp51
 70
     0
102
RTVSPropertyOp52
 70
     0
102
RTVSPropertyOp53
 70
     1
102
RTVSPropertyOp54
 70
     1
102
RTVSPropertyOp55
 70
     1
102
RTVSPropertyOp56
 70
     1
102
RTVSPropertyOp57
 70
     1
102
RTVSPropertyOp58
 70
     1
102
RTVSPropertyOp59
 70
     1
102
RTVSPropertyOp60
 70
     1
102
RTVSPropertyOp61
 70
     1
102
RTVSPropertyOp62
 70
     1
  0
XRECORD
  5
16D
102
{ACAD_REACTORS
330
16C
102
}
330
16C
100
AcDbXrecord
280
     1
102
RTVSPost2010Prop28
280
     0
102
RTVSPost2010PropOp28
 70
     1
102
RTVSPost2010Prop29
280
     1
102
RTVSPost2010PropOp29
 70
     1
102
RTVSPost2010Prop30
280
     1
102
RTVSPost2010PropOp30
 70
     1
102
RTVSPost2010Prop31
280
     0
102
RTVSPost2010PropOp31
 70
     1
102
RTVSPost2010Prop32
280
     0
102
RTVSPost2010PropOp32
 70
     1
102
RTVSPost2010Prop33
280
     0
102
RTVSPost2010PropOp33
 70
     1
102
RTVSPost2010Prop34
280
     0
102
RTVSPost2010PropOp34
 70
     1
102
RTVSPost2010Prop35
280
     0
102
RTVSPost2010PropOp35
 70
     1
102
RTVSPost2010Prop36
280
     0
102
RTVSPost2010PropOp36
 70
     1
102
RTVSPost2010Prop37
 90
       50
102
RTVSPost2010PropOp37
 70
     1
102
RTVSPost2010Prop38
140
0.0
102
RTVSPost2010PropOp38
 70
     1
102
RTVSPost2010Prop39
140
1.0
102
RTVSPost2010PropOp39
 70
     1
102
RTVSPost2010Prop40
 90
        0
102
RTVSPost2010PropOp40
 70
     1
102
RTVSPost2010Prop41ColorIndex
 90
       18
102
RTVSPost2010Prop41ColorRGB
 90
        0
102
RTVSPost2010PropOp41
 70
     1
102
RTVSPost2010Prop42
 90
       50
102
RTVSPost2010PropOp42
 70
     1
102
RTVSPost2010Prop43
 90
        3
102
RTVSPost2010PropOp43
 70
     1
102
RTVSPost2010Prop44ColorIndex
 90
        5
102
RTVSPost2010Prop44ColorRGB
 90
      255
102
RTVSPost2010PropOp44
 70
     1
102
RTVSPost2010Prop45
280
     0
102
RTVSPost2010PropOp45
 70
     1
102
RTVSPost2010Prop46
 90
       50
102
RTVSPost2010PropOp46
 70
     1
102
RTVSPost2010Prop47
 90
       50
102
RTVSPost2010PropOp47
 70
     1
102
RTVSPost2010Prop48
 90
       50
102
RTVSPost2010PropOp48
 70
     1
102
RTVSPost2010Prop49
280
     0
102
RTVSPost2010PropOp49
 70
     1
102
RTVSPost2010Prop50
 90
       50
102
RTVSPost2010PropOp50
 70
     1
102
RTVSPost2010Prop51ColorIndex
 90
      256
102
RTVSPost2010Prop51ColorRGB
 90
-16777216
102
RTVSPost2010PropOp51
 70
     0
102
RTVSPost2010Prop52
140
1.0
102
RTVSPost2010PropOp52
 70
     0
102
RTVSPost2010Prop53
 90
        2
102
RTVSPost2010PropOp53
 70
     1
102
RTVSPost2010Prop54
  1
strokes_ogs.tif
102
RTVSPost2010PropOp54
 70
     1
102
RTVSPost2010Prop55
280
     0
102
RTVSPost2010PropOp55
 70
     1
102
RTVSPost2010Prop56
140
1.0
102
RTVSPost2010PropOp56
 70
     1
102
RTVSPost2010Prop57
140
1.0
102
RTVSPost2010PropOp57
 70
     1
102
RTVSPropertyOp0
 70
     1
102
RTVSPropertyOp1
 70
     1
102
RTVSPropertyOp2
 70
     1
102
RTVSPropertyOp3
 70
     1
102
RTVSPropertyOp4
 70
     1
102
RTVSPropertyOp5
 70
     1
102
RTVSPropertyOp6
 70
     1
102
RTVSPropertyOp7
 70
     1
102
RTVSPropertyOp8
 70
     1
102
RTVSPropertyOp9
 70
     1
102
RTVSPropertyOp10
 70
     1
102
RTVSPropertyOp11
 70
     1
102
RTVSPropertyOp12
 70
     1
102
RTVSPropertyOp13
 70
     1
102
RTVSPropertyOp14
 70
     1
102
RTVSPropertyOp15
 70
     1
102
RTVSPropertyOp16
 70
     1
102
RTVSPropertyOp17
 70
     1
102
RTVSPropertyOp18
 70
     1
102
RTVSPropertyOp19
 70
     1
102
RTVSPropertyOp20
 70
     1
102
RTVSPropertyOp21
 70
     1
102
RTVSPropertyOp22
 70
     1
102
RTVSPropertyOp23
 70
     1
102
RTVSPropertyOp24
 70
     1
102
RTVSPropertyOp25
 70
     1
102
RTVSPropertyOp26
 70
     1
102
RTVSPropertyOp27
 70
     1
102
RTVSPropertyOp28
 70
     1
102
RTVSPropertyOp29
 70
     1
102
RTVSPropertyOp30
 70
     1
102
RTVSPropertyOp31
 70
     1
102
RTVSPropertyOp32
 70
     1
102
RTVSPropertyOp33
 70
     1
102
RTVSPropertyOp34
 70
     1
102
RTVSPropertyOp35
 70
     1
102
RTVSPropertyOp36
 70
     1
102
RTVSPropertyOp37
 70
     1
102
RTVSPropertyOp38
 70
     1
102
RTVSPropertyOp39
 70
     1
102
RTVSPropertyOp40
 70
     1
102
RTVSPropertyOp41
 70
     1
102
RTVSPropertyOp42
 70
     1
102
RTVSPropertyOp43
 70
     1
102
RTVSPropertyOp44
 70
     1
102
RTVSPropertyOp45
 70
     1
102
RTVSPropertyOp46
 70
     1
102
RTVSPropertyOp47
 70
     1
102
RTVSPropertyOp48
 70
     1
102
RTVSPropertyOp49
 70
     1
102
RTVSPropertyOp50
 70
     1
102
RTVSPropertyOp51
 70
     0
102
RTVSPropertyOp52
 70
     0
102
RTVSPropertyOp53
 70
     1
102
RTVSPropertyOp54
 70
     1
102
RTVSPropertyOp55
 70
     1
102
RTVSPropertyOp56
 70
     1
102
RTVSPropertyOp57
 70
     1
102
RTVSPropertyOp58
 70
     1
102
RTVSPropertyOp59
 70
     1
102
RTVSPropertyOp60
 70
     1
102
RTVSPropertyOp61
 70
     1
102
RTVSPropertyOp62
 70
     1
  0
XRECORD
  5
163
102
{ACAD_REACTORS
330
162
102
}
330
162
100
AcDbXrecord
280
     1
102
RTVSPost2010Prop28
280
     0
102
RTVSPost2010PropOp28
 70
     1
102
RTVSPost2010Prop29
280
     1
102
RTVSPost2010PropOp29
 70
     1
102
RTVSPost2010Prop30
280
     1
102
RTVSPost2010PropOp30
 70
     1
102
RTVSPost2010Prop31
280
     0
102
RTVSPost2010PropOp31
 70
     1
102
RTVSPost2010Prop32
280
     0
102
RTVSPost2010PropOp32
 70
     1
102
RTVSPost2010Prop33
280
     0
102
RTVSPost2010PropOp33
 70
     1
102
RTVSPost2010Prop34
280
     0
102
RTVSPost2010PropOp34
 70
     1
102
RTVSPost2010Prop35
280
     0
102
RTVSPost2010PropOp35
 70
     1
102
RTVSPost2010Prop36
280
     0
102
RTVSPost2010PropOp36
 70
     1
102
RTVSPost2010Prop37
 90
       50
102
RTVSPost2010PropOp37
 70
     1
102
RTVSPost2010Prop38
140
0.0
102
RTVSPost2010PropOp38
 70
     1
102
RTVSPost2010Prop39
140
1.0
102
RTVSPost2010PropOp39
 70
     1
102
RTVSPost2010Prop40
 90
        0
102
RTVSPost2010PropOp40
 70
     1
102
RTVSPost2010Prop41ColorIndex
 90
       18
102
RTVSPost2010Prop41ColorRGB
 90
        0
102
RTVSPost2010PropOp41
 70
     1
102
RTVSPost2010Prop42
 90
       50
102
RTVSPost2010PropOp42
 70
     1
102
RTVSPost2010Prop43
 90
        3
102
RTVSPost2010PropOp43
 70
     1
102
RTVSPost2010Prop44ColorIndex
 90
        5
102
RTVSPost2010Prop44ColorRGB
 90
      255
102
RTVSPost2010PropOp44
 70
     1
102
RTVSPost2010Prop45
280
     0
102
RTVSPost2010PropOp45
 70
     1
102
RTVSPost2010Prop46
 90
       50
102
RTVSPost2010PropOp46
 70
     1
102
RTVSPost2010Prop47
 90
       50
102
RTVSPost2010PropOp47
 70
     1
102
RTVSPost2010Prop48
 90
       50
102
RTVSPost2010PropOp48
 70
     1
102
RTVSPost2010Prop49
280
     0
102
RTVSPost2010PropOp49
 70
     1
102
RTVSPost2010Prop50
 90
       50
102
RTVSPost2010PropOp50
 70
     1
102
RTVSPost2010Prop51ColorIndex
 90
      256
102
RTVSPost2010Prop51ColorRGB
 90
-16777216
102
RTVSPost2010PropOp51
 70
     0
102
RTVSPost2010Prop52
140
1.0
102
RTVSPost2010PropOp52
 70
     0
102
RTVSPost2010Prop53
 90
        2
102
RTVSPost2010PropOp53
 70
     1
102
RTVSPost2010Prop54
  1
strokes_ogs.tif
102
RTVSPost2010PropOp54
 70
     1
102
RTVSPost2010Prop55
280
     0
102
RTVSPost2010PropOp55
 70
     1
102
RTVSPost2010Prop56
140
1.0
102
RTVSPost2010PropOp56
 70
     1
102
RTVSPost2010Prop57
140
1.0
102
RTVSPost2010PropOp57
 70
     1
102
RTVSPropertyOp0
 70
     1
102
RTVSPropertyOp1
 70
     1
102
RTVSPropertyOp2
 70
     1
102
RTVSPropertyOp3
 70
     1
102
RTVSPropertyOp4
 70
     1
102
RTVSPropertyOp5
 70
     1
102
RTVSPropertyOp6
 70
     1
102
RTVSPropertyOp7
 70
     1
102
RTVSPropertyOp8
 70
     1
102
RTVSPropertyOp9
 70
     1
102
RTVSPropertyOp10
 70
     1
102
RTVSPropertyOp11
 70
     1
102
RTVSPropertyOp12
 70
     1
102
RTVSPropertyOp13
 70
     1
102
RTVSPropertyOp14
 70
     1
102
RTVSPropertyOp15
 70
     1
102
RTVSPropertyOp16
 70
     1
102
RTVSPropertyOp17
 70
     1
102
RTVSPropertyOp18
 70
     1
102
RTVSPropertyOp19
 70
     1
102
RTVSPropertyOp20
 70
     1
102
RTVSPropertyOp21
 70
     1
102
RTVSPropertyOp22
 70
     1
102
RTVSPropertyOp23
 70
     1
102
RTVSPropertyOp24
 70
     1
102
RTVSPropertyOp25
 70
     1
102
RTVSPropertyOp26
 70
     1
102
RTVSPropertyOp27
 70
     1
102
RTVSPropertyOp28
 70
     1
102
RTVSPropertyOp29
 70
     1
102
RTVSPropertyOp30
 70
     1
102
RTVSPropertyOp31
 70
     1
102
RTVSPropertyOp32
 70
     1
102
RTVSPropertyOp33
 70
     1
102
RTVSPropertyOp34
 70
     1
102
RTVSPropertyOp35
 70
     1
102
RTVSPropertyOp36
 70
     1
102
RTVSPropertyOp37
 70
     1
102
RTVSPropertyOp38
 70
     1
102
RTVSPropertyOp39
 70
     1
102
RTVSPropertyOp40
 70
     1
102
RTVSPropertyOp41
 70
     1
102
RTVSPropertyOp42
 70
     1
102
RTVSPropertyOp43
 70
     1
102
RTVSPropertyOp44
 70
     1
102
RTVSPropertyOp45
 70
     1
102
RTVSPropertyOp46
 70
     1
102
RTVSPropertyOp47
 70
     1
102
RTVSPropertyOp48
 70
     1
102
RTVSPropertyOp49
 70
     1
102
RTVSPropertyOp50
 70
     1
102
RTVSPropertyOp51
 70
     0
102
RTVSPropertyOp52
 70
     0
102
RTVSPropertyOp53
 70
     1
102
RTVSPropertyOp54
 70
     1
102
RTVSPropertyOp55
 70
     1
102
RTVSPropertyOp56
 70
     1
102
RTVSPropertyOp57
 70
     1
102
RTVSPropertyOp58
 70
     1
102
RTVSPropertyOp59
 70
     1
102
RTVSPropertyOp60
 70
     1
102
RTVSPropertyOp61
 70
     1
102
RTVSPropertyOp62
 70
     1
  0
XRECORD
  5
157
102
{ACAD_REACTORS
330
156
102
}
330
156
100
AcDbXrecord
280
     1
102
RTVSPost2010Prop28
280
     0
102
RTVSPost2010PropOp28
 70
     1
102
RTVSPost2010Prop29
280
     1
102
RTVSPost2010PropOp29
 70
     1
102
RTVSPost2010Prop30
280
     1
102
RTVSPost2010PropOp30
 70
     1
102
RTVSPost2010Prop31
280
     0
102
RTVSPost2010PropOp31
 70
     1
102
RTVSPost2010Prop32
280
     0
102
RTVSPost2010PropOp32
 70
     1
102
RTVSPost2010Prop33
280
     0
102
RTVSPost2010PropOp33
 70
     1
102
RTVSPost2010Prop34
280
     0
102
RTVSPost2010PropOp34
 70
     1
102
RTVSPost2010Prop35
280
     0
102
RTVSPost2010PropOp35
 70
     1
102
RTVSPost2010Prop36
280
     0
102
RTVSPost2010PropOp36
 70
     1
102
RTVSPost2010Prop37
 90
       50
102
RTVSPost2010PropOp37
 70
     1
102
RTVSPost2010Prop38
140
0.0
102
RTVSPost2010PropOp38
 70
     1
102
RTVSPost2010Prop39
140
1.0
102
RTVSPost2010PropOp39
 70
     1
102
RTVSPost2010Prop40
 90
        0
102
RTVSPost2010PropOp40
 70
     1
102
RTVSPost2010Prop41ColorIndex
 90
       18
102
RTVSPost2010Prop41ColorRGB
 90
        0
102
RTVSPost2010PropOp41
 70
     1
102
RTVSPost2010Prop42
 90
       50
102
RTVSPost2010PropOp42
 70
     1
102
RTVSPost2010Prop43
 90
        3
102
RTVSPost2010PropOp43
 70
     1
102
RTVSPost2010Prop44ColorIndex
 90
        5
102
RTVSPost2010Prop44ColorRGB
 90
      255
102
RTVSPost2010PropOp44
 70
     1
102
RTVSPost2010Prop45
280
     0
102
RTVSPost2010PropOp45
 70
     1
102
RTVSPost2010Prop46
 90
       50
102
RTVSPost2010PropOp46
 70
     1
102
RTVSPost2010Prop47
 90
       50
102
RTVSPost2010PropOp47
 70
     1
102
RTVSPost2010Prop48
 90
       50
102
RTVSPost2010PropOp48
 70
     1
102
RTVSPost2010Prop49
280
     0
102
RTVSPost2010PropOp49
 70
     1
102
RTVSPost2010Prop50
 90
       50
102
RTVSPost2010PropOp50
 70
     1
102
RTVSPost2010Prop51ColorIndex
 90
      256
102
RTVSPost2010Prop51ColorRGB
 90
-16777216
102
RTVSPost2010PropOp51
 70
     0
102
RTVSPost2010Prop52
140
1.0
102
RTVSPost2010PropOp52
 70
     0
102
RTVSPost2010Prop53
 90
        2
102
RTVSPost2010PropOp53
 70
     1
102
RTVSPost2010Prop54
  1
strokes_ogs.tif
102
RTVSPost2010PropOp54
 70
     1
102
RTVSPost2010Prop55
280
     0
102
RTVSPost2010PropOp55
 70
     1
102
RTVSPost2010Prop56
140
1.0
102
RTVSPost2010PropOp56
 70
     1
102
RTVSPost2010Prop57
140
1.0
102
RTVSPost2010PropOp57
 70
     1
102
RTVSPropertyOp0
 70
     1
102
RTVSPropertyOp1
 70
     1
102
RTVSPropertyOp2
 70
     1
102
RTVSPropertyOp3
 70
     1
102
RTVSPropertyOp4
 70
     1
102
RTVSPropertyOp5
 70
     1
102
RTVSPropertyOp6
 70
     1
102
RTVSPropertyOp7
 70
     1
102
RTVSPropertyOp8
 70
     1
102
RTVSPropertyOp9
 70
     1
102
RTVSPropertyOp10
 70
     1
102
RTVSPropertyOp11
 70
     1
102
RTVSPropertyOp12
 70
     1
102
RTVSPropertyOp13
 70
     1
102
RTVSPropertyOp14
 70
     1
102
RTVSPropertyOp15
 70
     1
102
RTVSPropertyOp16
 70
     1
102
RTVSPropertyOp17
 70
     1
102
RTVSPropertyOp18
 70
     1
102
RTVSPropertyOp19
 70
     1
102
RTVSPropertyOp20
 70
     1
102
RTVSPropertyOp21
 70
     1
102
RTVSPropertyOp22
 70
     1
102
RTVSPropertyOp23
 70
     1
102
RTVSPropertyOp24
 70
     1
102
RTVSPropertyOp25
 70
     1
102
RTVSPropertyOp26
 70
     1
102
RTVSPropertyOp27
 70
     1
102
RTVSPropertyOp28
 70
     1
102
RTVSPropertyOp29
 70
     1
102
RTVSPropertyOp30
 70
     1
102
RTVSPropertyOp31
 70
     1
102
RTVSPropertyOp32
 70
     1
102
RTVSPropertyOp33
 70
     1
102
RTVSPropertyOp34
 70
     1
102
RTVSPropertyOp35
 70
     1
102
RTVSPropertyOp36
 70
     1
102
RTVSPropertyOp37
 70
     1
102
RTVSPropertyOp38
 70
     1
102
RTVSPropertyOp39
 70
     1
102
RTVSPropertyOp40
 70
     1
102
RTVSPropertyOp41
 70
     1
102
RTVSPropertyOp42
 70
     1
102
RTVSPropertyOp43
 70
     1
102
RTVSPropertyOp44
 70
     1
102
RTVSPropertyOp45
 70
     1
102
RTVSPropertyOp46
 70
     1
102
RTVSPropertyOp47
 70
     1
102
RTVSPropertyOp48
 70
     1
102
RTVSPropertyOp49
 70
     1
102
RTVSPropertyOp50
 70
     1
102
RTVSPropertyOp51
 70
     0
102
RTVSPropertyOp52
 70
     0
102
RTVSPropertyOp53
 70
     1
102
RTVSPropertyOp54
 70
     1
102
RTVSPropertyOp55
 70
     1
102
RTVSPropertyOp56
 70
     1
102
RTVSPropertyOp57
 70
     1
102
RTVSPropertyOp58
 70
     1
102
RTVSPropertyOp59
 70
     1
102
RTVSPropertyOp60
 70
     1
102
RTVSPropertyOp61
 70
     1
102
RTVSPropertyOp62
 70
     1
  0
XRECORD
  5
16F
102
{ACAD_REACTORS
330
16E
102
}
330
16E
100
AcDbXrecord
280
     1
102
RTVSPost2010Prop28
280
     0
102
RTVSPost2010PropOp28
 70
     1
102
RTVSPost2010Prop29
280
     1
102
RTVSPost2010PropOp29
 70
     1
102
RTVSPost2010Prop30
280
     1
102
RTVSPost2010PropOp30
 70
     1
102
RTVSPost2010Prop31
280
     0
102
RTVSPost2010PropOp31
 70
     1
102
RTVSPost2010Prop32
280
     0
102
RTVSPost2010PropOp32
 70
     1
102
RTVSPost2010Prop33
280
     0
102
RTVSPost2010PropOp33
 70
     1
102
RTVSPost2010Prop34
280
     0
102
RTVSPost2010PropOp34
 70
     1
102
RTVSPost2010Prop35
280
     0
102
RTVSPost2010PropOp35
 70
     1
102
RTVSPost2010Prop36
280
     0
102
RTVSPost2010PropOp36
 70
     1
102
RTVSPost2010Prop37
 90
       50
102
RTVSPost2010PropOp37
 70
     1
102
RTVSPost2010Prop38
140
0.0
102
RTVSPost2010PropOp38
 70
     1
102
RTVSPost2010Prop39
140
1.0
102
RTVSPost2010PropOp39
 70
     1
102
RTVSPost2010Prop40
 90
        0
102
RTVSPost2010PropOp40
 70
     1
102
RTVSPost2010Prop41ColorIndex
 90
       18
102
RTVSPost2010Prop41ColorRGB
 90
        0
102
RTVSPost2010PropOp41
 70
     1
102
RTVSPost2010Prop42
 90
       50
102
RTVSPost2010PropOp42
 70
     1
102
RTVSPost2010Prop43
 90
        3
102
RTVSPost2010PropOp43
 70
     1
102
RTVSPost2010Prop44ColorIndex
 90
        5
102
RTVSPost2010Prop44ColorRGB
 90
      255
102
RTVSPost2010PropOp44
 70
     1
102
RTVSPost2010Prop45
280
     0
102
RTVSPost2010PropOp45
 70
     1
102
RTVSPost2010Prop46
 90
       50
102
RTVSPost2010PropOp46
 70
     1
102
RTVSPost2010Prop47
 90
       50
102
RTVSPost2010PropOp47
 70
     1
102
RTVSPost2010Prop48
 90
       50
102
RTVSPost2010PropOp48
 70
     1
102
RTVSPost2010Prop49
280
     0
102
RTVSPost2010PropOp49
 70
     1
102
RTVSPost2010Prop50
 90
       50
102
RTVSPost2010PropOp50
 70
     1
102
RTVSPost2010Prop51ColorIndex
 90
      256
102
RTVSPost2010Prop51ColorRGB
 90
-16777216
102
RTVSPost2010PropOp51
 70
     0
102
RTVSPost2010Prop52
140
1.0
102
RTVSPost2010PropOp52
 70
     0
102
RTVSPost2010Prop53
 90
        2
102
RTVSPost2010PropOp53
 70
     1
102
RTVSPost2010Prop54
  1
strokes_ogs.tif
102
RTVSPost2010PropOp54
 70
     1
102
RTVSPost2010Prop55
280
     0
102
RTVSPost2010PropOp55
 70
     1
102
RTVSPost2010Prop56
140
1.0
102
RTVSPost2010PropOp56
 70
     1
102
RTVSPost2010Prop57
140
1.0
102
RTVSPost2010PropOp57
 70
     1
102
RTVSPropertyOp0
 70
     1
102
RTVSPropertyOp1
 70
     1
102
RTVSPropertyOp2
 70
     1
102
RTVSPropertyOp3
 70
     1
102
RTVSPropertyOp4
 70
     1
102
RTVSPropertyOp5
 70
     1
102
RTVSPropertyOp6
 70
     1
102
RTVSPropertyOp7
 70
     1
102
RTVSPropertyOp8
 70
     1
102
RTVSPropertyOp9
 70
     1
102
RTVSPropertyOp10
 70
     1
102
RTVSPropertyOp11
 70
     1
102
RTVSPropertyOp12
 70
     1
102
RTVSPropertyOp13
 70
     1
102
RTVSPropertyOp14
 70
     1
102
RTVSPropertyOp15
 70
     1
102
RTVSPropertyOp16
 70
     1
102
RTVSPropertyOp17
 70
     1
102
RTVSPropertyOp18
 70
     1
102
RTVSPropertyOp19
 70
     1
102
RTVSPropertyOp20
 70
     1
102
RTVSPropertyOp21
 70
     1
102
RTVSPropertyOp22
 70
     1
102
RTVSPropertyOp23
 70
     1
102
RTVSPropertyOp24
 70
     1
102
RTVSPropertyOp25
 70
     1
102
RTVSPropertyOp26
 70
     1
102
RTVSPropertyOp27
 70
     1
102
RTVSPropertyOp28
 70
     1
102
RTVSPropertyOp29
 70
     1
102
RTVSPropertyOp30
 70
     1
102
RTVSPropertyOp31
 70
     1
102
RTVSPropertyOp32
 70
     1
102
RTVSPropertyOp33
 70
     1
102
RTVSPropertyOp34
 70
     1
102
RTVSPropertyOp35
 70
     1
102
RTVSPropertyOp36
 70
     1
102
RTVSPropertyOp37
 70
     1
102
RTVSPropertyOp38
 70
     1
102
RTVSPropertyOp39
 70
     1
102
RTVSPropertyOp40
 70
     1
102
RTVSPropertyOp41
 70
     1
102
RTVSPropertyOp42
 70
     1
102
RTVSPropertyOp43
 70
     1
102
RTVSPropertyOp44
 70
     1
102
RTVSPropertyOp45
 70
     1
102
RTVSPropertyOp46
 70
     1
102
RTVSPropertyOp47
 70
     1
102
RTVSPropertyOp48
 70
     1
102
RTVSPropertyOp49
 70
     1
102
RTVSPropertyOp50
 70
     1
102
RTVSPropertyOp51
 70
     0
102
RTVSPropertyOp52
 70
     0
102
RTVSPropertyOp53
 70
     1
102
RTVSPropertyOp54
 70
     1
102
RTVSPropertyOp55
 70
     1
102
RTVSPropertyOp56
 70
     1
102
RTVSPropertyOp57
 70
     1
102
RTVSPropertyOp58
 70
     1
102
RTVSPropertyOp59
 70
     1
102
RTVSPropertyOp60
 70
     1
102
RTVSPropertyOp61
 70
     1
102
RTVSPropertyOp62
 70
     1
  0
ENDSEC
  0
EOF
