  0
SECTION
  2
HEADER
  9
$ACADVER
  1
AC1032
  9
$ACADMAINTVER
 90
      158
  9
$DWGCODEPAGE
  3
ANSI_1252
  9
$LASTSAVEDBY
  1
andrea.ragusa
  9
$REQUIREDVERSIONS
160
                 0
  9
$INSBASE
 10
0.0
 20
0.0
 30
0.0
  9
$EXTMIN
 10
-1.352136301791227
 20
-8.46013348976356
 30
0.0
  9
$EXTMAX
 10
11.62007666738401
 20
-3.806834373661832
 30
0.0
  9
$LIMMIN
 10
0.0
 20
0.0
  9
$LIMMAX
 10
12.0
 20
9.0
  9
$ORTHOMODE
 70
     0
  9
$REGENMODE
 70
     1
  9
$FILLMODE
 70
     1
  9
$QTEXTMODE
 70
     0
  9
$MIRRTEXT
 70
     0
  9
$LTSCALE
 40
1.0
  9
$ATTMODE
 70
     1
  9
$TEXTSIZE
 40
0.2
  9
$TRACEWID
 40
0.05
  9
$TEXTSTYLE
  7
Standard
  9
$CLAYER
  8
0
  9
$CELTYPE
  6
ByLayer
  9
$CECOLOR
 62
   256
  9
$CELTSCALE
 40
1.0
  9
$DISPSILH
 70
     0
  9
$DIMSCALE
 40
1.0
  9
$DIMASZ
 40
0.18
  9
$DIMEXO
 40
0.0625
  9
$DIMDLI
 40
0.38
  9
$DIMRND
 40
0.0
  9
$DIMDLE
 40
0.0
  9
$DIMEXE
 40
0.18
  9
$DIMTP
 40
0.0
  9
$DIMTM
 40
0.0
  9
$DIMTXT
 40
0.18
  9
$DIMCEN
 40
0.09
  9
$DIMTSZ
 40
0.0
  9
$DIMTOL
 70
     0
  9
$DIMLIM
 70
     0
  9
$DIMTIH
 70
     1
  9
$DIMTOH
 70
     1
  9
$DIMSE1
 70
     0
  9
$DIMSE2
 70
     0
  9
$DIMTAD
 70
     0
  9
$DIMZIN
 70
     0
  9
$DIMBLK
  1

  9
$DIMASO
 70
     1
  9
$DIMSHO
 70
     1
  9
$DIMPOST
  1

  9
$DIMAPOST
  1

  9
$DIMALT
 70
     0
  9
$DIMALTD
 70
     2
  9
$DIMALTF
 40
25.4
  9
$DIMLFAC
 40
1.0
  9
$DIMTOFL
 70
     0
  9
$DIMTVP
 40
0.0
  9
$DIMTIX
 70
     0
  9
$DIMSOXD
 70
     0
  9
$DIMSAH
 70
     0
  9
$DIMBLK1
  1

  9
$DIMBLK2
  1

  9
$DIMSTYLE
  2
Standard
  9
$DIMCLRD
 70
     0
  9
$DIMCLRE
 70
     0
  9
$DIMCLRT
 70
     0
  9
$DIMTFAC
 40
1.0
  9
$DIMGAP
 40
0.09
  9
$DIMJUST
 70
     0
  9
$DIMSD1
 70
     0
  9
$DIMSD2
 70
     0
  9
$DIMTOLJ
 70
     1
  9
$DIMTZIN
 70
     0
  9
$DIMALTZ
 70
     0
  9
$DIMALTTZ
 70
     0
  9
$DIMUPT
 70
     0
  9
$DIMDEC
 70
     4
  9
$DIMTDEC
 70
     4
  9
$DIMALTU
 70
     2
  9
$DIMALTTD
 70
     2
  9
$DIMTXSTY
  7
Standard
  9
$DIMAUNIT
 70
     0
  9
$DIMADEC
 70
     0
  9
$DIMALTRND
 40
0.0
  9
$DIMAZIN
 70
     0
  9
$DIMDSEP
 70
    46
  9
$DIMATFIT
 70
     3
  9
$DIMFRAC
 70
     0
  9
$DIMLDRBLK
  1

  9
$DIMLUNIT
 70
     2
  9
$DIMLWD
 70
    -2
  9
$DIMLWE
 70
    -2
  9
$DIMTMOVE
 70
     0
  9
$DIMFXL
 40
1.0
  9
$DIMFXLON
 70
     0
  9
$DIMJOGANG
 40
0.7853981633974483
  9
$DIMTFILL
 70
     0
  9
$DIMTFILLCLR
 70
     0
  9
$DIMARCSYM
 70
     0
  9
$DIMLTYPE
  6

  9
$DIMLTEX1
  6

  9
$DIMLTEX2
  6

  9
$DIMTXTDIRECTION
 70
     0
  9
$LUNITS
 70
     2
  9
$LUPREC
 70
     4
  9
$SKETCHINC
 40
0.1
  9
$FILLETRAD
 40
0.0
  9
$AUNITS
 70
     0
  9
$AUPREC
 70
     0
  9
$MENU
  1
.
  9
$ELEVATION
 40
0.0
  9
$PELEVATION
 40
0.0
  9
$THICKNESS
 40
0.0
  9
$LIMCHECK
 70
     0
  9
$CHAMFERA
 40
0.0
  9
$CHAMFERB
 40
0.0
  9
$CHAMFERC
 40
0.0
  9
$CHAMFERD
 40
0.0
  9
$SKPOLY
 70
     0
  9
$TDCREATE
 40
2459423.638101852
  9
$TDUCREATE
 40
2459423.554768519
  9
$TDUPDATE
 40
2459446.618356482
  9
$TDUUPDATE
 40
2459446.535023148
  9
$TDINDWG
 40
0.0019791667
  9
$TDUSRTIMER
 40
0.0019791667
  9
$USRTIMER
 70
     1
  9
$ANGBASE
 50
0.0
  9
$ANGDIR
 70
     0
  9
$PDMODE
 70
     0
  9
$PDSIZE
 40
0.0
  9
$PLINEWID
 40
0.0
  9
$SPLFRAME
 70
     0
  9
$SPLINETYPE
 70
     6
  9
$SPLINESEGS
 70
     8
  9
$HANDSEED
  5
22D
  9
$SURFTAB1
 70
     6
  9
$SURFTAB2
 70
     6
  9
$SURFTYPE
 70
     6
  9
$SURFU
 70
     6
  9
$SURFV
 70
     6
  9
$UCSBASE
  2

  9
$UCSNAME
  2

  9
$UCSORG
 10
0.0
 20
0.0
 30
0.0
  9
$UCSXDIR
 10
1.0
 20
0.0
 30
0.0
  9
$UCSYDIR
 10
0.0
 20
1.0
 30
0.0
  9
$UCSORTHOREF
  2

  9
$UCSORTHOVIEW
 70
     0
  9
$UCSORGTOP
 10
0.0
 20
0.0
 30
0.0
  9
$UCSORGBOTTOM
 10
0.0
 20
0.0
 30
0.0
  9
$UCSORGLEFT
 10
0.0
 20
0.0
 30
0.0
  9
$UCSORGRIGHT
 10
0.0
 20
0.0
 30
0.0
  9
$UCSORGFRONT
 10
0.0
 20
0.0
 30
0.0
  9
$UCSORGBACK
 10
0.0
 20
0.0
 30
0.0
  9
$PUCSBASE
  2

  9
$PUCSNAME
  2

  9
$PUCSORG
 10
0.0
 20
0.0
 30
0.0
  9
$PUCSXDIR
 10
1.0
 20
0.0
 30
0.0
  9
$PUCSYDIR
 10
0.0
 20
1.0
 30
0.0
  9
$PUCSORTHOREF
  2

  9
$PUCSORTHOVIEW
 70
     0
  9
$PUCSORGTOP
 10
0.0
 20
0.0
 30
0.0
  9
$PUCSORGBOTTOM
 10
0.0
 20
0.0
 30
0.0
  9
$PUCSORGLEFT
 10
0.0
 20
0.0
 30
0.0
  9
$PUCSORGRIGHT
 10
0.0
 20
0.0
 30
0.0
  9
$PUCSORGFRONT
 10
0.0
 20
0.0
 30
0.0
  9
$PUCSORGBACK
 10
0.0
 20
0.0
 30
0.0
  9
$USERI1
 70
     0
  9
$USERI2
 70
     0
  9
$USERI3
 70
     0
  9
$USERI4
 70
     0
  9
$USERI5
 70
     0
  9
$USERR1
 40
0.0
  9
$USERR2
 40
0.0
  9
$USERR3
 40
0.0
  9
$USERR4
 40
0.0
  9
$USERR5
 40
0.0
  9
$WORLDVIEW
 70
     1
  9
$SHADEDGE
 70
     3
  9
$SHADEDIF
 70
    70
  9
$TILEMODE
 70
     1
  9
$MAXACTVP
 70
    64
  9
$PINSBASE
 10
0.0
 20
0.0
 30
0.0
  9
$PLIMCHECK
 70
     0
  9
$PEXTMIN
 10
1.000000000000000E+20
 20
1.000000000000000E+20
 30
1.000000000000000E+20
  9
$PEXTMAX
 10
-1.000000000000000E+20
 20
-1.000000000000000E+20
 30
-1.000000000000000E+20
  9
$PLIMMIN
 10
0.0
 20
0.0
  9
$PLIMMAX
 10
12.0
 20
9.0
  9
$UNITMODE
 70
     0
  9
$VISRETAIN
 70
     1
  9
$PLINEGEN
 70
     0
  9
$PSLTSCALE
 70
     1
  9
$TREEDEPTH
 70
  3020
  9
$CMLSTYLE
  2
Standard
  9
$CMLJUST
 70
     0
  9
$CMLSCALE
 40
1.0
  9
$PROXYGRAPHICS
 70
     1
  9
$MEASUREMENT
 70
     0
  9
$CELWEIGHT
370
    -1
  9
$ENDCAPS
280
     0
  9
$JOINSTYLE
280
     0
  9
$LWDISPLAY
290
     1
  9
$INSUNITS
 70
     5
  9
$HYPERLINKBASE
  1

  9
$STYLESHEET
  1

  9
$XEDIT
290
     1
  9
$CEPSNTYPE
380
     0
  9
$PSTYLEMODE
290
     1
  9
$FINGERPRINTGUID
  2
{9C989A09-B644-0046-A723-34679DA1D9AA}
  9
$VERSIONGUID
  2
{507A6FF3-9875-F248-B152-984C30AD98F2}
  9
$EXTNAMES
290
     1
  9
$PSVPSCALE
 40
0.0
  9
$OLESTARTUP
290
     0
  9
$SORTENTS
280
   127
  9
$INDEXCTL
280
     0
  9
$HIDETEXT
280
     1
  9
$XCLIPFRAME
280
     2
  9
$HALOGAP
280
     0
  9
$OBSCOLOR
 70
   257
  9
$OBSLTYPE
280
     0
  9
$INTERSECTIONDISPLAY
280
     0
  9
$INTERSECTIONCOLOR
 70
   257
  9
$DIMASSOC
280
     2
  9
$PROJECTNAME
  1

  9
$CAMERADISPLAY
290
     0
  9
$LENSLENGTH
 40
50.0
  9
$CAMERAHEIGHT
 40
0.0
  9
$STEPSPERSEC
 40
2.0
  9
$STEPSIZE
 40
6.0
  9
$3DDWFPREC
 40
2.0
  9
$PSOLWIDTH
 40
0.25
  9
$PSOLHEIGHT
 40
4.0
  9
$LOFTANG1
 40
1.570796326794896
  9
$LOFTANG2
 40
1.570796326794896
  9
$LOFTMAG1
 40
0.0
  9
$LOFTMAG2
 40
0.0
  9
$LOFTPARAM
 70
     7
  9
$LOFTNORMALS
280
     1
  9
$LATITUDE
 40
37.795
  9
$LONGITUDE
 40
-122.394
  9
$NORTHDIRECTION
 40
0.0
  9
$TIMEZONE
 70
 -8000
  9
$LIGHTGLYPHDISPLAY
280
     1
  9
$TILEMODELIGHTSYNCH
280
     1
  9
$CMATERIAL
347
11
  9
$SOLIDHIST
280
     0
  9
$SHOWHIST
280
     1
  9
$DWFFRAME
280
     2
  9
$DGNFRAME
280
     0
  9
$REALWORLDSCALE
290
     1
  9
$INTERFERECOLOR
 62
     1
  9
$INTERFEREOBJVS
345
33
  9
$INTERFEREVPVS
346
30
  9
$CSHADOW
280
     0
  9
$SHADOWPLANELOCATION
 40
0.0
  0
ENDSEC
  0
SECTION
  2
CLASSES
  0
CLASS
  1
ACDBDICTIONARYWDFLT
  2
AcDbDictionaryWithDefault
  3
ObjectDBX Classes
 90
        0
 91
        1
280
     0
281
     0
  0
CLASS
  1
MATERIAL
  2
AcDbMaterial
  3
ObjectDBX Classes
 90
     1153
 91
        3
280
     0
281
     0
  0
CLASS
  1
VISUALSTYLE
  2
AcDbVisualStyle
  3
ObjectDBX Classes
 90
     4095
 91
       24
280
     0
281
     0
  0
CLASS
  1
SCALE
  2
AcDbScale
  3
ObjectDBX Classes
 90
     1153
 91
       17
280
     0
281
     0
  0
CLASS
  1
TABLESTYLE
  2
AcDbTableStyle
  3
ObjectDBX Classes
 90
     4095
 91
        1
280
     0
281
     0
  0
CLASS
  1
MLEADERSTYLE
  2
AcDbMLeaderStyle
  3
ACDB_MLEADERSTYLE_CLASS
 90
     4095
 91
        1
280
     0
281
     0
  0
CLASS
  1
ACDBSECTIONVIEWSTYLE
  2
AcDbSectionViewStyle
  3
ObjectDBX Classes
 90
     1025
 91
        1
280
     0
281
     0
  0
CLASS
  1
ACDBDETAILVIEWSTYLE
  2
AcDbDetailViewStyle
  3
ObjectDBX Classes
 90
     1025
 91
        1
280
     0
281
     0
  0
CLASS
  1
DICTIONARYVAR
  2
AcDbDictionaryVar
  3
ObjectDBX Classes
 90
        0
 91
        6
280
     0
281
     0
  0
CLASS
  1
CELLSTYLEMAP
  2
AcDbCellStyleMap
  3
ObjectDBX Classes
 90
     1152
 91
        2
280
     0
281
     0
  0
CLASS
  1
SORTENTSTABLE
  2
AcDbSortentsTable
  3
ObjectDBX Classes
 90
        0
 91
        1
280
     0
281
     0
  0
ENDSEC
  0
SECTION
  2
TABLES
  0
TABLE
  2
VPORT
  5
8
330
0
100
AcDbSymbolTable
 70
     1
  0
VPORT
  5
57
330
8
100
AcDbSymbolTableRecord
100
AcDbViewportTableRecord
  2
*Active
 70
     0
 10
0.0
 20
0.0
 11
1.0
 21
1.0
 12
3.063853832271281
 22
-2.501800823195051
 13
0.0
 23
0.0
 14
1.0
 24
1.0
 15
0.0
 25
0.0
 16
0.0
 26
0.0
 36
1.0
 17
4.999999998749408
 27
-4.999999998749408
 37
0.0
 40
18.58833798231407
 41
2.283154121863799
 42
50.0
 43
0.0
 44
0.0
 50
0.0
 51
0.0
 71
     0
 72
   100
 73
     1
 74
     0
 75
     1
 76
     0
 77
     0
 78
     0
281
     0
 65
     1
110
0.0
120
0.0
130
0.0
111
1.0
121
0.0
131
0.0
112
0.0
122
1.0
132
0.0
 79
     0
146
0.0
348
2F
 60
     3
 61
     5
292
     1
282
     1
141
0.0
142
0.0
 63
   250
421
  3355443
1001
ACAD_NAV_VCDISPLAY
1070
     3
  0
ENDTAB
  0
TABLE
  2
LTYPE
  5
5
330
0
100
AcDbSymbolTable
 70
     1
  0
LTYPE
  5
5B
330
5
100
AcDbSymbolTableRecord
100
AcDbLinetypeTableRecord
  2
ByBlock
 70
     0
  3

 72
    65
 73
     0
 40
0.0
  0
LTYPE
  5
5C
330
5
100
AcDbSymbolTableRecord
100
AcDbLinetypeTableRecord
  2
ByLayer
 70
     0
  3

 72
    65
 73
     0
 40
0.0
  0
LTYPE
  5
5D
330
5
100
AcDbSymbolTableRecord
100
AcDbLinetypeTableRecord
  2
Continuous
 70
     0
  3
Solid line
 72
    65
 73
     0
 40
0.0
  0
ENDTAB
  0
TABLE
  2
LAYER
  5
2
102
{ACAD_XDICTIONARY
360
187
102
}
330
0
100
AcDbSymbolTable
 70
     3
  0
LAYER
  5
54
330
2
100
AcDbSymbolTableRecord
100
AcDbLayerTableRecord
  2
0
 70
     0
 62
     7
  6
Continuous
370
    -3
390
F
347
21
348
0
  0
LAYER
  5
78
330
2
100
AcDbSymbolTableRecord
100
AcDbLayerTableRecord
  2
Livello 1
 70
     0
 62
     7
  6
Continuous
370
     0
390
F
347
21
348
0
  0
LAYER
  5
111
330
2
100
AcDbSymbolTableRecord
100
AcDbLayerTableRecord
  2
Livello 2
 70
     0
 62
     7
  6
Continuous
370
     0
390
F
347
21
348
0
  0
ENDTAB
  0
TABLE
  2
STYLE
  5
3
330
0
100
AcDbSymbolTable
 70
     2
  0
STYLE
  5
55
330
3
100
AcDbSymbolTableRecord
100
AcDbTextStyleTableRecord
  2
Standard
 70
     0
 40
0.0
 41
1.0
 50
0.0
 71
     0
 42
0.2
  3
txt
  4

  0
STYLE
  5
5A
330
3
100
AcDbSymbolTableRecord
100
AcDbTextStyleTableRecord
  2
Annotative
 70
     0
 40
0.0
 41
1.0
 50
0.0
 71
     0
 42
0.2
  3
txt
  4

1001
AcadAnnotative
1000
AnnotativeData
1002
{
1070
     1
1070
     1
1002
}
  0
ENDTAB
  0
TABLE
  2
VIEW
  5
6
330
0
100
AcDbSymbolTable
 70
     0
  0
ENDTAB
  0
TABLE
  2
UCS
  5
7
330
0
100
AcDbSymbolTable
 70
     0
  0
ENDTAB
  0
TABLE
  2
APPID
  5
9
330
0
100
AcDbSymbolTable
 70
     7
  0
APPID
  5
56
330
9
100
AcDbSymbolTableRecord
100
AcDbRegAppTableRecord
  2
ACAD
 70
     0
  0
APPID
  5
5E
330
9
100
AcDbSymbolTableRecord
100
AcDbRegAppTableRecord
  2
AcadAnnotative
 70
     0
  0
APPID
  5
184
330
9
100
AcDbSymbolTableRecord
100
AcDbRegAppTableRecord
  2
ACAD_DSTYLE_DIMJAG
 70
     0
  0
APPID
  5
185
330
9
100
AcDbSymbolTableRecord
100
AcDbRegAppTableRecord
  2
ACAD_DSTYLE_DIMTALN
 70
     0
  0
APPID
  5
186
330
9
100
AcDbSymbolTableRecord
100
AcDbRegAppTableRecord
  2
ACAD_NAV_VCDISPLAY
 70
     0
  0
APPID
  5
190
330
9
100
AcDbSymbolTableRecord
100
AcDbRegAppTableRecord
  2
ACAD_EXEMPT_FROM_CAD_STANDARDS
 70
     0
  0
APPID
  5
1D3
330
9
100
AcDbSymbolTableRecord
100
AcDbRegAppTableRecord
  2
ACAD_MLEADERVER
 70
     0
  0
ENDTAB
  0
TABLE
  2
DIMSTYLE
  5
A
330
0
100
AcDbSymbolTable
 70
     3
100
AcDbDimStyleTable
 71
     0
  0
DIMSTYLE
105
58
330
A
100
AcDbSymbolTableRecord
100
AcDbDimStyleTableRecord
  2
Standard
 70
     0
340
55
  0
DIMSTYLE
105
59
330
A
100
AcDbSymbolTableRecord
100
AcDbDimStyleTableRecord
  2
Annotative
 70
     0
340
55
1001
AcadAnnotative
1000
AnnotativeData
1002
{
1070
     1
1070
     1
1002
}
  0
DIMSTYLE
105
183
330
A
100
AcDbSymbolTableRecord
100
AcDbDimStyleTableRecord
  2
Annotativa
 70
     0
 40
0.0
340
55
1001
AcadAnnotative
1000
AnnotativeData
1002
{
1070
     1
1070
     1
1002
}
1001
ACAD_DSTYLE_DIMJAG
1070
   388
1040
1.5
1001
ACAD_DSTYLE_DIMTALN
1070
   392
1070
     0
  0
ENDTAB
  0
TABLE
  2
BLOCK_RECORD
  5
1
330
0
100
AcDbSymbolTable
 70
     8
  0
BLOCK_RECORD
  5
70
102
{ACAD_XDICTIONARY
360
21C
102
}
330
1
100
AcDbSymbolTableRecord
100
AcDbBlockTableRecord
  2
*Model_Space
340
73
 70
     0
280
     1
281
     0
  0
BLOCK_RECORD
  5
6C
330
1
100
AcDbSymbolTableRecord
100
AcDbBlockTableRecord
  2
*Paper_Space
340
6F
 70
     0
280
     1
281
     0
  0
BLOCK_RECORD
  5
74
330
1
100
AcDbSymbolTableRecord
100
AcDbBlockTableRecord
  2
*Paper_Space0
340
77
 70
     0
280
     1
281
     0
  0
BLOCK_RECORD
  5
F6
330
1
100
AcDbSymbolTableRecord
100
AcDbBlockTableRecord
  2
Block_0
340
0
 70
     0
280
     1
281
     0
  0
BLOCK_RECORD
  5
113
330
1
100
AcDbSymbolTableRecord
100
AcDbBlockTableRecord
  2
Block_1
340
0
 70
     0
280
     1
281
     0
  0
BLOCK_RECORD
  5
117
330
1
100
AcDbSymbolTableRecord
100
AcDbBlockTableRecord
  2
Block_2
340
0
102
{BLKREFS
331
118
102
}
 70
     0
280
     1
281
     0
  0
BLOCK_RECORD
  5
124
330
1
100
AcDbSymbolTableRecord
100
AcDbBlockTableRecord
  2
Block_3
340
0
 70
     0
280
     1
281
     0
  0
BLOCK_RECORD
  5
128
330
1
100
AcDbSymbolTableRecord
100
AcDbBlockTableRecord
  2
Block_4
340
0
102
{BLKREFS
331
129
102
}
 70
     0
280
     1
281
     0
  0
BLOCK_RECORD
  5
132
330
1
100
AcDbSymbolTableRecord
100
AcDbBlockTableRecord
  2
Block_5
340
0
 70
     0
280
     1
281
     0
  0
BLOCK_RECORD
  5
136
330
1
100
AcDbSymbolTableRecord
100
AcDbBlockTableRecord
  2
Block_6
340
0
102
{BLKREFS
331
137
102
}
 70
     0
280
     1
281
     0
  0
ENDTAB
  0
ENDSEC
  0
SECTION
  2
BLOCKS
  0
BLOCK
  5
71
330
70
100
AcDbEntity
  8
0
100
AcDbBlockBegin
  2
*Model_Space
 70
     0
 10
0.0
 20
0.0
 30
0.0
  3
*Model_Space
  1

  0
ENDBLK
  5
72
330
70
100
AcDbEntity
  8
0
100
AcDbBlockEnd
  0
BLOCK
  5
6D
330
6C
100
AcDbEntity
 67
     1
  8
0
100
AcDbBlockBegin
  2
*Paper_Space
 70
     0
 10
0.0
 20
0.0
 30
0.0
  3
*Paper_Space
  1

  0
ENDBLK
  5
6E
330
6C
100
AcDbEntity
 67
     1
  8
0
100
AcDbBlockEnd
  0
BLOCK
  5
75
330
74
100
AcDbEntity
 67
     1
  8
0
100
AcDbBlockBegin
  2
*Paper_Space0
 70
     0
 10
0.0
 20
0.0
 30
0.0
  3
*Paper_Space0
  1

  0
ENDBLK
  5
76
330
74
100
AcDbEntity
 67
     1
  8
0
100
AcDbBlockEnd
  0
BLOCK
  5
F8
330
F6
100
AcDbEntity
  8
0
100
AcDbBlockBegin
  2
Block_0
 70
     0
 10
0.0
 20
0.0
 30
0.0
  3
Block_0
  1

  0
SPLINE
  5
FA
330
F6
100
AcDbEntity
  8
Livello 1
 62
    18
420
    65793
370
     9
100
AcDbSpline
210
0.0
220
0.0
230
1.0
 70
     8
 71
     3
 72
    17
 73
    13
 74
     0
 42
0.000000001
 43
0.0000000001
 40
0.0
 40
0.0
 40
0.0
 40
0.0
 40
1.0
 40
1.0
 40
1.0
 40
2.0
 40
2.0
 40
2.0
 40
3.0
 40
3.0
 40
3.0
 40
4.0
 40
4.0
 40
4.0
 40
4.0
 10
5.156846910581542
 20
-6.184781173634807
 30
0.0
 10
5.389335579412978
 20
-6.135277037646652
 30
0.0
 10
5.537673852240891
 20
-5.906676702050752
 30
0.0
 10
5.488169716252417
 20
-5.674188033218737
 30
0.0
 10
5.438665580264326
 20
-5.441699364387556
 30
0.0
 10
5.21006524466836
 20
-5.293361091559193
 30
0.0
 10
4.977576575836826
 20
-5.342865227548119
 30
0.0
 10
4.745087907005196
 20
-5.392369363536273
 30
0.0
 10
4.596749634177347
 20
-5.620969699132174
 30
0.0
 10
4.646253770165403
 20
-5.853458367963357
 30
0.0
 10
4.681627279858338
 20
-6.019584692890892
 30
0.0
 10
4.811394357697377
 20
-6.149370583659638
 30
0.0
 10
4.977515552990531
 20
-6.184768175331774
 30
0.0
  0
SPLINE
  5
FB
330
F6
100
AcDbEntity
  8
Livello 1
 62
    18
420
    65793
370
     9
100
AcDbSpline
210
0.0
220
0.0
230
1.0
 70
     9
 71
     3
 72
    23
 73
    19
 74
     0
 42
0.000000001
 43
0.0000000001
 40
0.0
 40
0.0
 40
0.0
 40
0.0
 40
1.0
 40
1.0
 40
1.0
 40
2.0
 40
2.0
 40
2.0
 40
3.0
 40
3.0
 40
3.0
 40
4.0
 40
4.0
 40
4.0
 40
5.0
 40
5.0
 40
5.0
 40
6.0
 40
6.0
 40
6.0
 40
6.0
 10
5.149673656277966
 20
-6.191941429635285
 30
0.0
 10
5.149673656277966
 20
-6.191941429635285
 30
0.0
 10
4.984688807293721
 20
-6.191941429635285
 30
0.0
 10
4.984688807293721
 20
-6.191941429635285
 30
0.0
 10
4.980727128335082
 20
-6.191941429635285
 30
0.0
 10
4.977515552989633
 20
-6.188729854290222
 30
0.0
 10
4.977515552990146
 20
-6.184768175331774
 30
0.0
 10
4.977515552990146
 20
-6.184768175331774
 30
0.0
 10
4.977515552990146
 20
-6.184768175331774
 30
0.0
 10
4.977515552990146
 20
-6.184768175331774
 30
0.0
 10
4.977515552990146
 20
-6.184768175331774
 30
0.0
 10
5.156846910582054
 20
-6.184768175331774
 30
0.0
 10
5.156846910582054
 20
-6.184768175331774
 30
0.0
 10
5.156846910582054
 20
-6.184768175331774
 30
0.0
 10
5.156846910582054
 20
-6.184768175331774
 30
0.0
 10
5.156846910582054
 20
-6.184768175331774
 30
0.0
 10
5.156846910582054
 20
-6.188729854290222
 30
0.0
 10
5.153635335236862
 20
-6.191941429635285
 30
0.0
 10
5.149673656277966
 20
-6.191941429635285
 30
0.0
  0
ENDBLK
  5
F9
330
F6
100
AcDbEntity
  8
0
100
AcDbBlockEnd
  0
BLOCK
  5
115
330
113
100
AcDbEntity
  8
0
100
AcDbBlockBegin
  2
Block_1
 70
     0
 10
0.0
 20
0.0
 30
0.0
  3
Block_1
  1

  0
INSERT
  5
118
330
113
100
AcDbEntity
  8
Livello 2
100
AcDbBlockReference
  2
Block_2
 10
0.0
 20
0.0
 30
0.0
  0
ENDBLK
  5
116
330
113
100
AcDbEntity
  8
0
100
AcDbBlockEnd
  0
BLOCK
  5
119
330
117
100
AcDbEntity
  8
0
100
AcDbBlockBegin
  2
Block_2
 70
     0
 10
0.0
 20
0.0
 30
0.0
  3
Block_2
  1

  0
SPLINE
  5
11B
330
117
100
AcDbEntity
  8
Livello 2
100
AcDbSpline
210
0.0
220
0.0
230
1.0
 70
    11
 71
     3
 72
    29
 73
    25
 74
     0
 42
0.000000001
 43
0.0000000001
 40
0.0
 40
0.0
 40
0.0
 40
0.0
 40
1.0
 40
1.0
 40
1.0
 40
2.0
 40
2.0
 40
2.0
 40
3.0
 40
3.0
 40
3.0
 40
4.0
 40
4.0
 40
4.0
 40
5.0
 40
5.0
 40
5.0
 40
6.0
 40
6.0
 40
6.0
 40
7.0
 40
7.0
 40
7.0
 40
8.0
 40
8.0
 40
8.0
 40
8.0
 10
4.736575655282869
 20
-8.052945147726346
 30
0.0
 10
4.736575655282869
 20
-8.052945147726346
 30
0.0
 10
4.735731606888981
 20
-8.052945147726346
 30
0.0
 10
4.735731606888981
 20
-8.052945147726346
 30
0.0
 10
4.735731606888981
 20
-8.052945147726346
 30
0.0
 10
4.687913681553713
 20
-8.078748912910866
 30
0.0
 10
4.687913681553713
 20
-8.078748912910866
 30
0.0
 10
4.687913681553713
 20
-8.078748912910866
 30
0.0
 10
4.68071343198954
 20
-8.050430228022113
 30
0.0
 10
4.68071343198954
 20
-8.050430228022113
 30
0.0
 10
4.68071343198954
 20
-8.050430228022113
 30
0.0
 10
4.740795897252297
 20
-8.01825303618988
 30
0.0
 10
4.740795897252297
 20
-8.01825303618988
 30
0.0
 10
4.740795897252297
 20
-8.01825303618988
 30
0.0
 10
4.772542452148877
 20
-8.01825303618988
 30
0.0
 10
4.772542452148877
 20
-8.01825303618988
 30
0.0
 10
4.772542452148877
 20
-8.01825303618988
 30
0.0
 10
4.772542452148877
 20
-8.293275008777374
 30
0.0
 10
4.772542452148877
 20
-8.293275008777374
 30
0.0
 10
4.772542452148877
 20
-8.293275008777374
 30
0.0
 10
4.736575655282869
 20
-8.293275008777374
 30
0.0
 10
4.736575655282869
 20
-8.293275008777374
 30
0.0
 10
4.736575655282869
 20
-8.293275008777374
 30
0.0
 10
4.736575655282869
 20
-8.052945147726346
 30
0.0
 10
4.736575655282869
 20
-8.052945147726346
 30
0.0
  0
HATCH
  5
11C
330
117
100
AcDbEntity
  8
Livello 2
 62
   250
420
  1907995
440
 33554687
100
AcDbHatch
 10
0.0
 20
0.0
 30
0.0
210
0.0
220
0.0
230
1.0
  2
SOLID
 70
     1
 71
     1
 91
        1
 92
        1
 93
        1
 72
     4
 94
        3
 73
     0
 74
     0
 95
       29
 96
       25
 40
0.0
 40
0.0
 40
0.0
 40
0.0
 40
1.0
 40
1.0
 40
1.0
 40
2.0
 40
2.0
 40
2.0
 40
3.0
 40
3.0
 40
3.0
 40
4.0
 40
4.0
 40
4.0
 40
5.0
 40
5.0
 40
5.0
 40
6.0
 40
6.0
 40
6.0
 40
7.0
 40
7.0
 40
7.0
 40
8.0
 40
8.0
 40
8.0
 40
8.0
 10
4.736575655282869
 20
-8.052945147726346
 10
4.736575655282869
 20
-8.052945147726346
 10
4.735731606888981
 20
-8.052945147726346
 10
4.735731606888981
 20
-8.052945147726346
 10
4.735731606888981
 20
-8.052945147726346
 10
4.687913681553713
 20
-8.078748912910866
 10
4.687913681553713
 20
-8.078748912910866
 10
4.687913681553713
 20
-8.078748912910866
 10
4.68071343198954
 20
-8.050430228022113
 10
4.68071343198954
 20
-8.050430228022113
 10
4.68071343198954
 20
-8.050430228022113
 10
4.740795897252297
 20
-8.01825303618988
 10
4.740795897252297
 20
-8.01825303618988
 10
4.740795897252297
 20
-8.01825303618988
 10
4.772542452148877
 20
-8.01825303618988
 10
4.772542452148877
 20
-8.01825303618988
 10
4.772542452148877
 20
-8.01825303618988
 10
4.772542452148877
 20
-8.293275008777374
 10
4.772542452148877
 20
-8.293275008777374
 10
4.772542452148877
 20
-8.293275008777374
 10
4.736575655282869
 20
-8.293275008777374
 10
4.736575655282869
 20
-8.293275008777374
 10
4.736575655282869
 20
-8.293275008777374
 10
4.736575655282869
 20
-8.052945147726346
 10
4.736575655282869
 20
-8.052945147726346
 97
        0
 97
        1
330
11B
 75
     2
 76
     1
 98
        1
 10
0.0
 20
0.0
450
        0
451
        0
460
0.0
461
0.0
452
        0
462
0.0
453
        0
470

  0
SPLINE
  5
11D
330
117
100
AcDbEntity
  8
Livello 2
100
AcDbSpline
210
0.0
220
0.0
230
1.0
 70
    11
 71
     3
 72
    29
 73
    25
 74
     0
 42
0.000000001
 43
0.0000000001
 40
0.0
 40
0.0
 40
0.0
 40
0.0
 40
1.0
 40
1.0
 40
1.0
 40
2.0
 40
2.0
 40
2.0
 40
3.0
 40
3.0
 40
3.0
 40
4.0
 40
4.0
 40
4.0
 40
5.0
 40
5.0
 40
5.0
 40
6.0
 40
6.0
 40
6.0
 40
7.0
 40
7.0
 40
7.0
 40
8.0
 40
8.0
 40
8.0
 40
8.0
 10
4.953737249195593
 20
-8.052945147726346
 30
0.0
 10
4.953737249195593
 20
-8.052945147726346
 30
0.0
 10
4.95287597532428
 20
-8.052945147726346
 30
0.0
 10
4.95287597532428
 20
-8.052945147726346
 30
0.0
 10
4.95287597532428
 20
-8.052945147726346
 30
0.0
 10
4.905092500943863
 20
-8.078748912910866
 30
0.0
 10
4.905092500943863
 20
-8.078748912910866
 30
0.0
 10
4.905092500943863
 20
-8.078748912910866
 30
0.0
 10
4.89789225137969
 20
-8.050430228022113
 30
0.0
 10
4.89789225137969
 20
-8.050430228022113
 30
0.0
 10
4.89789225137969
 20
-8.050430228022113
 30
0.0
 10
4.95797471664245
 20
-8.01825303618988
 30
0.0
 10
4.95797471664245
 20
-8.01825303618988
 30
0.0
 10
4.95797471664245
 20
-8.01825303618988
 30
0.0
 10
4.989704046061601
 20
-8.01825303618988
 30
0.0
 10
4.989704046061601
 20
-8.01825303618988
 30
0.0
 10
4.989704046061601
 20
-8.01825303618988
 30
0.0
 10
4.989704046061601
 20
-8.293275008777374
 30
0.0
 10
4.989704046061601
 20
-8.293275008777374
 30
0.0
 10
4.989704046061601
 20
-8.293275008777374
 30
0.0
 10
4.953737249195593
 20
-8.293275008777374
 30
0.0
 10
4.953737249195593
 20
-8.293275008777374
 30
0.0
 10
4.953737249195593
 20
-8.293275008777374
 30
0.0
 10
4.953737249195593
 20
-8.052945147726346
 30
0.0
 10
4.953737249195593
 20
-8.052945147726346
 30
0.0
  0
HATCH
  5
11E
330
117
100
AcDbEntity
  8
Livello 2
 62
   250
420
  1907995
440
 33554687
100
AcDbHatch
 10
0.0
 20
0.0
 30
0.0
210
0.0
220
0.0
230
1.0
  2
SOLID
 70
     1
 71
     1
 91
        1
 92
        1
 93
        1
 72
     4
 94
        3
 73
     0
 74
     0
 95
       29
 96
       25
 40
0.0
 40
0.0
 40
0.0
 40
0.0
 40
1.0
 40
1.0
 40
1.0
 40
2.0
 40
2.0
 40
2.0
 40
3.0
 40
3.0
 40
3.0
 40
4.0
 40
4.0
 40
4.0
 40
5.0
 40
5.0
 40
5.0
 40
6.0
 40
6.0
 40
6.0
 40
7.0
 40
7.0
 40
7.0
 40
8.0
 40
8.0
 40
8.0
 40
8.0
 10
4.953737249195593
 20
-8.052945147726346
 10
4.953737249195593
 20
-8.052945147726346
 10
4.95287597532428
 20
-8.052945147726346
 10
4.95287597532428
 20
-8.052945147726346
 10
4.95287597532428
 20
-8.052945147726346
 10
4.905092500943863
 20
-8.078748912910866
 10
4.905092500943863
 20
-8.078748912910866
 10
4.905092500943863
 20
-8.078748912910866
 10
4.89789225137969
 20
-8.050430228022113
 10
4.89789225137969
 20
-8.050430228022113
 10
4.89789225137969
 20
-8.050430228022113
 10
4.95797471664245
 20
-8.01825303618988
 10
4.95797471664245
 20
-8.01825303618988
 10
4.95797471664245
 20
-8.01825303618988
 10
4.989704046061601
 20
-8.01825303618988
 10
4.989704046061601
 20
-8.01825303618988
 10
4.989704046061601
 20
-8.01825303618988
 10
4.989704046061601
 20
-8.293275008777374
 10
4.989704046061601
 20
-8.293275008777374
 10
4.989704046061601
 20
-8.293275008777374
 10
4.953737249195593
 20
-8.293275008777374
 10
4.953737249195593
 20
-8.293275008777374
 10
4.953737249195593
 20
-8.293275008777374
 10
4.953737249195593
 20
-8.052945147726346
 10
4.953737249195593
 20
-8.052945147726346
 97
        0
 97
        1
330
11D
 75
     2
 76
     1
 98
        1
 10
0.0
 20
0.0
450
        0
451
        0
460
0.0
461
0.0
452
        0
462
0.0
453
        0
470

  0
SPLINE
  5
11F
330
117
100
AcDbEntity
  8
Livello 2
100
AcDbSpline
210
0.0
220
0.0
230
1.0
 70
    11
 71
     3
 72
    50
 73
    46
 74
     0
 42
0.000000001
 43
0.0000000001
 40
0.0
 40
0.0
 40
0.0
 40
0.0
 40
1.0
 40
1.0
 40
1.0
 40
2.0
 40
2.0
 40
2.0
 40
3.0
 40
3.0
 40
3.0
 40
4.0
 40
4.0
 40
4.0
 40
5.0
 40
5.0
 40
5.0
 40
6.0
 40
6.0
 40
6.0
 40
7.0
 40
7.0
 40
7.0
 40
8.0
 40
8.0
 40
8.0
 40
9.0
 40
9.0
 40
9.0
 40
10.0
 40
10.0
 40
10.0
 40
11.0
 40
11.0
 40
11.0
 40
12.0
 40
12.0
 40
12.0
 40
13.0
 40
13.0
 40
13.0
 40
14.0
 40
14.0
 40
14.0
 40
15.0
 40
15.0
 40
15.0
 40
15.0
 10
5.254252928373936
 20
-8.049568954150798
 30
0.0
 10
5.254252928373936
 20
-8.049568954150798
 30
0.0
 10
5.149315319893226
 20
-8.049568954150798
 30
0.0
 10
5.149315319893226
 20
-8.049568954150798
 30
0.0
 10
5.149315319893226
 20
-8.049568954150798
 30
0.0
 10
5.138738876753508
 20
-8.120227862553276
 30
0.0
 10
5.138738876753508
 20
-8.120227862553276
 30
0.0
 10
5.145077852446369
 20
-8.119366588681963
 30
0.0
 10
5.151003416680998
 20
-8.118539765765502
 30
0.0
 10
5.161166448362485
 20
-8.118539765765502
 30
0.0
 10
5.18231933464192
 20
-8.118539765765502
 30
0.0
 10
5.203472220921353
 20
-8.123190644670588
 30
0.0
 10
5.22038763975393
 20
-8.133353676352077
 30
0.0
 10
5.241988388446445
 20
-8.145618216279567
 30
0.0
 10
5.259730630195483
 20
-8.169320473218084
 30
0.0
 10
5.259730630195483
 20
-8.204012584754551
 30
0.0
 10
5.259730630195483
 20
-8.257721623369597
 30
0.0
 10
5.217011446178386
 20
-8.29792588768246
 30
0.0
 10
5.157342392373858
 20
-8.29792588768246
 30
0.0
 10
5.127301159742478
 20
-8.29792588768246
 30
0.0
 10
5.101945256971038
 20
-8.289450952788747
 30
0.0
 10
5.088819443172238
 20
-8.281010468849883
 30
0.0
 10
5.088819443172238
 20
-8.281010468849883
 30
0.0
 10
5.098121200982413
 20
-8.252657333006277
 30
0.0
 10
5.098121200982413
 20
-8.252657333006277
 30
0.0
 10
5.109558917993441
 20
-8.259444171112221
 30
0.0
 10
5.131952038647566
 20
-8.267884655051084
 30
0.0
 10
5.156928980915628
 20
-8.267884655051084
 30
0.0
 10
5.192034503910323
 20
-8.267884655051084
 30
0.0
 10
5.222075736541702
 20
-8.245043671983877
 30
0.0
 10
5.222075736541702
 20
-8.208215601246557
 30
0.0
 10
5.221662325083471
 20
-8.17269666679363
 30
0.0
 10
5.197960068144952
 20
-8.147306313067337
 30
0.0
 10
5.142976344200365
 20
-8.147306313067337
 30
0.0
 10
5.127301159742478
 20
-8.147306313067337
 30
0.0
 10
5.11503661981499
 20
-8.148994409855111
 30
0.0
 10
5.104873588133503
 20
-8.150269095184652
 30
0.0
 10
5.104873588133503
 20
-8.150269095184652
 30
0.0
 10
5.122650280837391
 20
-8.01825303618988
 30
0.0
 10
5.122650280837391
 20
-8.01825303618988
 30
0.0
 10
5.122650280837391
 20
-8.01825303618988
 30
0.0
 10
5.254252928373936
 20
-8.01825303618988
 30
0.0
 10
5.254252928373936
 20
-8.01825303618988
 30
0.0
 10
5.254252928373936
 20
-8.01825303618988
 30
0.0
 10
5.254252928373936
 20
-8.049568954150798
 30
0.0
 10
5.254252928373936
 20
-8.049568954150798
 30
0.0
  0
HATCH
  5
120
330
117
100
AcDbEntity
  8
Livello 2
 62
   250
420
  1907995
440
 33554687
100
AcDbHatch
 10
0.0
 20
0.0
 30
0.0
210
0.0
220
0.0
230
1.0
  2
SOLID
 70
     1
 71
     1
 91
        1
 92
        1
 93
        1
 72
     4
 94
        3
 73
     0
 74
     0
 95
       50
 96
       46
 40
0.0
 40
0.0
 40
0.0
 40
0.0
 40
1.0
 40
1.0
 40
1.0
 40
2.0
 40
2.0
 40
2.0
 40
3.0
 40
3.0
 40
3.0
 40
4.0
 40
4.0
 40
4.0
 40
5.0
 40
5.0
 40
5.0
 40
6.0
 40
6.0
 40
6.0
 40
7.0
 40
7.0
 40
7.0
 40
8.0
 40
8.0
 40
8.0
 40
9.0
 40
9.0
 40
9.0
 40
10.0
 40
10.0
 40
10.0
 40
11.0
 40
11.0
 40
11.0
 40
12.0
 40
12.0
 40
12.0
 40
13.0
 40
13.0
 40
13.0
 40
14.0
 40
14.0
 40
14.0
 40
15.0
 40
15.0
 40
15.0
 40
15.0
 10
5.254252928373936
 20
-8.049568954150798
 10
5.254252928373936
 20
-8.049568954150798
 10
5.149315319893226
 20
-8.049568954150798
 10
5.149315319893226
 20
-8.049568954150798
 10
5.149315319893226
 20
-8.049568954150798
 10
5.138738876753508
 20
-8.120227862553276
 10
5.138738876753508
 20
-8.120227862553276
 10
5.145077852446369
 20
-8.119366588681963
 10
5.151003416680998
 20
-8.118539765765502
 10
5.161166448362485
 20
-8.118539765765502
 10
5.18231933464192
 20
-8.118539765765502
 10
5.203472220921353
 20
-8.123190644670588
 10
5.22038763975393
 20
-8.133353676352077
 10
5.241988388446445
 20
-8.145618216279567
 10
5.259730630195483
 20
-8.169320473218084
 10
5.259730630195483
 20
-8.204012584754551
 10
5.259730630195483
 20
-8.257721623369597
 10
5.217011446178386
 20
-8.29792588768246
 10
5.157342392373858
 20
-8.29792588768246
 10
5.127301159742478
 20
-8.29792588768246
 10
5.101945256971038
 20
-8.289450952788747
 10
5.088819443172238
 20
-8.281010468849883
 10
5.088819443172238
 20
-8.281010468849883
 10
5.098121200982413
 20
-8.252657333006277
 10
5.098121200982413
 20
-8.252657333006277
 10
5.109558917993441
 20
-8.259444171112221
 10
5.131952038647566
 20
-8.267884655051084
 10
5.156928980915628
 20
-8.267884655051084
 10
5.192034503910323
 20
-8.267884655051084
 10
5.222075736541702
 20
-8.245043671983877
 10
5.222075736541702
 20
-8.208215601246557
 10
5.221662325083471
 20
-8.17269666679363
 10
5.197960068144952
 20
-8.147306313067337
 10
5.142976344200365
 20
-8.147306313067337
 10
5.127301159742478
 20
-8.147306313067337
 10
5.11503661981499
 20
-8.148994409855111
 10
5.104873588133503
 20
-8.150269095184652
 10
5.104873588133503
 20
-8.150269095184652
 10
5.122650280837391
 20
-8.01825303618988
 10
5.122650280837391
 20
-8.01825303618988
 10
5.122650280837391
 20
-8.01825303618988
 10
5.254252928373936
 20
-8.01825303618988
 10
5.254252928373936
 20
-8.01825303618988
 10
5.254252928373936
 20
-8.01825303618988
 10
5.254252928373936
 20
-8.049568954150798
 10
5.254252928373936
 20
-8.049568954150798
 97
        0
 97
        1
330
11F
 75
     2
 76
     1
 98
        1
 10
0.0
 20
0.0
450
        0
451
        0
460
0.0
461
0.0
452
        0
462
0.0
453
        0
470

  0
ENDBLK
  5
11A
330
117
100
AcDbEntity
  8
0
100
AcDbBlockEnd
  0
BLOCK
  5
126
330
124
100
AcDbEntity
  8
0
100
AcDbBlockBegin
  2
Block_3
 70
     0
 10
0.0
 20
0.0
 30
0.0
  3
Block_3
  1

  0
INSERT
  5
129
330
124
100
AcDbEntity
  8
Livello 2
100
AcDbBlockReference
  2
Block_4
 10
0.0
 20
0.0
 30
0.0
  0
ENDBLK
  5
127
330
124
100
AcDbEntity
  8
0
100
AcDbBlockEnd
  0
BLOCK
  5
12A
330
128
100
AcDbEntity
  8
0
100
AcDbBlockBegin
  2
Block_4
 70
     0
 10
0.0
 20
0.0
 30
0.0
  3
Block_4
  1

  0
SPLINE
  5
12C
330
128
100
AcDbEntity
  8
Livello 2
100
AcDbSpline
210
0.0
220
0.0
230
1.0
 70
    11
 71
     3
 72
    47
 73
    43
 74
     0
 42
0.000000001
 43
0.0000000001
 40
0.0
 40
0.0
 40
0.0
 40
0.0
 40
1.0
 40
1.0
 40
1.0
 40
2.0
 40
2.0
 40
2.0
 40
3.0
 40
3.0
 40
3.0
 40
4.0
 40
4.0
 40
4.0
 40
5.0
 40
5.0
 40
5.0
 40
6.0
 40
6.0
 40
6.0
 40
7.0
 40
7.0
 40
7.0
 40
8.0
 40
8.0
 40
8.0
 40
9.0
 40
9.0
 40
9.0
 40
10.0
 40
10.0
 40
10.0
 40
11.0
 40
11.0
 40
11.0
 40
12.0
 40
12.0
 40
12.0
 40
13.0
 40
13.0
 40
13.0
 40
14.0
 40
14.0
 40
14.0
 40
14.0
 10
9.456235891733163
 20
-7.815888127386304
 30
0.0
 10
9.456235891733163
 20
-7.815888127386304
 30
0.0
 10
9.456235891733163
 20
-7.793047144319097
 30
0.0
 10
9.456235891733163
 20
-7.793047144319097
 30
0.0
 10
9.456235891733163
 20
-7.793047144319097
 30
0.0
 10
9.485415850493223
 20
-7.76469400847549
 30
0.0
 10
9.485415850493223
 20
-7.76469400847549
 30
0.0
 10
9.555661347437473
 20
-7.697859156061642
 30
0.0
 10
9.587390676856623
 20
-7.662305770653867
 30
0.0
 10
9.587804088314854
 20
-7.620826821011457
 30
0.0
 10
9.587804088314854
 20
-7.592921547580932
 30
0.0
 10
9.57426486305782
 20
-7.567117782396412
 30
0.0
 10
9.533233775828495
 20
-7.567117782396412
 30
0.0
 10
9.508256833560434
 20
-7.567117782396412
 30
0.0
 10
9.487551809694084
 20
-7.579795733782132
 30
0.0
 10
9.474839407353512
 20
-7.590372176921848
 30
0.0
 10
9.474839407353512
 20
-7.590372176921848
 30
0.0
 10
9.462988278884251
 20
-7.564155000279097
 30
0.0
 10
9.462988278884251
 20
-7.564155000279097
 30
0.0
 10
9.482039656917683
 20
-7.548066404362982
 30
0.0
 10
9.509118107431747
 20
-7.536215275893722
 30
0.0
 10
9.540847436850896
 20
-7.536215275893722
 30
0.0
 10
9.600103079197195
 20
-7.536215275893722
 30
0.0
 10
9.625045570510403
 20
-7.576832951664817
 30
0.0
 10
9.625045570510403
 20
-7.616175942106369
 30
0.0
 10
9.625045570510403
 20
-7.666956649558954
 30
0.0
 10
9.588251950727936
 20
-7.70798773678828
 30
0.0
 10
9.530270993711178
 20
-7.763832734604179
 30
0.0
 10
9.530270993711178
 20
-7.763832734604179
 30
0.0
 10
9.508256833560434
 20
-7.784158797967152
 30
0.0
 10
9.508256833560434
 20
-7.784158797967152
 30
0.0
 10
9.508256833560434
 20
-7.784158797967152
 30
0.0
 10
9.508256833560434
 20
-7.784985620883612
 30
0.0
 10
9.508256833560434
 20
-7.784985620883612
 30
0.0
 10
9.508256833560434
 20
-7.784985620883612
 30
0.0
 10
9.631832408616347
 20
-7.784985620883612
 30
0.0
 10
9.631832408616347
 20
-7.784985620883612
 30
0.0
 10
9.631832408616347
 20
-7.784985620883612
 30
0.0
 10
9.631832408616347
 20
-7.815888127386304
 30
0.0
 10
9.631832408616347
 20
-7.815888127386304
 30
0.0
 10
9.631832408616347
 20
-7.815888127386304
 30
0.0
 10
9.456235891733163
 20
-7.815888127386304
 30
0.0
 10
9.456235891733163
 20
-7.815888127386304
 30
0.0
  0
HATCH
  5
12D
330
128
100
AcDbEntity
  8
Livello 2
 62
   250
420
  1907995
440
 33554687
100
AcDbHatch
 10
0.0
 20
0.0
 30
0.0
210
0.0
220
0.0
230
1.0
  2
SOLID
 70
     1
 71
     1
 91
        1
 92
        1
 93
        1
 72
     4
 94
        3
 73
     0
 74
     0
 95
       47
 96
       43
 40
0.0
 40
0.0
 40
0.0
 40
0.0
 40
1.0
 40
1.0
 40
1.0
 40
2.0
 40
2.0
 40
2.0
 40
3.0
 40
3.0
 40
3.0
 40
4.0
 40
4.0
 40
4.0
 40
5.0
 40
5.0
 40
5.0
 40
6.0
 40
6.0
 40
6.0
 40
7.0
 40
7.0
 40
7.0
 40
8.0
 40
8.0
 40
8.0
 40
9.0
 40
9.0
 40
9.0
 40
10.0
 40
10.0
 40
10.0
 40
11.0
 40
11.0
 40
11.0
 40
12.0
 40
12.0
 40
12.0
 40
13.0
 40
13.0
 40
13.0
 40
14.0
 40
14.0
 40
14.0
 40
14.0
 10
9.456235891733163
 20
-7.815888127386304
 10
9.456235891733163
 20
-7.815888127386304
 10
9.456235891733163
 20
-7.793047144319097
 10
9.456235891733163
 20
-7.793047144319097
 10
9.456235891733163
 20
-7.793047144319097
 10
9.485415850493223
 20
-7.76469400847549
 10
9.485415850493223
 20
-7.76469400847549
 10
9.555661347437473
 20
-7.697859156061642
 10
9.587390676856623
 20
-7.662305770653867
 10
9.587804088314854
 20
-7.620826821011457
 10
9.587804088314854
 20
-7.592921547580932
 10
9.57426486305782
 20
-7.567117782396412
 10
9.533233775828495
 20
-7.567117782396412
 10
9.508256833560434
 20
-7.567117782396412
 10
9.487551809694084
 20
-7.579795733782132
 10
9.474839407353512
 20
-7.590372176921848
 10
9.474839407353512
 20
-7.590372176921848
 10
9.462988278884251
 20
-7.564155000279097
 10
9.462988278884251
 20
-7.564155000279097
 10
9.482039656917683
 20
-7.548066404362982
 10
9.509118107431747
 20
-7.536215275893722
 10
9.540847436850896
 20
-7.536215275893722
 10
9.600103079197195
 20
-7.536215275893722
 10
9.625045570510403
 20
-7.576832951664817
 10
9.625045570510403
 20
-7.616175942106369
 10
9.625045570510403
 20
-7.666956649558954
 10
9.588251950727936
 20
-7.70798773678828
 10
9.530270993711178
 20
-7.763832734604179
 10
9.530270993711178
 20
-7.763832734604179
 10
9.508256833560434
 20
-7.784158797967152
 10
9.508256833560434
 20
-7.784158797967152
 10
9.508256833560434
 20
-7.784158797967152
 10
9.508256833560434
 20
-7.784985620883612
 10
9.508256833560434
 20
-7.784985620883612
 10
9.508256833560434
 20
-7.784985620883612
 10
9.631832408616347
 20
-7.784985620883612
 10
9.631832408616347
 20
-7.784985620883612
 10
9.631832408616347
 20
-7.784985620883612
 10
9.631832408616347
 20
-7.815888127386304
 10
9.631832408616347
 20
-7.815888127386304
 10
9.631832408616347
 20
-7.815888127386304
 10
9.456235891733163
 20
-7.815888127386304
 10
9.456235891733163
 20
-7.815888127386304
 97
        0
 97
        1
330
12C
 75
     2
 76
     1
 98
        1
 10
0.0
 20
0.0
450
        0
451
        0
460
0.0
461
0.0
452
        0
462
0.0
453
        0
470

  0
SPLINE
  5
12E
330
128
100
AcDbEntity
  8
Livello 2
100
AcDbSpline
210
0.0
220
0.0
230
1.0
 70
     9
 71
     3
 72
    17
 73
    13
 74
     0
 42
0.000000001
 43
0.0000000001
 40
0.0
 40
0.0
 40
0.0
 40
0.0
 40
1.0
 40
1.0
 40
1.0
 40
2.0
 40
2.0
 40
2.0
 40
3.0
 40
3.0
 40
3.0
 40
4.0
 40
4.0
 40
4.0
 40
4.0
 10
9.706832137330236
 20
-7.679634600944672
 30
0.0
 10
9.706832137330236
 20
-7.75115478321846
 30
0.0
 10
9.728811846526127
 20
-7.791772458989557
 30
0.0
 10
9.762677135146136
 20
-7.791772458989557
 30
0.0
 10
9.800745440258143
 20
-7.791772458989557
 30
0.0
 10
9.818935544420263
 20
-7.747330727229832
 30
0.0
 10
9.818935544420263
 20
-7.677119681240442
 30
0.0
 10
9.818935544420263
 20
-7.609423554955282
 30
0.0
 10
9.80160671412946
 20
-7.564981823195559
 30
0.0
 10
9.763090546604363
 20
-7.564981823195559
 30
0.0
 10
9.730499943313899
 20
-7.564981823195559
 30
0.0
 10
9.706832137330236
 20
-7.604772676050195
 30
0.0
 10
9.706832137330236
 20
-7.679634600944672
 30
0.0
  0
SPLINE
  5
12F
330
128
100
AcDbEntity
  8
Livello 2
100
AcDbSpline
210
0.0
220
0.0
230
1.0
 70
     9
 71
     3
 72
    17
 73
    13
 74
     0
 42
0.000000001
 43
0.0000000001
 40
0.0
 40
0.0
 40
0.0
 40
0.0
 40
1.0
 40
1.0
 40
1.0
 40
2.0
 40
2.0
 40
2.0
 40
3.0
 40
3.0
 40
3.0
 40
4.0
 40
4.0
 40
4.0
 40
4.0
 10
9.856177026615815
 20
-7.675431584452668
 30
0.0
 10
9.856177026615815
 20
-7.768931475922347
 30
0.0
 10
9.821484915079347
 20
-7.820539006291393
 30
0.0
 10
9.760541175945279
 20
-7.820539006291393
 30
0.0
 10
9.706832137330236
 20
-7.820539006291393
 30
0.0
 10
9.670417478051145
 20
-7.770206161251892
 30
0.0
 10
9.669590655134683
 20
-7.679221189486442
 30
0.0
 10
9.669590655134683
 20
-7.586995983346302
 30
0.0
 10
9.709347057034467
 20
-7.536215275893722
 30
0.0
 10
9.765192054850366
 20
-7.536215275893722
 30
0.0
 10
9.823173011867122
 20
-7.536215275893722
 30
0.0
 10
9.856177026615815
 20
-7.587822806262765
 30
0.0
 10
9.856177026615815
 20
-7.675431584452668
 30
0.0
  0
HATCH
  5
130
330
128
100
AcDbEntity
  8
Livello 2
 62
   250
420
  1907995
440
 33554687
100
AcDbHatch
 10
0.0
 20
0.0
 30
0.0
210
0.0
220
0.0
230
1.0
  2
SOLID
 70
     1
 71
     1
 91
        2
 92
        1
 93
        1
 72
     4
 94
        3
 73
     0
 74
     0
 95
       17
 96
       13
 40
0.0
 40
0.0
 40
0.0
 40
0.0
 40
1.0
 40
1.0
 40
1.0
 40
2.0
 40
2.0
 40
2.0
 40
3.0
 40
3.0
 40
3.0
 40
4.0
 40
4.0
 40
4.0
 40
4.0
 10
9.706832137330236
 20
-7.679634600944672
 10
9.706832137330236
 20
-7.75115478321846
 10
9.728811846526127
 20
-7.791772458989557
 10
9.762677135146136
 20
-7.791772458989557
 10
9.800745440258143
 20
-7.791772458989557
 10
9.818935544420263
 20
-7.747330727229832
 10
9.818935544420263
 20
-7.677119681240442
 10
9.818935544420263
 20
-7.609423554955282
 10
9.80160671412946
 20
-7.564981823195559
 10
9.763090546604363
 20
-7.564981823195559
 10
9.730499943313899
 20
-7.564981823195559
 10
9.706832137330236
 20
-7.604772676050195
 10
9.706832137330236
 20
-7.679634600944672
 97
        0
 97
        1
330
12E
 92
        1
 93
        1
 72
     4
 94
        3
 73
     0
 74
     0
 95
       17
 96
       13
 40
0.0
 40
0.0
 40
0.0
 40
0.0
 40
1.0
 40
1.0
 40
1.0
 40
2.0
 40
2.0
 40
2.0
 40
3.0
 40
3.0
 40
3.0
 40
4.0
 40
4.0
 40
4.0
 40
4.0
 10
9.856177026615815
 20
-7.675431584452668
 10
9.856177026615815
 20
-7.768931475922347
 10
9.821484915079347
 20
-7.820539006291393
 10
9.760541175945279
 20
-7.820539006291393
 10
9.706832137330236
 20
-7.820539006291393
 10
9.670417478051145
 20
-7.770206161251892
 10
9.669590655134683
 20
-7.679221189486442
 10
9.669590655134683
 20
-7.586995983346302
 10
9.709347057034467
 20
-7.536215275893722
 10
9.765192054850366
 20
-7.536215275893722
 10
9.823173011867122
 20
-7.536215275893722
 10
9.856177026615815
 20
-7.587822806262765
 10
9.856177026615815
 20
-7.675431584452668
 97
        0
 97
        1
330
12F
 75
     2
 76
     1
 98
        1
 10
0.0
 20
0.0
450
        0
451
        0
460
0.0
461
0.0
452
        0
462
0.0
453
        0
470

  0
ENDBLK
  5
12B
330
128
100
AcDbEntity
  8
0
100
AcDbBlockEnd
  0
BLOCK
  5
134
330
132
100
AcDbEntity
  8
0
100
AcDbBlockBegin
  2
Block_5
 70
     0
 10
0.0
 20
0.0
 30
0.0
  3
Block_5
  1

  0
INSERT
  5
137
330
132
100
AcDbEntity
  8
Livello 2
100
AcDbBlockReference
  2
Block_6
 10
0.0
 20
0.0
 30
0.0
  0
ENDBLK
  5
135
330
132
100
AcDbEntity
  8
0
100
AcDbBlockEnd
  0
BLOCK
  5
138
330
136
100
AcDbEntity
  8
0
100
AcDbBlockBegin
  2
Block_6
 70
     0
 10
0.0
 20
0.0
 30
0.0
  3
Block_6
  1

  0
SPLINE
  5
13A
330
136
100
AcDbEntity
  8
Livello 2
100
AcDbSpline
210
0.0
220
0.0
230
1.0
 70
    11
 71
     3
 72
    50
 73
    46
 74
     0
 42
0.000000001
 43
0.0000000001
 40
0.0
 40
0.0
 40
0.0
 40
0.0
 40
1.0
 40
1.0
 40
1.0
 40
2.0
 40
2.0
 40
2.0
 40
3.0
 40
3.0
 40
3.0
 40
4.0
 40
4.0
 40
4.0
 40
5.0
 40
5.0
 40
5.0
 40
6.0
 40
6.0
 40
6.0
 40
7.0
 40
7.0
 40
7.0
 40
8.0
 40
8.0
 40
8.0
 40
9.0
 40
9.0
 40
9.0
 40
10.0
 40
10.0
 40
10.0
 40
11.0
 40
11.0
 40
11.0
 40
12.0
 40
12.0
 40
12.0
 40
13.0
 40
13.0
 40
13.0
 40
14.0
 40
14.0
 40
14.0
 40
15.0
 40
15.0
 40
15.0
 40
15.0
 10
0.3361551919732528
 20
-5.561899955206746
 30
0.0
 10
0.3361551919732528
 20
-5.561899955206746
 30
0.0
 10
0.2312175834925428
 20
-5.561899955206746
 30
0.0
 10
0.2312175834925428
 20
-5.561899955206746
 30
0.0
 10
0.2312175834925428
 20
-5.561899955206746
 30
0.0
 10
0.2206411403528258
 20
-5.63255886360922
 30
0.0
 10
0.2206411403528258
 20
-5.63255886360922
 30
0.0
 10
0.2269801160456855
 20
-5.631697589737907
 30
0.0
 10
0.2329056802803152
 20
-5.630870766821447
 30
0.0
 10
0.2430687119618022
 20
-5.630870766821447
 30
0.0
 10
0.2642215982412362
 20
-5.630870766821447
 30
0.0
 10
0.2853744845206703
 20
-5.635521645726536
 30
0.0
 10
0.3023071288306732
 20
-5.645684677408023
 30
0.0
 10
0.3238734265683372
 20
-5.657949217335512
 30
0.0
 10
0.3416501192722263
 20
-5.681651474274031
 30
0.0
 10
0.3416501192722263
 20
-5.716343585810497
 30
0.0
 10
0.3416501192722263
 20
-5.770052624425543
 30
0.0
 10
0.2989137097777021
 20
-5.810256888738407
 30
0.0
 10
0.2392618814506012
 20
-5.810256888738407
 30
0.0
 10
0.2092206488192226
 20
-5.810256888738407
 30
0.0
 10
0.1838302950929313
 20
-5.801781953844693
 30
0.0
 10
0.1707217067715557
 20
-5.79334146990583
 30
0.0
 10
0.1707217067715557
 20
-5.79334146990583
 30
0.0
 10
0.1800234645817302
 20
-5.764988334062222
 30
0.0
 10
0.1800234645817302
 20
-5.764988334062222
 30
0.0
 10
0.1914439561153334
 20
-5.771775172168165
 30
0.0
 10
0.2138715277243099
 20
-5.780215656107027
 30
0.0
 10
0.2388312445149449
 20
-5.780215656107027
 30
0.0
 10
0.273953992987067
 20
-5.780215656107027
 30
0.0
 10
0.3039952256184456
 20
-5.757374673039822
 30
0.0
 10
0.3039952256184456
 20
-5.7205466023025
 30
0.0
 10
0.3035645886827894
 20
-5.685027667849576
 30
0.0
 10
0.2798795572216968
 20
-5.659637314123282
 30
0.0
 10
0.2248786077996831
 20
-5.659637314123282
 30
0.0
 10
0.2092206488192226
 20
-5.659637314123282
 30
0.0
 10
0.1969388834143069
 20
-5.661325410911056
 30
0.0
 10
0.1867930772102462
 20
-5.662600096240598
 30
0.0
 10
0.1867930772102462
 20
-5.662600096240598
 30
0.0
 10
0.2045697699141353
 20
-5.530584037245827
 30
0.0
 10
0.2045697699141353
 20
-5.530584037245827
 30
0.0
 10
0.2045697699141353
 20
-5.530584037245827
 30
0.0
 10
0.3361551919732528
 20
-5.530584037245827
 30
0.0
 10
0.3361551919732528
 20
-5.530584037245827
 30
0.0
 10
0.3361551919732528
 20
-5.530584037245827
 30
0.0
 10
0.3361551919732528
 20
-5.561899955206746
 30
0.0
 10
0.3361551919732528
 20
-5.561899955206746
 30
0.0
  0
HATCH
  5
13B
330
136
100
AcDbEntity
  8
Livello 2
 62
   250
420
  1907995
440
 33554687
100
AcDbHatch
 10
0.0
 20
0.0
 30
0.0
210
0.0
220
0.0
230
1.0
  2
SOLID
 70
     1
 71
     1
 91
        1
 92
        1
 93
        1
 72
     4
 94
        3
 73
     0
 74
     0
 95
       50
 96
       46
 40
0.0
 40
0.0
 40
0.0
 40
0.0
 40
1.0
 40
1.0
 40
1.0
 40
2.0
 40
2.0
 40
2.0
 40
3.0
 40
3.0
 40
3.0
 40
4.0
 40
4.0
 40
4.0
 40
5.0
 40
5.0
 40
5.0
 40
6.0
 40
6.0
 40
6.0
 40
7.0
 40
7.0
 40
7.0
 40
8.0
 40
8.0
 40
8.0
 40
9.0
 40
9.0
 40
9.0
 40
10.0
 40
10.0
 40
10.0
 40
11.0
 40
11.0
 40
11.0
 40
12.0
 40
12.0
 40
12.0
 40
13.0
 40
13.0
 40
13.0
 40
14.0
 40
14.0
 40
14.0
 40
15.0
 40
15.0
 40
15.0
 40
15.0
 10
0.3361551919732528
 20
-5.561899955206746
 10
0.3361551919732528
 20
-5.561899955206746
 10
0.2312175834925428
 20
-5.561899955206746
 10
0.2312175834925428
 20
-5.561899955206746
 10
0.2312175834925428
 20
-5.561899955206746
 10
0.2206411403528258
 20
-5.63255886360922
 10
0.2206411403528258
 20
-5.63255886360922
 10
0.2269801160456855
 20
-5.631697589737907
 10
0.2329056802803152
 20
-5.630870766821447
 10
0.2430687119618022
 20
-5.630870766821447
 10
0.2642215982412362
 20
-5.630870766821447
 10
0.2853744845206703
 20
-5.635521645726536
 10
0.3023071288306732
 20
-5.645684677408023
 10
0.3238734265683372
 20
-5.657949217335512
 10
0.3416501192722263
 20
-5.681651474274031
 10
0.3416501192722263
 20
-5.716343585810497
 10
0.3416501192722263
 20
-5.770052624425543
 10
0.2989137097777021
 20
-5.810256888738407
 10
0.2392618814506012
 20
-5.810256888738407
 10
0.2092206488192226
 20
-5.810256888738407
 10
0.1838302950929313
 20
-5.801781953844693
 10
0.1707217067715557
 20
-5.79334146990583
 10
0.1707217067715557
 20
-5.79334146990583
 10
0.1800234645817302
 20
-5.764988334062222
 10
0.1800234645817302
 20
-5.764988334062222
 10
0.1914439561153334
 20
-5.771775172168165
 10
0.2138715277243099
 20
-5.780215656107027
 10
0.2388312445149449
 20
-5.780215656107027
 10
0.273953992987067
 20
-5.780215656107027
 10
0.3039952256184456
 20
-5.757374673039822
 10
0.3039952256184456
 20
-5.7205466023025
 10
0.3035645886827894
 20
-5.685027667849576
 10
0.2798795572216968
 20
-5.659637314123282
 10
0.2248786077996831
 20
-5.659637314123282
 10
0.2092206488192226
 20
-5.659637314123282
 10
0.1969388834143069
 20
-5.661325410911056
 10
0.1867930772102462
 20
-5.662600096240598
 10
0.1867930772102462
 20
-5.662600096240598
 10
0.2045697699141353
 20
-5.530584037245827
 10
0.2045697699141353
 20
-5.530584037245827
 10
0.2045697699141353
 20
-5.530584037245827
 10
0.3361551919732528
 20
-5.530584037245827
 10
0.3361551919732528
 20
-5.530584037245827
 10
0.3361551919732528
 20
-5.530584037245827
 10
0.3361551919732528
 20
-5.561899955206746
 10
0.3361551919732528
 20
-5.561899955206746
 97
        0
 97
        1
330
13A
 75
     2
 76
     1
 98
        1
 10
0.0
 20
0.0
450
        0
451
        0
460
0.0
461
0.0
452
        0
462
0.0
453
        0
470

  0
SPLINE
  5
13C
330
136
100
AcDbEntity
  8
Livello 2
100
AcDbSpline
210
0.0
220
0.0
230
1.0
 70
     9
 71
     3
 72
    17
 73
    13
 74
     0
 42
0.000000001
 43
0.0000000001
 40
0.0
 40
0.0
 40
0.0
 40
0.0
 40
1.0
 40
1.0
 40
1.0
 40
2.0
 40
2.0
 40
2.0
 40
3.0
 40
3.0
 40
3.0
 40
4.0
 40
4.0
 40
4.0
 40
4.0
 10
0.422558186743319
 20
-5.669352483391689
 30
0.0
 10
0.422558186743319
 20
-5.740872665665476
 30
0.0
 10
0.4445723468940653
 20
-5.781490341436571
 30
0.0
 10
0.4784031845592187
 20
-5.781490341436571
 30
0.0
 10
0.5165059406260819
 20
-5.781490341436571
 30
0.0
 10
0.534696044788201
 20
-5.737048609676847
 30
0.0
 10
0.534696044788201
 20
-5.666837563687455
 30
0.0
 10
0.534696044788201
 20
-5.599141437402296
 30
0.0
 10
0.5173327635425418
 20
-5.554699705642573
 30
0.0
 10
0.4788510469723012
 20
-5.554699705642573
 30
0.0
 10
0.4462604436818377
 20
-5.554699705642573
 30
0.0
 10
0.422558186743319
 20
-5.594490558497209
 30
0.0
 10
0.422558186743319
 20
-5.669352483391689
 30
0.0
  0
SPLINE
  5
13D
330
136
100
AcDbEntity
  8
Livello 2
100
AcDbSpline
210
0.0
220
0.0
230
1.0
 70
     9
 71
     3
 72
    17
 73
    13
 74
     0
 42
0.000000001
 43
0.0000000001
 40
0.0
 40
0.0
 40
0.0
 40
0.0
 40
1.0
 40
1.0
 40
1.0
 40
2.0
 40
2.0
 40
2.0
 40
3.0
 40
3.0
 40
3.0
 40
4.0
 40
4.0
 40
4.0
 40
4.0
 10
0.5719375269837517
 20
-5.665149466899682
 30
0.0
 10
0.5719375269837517
 20
-5.758649358369362
 30
0.0
 10
0.5372454154472859
 20
-5.810256888738407
 30
0.0
 10
0.4763016763132164
 20
-5.810256888738407
 30
0.0
 10
0.422558186743319
 20
-5.810256888738407
 30
0.0
 10
0.3861779784190805
 20
-5.759924043698905
 30
0.0
 10
0.3853339300251943
 20
-5.668939071933459
 30
0.0
 10
0.3853339300251943
 20
-5.576713865793321
 30
0.0
 10
0.425107557402404
 20
-5.525933158340738
 30
0.0
 10
0.4809525552183036
 20
-5.525933158340738
 30
0.0
 10
0.5389335122350582
 20
-5.525933158340738
 30
0.0
 10
0.5719375269837517
 20
-5.577540688709778
 30
0.0
 10
0.5719375269837517
 20
-5.665149466899682
 30
0.0
  0
HATCH
  5
13E
330
136
100
AcDbEntity
  8
Livello 2
 62
   250
420
  1907995
440
 33554687
100
AcDbHatch
 10
0.0
 20
0.0
 30
0.0
210
0.0
220
0.0
230
1.0
  2
SOLID
 70
     1
 71
     1
 91
        2
 92
        1
 93
        1
 72
     4
 94
        3
 73
     0
 74
     0
 95
       17
 96
       13
 40
0.0
 40
0.0
 40
0.0
 40
0.0
 40
1.0
 40
1.0
 40
1.0
 40
2.0
 40
2.0
 40
2.0
 40
3.0
 40
3.0
 40
3.0
 40
4.0
 40
4.0
 40
4.0
 40
4.0
 10
0.422558186743319
 20
-5.669352483391689
 10
0.422558186743319
 20
-5.740872665665476
 10
0.4445723468940653
 20
-5.781490341436571
 10
0.4784031845592187
 20
-5.781490341436571
 10
0.5165059406260819
 20
-5.781490341436571
 10
0.534696044788201
 20
-5.737048609676847
 10
0.534696044788201
 20
-5.666837563687455
 10
0.534696044788201
 20
-5.599141437402296
 10
0.5173327635425418
 20
-5.554699705642573
 10
0.4788510469723012
 20
-5.554699705642573
 10
0.4462604436818377
 20
-5.554699705642573
 10
0.422558186743319
 20
-5.594490558497209
 10
0.422558186743319
 20
-5.669352483391689
 97
        0
 97
        1
330
13C
 92
        1
 93
        1
 72
     4
 94
        3
 73
     0
 74
     0
 95
       17
 96
       13
 40
0.0
 40
0.0
 40
0.0
 40
0.0
 40
1.0
 40
1.0
 40
1.0
 40
2.0
 40
2.0
 40
2.0
 40
3.0
 40
3.0
 40
3.0
 40
4.0
 40
4.0
 40
4.0
 40
4.0
 10
0.5719375269837517
 20
-5.665149466899682
 10
0.5719375269837517
 20
-5.758649358369362
 10
0.5372454154472859
 20
-5.810256888738407
 10
0.4763016763132164
 20
-5.810256888738407
 10
0.422558186743319
 20
-5.810256888738407
 10
0.3861779784190805
 20
-5.759924043698905
 10
0.3853339300251943
 20
-5.668939071933459
 10
0.3853339300251943
 20
-5.576713865793321
 10
0.425107557402404
 20
-5.525933158340738
 10
0.4809525552183036
 20
-5.525933158340738
 10
0.5389335122350582
 20
-5.525933158340738
 10
0.5719375269837517
 20
-5.577540688709778
 10
0.5719375269837517
 20
-5.665149466899682
 97
        0
 97
        1
330
13D
 75
     2
 76
     1
 98
        1
 10
0.0
 20
0.0
450
        0
451
        0
460
0.0
461
0.0
452
        0
462
0.0
453
        0
470

  0
ENDBLK
  5
139
330
136
100
AcDbEntity
  8
0
100
AcDbBlockEnd
  0
ENDSEC
  0
SECTION
  2
ENTITIES
  0
LINE
  5
79
330
70
100
AcDbEntity
  8
0
370
     9
100
AcDbLine
 10
2.269642564774764
 20
-4.000512239861308
 30
0.0
 11
2.269642564774764
 21
-4.022032002772161
 31
0.0
  0
LINE
  5
7A
330
70
100
AcDbEntity
  8
0
370
     9
100
AcDbLine
 10
3.704293425510451
 20
-4.022032002772161
 30
0.0
 11
3.704293425510451
 21
-4.000512239861308
 31
0.0
  0
LINE
  5
7B
330
70
100
AcDbEntity
  8
0
370
     9
100
AcDbLine
 10
3.560828339436993
 20
-4.000512239861308
 30
0.0
 11
3.560828339436993
 21
-3.806834373661832
 31
0.0
  0
LINE
  5
7C
330
70
100
AcDbEntity
  8
0
370
     9
100
AcDbLine
 10
2.41310765084822
 20
-3.806834373661832
 30
0.0
 11
2.41310765084822
 21
-3.857047153787818
 31
0.0
  0
SPLINE
  5
7D
330
70
100
AcDbEntity
  8
0
370
     9
100
AcDbSpline
210
0.0
220
0.0
230
1.0
 70
     8
 71
     3
 72
     8
 73
     4
 74
     0
 42
0.000000001
 43
0.0000000001
 40
0.0
 40
0.0
 40
0.0
 40
0.0
 40
1.0
 40
1.0
 40
1.0
 40
1.0
 10
6.541674165329689
 20
-6.22422107400118
 30
0.0
 10
6.547418599819875
 20
-6.22422107400118
 30
0.0
 10
6.552075384070422
 20
-6.219564289751271
 30
0.0
 10
6.552075384070422
 20
-6.213819855260701
 30
0.0
  0
SPLINE
  5
7E
330
70
100
AcDbEntity
  8
0
370
     9
100
AcDbSpline
210
0.0
220
0.0
230
1.0
 70
     8
 71
     3
 72
     8
 73
     4
 74
     0
 42
0.000000001
 43
0.0000000001
 40
0.0
 40
0.0
 40
0.0
 40
0.0
 40
1.0
 40
1.0
 40
1.0
 40
1.0
 10
6.451649823818706
 20
-6.213819855260701
 30
0.0
 10
6.451649823818706
 20
-6.219564289751271
 30
0.0
 10
6.456306608069255
 20
-6.22422107400118
 30
0.0
 10
6.462051042558927
 20
-6.22422107400118
 30
0.0
  0
LINE
  5
7F
330
70
100
AcDbEntity
  8
0
370
     9
100
AcDbLine
 10
6.552075384070422
 20
-6.213819855260701
 30
0.0
 11
6.552075384070422
 21
-6.213461192545945
 31
0.0
  0
LINE
  5
80
330
70
100
AcDbEntity
  8
0
370
     9
100
AcDbLine
 10
6.451649823818706
 20
-6.213461192545945
 30
0.0
 11
6.451649823818706
 21
-6.213819855260701
 31
0.0
  0
SPLINE
  5
81
330
70
100
AcDbEntity
  8
0
370
     9
100
AcDbSpline
210
0.0
220
0.0
230
1.0
 70
     8
 71
     3
 72
     8
 73
     4
 74
     0
 42
0.000000001
 43
0.0000000001
 40
0.0
 40
0.0
 40
0.0
 40
0.0
 40
1.0
 40
1.0
 40
1.0
 40
1.0
 10
6.552075384070422
 20
-6.213461192545945
 30
0.0
 10
6.552075384070422
 20
-6.207518674107602
 30
0.0
 10
6.547258021052632
 20
-6.202701311090517
 30
0.0
 10
6.541315502614803
 20
-6.202701311090517
 30
0.0
  0
SPLINE
  5
82
330
70
100
AcDbEntity
  8
0
370
     9
100
AcDbSpline
210
0.0
220
0.0
230
1.0
 70
     8
 71
     3
 72
     8
 73
     4
 74
     0
 42
0.000000001
 43
0.0000000001
 40
0.0
 40
0.0
 40
0.0
 40
0.0
 40
1.0
 40
1.0
 40
1.0
 40
1.0
 10
6.462409705274132
 20
-6.202701311090517
 30
0.0
 10
6.456467186836432
 20
-6.202701311090517
 30
0.0
 10
6.451649823818706
 20
-6.207518674107602
 30
0.0
 10
6.451649823818706
 20
-6.213461192545945
 30
0.0
  0
LINE
  5
83
330
70
100
AcDbEntity
  8
0
370
     9
100
AcDbLine
 10
5.11742452333496
 20
-6.213819855260701
 30
0.0
 11
5.11742452333496
 21
-6.213461192545945
 31
0.0
  0
LINE
  5
84
330
70
100
AcDbEntity
  8
0
370
     9
100
AcDbLine
 10
5.016998963083501
 20
-6.213461192545945
 30
0.0
 11
5.016998963083501
 21
-6.213819855260701
 31
0.0
  0
SPLINE
  5
85
330
70
100
AcDbEntity
  8
0
370
     9
100
AcDbSpline
210
0.0
220
0.0
230
1.0
 70
     8
 71
     3
 72
     8
 73
     4
 74
     0
 42
0.000000001
 43
0.0000000001
 40
0.0
 40
0.0
 40
0.0
 40
0.0
 40
1.0
 40
1.0
 40
1.0
 40
1.0
 10
5.11742452333496
 20
-6.213461192545945
 30
0.0
 10
5.11742452333496
 20
-6.207518674107602
 30
0.0
 10
5.11260716031698
 20
-6.202701311090517
 30
0.0
 10
5.106664641879151
 20
-6.202701311090517
 30
0.0
  0
SPLINE
  5
86
330
70
100
AcDbEntity
  8
0
370
     9
100
AcDbSpline
210
0.0
220
0.0
230
1.0
 70
     8
 71
     3
 72
     8
 73
     4
 74
     0
 42
0.000000001
 43
0.0000000001
 40
0.0
 40
0.0
 40
0.0
 40
0.0
 40
1.0
 40
1.0
 40
1.0
 40
1.0
 10
5.107023304594353
 20
-6.22422107400118
 30
0.0
 10
5.112767739084667
 20
-6.22422107400118
 30
0.0
 10
5.117424523334514
 20
-6.219564289751271
 30
0.0
 10
5.117424523334514
 20
-6.213819855260701
 30
0.0
  0
SPLINE
  5
87
330
70
100
AcDbEntity
  8
0
370
     9
100
AcDbSpline
210
0.0
220
0.0
230
1.0
 70
     8
 71
     3
 72
     8
 73
     4
 74
     0
 42
0.000000001
 43
0.0000000001
 40
0.0
 40
0.0
 40
0.0
 40
0.0
 40
1.0
 40
1.0
 40
1.0
 40
1.0
 10
5.016998963083501
 20
-6.213819855260701
 30
0.0
 10
5.016998963083501
 20
-6.219564289751271
 30
0.0
 10
5.02165574733392
 20
-6.22422107400118
 30
0.0
 10
5.027400181823592
 20
-6.22422107400118
 30
0.0
  0
LINE
  5
88
330
70
100
AcDbEntity
  8
0
370
     9
100
AcDbLine
 10
0.9888580088534311
 20
-5.162579437057391
 30
0.0
 11
0.9892166715682508
 21
-5.162579437057391
 31
0.0
  0
LINE
  5
89
330
70
100
AcDbEntity
  8
0
370
     9
100
AcDbLine
 10
0.9892166715682508
 20
-5.062153876805354
 30
0.0
 11
0.9888580088534311
 21
-5.062153876805354
 31
0.0
  0
SPLINE
  5
8A
330
70
100
AcDbEntity
  8
0
370
     9
100
AcDbSpline
210
0.0
220
0.0
230
1.0
 70
     8
 71
     3
 72
     8
 73
     4
 74
     0
 42
0.000000001
 43
0.0000000001
 40
0.0
 40
0.0
 40
0.0
 40
0.0
 40
1.0
 40
1.0
 40
1.0
 40
1.0
 10
0.9784567901129523
 20
-5.152178218316849
 30
0.0
 10
0.9784567901129523
 20
-5.157922652806329
 30
0.0
 10
0.9831135743633726
 20
-5.162579437057391
 30
0.0
 10
0.9888580088534311
 20
-5.162579437057391
 30
0.0
  0
SPLINE
  5
8B
330
70
100
AcDbEntity
  8
0
370
     9
100
AcDbSpline
210
0.0
220
0.0
230
1.0
 70
     8
 71
     3
 72
     8
 73
     4
 74
     0
 42
0.000000001
 43
0.0000000001
 40
0.0
 40
0.0
 40
0.0
 40
0.0
 40
1.0
 40
1.0
 40
1.0
 40
1.0
 10
0.9888580088534311
 20
-5.062153876805354
 30
0.0
 10
0.9831135743633726
 20
-5.062153876805354
 30
0.0
 10
0.9784567901129523
 20
-5.066810661056223
 30
0.0
 10
0.9784567901129523
 20
-5.072555095545896
 30
0.0
  0
SPLINE
  5
8C
330
70
100
AcDbEntity
  8
0
370
     9
100
AcDbSpline
210
0.0
220
0.0
230
1.0
 70
     8
 71
     3
 72
     8
 73
     4
 74
     0
 42
0.000000001
 43
0.0000000001
 40
0.0
 40
0.0
 40
0.0
 40
0.0
 40
1.0
 40
1.0
 40
1.0
 40
1.0
 10
0.9892166715682508
 20
-5.162579437057391
 30
0.0
 10
0.9951591900061126
 20
-5.162579437057391
 30
0.0
 10
0.9999765530240944
 20
-5.157762074039346
 30
0.0
 10
0.9999765530240944
 20
-5.151819555601965
 30
0.0
  0
SPLINE
  5
8D
330
70
100
AcDbEntity
  8
0
370
     9
100
AcDbSpline
210
0.0
220
0.0
230
1.0
 70
     8
 71
     3
 72
     8
 73
     4
 74
     0
 42
0.000000001
 43
0.0000000001
 40
0.0
 40
0.0
 40
0.0
 40
0.0
 40
1.0
 40
1.0
 40
1.0
 40
1.0
 10
0.9999765530240944
 20
-5.07291375826155
 30
0.0
 10
0.9999765530240944
 20
-5.066971239823399
 30
0.0
 10
0.9951591900061126
 20
-5.062153876805354
 30
0.0
 10
0.9892166715682508
 20
-5.062153876805354
 30
0.0
  0
SPLINE
  5
8E
330
70
100
AcDbEntity
  8
0
370
     9
100
AcDbSpline
210
0.0
220
0.0
230
1.0
 70
     8
 71
     3
 72
     8
 73
     4
 74
     0
 42
0.000000001
 43
0.0000000001
 40
0.0
 40
0.0
 40
0.0
 40
0.0
 40
1.0
 40
1.0
 40
1.0
 40
1.0
 10
1.681435711873211
 20
-6.378446041530094
 30
0.0
 10
1.681435711873211
 20
-6.384388559968437
 30
0.0
 10
1.686253074890744
 20
-6.389205922986482
 30
0.0
 10
1.692195593329024
 20
-6.389205922986482
 30
0.0
  0
SPLINE
  5
8F
330
70
100
AcDbEntity
  8
0
370
     9
100
AcDbSpline
210
0.0
220
0.0
230
1.0
 70
     8
 71
     3
 72
     8
 73
     4
 74
     0
 42
0.000000001
 43
0.0000000001
 40
0.0
 40
0.0
 40
0.0
 40
0.0
 40
1.0
 40
1.0
 40
1.0
 40
1.0
 10
1.771101390669278
 20
-6.389205922986482
 30
0.0
 10
1.777043909107139
 20
-6.389205922986482
 30
0.0
 10
1.781861272124704
 20
-6.384388559968437
 30
0.0
 10
1.781861272124704
 20
-6.378446041530094
 30
0.0
  0
LINE
  5
90
330
70
100
AcDbEntity
  8
0
370
     9
100
AcDbLine
 10
1.681435711873211
 20
-6.378087378815337
 30
0.0
 11
1.681435711873211
 21
-6.378446041530094
 31
0.0
  0
LINE
  5
91
330
70
100
AcDbEntity
  8
0
370
     9
100
AcDbLine
 10
1.781861272124704
 20
-6.378446041530094
 30
0.0
 11
1.781861272124704
 21
-6.378087378815337
 31
0.0
  0
SPLINE
  5
92
330
70
100
AcDbEntity
  8
0
370
     9
100
AcDbSpline
210
0.0
220
0.0
230
1.0
 70
     8
 71
     3
 72
     8
 73
     4
 74
     0
 42
0.000000001
 43
0.0000000001
 40
0.0
 40
0.0
 40
0.0
 40
0.0
 40
1.0
 40
1.0
 40
1.0
 40
1.0
 10
1.691836930613723
 20
-6.367686160074859
 30
0.0
 10
1.686092496123665
 20
-6.367686160074859
 30
0.0
 10
1.681435711873211
 20
-6.372342944325668
 30
0.0
 10
1.681435711873211
 20
-6.378087378815337
 30
0.0
  0
SPLINE
  5
93
330
70
100
AcDbEntity
  8
0
370
     9
100
AcDbSpline
210
0.0
220
0.0
230
1.0
 70
     8
 71
     3
 72
     8
 73
     4
 74
     0
 42
0.000000001
 43
0.0000000001
 40
0.0
 40
0.0
 40
0.0
 40
0.0
 40
1.0
 40
1.0
 40
1.0
 40
1.0
 10
1.781861272124704
 20
-6.378087378815337
 30
0.0
 10
1.781861272124704
 20
-6.372342944325668
 30
0.0
 10
1.777204487874253
 20
-6.367686160074859
 30
0.0
 10
1.77146005338461
 20
-6.367686160074859
 30
0.0
  0
SPLINE
  5
94
330
70
100
AcDbEntity
  8
0
370
     9
100
AcDbSpline
210
0.0
220
0.0
230
1.0
 70
     8
 71
     3
 72
    17
 73
    13
 74
     0
 42
0.000000001
 43
0.0000000001
 40
0.0
 40
0.0
 40
0.0
 40
0.0
 40
1.0
 40
1.0
 40
1.0
 40
2.0
 40
2.0
 40
2.0
 40
3.0
 40
3.0
 40
3.0
 40
4.0
 40
4.0
 40
4.0
 40
4.0
 10
1.600677517113313
 20
-6.425748692511147
 30
0.0
 10
1.312490579157417
 20
-6.498081964611825
 30
0.0
 10
1.13750660931536
 20
-6.790341340025521
 30
0.0
 10
1.209839881415235
 20
-7.078528277981412
 30
0.0
 10
1.28217315351498
 20
-7.366715215937308
 30
0.0
 10
1.574432528929158
 20
-7.541699185778917
 30
0.0
 10
1.862619466884573
 20
-7.469365913679137
 30
0.0
 10
2.1508064048404
 20
-7.39703264157923
 30
0.0
 10
2.325790374682428
 20
-7.104773266165532
 30
0.0
 10
2.253457102582681
 20
-6.816586328209637
 30
0.0
 10
2.205175900201755
 20
-6.624226554193192
 30
0.0
 10
2.054979240900538
 20
-6.474029894892519
 30
0.0
 10
1.862619466884573
 20
-6.425748692511147
 30
0.0
  0
SPLINE
  5
96
330
70
100
AcDbEntity
  8
0
370
     9
100
AcDbSpline
210
0.0
220
0.0
230
1.0
 70
     8
 71
     3
 72
    17
 73
    13
 74
     0
 42
0.000000001
 43
0.0000000001
 40
0.0
 40
0.0
 40
0.0
 40
0.0
 40
1.0
 40
1.0
 40
1.0
 40
2.0
 40
2.0
 40
2.0
 40
3.0
 40
3.0
 40
3.0
 40
4.0
 40
4.0
 40
4.0
 40
4.0
 10
1.036519322549749
 20
-5.250442609513537
 30
0.0
 10
1.112776565479022
 20
-5.411585421164903
 30
0.0
 10
1.305227334505745
 20
-5.480398770886091
 30
0.0
 10
1.46637014615666
 20
-5.404141527956436
 30
0.0
 10
1.62751295780748
 20
-5.327884285026586
 30
0.0
 10
1.696326307528734
 20
-5.135433516000441
 30
0.0
 10
1.620069064599459
 20
-4.974290704349077
 30
0.0
 10
1.543811821669773
 20
-4.813147892698578
 30
0.0
 10
1.351361052642954
 20
-4.74433454297755
 30
0.0
 10
1.190218240992136
 20
-4.820591785906243
 30
0.0
 10
1.12275763189122
 20
-4.852516015127497
 30
0.0
 10
1.068443551770104
 20
-4.906830095247747
 30
0.0
 10
1.036519322549749
 20
-4.974290704349077
 30
0.0
  0
SPLINE
  5
97
330
70
100
AcDbEntity
  8
0
370
     9
100
AcDbSpline
210
0.0
220
0.0
230
1.0
 70
     8
 71
     3
 72
     8
 73
     4
 74
     0
 42
0.000000001
 43
0.0000000001
 40
0.0
 40
0.0
 40
0.0
 40
0.0
 40
1.0
 40
1.0
 40
1.0
 40
1.0
 10
6.538087538177579
 20
-6.201476795480252
 30
0.0
 10
6.576065327750097
 20
-6.197697677105977
 30
0.0
 10
6.613217867127596
 20
-6.187999079280835
 30
0.0
 10
6.648196991739945
 20
-6.172732937729837
 30
0.0
  0
SPLINE
  5
98
330
70
100
AcDbEntity
  8
0
370
     9
100
AcDbSpline
210
0.0
220
0.0
230
1.0
 70
     8
 71
     3
 72
     8
 73
     4
 74
     0
 42
0.000000001
 43
0.0000000001
 40
0.0
 40
0.0
 40
0.0
 40
0.0
 40
1.0
 40
1.0
 40
1.0
 40
1.0
 10
6.355528216148992
 20
-6.172732937729837
 30
0.0
 10
6.390507340761531
 20
-6.187999079280835
 30
0.0
 10
6.427659880138963
 20
-6.197697677105977
 30
0.0
 10
6.465637669711549
 20
-6.201476795480252
 30
0.0
  0
LINE
  5
99
330
70
100
AcDbEntity
  8
0
370
     9
100
AcDbLine
 10
6.648196991739433
 20
-6.172732937729837
 30
0.0
 11
6.645327690018372
 21
-6.16615854156483
 31
0.0
  0
LINE
  5
9A
330
70
100
AcDbEntity
  8
0
370
     9
100
AcDbLine
 10
6.358397517870756
 20
-6.16615854156483
 30
0.0
 11
6.355528216149695
 21
-6.172732937729837
 31
0.0
  0
LINE
  5
9B
330
70
100
AcDbEntity
  8
0
370
     9
100
AcDbLine
 10
1.585314104203979
 20
-6.4191742963462
 30
0.0
 11
1.588183405925646
 21
-6.425748692511147
 31
0.0
  0
LINE
  5
9C
330
70
100
AcDbEntity
  8
0
370
     9
100
AcDbLine
 10
1.875113578072656
 20
-6.425748692511147
 30
0.0
 11
1.877982879794323
 21
-6.4191742963462
 31
0.0
  0
SPLINE
  5
9D
330
70
100
AcDbEntity
  8
0
370
     9
100
AcDbSpline
210
0.0
220
0.0
230
1.0
 70
     8
 71
     3
 72
     8
 73
     4
 74
     0
 42
0.000000001
 43
0.0000000001
 40
0.0
 40
0.0
 40
0.0
 40
0.0
 40
1.0
 40
1.0
 40
1.0
 40
1.0
 10
1.695423557765991
 20
-6.390430438595787
 30
0.0
 10
1.657445768193276
 20
-6.394209556969871
 30
0.0
 10
1.620293228815938
 20
-6.403908154796167
 30
0.0
 10
1.585314104203498
 20
-6.4191742963462
 30
0.0
  0
SPLINE
  5
9E
330
70
100
AcDbEntity
  8
0
370
     9
100
AcDbSpline
210
0.0
220
0.0
230
1.0
 70
     8
 71
     3
 72
     8
 73
     4
 74
     0
 42
0.000000001
 43
0.0000000001
 40
0.0
 40
0.0
 40
0.0
 40
0.0
 40
1.0
 40
1.0
 40
1.0
 40
1.0
 10
1.877982879794323
 20
-6.4191742963462
 30
0.0
 10
1.843003755182362
 20
-6.403908154796167
 30
0.0
 10
1.805851215804638
 20
-6.394209556969871
 30
0.0
 10
1.767873426232311
 20
-6.390430438595787
 30
0.0
  0
LINE
  5
9F
330
70
100
AcDbEntity
  8
0
370
     9
100
AcDbLine
 10
1.029944926384005
 20
-5.258701044726079
 30
0.0
 11
1.036519322549334
 21
-5.255831743004764
 31
0.0
  0
LINE
  5
A0
330
70
100
AcDbEntity
  8
0
370
     9
100
AcDbLine
 10
1.036519322549334
 20
-4.968901570857851
 30
0.0
 11
1.029944926384005
 21
-4.966032269136602
 31
0.0
  0
SPLINE
  5
A1
330
70
100
AcDbEntity
  8
0
370
     9
100
AcDbSpline
210
0.0
220
0.0
230
1.0
 70
     8
 71
     3
 72
     8
 73
     4
 74
     0
 42
0.000000001
 43
0.0000000001
 40
0.0
 40
0.0
 40
0.0
 40
0.0
 40
1.0
 40
1.0
 40
1.0
 40
1.0
 10
1.001201068633942
 20
-5.148591591164933
 30
0.0
 10
1.004980187008122
 20
-5.186569380736811
 30
0.0
 10
1.014678784833872
 20
-5.223721920114503
 30
0.0
 10
1.029944926384422
 20
-5.258701044727041
 30
0.0
  0
SPLINE
  5
A2
330
70
100
AcDbEntity
  8
0
370
     9
100
AcDbSpline
210
0.0
220
0.0
230
1.0
 70
     8
 71
     3
 72
     8
 73
     4
 74
     0
 42
0.000000001
 43
0.0000000001
 40
0.0
 40
0.0
 40
0.0
 40
0.0
 40
1.0
 40
1.0
 40
1.0
 40
1.0
 10
1.029944926384422
 20
-4.966032269135636
 30
0.0
 10
1.014678784833872
 20
-5.001011393748178
 30
0.0
 10
1.004980187008122
 20
-5.038163933125933
 30
0.0
 10
1.001201068633942
 20
-5.076141722697683
 30
0.0
  0
LINE
  5
A3
330
70
100
AcDbEntity
  8
0
370
     9
100
AcDbLine
 10
3.704293425510451
 20
-4.000512239861308
 30
0.0
 11
2.27323820360975
 21
-4.000512239861308
 31
0.0
  0
LINE
  5
A4
330
70
100
AcDbEntity
  8
0
370
     9
100
AcDbLine
 10
3.704293425510451
 20
-4.022032002772161
 30
0.0
 11
2.269642564774764
 21
-4.022032002772161
 31
0.0
  0
LINE
  5
A5
330
70
100
AcDbEntity
  8
0
370
     9
100
AcDbLine
 10
2.986967995142591
 20
-3.806834373661832
 30
0.0
 11
3.560828339436993
 21
-3.806834373661832
 31
0.0
  0
LINE
  5
A6
330
70
100
AcDbEntity
  8
0
370
     9
100
AcDbLine
 10
2.41310765084822
 20
-3.806834373661832
 30
0.0
 11
2.986967995142591
 21
-3.806834373661832
 31
0.0
  0
LINE
  5
A7
330
70
100
AcDbEntity
  8
0
370
     9
100
AcDbLine
 10
2.417608585785833
 20
-4.000512239861308
 30
0.0
 11
2.417608585785833
 21
-3.857047153787818
 31
0.0
  0
LINE
  5
A8
330
70
100
AcDbEntity
  8
0
370
     9
100
AcDbLine
 10
0.9784567901129523
 20
-6.22422107400118
 30
0.0
 11
0.9784567901129523
 21
-4.000512239861308
 31
0.0
  0
LINE
  5
A9
330
70
100
AcDbEntity
  8
0
370
     9
100
AcDbLine
 10
2.417608585785833
 20
-3.857047153787818
 30
0.0
 11
0.834991704039464
 21
-3.857047153787818
 31
0.0
  0
LINE
  5
AA
330
70
100
AcDbEntity
  8
0
370
     9
100
AcDbLine
 10
0.834991704039464
 20
-3.857047153787818
 30
0.0
 11
0.834991704039464
 21
-6.367686160074859
 31
0.0
  0
LINE
  5
AB
330
70
100
AcDbEntity
  8
0
370
     9
100
AcDbLine
 10
0.9784567901129523
 20
-4.000512239861308
 30
0.0
 11
2.27323820360975
 21
-4.000512239861308
 31
0.0
  0
LINE
  5
AC
330
70
100
AcDbEntity
  8
0
370
     9
100
AcDbLine
 10
6.984984282363046
 20
-6.22422107400118
 30
0.0
 11
0.9784567901129523
 21
-6.22422107400118
 31
0.0
  0
LINE
  5
AD
330
70
100
AcDbEntity
  8
0
370
     9
100
AcDbLine
 10
0.834991704039464
 20
-6.367686160074859
 30
0.0
 11
6.984984282363046
 21
-6.367686160074859
 31
0.0
  0
LINE
  5
AE
330
70
100
AcDbEntity
  8
0
370
     9
100
AcDbLine
 10
6.541315502614803
 20
-6.202701311090517
 30
0.0
 11
6.462409705274132
 21
-6.202701311090517
 31
0.0
  0
LINE
  5
AF
330
70
100
AcDbEntity
  8
0
370
     9
100
AcDbLine
 10
5.106664641879151
 20
-6.202701311090517
 30
0.0
 11
5.027758844538799
 21
-6.202701311090517
 31
0.0
  0
LINE
  5
B0
330
70
100
AcDbEntity
  8
0
370
     9
100
AcDbLine
 10
0.9999765530240944
 20
-5.112366656931341
 30
0.0
 11
0.9999765530240944
 21
-5.07291375826155
 31
0.0
  0
LINE
  5
B1
330
70
100
AcDbEntity
  8
0
370
     9
100
AcDbLine
 10
0.9999765530240944
 20
-5.151819555601965
 30
0.0
 11
0.9999765530240944
 21
-5.112366656931341
 31
0.0
  0
LINE
  5
B2
330
70
100
AcDbEntity
  8
0
370
     9
100
AcDbLine
 10
1.692195598080805
 20
-6.389205922986482
 30
0.0
 11
1.771101390669278
 21
-6.389205922986482
 31
0.0
  0
LINE
  5
B3
330
70
100
AcDbEntity
  8
0
370
     9
100
AcDbLine
 10
6.648196991739433
 20
-6.172732937729837
 30
0.0
 11
6.355528216149695
 21
-6.172732937729837
 31
0.0
  0
LINE
  5
B4
330
70
100
AcDbEntity
  8
0
370
     9
100
AcDbLine
 10
6.538087538177838
 20
-6.201476795480252
 30
0.0
 11
6.465637669711292
 21
-6.201476795480252
 31
0.0
  0
LINE
  5
B5
330
70
100
AcDbEntity
  8
0
370
     9
100
AcDbLine
 10
6.645327690018372
 20
-6.16615854156483
 30
0.0
 11
6.358397517870756
 21
-6.16615854156483
 31
0.0
  0
LINE
  5
B6
330
70
100
AcDbEntity
  8
0
370
     9
100
AcDbLine
 10
1.585314104203979
 20
-6.4191742963462
 30
0.0
 11
1.877982879794323
 21
-6.4191742963462
 31
0.0
  0
LINE
  5
B7
330
70
100
AcDbEntity
  8
0
370
     9
100
AcDbLine
 10
1.588183405925646
 20
-6.425748692511147
 30
0.0
 11
1.875113578072656
 21
-6.425748692511147
 31
0.0
  0
LINE
  5
B8
330
70
100
AcDbEntity
  8
0
370
     9
100
AcDbLine
 10
1.695423557765475
 20
-6.390430438595787
 30
0.0
 11
1.767873426232823
 21
-6.390430438595787
 31
0.0
  0
LINE
  5
B9
330
70
100
AcDbEntity
  8
0
370
     9
100
AcDbLine
 10
1.029944926384005
 20
-5.112366656931341
 30
0.0
 11
1.029944926384005
 21
-4.966032269136602
 31
0.0
  0
LINE
  5
BA
330
70
100
AcDbEntity
  8
0
370
     9
100
AcDbLine
 10
1.029944926384005
 20
-5.258701044726079
 30
0.0
 11
1.029944926384005
 21
-5.112366656931341
 31
0.0
  0
LINE
  5
BB
330
70
100
AcDbEntity
  8
0
370
     9
100
AcDbLine
 10
1.036519322549334
 20
-5.112366656931341
 30
0.0
 11
1.036519322549334
 21
-4.968901570857851
 31
0.0
  0
LINE
  5
BC
330
70
100
AcDbEntity
  8
0
370
     9
100
AcDbLine
 10
1.036519322549334
 20
-5.255831743004764
 30
0.0
 11
1.036519322549334
 21
-5.112366656931341
 31
0.0
  0
LINE
  5
BD
330
70
100
AcDbEntity
  8
0
370
     9
100
AcDbLine
 10
1.001201068633942
 20
-5.148591591164933
 30
0.0
 11
1.001201068633942
 21
-5.076141722697683
 31
0.0
  0
LINE
  5
BE
330
70
100
AcDbEntity
  8
0
370
     9
100
AcDbLine
 10
6.552075384070422
 20
-6.213819855260701
 30
0.0
 11
6.451649823818706
 21
-6.213819855260701
 31
0.0
  0
LINE
  5
BF
330
70
100
AcDbEntity
  8
0
370
     9
100
AcDbLine
 10
6.552075384070422
 20
-6.213461192545945
 30
0.0
 11
6.451649823818706
 21
-6.213461192545945
 31
0.0
  0
LINE
  5
C0
330
70
100
AcDbEntity
  8
0
370
     9
100
AcDbLine
 10
0.9888580088534311
 20
-5.112366656931341
 30
0.0
 11
0.9888580088534311
 21
-5.062153876805354
 31
0.0
  0
LINE
  5
C1
330
70
100
AcDbEntity
  8
0
370
     9
100
AcDbLine
 10
0.9888580088534311
 20
-5.162579437057391
 30
0.0
 11
0.9888580088534311
 21
-5.112366656931341
 31
0.0
  0
LINE
  5
C2
330
70
100
AcDbEntity
  8
0
370
     9
100
AcDbLine
 10
0.9892166715682508
 20
-5.112366656931341
 30
0.0
 11
0.9892166715682508
 21
-5.062153876805354
 31
0.0
  0
LINE
  5
C3
330
70
100
AcDbEntity
  8
0
370
     9
100
AcDbLine
 10
0.9892166715682508
 20
-5.162579437057391
 30
0.0
 11
0.9892166715682508
 21
-5.112366656931341
 31
0.0
  0
LINE
  5
C4
330
70
100
AcDbEntity
  8
0
370
     9
100
AcDbLine
 10
1.681435711873211
 20
-6.378446041530094
 30
0.0
 11
1.781861272124704
 21
-6.378446041530094
 31
0.0
  0
LINE
  5
C5
330
70
100
AcDbEntity
  8
0
370
     9
100
AcDbLine
 10
1.681435711873211
 20
-6.378087378815337
 30
0.0
 11
1.781861272124704
 21
-6.378087378815337
 31
0.0
  0
LINE
  5
C6
330
70
100
AcDbEntity
  8
0
370
     9
100
AcDbLine
 10
5.207708314282719
 20
-6.173957453340037
 30
0.0
 11
5.204839012560957
 21
-6.16738305717516
 31
0.0
  0
LINE
  5
C7
330
70
100
AcDbEntity
  8
0
370
     9
100
AcDbLine
 10
4.917908840414011
 20
-6.16738305717516
 30
0.0
 11
4.915039538692761
 21
-6.173957453340037
 31
0.0
  0
SPLINE
  5
C8
330
70
100
AcDbEntity
  8
0
370
     9
100
AcDbSpline
210
0.0
220
0.0
230
1.0
 70
     8
 71
     3
 72
     8
 73
     4
 74
     0
 42
0.000000001
 43
0.0000000001
 40
0.0
 40
0.0
 40
0.0
 40
0.0
 40
1.0
 40
1.0
 40
1.0
 40
1.0
 10
5.097598860720805
 20
-6.202701311090517
 30
0.0
 10
5.135576650293454
 20
-6.198922192716307
 30
0.0
 10
5.172729189670824
 20
-6.189223594890075
 30
0.0
 10
5.207708314283039
 20
-6.173957453340037
 30
0.0
  0
SPLINE
  5
C9
330
70
100
AcDbEntity
  8
0
370
     9
100
AcDbSpline
210
0.0
220
0.0
230
1.0
 70
     8
 71
     3
 72
     8
 73
     4
 74
     0
 42
0.000000001
 43
0.0000000001
 40
0.0
 40
0.0
 40
0.0
 40
0.0
 40
1.0
 40
1.0
 40
1.0
 40
1.0
 10
4.915039538692281
 20
-6.173957453340037
 30
0.0
 10
4.950018663304756
 20
-6.189223594890075
 30
0.0
 10
4.987171202682061
 20
-6.198922192716307
 30
0.0
 10
5.025148992254387
 20
-6.202701311090517
 30
0.0
  0
LINE
  5
CA
330
70
100
AcDbEntity
  8
0
370
     9
100
AcDbLine
 10
5.061373926487533
 20
-6.173957453340037
 30
0.0
 11
4.915039538692761
 21
-6.173957453340037
 31
0.0
  0
LINE
  5
CB
330
70
100
AcDbEntity
  8
0
370
     9
100
AcDbLine
 10
5.207708314282719
 20
-6.173957453340037
 30
0.0
 11
5.061373926487533
 21
-6.173957453340037
 31
0.0
  0
LINE
  5
CC
330
70
100
AcDbEntity
  8
0
370
     9
100
AcDbLine
 10
5.061373926487533
 20
-6.16738305717516
 30
0.0
 11
4.917908840414011
 21
-6.16738305717516
 31
0.0
  0
LINE
  5
CD
330
70
100
AcDbEntity
  8
0
370
     9
100
AcDbLine
 10
5.204839012560957
 20
-6.16738305717516
 30
0.0
 11
5.061373926487533
 21
-6.16738305717516
 31
0.0
  0
SPLINE
  5
CF
330
70
100
AcDbEntity
  8
0
370
     9
100
AcDbSpline
210
0.0
220
0.0
230
1.0
 70
     8
 71
     3
 72
     8
 73
     4
 74
     0
 42
0.000000001
 43
0.0000000001
 40
0.0
 40
0.0
 40
0.0
 40
0.0
 40
1.0
 40
1.0
 40
1.0
 40
1.0
 10
6.541674165329689
 20
-6.22422107400118
 30
0.0
 10
6.547418599819875
 20
-6.22422107400118
 30
0.0
 10
6.552075384070422
 20
-6.219564289751271
 30
0.0
 10
6.552075384070422
 20
-6.213819855260701
 30
0.0
  0
SPLINE
  5
D0
330
70
100
AcDbEntity
  8
0
370
     9
100
AcDbSpline
210
0.0
220
0.0
230
1.0
 70
     8
 71
     3
 72
     8
 73
     4
 74
     0
 42
0.000000001
 43
0.0000000001
 40
0.0
 40
0.0
 40
0.0
 40
0.0
 40
1.0
 40
1.0
 40
1.0
 40
1.0
 10
6.451649823818706
 20
-6.213819855260701
 30
0.0
 10
6.451649823818706
 20
-6.219564289751271
 30
0.0
 10
6.456306608069255
 20
-6.22422107400118
 30
0.0
 10
6.462051042558927
 20
-6.22422107400118
 30
0.0
  0
LINE
  5
D1
330
70
100
AcDbEntity
  8
0
370
     9
100
AcDbLine
 10
6.552075384070422
 20
-6.213819855260701
 30
0.0
 11
6.552075384070422
 21
-6.213461192545945
 31
0.0
  0
LINE
  5
D2
330
70
100
AcDbEntity
  8
0
370
     9
100
AcDbLine
 10
6.451649823818706
 20
-6.213461192545945
 30
0.0
 11
6.451649823818706
 21
-6.213819855260701
 31
0.0
  0
SPLINE
  5
D3
330
70
100
AcDbEntity
  8
0
370
     9
100
AcDbSpline
210
0.0
220
0.0
230
1.0
 70
     8
 71
     3
 72
     8
 73
     4
 74
     0
 42
0.000000001
 43
0.0000000001
 40
0.0
 40
0.0
 40
0.0
 40
0.0
 40
1.0
 40
1.0
 40
1.0
 40
1.0
 10
6.552075384070422
 20
-6.213461192545945
 30
0.0
 10
6.552075384070422
 20
-6.207518674107602
 30
0.0
 10
6.547258021052632
 20
-6.202701311090517
 30
0.0
 10
6.541315502614803
 20
-6.202701311090517
 30
0.0
  0
SPLINE
  5
D4
330
70
100
AcDbEntity
  8
0
370
     9
100
AcDbSpline
210
0.0
220
0.0
230
1.0
 70
     8
 71
     3
 72
     8
 73
     4
 74
     0
 42
0.000000001
 43
0.0000000001
 40
0.0
 40
0.0
 40
0.0
 40
0.0
 40
1.0
 40
1.0
 40
1.0
 40
1.0
 10
6.462409705274132
 20
-6.202701311090517
 30
0.0
 10
6.456467186836432
 20
-6.202701311090517
 30
0.0
 10
6.451649823818706
 20
-6.207518674107602
 30
0.0
 10
6.451649823818706
 20
-6.213461192545945
 30
0.0
  0
SPLINE
  5
D5
330
70
100
AcDbEntity
  8
0
370
     9
100
AcDbSpline
210
0.0
220
0.0
230
1.0
 70
     8
 71
     3
 72
     8
 73
     4
 74
     0
 42
0.000000001
 43
0.0000000001
 40
0.0
 40
0.0
 40
0.0
 40
0.0
 40
1.0
 40
1.0
 40
1.0
 40
1.0
 10
8.345388959989831
 20
-6.213461192545945
 30
0.0
 10
8.345388959989831
 20
-6.207518674107602
 30
0.0
 10
8.340571596972106
 20
-6.202701311090517
 30
0.0
 10
8.334629078533954
 20
-6.202701311090517
 30
0.0
  0
SPLINE
  5
D6
330
70
100
AcDbEntity
  8
0
370
     9
100
AcDbSpline
210
0.0
220
0.0
230
1.0
 70
     8
 71
     3
 72
     8
 73
     4
 74
     0
 42
0.000000001
 43
0.0000000001
 40
0.0
 40
0.0
 40
0.0
 40
0.0
 40
1.0
 40
1.0
 40
1.0
 40
1.0
 10
8.255723281193732
 20
-6.202701311090517
 30
0.0
 10
8.249780762755902
 20
-6.202701311090517
 30
0.0
 10
8.244963399738178
 20
-6.207518674107602
 30
0.0
 10
8.244963399738178
 20
-6.213461192545945
 30
0.0
  0
LINE
  5
D7
330
70
100
AcDbEntity
  8
0
370
     9
100
AcDbLine
 10
8.345388959989831
 20
-6.213819855260701
 30
0.0
 11
8.345388959989831
 21
-6.213461192545945
 31
0.0
  0
LINE
  5
D8
330
70
100
AcDbEntity
  8
0
370
     9
100
AcDbLine
 10
8.244963399738178
 20
-6.213461192545945
 30
0.0
 11
8.244963399738178
 21
-6.213819855260701
 31
0.0
  0
SPLINE
  5
D9
330
70
100
AcDbEntity
  8
0
370
     9
100
AcDbSpline
210
0.0
220
0.0
230
1.0
 70
     8
 71
     3
 72
     8
 73
     4
 74
     0
 42
0.000000001
 43
0.0000000001
 40
0.0
 40
0.0
 40
0.0
 40
0.0
 40
1.0
 40
1.0
 40
1.0
 40
1.0
 10
8.334987741249159
 20
-6.22422107400118
 30
0.0
 10
8.340732175739152
 20
-6.22422107400118
 30
0.0
 10
8.345388959989831
 20
-6.219564289751271
 30
0.0
 10
8.345388959989831
 20
-6.213819855260701
 30
0.0
  0
SPLINE
  5
DA
330
70
100
AcDbEntity
  8
0
370
     9
100
AcDbSpline
210
0.0
220
0.0
230
1.0
 70
     8
 71
     3
 72
     8
 73
     4
 74
     0
 42
0.000000001
 43
0.0000000001
 40
0.0
 40
0.0
 40
0.0
 40
0.0
 40
1.0
 40
1.0
 40
1.0
 40
1.0
 10
8.244963399738178
 20
-6.213819855260701
 30
0.0
 10
8.244963399738178
 20
-6.219564289751271
 30
0.0
 10
8.249620183988534
 20
-6.22422107400118
 30
0.0
 10
8.255364618478207
 20
-6.22422107400118
 30
0.0
  0
SPLINE
  5
DC
330
70
100
AcDbEntity
  8
0
370
     9
100
AcDbSpline
210
0.0
220
0.0
230
1.0
 70
     8
 71
     3
 72
     8
 73
     4
 74
     0
 42
0.000000001
 43
0.0000000001
 40
0.0
 40
0.0
 40
0.0
 40
0.0
 40
1.0
 40
1.0
 40
1.0
 40
1.0
 10
6.538087538177579
 20
-6.201476795480252
 30
0.0
 10
6.576065327750097
 20
-6.197697677105977
 30
0.0
 10
6.613217867127596
 20
-6.187999079280835
 30
0.0
 10
6.648196991739945
 20
-6.172732937729837
 30
0.0
  0
SPLINE
  5
DD
330
70
100
AcDbEntity
  8
0
370
     9
100
AcDbSpline
210
0.0
220
0.0
230
1.0
 70
     8
 71
     3
 72
     8
 73
     4
 74
     0
 42
0.000000001
 43
0.0000000001
 40
0.0
 40
0.0
 40
0.0
 40
0.0
 40
1.0
 40
1.0
 40
1.0
 40
1.0
 10
6.355528216148992
 20
-6.172732937729837
 30
0.0
 10
6.390507340761531
 20
-6.187999079280835
 30
0.0
 10
6.427659880138963
 20
-6.197697677105977
 30
0.0
 10
6.465637669711549
 20
-6.201476795480252
 30
0.0
  0
LINE
  5
DE
330
70
100
AcDbEntity
  8
0
370
     9
100
AcDbLine
 10
6.648196991739433
 20
-6.172732937729837
 30
0.0
 11
6.645327690018372
 21
-6.16615854156483
 31
0.0
  0
LINE
  5
DF
330
70
100
AcDbEntity
  8
0
370
     9
100
AcDbLine
 10
6.358397517870756
 20
-6.16615854156483
 30
0.0
 11
6.355528216149695
 21
-6.172732937729837
 31
0.0
  0
LINE
  5
E0
330
70
100
AcDbEntity
  8
0
370
     9
100
AcDbLine
 10
8.441510567658902
 20
-6.172732937729837
 30
0.0
 11
8.438641265937139
 21
-6.16615854156483
 31
0.0
  0
LINE
  5
E1
330
70
100
AcDbEntity
  8
0
370
     9
100
AcDbLine
 10
8.151711093790227
 20
-6.16615854156483
 30
0.0
 11
8.148841792069104
 21
-6.172732937729837
 31
0.0
  0
SPLINE
  5
E2
330
70
100
AcDbEntity
  8
0
370
     9
100
AcDbSpline
210
0.0
220
0.0
230
1.0
 70
     8
 71
     3
 72
     8
 73
     4
 74
     0
 42
0.000000001
 43
0.0000000001
 40
0.0
 40
0.0
 40
0.0
 40
0.0
 40
1.0
 40
1.0
 40
1.0
 40
1.0
 10
8.331401114096987
 20
-6.201476795480252
 30
0.0
 10
8.369378903669572
 20
-6.197697677105977
 30
0.0
 10
8.406531443047006
 20
-6.187999079280835
 30
0.0
 10
8.441510567659545
 20
-6.172732937729837
 30
0.0
  0
SPLINE
  5
E3
330
70
100
AcDbEntity
  8
0
370
     9
100
AcDbSpline
210
0.0
220
0.0
230
1.0
 70
     8
 71
     3
 72
     8
 73
     4
 74
     0
 42
0.000000001
 43
0.0000000001
 40
0.0
 40
0.0
 40
0.0
 40
0.0
 40
1.0
 40
1.0
 40
1.0
 40
1.0
 10
8.148841792068143
 20
-6.172732937729837
 30
0.0
 10
8.183820916680682
 20
-6.187999079280835
 30
0.0
 10
8.220973456058436
 20
-6.197697677105977
 30
0.0
 10
8.258951245630701
 20
-6.201476795480252
 30
0.0
  0
LINE
  5
E4
330
70
100
AcDbEntity
  8
0
370
     9
100
AcDbLine
 10
9.084234153268511
 20
-6.367686160074859
 30
0.0
 11
9.084234153268511
 21
-6.22422107400118
 31
0.0
  0
LINE
  5
E5
330
70
100
AcDbEntity
  8
0
370
     9
100
AcDbLine
 10
9.084234153268511
 20
-6.22422107400118
 30
0.0
 11
0.9784567901129523
 21
-6.22422107400118
 31
0.0
  0
LINE
  5
E6
330
70
100
AcDbEntity
  8
0
370
     9
100
AcDbLine
 10
0.834991704039464
 20
-6.367686160074859
 30
0.0
 11
9.084234153268511
 21
-6.367686160074859
 31
0.0
  0
LINE
  5
E7
330
70
100
AcDbEntity
  8
0
370
     9
100
AcDbLine
 10
6.541315502614803
 20
-6.202701311090517
 30
0.0
 11
6.462409705274132
 21
-6.202701311090517
 31
0.0
  0
LINE
  5
E8
330
70
100
AcDbEntity
  8
0
370
     9
100
AcDbLine
 10
8.334629078533954
 20
-6.202701311090517
 30
0.0
 11
8.255723281193732
 21
-6.202701311090517
 31
0.0
  0
LINE
  5
E9
330
70
100
AcDbEntity
  8
0
370
     9
100
AcDbLine
 10
6.648196991739433
 20
-6.172732937729837
 30
0.0
 11
6.355528216149695
 21
-6.172732937729837
 31
0.0
  0
LINE
  5
EA
330
70
100
AcDbEntity
  8
0
370
     9
100
AcDbLine
 10
6.538087538177838
 20
-6.201476795480252
 30
0.0
 11
6.465637669711292
 21
-6.201476795480252
 31
0.0
  0
LINE
  5
EB
330
70
100
AcDbEntity
  8
0
370
     9
100
AcDbLine
 10
6.645327690018372
 20
-6.16615854156483
 30
0.0
 11
6.358397517870756
 21
-6.16615854156483
 31
0.0
  0
LINE
  5
EC
330
70
100
AcDbEntity
  8
0
370
     9
100
AcDbLine
 10
8.441510567658902
 20
-6.172732937729837
 30
0.0
 11
8.148841792069104
 21
-6.172732937729837
 31
0.0
  0
LINE
  5
ED
330
70
100
AcDbEntity
  8
0
370
     9
100
AcDbLine
 10
8.438641265937139
 20
-6.16615854156483
 30
0.0
 11
8.151711093790227
 21
-6.16615854156483
 31
0.0
  0
LINE
  5
EE
330
70
100
AcDbEntity
  8
0
370
     9
100
AcDbLine
 10
8.331401114097307
 20
-6.201476795480252
 30
0.0
 11
8.258951245630058
 21
-6.201476795480252
 31
0.0
  0
LINE
  5
EF
330
70
100
AcDbEntity
  8
0
370
     9
100
AcDbLine
 10
6.552075384070422
 20
-6.213819855260701
 30
0.0
 11
6.451649823818706
 21
-6.213819855260701
 31
0.0
  0
LINE
  5
F0
330
70
100
AcDbEntity
  8
0
370
     9
100
AcDbLine
 10
6.552075384070422
 20
-6.213461192545945
 30
0.0
 11
6.451649823818706
 21
-6.213461192545945
 31
0.0
  0
LINE
  5
F1
330
70
100
AcDbEntity
  8
0
370
     9
100
AcDbLine
 10
8.345388959989831
 20
-6.213461192545945
 30
0.0
 11
8.244963399738178
 21
-6.213461192545945
 31
0.0
  0
LINE
  5
F2
330
70
100
AcDbEntity
  8
0
370
     9
100
AcDbLine
 10
8.345388959989831
 20
-6.213819855260701
 30
0.0
 11
8.244963399738178
 21
-6.213819855260701
 31
0.0
  0
LINE
  5
F3
330
70
100
AcDbEntity
  8
0
370
     9
100
AcDbLine
 10
2.915235452105846
 20
-4.022032002772161
 30
0.0
 11
2.915235452105846
 21
-4.108111054416855
 31
0.0
  0
LINE
  5
F4
330
70
100
AcDbEntity
  8
0
370
     9
100
AcDbLine
 10
3.058700538179336
 20
-4.108111054416855
 30
0.0
 11
3.058700538179336
 21
-4.022032002772161
 31
0.0
  0
LINE
  5
F5
330
70
100
AcDbEntity
  8
0
370
     9
100
AcDbLine
 10
3.058700538179336
 20
-4.108111054416855
 30
0.0
 11
2.915235452105846
 21
-4.108111054416855
 31
0.0
  0
LINE
  5
FC
330
70
100
AcDbEntity
  8
0
370
     9
100
AcDbLine
 10
5.11742452333496
 20
-6.213819855260701
 30
0.0
 11
5.11742452333496
 21
-6.213461192545945
 31
0.0
  0
LINE
  5
FD
330
70
100
AcDbEntity
  8
0
370
     9
100
AcDbLine
 10
5.016998963083501
 20
-6.213461192545945
 30
0.0
 11
5.016998963083501
 21
-6.213819855260701
 31
0.0
  0
SPLINE
  5
FE
330
70
100
AcDbEntity
  8
0
370
     9
100
AcDbSpline
210
0.0
220
0.0
230
1.0
 70
     8
 71
     3
 72
     8
 73
     4
 74
     0
 42
0.000000001
 43
0.0000000001
 40
0.0
 40
0.0
 40
0.0
 40
0.0
 40
1.0
 40
1.0
 40
1.0
 40
1.0
 10
5.11742452333496
 20
-6.213461192545945
 30
0.0
 10
5.11742452333496
 20
-6.207518674107602
 30
0.0
 10
5.11260716031698
 20
-6.202701311090517
 30
0.0
 10
5.106664641879151
 20
-6.202701311090517
 30
0.0
  0
SPLINE
  5
FF
330
70
100
AcDbEntity
  8
0
370
     9
100
AcDbSpline
210
0.0
220
0.0
230
1.0
 70
     8
 71
     3
 72
     8
 73
     4
 74
     0
 42
0.000000001
 43
0.0000000001
 40
0.0
 40
0.0
 40
0.0
 40
0.0
 40
1.0
 40
1.0
 40
1.0
 40
1.0
 10
5.107023304594353
 20
-6.22422107400118
 30
0.0
 10
5.112767739084667
 20
-6.22422107400118
 30
0.0
 10
5.117424523334514
 20
-6.219564289751271
 30
0.0
 10
5.117424523334514
 20
-6.213819855260701
 30
0.0
  0
SPLINE
  5
100
330
70
100
AcDbEntity
  8
0
370
     9
100
AcDbSpline
210
0.0
220
0.0
230
1.0
 70
     8
 71
     3
 72
     8
 73
     4
 74
     0
 42
0.000000001
 43
0.0000000001
 40
0.0
 40
0.0
 40
0.0
 40
0.0
 40
1.0
 40
1.0
 40
1.0
 40
1.0
 10
5.016998963083501
 20
-6.213819855260701
 30
0.0
 10
5.016998963083501
 20
-6.219564289751271
 30
0.0
 10
5.02165574733392
 20
-6.22422107400118
 30
0.0
 10
5.027400181823592
 20
-6.22422107400118
 30
0.0
  0
LINE
  5
101
330
70
100
AcDbEntity
  8
0
370
     9
100
AcDbLine
 10
5.106664641879151
 20
-6.202701311090517
 30
0.0
 11
5.027758844538799
 21
-6.202701311090517
 31
0.0
  0
LINE
  5
102
330
70
100
AcDbEntity
  8
0
370
     9
100
AcDbLine
 10
5.207708314282719
 20
-6.173957453340037
 30
0.0
 11
5.204839012560957
 21
-6.16738305717516
 31
0.0
  0
LINE
  5
103
330
70
100
AcDbEntity
  8
0
370
     9
100
AcDbLine
 10
4.917908840414011
 20
-6.16738305717516
 30
0.0
 11
4.915039538692761
 21
-6.173957453340037
 31
0.0
  0
SPLINE
  5
104
330
70
100
AcDbEntity
  8
0
370
     9
100
AcDbSpline
210
0.0
220
0.0
230
1.0
 70
     8
 71
     3
 72
     8
 73
     4
 74
     0
 42
0.000000001
 43
0.0000000001
 40
0.0
 40
0.0
 40
0.0
 40
0.0
 40
1.0
 40
1.0
 40
1.0
 40
1.0
 10
5.097598860720805
 20
-6.202701311090517
 30
0.0
 10
5.135576650293454
 20
-6.198922192716307
 30
0.0
 10
5.172729189670824
 20
-6.189223594890075
 30
0.0
 10
5.207708314283039
 20
-6.173957453340037
 30
0.0
  0
SPLINE
  5
105
330
70
100
AcDbEntity
  8
0
370
     9
100
AcDbSpline
210
0.0
220
0.0
230
1.0
 70
     8
 71
     3
 72
     8
 73
     4
 74
     0
 42
0.000000001
 43
0.0000000001
 40
0.0
 40
0.0
 40
0.0
 40
0.0
 40
1.0
 40
1.0
 40
1.0
 40
1.0
 10
4.915039538691863
 20
-6.173957453340037
 30
0.0
 10
4.950018663304339
 20
-6.189223594890075
 30
0.0
 10
4.987171202682061
 20
-6.198922192716307
 30
0.0
 10
5.025148992254387
 20
-6.202701311090517
 30
0.0
  0
LINE
  5
106
330
70
100
AcDbEntity
  8
0
370
     9
100
AcDbLine
 10
5.061373926487533
 20
-6.173957453340037
 30
0.0
 11
4.915039538692761
 21
-6.173957453340037
 31
0.0
  0
LINE
  5
107
330
70
100
AcDbEntity
  8
0
370
     9
100
AcDbLine
 10
5.061373926487533
 20
-6.16738305717516
 30
0.0
 11
4.917908840414011
 21
-6.16738305717516
 31
0.0
  0
LINE
  5
108
330
70
100
AcDbEntity
  8
0
370
     9
100
AcDbLine
 10
5.204839012560957
 20
-6.16738305717516
 30
0.0
 11
5.061373926487533
 21
-6.16738305717516
 31
0.0
  0
LINE
  5
109
330
70
100
AcDbEntity
  8
0
370
     9
100
AcDbLine
 10
5.061373926487533
 20
-6.16738305717516
 30
0.0
 11
5.003345879624896
 21
-6.16738305717516
 31
0.0
  0
LINE
  5
10A
330
70
100
AcDbEntity
  8
0
370
     9
100
AcDbLine
 10
5.061373926487533
 20
-6.16738305717516
 30
0.0
 11
5.119401973350651
 21
-6.16738305717516
 31
0.0
  0
LINE
  5
10B
330
70
100
AcDbEntity
  8
0
370
     9
100
AcDbLine
 10
5.016998963083501
 20
-6.213819855260701
 30
0.0
 11
5.016998963083501
 21
-6.213461192545945
 31
0.0
  0
SPLINE
  5
10C
330
70
100
AcDbEntity
  8
0
370
     9
100
AcDbSpline
210
0.0
220
0.0
230
1.0
 70
     8
 71
     3
 72
     8
 73
     4
 74
     0
 42
0.000000001
 43
0.0000000001
 40
0.0
 40
0.0
 40
0.0
 40
0.0
 40
1.0
 40
1.0
 40
1.0
 40
1.0
 10
5.027758844538799
 20
-6.202701311090517
 30
0.0
 10
5.021816326101034
 20
-6.202701311090517
 30
0.0
 10
5.016998963083501
 20
-6.207518674107602
 30
0.0
 10
5.016998963083501
 20
-6.213461192545945
 30
0.0
  0
SPLINE
  5
10D
330
70
100
AcDbEntity
  8
0
370
     9
100
AcDbSpline
210
0.0
220
0.0
230
1.0
 70
     8
 71
     3
 72
     8
 73
     4
 74
     0
 42
0.000000001
 43
0.0000000001
 40
0.0
 40
0.0
 40
0.0
 40
0.0
 40
1.0
 40
1.0
 40
1.0
 40
1.0
 10
5.016998963083501
 20
-6.213819855260701
 30
0.0
 10
5.016998963083501
 20
-6.219564289751271
 30
0.0
 10
5.02165574733392
 20
-6.22422107400118
 30
0.0
 10
5.027400181823592
 20
-6.22422107400118
 30
0.0
  0
LINE
  5
10E
330
70
100
AcDbEntity
  8
0
370
     9
100
AcDbLine
 10
5.016998963083501
 20
-6.213819855260701
 30
0.0
 11
5.016998963083501
 21
-6.213461192545945
 31
0.0
  0
SPLINE
  5
10F
330
70
100
AcDbEntity
  8
0
370
     9
100
AcDbSpline
210
0.0
220
0.0
230
1.0
 70
     8
 71
     3
 72
     8
 73
     4
 74
     0
 42
0.000000001
 43
0.0000000001
 40
0.0
 40
0.0
 40
0.0
 40
0.0
 40
1.0
 40
1.0
 40
1.0
 40
1.0
 10
5.027758844538799
 20
-6.202701311090517
 30
0.0
 10
5.021816326101034
 20
-6.202701311090517
 30
0.0
 10
5.016998963083501
 20
-6.207518674107602
 30
0.0
 10
5.016998963083501
 20
-6.213461192545945
 30
0.0
  0
SPLINE
  5
110
330
70
100
AcDbEntity
  8
0
370
     9
100
AcDbSpline
210
0.0
220
0.0
230
1.0
 70
     8
 71
     3
 72
     8
 73
     4
 74
     0
 42
0.000000001
 43
0.0000000001
 40
0.0
 40
0.0
 40
0.0
 40
0.0
 40
1.0
 40
1.0
 40
1.0
 40
1.0
 10
5.016998963083501
 20
-6.213819855260701
 30
0.0
 10
5.016998963083501
 20
-6.219564289751271
 30
0.0
 10
5.02165574733392
 20
-6.22422107400118
 30
0.0
 10
5.027400181823592
 20
-6.22422107400118
 30
0.0
  0
LINE
  5
112
330
70
100
AcDbEntity
  8
0
370
    18
100
AcDbLine
 10
0.834991704039464
 20
-7.896968083132182
 30
0.0
 11
9.084234153268511
 21
-7.896968083132182
 31
0.0
  0
LWPOLYLINE
  5
121
330
70
100
AcDbEntity
  8
0
370
    18
100
AcDbPolyline
 90
        2
 70
     0
 43
0.0
 10
9.202996451599981
 20
-7.860939714346822
 10
9.202996451599981
 20
-7.860939714346822
  0
HATCH
  5
122
330
70
100
AcDbEntity
  8
Livello 2
 62
   250
420
  1907995
440
 33554687
100
AcDbHatch
 10
0.0
 20
0.0
 30
0.0
210
0.0
220
0.0
230
1.0
  2
SOLID
 70
     1
 71
     1
 91
        1
 92
        3
 72
     0
 73
     1
 93
        1
 10
9.202996451599981
 20
-7.860939714346822
 97
        0
 75
     2
 76
     1
 98
        1
 10
0.0
 20
0.0
450
        0
451
        0
460
0.0
461
0.0
452
        0
462
0.0
453
        0
470

  0
LINE
  5
123
330
70
100
AcDbEntity
  8
0
370
    18
100
AcDbLine
 10
9.239024820385335
 20
-7.815904253365173
 30
0.0
 11
9.635336877023831
 21
-7.275478721585431
 31
0.0
  0
LINE
  5
131
330
70
100
AcDbEntity
  8
0
370
    18
100
AcDbLine
 10
0.637251772890355
 20
-3.806834373661832
 30
0.0
 11
0.637251772890355
 21
-7.485679018981358
 31
0.0
  0
MTEXT
  5
18F
330
70
100
AcDbEntity
  8
0
100
AcDbMText
 10
-1.352136301791227
 20
-5.486343418003223
 30
0.0
 40
0.4
 41
3.721974758659207
 46
0.0
 71
     1
 72
     5
  1
500mm
 73
     1
 44
1.0
101
Embedded Object
 70
     1
 10
1.0
 20
0.0
 30
0.0
 11
-1.352136301791227
 21
-5.486343418003223
 31
0.0
 40
3.721974758659207
 41
0.0
 42
1.733333333333333
 43
0.4
 71
     2
 72
     1
 44
3.721974758659207
 45
2.0
 73
     0
 74
     0
 46
0.0
  0
MTEXT
  5
198
330
70
100
AcDbEntity
  8
0
100
AcDbMText
 10
4.697124401674108
 20
-8.060133489763558
 30
0.0
 40
0.4
 41
4.444093146075076
 46
0.0
 71
     1
 72
     5
  1
1150mm
 73
     1
 44
1.0
101
Embedded Object
 70
     1
 10
1.0
 20
0.0
 30
0.0
 11
4.697124401674108
 21
-8.060133489763558
 31
0.0
 40
4.444093146075076
 41
0.0
 42
1.933333333333332
 43
0.4000000000000002
 71
     2
 72
     1
 44
4.444093146075076
 45
2.0
 73
     0
 74
     0
 46
0.0
  0
MTEXT
  5
19F
330
70
100
AcDbEntity
  8
0
100
AcDbMText
 10
9.886743334050683
 20
-7.537149716665487
 30
0.0
 40
0.4
 41
3.097064511193153
 46
0.0
 71
     1
 72
     5
  1
200mm
 73
     1
 44
1.0
101
Embedded Object
 70
     1
 10
1.0
 20
0.0
 30
0.0
 11
9.886743334050683
 21
-7.537149716665487
 31
0.0
 40
3.097064511193153
 41
0.0
 42
1.733333333333333
 43
0.4
 71
     2
 72
     1
 44
3.097064511193153
 45
2.0
 73
     0
 74
     0
 46
0.0
  0
SPLINE
  5
21E
330
70
100
AcDbEntity
  8
0
370
     9
100
AcDbSpline
210
0.0
220
0.0
230
1.0
 70
     8
 71
     3
 72
     8
 73
     4
 74
     0
 42
0.000000001
 43
0.0000000001
 40
0.0
 40
0.0
 40
0.0
 40
0.0
 40
1.0
 40
1.0
 40
1.0
 40
1.0
 10
6.638279284127277
 20
-6.16615854156483
 30
0.0
 10
6.799852576638205
 20
-6.090817689477082
 30
0.0
 10
6.869757781604389
 20
-5.898760828320195
 30
0.0
 10
6.794416929516579
 20
-5.737187535809782
 30
0.0
  0
SPLINE
  5
21F
330
70
100
AcDbEntity
  8
0
370
     9
100
AcDbSpline
210
0.0
220
0.0
230
1.0
 70
     8
 71
     3
 72
     8
 73
     4
 74
     0
 42
0.000000001
 43
0.0000000001
 40
1.0
 40
1.0
 40
1.0
 40
1.0
 40
2.0
 40
2.0
 40
2.0
 40
2.0
 10
6.794416929516579
 20
-5.737187535809782
 30
0.0
 10
6.719076077429281
 20
-5.575614243299241
 30
0.0
 10
6.527019216272392
 20
-5.505709038333697
 30
0.0
 10
6.365445923761853
 20
-5.58104989042048
 30
0.0
  0
SPLINE
  5
220
330
70
100
AcDbEntity
  8
0
370
     9
100
AcDbSpline
210
0.0
220
0.0
230
1.0
 70
     8
 71
     3
 72
     8
 73
     4
 74
     0
 42
0.000000001
 43
0.0000000001
 40
2.0
 40
2.0
 40
2.0
 40
2.0
 40
3.0
 40
3.0
 40
3.0
 40
3.0
 10
6.365445923761853
 20
-5.58104989042048
 30
0.0
 10
6.203872631251439
 20
-5.656390742508164
 30
0.0
 10
6.13396742628474
 20
-5.848447603665052
 30
0.0
 10
6.209308278372549
 20
-6.010020896175594
 30
0.0
  0
SPLINE
  5
221
330
70
100
AcDbEntity
  8
0
370
     9
100
AcDbSpline
210
0.0
220
0.0
230
1.0
 70
     8
 71
     3
 72
     8
 73
     4
 74
     0
 42
0.000000001
 43
0.0000000001
 40
3.0
 40
3.0
 40
3.0
 40
3.0
 40
4.0
 40
4.0
 40
4.0
 40
4.0
 10
6.209308278372549
 20
-6.010020896175594
 30
0.0
 10
6.241381159092204
 20
-6.078803247245351
 30
0.0
 10
6.296663572691962
 20
-6.134085660845687
 30
0.0
 10
6.365445923761853
 20
-6.16615854156483
 30
0.0
  0
SPLINE
  5
222
330
70
100
AcDbEntity
  8
0
370
     9
100
AcDbSpline
210
0.0
220
0.0
230
1.0
 70
     8
 71
     3
 72
     8
 73
     4
 74
     0
 42
0.000000001
 43
0.0000000001
 40
0.0
 40
0.0
 40
0.0
 40
0.0
 40
1.0
 40
1.0
 40
1.0
 40
1.0
 10
8.426802334579697
 20
-6.16615854156483
 30
0.0
 10
8.653114200032206
 20
-6.093463423635771
 30
0.0
 10
8.777645178967642
 20
-5.851070371125842
 30
0.0
 10
8.704950061039102
 20
-5.624758505673977
 30
0.0
  0
SPLINE
  5
223
330
70
100
AcDbEntity
  8
0
370
     9
100
AcDbSpline
210
0.0
220
0.0
230
1.0
 70
     8
 71
     3
 72
    11
 73
     7
 74
     0
 42
0.000000001
 43
0.0000000001
 40
1.0
 40
1.0
 40
1.0
 40
1.0
 40
2.0
 40
2.0
 40
2.0
 40
3.0
 40
3.0
 40
3.0
 40
3.0
 10
8.704950061039102
 20
-5.624758505673977
 30
0.0
 10
8.632254943111131
 20
-5.398446640221146
 30
0.0
 10
8.389861890600112
 20
-5.273915661285832
 30
0.0
 10
8.163550025148309
 20
-5.346610779213931
 30
0.0
 10
7.937238159695803
 20
-5.419305897142089
 30
0.0
 10
7.81270718076036
 20
-5.661698949653047
 30
0.0
 10
7.885402298688267
 20
-5.888010815105042
 30
0.0
  0
SPLINE
  5
224
330
70
100
AcDbEntity
  8
0
370
     9
100
AcDbSpline
210
0.0
220
0.0
230
1.0
 70
     8
 71
     3
 72
     8
 73
     4
 74
     0
 42
0.000000001
 43
0.0000000001
 40
3.0
 40
3.0
 40
3.0
 40
3.0
 40
4.0
 40
4.0
 40
4.0
 40
4.0
 10
7.885402298688267
 20
-5.888010815105042
 30
0.0
 10
7.927847817895218
 20
-6.020150701599476
 30
0.0
 10
8.031410138654262
 20
-6.123713022358647
 30
0.0
 10
8.163550025148309
 20
-6.16615854156483
 30
0.0
  0
SPLINE
  5
225
330
70
100
AcDbEntity
  8
0
370
     9
100
AcDbSpline
210
0.0
220
0.0
230
1.0
 70
     8
 71
     3
 72
     8
 73
     4
 74
     0
 42
0.000000001
 43
0.0000000001
 40
0.0
 40
0.0
 40
0.0
 40
0.0
 40
1.0
 40
1.0
 40
1.0
 40
1.0
 10
6.638279284127277
 20
-6.16615854156483
 30
0.0
 10
6.799852576638205
 20
-6.090817689477082
 30
0.0
 10
6.869757781604389
 20
-5.898760828320195
 30
0.0
 10
6.794416929516579
 20
-5.737187535809782
 30
0.0
  0
SPLINE
  5
226
330
70
100
AcDbEntity
  8
0
370
     9
100
AcDbSpline
210
0.0
220
0.0
230
1.0
 70
     8
 71
     3
 72
     8
 73
     4
 74
     0
 42
0.000000001
 43
0.0000000001
 40
1.0
 40
1.0
 40
1.0
 40
1.0
 40
2.0
 40
2.0
 40
2.0
 40
2.0
 10
6.794416929516579
 20
-5.737187535809782
 30
0.0
 10
6.719076077429281
 20
-5.575614243299241
 30
0.0
 10
6.527019216272392
 20
-5.505709038333697
 30
0.0
 10
6.365445923761853
 20
-5.58104989042048
 30
0.0
  0
SPLINE
  5
227
330
70
100
AcDbEntity
  8
0
370
     9
100
AcDbSpline
210
0.0
220
0.0
230
1.0
 70
     8
 71
     3
 72
     8
 73
     4
 74
     0
 42
0.000000001
 43
0.0000000001
 40
2.0
 40
2.0
 40
2.0
 40
2.0
 40
3.0
 40
3.0
 40
3.0
 40
3.0
 10
6.365445923761853
 20
-5.58104989042048
 30
0.0
 10
6.203872631251439
 20
-5.656390742508164
 30
0.0
 10
6.13396742628474
 20
-5.848447603665052
 30
0.0
 10
6.209308278372549
 20
-6.010020896175594
 30
0.0
  0
SPLINE
  5
228
330
70
100
AcDbEntity
  8
0
370
     9
100
AcDbSpline
210
0.0
220
0.0
230
1.0
 70
     8
 71
     3
 72
     8
 73
     4
 74
     0
 42
0.000000001
 43
0.0000000001
 40
3.0
 40
3.0
 40
3.0
 40
3.0
 40
4.0
 40
4.0
 40
4.0
 40
4.0
 10
6.209308278372549
 20
-6.010020896175594
 30
0.0
 10
6.241381159092204
 20
-6.078803247245351
 30
0.0
 10
6.296663572691962
 20
-6.134085660845687
 30
0.0
 10
6.365445923761853
 20
-6.16615854156483
 30
0.0
  0
SPLINE
  5
229
330
70
100
AcDbEntity
  8
Livello 1
370
     9
100
AcDbSpline
210
0.0
220
0.0
230
1.0
 70
     8
 71
     3
 72
    17
 73
    13
 74
     0
 42
0.000000001
 43
0.0000000001
 40
0.0
 40
0.0
 40
0.0
 40
0.0
 40
1.0
 40
1.0
 40
1.0
 40
2.0
 40
2.0
 40
2.0
 40
3.0
 40
3.0
 40
3.0
 40
4.0
 40
4.0
 40
4.0
 40
4.0
 10
5.156846910581542
 20
-6.184781173634807
 30
0.0
 10
5.389335579412978
 20
-6.135277037646652
 30
0.0
 10
5.537673852240891
 20
-5.906676702050752
 30
0.0
 10
5.488169716252417
 20
-5.674188033218737
 30
0.0
 10
5.438665580264326
 20
-5.441699364387556
 30
0.0
 10
5.21006524466836
 20
-5.293361091559193
 30
0.0
 10
4.977576575836826
 20
-5.342865227548119
 30
0.0
 10
4.745087907005196
 20
-5.392369363536273
 30
0.0
 10
4.596749634177347
 20
-5.620969699132174
 30
0.0
 10
4.646253770165403
 20
-5.853458367963357
 30
0.0
 10
4.681627279858338
 20
-6.019584692890892
 30
0.0
 10
4.811394357697377
 20
-6.149370583659638
 30
0.0
 10
4.977515552990531
 20
-6.184768175331774
 30
0.0
  0
SPLINE
  5
22A
330
70
100
AcDbEntity
  8
Livello 1
 62
    18
420
    65793
370
     9
100
AcDbSpline
210
0.0
220
0.0
230
1.0
 70
     9
 71
     3
 72
    23
 73
    19
 74
     0
 42
0.000000001
 43
0.0000000001
 40
0.0
 40
0.0
 40
0.0
 40
0.0
 40
1.0
 40
1.0
 40
1.0
 40
2.0
 40
2.0
 40
2.0
 40
3.0
 40
3.0
 40
3.0
 40
4.0
 40
4.0
 40
4.0
 40
5.0
 40
5.0
 40
5.0
 40
6.0
 40
6.0
 40
6.0
 40
6.0
 10
5.149673656277966
 20
-6.191941429635285
 30
0.0
 10
5.149673656277966
 20
-6.191941429635285
 30
0.0
 10
4.984688807293721
 20
-6.191941429635285
 30
0.0
 10
4.984688807293721
 20
-6.191941429635285
 30
0.0
 10
4.980727128335082
 20
-6.191941429635285
 30
0.0
 10
4.977515552989633
 20
-6.188729854290222
 30
0.0
 10
4.977515552990146
 20
-6.184768175331774
 30
0.0
 10
4.977515552990146
 20
-6.184768175331774
 30
0.0
 10
4.977515552990146
 20
-6.184768175331774
 30
0.0
 10
4.977515552990146
 20
-6.184768175331774
 30
0.0
 10
4.977515552990146
 20
-6.184768175331774
 30
0.0
 10
5.156846910582054
 20
-6.184768175331774
 30
0.0
 10
5.156846910582054
 20
-6.184768175331774
 30
0.0
 10
5.156846910582054
 20
-6.184768175331774
 30
0.0
 10
5.156846910582054
 20
-6.184768175331774
 30
0.0
 10
5.156846910582054
 20
-6.184768175331774
 30
0.0
 10
5.156846910582054
 20
-6.188729854290222
 30
0.0
 10
5.153635335236862
 20
-6.191941429635285
 30
0.0
 10
5.149673656277966
 20
-6.191941429635285
 30
0.0
  0
ENDSEC
  0
SECTION
  2
OBJECTS
  0
DICTIONARY
  5
C
330
0
100
AcDbDictionary
281
     1
  3
ACAD_CIP_PREVIOUS_PRODUCT_INFO
350
182
  3
ACAD_COLOR
350
63
  3
ACAD_DETAILVIEWSTYLE
350
6A
  3
ACAD_GROUP
350
D
  3
ACAD_LAYOUT
350
62
  3
ACAD_MATERIAL
350
10
  3
ACAD_MLEADERSTYLE
350
66
  3
ACAD_MLINESTYLE
350
5F
  3
ACAD_PLOTSETTINGS
350
61
  3
ACAD_PLOTSTYLENAME
350
E
  3
ACAD_SCALELIST
350
42
  3
ACAD_SECTIONVIEWSTYLE
350
68
  3
ACAD_TABLESTYLE
350
64
  3
ACAD_VISUALSTYLE
350
29
  3
ACDB_RECOMPOSE_DATA
350
22C
  3
AcDbVariableDictionary
350
13F
  0
DICTIONARY
  5
187
330
2
100
AcDbDictionary
280
     1
281
     1
  3
ACAD_LAYERSTATES
360
188
  0
DICTIONARY
  5
21C
330
70
100
AcDbDictionary
280
     1
281
     1
  3
ACAD_SORTENTS
360
21D
  0
XRECORD
  5
182
102
{ACAD_REACTORS
330
C
102
}
330
C
100
AcDbXrecord
280
     1
300
ACD
300
2020
300

  0
DICTIONARY
  5
63
102
{ACAD_REACTORS
330
C
102
}
330
C
100
AcDbDictionary
281
     1
  0
DICTIONARY
  5
6A
102
{ACAD_REACTORS
330
C
102
}
330
C
100
AcDbDictionary
281
     1
  3
Imperial24
350
6B
  0
DICTIONARY
  5
D
102
{ACAD_REACTORS
330
C
102
}
330
C
100
AcDbDictionary
281
     1
  0
DICTIONARY
  5
62
102
{ACAD_REACTORS
330
C
102
}
330
C
100
AcDbDictionary
281
     1
  3
Layout1
350
6F
  3
Layout2
350
77
  3
Model
350
73
  0
DICTIONARY
  5
10
102
{ACAD_REACTORS
330
C
102
}
330
C
100
AcDbDictionary
281
     1
  3
ByBlock
350
19
  3
ByLayer
350
11
  3
Global
350
21
  0
DICTIONARY
  5
66
102
{ACAD_REACTORS
330
C
102
}
330
C
100
AcDbDictionary
281
     1
  3
Standard
350
67
  0
DICTIONARY
  5
5F
102
{ACAD_REACTORS
330
C
102
}
330
C
100
AcDbDictionary
281
     1
  3
Standard
350
60
  0
DICTIONARY
  5
61
102
{ACAD_REACTORS
330
C
102
}
330
C
100
AcDbDictionary
281
     1
  0
ACDBDICTIONARYWDFLT
  5
E
102
{ACAD_REACTORS
330
C
102
}
330
C
100
AcDbDictionary
281
     1
  3
Normal
350
F
100
AcDbDictionaryWithDefault
340
F
  0
DICTIONARY
  5
42
102
{ACAD_REACTORS
330
C
102
}
330
C
100
AcDbDictionary
281
     1
  3
A0
350
43
  3
A1
350
44
  3
A2
350
45
  3
A3
350
46
  3
A4
350
47
  3
A5
350
48
  3
A6
350
49
  3
A7
350
4A
  3
A8
350
4B
  3
A9
350
4C
  3
B0
350
4D
  3
B1
350
4E
  3
B2
350
4F
  3
B3
350
50
  3
B4
350
51
  3
B5
350
52
  3
B6
350
53
  0
DICTIONARY
  5
68
102
{ACAD_REACTORS
330
C
102
}
330
C
100
AcDbDictionary
281
     1
  3
Imperial24
350
69
  0
DICTIONARY
  5
64
102
{ACAD_REACTORS
330
C
102
}
330
C
100
AcDbDictionary
281
     1
  3
Standard
350
65
  0
DICTIONARY
  5
29
102
{ACAD_REACTORS
330
C
102
}
330
C
100
AcDbDictionary
281
     1
  3
2dWireframe
350
2F
  3
Basic
350
2E
  3
Brighten
350
35
  3
ColorChange
350
39
  3
Conceptual
350
32
  3
Dim
350
34
  3
EdgeColorOff
350
41
  3
Facepattern
350
38
  3
Flat
350
2A
  3
FlatWithEdges
350
2B
  3
Gouraud
350
2C
  3
GouraudWithEdges
350
2D
  3
Hidden
350
31
  3
JitterOff
350
3F
  3
Linepattern
350
37
  3
OverhangOff
350
40
  3
Realistic
350
33
  3
Shaded
350
3E
  3
Shaded with edges
350
3D
  3
Shades of Gray
350
3A
  3
Sketchy
350
3B
  3
Thicken
350
36
  3
Wireframe
350
30
  3
X-Ray
350
3C
  0
XRECORD
  5
22C
102
{ACAD_REACTORS
330
C
102
}
330
C
100
AcDbXrecord
280
     1
 90
        1
330
65
  0
DICTIONARY
  5
13F
102
{ACAD_REACTORS
330
C
102
}
330
C
100
AcDbDictionary
281
     1
  3
CANNOSCALE
350
144
  3
CMLEADERSTYLE
350
141
  3
CTABLESTYLE
350
140
  3
CVIEWDETAILSTYLE
350
142
  3
CVIEWSECTIONSTYLE
350
143
  0
DICTIONARY
  5
188
102
{ACAD_REACTORS
330
187
102
}
330
187
100
AcDbDictionary
281
     1
  0
SORTENTSTABLE
  5
21D
102
{ACAD_REACTORS
330
21C
102
}
330
21C
100
AcDbSortentsTable
330
70
331
96
  5
9A
331
97
  5
9B
331
98
  5
9C
331
99
  5
9D
331
9A
  5
9E
331
9B
  5
9F
331
9C
  5
A0
331
9D
  5
A1
331
9E
  5
A2
331
9F
  5
A3
331
A0
  5
A4
331
A1
  5
A5
331
A2
  5
A6
331
A3
  5
A7
331
A4
  5
A8
331
A5
  5
A9
331
A6
  5
AA
331
A7
  5
AB
331
A8
  5
AC
331
A9
  5
AD
331
AA
  5
AE
331
AB
  5
AF
331
AC
  5
B0
331
AD
  5
B1
331
AE
  5
B2
331
AF
  5
B3
331
B0
  5
B4
331
B1
  5
B5
331
B2
  5
B6
331
B3
  5
B7
331
B4
  5
B8
331
B5
  5
B9
331
B6
  5
BA
331
B7
  5
BB
331
B8
  5
BC
331
B9
  5
BD
331
BA
  5
BE
331
BB
  5
BF
331
BC
  5
C0
331
BD
  5
C1
331
BE
  5
C2
331
BF
  5
C3
331
C0
  5
C4
331
C1
  5
C5
331
C2
  5
C6
331
C3
  5
C7
331
C4
  5
C8
331
C5
  5
C9
331
C6
  5
CA
331
C7
  5
CB
331
C8
  5
CC
331
C9
  5
CD
331
CA
  5
CF
331
CB
  5
D0
331
CC
  5
D1
331
CD
  5
D2
331
CF
  5
D6
331
D0
  5
D7
331
D1
  5
D8
331
D2
  5
D9
331
D3
  5
DA
331
D4
  5
DC
331
D5
  5
DD
331
D6
  5
DE
331
D7
  5
DF
331
D8
  5
E0
331
D9
  5
E1
331
DA
  5
E2
331
DC
  5
E7
331
DD
  5
E8
331
DE
  5
E9
331
DF
  5
EA
331
E0
  5
EB
331
E1
  5
EC
331
E2
  5
ED
331
E3
  5
EE
331
E4
  5
EF
331
E5
  5
F0
331
E6
  5
F1
331
E7
  5
F2
331
E8
  5
F3
331
E9
  5
F4
331
EA
  5
F5
331
EB
  5
FC
331
EC
  5
FD
331
ED
  5
FE
331
EE
  5
FF
331
EF
  5
100
331
F0
  5
101
331
F1
  5
102
331
F2
  5
103
331
F3
  5
104
331
F4
  5
105
331
F5
  5
106
331
FC
  5
109
331
FD
  5
10A
331
FE
  5
10B
331
FF
  5
10C
331
100
  5
10D
331
101
  5
10E
331
102
  5
10F
331
103
  5
110
331
104
  5
112
331
105
  5
121
331
106
  5
122
331
107
  5
123
331
108
  5
131
331
109
  5
18F
331
10A
  5
198
331
10B
  5
19F
331
10C
  5
21E
331
10D
  5
21F
331
10E
  5
220
331
10F
  5
221
331
110
  5
222
331
112
  5
223
331
121
  5
224
331
122
  5
225
331
123
  5
226
331
131
  5
227
331
18F
  5
228
331
198
  5
229
331
19F
  5
22A
331
21E
  5
96
331
21F
  5
97
331
220
  5
98
331
221
  5
99
331
222
  5
D3
331
223
  5
D4
331
224
  5
D5
331
225
  5
E3
331
226
  5
E4
331
227
  5
E5
331
228
  5
E6
331
229
  5
107
331
22A
  5
108
  0
ACDBDETAILVIEWSTYLE
  5
6B
102
{ACAD_REACTORS
330
6A
102
}
330
6A
100
AcDbModelDocViewStyle
 70
     0
  3
Imperial24
290
     0
300
Imperial24
 90
        0
100
AcDbDetailViewStyle
 70
     0
 71
     0
 90
        3
 71
     1
340
55
 62
   256
 40
0.24
340
0
 62
   256
 40
0.24
300

 40
0.36
280
     3
 71
     2
340
5D
 90
       25
 62
   256
 71
     3
340
55
 62
   256
 40
0.24
 90
        1
 40
0.75
 90
        1
300
%<\AcVar ViewType \f "%tc1">% %<\AcVar ViewDetailId>%\PSCALE %<\AcVar ViewScale \f "%sn">%
 71
     4
340
5D
 90
       25
 62
   256
340
5D
 90
       25
 62
   256
280
     0
  0
LAYOUT
  5
6F
102
{ACAD_REACTORS
330
62
102
}
330
62
100
AcDbPlotSettings
  1

  2

  4

  6

 40
0.0
 41
0.0
 42
0.0
 43
0.0
 44
0.0
 45
0.0
 46
0.0
 47
0.0
 48
0.0
 49
0.0
140
0.0
141
0.0
142
1.0
143
1.0
 70
   688
 72
     0
 73
     0
 74
     5
  7

 75
    16
147
1.0
 76
     0
 77
     2
 78
   300
148
0.0
149
0.0
100
AcDbLayout
  1
Layout1
 70
     1
 71
     1
 10
0.0
 20
0.0
 11
12.0
 21
9.0
 12
0.0
 22
0.0
 32
0.0
 14
1.000000000000000E+20
 24
1.000000000000000E+20
 34
1.000000000000000E+20
 15
-1.000000000000000E+20
 25
-1.000000000000000E+20
 35
-1.000000000000000E+20
146
0.0
 13
0.0
 23
0.0
 33
0.0
 16
1.0
 26
0.0
 36
0.0
 17
0.0
 27
1.0
 37
0.0
 76
     0
330
6C
  0
LAYOUT
  5
77
102
{ACAD_REACTORS
330
62
102
}
330
62
100
AcDbPlotSettings
  1

  2

  4

  6

 40
0.0
 41
0.0
 42
0.0
 43
0.0
 44
0.0
 45
0.0
 46
0.0
 47
0.0
 48
0.0
 49
0.0
140
0.0
141
0.0
142
1.0
143
1.0
 70
   688
 72
     0
 73
     0
 74
     5
  7

 75
    16
147
1.0
 76
     0
 77
     2
 78
   300
148
0.0
149
0.0
100
AcDbLayout
  1
Layout2
 70
     1
 71
     2
 10
0.0
 20
0.0
 11
12.0
 21
9.0
 12
0.0
 22
0.0
 32
0.0
 14
0.0
 24
0.0
 34
0.0
 15
0.0
 25
0.0
 35
0.0
146
0.0
 13
0.0
 23
0.0
 33
0.0
 16
1.0
 26
0.0
 36
0.0
 17
0.0
 27
1.0
 37
0.0
 76
     0
330
74
  0
LAYOUT
  5
73
102
{ACAD_REACTORS
330
62
102
}
330
62
100
AcDbPlotSettings
  1

  2

  4

  6

 40
0.0
 41
0.0
 42
0.0
 43
0.0
 44
0.0
 45
0.0
 46
0.0
 47
0.0
 48
0.0
 49
0.0
140
0.0
141
0.0
142
1.0
143
1.0
 70
  1712
 72
     0
 73
     0
 74
     0
  7

 75
     0
147
1.0
 76
     0
 77
     2
 78
   300
148
0.0
149
0.0
100
AcDbLayout
  1
Model
 70
     1
 71
     0
 10
0.0
 20
0.0
 11
12.0
 21
9.0
 12
0.0
 22
0.0
 32
0.0
 14
0.0
 24
0.0
 34
0.0
 15
0.0
 25
0.0
 35
0.0
146
0.0
 13
0.0
 23
0.0
 33
0.0
 16
1.0
 26
0.0
 36
0.0
 17
0.0
 27
1.0
 37
0.0
 76
     0
330
70
331
57
  0
MATERIAL
  5
19
102
{ACAD_XDICTIONARY
360
1A
102
}
102
{ACAD_REACTORS
330
10
102
}
330
10
100
AcDbMaterial
  1
ByBlock
 72
     0
 43
0.0208333333333333
 43
0.0
 43
0.0
 43
0.0
 43
0.0
 43
0.0208333333333333
 43
0.0
 43
0.0
 43
0.0
 43
0.0
 43
1.0
 43
0.0
 43
0.0
 43
0.0
 43
0.0
 43
1.0
 77
     0
 47
0.0208333333333333
 47
0.0
 47
0.0
 47
0.0
 47
0.0
 47
0.0208333333333333
 47
0.0
 47
0.0
 47
0.0
 47
0.0
 47
1.0
 47
0.0
 47
0.0
 47
0.0
 47
0.0
 47
1.0
171
     0
 49
0.0208333333333333
 49
0.0
 49
0.0
 49
0.0
 49
0.0
 49
0.0208333333333333
 49
0.0
 49
0.0
 49
0.0
 49
0.0
 49
1.0
 49
0.0
 49
0.0
 49
0.0
 49
0.0
 49
1.0
175
     0
142
0.0208333333333333
142
0.0
142
0.0
142
0.0
142
0.0
142
0.0208333333333333
142
0.0
142
0.0
142
0.0
142
0.0
142
1.0
142
0.0
142
0.0
142
0.0
142
0.0
142
1.0
179
     0
144
0.0208333333333333
144
0.0
144
0.0
144
0.0
144
0.0
144
0.0208333333333333
144
0.0
144
0.0
144
0.0
144
0.0
144
1.0
144
0.0
144
0.0
144
0.0
144
0.0
144
1.0
147
0.0208333333333333
147
0.0
147
0.0
147
0.0
147
0.0
147
0.0208333333333333
147
0.0
147
0.0
147
0.0
147
0.0
147
1.0
147
0.0
147
0.0
147
0.0
147
0.0
147
1.0
  0
MATERIAL
  5
11
102
{ACAD_XDICTIONARY
360
12
102
}
102
{ACAD_REACTORS
330
10
102
}
330
10
100
AcDbMaterial
  1
ByLayer
 72
     0
 43
0.0208333333333333
 43
0.0
 43
0.0
 43
0.0
 43
0.0
 43
0.0208333333333333
 43
0.0
 43
0.0
 43
0.0
 43
0.0
 43
1.0
 43
0.0
 43
0.0
 43
0.0
 43
0.0
 43
1.0
 77
     0
 47
0.0208333333333333
 47
0.0
 47
0.0
 47
0.0
 47
0.0
 47
0.0208333333333333
 47
0.0
 47
0.0
 47
0.0
 47
0.0
 47
1.0
 47
0.0
 47
0.0
 47
0.0
 47
0.0
 47
1.0
171
     0
 49
0.0208333333333333
 49
0.0
 49
0.0
 49
0.0
 49
0.0
 49
0.0208333333333333
 49
0.0
 49
0.0
 49
0.0
 49
0.0
 49
1.0
 49
0.0
 49
0.0
 49
0.0
 49
0.0
 49
1.0
175
     0
142
0.0208333333333333
142
0.0
142
0.0
142
0.0
142
0.0
142
0.0208333333333333
142
0.0
142
0.0
142
0.0
142
0.0
142
1.0
142
0.0
142
0.0
142
0.0
142
0.0
142
1.0
179
     0
144
0.0208333333333333
144
0.0
144
0.0
144
0.0
144
0.0
144
0.0208333333333333
144
0.0
144
0.0
144
0.0
144
0.0
144
1.0
144
0.0
144
0.0
144
0.0
144
0.0
144
1.0
147
0.0208333333333333
147
0.0
147
0.0
147
0.0
147
0.0
147
0.0208333333333333
147
0.0
147
0.0
147
0.0
147
0.0
147
1.0
147
0.0
147
0.0
147
0.0
147
0.0
147
1.0
  0
MATERIAL
  5
21
102
{ACAD_XDICTIONARY
360
22
102
}
102
{ACAD_REACTORS
330
10
102
}
330
10
100
AcDbMaterial
  1
Global
 72
     0
 43
0.0208333333333333
 43
0.0
 43
0.0
 43
0.0
 43
0.0
 43
0.0208333333333333
 43
0.0
 43
0.0
 43
0.0
 43
0.0
 43
1.0
 43
0.0
 43
0.0
 43
0.0
 43
0.0
 43
1.0
 77
     0
 47
0.0208333333333333
 47
0.0
 47
0.0
 47
0.0
 47
0.0
 47
0.0208333333333333
 47
0.0
 47
0.0
 47
0.0
 47
0.0
 47
1.0
 47
0.0
 47
0.0
 47
0.0
 47
0.0
 47
1.0
171
     0
 49
0.0208333333333333
 49
0.0
 49
0.0
 49
0.0
 49
0.0
 49
0.0208333333333333
 49
0.0
 49
0.0
 49
0.0
 49
0.0
 49
1.0
 49
0.0
 49
0.0
 49
0.0
 49
0.0
 49
1.0
175
     0
142
0.0208333333333333
142
0.0
142
0.0
142
0.0
142
0.0
142
0.0208333333333333
142
0.0
142
0.0
142
0.0
142
0.0
142
1.0
142
0.0
142
0.0
142
0.0
142
0.0
142
1.0
179
     0
144
0.0208333333333333
144
0.0
144
0.0
144
0.0
144
0.0
144
0.0208333333333333
144
0.0
144
0.0
144
0.0
144
0.0
144
1.0
144
0.0
144
0.0
144
0.0
144
0.0
144
1.0
147
0.0208333333333333
147
0.0
147
0.0
147
0.0
147
0.0
147
0.0208333333333333
147
0.0
147
0.0
147
0.0
147
0.0
147
1.0
147
0.0
147
0.0
147
0.0
147
0.0
147
1.0
  0
MLEADERSTYLE
  5
67
102
{ACAD_REACTORS
330
66
102
}
330
66
100
AcDbMLeaderStyle
179
     2
170
     2
171
     1
172
     0
 90
        2
 40
0.0
 41
0.0
173
     1
 91
-1056964608
340
5B
 92
       -2
290
     1
 42
0.09
291
     1
 43
0.36
  3
Standard
 44
0.18
300

342
55
174
     1
178
     6
175
     1
176
     0
 93
-1056964608
 45
0.18
292
     0
297
     0
 46
0.18
 94
-1056964608
 47
1.0
 49
1.0
140
1.0
293
     1
141
0.0
294
     1
177
     0
142
1.0
295
     0
296
     0
143
0.125
271
     0
272
     9
273
     9
298
     1
1001
ACAD_MLEADERVER
1070
     2
  0
MLINESTYLE
  5
60
102
{ACAD_REACTORS
330
5F
102
}
330
5F
100
AcDbMlineStyle
  2
STANDARD
 70
     0
  3

 62
   256
 51
90.0
 52
90.0
 71
     2
 49
0.5
 62
   256
  6
BYLAYER
 49
-0.5
 62
   256
  6
BYLAYER
  0
ACDBPLACEHOLDER
  5
F
102
{ACAD_REACTORS
330
E
102
}
330
E
  0
SCALE
  5
43
102
{ACAD_REACTORS
330
42
102
}
330
42
100
AcDbScale
 70
     0
300
1:1
140
1.0
141
1.0
290
     1
  0
SCALE
  5
44
102
{ACAD_REACTORS
330
42
102
}
330
42
100
AcDbScale
 70
     0
300
1/128" = 1'-0"
140
0.0078125
141
12.0
290
     0
  0
SCALE
  5
45
102
{ACAD_REACTORS
330
42
102
}
330
42
100
AcDbScale
 70
     0
300
1/64" = 1'-0"
140
0.015625
141
12.0
290
     0
  0
SCALE
  5
46
102
{ACAD_REACTORS
330
42
102
}
330
42
100
AcDbScale
 70
     0
300
1/32" = 1'-0"
140
0.03125
141
12.0
290
     0
  0
SCALE
  5
47
102
{ACAD_REACTORS
330
42
102
}
330
42
100
AcDbScale
 70
     0
300
1/16" = 1'-0"
140
0.0625
141
12.0
290
     0
  0
SCALE
  5
48
102
{ACAD_REACTORS
330
42
102
}
330
42
100
AcDbScale
 70
     0
300
3/32" = 1'-0"
140
0.09375
141
12.0
290
     0
  0
SCALE
  5
49
102
{ACAD_REACTORS
330
42
102
}
330
42
100
AcDbScale
 70
     0
300
1/8" = 1'-0"
140
0.125
141
12.0
290
     0
  0
SCALE
  5
4A
102
{ACAD_REACTORS
330
42
102
}
330
42
100
AcDbScale
 70
     0
300
3/16" = 1'-0"
140
0.1875
141
12.0
290
     0
  0
SCALE
  5
4B
102
{ACAD_REACTORS
330
42
102
}
330
42
100
AcDbScale
 70
     0
300
1/4" = 1'-0"
140
0.25
141
12.0
290
     0
  0
SCALE
  5
4C
102
{ACAD_REACTORS
330
42
102
}
330
42
100
AcDbScale
 70
     0
300
3/8" = 1'-0"
140
0.375
141
12.0
290
     0
  0
SCALE
  5
4D
102
{ACAD_REACTORS
330
42
102
}
330
42
100
AcDbScale
 70
     0
300
1/2" = 1'-0"
140
0.5
141
12.0
290
     0
  0
SCALE
  5
4E
102
{ACAD_REACTORS
330
42
102
}
330
42
100
AcDbScale
 70
     0
300
3/4" = 1'-0"
140
0.75
141
12.0
290
     0
  0
SCALE
  5
4F
102
{ACAD_REACTORS
330
42
102
}
330
42
100
AcDbScale
 70
     0
300
1" = 1'-0"
140
1.0
141
12.0
290
     0
  0
SCALE
  5
50
102
{ACAD_REACTORS
330
42
102
}
330
42
100
AcDbScale
 70
     0
300
1-1/2" = 1'-0"
140
1.5
141
12.0
290
     0
  0
SCALE
  5
51
102
{ACAD_REACTORS
330
42
102
}
330
42
100
AcDbScale
 70
     0
300
3" = 1'-0"
140
3.0
141
12.0
290
     0
  0
SCALE
  5
52
102
{ACAD_REACTORS
330
42
102
}
330
42
100
AcDbScale
 70
     0
300
6" = 1'-0"
140
6.0
141
12.0
290
     0
  0
SCALE
  5
53
102
{ACAD_REACTORS
330
42
102
}
330
42
100
AcDbScale
 70
     0
300
1'-0" = 1'-0"
140
12.0
141
12.0
290
     0
  0
ACDBSECTIONVIEWSTYLE
  5
69
102
{ACAD_REACTORS
330
68
102
}
330
68
100
AcDbModelDocViewStyle
 70
     0
  3
Imperial24
290
     0
300
Imperial24
 90
        0
100
AcDbSectionViewStyle
 70
     0
 71
     0
 90
       78
 71
     1
340
55
 62
   256
 40
0.24
340
0
340
0
 62
   256
 40
0.24
300
I, O, Q, S, X, Z
 40
0.48
 90
        3
 40
0.18
 90
        1
 71
     2
340
5D
 90
       25
 62
   256
340
5D
 90
       50
 62
   256
 40
0.24
 40
0.0
 40
0.24
 71
     3
340
55
 62
   256
 40
0.24
 90
        1
 40
0.75
 90
        1
300
%<\AcVar ViewType \f "%tc1">% %<\AcVar ViewSectionStartId>%-%<\AcVar ViewSectionEndId>%\PSCALE %<\AcVar ViewScale \f "%sn">%
 71
     4
 62
   256
 62
   257
300
ANSI31
 40
1.0
 90
        0
290
     0
290
     0
 90
        6
 40
0.0
 40
1.570796326794896
 40
0.2617993877991494
 40
1.308996938995747
 40
-0.2617993877991494
 40
1.832595714594044
  0
TABLESTYLE
  5
65
102
{ACAD_XDICTIONARY
360
145
102
}
102
{ACAD_REACTORS
330
64
102
}
330
64
100
AcDbTableStyle
280
     0
  3
Standard
 70
     0
 71
     0
 40
0.06
 41
0.06
280
     0
281
     0
  7
Standard
140
0.18
170
     2
 62
     0
 63
     7
283
     0
 90
      512
 91
        0
  1

274
    -2
284
     1
 64
     0
275
    -2
285
     1
 65
     0
276
    -2
286
     1
 66
     0
277
    -2
287
     1
 67
     0
278
    -2
288
     1
 68
     0
279
    -2
289
     1
 69
     0
  7
Standard
140
0.25
170
     5
 62
     0
 63
     7
283
     0
 90
      512
 91
        0
  1

274
    -2
284
     1
 64
     0
275
    -2
285
     1
 65
     0
276
    -2
286
     1
 66
     0
277
    -2
287
     1
 67
     0
278
    -2
288
     1
 68
     0
279
    -2
289
     1
 69
     0
  7
Standard
140
0.18
170
     5
 62
     0
 63
     7
283
     0
 90
      512
 91
        0
  1

274
    -2
284
     1
 64
     0
275
    -2
285
     1
 65
     0
276
    -2
286
     1
 66
     0
277
    -2
287
     1
 67
     0
278
    -2
288
     1
 68
     0
279
    -2
289
     1
 69
     0
  0
VISUALSTYLE
  5
2F
102
{ACAD_REACTORS
330
29
102
}
330
29
100
AcDbVisualStyle
  2

 70
     4
177
     3
291
     0
 70
    58
 90
        0
176
     1
 90
        2
176
     1
 90
        0
176
     1
 90
        0
176
     1
 40
0.6
176
     1
 40
30.0
176
     1
 62
     7
420
 16777215
176
     1
 90
        1
176
     1
 90
        4
176
     1
 62
     7
176
     1
 62
   257
176
     1
 90
        1
176
     1
 90
        1
176
     1
 40
1.0
176
     1
 90
        0
176
     1
 62
   257
176
     1
 40
1.0
176
     1
 90
        1
176
     1
 90
        6
176
     1
 90
        2
176
     1
 62
     7
176
     1
 90
        5
176
     1
 90
        0
176
     1
 90
        0
176
     1
290
     0
176
     1
 90
        1
176
     1
 40
0.0
176
     1
 90
        0
176
     1
290
     1
176
     1
290
     1
176
     1
290
     0
176
     1
290
     0
176
     1
290
     0
176
     1
290
     0
176
     1
290
     0
176
     1
290
     0
176
     1
290
     0
176
     1
 90
       50
176
     1
 40
0.0
176
     1
 40
1.0
176
     1
 90
        0
176
     1
 62
    18
420
        0
176
     1
 90
       50
176
     1
 90
        3
176
     1
 62
     5
420
      255
176
     1
290
     0
176
     1
 90
       50
176
     1
 90
       50
176
     1
 90
       50
176
     1
290
     0
176
     1
 90
       50
176
     1
 62
   256
176
     0
 40
1.0
176
     0
 90
        2
176
     1
  1
strokes_ogs.tif
176
     1
290
     0
176
     1
 40
1.0
176
     1
 40
1.0
176
     1
1001
ACAD
1000
AcDbSavedByObjectVersion
1070
     0
  0
VISUALSTYLE
  5
2E
102
{ACAD_REACTORS
330
29
102
}
330
29
100
AcDbVisualStyle
  2

 70
     7
177
     3
291
     1
 70
    58
 90
        1
176
     1
 90
        0
176
     1
 90
        1
176
     1
 90
        0
176
     1
 40
0.6
176
     1
 40
30.0
176
     1
 62
     7
420
 16777215
176
     1
 90
        0
176
     1
 90
        4
176
     1
 62
     7
176
     1
 62
   257
176
     1
 90
        1
176
     1
 90
        1
176
     1
 40
1.0
176
     1
 90
        8
176
     1
 62
     7
176
     1
 40
1.0
176
     1
 90
        1
176
     1
 90
        6
176
     1
 90
        2
176
     1
 62
     7
176
     1
 90
        5
176
     1
 90
        0
176
     1
 90
        0
176
     1
290
     0
176
     1
 90
        1
176
     1
 40
0.0
176
     1
 90
        0
176
     1
290
     0
176
     1
290
     1
176
     1
290
     1
176
     1
290
     0
176
     1
290
     0
176
     1
290
     0
176
     1
290
     0
176
     1
290
     0
176
     1
290
     0
176
     1
 90
       50
176
     1
 40
0.0
176
     1
 40
1.0
176
     1
 90
        0
176
     1
 62
    18
420
        0
176
     1
 90
       50
176
     1
 90
        3
176
     1
 62
     5
420
      255
176
     1
290
     0
176
     1
 90
       50
176
     1
 90
       50
176
     1
 90
       50
176
     1
290
     0
176
     1
 90
       50
176
     1
 62
   256
176
     0
 40
1.0
176
     0
 90
        2
176
     1
  1
strokes_ogs.tif
176
     1
290
     0
176
     1
 40
1.0
176
     1
 40
1.0
176
     1
1001
ACAD
1000
AcDbSavedByObjectVersion
1070
     0
  0
VISUALSTYLE
  5
35
102
{ACAD_REACTORS
330
29
102
}
330
29
100
AcDbVisualStyle
  2

 70
    12
177
     3
291
     1
 70
    58
 90
        2
176
     1
 90
        2
176
     1
 90
        0
176
     1
 90
        0
176
     1
 40
0.6
176
     1
 40
30.0
176
     1
 62
     7
420
 16777215
176
     1
 90
        1
176
     1
 90
        4
176
     1
 62
     7
176
     1
 62
   257
176
     1
 90
        1
176
     1
 90
        1
176
     1
 40
1.0
176
     1
 90
        8
176
     1
 62
     7
176
     1
 40
1.0
176
     1
 90
        1
176
     1
 90
        6
176
     1
 90
        2
176
     1
 62
     7
176
     1
 90
        5
176
     1
 90
        0
176
     1
 90
        0
176
     1
290
     0
176
     1
 90
        1
176
     1
 40
50.0
176
     1
 90
        0
176
     1
290
     0
176
     1
290
     1
176
     1
290
     1
176
     1
290
     0
176
     1
290
     0
176
     1
290
     0
176
     1
290
     0
176
     1
290
     0
176
     1
290
     0
176
     1
 90
       50
176
     1
 40
0.0
176
     1
 40
1.0
176
     1
 90
        0
176
     1
 62
    18
420
        0
176
     1
 90
       50
176
     1
 90
        3
176
     1
 62
     5
420
      255
176
     1
290
     0
176
     1
 90
       50
176
     1
 90
       50
176
     1
 90
       50
176
     1
290
     0
176
     1
 90
       50
176
     1
 62
   256
176
     0
 40
1.0
176
     0
 90
        2
176
     1
  1
strokes_ogs.tif
176
     1
290
     0
176
     1
 40
1.0
176
     1
 40
1.0
176
     1
1001
ACAD
1000
AcDbSavedByObjectVersion
1070
     0
  0
VISUALSTYLE
  5
39
102
{ACAD_REACTORS
330
29
102
}
330
29
100
AcDbVisualStyle
  2

 70
    16
177
     3
291
     1
 70
    58
 90
        2
176
     1
 90
        2
176
     1
 90
        3
176
     1
 90
        0
176
     1
 40
0.6
176
     1
 40
30.0
176
     1
 62
     8
420
  8421504
176
     1
 90
        1
176
     1
 90
        4
176
     1
 62
     7
176
     1
 62
   257
176
     1
 90
        1
176
     1
 90
        1
176
     1
 40
1.0
176
     1
 90
        8
176
     1
 62
     8
420
  8421504
176
     1
 40
1.0
176
     1
 90
        1
176
     1
 90
        6
176
     1
 90
        2
176
     1
 62
     7
176
     1
 90
        5
176
     1
 90
        0
176
     1
 90
        0
176
     1
290
     0
176
     1
 90
        1
176
     1
 40
0.0
176
     1
 90
        0
176
     1
290
     0
176
     1
290
     1
176
     1
290
     1
176
     1
290
     0
176
     1
290
     0
176
     1
290
     0
176
     1
290
     0
176
     1
290
     0
176
     1
290
     0
176
     1
 90
       50
176
     1
 40
0.0
176
     1
 40
1.0
176
     1
 90
        0
176
     1
 62
    18
420
        0
176
     1
 90
       50
176
     1
 90
        3
176
     1
 62
     5
420
      255
176
     1
290
     0
176
     1
 90
       50
176
     1
 90
       50
176
     1
 90
       50
176
     1
290
     0
176
     1
 90
       50
176
     1
 62
   256
176
     0
 40
1.0
176
     0
 90
        2
176
     1
  1
strokes_ogs.tif
176
     1
290
     0
176
     1
 40
1.0
176
     1
 40
1.0
176
     1
1001
ACAD
1000
AcDbSavedByObjectVersion
1070
     0
  0
VISUALSTYLE
  5
32
102
{ACAD_REACTORS
330
29
102
}
330
29
100
AcDbVisualStyle
  2

 70
     9
177
     3
291
     0
 70
    58
 90
        3
176
     1
 90
        2
176
     1
 90
        0
176
     1
 90
        0
176
     1
 40
0.6
176
     1
 40
30.0
176
     1
 62
     7
420
 16777215
176
     1
 90
        2
176
     1
 90
        2
176
     1
 62
     7
176
     1
 62
   257
176
     1
 90
        1
176
     1
 90
        1
176
     1
 40
179.0
176
     1
 90
        8
176
     1
 62
     7
176
     1
 40
1.0
176
     1
 90
        1
176
     1
 90
        6
176
     1
 90
        2
176
     1
 62
     7
176
     1
 90
        3
176
     1
 90
        0
176
     1
 90
        0
176
     1
290
     0
176
     1
 90
        1
176
     1
 40
0.0
176
     1
 90
        0
176
     1
290
     0
176
     1
290
     1
176
     1
290
     1
176
     1
290
     0
176
     1
290
     0
176
     1
290
     0
176
     1
290
     0
176
     1
290
     0
176
     1
290
     0
176
     1
 90
       50
176
     1
 40
0.0
176
     1
 40
1.0
176
     1
 90
        0
176
     1
 62
    18
420
        0
176
     1
 90
       50
176
     1
 90
        3
176
     1
 62
     5
420
      255
176
     1
290
     0
176
     1
 90
       50
176
     1
 90
       50
176
     1
 90
       50
176
     1
290
     0
176
     1
 90
       50
176
     1
 62
   256
176
     0
 40
1.0
176
     0
 90
        2
176
     1
  1
strokes_ogs.tif
176
     1
290
     0
176
     1
 40
1.0
176
     1
 40
1.0
176
     1
1001
ACAD
1000
AcDbSavedByObjectVersion
1070
     0
  0
VISUALSTYLE
  5
34
102
{ACAD_REACTORS
330
29
102
}
330
29
100
AcDbVisualStyle
  2

 70
    11
177
     3
291
     1
 70
    58
 90
        2
176
     1
 90
        2
176
     1
 90
        0
176
     1
 90
        0
176
     1
 40
0.6
176
     1
 40
30.0
176
     1
 62
     7
420
 16777215
176
     1
 90
        1
176
     1
 90
        4
176
     1
 62
     7
176
     1
 62
   257
176
     1
 90
        1
176
     1
 90
        1
176
     1
 40
1.0
176
     1
 90
        8
176
     1
 62
     7
176
     1
 40
1.0
176
     1
 90
        1
176
     1
 90
        6
176
     1
 90
        2
176
     1
 62
     7
176
     1
 90
        5
176
     1
 90
        0
176
     1
 90
        0
176
     1
290
     0
176
     1
 90
        1
176
     1
 40
-50.0
176
     1
 90
        0
176
     1
290
     0
176
     1
290
     1
176
     1
290
     1
176
     1
290
     0
176
     1
290
     0
176
     1
290
     0
176
     1
290
     0
176
     1
290
     0
176
     1
290
     0
176
     1
 90
       50
176
     1
 40
0.0
176
     1
 40
1.0
176
     1
 90
        0
176
     1
 62
    18
420
        0
176
     1
 90
       50
176
     1
 90
        3
176
     1
 62
     5
420
      255
176
     1
290
     0
176
     1
 90
       50
176
     1
 90
       50
176
     1
 90
       50
176
     1
290
     0
176
     1
 90
       50
176
     1
 62
   256
176
     0
 40
1.0
176
     0
 90
        2
176
     1
  1
strokes_ogs.tif
176
     1
290
     0
176
     1
 40
1.0
176
     1
 40
1.0
176
     1
1001
ACAD
1000
AcDbSavedByObjectVersion
1070
     0
  0
VISUALSTYLE
  5
41
102
{ACAD_REACTORS
330
29
102
}
330
29
100
AcDbVisualStyle
  2

 70
    22
177
     3
291
     1
 70
    58
 90
        2
176
     0
 90
        2
176
     0
 90
        0
176
     0
 90
        0
176
     0
 40
0.6
176
     0
 40
30.0
176
     0
 62
     7
420
 16777215
176
     0
 90
        1
176
     0
 90
        4
176
     0
 62
     7
176
     0
 62
   257
176
     0
 90
        1
176
     0
 90
        1
176
     0
 40
1.0
176
     0
 90
        8
176
     2
 62
     7
176
     0
 40
1.0
176
     0
 90
        1
176
     0
 90
        6
176
     0
 90
        2
176
     0
 62
     7
176
     0
 90
        5
176
     0
 90
        0
176
     0
 90
        0
176
     0
290
     0
176
     0
 90
        1
176
     0
 40
0.0
176
     0
 90
        0
176
     0
290
     0
176
     0
290
     1
176
     0
290
     1
176
     0
290
     0
176
     0
290
     0
176
     0
290
     0
176
     0
290
     0
176
     0
290
     0
176
     0
290
     0
176
     0
 90
       50
176
     0
 40
0.0
176
     0
 40
1.0
176
     0
 90
        0
176
     0
 62
    18
420
        0
176
     0
 90
       50
176
     0
 90
        3
176
     0
 62
     5
420
      255
176
     0
290
     0
176
     0
 90
       50
176
     0
 90
       50
176
     0
 90
       50
176
     0
290
     0
176
     0
 90
       50
176
     0
 62
   256
176
     0
 40
1.0
176
     0
 90
        2
176
     0
  1
strokes_ogs.tif
176
     0
290
     0
176
     0
 40
1.0
176
     0
 40
1.0
176
     0
1001
ACAD
1000
AcDbSavedByObjectVersion
1070
     0
  0
VISUALSTYLE
  5
38
102
{ACAD_REACTORS
330
29
102
}
330
29
100
AcDbVisualStyle
  2

 70
    15
177
     3
291
     1
 70
    58
 90
        2
176
     1
 90
        2
176
     1
 90
        0
176
     1
 90
        0
176
     1
 40
0.6
176
     1
 40
30.0
176
     1
 62
     7
420
 16777215
176
     1
 90
        1
176
     1
 90
        4
176
     1
 62
     7
176
     1
 62
   257
176
     1
 90
        1
176
     1
 90
        1
176
     1
 40
1.0
176
     1
 90
        8
176
     1
 62
     7
176
     1
 40
1.0
176
     1
 90
        1
176
     1
 90
        6
176
     1
 90
        2
176
     1
 62
     7
176
     1
 90
        5
176
     1
 90
        0
176
     1
 90
        0
176
     1
290
     0
176
     1
 90
        1
176
     1
 40
0.0
176
     1
 90
        0
176
     1
290
     0
176
     1
290
     1
176
     1
290
     1
176
     1
290
     0
176
     1
290
     0
176
     1
290
     0
176
     1
290
     0
176
     1
290
     0
176
     1
290
     0
176
     1
 90
       50
176
     1
 40
0.0
176
     1
 40
1.0
176
     1
 90
        0
176
     1
 62
    18
420
        0
176
     1
 90
       50
176
     1
 90
        3
176
     1
 62
     5
420
      255
176
     1
290
     0
176
     1
 90
       50
176
     1
 90
       50
176
     1
 90
       50
176
     1
290
     0
176
     1
 90
       50
176
     1
 62
   256
176
     0
 40
1.0
176
     0
 90
        2
176
     1
  1
strokes_ogs.tif
176
     1
290
     0
176
     1
 40
1.0
176
     1
 40
1.0
176
     1
1001
ACAD
1000
AcDbSavedByObjectVersion
1070
     0
  0
VISUALSTYLE
  5
2A
102
{ACAD_REACTORS
330
29
102
}
330
29
100
AcDbVisualStyle
  2

 70
     0
177
     3
291
     1
 70
    58
 90
        2
176
     1
 90
        1
176
     1
 90
        1
176
     1
 90
        2
176
     1
 40
0.6
176
     1
 40
30.0
176
     1
 62
     7
420
 16777215
176
     1
 90
        0
176
     1
 90
        0
176
     1
 62
     7
176
     1
 62
   257
176
     1
 90
        1
176
     1
 90
        1
176
     1
 40
1.0
176
     1
 90
        8
176
     1
 62
     7
176
     1
 40
1.0
176
     1
 90
        1
176
     1
 90
        6
176
     1
 90
        2
176
     1
 62
     7
176
     1
 90
        5
176
     1
 90
        0
176
     1
 90
        0
176
     1
290
     0
176
     1
 90
       13
176
     1
 40
0.0
176
     1
 90
        0
176
     1
290
     0
176
     1
290
     1
176
     1
290
     1
176
     1
290
     0
176
     1
290
     0
176
     1
290
     0
176
     1
290
     0
176
     1
290
     0
176
     1
290
     0
176
     1
 90
       50
176
     1
 40
0.0
176
     1
 40
1.0
176
     1
 90
        0
176
     1
 62
    18
420
        0
176
     1
 90
       50
176
     1
 90
        3
176
     1
 62
     5
420
      255
176
     1
290
     0
176
     1
 90
       50
176
     1
 90
       50
176
     1
 90
       50
176
     1
290
     0
176
     1
 90
       50
176
     1
 62
   256
176
     0
 40
1.0
176
     0
 90
        2
176
     1
  1
strokes_ogs.tif
176
     1
290
     0
176
     1
 40
1.0
176
     1
 40
1.0
176
     1
1001
ACAD
1000
AcDbSavedByObjectVersion
1070
     0
  0
VISUALSTYLE
  5
2B
102
{ACAD_REACTORS
330
29
102
}
330
29
100
AcDbVisualStyle
  2

 70
     1
177
     3
291
     1
 70
    58
 90
        2
176
     1
 90
        1
176
     1
 90
        1
176
     1
 90
        2
176
     1
 40
0.6
176
     1
 40
30.0
176
     1
 62
     7
420
 16777215
176
     1
 90
        1
176
     1
 90
        0
176
     1
 62
     7
176
     1
 62
   257
176
     1
 90
        1
176
     1
 90
        1
176
     1
 40
1.0
176
     1
 90
        0
176
     1
 62
   257
176
     1
 40
1.0
176
     1
 90
        1
176
     1
 90
        6
176
     1
 90
        2
176
     1
 62
     7
176
     1
 90
        5
176
     1
 90
        0
176
     1
 90
        0
176
     1
290
     0
176
     1
 90
       13
176
     1
 40
0.0
176
     1
 90
        0
176
     1
290
     0
176
     1
290
     1
176
     1
290
     1
176
     1
290
     0
176
     1
290
     0
176
     1
290
     0
176
     1
290
     0
176
     1
290
     0
176
     1
290
     0
176
     1
 90
       50
176
     1
 40
0.0
176
     1
 40
1.0
176
     1
 90
        0
176
     1
 62
    18
420
        0
176
     1
 90
       50
176
     1
 90
        3
176
     1
 62
     5
420
      255
176
     1
290
     0
176
     1
 90
       50
176
     1
 90
       50
176
     1
 90
       50
176
     1
290
     0
176
     1
 90
       50
176
     1
 62
   256
176
     0
 40
1.0
176
     0
 90
        2
176
     1
  1
strokes_ogs.tif
176
     1
290
     0
176
     1
 40
1.0
176
     1
 40
1.0
176
     1
1001
ACAD
1000
AcDbSavedByObjectVersion
1070
     0
  0
VISUALSTYLE
  5
2C
102
{ACAD_REACTORS
330
29
102
}
330
29
100
AcDbVisualStyle
  2

 70
     2
177
     3
291
     1
 70
    58
 90
        2
176
     1
 90
        2
176
     1
 90
        1
176
     1
 90
        2
176
     1
 40
0.6
176
     1
 40
30.0
176
     1
 62
     7
420
 16777215
176
     1
 90
        0
176
     1
 90
        0
176
     1
 62
     7
176
     1
 62
   257
176
     1
 90
        1
176
     1
 90
        1
176
     1
 40
1.0
176
     1
 90
        0
176
     1
 62
     7
176
     1
 40
1.0
176
     1
 90
        1
176
     1
 90
        6
176
     1
 90
        2
176
     1
 62
     7
176
     1
 90
        5
176
     1
 90
        0
176
     1
 90
        0
176
     1
290
     0
176
     1
 90
       13
176
     1
 40
0.0
176
     1
 90
        0
176
     1
290
     0
176
     1
290
     1
176
     1
290
     1
176
     1
290
     0
176
     1
290
     0
176
     1
290
     0
176
     1
290
     0
176
     1
290
     0
176
     1
290
     0
176
     1
 90
       50
176
     1
 40
0.0
176
     1
 40
1.0
176
     1
 90
        0
176
     1
 62
    18
420
        0
176
     1
 90
       50
176
     1
 90
        3
176
     1
 62
     5
420
      255
176
     1
290
     0
176
     1
 90
       50
176
     1
 90
       50
176
     1
 90
       50
176
     1
290
     0
176
     1
 90
       50
176
     1
 62
   256
176
     0
 40
1.0
176
     0
 90
        2
176
     1
  1
strokes_ogs.tif
176
     1
290
     0
176
     1
 40
1.0
176
     1
 40
1.0
176
     1
1001
ACAD
1000
AcDbSavedByObjectVersion
1070
     0
  0
VISUALSTYLE
  5
2D
102
{ACAD_REACTORS
330
29
102
}
330
29
100
AcDbVisualStyle
  2

 70
     3
177
     3
291
     1
 70
    58
 90
        2
176
     1
 90
        2
176
     1
 90
        1
176
     1
 90
        2
176
     1
 40
0.6
176
     1
 40
30.0
176
     1
 62
     7
420
 16777215
176
     1
 90
        1
176
     1
 90
        0
176
     1
 62
     7
176
     1
 62
   257
176
     1
 90
        1
176
     1
 90
        1
176
     1
 40
1.0
176
     1
 90
        0
176
     1
 62
   257
176
     1
 40
1.0
176
     1
 90
        1
176
     1
 90
        6
176
     1
 90
        2
176
     1
 62
     7
176
     1
 90
        5
176
     1
 90
        0
176
     1
 90
        0
176
     1
290
     0
176
     1
 90
       13
176
     1
 40
0.0
176
     1
 90
        0
176
     1
290
     0
176
     1
290
     1
176
     1
290
     1
176
     1
290
     0
176
     1
290
     0
176
     1
290
     0
176
     1
290
     0
176
     1
290
     0
176
     1
290
     0
176
     1
 90
       50
176
     1
 40
0.0
176
     1
 40
1.0
176
     1
 90
        0
176
     1
 62
    18
420
        0
176
     1
 90
       50
176
     1
 90
        3
176
     1
 62
     5
420
      255
176
     1
290
     0
176
     1
 90
       50
176
     1
 90
       50
176
     1
 90
       50
176
     1
290
     0
176
     1
 90
       50
176
     1
 62
   256
176
     0
 40
1.0
176
     0
 90
        2
176
     1
  1
strokes_ogs.tif
176
     1
290
     0
176
     1
 40
1.0
176
     1
 40
1.0
176
     1
1001
ACAD
1000
AcDbSavedByObjectVersion
1070
     0
  0
VISUALSTYLE
  5
31
102
{ACAD_REACTORS
330
29
102
}
330
29
100
AcDbVisualStyle
  2

 70
     6
177
     3
291
     0
 70
    58
 90
        1
176
     1
 90
        2
176
     1
 90
        2
176
     1
 90
        0
176
     1
 40
0.6
176
     1
 40
30.0
176
     1
 62
     7
420
 16777215
176
     1
 90
        2
176
     1
 90
        2
176
     1
 62
     7
176
     1
 62
   257
176
     1
 90
        2
176
     1
 90
        1
176
     1
 40
40.0
176
     1
 90
        0
176
     1
 62
   257
176
     1
 40
1.0
176
     1
 90
        1
176
     1
 90
        6
176
     1
 90
        2
176
     1
 62
     7
176
     1
 90
        3
176
     1
 90
        0
176
     1
 90
        0
176
     1
290
     0
176
     1
 90
        1
176
     1
 40
0.0
176
     1
 90
        0
176
     1
290
     0
176
     1
290
     1
176
     1
290
     1
176
     1
290
     0
176
     1
290
     0
176
     1
290
     0
176
     1
290
     0
176
     1
290
     0
176
     1
290
     0
176
     1
 90
       50
176
     1
 40
0.0
176
     1
 40
1.0
176
     1
 90
        0
176
     1
 62
    18
420
        0
176
     1
 90
       50
176
     1
 90
        3
176
     1
 62
     5
420
      255
176
     1
290
     0
176
     1
 90
       50
176
     1
 90
       50
176
     1
 90
       50
176
     1
290
     0
176
     1
 90
       50
176
     1
 62
   256
176
     0
 40
1.0
176
     0
 90
        2
176
     1
  1
strokes_ogs.tif
176
     1
290
     0
176
     1
 40
1.0
176
     1
 40
1.0
176
     1
1001
ACAD
1000
AcDbSavedByObjectVersion
1070
     0
  0
VISUALSTYLE
  5
3F
102
{ACAD_REACTORS
330
29
102
}
330
29
100
AcDbVisualStyle
  2

 70
    20
177
     3
291
     1
 70
    58
 90
        2
176
     0
 90
        2
176
     0
 90
        0
176
     0
 90
        0
176
     0
 40
0.6
176
     0
 40
30.0
176
     0
 62
     7
420
 16777215
176
     0
 90
        1
176
     0
 90
        4
176
     0
 62
     7
176
     0
 62
   257
176
     0
 90
        1
176
     0
 90
        1
176
     0
 40
1.0
176
     0
 90
       10
176
     2
 62
     7
176
     0
 40
1.0
176
     0
 90
        1
176
     0
 90
        6
176
     0
 90
        2
176
     0
 62
     7
176
     0
 90
        5
176
     0
 90
        0
176
     0
 90
        0
176
     0
290
     0
176
     0
 90
        1
176
     0
 40
0.0
176
     0
 90
        0
176
     0
290
     0
176
     0
290
     1
176
     0
290
     1
176
     0
290
     0
176
     0
290
     0
176
     0
290
     0
176
     0
290
     0
176
     0
290
     0
176
     0
290
     0
176
     0
 90
       50
176
     0
 40
0.0
176
     0
 40
1.0
176
     0
 90
        0
176
     0
 62
    18
420
        0
176
     0
 90
       50
176
     0
 90
        3
176
     0
 62
     5
420
      255
176
     0
290
     0
176
     0
 90
       50
176
     0
 90
       50
176
     0
 90
       50
176
     0
290
     0
176
     0
 90
       50
176
     0
 62
   256
176
     0
 40
1.0
176
     0
 90
        2
176
     0
  1
strokes_ogs.tif
176
     0
290
     0
176
     0
 40
1.0
176
     0
 40
1.0
176
     0
1001
ACAD
1000
AcDbSavedByObjectVersion
1070
     0
  0
VISUALSTYLE
  5
37
102
{ACAD_REACTORS
330
29
102
}
330
29
100
AcDbVisualStyle
  2

 70
    14
177
     3
291
     1
 70
    58
 90
        2
176
     1
 90
        2
176
     1
 90
        0
176
     1
 90
        0
176
     1
 40
0.6
176
     1
 40
30.0
176
     1
 62
     7
420
 16777215
176
     1
 90
        1
176
     1
 90
        4
176
     1
 62
     7
176
     1
 62
   257
176
     1
 90
        7
176
     1
 90
        7
176
     1
 40
1.0
176
     1
 90
        8
176
     1
 62
     7
176
     1
 40
1.0
176
     1
 90
        1
176
     1
 90
        6
176
     1
 90
        2
176
     1
 62
     7
176
     1
 90
        5
176
     1
 90
        0
176
     1
 90
        0
176
     1
290
     0
176
     1
 90
        1
176
     1
 40
0.0
176
     1
 90
        0
176
     1
290
     0
176
     1
290
     1
176
     1
290
     1
176
     1
290
     0
176
     1
290
     0
176
     1
290
     0
176
     1
290
     0
176
     1
290
     0
176
     1
290
     0
176
     1
 90
       50
176
     1
 40
0.0
176
     1
 40
1.0
176
     1
 90
        0
176
     1
 62
    18
420
        0
176
     1
 90
       50
176
     1
 90
        3
176
     1
 62
     5
420
      255
176
     1
290
     0
176
     1
 90
       50
176
     1
 90
       50
176
     1
 90
       50
176
     1
290
     0
176
     1
 90
       50
176
     1
 62
   256
176
     0
 40
1.0
176
     0
 90
        2
176
     1
  1
strokes_ogs.tif
176
     1
290
     0
176
     1
 40
1.0
176
     1
 40
1.0
176
     1
1001
ACAD
1000
AcDbSavedByObjectVersion
1070
     0
  0
VISUALSTYLE
  5
40
102
{ACAD_REACTORS
330
29
102
}
330
29
100
AcDbVisualStyle
  2

 70
    21
177
     3
291
     1
 70
    58
 90
        2
176
     0
 90
        2
176
     0
 90
        0
176
     0
 90
        0
176
     0
 40
0.6
176
     0
 40
30.0
176
     0
 62
     7
420
 16777215
176
     0
 90
        1
176
     0
 90
        4
176
     0
 62
     7
176
     0
 62
   257
176
     0
 90
        1
176
     0
 90
        1
176
     0
 40
1.0
176
     0
 90
        9
176
     2
 62
     7
176
     0
 40
1.0
176
     0
 90
        1
176
     0
 90
        6
176
     0
 90
        2
176
     0
 62
     7
176
     0
 90
        5
176
     0
 90
        0
176
     0
 90
        0
176
     0
290
     0
176
     0
 90
        1
176
     0
 40
0.0
176
     0
 90
        0
176
     0
290
     0
176
     0
290
     1
176
     0
290
     1
176
     0
290
     0
176
     0
290
     0
176
     0
290
     0
176
     0
290
     0
176
     0
290
     0
176
     0
290
     0
176
     0
 90
       50
176
     0
 40
0.0
176
     0
 40
1.0
176
     0
 90
        0
176
     0
 62
    18
420
        0
176
     0
 90
       50
176
     0
 90
        3
176
     0
 62
     5
420
      255
176
     0
290
     0
176
     0
 90
       50
176
     0
 90
       50
176
     0
 90
       50
176
     0
290
     0
176
     0
 90
       50
176
     0
 62
   256
176
     0
 40
1.0
176
     0
 90
        2
176
     0
  1
strokes_ogs.tif
176
     0
290
     0
176
     0
 40
1.0
176
     0
 40
1.0
176
     0
1001
ACAD
1000
AcDbSavedByObjectVersion
1070
     0
  0
VISUALSTYLE
  5
33
102
{ACAD_REACTORS
330
29
102
}
330
29
100
AcDbVisualStyle
  2

 70
     8
177
     3
291
     0
 70
    58
 90
        2
176
     1
 90
        3
176
     1
 90
        0
176
     1
 90
        2
176
     1
 40
0.6
176
     1
 40
30.0
176
     1
 62
     7
420
 16777215
176
     1
 90
        0
176
     1
 90
        0
176
     1
 62
     7
176
     1
 62
   257
176
     1
 90
        1
176
     1
 90
        1
176
     1
 40
1.0
176
     1
 90
        8
176
     1
 62
   257
176
     1
 40
1.0
176
     1
 90
        1
176
     1
 90
        6
176
     1
 90
        2
176
     1
 62
     7
176
     1
 90
        3
176
     1
 90
        0
176
     1
 90
        0
176
     1
290
     0
176
     1
 90
       13
176
     1
 40
0.0
176
     1
 90
        0
176
     1
290
     0
176
     1
290
     1
176
     1
290
     1
176
     1
290
     0
176
     1
290
     0
176
     1
290
     0
176
     1
290
     0
176
     1
290
     0
176
     1
290
     0
176
     1
 90
       50
176
     1
 40
0.0
176
     1
 40
1.0
176
     1
 90
        0
176
     1
 62
    18
420
        0
176
     1
 90
       50
176
     1
 90
        3
176
     1
 62
     5
420
      255
176
     1
290
     0
176
     1
 90
       50
176
     1
 90
       50
176
     1
 90
       50
176
     1
290
     0
176
     1
 90
       50
176
     1
 62
   256
176
     0
 40
1.0
176
     0
 90
        2
176
     1
  1
strokes_ogs.tif
176
     1
290
     0
176
     1
 40
1.0
176
     1
 40
1.0
176
     1
1001
ACAD
1000
AcDbSavedByObjectVersion
1070
     0
  0
VISUALSTYLE
  5
3E
102
{ACAD_REACTORS
330
29
102
}
330
29
100
AcDbVisualStyle
  2

 70
    27
177
     3
291
     0
 70
    58
 90
        2
176
     1
 90
        2
176
     1
 90
        1
176
     1
 90
        2
176
     1
 40
0.6
176
     1
 40
30.0
176
     1
 62
     7
420
 16777215
176
     1
 90
        0
176
     1
 90
        4
176
     1
 62
     7
176
     1
 62
   257
176
     1
 90
        1
176
     1
 90
        1
176
     1
 40
1.0
176
     1
 90
        8
176
     1
 62
   257
176
     1
 40
1.0
176
     1
 90
        1
176
     1
 90
        6
176
     1
 90
        2
176
     1
 62
     8
420
  7895160
176
     1
 90
        3
176
     1
 90
        0
176
     1
 90
        0
176
     1
290
     0
176
     1
 90
        5
176
     1
 40
0.0
176
     1
 90
        0
176
     1
290
     0
176
     1
290
     1
176
     1
290
     1
176
     1
290
     0
176
     1
290
     0
176
     1
290
     0
176
     1
290
     0
176
     1
290
     0
176
     1
290
     0
176
     1
 90
       50
176
     1
 40
0.0
176
     1
 40
1.0
176
     1
 90
        0
176
     1
 62
    18
420
        0
176
     1
 90
       50
176
     1
 90
        3
176
     1
 62
     5
420
      255
176
     1
290
     0
176
     1
 90
       50
176
     1
 90
       50
176
     1
 90
       50
176
     1
290
     0
176
     1
 90
       50
176
     1
 62
   256
176
     0
 40
1.0
176
     0
 90
        2
176
     1
  1
strokes_ogs.tif
176
     1
290
     0
176
     1
 40
1.0
176
     1
 40
1.0
176
     1
1001
ACAD
1000
AcDbSavedByObjectVersion
1070
     0
  0
VISUALSTYLE
  5
3D
102
{ACAD_REACTORS
330
29
102
}
330
29
100
AcDbVisualStyle
  2

 70
    26
177
     3
291
     0
 70
    58
 90
        2
176
     1
 90
        2
176
     1
 90
        1
176
     1
 90
        2
176
     1
 40
0.6
176
     1
 40
30.0
176
     1
 62
     7
420
 16777215
176
     1
 90
        1
176
     1
 90
        2
176
     1
 62
     7
176
     1
 62
   257
176
     1
 90
        2
176
     1
 90
        1
176
     1
 40
1.0
176
     1
 90
        8
176
     1
 62
   257
176
     1
 40
1.0
176
     1
 90
        1
176
     1
 90
        6
176
     1
 90
        2
176
     1
 62
     7
176
     1
 90
        3
176
     1
 90
        0
176
     1
 90
        0
176
     1
290
     0
176
     1
 90
        5
176
     1
 40
0.0
176
     1
 90
        0
176
     1
290
     0
176
     1
290
     1
176
     1
290
     1
176
     1
290
     0
176
     1
290
     0
176
     1
290
     0
176
     1
290
     0
176
     1
290
     0
176
     1
290
     0
176
     1
 90
       50
176
     1
 40
0.0
176
     1
 40
1.0
176
     1
 90
        0
176
     1
 62
    18
420
        0
176
     1
 90
       50
176
     1
 90
        3
176
     1
 62
     5
420
      255
176
     1
290
     0
176
     1
 90
       50
176
     1
 90
       50
176
     1
 90
       50
176
     1
290
     0
176
     1
 90
       50
176
     1
 62
   256
176
     0
 40
1.0
176
     0
 90
        2
176
     1
  1
strokes_ogs.tif
176
     1
290
     0
176
     1
 40
1.0
176
     1
 40
1.0
176
     1
1001
ACAD
1000
AcDbSavedByObjectVersion
1070
     0
  0
VISUALSTYLE
  5
3A
102
{ACAD_REACTORS
330
29
102
}
330
29
100
AcDbVisualStyle
  2

 70
    23
177
     3
291
     0
 70
    58
 90
        2
176
     1
 90
        2
176
     1
 90
        3
176
     1
 90
        0
176
     1
 40
0.6
176
     1
 40
30.0
176
     1
 62
     7
420
 16777215
176
     1
 90
        2
176
     1
 90
        2
176
     1
 62
     7
176
     1
 62
     7
176
     1
 90
        1
176
     1
 90
        1
176
     1
 40
40.0
176
     1
 90
        8
176
     1
 62
     7
176
     1
 40
1.0
176
     1
 90
        1
176
     1
 90
        6
176
     1
 90
        2
176
     1
 62
     7
176
     1
 90
        3
176
     1
 90
        0
176
     1
 90
        0
176
     1
290
     0
176
     1
 90
        1
176
     1
 40
0.0
176
     1
 90
        0
176
     1
290
     0
176
     1
290
     1
176
     1
290
     1
176
     1
290
     0
176
     1
290
     0
176
     1
290
     0
176
     1
290
     0
176
     1
290
     0
176
     1
290
     0
176
     1
 90
       50
176
     1
 40
0.0
176
     1
 40
1.0
176
     1
 90
        0
176
     1
 62
    18
420
        0
176
     1
 90
       50
176
     1
 90
        3
176
     1
 62
     5
420
      255
176
     1
290
     0
176
     1
 90
       50
176
     1
 90
       50
176
     1
 90
       50
176
     1
290
     0
176
     1
 90
       50
176
     1
 62
   256
176
     0
 40
1.0
176
     0
 90
        2
176
     1
  1
strokes_ogs.tif
176
     1
290
     0
176
     1
 40
1.0
176
     1
 40
1.0
176
     1
1001
ACAD
1000
AcDbSavedByObjectVersion
1070
     0
  0
VISUALSTYLE
  5
3B
102
{ACAD_REACTORS
330
29
102
}
330
29
100
AcDbVisualStyle
  2

 70
    24
177
     3
291
     0
 70
    58
 90
        1
176
     1
 90
        2
176
     1
 90
        2
176
     1
 90
        0
176
     1
 40
0.6
176
     1
 40
30.0
176
     1
 62
     7
420
 16777215
176
     1
 90
        2
176
     1
 90
        2
176
     1
 62
     7
176
     1
 62
     7
176
     1
 90
        1
176
     1
 90
        1
176
     1
 40
40.0
176
     1
 90
       11
176
     1
 62
     7
176
     1
 40
1.0
176
     1
 90
        1
176
     1
 90
        6
176
     1
 90
        2
176
     1
 62
     7
176
     1
 90
        6
176
     1
 90
        0
176
     1
 90
        0
176
     1
290
     0
176
     1
 90
        1
176
     1
 40
0.0
176
     1
 90
        0
176
     1
290
     0
176
     1
290
     1
176
     1
290
     1
176
     1
290
     0
176
     1
290
     0
176
     1
290
     0
176
     1
290
     0
176
     1
290
     0
176
     1
290
     0
176
     1
 90
       50
176
     1
 40
0.0
176
     1
 40
1.0
176
     1
 90
        0
176
     1
 62
    18
420
        0
176
     1
 90
       50
176
     1
 90
        3
176
     1
 62
     5
420
      255
176
     1
290
     0
176
     1
 90
       50
176
     1
 90
       50
176
     1
 90
       50
176
     1
290
     0
176
     1
 90
       50
176
     1
 62
   256
176
     0
 40
1.0
176
     0
 90
        2
176
     1
  1
strokes_ogs.tif
176
     1
290
     0
176
     1
 40
1.0
176
     1
 40
1.0
176
     1
1001
ACAD
1000
AcDbSavedByObjectVersion
1070
     0
  0
VISUALSTYLE
  5
36
102
{ACAD_REACTORS
330
29
102
}
330
29
100
AcDbVisualStyle
  2

 70
    13
177
     3
291
     1
 70
    58
 90
        2
176
     1
 90
        2
176
     1
 90
        0
176
     1
 90
        0
176
     1
 40
0.6
176
     1
 40
30.0
176
     1
 62
     7
420
 16777215
176
     1
 90
        1
176
     1
 90
        4
176
     1
 62
     7
176
     1
 62
   257
176
     1
 90
        1
176
     1
 90
        1
176
     1
 40
1.0
176
     1
 90
       12
176
     1
 62
     7
176
     1
 40
1.0
176
     1
 90
        1
176
     1
 90
        6
176
     1
 90
        2
176
     1
 62
     7
176
     1
 90
        5
176
     1
 90
        0
176
     1
 90
        0
176
     1
290
     0
176
     1
 90
        1
176
     1
 40
0.0
176
     1
 90
        0
176
     1
290
     0
176
     1
290
     1
176
     1
290
     1
176
     1
290
     0
176
     1
290
     0
176
     1
290
     0
176
     1
290
     0
176
     1
290
     0
176
     1
290
     0
176
     1
 90
       50
176
     1
 40
0.0
176
     1
 40
1.0
176
     1
 90
        0
176
     1
 62
    18
420
        0
176
     1
 90
       50
176
     1
 90
        3
176
     1
 62
     5
420
      255
176
     1
290
     0
176
     1
 90
       50
176
     1
 90
       50
176
     1
 90
       50
176
     1
290
     0
176
     1
 90
       50
176
     1
 62
   256
176
     0
 40
1.0
176
     0
 90
        2
176
     1
  1
strokes_ogs.tif
176
     1
290
     0
176
     1
 40
1.0
176
     1
 40
1.0
176
     1
1001
ACAD
1000
AcDbSavedByObjectVersion
1070
     0
  0
VISUALSTYLE
  5
30
102
{ACAD_REACTORS
330
29
102
}
330
29
100
AcDbVisualStyle
  2

 70
     5
177
     3
291
     0
 70
    58
 90
        0
176
     1
 90
        2
176
     1
 90
        0
176
     1
 90
        0
176
     1
 40
0.6
176
     1
 40
30.0
176
     1
 62
     7
420
 16777215
176
     1
 90
        1
176
     1
 90
        4
176
     1
 62
     7
176
     1
 62
   257
176
     1
 90
        1
176
     1
 90
        1
176
     1
 40
1.0
176
     1
 90
        0
176
     1
 62
   257
176
     1
 40
1.0
176
     1
 90
        1
176
     1
 90
        6
176
     1
 90
        2
176
     1
 62
     7
176
     1
 90
        3
176
     1
 90
        0
176
     1
 90
        0
176
     1
290
     0
176
     1
 90
        1
176
     1
 40
0.0
176
     1
 90
        0
176
     1
290
     0
176
     1
290
     1
176
     1
290
     1
176
     1
290
     0
176
     1
290
     0
176
     1
290
     0
176
     1
290
     0
176
     1
290
     0
176
     1
290
     0
176
     1
 90
       50
176
     1
 40
0.0
176
     1
 40
1.0
176
     1
 90
        0
176
     1
 62
    18
420
        0
176
     1
 90
       50
176
     1
 90
        3
176
     1
 62
     5
420
      255
176
     1
290
     0
176
     1
 90
       50
176
     1
 90
       50
176
     1
 90
       50
176
     1
290
     0
176
     1
 90
       50
176
     1
 62
   256
176
     0
 40
1.0
176
     0
 90
        2
176
     1
  1
strokes_ogs.tif
176
     1
290
     0
176
     1
 40
1.0
176
     1
 40
1.0
176
     1
1001
ACAD
1000
AcDbSavedByObjectVersion
1070
     0
  0
VISUALSTYLE
  5
3C
102
{ACAD_REACTORS
330
29
102
}
330
29
100
AcDbVisualStyle
  2

 70
    25
177
     3
291
     0
 70
    58
 90
        2
176
     1
 90
        2
176
     1
 90
        1
176
     1
 90
        1
176
     1
 40
0.5
176
     1
 40
30.0
176
     1
 62
     7
420
 16777215
176
     1
 90
        1
176
     1
 90
        0
176
     1
 62
     7
176
     1
 62
   257
176
     1
 90
        1
176
     1
 90
        1
176
     1
 40
1.0
176
     1
 90
        8
176
     1
 62
     7
176
     1
 40
1.0
176
     1
 90
        1
176
     1
 90
        6
176
     1
 90
        2
176
     1
 62
     7
176
     1
 90
        3
176
     1
 90
        0
176
     1
 90
        0
176
     1
290
     0
176
     1
 90
       13
176
     1
 40
0.0
176
     1
 90
        0
176
     1
290
     0
176
     1
290
     1
176
     1
290
     1
176
     1
290
     0
176
     1
290
     0
176
     1
290
     0
176
     1
290
     0
176
     1
290
     0
176
     1
290
     0
176
     1
 90
       50
176
     1
 40
0.0
176
     1
 40
1.0
176
     1
 90
        0
176
     1
 62
    18
420
        0
176
     1
 90
       50
176
     1
 90
        3
176
     1
 62
     5
420
      255
176
     1
290
     0
176
     1
 90
       50
176
     1
 90
       50
176
     1
 90
       50
176
     1
290
     0
176
     1
 90
       50
176
     1
 62
   256
176
     0
 40
1.0
176
     0
 90
        2
176
     1
  1
strokes_ogs.tif
176
     1
290
     0
176
     1
 40
1.0
176
     1
 40
1.0
176
     1
1001
ACAD
1000
AcDbSavedByObjectVersion
1070
     0
  0
DICTIONARYVAR
  5
144
102
{ACAD_REACTORS
330
13F
102
}
330
13F
100
DictionaryVariables
280
     0
  1
1:1
  0
DICTIONARYVAR
  5
141
102
{ACAD_REACTORS
330
13F
102
}
330
13F
100
DictionaryVariables
280
     0
  1
STANDARD
  0
DICTIONARYVAR
  5
140
102
{ACAD_REACTORS
330
13F
102
}
330
13F
100
DictionaryVariables
280
     0
  1
STANDARD
  0
DICTIONARYVAR
  5
142
102
{ACAD_REACTORS
330
13F
102
}
330
13F
100
DictionaryVariables
280
     0
  1
Imperial24
  0
DICTIONARYVAR
  5
143
102
{ACAD_REACTORS
330
13F
102
}
330
13F
100
DictionaryVariables
280
     0
  1
Imperial24
  0
DICTIONARY
  5
1A
330
19
100
AcDbDictionary
280
     1
281
     1
  3
BUMPTILE
360
1C
  3
DIFFUSETILE
360
1B
  3
OPACITYTILE
360
1F
  3
REFLECTIONTILE
360
1E
  3
REFRACTIONTILE
360
20
  3
SPECULARTILE
360
1D
  0
DICTIONARY
  5
12
330
11
100
AcDbDictionary
280
     1
281
     1
  3
BUMPTILE
360
14
  3
DIFFUSETILE
360
13
  3
OPACITYTILE
360
17
  3
REFLECTIONTILE
360
16
  3
REFRACTIONTILE
360
18
  3
SPECULARTILE
360
15
  0
DICTIONARY
  5
22
330
21
100
AcDbDictionary
280
     1
281
     1
  3
BUMPTILE
360
24
  3
DIFFUSETILE
360
23
  3
OPACITYTILE
360
27
  3
REFLECTIONTILE
360
26
  3
REFRACTIONTILE
360
28
  3
SPECULARTILE
360
25
  0
DICTIONARY
  5
145
330
65
100
AcDbDictionary
280
     1
281
     1
  3
ACAD_ROUNDTRIP_2008_TABLESTYLE_CELLSTYLEMAP
360
22B
  0
XRECORD
  5
1C
102
{ACAD_REACTORS
330
1A
102
}
330
1A
100
AcDbXrecord
280
     1
270
     1
271
     1
  0
XRECORD
  5
1B
102
{ACAD_REACTORS
330
1A
102
}
330
1A
100
AcDbXrecord
280
     1
270
     1
271
     1
  0
XRECORD
  5
1F
102
{ACAD_REACTORS
330
1A
102
}
330
1A
100
AcDbXrecord
280
     1
270
     1
271
     1
  0
XRECORD
  5
1E
102
{ACAD_REACTORS
330
1A
102
}
330
1A
100
AcDbXrecord
280
     1
270
     1
271
     1
  0
XRECORD
  5
20
102
{ACAD_REACTORS
330
1A
102
}
330
1A
100
AcDbXrecord
280
     1
270
     1
271
     1
  0
XRECORD
  5
1D
102
{ACAD_REACTORS
330
1A
102
}
330
1A
100
AcDbXrecord
280
     1
270
     1
271
     1
  0
XRECORD
  5
14
102
{ACAD_REACTORS
330
12
102
}
330
12
100
AcDbXrecord
280
     1
270
     1
271
     1
  0
XRECORD
  5
13
102
{ACAD_REACTORS
330
12
102
}
330
12
100
AcDbXrecord
280
     1
270
     1
271
     1
  0
XRECORD
  5
17
102
{ACAD_REACTORS
330
12
102
}
330
12
100
AcDbXrecord
280
     1
270
     1
271
     1
  0
XRECORD
  5
16
102
{ACAD_REACTORS
330
12
102
}
330
12
100
AcDbXrecord
280
     1
270
     1
271
     1
  0
XRECORD
  5
18
102
{ACAD_REACTORS
330
12
102
}
330
12
100
AcDbXrecord
280
     1
270
     1
271
     1
  0
XRECORD
  5
15
102
{ACAD_REACTORS
330
12
102
}
330
12
100
AcDbXrecord
280
     1
270
     1
271
     1
  0
XRECORD
  5
24
102
{ACAD_REACTORS
330
22
102
}
330
22
100
AcDbXrecord
280
     1
270
     1
271
     1
  0
XRECORD
  5
23
102
{ACAD_REACTORS
330
22
102
}
330
22
100
AcDbXrecord
280
     1
270
     1
271
     1
  0
XRECORD
  5
27
102
{ACAD_REACTORS
330
22
102
}
330
22
100
AcDbXrecord
280
     1
270
     1
271
     1
  0
XRECORD
  5
26
102
{ACAD_REACTORS
330
22
102
}
330
22
100
AcDbXrecord
280
     1
270
     1
271
     1
  0
XRECORD
  5
28
102
{ACAD_REACTORS
330
22
102
}
330
22
100
AcDbXrecord
280
     1
270
     1
271
     1
  0
XRECORD
  5
25
102
{ACAD_REACTORS
330
22
102
}
330
22
100
AcDbXrecord
280
     1
270
     1
271
     1
  0
CELLSTYLEMAP
  5
22B
102
{ACAD_REACTORS
330
145
102
}
330
145
100
AcDbCellStyleMap
 90
        3
300
CELLSTYLE
  1
TABLEFORMAT_BEGIN
 90
        5
170
     1
 91
        0
 92
    32768
 62
   257
 93
        1
300
CONTENTFORMAT
  1
CONTENTFORMAT_BEGIN
 90
        0
 91
        0
 92
      512
 93
        0
300

 40
0.0
140
1.0
 94
        5
 62
     0
340
55
144
0.25
309
CONTENTFORMAT_END
171
     1
301
MARGIN
  1
CELLMARGIN_BEGIN
 40
0.06
 40
0.06
 40
0.06
 40
0.06
 40
0.18
 40
0.18
309
CELLMARGIN_END
 94
        6
 95
        1
302
GRIDFORMAT
  1
GRIDFORMAT_BEGIN
 90
        0
 91
        1
 62
     0
 92
       -2
340
0
 93
        0
 40
0.045
309
GRIDFORMAT_END
 95
        2
302
GRIDFORMAT
  1
GRIDFORMAT_BEGIN
 90
        0
 91
        1
 62
     0
 92
       -2
340
0
 93
        0
 40
0.045
309
GRIDFORMAT_END
 95
        4
302
GRIDFORMAT
  1
GRIDFORMAT_BEGIN
 90
        0
 91
        1
 62
     0
 92
       -2
340
0
 93
        0
 40
0.045
309
GRIDFORMAT_END
 95
        8
302
GRIDFORMAT
  1
GRIDFORMAT_BEGIN
 90
        0
 91
        1
 62
     0
 92
       -2
340
0
 93
        0
 40
0.045
309
GRIDFORMAT_END
 95
       16
302
GRIDFORMAT
  1
GRIDFORMAT_BEGIN
 90
        0
 91
        1
 62
     0
 92
       -2
340
0
 93
        0
 40
0.045
309
GRIDFORMAT_END
 95
       32
302
GRIDFORMAT
  1
GRIDFORMAT_BEGIN
 90
        0
 91
        1
 62
     0
 92
       -2
340
0
 93
        0
 40
0.045
309
GRIDFORMAT_END
309
TABLEFORMAT_END
  1
CELLSTYLE_BEGIN
 90
        1
 91
        1
300
_TITLE
309
CELLSTYLE_END
300
CELLSTYLE
  1
TABLEFORMAT_BEGIN
 90
        5
170
     1
 91
        0
 92
        0
 62
   257
 93
        1
300
CONTENTFORMAT
  1
CONTENTFORMAT_BEGIN
 90
        0
 91
        0
 92
      512
 93
        0
300

 40
0.0
140
1.0
 94
        5
 62
     0
340
55
144
0.18
309
CONTENTFORMAT_END
171
     1
301
MARGIN
  1
CELLMARGIN_BEGIN
 40
0.06
 40
0.06
 40
0.06
 40
0.06
 40
0.18
 40
0.18
309
CELLMARGIN_END
 94
        6
 95
        1
302
GRIDFORMAT
  1
GRIDFORMAT_BEGIN
 90
        0
 91
        1
 62
     0
 92
       -2
340
0
 93
        0
 40
0.045
309
GRIDFORMAT_END
 95
        2
302
GRIDFORMAT
  1
GRIDFORMAT_BEGIN
 90
        0
 91
        1
 62
     0
 92
       -2
340
0
 93
        0
 40
0.045
309
GRIDFORMAT_END
 95
        4
302
GRIDFORMAT
  1
GRIDFORMAT_BEGIN
 90
        0
 91
        1
 62
     0
 92
       -2
340
0
 93
        0
 40
0.045
309
GRIDFORMAT_END
 95
        8
302
GRIDFORMAT
  1
GRIDFORMAT_BEGIN
 90
        0
 91
        1
 62
     0
 92
       -2
340
0
 93
        0
 40
0.045
309
GRIDFORMAT_END
 95
       16
302
GRIDFORMAT
  1
GRIDFORMAT_BEGIN
 90
        0
 91
        1
 62
     0
 92
       -2
340
0
 93
        0
 40
0.045
309
GRIDFORMAT_END
 95
       32
302
GRIDFORMAT
  1
GRIDFORMAT_BEGIN
 90
        0
 91
        1
 62
     0
 92
       -2
340
0
 93
        0
 40
0.045
309
GRIDFORMAT_END
309
TABLEFORMAT_END
  1
CELLSTYLE_BEGIN
 90
        2
 91
        1
300
_HEADER
309
CELLSTYLE_END
300
CELLSTYLE
  1
TABLEFORMAT_BEGIN
 90
        5
170
     1
 91
        0
 92
        0
 62
   257
 93
        1
300
CONTENTFORMAT
  1
CONTENTFORMAT_BEGIN
 90
        0
 91
        0
 92
      512
 93
        0
300

 40
0.0
140
1.0
 94
        2
 62
     0
340
55
144
0.18
309
CONTENTFORMAT_END
171
     1
301
MARGIN
  1
CELLMARGIN_BEGIN
 40
0.06
 40
0.06
 40
0.06
 40
0.06
 40
0.18
 40
0.18
309
CELLMARGIN_END
 94
        6
 95
        1
302
GRIDFORMAT
  1
GRIDFORMAT_BEGIN
 90
        0
 91
        1
 62
     0
 92
       -2
340
0
 93
        0
 40
0.045
309
GRIDFORMAT_END
 95
        2
302
GRIDFORMAT
  1
GRIDFORMAT_BEGIN
 90
        0
 91
        1
 62
     0
 92
       -2
340
0
 93
        0
 40
0.045
309
GRIDFORMAT_END
 95
        4
302
GRIDFORMAT
  1
GRIDFORMAT_BEGIN
 90
        0
 91
        1
 62
     0
 92
       -2
340
0
 93
        0
 40
0.045
309
GRIDFORMAT_END
 95
        8
302
GRIDFORMAT
  1
GRIDFORMAT_BEGIN
 90
        0
 91
        1
 62
     0
 92
       -2
340
0
 93
        0
 40
0.045
309
GRIDFORMAT_END
 95
       16
302
GRIDFORMAT
  1
GRIDFORMAT_BEGIN
 90
        0
 91
        1
 62
     0
 92
       -2
340
0
 93
        0
 40
0.045
309
GRIDFORMAT_END
 95
       32
302
GRIDFORMAT
  1
GRIDFORMAT_BEGIN
 90
        0
 91
        1
 62
     0
 92
       -2
340
0
 93
        0
 40
0.045
309
GRIDFORMAT_END
309
TABLEFORMAT_END
  1
CELLSTYLE_BEGIN
 90
        3
 91
        2
300
_DATA
309
CELLSTYLE_END
  0
ENDSEC
  0
EOF
