  0
SECTION
  2
HEADER
  9
$ACADVER
  1
AC1021
  9
$ACADMAINTVER
 70
    50
  9
$DWGCODEPAGE
  3
ANSI_1252
  9
$LASTSAVEDBY
  1
ufficio.tecnico
  9
$INSBASE
 10
0.0
 20
0.0
 30
0.0
  9
$EXTMIN
 10
-3.251093955242673
 20
-7.636613546929734
 30
0.0
  9
$EXTMAX
 10
10.90024674880688
 20
-1.081331918405209
 30
0.0
  9
$LIMMIN
 10
0.0
 20
0.0
  9
$LIMMAX
 10
12.0
 20
9.0
  9
$ORTHOMODE
 70
     0
  9
$REGENMODE
 70
     1
  9
$FILLMODE
 70
     1
  9
$QTEXTMODE
 70
     0
  9
$MIRRTEXT
 70
     0
  9
$LTSCALE
 40
1.0
  9
$ATTMODE
 70
     1
  9
$TEXTSIZE
 40
0.2
  9
$TRACEWID
 40
0.05
  9
$TEXTSTYLE
  7
Standard
  9
$CLAYER
  8
0
  9
$CELTYPE
  6
ByLayer
  9
$CECOLOR
 62
   256
  9
$CELTSCALE
 40
1.0
  9
$DISPSILH
 70
     0
  9
$DIMSCALE
 40
1.0
  9
$DIMASZ
 40
0.18
  9
$DIMEXO
 40
0.0625
  9
$DIMDLI
 40
0.38
  9
$DIMRND
 40
0.0
  9
$DIMDLE
 40
0.0
  9
$DIMEXE
 40
0.18
  9
$DIMTP
 40
0.0
  9
$DIMTM
 40
0.0
  9
$DIMTXT
 40
0.18
  9
$DIMCEN
 40
0.09
  9
$DIMTSZ
 40
0.0
  9
$DIMTOL
 70
     0
  9
$DIMLIM
 70
     0
  9
$DIMTIH
 70
     1
  9
$DIMTOH
 70
     1
  9
$DIMSE1
 70
     0
  9
$DIMSE2
 70
     0
  9
$DIMTAD
 70
     0
  9
$DIMZIN
 70
     0
  9
$DIMBLK
  1

  9
$DIMASO
 70
     1
  9
$DIMSHO
 70
     1
  9
$DIMPOST
  1

  9
$DIMAPOST
  1

  9
$DIMALT
 70
     0
  9
$DIMALTD
 70
     2
  9
$DIMALTF
 40
25.4
  9
$DIMLFAC
 40
1.0
  9
$DIMTOFL
 70
     0
  9
$DIMTVP
 40
0.0
  9
$DIMTIX
 70
     0
  9
$DIMSOXD
 70
     0
  9
$DIMSAH
 70
     0
  9
$DIMBLK1
  1

  9
$DIMBLK2
  1

  9
$DIMSTYLE
  2
Standard
  9
$DIMCLRD
 70
     0
  9
$DIMCLRE
 70
     0
  9
$DIMCLRT
 70
     0
  9
$DIMTFAC
 40
1.0
  9
$DIMGAP
 40
0.09
  9
$DIMJUST
 70
     0
  9
$DIMSD1
 70
     0
  9
$DIMSD2
 70
     0
  9
$DIMTOLJ
 70
     1
  9
$DIMTZIN
 70
     0
  9
$DIMALTZ
 70
     0
  9
$DIMALTTZ
 70
     0
  9
$DIMUPT
 70
     0
  9
$DIMDEC
 70
     4
  9
$DIMTDEC
 70
     4
  9
$DIMALTU
 70
     2
  9
$DIMALTTD
 70
     2
  9
$DIMTXSTY
  7
Standard
  9
$DIMAUNIT
 70
     0
  9
$DIMADEC
 70
     0
  9
$DIMALTRND
 40
0.0
  9
$DIMAZIN
 70
     0
  9
$DIMDSEP
 70
    46
  9
$DIMATFIT
 70
     3
  9
$DIMFRAC
 70
     0
  9
$DIMLDRBLK
  1

  9
$DIMLUNIT
 70
     2
  9
$DIMLWD
 70
    -2
  9
$DIMLWE
 70
    -2
  9
$DIMTMOVE
 70
     0
  9
$DIMFXL
 40
1.0
  9
$DIMFXLON
 70
     0
  9
$DIMJOGANG
 40
0.7853981633974483
  9
$DIMTFILL
 70
     0
  9
$DIMTFILLCLR
 70
     0
  9
$DIMARCSYM
 70
     0
  9
$DIMLTYPE
  6

  9
$DIMLTEX1
  6

  9
$DIMLTEX2
  6

  9
$LUNITS
 70
     2
  9
$LUPREC
 70
     4
  9
$SKETCHINC
 40
0.1
  9
$FILLETRAD
 40
0.0
  9
$AUNITS
 70
     0
  9
$AUPREC
 70
     0
  9
$MENU
  1
.
  9
$ELEVATION
 40
0.0
  9
$PELEVATION
 40
0.0
  9
$THICKNESS
 40
0.0
  9
$LIMCHECK
 70
     0
  9
$CHAMFERA
 40
0.0
  9
$CHAMFERB
 40
0.0
  9
$CHAMFERC
 40
0.0
  9
$CHAMFERD
 40
0.0
  9
$SKPOLY
 70
     0
  9
$TDCREATE
 40
2459445.683078704
  9
$TDUCREATE
 40
2459445.599745370
  9
$TDUPDATE
 40
2459446.599004630
  9
$TDUUPDATE
 40
2459446.515671297
  9
$TDINDWG
 40
0.0021759259
  9
$TDUSRTIMER
 40
0.0021759259
  9
$USRTIMER
 70
     1
  9
$ANGBASE
 50
0.0
  9
$ANGDIR
 70
     0
  9
$PDMODE
 70
     0
  9
$PDSIZE
 40
0.0
  9
$PLINEWID
 40
0.0
  9
$SPLFRAME
 70
     0
  9
$SPLINETYPE
 70
     6
  9
$SPLINESEGS
 70
     8
  9
$HANDSEED
  5
27B
  9
$SURFTAB1
 70
     6
  9
$SURFTAB2
 70
     6
  9
$SURFTYPE
 70
     6
  9
$SURFU
 70
     6
  9
$SURFV
 70
     6
  9
$UCSBASE
  2

  9
$UCSNAME
  2

  9
$UCSORG
 10
0.0
 20
0.0
 30
0.0
  9
$UCSXDIR
 10
1.0
 20
0.0
 30
0.0
  9
$UCSYDIR
 10
0.0
 20
1.0
 30
0.0
  9
$UCSORTHOREF
  2

  9
$UCSORTHOVIEW
 70
     0
  9
$UCSORGTOP
 10
0.0
 20
0.0
 30
0.0
  9
$UCSORGBOTTOM
 10
0.0
 20
0.0
 30
0.0
  9
$UCSORGLEFT
 10
0.0
 20
0.0
 30
0.0
  9
$UCSORGRIGHT
 10
0.0
 20
0.0
 30
0.0
  9
$UCSORGFRONT
 10
0.0
 20
0.0
 30
0.0
  9
$UCSORGBACK
 10
0.0
 20
0.0
 30
0.0
  9
$PUCSBASE
  2

  9
$PUCSNAME
  2

  9
$PUCSORG
 10
0.0
 20
0.0
 30
0.0
  9
$PUCSXDIR
 10
1.0
 20
0.0
 30
0.0
  9
$PUCSYDIR
 10
0.0
 20
1.0
 30
0.0
  9
$PUCSORTHOREF
  2

  9
$PUCSORTHOVIEW
 70
     0
  9
$PUCSORGTOP
 10
0.0
 20
0.0
 30
0.0
  9
$PUCSORGBOTTOM
 10
0.0
 20
0.0
 30
0.0
  9
$PUCSORGLEFT
 10
0.0
 20
0.0
 30
0.0
  9
$PUCSORGRIGHT
 10
0.0
 20
0.0
 30
0.0
  9
$PUCSORGFRONT
 10
0.0
 20
0.0
 30
0.0
  9
$PUCSORGBACK
 10
0.0
 20
0.0
 30
0.0
  9
$USERI1
 70
     0
  9
$USERI2
 70
     0
  9
$USERI3
 70
     0
  9
$USERI4
 70
     0
  9
$USERI5
 70
     0
  9
$USERR1
 40
0.0
  9
$USERR2
 40
0.0
  9
$USERR3
 40
0.0
  9
$USERR4
 40
0.0
  9
$USERR5
 40
0.0
  9
$WORLDVIEW
 70
     1
  9
$SHADEDGE
 70
     3
  9
$SHADEDIF
 70
    70
  9
$TILEMODE
 70
     1
  9
$MAXACTVP
 70
    64
  9
$PINSBASE
 10
0.0
 20
0.0
 30
0.0
  9
$PLIMCHECK
 70
     0
  9
$PEXTMIN
 10
1.000000000000000E+20
 20
1.000000000000000E+20
 30
1.000000000000000E+20
  9
$PEXTMAX
 10
-1.000000000000000E+20
 20
-1.000000000000000E+20
 30
-1.000000000000000E+20
  9
$PLIMMIN
 10
0.0
 20
0.0
  9
$PLIMMAX
 10
12.0
 20
9.0
  9
$UNITMODE
 70
     0
  9
$VISRETAIN
 70
     1
  9
$PLINEGEN
 70
     0
  9
$PSLTSCALE
 70
     1
  9
$TREEDEPTH
 70
  3020
  9
$CMLSTYLE
  2
Standard
  9
$CMLJUST
 70
     0
  9
$CMLSCALE
 40
1.0
  9
$PROXYGRAPHICS
 70
     1
  9
$MEASUREMENT
 70
     0
  9
$CELWEIGHT
370
    -1
  9
$ENDCAPS
280
     0
  9
$JOINSTYLE
280
     0
  9
$LWDISPLAY
290
     1
  9
$INSUNITS
 70
     5
  9
$HYPERLINKBASE
  1

  9
$STYLESHEET
  1

  9
$XEDIT
290
     1
  9
$CEPSNTYPE
380
     0
  9
$PSTYLEMODE
290
     1
  9
$FINGERPRINTGUID
  2
{C03D23F1-2D17-2045-9140-59305AD06804}
  9
$VERSIONGUID
  2
{0CD035A0-6490-3F4A-9353-6529616B3534}
  9
$EXTNAMES
290
     1
  9
$PSVPSCALE
 40
0.0
  9
$OLESTARTUP
290
     0
  9
$SORTENTS
280
   127
  9
$INDEXCTL
280
     0
  9
$HIDETEXT
280
     1
  9
$XCLIPFRAME
290
     0
  9
$HALOGAP
280
     0
  9
$OBSCOLOR
 70
   257
  9
$OBSLTYPE
280
     0
  9
$INTERSECTIONDISPLAY
280
     0
  9
$INTERSECTIONCOLOR
 70
   257
  9
$DIMASSOC
280
     2
  9
$PROJECTNAME
  1

  9
$CAMERADISPLAY
290
     0
  9
$LENSLENGTH
 40
50.0
  9
$CAMERAHEIGHT
 40
0.0
  9
$STEPSPERSEC
 40
2.0
  9
$STEPSIZE
 40
6.0
  9
$3DDWFPREC
 40
2.0
  9
$PSOLWIDTH
 40
0.25
  9
$PSOLHEIGHT
 40
4.0
  9
$LOFTANG1
 40
1.570796326794896
  9
$LOFTANG2
 40
1.570796326794896
  9
$LOFTMAG1
 40
0.0
  9
$LOFTMAG2
 40
0.0
  9
$LOFTPARAM
 70
     7
  9
$LOFTNORMALS
280
     1
  9
$LATITUDE
 40
37.795
  9
$LONGITUDE
 40
-122.394
  9
$NORTHDIRECTION
 40
0.0
  9
$TIMEZONE
 70
 -8000
  9
$LIGHTGLYPHDISPLAY
280
     1
  9
$TILEMODELIGHTSYNCH
280
     1
  9
$CMATERIAL
347
11
  9
$SOLIDHIST
280
     0
  9
$SHOWHIST
280
     1
  9
$DWFFRAME
280
     2
  9
$DGNFRAME
280
     0
  9
$REALWORLDSCALE
290
     1
  9
$INTERFERECOLOR
 62
     1
  9
$INTERFEREOBJVS
345
33
  9
$INTERFEREVPVS
346
30
  9
$CSHADOW
280
     0
  9
$SHADOWPLANELOCATION
 40
0.0
  0
ENDSEC
  0
SECTION
  2
CLASSES
  0
CLASS
  1
ACDBDICTIONARYWDFLT
  2
AcDbDictionaryWithDefault
  3
ObjectDBX Classes
 90
        0
 91
        1
280
     0
281
     0
  0
CLASS
  1
MATERIAL
  2
AcDbMaterial
  3
ObjectDBX Classes
 90
     1153
 91
        3
280
     0
281
     0
  0
CLASS
  1
VISUALSTYLE
  2
AcDbVisualStyle
  3
ObjectDBX Classes
 90
     4095
 91
       24
280
     0
281
     0
  0
CLASS
  1
SCALE
  2
AcDbScale
  3
ObjectDBX Classes
 90
     1153
 91
       17
280
     0
281
     0
  0
CLASS
  1
TABLESTYLE
  2
AcDbTableStyle
  3
ObjectDBX Classes
 90
     4095
 91
        1
280
     0
281
     0
  0
CLASS
  1
MLEADERSTYLE
  2
AcDbMLeaderStyle
  3
ACDB_MLEADERSTYLE_CLASS
 90
     4095
 91
        1
280
     0
281
     0
  0
CLASS
  1
ACDBSECTIONVIEWSTYLE
  2
AcDbSectionViewStyle
  3
ObjectDBX Classes
 90
     1025
 91
        1
280
     0
281
     0
  0
CLASS
  1
ACDBDETAILVIEWSTYLE
  2
AcDbDetailViewStyle
  3
ObjectDBX Classes
 90
     1025
 91
        1
280
     0
281
     0
  0
CLASS
  1
DICTIONARYVAR
  2
AcDbDictionaryVar
  3
ObjectDBX Classes
 90
        0
 91
        7
280
     0
281
     0
  0
CLASS
  1
CELLSTYLEMAP
  2
AcDbCellStyleMap
  3
ObjectDBX Classes
 90
     1152
 91
        2
280
     0
281
     0
  0
ENDSEC
  0
SECTION
  2
TABLES
  0
TABLE
  2
VPORT
  5
8
330
0
100
AcDbSymbolTable
 70
     1
  0
VPORT
  5
57
330
8
100
AcDbSymbolTableRecord
100
AcDbViewportTableRecord
  2
*Active
 70
     0
 10
0.0
 20
0.0
 11
1.0
 21
1.0
 12
8.563585139529642
 22
-4.618860015450543
 13
0.0
 23
0.0
 14
1.0
 24
1.0
 15
0.0
 25
0.0
 16
0.0
 26
0.0
 36
1.0
 17
4.999999998749408
 27
-4.999999998749408
 37
0.0
 40
26.89242411971256
 41
2.545333333333333
 42
50.0
 43
0.0
 44
0.0
 50
0.0
 51
0.0
 71
     0
 72
   100
 73
     1
 74
     0
 75
     1
 76
     0
 77
     0
 78
     0
281
     0
 65
     1
110
0.0
120
0.0
130
0.0
111
1.0
121
0.0
131
0.0
112
0.0
122
1.0
132
0.0
 79
     0
146
0.0
348
2F
 60
     3
 61
     5
292
     1
282
     1
141
0.0
142
0.0
 63
   250
421
  3355443
1001
ACAD_NAV_VCDISPLAY
1070
     3
  0
ENDTAB
  0
TABLE
  2
LTYPE
  5
5
330
0
100
AcDbSymbolTable
 70
     1
  0
LTYPE
  5
5B
330
5
100
AcDbSymbolTableRecord
100
AcDbLinetypeTableRecord
  2
ByBlock
 70
     0
  3

 72
    65
 73
     0
 40
0.0
  0
LTYPE
  5
5C
330
5
100
AcDbSymbolTableRecord
100
AcDbLinetypeTableRecord
  2
ByLayer
 70
     0
  3

 72
    65
 73
     0
 40
0.0
  0
LTYPE
  5
5D
330
5
100
AcDbSymbolTableRecord
100
AcDbLinetypeTableRecord
  2
Continuous
 70
     0
  3
Solid line
 72
    65
 73
     0
 40
0.0
  0
ENDTAB
  0
TABLE
  2
LAYER
  5
2
102
{ACAD_XDICTIONARY
360
172
102
}
330
0
100
AcDbSymbolTable
 70
     3
  0
LAYER
  5
54
330
2
100
AcDbSymbolTableRecord
100
AcDbLayerTableRecord
  2
0
 70
     0
 62
     7
  6
Continuous
370
    -3
390
F
347
21
  0
LAYER
  5
78
330
2
100
AcDbSymbolTableRecord
100
AcDbLayerTableRecord
  2
Livello 1
 70
     0
 62
     7
  6
Continuous
370
     0
390
F
347
21
  0
LAYER
  5
D4
330
2
100
AcDbSymbolTableRecord
100
AcDbLayerTableRecord
  2
Livello 2
 70
     0
 62
     7
  6
Continuous
370
     0
390
F
347
21
  0
ENDTAB
  0
TABLE
  2
STYLE
  5
3
330
0
100
AcDbSymbolTable
 70
     2
  0
STYLE
  5
55
330
3
100
AcDbSymbolTableRecord
100
AcDbTextStyleTableRecord
  2
Standard
 70
     0
 40
0.0
 41
1.0
 50
0.0
 71
     0
 42
0.2
  3
txt
  4

  0
STYLE
  5
5A
330
3
100
AcDbSymbolTableRecord
100
AcDbTextStyleTableRecord
  2
Annotative
 70
     0
 40
0.0
 41
1.0
 50
0.0
 71
     0
 42
0.2
  3
txt
  4

1001
AcadAnnotative
1000
AnnotativeData
1002
{
1070
     1
1070
     1
1002
}
  0
ENDTAB
  0
TABLE
  2
VIEW
  5
6
330
0
100
AcDbSymbolTable
 70
     0
  0
ENDTAB
  0
TABLE
  2
UCS
  5
7
330
0
100
AcDbSymbolTable
 70
     0
  0
ENDTAB
  0
TABLE
  2
APPID
  5
9
330
0
100
AcDbSymbolTable
 70
     6
  0
APPID
  5
56
330
9
100
AcDbSymbolTableRecord
100
AcDbRegAppTableRecord
  2
ACAD
 70
     0
  0
APPID
  5
5E
330
9
100
AcDbSymbolTableRecord
100
AcDbRegAppTableRecord
  2
AcadAnnotative
 70
     0
  0
APPID
  5
170
330
9
100
AcDbSymbolTableRecord
100
AcDbRegAppTableRecord
  2
ACAD_PSEXT
 70
     0
  0
APPID
  5
171
330
9
100
AcDbSymbolTableRecord
100
AcDbRegAppTableRecord
  2
ACAD_NAV_VCDISPLAY
 70
     0
  0
APPID
  5
17A
330
9
100
AcDbSymbolTableRecord
100
AcDbRegAppTableRecord
  2
ACAD_EXEMPT_FROM_CAD_STANDARDS
 70
     0
  0
APPID
  5
1FA
330
9
100
AcDbSymbolTableRecord
100
AcDbRegAppTableRecord
  2
ACAD_MLEADERVER
 70
     0
  0
ENDTAB
  0
TABLE
  2
DIMSTYLE
  5
A
330
0
100
AcDbSymbolTable
 70
     2
100
AcDbDimStyleTable
 71
     0
  0
DIMSTYLE
105
58
330
A
100
AcDbSymbolTableRecord
100
AcDbDimStyleTableRecord
  2
Standard
 70
     0
340
55
  0
DIMSTYLE
105
59
330
A
100
AcDbSymbolTableRecord
100
AcDbDimStyleTableRecord
  2
Annotative
 70
     0
340
55
1001
AcadAnnotative
1000
AnnotativeData
1002
{
1070
     1
1070
     1
1002
}
  0
ENDTAB
  0
TABLE
  2
BLOCK_RECORD
  5
1
330
0
100
AcDbSymbolTable
 70
     9
  0
BLOCK_RECORD
  5
70
330
1
100
AcDbSymbolTableRecord
100
AcDbBlockTableRecord
  2
*Model_Space
340
73
 70
     0
280
     1
281
     0
  0
BLOCK_RECORD
  5
6C
330
1
100
AcDbSymbolTableRecord
100
AcDbBlockTableRecord
  2
*Paper_Space
340
6F
 70
     0
280
     1
281
     0
  0
BLOCK_RECORD
  5
74
330
1
100
AcDbSymbolTableRecord
100
AcDbBlockTableRecord
  2
*Paper_Space0
340
77
 70
     0
280
     1
281
     0
  0
BLOCK_RECORD
  5
DA
330
1
100
AcDbSymbolTableRecord
100
AcDbBlockTableRecord
  2
Block_0
340
0
 70
     0
280
     1
281
     0
  0
BLOCK_RECORD
  5
DE
330
1
100
AcDbSymbolTableRecord
100
AcDbBlockTableRecord
  2
Block_1
340
0
102
{BLKREFS
331
DF
102
}
 70
     0
280
     1
281
     0
  0
BLOCK_RECORD
  5
F0
330
1
100
AcDbSymbolTableRecord
100
AcDbBlockTableRecord
  2
Block_2
340
0
 70
     0
280
     1
281
     0
  0
BLOCK_RECORD
  5
F4
330
1
100
AcDbSymbolTableRecord
100
AcDbBlockTableRecord
  2
Block_3
340
0
102
{BLKREFS
331
F5
102
}
 70
     0
280
     1
281
     0
  0
BLOCK_RECORD
  5
101
330
1
100
AcDbSymbolTableRecord
100
AcDbBlockTableRecord
  2
Block_4
340
0
 70
     0
280
     1
281
     0
  0
BLOCK_RECORD
  5
105
330
1
100
AcDbSymbolTableRecord
100
AcDbBlockTableRecord
  2
Block_5
340
0
102
{BLKREFS
331
106
102
}
 70
     0
280
     1
281
     0
  0
BLOCK_RECORD
  5
119
330
1
100
AcDbSymbolTableRecord
100
AcDbBlockTableRecord
  2
Block_6
340
0
 70
     0
280
     1
281
     0
  0
BLOCK_RECORD
  5
11D
330
1
100
AcDbSymbolTableRecord
100
AcDbBlockTableRecord
  2
Block_7
340
0
102
{BLKREFS
331
11E
102
}
 70
     0
280
     1
281
     0
  0
ENDTAB
  0
ENDSEC
  0
SECTION
  2
BLOCKS
  0
BLOCK
  5
71
330
70
100
AcDbEntity
  8
0
100
AcDbBlockBegin
  2
*Model_Space
 70
     0
 10
0.0
 20
0.0
 30
0.0
  3
*Model_Space
  1

  0
ENDBLK
  5
72
330
70
100
AcDbEntity
  8
0
100
AcDbBlockEnd
  0
BLOCK
  5
6D
330
6C
100
AcDbEntity
 67
     1
  8
0
100
AcDbBlockBegin
  2
*Paper_Space
 70
     0
 10
0.0
 20
0.0
 30
0.0
  3
*Paper_Space
  1

  0
ENDBLK
  5
6E
330
6C
100
AcDbEntity
 67
     1
  8
0
100
AcDbBlockEnd
  0
BLOCK
  5
75
330
74
100
AcDbEntity
 67
     1
  8
0
100
AcDbBlockBegin
  2
*Paper_Space0
 70
     0
 10
0.0
 20
0.0
 30
0.0
  3
*Paper_Space0
  1

  0
ENDBLK
  5
76
330
74
100
AcDbEntity
 67
     1
  8
0
100
AcDbBlockEnd
  0
BLOCK
  5
DC
330
DA
100
AcDbEntity
  8
0
100
AcDbBlockBegin
  2
Block_0
 70
     0
 10
0.0
 20
0.0
 30
0.0
  3
Block_0
  1

  0
INSERT
  5
DF
330
DA
100
AcDbEntity
  8
Livello 2
100
AcDbBlockReference
  2
Block_1
 10
0.0
 20
0.0
 30
0.0
  0
ENDBLK
  5
DD
330
DA
100
AcDbEntity
  8
0
100
AcDbBlockEnd
  0
BLOCK
  5
E0
330
DE
100
AcDbEntity
  8
0
100
AcDbBlockBegin
  2
Block_1
 70
     0
 10
0.0
 20
0.0
 30
0.0
  3
Block_1
  1

  0
SPLINE
  5
E2
330
DE
100
AcDbEntity
  8
Livello 2
100
AcDbSpline
210
0.0
220
0.0
230
1.0
 70
    11
 71
     3
 72
    29
 73
    25
 74
     0
 42
0.000000001
 43
0.0000000001
 40
0.0
 40
0.0
 40
0.0
 40
0.0
 40
1.0
 40
1.0
 40
1.0
 40
2.0
 40
2.0
 40
2.0
 40
3.0
 40
3.0
 40
3.0
 40
4.0
 40
4.0
 40
4.0
 40
5.0
 40
5.0
 40
5.0
 40
6.0
 40
6.0
 40
6.0
 40
7.0
 40
7.0
 40
7.0
 40
8.0
 40
8.0
 40
8.0
 40
8.0
 10
4.217640922339684
 20
-6.870002710956107
 30
0.0
 10
4.217640922339684
 20
-6.870002710956107
 30
0.0
 10
4.216796873945797
 20
-6.870002710956107
 30
0.0
 10
4.216796873945797
 20
-6.870002710956107
 30
0.0
 10
4.216796873945797
 20
-6.870002710956107
 30
0.0
 10
4.168978948610531
 20
-6.895806476140631
 30
0.0
 10
4.168978948610531
 20
-6.895806476140631
 30
0.0
 10
4.168978948610531
 20
-6.895806476140631
 30
0.0
 10
4.161778699046359
 20
-6.867487791251877
 30
0.0
 10
4.161778699046359
 20
-6.867487791251877
 30
0.0
 10
4.161778699046359
 20
-6.867487791251877
 30
0.0
 10
4.221861164309116
 20
-6.835310599419642
 30
0.0
 10
4.221861164309116
 20
-6.835310599419642
 30
0.0
 10
4.221861164309116
 20
-6.835310599419642
 30
0.0
 10
4.253607719205693
 20
-6.835310599419642
 30
0.0
 10
4.253607719205693
 20
-6.835310599419642
 30
0.0
 10
4.253607719205693
 20
-6.835310599419642
 30
0.0
 10
4.253607719205693
 20
-7.110332572007137
 30
0.0
 10
4.253607719205693
 20
-7.110332572007137
 30
0.0
 10
4.253607719205693
 20
-7.110332572007137
 30
0.0
 10
4.217640922339684
 20
-7.110332572007137
 30
0.0
 10
4.217640922339684
 20
-7.110332572007137
 30
0.0
 10
4.217640922339684
 20
-7.110332572007137
 30
0.0
 10
4.217640922339684
 20
-6.870002710956107
 30
0.0
 10
4.217640922339684
 20
-6.870002710956107
 30
0.0
  0
HATCH
  5
E3
330
DE
100
AcDbEntity
  8
Livello 2
 62
   250
420
  1907995
440
 33554687
100
AcDbHatch
 10
0.0
 20
0.0
 30
0.0
210
0.0
220
0.0
230
1.0
  2
SOLID
 70
     1
 71
     1
 91
        1
 92
        1
 93
        1
 72
     4
 94
        3
 73
     0
 74
     0
 95
       29
 96
       25
 40
0.0
 40
0.0
 40
0.0
 40
0.0
 40
1.0
 40
1.0
 40
1.0
 40
2.0
 40
2.0
 40
2.0
 40
3.0
 40
3.0
 40
3.0
 40
4.0
 40
4.0
 40
4.0
 40
5.0
 40
5.0
 40
5.0
 40
6.0
 40
6.0
 40
6.0
 40
7.0
 40
7.0
 40
7.0
 40
8.0
 40
8.0
 40
8.0
 40
8.0
 10
4.217640922339684
 20
-6.870002710956107
 10
4.217640922339684
 20
-6.870002710956107
 10
4.216796873945797
 20
-6.870002710956107
 10
4.216796873945797
 20
-6.870002710956107
 10
4.216796873945797
 20
-6.870002710956107
 10
4.168978948610531
 20
-6.895806476140631
 10
4.168978948610531
 20
-6.895806476140631
 10
4.168978948610531
 20
-6.895806476140631
 10
4.161778699046359
 20
-6.867487791251877
 10
4.161778699046359
 20
-6.867487791251877
 10
4.161778699046359
 20
-6.867487791251877
 10
4.221861164309116
 20
-6.835310599419642
 10
4.221861164309116
 20
-6.835310599419642
 10
4.221861164309116
 20
-6.835310599419642
 10
4.253607719205693
 20
-6.835310599419642
 10
4.253607719205693
 20
-6.835310599419642
 10
4.253607719205693
 20
-6.835310599419642
 10
4.253607719205693
 20
-7.110332572007137
 10
4.253607719205693
 20
-7.110332572007137
 10
4.253607719205693
 20
-7.110332572007137
 10
4.217640922339684
 20
-7.110332572007137
 10
4.217640922339684
 20
-7.110332572007137
 10
4.217640922339684
 20
-7.110332572007137
 10
4.217640922339684
 20
-6.870002710956107
 10
4.217640922339684
 20
-6.870002710956107
 97
        1
330
E2
 75
     2
 76
     1
 98
        1
 10
0.0
 20
0.0
450
        0
451
        0
460
0.0
461
0.0
452
        0
462
0.0
453
        0
470

  0
SPLINE
  5
E4
330
DE
100
AcDbEntity
  8
Livello 2
100
AcDbSpline
210
0.0
220
0.0
230
1.0
 70
    11
 71
     3
 72
    29
 73
    25
 74
     0
 42
0.000000001
 43
0.0000000001
 40
0.0
 40
0.0
 40
0.0
 40
0.0
 40
1.0
 40
1.0
 40
1.0
 40
2.0
 40
2.0
 40
2.0
 40
3.0
 40
3.0
 40
3.0
 40
4.0
 40
4.0
 40
4.0
 40
5.0
 40
5.0
 40
5.0
 40
6.0
 40
6.0
 40
6.0
 40
7.0
 40
7.0
 40
7.0
 40
8.0
 40
8.0
 40
8.0
 40
8.0
 10
4.43480251625241
 20
-6.870002710956107
 30
0.0
 10
4.43480251625241
 20
-6.870002710956107
 30
0.0
 10
4.433958467858523
 20
-6.870002710956107
 30
0.0
 10
4.433958467858523
 20
-6.870002710956107
 30
0.0
 10
4.433958467858523
 20
-6.870002710956107
 30
0.0
 10
4.386140542523254
 20
-6.895806476140631
 30
0.0
 10
4.386140542523254
 20
-6.895806476140631
 30
0.0
 10
4.386140542523254
 20
-6.895806476140631
 30
0.0
 10
4.37895751843651
 20
-6.867487791251877
 30
0.0
 10
4.37895751843651
 20
-6.867487791251877
 30
0.0
 10
4.37895751843651
 20
-6.867487791251877
 30
0.0
 10
4.439022758221838
 20
-6.835310599419642
 30
0.0
 10
4.439022758221838
 20
-6.835310599419642
 30
0.0
 10
4.439022758221838
 20
-6.835310599419642
 30
0.0
 10
4.470769313118418
 20
-6.835310599419642
 30
0.0
 10
4.470769313118418
 20
-6.835310599419642
 30
0.0
 10
4.470769313118418
 20
-6.835310599419642
 30
0.0
 10
4.470769313118418
 20
-7.110332572007137
 30
0.0
 10
4.470769313118418
 20
-7.110332572007137
 30
0.0
 10
4.470769313118418
 20
-7.110332572007137
 30
0.0
 10
4.43480251625241
 20
-7.110332572007137
 30
0.0
 10
4.43480251625241
 20
-7.110332572007137
 30
0.0
 10
4.43480251625241
 20
-7.110332572007137
 30
0.0
 10
4.43480251625241
 20
-6.870002710956107
 30
0.0
 10
4.43480251625241
 20
-6.870002710956107
 30
0.0
  0
HATCH
  5
E5
330
DE
100
AcDbEntity
  8
Livello 2
 62
   250
420
  1907995
440
 33554687
100
AcDbHatch
 10
0.0
 20
0.0
 30
0.0
210
0.0
220
0.0
230
1.0
  2
SOLID
 70
     1
 71
     1
 91
        1
 92
        1
 93
        1
 72
     4
 94
        3
 73
     0
 74
     0
 95
       29
 96
       25
 40
0.0
 40
0.0
 40
0.0
 40
0.0
 40
1.0
 40
1.0
 40
1.0
 40
2.0
 40
2.0
 40
2.0
 40
3.0
 40
3.0
 40
3.0
 40
4.0
 40
4.0
 40
4.0
 40
5.0
 40
5.0
 40
5.0
 40
6.0
 40
6.0
 40
6.0
 40
7.0
 40
7.0
 40
7.0
 40
8.0
 40
8.0
 40
8.0
 40
8.0
 10
4.43480251625241
 20
-6.870002710956107
 10
4.43480251625241
 20
-6.870002710956107
 10
4.433958467858523
 20
-6.870002710956107
 10
4.433958467858523
 20
-6.870002710956107
 10
4.433958467858523
 20
-6.870002710956107
 10
4.386140542523254
 20
-6.895806476140631
 10
4.386140542523254
 20
-6.895806476140631
 10
4.386140542523254
 20
-6.895806476140631
 10
4.37895751843651
 20
-6.867487791251877
 10
4.37895751843651
 20
-6.867487791251877
 10
4.37895751843651
 20
-6.867487791251877
 10
4.439022758221838
 20
-6.835310599419642
 10
4.439022758221838
 20
-6.835310599419642
 10
4.439022758221838
 20
-6.835310599419642
 10
4.470769313118418
 20
-6.835310599419642
 10
4.470769313118418
 20
-6.835310599419642
 10
4.470769313118418
 20
-6.835310599419642
 10
4.470769313118418
 20
-7.110332572007137
 10
4.470769313118418
 20
-7.110332572007137
 10
4.470769313118418
 20
-7.110332572007137
 10
4.43480251625241
 20
-7.110332572007137
 10
4.43480251625241
 20
-7.110332572007137
 10
4.43480251625241
 20
-7.110332572007137
 10
4.43480251625241
 20
-6.870002710956107
 10
4.43480251625241
 20
-6.870002710956107
 97
        1
330
E4
 75
     2
 76
     1
 98
        1
 10
0.0
 20
0.0
450
        0
451
        0
460
0.0
461
0.0
452
        0
462
0.0
453
        0
470

  0
SPLINE
  5
E6
330
DE
100
AcDbEntity
  8
Livello 2
100
AcDbSpline
210
0.0
220
0.0
230
1.0
 70
     9
 71
     3
 72
    17
 73
    13
 74
     0
 42
0.000000001
 43
0.0000000001
 40
0.0
 40
0.0
 40
0.0
 40
0.0
 40
1.0
 40
1.0
 40
1.0
 40
2.0
 40
2.0
 40
2.0
 40
3.0
 40
3.0
 40
3.0
 40
4.0
 40
4.0
 40
4.0
 40
4.0
 10
4.604576821765522
 20
-6.974079045565507
 30
0.0
 10
4.604576821765522
 20
-7.045599227839293
 30
0.0
 10
4.62657375643884
 20
-7.086216903610389
 30
0.0
 10
4.660421819581419
 20
-7.086216903610389
 30
0.0
 10
4.698507350170858
 20
-7.086216903610389
 30
0.0
 10
4.716697454332979
 20
-7.041775171850664
 30
0.0
 10
4.716697454332979
 20
-6.971564125861275
 30
0.0
 10
4.716697454332979
 20
-6.903867999576116
 30
0.0
 10
4.699351398564743
 20
-6.859426267816392
 30
0.0
 10
4.660852456517078
 20
-6.859426267816392
 30
0.0
 10
4.628261853226613
 20
-6.859426267816392
 30
0.0
 10
4.604576821765522
 20
-6.899217120671027
 30
0.0
 10
4.604576821765522
 20
-6.974079045565507
 30
0.0
  0
SPLINE
  5
E7
330
DE
100
AcDbEntity
  8
Livello 2
100
AcDbSpline
210
0.0
220
0.0
230
1.0
 70
     9
 71
     3
 72
    17
 73
    13
 74
     0
 42
0.000000001
 43
0.0000000001
 40
0.0
 40
0.0
 40
0.0
 40
0.0
 40
1.0
 40
1.0
 40
1.0
 40
2.0
 40
2.0
 40
2.0
 40
3.0
 40
3.0
 40
3.0
 40
4.0
 40
4.0
 40
4.0
 40
4.0
 10
4.753921711051101
 20
-6.969876029073502
 30
0.0
 10
4.753921711051101
 20
-7.063375920543182
 30
0.0
 10
4.719229599514637
 20
-7.114983450912226
 30
0.0
 10
4.658303085857993
 20
-7.114983450912226
 30
0.0
 10
4.604576821765522
 20
-7.114983450912226
 30
0.0
 10
4.568179387963856
 20
-7.064650605872722
 30
0.0
 10
4.567335339569971
 20
-6.973665634107277
 30
0.0
 10
4.567335339569971
 20
-6.881440427967138
 30
0.0
 10
4.607108966947182
 20
-6.830659720514557
 30
0.0
 10
4.662953964763079
 20
-6.830659720514557
 30
0.0
 10
4.720917696302409
 20
-6.830659720514557
 30
0.0
 10
4.753921711051101
 20
-6.882267250883597
 30
0.0
 10
4.753921711051101
 20
-6.969876029073502
 30
0.0
  0
HATCH
  5
E8
330
DE
100
AcDbEntity
  8
Livello 2
 62
   250
420
  1907995
440
 33554687
100
AcDbHatch
 10
0.0
 20
0.0
 30
0.0
210
0.0
220
0.0
230
1.0
  2
SOLID
 70
     1
 71
     1
 91
        2
 92
        1
 93
        1
 72
     4
 94
        3
 73
     0
 74
     0
 95
       17
 96
       13
 40
0.0
 40
0.0
 40
0.0
 40
0.0
 40
1.0
 40
1.0
 40
1.0
 40
2.0
 40
2.0
 40
2.0
 40
3.0
 40
3.0
 40
3.0
 40
4.0
 40
4.0
 40
4.0
 40
4.0
 10
4.604576821765522
 20
-6.974079045565507
 10
4.604576821765522
 20
-7.045599227839293
 10
4.62657375643884
 20
-7.086216903610389
 10
4.660421819581419
 20
-7.086216903610389
 10
4.698507350170858
 20
-7.086216903610389
 10
4.716697454332979
 20
-7.041775171850664
 10
4.716697454332979
 20
-6.971564125861275
 10
4.716697454332979
 20
-6.903867999576116
 10
4.699351398564743
 20
-6.859426267816392
 10
4.660852456517078
 20
-6.859426267816392
 10
4.628261853226613
 20
-6.859426267816392
 10
4.604576821765522
 20
-6.899217120671027
 10
4.604576821765522
 20
-6.974079045565507
 97
        1
330
E6
 92
        1
 93
        1
 72
     4
 94
        3
 73
     0
 74
     0
 95
       17
 96
       13
 40
0.0
 40
0.0
 40
0.0
 40
0.0
 40
1.0
 40
1.0
 40
1.0
 40
2.0
 40
2.0
 40
2.0
 40
3.0
 40
3.0
 40
3.0
 40
4.0
 40
4.0
 40
4.0
 40
4.0
 10
4.753921711051101
 20
-6.969876029073502
 10
4.753921711051101
 20
-7.063375920543182
 10
4.719229599514637
 20
-7.114983450912226
 10
4.658303085857993
 20
-7.114983450912226
 10
4.604576821765522
 20
-7.114983450912226
 10
4.568179387963856
 20
-7.064650605872722
 10
4.567335339569971
 20
-6.973665634107277
 10
4.567335339569971
 20
-6.881440427967138
 10
4.607108966947182
 20
-6.830659720514557
 10
4.662953964763079
 20
-6.830659720514557
 10
4.720917696302409
 20
-6.830659720514557
 10
4.753921711051101
 20
-6.882267250883597
 10
4.753921711051101
 20
-6.969876029073502
 97
        1
330
E7
 75
     2
 76
     1
 98
        1
 10
0.0
 20
0.0
450
        0
451
        0
460
0.0
461
0.0
452
        0
462
0.0
453
        0
470

  0
SPLINE
  5
E9
330
DE
100
AcDbEntity
  8
Livello 2
100
AcDbSpline
210
0.0
220
0.0
230
1.0
 70
     9
 71
     3
 72
    17
 73
    13
 74
     0
 42
0.000000001
 43
0.0000000001
 40
0.0
 40
0.0
 40
0.0
 40
0.0
 40
1.0
 40
1.0
 40
1.0
 40
2.0
 40
2.0
 40
2.0
 40
3.0
 40
3.0
 40
3.0
 40
4.0
 40
4.0
 40
4.0
 40
4.0
 10
4.821721190200816
 20
-6.974079045565507
 30
0.0
 10
4.821721190200816
 20
-7.045599227839293
 30
0.0
 10
4.843735350351566
 20
-7.086216903610389
 30
0.0
 10
4.87760063897157
 20
-7.086216903610389
 30
0.0
 10
4.915668944083582
 20
-7.086216903610389
 30
0.0
 10
4.933859048245698
 20
-7.041775171850664
 30
0.0
 10
4.933859048245698
 20
-6.971564125861275
 30
0.0
 10
4.933859048245698
 20
-6.903867999576116
 30
0.0
 10
4.916495767000042
 20
-6.859426267816392
 30
0.0
 10
4.878014050429801
 20
-6.859426267816392
 30
0.0
 10
4.845423447139337
 20
-6.859426267816392
 30
0.0
 10
4.821721190200816
 20
-6.899217120671027
 30
0.0
 10
4.821721190200816
 20
-6.974079045565507
 30
0.0
  0
SPLINE
  5
EA
330
DE
100
AcDbEntity
  8
Livello 2
100
AcDbSpline
210
0.0
220
0.0
230
1.0
 70
     9
 71
     3
 72
    17
 73
    13
 74
     0
 42
0.000000001
 43
0.0000000001
 40
0.0
 40
0.0
 40
0.0
 40
0.0
 40
1.0
 40
1.0
 40
1.0
 40
2.0
 40
2.0
 40
2.0
 40
3.0
 40
3.0
 40
3.0
 40
4.0
 40
4.0
 40
4.0
 40
4.0
 10
4.971100530441249
 20
-6.969876029073502
 30
0.0
 10
4.971100530441249
 20
-7.063375920543182
 30
0.0
 10
4.936408418904786
 20
-7.114983450912226
 30
0.0
 10
4.875464679770717
 20
-7.114983450912226
 30
0.0
 10
4.821721190200816
 20
-7.114983450912226
 30
0.0
 10
4.785340981876577
 20
-7.064650605872722
 30
0.0
 10
4.784514158960121
 20
-6.973665634107277
 30
0.0
 10
4.784514158960121
 20
-6.881440427967138
 30
0.0
 10
4.824270560859902
 20
-6.830659720514557
 30
0.0
 10
4.880115558675803
 20
-6.830659720514557
 30
0.0
 10
4.938096515692558
 20
-6.830659720514557
 30
0.0
 10
4.971100530441249
 20
-6.882267250883597
 30
0.0
 10
4.971100530441249
 20
-6.969876029073502
 30
0.0
  0
HATCH
  5
EB
330
DE
100
AcDbEntity
  8
Livello 2
 62
   250
420
  1907995
440
 33554687
100
AcDbHatch
 10
0.0
 20
0.0
 30
0.0
210
0.0
220
0.0
230
1.0
  2
SOLID
 70
     1
 71
     1
 91
        2
 92
        1
 93
        1
 72
     4
 94
        3
 73
     0
 74
     0
 95
       17
 96
       13
 40
0.0
 40
0.0
 40
0.0
 40
0.0
 40
1.0
 40
1.0
 40
1.0
 40
2.0
 40
2.0
 40
2.0
 40
3.0
 40
3.0
 40
3.0
 40
4.0
 40
4.0
 40
4.0
 40
4.0
 10
4.821721190200816
 20
-6.974079045565507
 10
4.821721190200816
 20
-7.045599227839293
 10
4.843735350351566
 20
-7.086216903610389
 10
4.87760063897157
 20
-7.086216903610389
 10
4.915668944083582
 20
-7.086216903610389
 10
4.933859048245698
 20
-7.041775171850664
 10
4.933859048245698
 20
-6.971564125861275
 10
4.933859048245698
 20
-6.903867999576116
 10
4.916495767000042
 20
-6.859426267816392
 10
4.878014050429801
 20
-6.859426267816392
 10
4.845423447139337
 20
-6.859426267816392
 10
4.821721190200816
 20
-6.899217120671027
 10
4.821721190200816
 20
-6.974079045565507
 97
        1
330
E9
 92
        1
 93
        1
 72
     4
 94
        3
 73
     0
 74
     0
 95
       17
 96
       13
 40
0.0
 40
0.0
 40
0.0
 40
0.0
 40
1.0
 40
1.0
 40
1.0
 40
2.0
 40
2.0
 40
2.0
 40
3.0
 40
3.0
 40
3.0
 40
4.0
 40
4.0
 40
4.0
 40
4.0
 10
4.971100530441249
 20
-6.969876029073502
 10
4.971100530441249
 20
-7.063375920543182
 10
4.936408418904786
 20
-7.114983450912226
 10
4.875464679770717
 20
-7.114983450912226
 10
4.821721190200816
 20
-7.114983450912226
 10
4.785340981876577
 20
-7.064650605872722
 10
4.784514158960121
 20
-6.973665634107277
 10
4.784514158960121
 20
-6.881440427967138
 10
4.824270560859902
 20
-6.830659720514557
 10
4.880115558675803
 20
-6.830659720514557
 10
4.938096515692558
 20
-6.830659720514557
 10
4.971100530441249
 20
-6.882267250883597
 10
4.971100530441249
 20
-6.969876029073502
 97
        1
330
EA
 75
     2
 76
     1
 98
        1
 10
0.0
 20
0.0
450
        0
451
        0
460
0.0
461
0.0
452
        0
462
0.0
453
        0
470

  0
SPLINE
  5
EC
330
DE
100
AcDbEntity
  8
Livello 2
100
AcDbSpline
210
0.0
220
0.0
230
1.0
 70
     9
 71
     3
 72
    80
 73
    76
 74
     0
 42
0.000000001
 43
0.0000000001
 40
0.0
 40
0.0
 40
0.0
 40
0.0
 40
1.0
 40
1.0
 40
1.0
 40
2.0
 40
2.0
 40
2.0
 40
3.0
 40
3.0
 40
3.0
 40
4.0
 40
4.0
 40
4.0
 40
5.0
 40
5.0
 40
5.0
 40
6.0
 40
6.0
 40
6.0
 40
7.0
 40
7.0
 40
7.0
 40
8.0
 40
8.0
 40
8.0
 40
9.0
 40
9.0
 40
9.0
 40
10.0
 40
10.0
 40
10.0
 40
11.0
 40
11.0
 40
11.0
 40
12.0
 40
12.0
 40
12.0
 40
13.0
 40
13.0
 40
13.0
 40
14.0
 40
14.0
 40
14.0
 40
15.0
 40
15.0
 40
15.0
 40
16.0
 40
16.0
 40
16.0
 40
17.0
 40
17.0
 40
17.0
 40
18.0
 40
18.0
 40
18.0
 40
19.0
 40
19.0
 40
19.0
 40
20.0
 40
20.0
 40
20.0
 40
21.0
 40
21.0
 40
21.0
 40
22.0
 40
22.0
 40
22.0
 40
23.0
 40
23.0
 40
23.0
 40
24.0
 40
24.0
 40
24.0
 40
25.0
 40
25.0
 40
25.0
 40
25.0
 10
5.107078449244063
 20
-6.960987682721557
 30
0.0
 10
5.107078449244063
 20
-6.939834796442124
 30
0.0
 10
5.106630586830981
 20
-6.922471515196463
 30
0.0
 10
5.105355901501438
 20
-6.905556096363888
 30
0.0
 10
5.105355901501438
 20
-6.905556096363888
 30
0.0
 10
5.137946504791901
 20
-6.905556096363888
 30
0.0
 10
5.137946504791901
 20
-6.905556096363888
 30
0.0
 10
5.137946504791901
 20
-6.905556096363888
 30
0.0
 10
5.139634601579674
 20
-6.938560111112581
 30
0.0
 10
5.139634601579674
 20
-6.938560111112581
 30
0.0
 10
5.139634601579674
 20
-6.938560111112581
 30
0.0
 10
5.140909286909217
 20
-6.938560111112581
 30
0.0
 10
5.140909286909217
 20
-6.938560111112581
 30
0.0
 10
5.152347003920246
 20
-6.919095321620918
 30
0.0
 10
5.171363930998825
 20
-6.900905217458801
 30
0.0
 10
5.205229219618829
 20
-6.900905217458801
 30
0.0
 10
5.233134493049353
 20
-6.900905217458801
 30
0.0
 10
5.254287379328787
 20
-6.917820636291377
 30
0.0
 10
5.263175725680733
 20
-6.941936304688123
 30
0.0
 10
5.263175725680733
 20
-6.941936304688123
 30
0.0
 10
5.264036999552042
 20
-6.941936304688123
 30
0.0
 10
5.264036999552042
 20
-6.941936304688123
 30
0.0
 10
5.270375975244905
 20
-6.930498587677097
 30
0.0
 10
5.278403047725538
 20
-6.921644692280002
 30
0.0
 10
5.286877982619252
 20
-6.915271265632293
 30
0.0
 10
5.299142522546741
 20
-6.905969507822116
 30
0.0
 10
5.312681747803773
 20
-6.900905217458801
 30
0.0
 10
5.332146537295433
 20
-6.900905217458801
 30
0.0
 10
5.359224987809499
 20
-6.900905217458801
 30
0.0
 10
5.399429252122362
 20
-6.918681910162691
 30
0.0
 10
5.399429252122362
 20
-6.989754230023392
 30
0.0
 10
5.399429252122362
 20
-6.989754230023392
 30
0.0
 10
5.399429252122362
 20
-7.110332572007137
 30
0.0
 10
5.399429252122362
 20
-7.110332572007137
 30
0.0
 10
5.399429252122362
 20
-7.110332572007137
 30
0.0
 10
5.363049043798126
 20
-7.110332572007137
 30
0.0
 10
5.363049043798126
 20
-7.110332572007137
 30
0.0
 10
5.363049043798126
 20
-7.110332572007137
 30
0.0
 10
5.363049043798126
 20
-6.994405108928481
 30
0.0
 10
5.363049043798126
 20
-6.994405108928481
 30
0.0
 10
5.363049043798126
 20
-6.955062118486927
 30
0.0
 10
5.348648544669782
 20
-6.931359861548409
 30
0.0
 10
5.318607312038403
 20
-6.931359861548409
 30
0.0
 10
5.297454425758966
 20
-6.931359861548409
 30
0.0
 10
5.280952418384623
 20
-6.947000595051441
 30
0.0
 10
5.274613442691761
 20
-6.965225150168415
 30
0.0
 10
5.27292534590399
 20
-6.970289440531732
 30
0.0
 10
5.271650660574447
 20
-6.977041827682821
 30
0.0
 10
5.271650660574447
 20
-6.983828665788762
 30
0.0
 10
5.271650660574447
 20
-6.983828665788762
 30
0.0
 10
5.271650660574447
 20
-7.110332572007137
 30
0.0
 10
5.271650660574447
 20
-7.110332572007137
 30
0.0
 10
5.271650660574447
 20
-7.110332572007137
 30
0.0
 10
5.235270452250206
 20
-7.110332572007137
 30
0.0
 10
5.235270452250206
 20
-7.110332572007137
 30
0.0
 10
5.235270452250206
 20
-7.110332572007137
 30
0.0
 10
5.235270452250206
 20
-6.987618270822537
 30
0.0
 10
5.235270452250206
 20
-6.987618270822537
 30
0.0
 10
5.235270452250206
 20
-6.955062118486927
 30
0.0
 10
5.220869953121865
 20
-6.931359861548409
 30
0.0
 10
5.192516817278256
 20
-6.931359861548409
 30
0.0
 10
5.169262422752821
 20
-6.931359861548409
 30
0.0
 10
5.152347003920246
 20
-6.949963377168757
 30
0.0
 10
5.146421439685616
 20
-6.96860134374396
 30
0.0
 10
5.144285480484761
 20
-6.974079045565507
 30
0.0
 10
5.143458657568301
 20
-6.980452472213218
 30
0.0
 10
5.143458657568301
 20
-6.986791447906079
 30
0.0
 10
5.143458657568301
 20
-6.986791447906079
 30
0.0
 10
5.143458657568301
 20
-7.110332572007137
 30
0.0
 10
5.143458657568301
 20
-7.110332572007137
 30
0.0
 10
5.143458657568301
 20
-7.110332572007137
 30
0.0
 10
5.107078449244063
 20
-7.110332572007137
 30
0.0
 10
5.107078449244063
 20
-7.110332572007137
 30
0.0
 10
5.107078449244063
 20
-7.110332572007137
 30
0.0
 10
5.107078449244063
 20
-6.960987682721557
 30
0.0
 10
5.107078449244063
 20
-6.960987682721557
 30
0.0
  0
HATCH
  5
ED
330
DE
100
AcDbEntity
  8
Livello 2
 62
   250
420
  1907995
440
 33554687
100
AcDbHatch
 10
0.0
 20
0.0
 30
0.0
210
0.0
220
0.0
230
1.0
  2
SOLID
 70
     1
 71
     1
 91
        1
 92
        1
 93
        1
 72
     4
 94
        3
 73
     0
 74
     0
 95
       80
 96
       76
 40
0.0
 40
0.0
 40
0.0
 40
0.0
 40
1.0
 40
1.0
 40
1.0
 40
2.0
 40
2.0
 40
2.0
 40
3.0
 40
3.0
 40
3.0
 40
4.0
 40
4.0
 40
4.0
 40
5.0
 40
5.0
 40
5.0
 40
6.0
 40
6.0
 40
6.0
 40
7.0
 40
7.0
 40
7.0
 40
8.0
 40
8.0
 40
8.0
 40
9.0
 40
9.0
 40
9.0
 40
10.0
 40
10.0
 40
10.0
 40
11.0
 40
11.0
 40
11.0
 40
12.0
 40
12.0
 40
12.0
 40
13.0
 40
13.0
 40
13.0
 40
14.0
 40
14.0
 40
14.0
 40
15.0
 40
15.0
 40
15.0
 40
16.0
 40
16.0
 40
16.0
 40
17.0
 40
17.0
 40
17.0
 40
18.0
 40
18.0
 40
18.0
 40
19.0
 40
19.0
 40
19.0
 40
20.0
 40
20.0
 40
20.0
 40
21.0
 40
21.0
 40
21.0
 40
22.0
 40
22.0
 40
22.0
 40
23.0
 40
23.0
 40
23.0
 40
24.0
 40
24.0
 40
24.0
 40
25.0
 40
25.0
 40
25.0
 40
25.0
 10
5.107078449244063
 20
-6.960987682721557
 10
5.107078449244063
 20
-6.939834796442124
 10
5.106630586830981
 20
-6.922471515196463
 10
5.105355901501438
 20
-6.905556096363888
 10
5.105355901501438
 20
-6.905556096363888
 10
5.137946504791901
 20
-6.905556096363888
 10
5.137946504791901
 20
-6.905556096363888
 10
5.137946504791901
 20
-6.905556096363888
 10
5.139634601579674
 20
-6.938560111112581
 10
5.139634601579674
 20
-6.938560111112581
 10
5.139634601579674
 20
-6.938560111112581
 10
5.140909286909217
 20
-6.938560111112581
 10
5.140909286909217
 20
-6.938560111112581
 10
5.152347003920246
 20
-6.919095321620918
 10
5.171363930998825
 20
-6.900905217458801
 10
5.205229219618829
 20
-6.900905217458801
 10
5.233134493049353
 20
-6.900905217458801
 10
5.254287379328787
 20
-6.917820636291377
 10
5.263175725680733
 20
-6.941936304688123
 10
5.263175725680733
 20
-6.941936304688123
 10
5.264036999552042
 20
-6.941936304688123
 10
5.264036999552042
 20
-6.941936304688123
 10
5.270375975244905
 20
-6.930498587677097
 10
5.278403047725538
 20
-6.921644692280002
 10
5.286877982619252
 20
-6.915271265632293
 10
5.299142522546741
 20
-6.905969507822116
 10
5.312681747803773
 20
-6.900905217458801
 10
5.332146537295433
 20
-6.900905217458801
 10
5.359224987809499
 20
-6.900905217458801
 10
5.399429252122362
 20
-6.918681910162691
 10
5.399429252122362
 20
-6.989754230023392
 10
5.399429252122362
 20
-6.989754230023392
 10
5.399429252122362
 20
-7.110332572007137
 10
5.399429252122362
 20
-7.110332572007137
 10
5.399429252122362
 20
-7.110332572007137
 10
5.363049043798126
 20
-7.110332572007137
 10
5.363049043798126
 20
-7.110332572007137
 10
5.363049043798126
 20
-7.110332572007137
 10
5.363049043798126
 20
-6.994405108928481
 10
5.363049043798126
 20
-6.994405108928481
 10
5.363049043798126
 20
-6.955062118486927
 10
5.348648544669782
 20
-6.931359861548409
 10
5.318607312038403
 20
-6.931359861548409
 10
5.297454425758966
 20
-6.931359861548409
 10
5.280952418384623
 20
-6.947000595051441
 10
5.274613442691761
 20
-6.965225150168415
 10
5.27292534590399
 20
-6.970289440531732
 10
5.271650660574447
 20
-6.977041827682821
 10
5.271650660574447
 20
-6.983828665788762
 10
5.271650660574447
 20
-6.983828665788762
 10
5.271650660574447
 20
-7.110332572007137
 10
5.271650660574447
 20
-7.110332572007137
 10
5.271650660574447
 20
-7.110332572007137
 10
5.235270452250206
 20
-7.110332572007137
 10
5.235270452250206
 20
-7.110332572007137
 10
5.235270452250206
 20
-7.110332572007137
 10
5.235270452250206
 20
-6.987618270822537
 10
5.235270452250206
 20
-6.987618270822537
 10
5.235270452250206
 20
-6.955062118486927
 10
5.220869953121865
 20
-6.931359861548409
 10
5.192516817278256
 20
-6.931359861548409
 10
5.169262422752821
 20
-6.931359861548409
 10
5.152347003920246
 20
-6.949963377168757
 10
5.146421439685616
 20
-6.96860134374396
 10
5.144285480484761
 20
-6.974079045565507
 10
5.143458657568301
 20
-6.980452472213218
 10
5.143458657568301
 20
-6.986791447906079
 10
5.143458657568301
 20
-6.986791447906079
 10
5.143458657568301
 20
-7.110332572007137
 10
5.143458657568301
 20
-7.110332572007137
 10
5.143458657568301
 20
-7.110332572007137
 10
5.107078449244063
 20
-7.110332572007137
 10
5.107078449244063
 20
-7.110332572007137
 10
5.107078449244063
 20
-7.110332572007137
 10
5.107078449244063
 20
-6.960987682721557
 10
5.107078449244063
 20
-6.960987682721557
 97
        1
330
EC
 75
     2
 76
     1
 98
        1
 10
0.0
 20
0.0
450
        0
451
        0
460
0.0
461
0.0
452
        0
462
0.0
453
        0
470

  0
SPLINE
  5
EE
330
DE
100
AcDbEntity
  8
Livello 2
100
AcDbSpline
210
0.0
220
0.0
230
1.0
 70
     9
 71
     3
 72
    80
 73
    76
 74
     0
 42
0.000000001
 43
0.0000000001
 40
0.0
 40
0.0
 40
0.0
 40
0.0
 40
1.0
 40
1.0
 40
1.0
 40
2.0
 40
2.0
 40
2.0
 40
3.0
 40
3.0
 40
3.0
 40
4.0
 40
4.0
 40
4.0
 40
5.0
 40
5.0
 40
5.0
 40
6.0
 40
6.0
 40
6.0
 40
7.0
 40
7.0
 40
7.0
 40
8.0
 40
8.0
 40
8.0
 40
9.0
 40
9.0
 40
9.0
 40
10.0
 40
10.0
 40
10.0
 40
11.0
 40
11.0
 40
11.0
 40
12.0
 40
12.0
 40
12.0
 40
13.0
 40
13.0
 40
13.0
 40
14.0
 40
14.0
 40
14.0
 40
15.0
 40
15.0
 40
15.0
 40
16.0
 40
16.0
 40
16.0
 40
17.0
 40
17.0
 40
17.0
 40
18.0
 40
18.0
 40
18.0
 40
19.0
 40
19.0
 40
19.0
 40
20.0
 40
20.0
 40
20.0
 40
21.0
 40
21.0
 40
21.0
 40
22.0
 40
22.0
 40
22.0
 40
23.0
 40
23.0
 40
23.0
 40
24.0
 40
24.0
 40
24.0
 40
25.0
 40
25.0
 40
25.0
 40
25.0
 10
5.460131834572464
 20
-6.960987682721557
 30
0.0
 10
5.460131834572464
 20
-6.939834796442124
 30
0.0
 10
5.459683972159383
 20
-6.922471515196463
 30
0.0
 10
5.458409286829842
 20
-6.905556096363888
 30
0.0
 10
5.458409286829842
 20
-6.905556096363888
 30
0.0
 10
5.490999890120301
 20
-6.905556096363888
 30
0.0
 10
5.490999890120301
 20
-6.905556096363888
 30
0.0
 10
5.490999890120301
 20
-6.905556096363888
 30
0.0
 10
5.492687986908078
 20
-6.938560111112581
 30
0.0
 10
5.492687986908078
 20
-6.938560111112581
 30
0.0
 10
5.492687986908078
 20
-6.938560111112581
 30
0.0
 10
5.49396267223762
 20
-6.938560111112581
 30
0.0
 10
5.49396267223762
 20
-6.938560111112581
 30
0.0
 10
5.505400389248649
 20
-6.919095321620918
 30
0.0
 10
5.524417316327228
 20
-6.900905217458801
 30
0.0
 10
5.558282604947232
 20
-6.900905217458801
 30
0.0
 10
5.586187878377756
 20
-6.900905217458801
 30
0.0
 10
5.607340764657188
 20
-6.917820636291377
 30
0.0
 10
5.616229111009136
 20
-6.941936304688123
 30
0.0
 10
5.616229111009136
 20
-6.941936304688123
 30
0.0
 10
5.617090384880449
 20
-6.941936304688123
 30
0.0
 10
5.617090384880449
 20
-6.941936304688123
 30
0.0
 10
5.623429360573308
 20
-6.930498587677097
 30
0.0
 10
5.631456433053942
 20
-6.921644692280002
 30
0.0
 10
5.639931367947652
 20
-6.915271265632293
 30
0.0
 10
5.652195907875142
 20
-6.905969507822116
 30
0.0
 10
5.665735133132177
 20
-6.900905217458801
 30
0.0
 10
5.685199922623838
 20
-6.900905217458801
 30
0.0
 10
5.712278373137902
 20
-6.900905217458801
 30
0.0
 10
5.752482637450767
 20
-6.918681910162691
 30
0.0
 10
5.752482637450767
 20
-6.989754230023392
 30
0.0
 10
5.752482637450767
 20
-6.989754230023392
 30
0.0
 10
5.752482637450767
 20
-7.110332572007137
 30
0.0
 10
5.752482637450767
 20
-7.110332572007137
 30
0.0
 10
5.752482637450767
 20
-7.110332572007137
 30
0.0
 10
5.716102429126527
 20
-7.110332572007137
 30
0.0
 10
5.716102429126527
 20
-7.110332572007137
 30
0.0
 10
5.716102429126527
 20
-7.110332572007137
 30
0.0
 10
5.716102429126527
 20
-6.994405108928481
 30
0.0
 10
5.716102429126527
 20
-6.994405108928481
 30
0.0
 10
5.716102429126527
 20
-6.955062118486927
 30
0.0
 10
5.701701929998182
 20
-6.931359861548409
 30
0.0
 10
5.671660697366806
 20
-6.931359861548409
 30
0.0
 10
5.650507811087372
 20
-6.931359861548409
 30
0.0
 10
5.634005803713026
 20
-6.947000595051441
 30
0.0
 10
5.627666828020164
 20
-6.965225150168415
 30
0.0
 10
5.625978731232393
 20
-6.970289440531732
 30
0.0
 10
5.624704045902851
 20
-6.977041827682821
 30
0.0
 10
5.624704045902851
 20
-6.983828665788762
 30
0.0
 10
5.624704045902851
 20
-6.983828665788762
 30
0.0
 10
5.624704045902851
 20
-7.110332572007137
 30
0.0
 10
5.624704045902851
 20
-7.110332572007137
 30
0.0
 10
5.624704045902851
 20
-7.110332572007137
 30
0.0
 10
5.588323837578613
 20
-7.110332572007137
 30
0.0
 10
5.588323837578613
 20
-7.110332572007137
 30
0.0
 10
5.588323837578613
 20
-7.110332572007137
 30
0.0
 10
5.588323837578613
 20
-6.987618270822537
 30
0.0
 10
5.588323837578613
 20
-6.987618270822537
 30
0.0
 10
5.588323837578613
 20
-6.955062118486927
 30
0.0
 10
5.573923338450268
 20
-6.931359861548409
 30
0.0
 10
5.545570202606662
 20
-6.931359861548409
 30
0.0
 10
5.522315808081224
 20
-6.931359861548409
 30
0.0
 10
5.505400389248649
 20
-6.949963377168757
 30
0.0
 10
5.499474825014019
 20
-6.96860134374396
 30
0.0
 10
5.497338865813163
 20
-6.974079045565507
 30
0.0
 10
5.496512042896704
 20
-6.980452472213218
 30
0.0
 10
5.496512042896704
 20
-6.986791447906079
 30
0.0
 10
5.496512042896704
 20
-6.986791447906079
 30
0.0
 10
5.496512042896704
 20
-7.110332572007137
 30
0.0
 10
5.496512042896704
 20
-7.110332572007137
 30
0.0
 10
5.496512042896704
 20
-7.110332572007137
 30
0.0
 10
5.460131834572464
 20
-7.110332572007137
 30
0.0
 10
5.460131834572464
 20
-7.110332572007137
 30
0.0
 10
5.460131834572464
 20
-7.110332572007137
 30
0.0
 10
5.460131834572464
 20
-6.960987682721557
 30
0.0
 10
5.460131834572464
 20
-6.960987682721557
 30
0.0
  0
HATCH
  5
EF
330
DE
100
AcDbEntity
  8
Livello 2
 62
   250
420
  1907995
440
 33554687
100
AcDbHatch
 10
0.0
 20
0.0
 30
0.0
210
0.0
220
0.0
230
1.0
  2
SOLID
 70
     1
 71
     1
 91
        1
 92
        1
 93
        1
 72
     4
 94
        3
 73
     0
 74
     0
 95
       80
 96
       76
 40
0.0
 40
0.0
 40
0.0
 40
0.0
 40
1.0
 40
1.0
 40
1.0
 40
2.0
 40
2.0
 40
2.0
 40
3.0
 40
3.0
 40
3.0
 40
4.0
 40
4.0
 40
4.0
 40
5.0
 40
5.0
 40
5.0
 40
6.0
 40
6.0
 40
6.0
 40
7.0
 40
7.0
 40
7.0
 40
8.0
 40
8.0
 40
8.0
 40
9.0
 40
9.0
 40
9.0
 40
10.0
 40
10.0
 40
10.0
 40
11.0
 40
11.0
 40
11.0
 40
12.0
 40
12.0
 40
12.0
 40
13.0
 40
13.0
 40
13.0
 40
14.0
 40
14.0
 40
14.0
 40
15.0
 40
15.0
 40
15.0
 40
16.0
 40
16.0
 40
16.0
 40
17.0
 40
17.0
 40
17.0
 40
18.0
 40
18.0
 40
18.0
 40
19.0
 40
19.0
 40
19.0
 40
20.0
 40
20.0
 40
20.0
 40
21.0
 40
21.0
 40
21.0
 40
22.0
 40
22.0
 40
22.0
 40
23.0
 40
23.0
 40
23.0
 40
24.0
 40
24.0
 40
24.0
 40
25.0
 40
25.0
 40
25.0
 40
25.0
 10
5.460131834572464
 20
-6.960987682721557
 10
5.460131834572464
 20
-6.939834796442124
 10
5.459683972159383
 20
-6.922471515196463
 10
5.458409286829842
 20
-6.905556096363888
 10
5.458409286829842
 20
-6.905556096363888
 10
5.490999890120301
 20
-6.905556096363888
 10
5.490999890120301
 20
-6.905556096363888
 10
5.490999890120301
 20
-6.905556096363888
 10
5.492687986908078
 20
-6.938560111112581
 10
5.492687986908078
 20
-6.938560111112581
 10
5.492687986908078
 20
-6.938560111112581
 10
5.49396267223762
 20
-6.938560111112581
 10
5.49396267223762
 20
-6.938560111112581
 10
5.505400389248649
 20
-6.919095321620918
 10
5.524417316327228
 20
-6.900905217458801
 10
5.558282604947232
 20
-6.900905217458801
 10
5.586187878377756
 20
-6.900905217458801
 10
5.607340764657188
 20
-6.917820636291377
 10
5.616229111009136
 20
-6.941936304688123
 10
5.616229111009136
 20
-6.941936304688123
 10
5.617090384880449
 20
-6.941936304688123
 10
5.617090384880449
 20
-6.941936304688123
 10
5.623429360573308
 20
-6.930498587677097
 10
5.631456433053942
 20
-6.921644692280002
 10
5.639931367947652
 20
-6.915271265632293
 10
5.652195907875142
 20
-6.905969507822116
 10
5.665735133132177
 20
-6.900905217458801
 10
5.685199922623838
 20
-6.900905217458801
 10
5.712278373137902
 20
-6.900905217458801
 10
5.752482637450767
 20
-6.918681910162691
 10
5.752482637450767
 20
-6.989754230023392
 10
5.752482637450767
 20
-6.989754230023392
 10
5.752482637450767
 20
-7.110332572007137
 10
5.752482637450767
 20
-7.110332572007137
 10
5.752482637450767
 20
-7.110332572007137
 10
5.716102429126527
 20
-7.110332572007137
 10
5.716102429126527
 20
-7.110332572007137
 10
5.716102429126527
 20
-7.110332572007137
 10
5.716102429126527
 20
-6.994405108928481
 10
5.716102429126527
 20
-6.994405108928481
 10
5.716102429126527
 20
-6.955062118486927
 10
5.701701929998182
 20
-6.931359861548409
 10
5.671660697366806
 20
-6.931359861548409
 10
5.650507811087372
 20
-6.931359861548409
 10
5.634005803713026
 20
-6.947000595051441
 10
5.627666828020164
 20
-6.965225150168415
 10
5.625978731232393
 20
-6.970289440531732
 10
5.624704045902851
 20
-6.977041827682821
 10
5.624704045902851
 20
-6.983828665788762
 10
5.624704045902851
 20
-6.983828665788762
 10
5.624704045902851
 20
-7.110332572007137
 10
5.624704045902851
 20
-7.110332572007137
 10
5.624704045902851
 20
-7.110332572007137
 10
5.588323837578613
 20
-7.110332572007137
 10
5.588323837578613
 20
-7.110332572007137
 10
5.588323837578613
 20
-7.110332572007137
 10
5.588323837578613
 20
-6.987618270822537
 10
5.588323837578613
 20
-6.987618270822537
 10
5.588323837578613
 20
-6.955062118486927
 10
5.573923338450268
 20
-6.931359861548409
 10
5.545570202606662
 20
-6.931359861548409
 10
5.522315808081224
 20
-6.931359861548409
 10
5.505400389248649
 20
-6.949963377168757
 10
5.499474825014019
 20
-6.96860134374396
 10
5.497338865813163
 20
-6.974079045565507
 10
5.496512042896704
 20
-6.980452472213218
 10
5.496512042896704
 20
-6.986791447906079
 10
5.496512042896704
 20
-6.986791447906079
 10
5.496512042896704
 20
-7.110332572007137
 10
5.496512042896704
 20
-7.110332572007137
 10
5.496512042896704
 20
-7.110332572007137
 10
5.460131834572464
 20
-7.110332572007137
 10
5.460131834572464
 20
-7.110332572007137
 10
5.460131834572464
 20
-7.110332572007137
 10
5.460131834572464
 20
-6.960987682721557
 10
5.460131834572464
 20
-6.960987682721557
 97
        1
330
EE
 75
     2
 76
     1
 98
        1
 10
0.0
 20
0.0
450
        0
451
        0
460
0.0
461
0.0
452
        0
462
0.0
453
        0
470

  0
ENDBLK
  5
E1
330
DE
100
AcDbEntity
  8
0
100
AcDbBlockEnd
  0
BLOCK
  5
F2
330
F0
100
AcDbEntity
  8
0
100
AcDbBlockBegin
  2
Block_2
 70
     0
 10
0.0
 20
0.0
 30
0.0
  3
Block_2
  1

  0
INSERT
  5
F5
330
F0
100
AcDbEntity
  8
Livello 2
100
AcDbBlockReference
  2
Block_3
 10
0.0
 20
0.0
 30
0.0
  0
ENDBLK
  5
F3
330
F0
100
AcDbEntity
  8
0
100
AcDbBlockEnd
  0
BLOCK
  5
F6
330
F4
100
AcDbEntity
  8
0
100
AcDbBlockBegin
  2
Block_3
 70
     0
 10
0.0
 20
0.0
 30
0.0
  3
Block_3
  1

  0
SPLINE
  5
F8
330
F4
100
AcDbEntity
  8
Livello 2
100
AcDbSpline
210
0.0
220
0.0
230
1.0
 70
     9
 71
     3
 72
    59
 73
    55
 74
     0
 42
0.000000001
 43
0.0000000001
 40
0.0
 40
0.0
 40
0.0
 40
0.0
 40
1.0
 40
1.0
 40
1.0
 40
2.0
 40
2.0
 40
2.0
 40
3.0
 40
3.0
 40
3.0
 40
4.0
 40
4.0
 40
4.0
 40
5.0
 40
5.0
 40
5.0
 40
6.0
 40
6.0
 40
6.0
 40
7.0
 40
7.0
 40
7.0
 40
8.0
 40
8.0
 40
8.0
 40
9.0
 40
9.0
 40
9.0
 40
10.0
 40
10.0
 40
10.0
 40
11.0
 40
11.0
 40
11.0
 40
12.0
 40
12.0
 40
12.0
 40
13.0
 40
13.0
 40
13.0
 40
14.0
 40
14.0
 40
14.0
 40
15.0
 40
15.0
 40
15.0
 40
16.0
 40
16.0
 40
16.0
 40
17.0
 40
17.0
 40
17.0
 40
18.0
 40
18.0
 40
18.0
 40
18.0
 10
9.320912541072546
 20
-6.145326875633807
 30
0.0
 10
9.331488984212263
 20
-6.152079262784893
 30
0.0
 10
9.356018064067244
 20
-6.162655705924612
 30
0.0
 10
9.381821829251766
 20
-6.162655705924612
 30
0.0
 10
9.429639754587032
 20
-6.162655705924612
 30
0.0
 10
9.444453665173606
 20
-6.132201061835004
 30
0.0
 10
9.444040253715376
 20
-6.109360078767798
 30
0.0
 10
9.443592391302297
 20
-6.070843911242705
 30
0.0
 10
9.408900279765827
 20
-6.054341903868357
 30
0.0
 10
9.372933482899821
 20
-6.054341903868357
 30
0.0
 10
9.372933482899821
 20
-6.054341903868357
 30
0.0
 10
9.352228459033467
 20
-6.054341903868357
 30
0.0
 10
9.352228459033467
 20
-6.054341903868357
 30
0.0
 10
9.352228459033467
 20
-6.054341903868357
 30
0.0
 10
9.352228459033467
 20
-6.026436630437832
 30
0.0
 10
9.352228459033467
 20
-6.026436630437832
 30
0.0
 10
9.352228459033467
 20
-6.026436630437832
 30
0.0
 10
9.372933482899821
 20
-6.026436630437832
 30
0.0
 10
9.372933482899821
 20
-6.026436630437832
 30
0.0
 10
9.400011933413882
 20
-6.026436630437832
 30
0.0
 10
9.434290633492119
 20
-6.012449542767718
 30
0.0
 10
9.434290633492119
 20
-5.979893390432107
 30
0.0
 10
9.434290633492119
 20
-5.957879230281362
 30
0.0
 10
9.42033799677686
 20
-5.9384144407897
 30
0.0
 10
9.386059296698622
 20
-5.9384144407897
 30
0.0
 10
9.364045136547876
 20
-5.9384144407897
 30
0.0
 10
9.342892250268443
 20
-5.948164061012954
 30
0.0
 10
9.331075572754038
 20
-5.956604544951821
 30
0.0
 10
9.331075572754038
 20
-5.956604544951821
 30
0.0
 10
9.321325952530779
 20
-5.929526094437758
 30
0.0
 10
9.321325952530779
 20
-5.929526094437758
 30
0.0
 10
9.335726451659116
 20
-5.918949651298039
 30
0.0
 10
9.363631725089646
 20
-5.908373208158322
 30
0.0
 10
9.393259546262797
 20
-5.908373208158322
 30
0.0
 10
9.447416447290923
 20
-5.908373208158322
 30
0.0
 10
9.4719455271459
 20
-5.940515949035702
 30
0.0
 10
9.4719455271459
 20
-5.97396782619748
 30
0.0
 10
9.4719455271459
 20
-6.002320962041086
 30
0.0
 10
9.455030108313325
 20
-6.026436630437832
 30
0.0
 10
9.421164819693318
 20
-6.038701170365324
 30
0.0
 10
9.421164819693318
 20
-6.038701170365324
 30
0.0
 10
9.421164819693318
 20
-6.039527993281784
 30
0.0
 10
9.421164819693318
 20
-6.039527993281784
 30
0.0
 10
9.455030108313325
 20
-6.046314831387726
 30
0.0
 10
9.482521970285619
 20
-6.071705185114018
 30
0.0
 10
9.482521970285619
 20
-6.110186901684257
 30
0.0
 10
9.482521970285619
 20
-6.154215221985751
 30
0.0
 10
9.448243270207383
 20
-6.192696938555991
 30
0.0
 10
9.382269691664847
 20
-6.192696938555991
 30
0.0
 10
9.351367185162157
 20
-6.192696938555991
 30
0.0
 10
9.324288734648094
 20
-6.182981769287587
 30
0.0
 10
9.310749509391062
 20
-6.174093422935642
 30
0.0
 10
9.310749509391062
 20
-6.174093422935642
 30
0.0
 10
9.320912541072546
 20
-6.145326875633807
 30
0.0
 10
9.320912541072546
 20
-6.145326875633807
 30
0.0
  0
HATCH
  5
F9
330
F4
100
AcDbEntity
  8
Livello 2
 62
   250
420
  1907995
440
 33554687
100
AcDbHatch
 10
0.0
 20
0.0
 30
0.0
210
0.0
220
0.0
230
1.0
  2
SOLID
 70
     1
 71
     1
 91
        1
 92
        1
 93
        1
 72
     4
 94
        3
 73
     0
 74
     0
 95
       59
 96
       55
 40
0.0
 40
0.0
 40
0.0
 40
0.0
 40
1.0
 40
1.0
 40
1.0
 40
2.0
 40
2.0
 40
2.0
 40
3.0
 40
3.0
 40
3.0
 40
4.0
 40
4.0
 40
4.0
 40
5.0
 40
5.0
 40
5.0
 40
6.0
 40
6.0
 40
6.0
 40
7.0
 40
7.0
 40
7.0
 40
8.0
 40
8.0
 40
8.0
 40
9.0
 40
9.0
 40
9.0
 40
10.0
 40
10.0
 40
10.0
 40
11.0
 40
11.0
 40
11.0
 40
12.0
 40
12.0
 40
12.0
 40
13.0
 40
13.0
 40
13.0
 40
14.0
 40
14.0
 40
14.0
 40
15.0
 40
15.0
 40
15.0
 40
16.0
 40
16.0
 40
16.0
 40
17.0
 40
17.0
 40
17.0
 40
18.0
 40
18.0
 40
18.0
 40
18.0
 10
9.320912541072546
 20
-6.145326875633807
 10
9.331488984212263
 20
-6.152079262784893
 10
9.356018064067244
 20
-6.162655705924612
 10
9.381821829251766
 20
-6.162655705924612
 10
9.429639754587032
 20
-6.162655705924612
 10
9.444453665173606
 20
-6.132201061835004
 10
9.444040253715376
 20
-6.109360078767798
 10
9.443592391302297
 20
-6.070843911242705
 10
9.408900279765827
 20
-6.054341903868357
 10
9.372933482899821
 20
-6.054341903868357
 10
9.372933482899821
 20
-6.054341903868357
 10
9.352228459033467
 20
-6.054341903868357
 10
9.352228459033467
 20
-6.054341903868357
 10
9.352228459033467
 20
-6.054341903868357
 10
9.352228459033467
 20
-6.026436630437832
 10
9.352228459033467
 20
-6.026436630437832
 10
9.352228459033467
 20
-6.026436630437832
 10
9.372933482899821
 20
-6.026436630437832
 10
9.372933482899821
 20
-6.026436630437832
 10
9.400011933413882
 20
-6.026436630437832
 10
9.434290633492119
 20
-6.012449542767718
 10
9.434290633492119
 20
-5.979893390432107
 10
9.434290633492119
 20
-5.957879230281362
 10
9.42033799677686
 20
-5.9384144407897
 10
9.386059296698622
 20
-5.9384144407897
 10
9.364045136547876
 20
-5.9384144407897
 10
9.342892250268443
 20
-5.948164061012954
 10
9.331075572754038
 20
-5.956604544951821
 10
9.331075572754038
 20
-5.956604544951821
 10
9.321325952530779
 20
-5.929526094437758
 10
9.321325952530779
 20
-5.929526094437758
 10
9.335726451659116
 20
-5.918949651298039
 10
9.363631725089646
 20
-5.908373208158322
 10
9.393259546262797
 20
-5.908373208158322
 10
9.447416447290923
 20
-5.908373208158322
 10
9.4719455271459
 20
-5.940515949035702
 10
9.4719455271459
 20
-5.97396782619748
 10
9.4719455271459
 20
-6.002320962041086
 10
9.455030108313325
 20
-6.026436630437832
 10
9.421164819693318
 20
-6.038701170365324
 10
9.421164819693318
 20
-6.038701170365324
 10
9.421164819693318
 20
-6.039527993281784
 10
9.421164819693318
 20
-6.039527993281784
 10
9.455030108313325
 20
-6.046314831387726
 10
9.482521970285619
 20
-6.071705185114018
 10
9.482521970285619
 20
-6.110186901684257
 10
9.482521970285619
 20
-6.154215221985751
 10
9.448243270207383
 20
-6.192696938555991
 10
9.382269691664847
 20
-6.192696938555991
 10
9.351367185162157
 20
-6.192696938555991
 10
9.324288734648094
 20
-6.182981769287587
 10
9.310749509391062
 20
-6.174093422935642
 10
9.310749509391062
 20
-6.174093422935642
 10
9.320912541072546
 20
-6.145326875633807
 10
9.320912541072546
 20
-6.145326875633807
 97
        1
330
F8
 75
     2
 76
     1
 98
        1
 10
0.0
 20
0.0
450
        0
451
        0
460
0.0
461
0.0
452
        0
462
0.0
453
        0
470

  0
SPLINE
  5
FA
330
F4
100
AcDbEntity
  8
Livello 2
100
AcDbSpline
210
0.0
220
0.0
230
1.0
 70
    11
 71
     3
 72
    26
 73
    22
 74
     0
 42
0.000000001
 43
0.0000000001
 40
0.0
 40
0.0
 40
0.0
 40
0.0
 40
1.0
 40
1.0
 40
1.0
 40
2.0
 40
2.0
 40
2.0
 40
3.0
 40
3.0
 40
3.0
 40
4.0
 40
4.0
 40
4.0
 40
5.0
 40
5.0
 40
5.0
 40
6.0
 40
6.0
 40
6.0
 40
7.0
 40
7.0
 40
7.0
 40
7.0
 10
9.644269203318094
 20
-6.083969725041507
 30
0.0
 10
9.644269203318094
 20
-6.083969725041507
 30
0.0
 10
9.644269203318094
 20
-5.992157930359597
 30
0.0
 10
9.644269203318094
 20
-5.992157930359597
 30
0.0
 10
9.644269203318094
 20
-5.977757431231254
 30
0.0
 10
9.644682614776327
 20
-5.963391383057762
 30
0.0
 10
9.64554388864764
 20
-5.948990883929417
 30
0.0
 10
9.64554388864764
 20
-5.948990883929417
 30
0.0
 10
9.644269203318094
 20
-5.948990883929417
 30
0.0
 10
9.644269203318094
 20
-5.948990883929417
 30
0.0
 10
9.635794268424383
 20
-5.965079479845534
 30
0.0
 10
9.629041881273296
 20
-5.976930608314794
 30
0.0
 10
9.621428220250892
 20
-5.989608559700513
 30
0.0
 10
9.621428220250892
 20
-5.989608559700513
 30
0.0
 10
9.554145505423962
 20
-6.083108451170192
 30
0.0
 10
9.554145505423962
 20
-6.083108451170192
 30
0.0
 10
9.554145505423962
 20
-6.083108451170192
 30
0.0
 10
9.554145505423962
 20
-6.083969725041507
 30
0.0
 10
9.554145505423962
 20
-6.083969725041507
 30
0.0
 10
9.554145505423962
 20
-6.083969725041507
 30
0.0
 10
9.644269203318094
 20
-6.083969725041507
 30
0.0
 10
9.644269203318094
 20
-6.083969725041507
 30
0.0
  0
SPLINE
  5
FB
330
F4
100
AcDbEntity
  8
Livello 2
100
AcDbSpline
210
0.0
220
0.0
230
1.0
 70
    11
 71
     3
 72
    38
 73
    34
 74
     0
 42
0.000000001
 43
0.0000000001
 40
0.0
 40
0.0
 40
0.0
 40
0.0
 40
1.0
 40
1.0
 40
1.0
 40
2.0
 40
2.0
 40
2.0
 40
3.0
 40
3.0
 40
3.0
 40
4.0
 40
4.0
 40
4.0
 40
5.0
 40
5.0
 40
5.0
 40
6.0
 40
6.0
 40
6.0
 40
7.0
 40
7.0
 40
7.0
 40
8.0
 40
8.0
 40
8.0
 40
9.0
 40
9.0
 40
9.0
 40
10.0
 40
10.0
 40
10.0
 40
11.0
 40
11.0
 40
11.0
 40
11.0
 10
9.644269203318094
 20
-6.188046059650902
 30
0.0
 10
9.644269203318094
 20
-6.188046059650902
 30
0.0
 10
9.644269203318094
 20
-6.113149683801572
 30
0.0
 10
9.644269203318094
 20
-6.113149683801572
 30
0.0
 10
9.644269203318094
 20
-6.113149683801572
 30
0.0
 10
9.516490611770182
 20
-6.113149683801572
 30
0.0
 10
9.516490611770182
 20
-6.113149683801572
 30
0.0
 10
9.516490611770182
 20
-6.113149683801572
 30
0.0
 10
9.516490611770182
 20
-6.088620603946592
 30
0.0
 10
9.516490611770182
 20
-6.088620603946592
 30
0.0
 10
9.516490611770182
 20
-6.088620603946592
 30
0.0
 10
9.639204912954779
 20
-5.913024087063406
 30
0.0
 10
9.639204912954779
 20
-5.913024087063406
 30
0.0
 10
9.639204912954779
 20
-5.913024087063406
 30
0.0
 10
9.679374726312794
 20
-5.913024087063406
 30
0.0
 10
9.679374726312794
 20
-5.913024087063406
 30
0.0
 10
9.679374726312794
 20
-5.913024087063406
 30
0.0
 10
9.679374726312794
 20
-6.083969725041507
 30
0.0
 10
9.679374726312794
 20
-6.083969725041507
 30
0.0
 10
9.679374726312794
 20
-6.083969725041507
 30
0.0
 10
9.717890893837887
 20
-6.083969725041507
 30
0.0
 10
9.717890893837887
 20
-6.083969725041507
 30
0.0
 10
9.717890893837887
 20
-6.083969725041507
 30
0.0
 10
9.717890893837887
 20
-6.113149683801572
 30
0.0
 10
9.717890893837887
 20
-6.113149683801572
 30
0.0
 10
9.717890893837887
 20
-6.113149683801572
 30
0.0
 10
9.679374726312794
 20
-6.113149683801572
 30
0.0
 10
9.679374726312794
 20
-6.113149683801572
 30
0.0
 10
9.679374726312794
 20
-6.113149683801572
 30
0.0
 10
9.679374726312794
 20
-6.188046059650902
 30
0.0
 10
9.679374726312794
 20
-6.188046059650902
 30
0.0
 10
9.679374726312794
 20
-6.188046059650902
 30
0.0
 10
9.644269203318094
 20
-6.188046059650902
 30
0.0
 10
9.644269203318094
 20
-6.188046059650902
 30
0.0
  0
HATCH
  5
FC
330
F4
100
AcDbEntity
  8
Livello 2
 62
   250
420
  1907995
440
 33554687
100
AcDbHatch
 10
0.0
 20
0.0
 30
0.0
210
0.0
220
0.0
230
1.0
  2
SOLID
 70
     1
 71
     1
 91
        2
 92
        1
 93
        1
 72
     4
 94
        3
 73
     0
 74
     0
 95
       26
 96
       22
 40
0.0
 40
0.0
 40
0.0
 40
0.0
 40
1.0
 40
1.0
 40
1.0
 40
2.0
 40
2.0
 40
2.0
 40
3.0
 40
3.0
 40
3.0
 40
4.0
 40
4.0
 40
4.0
 40
5.0
 40
5.0
 40
5.0
 40
6.0
 40
6.0
 40
6.0
 40
7.0
 40
7.0
 40
7.0
 40
7.0
 10
9.644269203318094
 20
-6.083969725041507
 10
9.644269203318094
 20
-6.083969725041507
 10
9.644269203318094
 20
-5.992157930359597
 10
9.644269203318094
 20
-5.992157930359597
 10
9.644269203318094
 20
-5.977757431231254
 10
9.644682614776327
 20
-5.963391383057762
 10
9.64554388864764
 20
-5.948990883929417
 10
9.64554388864764
 20
-5.948990883929417
 10
9.644269203318094
 20
-5.948990883929417
 10
9.644269203318094
 20
-5.948990883929417
 10
9.635794268424383
 20
-5.965079479845534
 10
9.629041881273296
 20
-5.976930608314794
 10
9.621428220250892
 20
-5.989608559700513
 10
9.621428220250892
 20
-5.989608559700513
 10
9.554145505423962
 20
-6.083108451170192
 10
9.554145505423962
 20
-6.083108451170192
 10
9.554145505423962
 20
-6.083108451170192
 10
9.554145505423962
 20
-6.083969725041507
 10
9.554145505423962
 20
-6.083969725041507
 10
9.554145505423962
 20
-6.083969725041507
 10
9.644269203318094
 20
-6.083969725041507
 10
9.644269203318094
 20
-6.083969725041507
 97
        1
330
FA
 92
        1
 93
        1
 72
     4
 94
        3
 73
     0
 74
     0
 95
       38
 96
       34
 40
0.0
 40
0.0
 40
0.0
 40
0.0
 40
1.0
 40
1.0
 40
1.0
 40
2.0
 40
2.0
 40
2.0
 40
3.0
 40
3.0
 40
3.0
 40
4.0
 40
4.0
 40
4.0
 40
5.0
 40
5.0
 40
5.0
 40
6.0
 40
6.0
 40
6.0
 40
7.0
 40
7.0
 40
7.0
 40
8.0
 40
8.0
 40
8.0
 40
9.0
 40
9.0
 40
9.0
 40
10.0
 40
10.0
 40
10.0
 40
11.0
 40
11.0
 40
11.0
 40
11.0
 10
9.644269203318094
 20
-6.188046059650902
 10
9.644269203318094
 20
-6.188046059650902
 10
9.644269203318094
 20
-6.113149683801572
 10
9.644269203318094
 20
-6.113149683801572
 10
9.644269203318094
 20
-6.113149683801572
 10
9.516490611770182
 20
-6.113149683801572
 10
9.516490611770182
 20
-6.113149683801572
 10
9.516490611770182
 20
-6.113149683801572
 10
9.516490611770182
 20
-6.088620603946592
 10
9.516490611770182
 20
-6.088620603946592
 10
9.516490611770182
 20
-6.088620603946592
 10
9.639204912954779
 20
-5.913024087063406
 10
9.639204912954779
 20
-5.913024087063406
 10
9.639204912954779
 20
-5.913024087063406
 10
9.679374726312794
 20
-5.913024087063406
 10
9.679374726312794
 20
-5.913024087063406
 10
9.679374726312794
 20
-5.913024087063406
 10
9.679374726312794
 20
-6.083969725041507
 10
9.679374726312794
 20
-6.083969725041507
 10
9.679374726312794
 20
-6.083969725041507
 10
9.717890893837887
 20
-6.083969725041507
 10
9.717890893837887
 20
-6.083969725041507
 10
9.717890893837887
 20
-6.083969725041507
 10
9.717890893837887
 20
-6.113149683801572
 10
9.717890893837887
 20
-6.113149683801572
 10
9.717890893837887
 20
-6.113149683801572
 10
9.679374726312794
 20
-6.113149683801572
 10
9.679374726312794
 20
-6.113149683801572
 10
9.679374726312794
 20
-6.113149683801572
 10
9.679374726312794
 20
-6.188046059650902
 10
9.679374726312794
 20
-6.188046059650902
 10
9.679374726312794
 20
-6.188046059650902
 10
9.644269203318094
 20
-6.188046059650902
 10
9.644269203318094
 20
-6.188046059650902
 97
        1
330
FB
 75
     2
 76
     1
 98
        1
 10
0.0
 20
0.0
450
        0
451
        0
460
0.0
461
0.0
452
        0
462
0.0
453
        0
470

  0
SPLINE
  5
FD
330
F4
100
AcDbEntity
  8
Livello 2
100
AcDbSpline
210
0.0
220
0.0
230
1.0
 70
     9
 71
     3
 72
    80
 73
    76
 74
     0
 42
0.000000001
 43
0.0000000001
 40
0.0
 40
0.0
 40
0.0
 40
0.0
 40
1.0
 40
1.0
 40
1.0
 40
2.0
 40
2.0
 40
2.0
 40
3.0
 40
3.0
 40
3.0
 40
4.0
 40
4.0
 40
4.0
 40
5.0
 40
5.0
 40
5.0
 40
6.0
 40
6.0
 40
6.0
 40
7.0
 40
7.0
 40
7.0
 40
8.0
 40
8.0
 40
8.0
 40
9.0
 40
9.0
 40
9.0
 40
10.0
 40
10.0
 40
10.0
 40
11.0
 40
11.0
 40
11.0
 40
12.0
 40
12.0
 40
12.0
 40
13.0
 40
13.0
 40
13.0
 40
14.0
 40
14.0
 40
14.0
 40
15.0
 40
15.0
 40
15.0
 40
16.0
 40
16.0
 40
16.0
 40
17.0
 40
17.0
 40
17.0
 40
18.0
 40
18.0
 40
18.0
 40
19.0
 40
19.0
 40
19.0
 40
20.0
 40
20.0
 40
20.0
 40
21.0
 40
21.0
 40
21.0
 40
22.0
 40
22.0
 40
22.0
 40
23.0
 40
23.0
 40
23.0
 40
24.0
 40
24.0
 40
24.0
 40
25.0
 40
25.0
 40
25.0
 40
25.0
 10
9.323875323189863
 20
-6.546714950620262
 30
0.0
 10
9.323875323189863
 20
-6.525562064340831
 30
0.0
 10
9.323427460776779
 20
-6.508198783095171
 30
0.0
 10
9.322187226402091
 20
-6.491283364262595
 30
0.0
 10
9.322187226402091
 20
-6.491283364262595
 30
0.0
 10
9.354743378737698
 20
-6.491283364262595
 30
0.0
 10
9.354743378737698
 20
-6.491283364262595
 30
0.0
 10
9.354743378737698
 20
-6.491283364262595
 30
0.0
 10
9.356431475525477
 20
-6.524287379011289
 30
0.0
 10
9.356431475525477
 20
-6.524287379011289
 30
0.0
 10
9.356431475525477
 20
-6.524287379011289
 30
0.0
 10
9.357706160855011
 20
-6.524287379011289
 30
0.0
 10
9.357706160855011
 20
-6.524287379011289
 30
0.0
 10
9.369143877866042
 20
-6.504822589519623
 30
0.0
 10
9.38819525589948
 20
-6.486632485357507
 30
0.0
 10
9.422026093564632
 20
-6.486632485357507
 30
0.0
 10
9.449965817950008
 20
-6.486632485357507
 30
0.0
 10
9.471118704229439
 20
-6.503547904190082
 30
0.0
 10
9.480007050581386
 20
-6.527663572586829
 30
0.0
 10
9.480007050581386
 20
-6.527663572586829
 30
0.0
 10
9.480833873497847
 20
-6.527663572586829
 30
0.0
 10
9.480833873497847
 20
-6.527663572586829
 30
0.0
 10
9.487172849190706
 20
-6.516225855575802
 30
0.0
 10
9.495234372626192
 20
-6.507371960178711
 30
0.0
 10
9.503674856565051
 20
-6.500998533530997
 30
0.0
 10
9.515939396492539
 20
-6.491696775720825
 30
0.0
 10
9.529478621749571
 20
-6.486632485357507
 30
0.0
 10
9.548943411241236
 20
-6.486632485357507
 30
0.0
 10
9.5760218617553
 20
-6.486632485357507
 30
0.0
 10
9.616226126068164
 20
-6.504409178061397
 30
0.0
 10
9.616226126068164
 20
-6.575481497922099
 30
0.0
 10
9.616226126068164
 20
-6.575481497922099
 30
0.0
 10
9.616226126068164
 20
-6.696059839905845
 30
0.0
 10
9.616226126068164
 20
-6.696059839905845
 30
0.0
 10
9.616226126068164
 20
-6.696059839905845
 30
0.0
 10
9.579845917743924
 20
-6.696059839905845
 30
0.0
 10
9.579845917743924
 20
-6.696059839905845
 30
0.0
 10
9.579845917743924
 20
-6.696059839905845
 30
0.0
 10
9.579845917743924
 20
-6.580132376827187
 30
0.0
 10
9.579845917743924
 20
-6.580132376827187
 30
0.0
 10
9.579845917743924
 20
-6.540789386385633
 30
0.0
 10
9.565445418615579
 20
-6.517087129447115
 30
0.0
 10
9.535404185984202
 20
-6.517087129447115
 30
0.0
 10
9.514251299704767
 20
-6.517087129447115
 30
0.0
 10
9.497749292330423
 20
-6.53272786295015
 30
0.0
 10
9.491410316637562
 20
-6.550952418067121
 30
0.0
 10
9.489722219849786
 20
-6.55601670843044
 30
0.0
 10
9.488447534520247
 20
-6.562769095581526
 30
0.0
 10
9.488447534520247
 20
-6.569555933687471
 30
0.0
 10
9.488447534520247
 20
-6.569555933687471
 30
0.0
 10
9.488447534520247
 20
-6.696059839905845
 30
0.0
 10
9.488447534520247
 20
-6.696059839905845
 30
0.0
 10
9.488447534520247
 20
-6.696059839905845
 30
0.0
 10
9.45206732619601
 20
-6.696059839905845
 30
0.0
 10
9.45206732619601
 20
-6.696059839905845
 30
0.0
 10
9.45206732619601
 20
-6.696059839905845
 30
0.0
 10
9.45206732619601
 20
-6.573345538721245
 30
0.0
 10
9.45206732619601
 20
-6.573345538721245
 30
0.0
 10
9.45206732619601
 20
-6.540789386385633
 30
0.0
 10
9.437666827067666
 20
-6.517087129447115
 30
0.0
 10
9.409348142178911
 20
-6.517087129447115
 30
0.0
 10
9.386059296698622
 20
-6.517087129447115
 30
0.0
 10
9.369143877866042
 20
-6.535690645067464
 30
0.0
 10
9.363218313631415
 20
-6.554328611642668
 30
0.0
 10
9.361116805385414
 20
-6.559806313464212
 30
0.0
 10
9.3602555315141
 20
-6.566179740111924
 30
0.0
 10
9.3602555315141
 20
-6.572518715804786
 30
0.0
 10
9.3602555315141
 20
-6.572518715804786
 30
0.0
 10
9.3602555315141
 20
-6.696059839905845
 30
0.0
 10
9.3602555315141
 20
-6.696059839905845
 30
0.0
 10
9.3602555315141
 20
-6.696059839905845
 30
0.0
 10
9.323875323189863
 20
-6.696059839905845
 30
0.0
 10
9.323875323189863
 20
-6.696059839905845
 30
0.0
 10
9.323875323189863
 20
-6.696059839905845
 30
0.0
 10
9.323875323189863
 20
-6.546714950620262
 30
0.0
 10
9.323875323189863
 20
-6.546714950620262
 30
0.0
  0
HATCH
  5
FE
330
F4
100
AcDbEntity
  8
Livello 2
 62
   250
420
  1907995
440
 33554687
100
AcDbHatch
 10
0.0
 20
0.0
 30
0.0
210
0.0
220
0.0
230
1.0
  2
SOLID
 70
     1
 71
     1
 91
        1
 92
        1
 93
        1
 72
     4
 94
        3
 73
     0
 74
     0
 95
       80
 96
       76
 40
0.0
 40
0.0
 40
0.0
 40
0.0
 40
1.0
 40
1.0
 40
1.0
 40
2.0
 40
2.0
 40
2.0
 40
3.0
 40
3.0
 40
3.0
 40
4.0
 40
4.0
 40
4.0
 40
5.0
 40
5.0
 40
5.0
 40
6.0
 40
6.0
 40
6.0
 40
7.0
 40
7.0
 40
7.0
 40
8.0
 40
8.0
 40
8.0
 40
9.0
 40
9.0
 40
9.0
 40
10.0
 40
10.0
 40
10.0
 40
11.0
 40
11.0
 40
11.0
 40
12.0
 40
12.0
 40
12.0
 40
13.0
 40
13.0
 40
13.0
 40
14.0
 40
14.0
 40
14.0
 40
15.0
 40
15.0
 40
15.0
 40
16.0
 40
16.0
 40
16.0
 40
17.0
 40
17.0
 40
17.0
 40
18.0
 40
18.0
 40
18.0
 40
19.0
 40
19.0
 40
19.0
 40
20.0
 40
20.0
 40
20.0
 40
21.0
 40
21.0
 40
21.0
 40
22.0
 40
22.0
 40
22.0
 40
23.0
 40
23.0
 40
23.0
 40
24.0
 40
24.0
 40
24.0
 40
25.0
 40
25.0
 40
25.0
 40
25.0
 10
9.323875323189863
 20
-6.546714950620262
 10
9.323875323189863
 20
-6.525562064340831
 10
9.323427460776779
 20
-6.508198783095171
 10
9.322187226402091
 20
-6.491283364262595
 10
9.322187226402091
 20
-6.491283364262595
 10
9.354743378737698
 20
-6.491283364262595
 10
9.354743378737698
 20
-6.491283364262595
 10
9.354743378737698
 20
-6.491283364262595
 10
9.356431475525477
 20
-6.524287379011289
 10
9.356431475525477
 20
-6.524287379011289
 10
9.356431475525477
 20
-6.524287379011289
 10
9.357706160855011
 20
-6.524287379011289
 10
9.357706160855011
 20
-6.524287379011289
 10
9.369143877866042
 20
-6.504822589519623
 10
9.38819525589948
 20
-6.486632485357507
 10
9.422026093564632
 20
-6.486632485357507
 10
9.449965817950008
 20
-6.486632485357507
 10
9.471118704229439
 20
-6.503547904190082
 10
9.480007050581386
 20
-6.527663572586829
 10
9.480007050581386
 20
-6.527663572586829
 10
9.480833873497847
 20
-6.527663572586829
 10
9.480833873497847
 20
-6.527663572586829
 10
9.487172849190706
 20
-6.516225855575802
 10
9.495234372626192
 20
-6.507371960178711
 10
9.503674856565051
 20
-6.500998533530997
 10
9.515939396492539
 20
-6.491696775720825
 10
9.529478621749571
 20
-6.486632485357507
 10
9.548943411241236
 20
-6.486632485357507
 10
9.5760218617553
 20
-6.486632485357507
 10
9.616226126068164
 20
-6.504409178061397
 10
9.616226126068164
 20
-6.575481497922099
 10
9.616226126068164
 20
-6.575481497922099
 10
9.616226126068164
 20
-6.696059839905845
 10
9.616226126068164
 20
-6.696059839905845
 10
9.616226126068164
 20
-6.696059839905845
 10
9.579845917743924
 20
-6.696059839905845
 10
9.579845917743924
 20
-6.696059839905845
 10
9.579845917743924
 20
-6.696059839905845
 10
9.579845917743924
 20
-6.580132376827187
 10
9.579845917743924
 20
-6.580132376827187
 10
9.579845917743924
 20
-6.540789386385633
 10
9.565445418615579
 20
-6.517087129447115
 10
9.535404185984202
 20
-6.517087129447115
 10
9.514251299704767
 20
-6.517087129447115
 10
9.497749292330423
 20
-6.53272786295015
 10
9.491410316637562
 20
-6.550952418067121
 10
9.489722219849786
 20
-6.55601670843044
 10
9.488447534520247
 20
-6.562769095581526
 10
9.488447534520247
 20
-6.569555933687471
 10
9.488447534520247
 20
-6.569555933687471
 10
9.488447534520247
 20
-6.696059839905845
 10
9.488447534520247
 20
-6.696059839905845
 10
9.488447534520247
 20
-6.696059839905845
 10
9.45206732619601
 20
-6.696059839905845
 10
9.45206732619601
 20
-6.696059839905845
 10
9.45206732619601
 20
-6.696059839905845
 10
9.45206732619601
 20
-6.573345538721245
 10
9.45206732619601
 20
-6.573345538721245
 10
9.45206732619601
 20
-6.540789386385633
 10
9.437666827067666
 20
-6.517087129447115
 10
9.409348142178911
 20
-6.517087129447115
 10
9.386059296698622
 20
-6.517087129447115
 10
9.369143877866042
 20
-6.535690645067464
 10
9.363218313631415
 20
-6.554328611642668
 10
9.361116805385414
 20
-6.559806313464212
 10
9.3602555315141
 20
-6.566179740111924
 10
9.3602555315141
 20
-6.572518715804786
 10
9.3602555315141
 20
-6.572518715804786
 10
9.3602555315141
 20
-6.696059839905845
 10
9.3602555315141
 20
-6.696059839905845
 10
9.3602555315141
 20
-6.696059839905845
 10
9.323875323189863
 20
-6.696059839905845
 10
9.323875323189863
 20
-6.696059839905845
 10
9.323875323189863
 20
-6.696059839905845
 10
9.323875323189863
 20
-6.546714950620262
 10
9.323875323189863
 20
-6.546714950620262
 97
        1
330
FD
 75
     2
 76
     1
 98
        1
 10
0.0
 20
0.0
450
        0
451
        0
460
0.0
461
0.0
452
        0
462
0.0
453
        0
470

  0
SPLINE
  5
FF
330
F4
100
AcDbEntity
  8
Livello 2
100
AcDbSpline
210
0.0
220
0.0
230
1.0
 70
     9
 71
     3
 72
    80
 73
    76
 74
     0
 42
0.000000001
 43
0.0000000001
 40
0.0
 40
0.0
 40
0.0
 40
0.0
 40
1.0
 40
1.0
 40
1.0
 40
2.0
 40
2.0
 40
2.0
 40
3.0
 40
3.0
 40
3.0
 40
4.0
 40
4.0
 40
4.0
 40
5.0
 40
5.0
 40
5.0
 40
6.0
 40
6.0
 40
6.0
 40
7.0
 40
7.0
 40
7.0
 40
8.0
 40
8.0
 40
8.0
 40
9.0
 40
9.0
 40
9.0
 40
10.0
 40
10.0
 40
10.0
 40
11.0
 40
11.0
 40
11.0
 40
12.0
 40
12.0
 40
12.0
 40
13.0
 40
13.0
 40
13.0
 40
14.0
 40
14.0
 40
14.0
 40
15.0
 40
15.0
 40
15.0
 40
16.0
 40
16.0
 40
16.0
 40
17.0
 40
17.0
 40
17.0
 40
18.0
 40
18.0
 40
18.0
 40
19.0
 40
19.0
 40
19.0
 40
20.0
 40
20.0
 40
20.0
 40
21.0
 40
21.0
 40
21.0
 40
22.0
 40
22.0
 40
22.0
 40
23.0
 40
23.0
 40
23.0
 40
24.0
 40
24.0
 40
24.0
 40
25.0
 40
25.0
 40
25.0
 40
25.0
 10
9.676928708518261
 20
-6.546714950620262
 30
0.0
 10
9.676928708518261
 20
-6.525562064340831
 30
0.0
 10
9.676480846105183
 20
-6.508198783095171
 30
0.0
 10
9.675240611730494
 20
-6.491283364262595
 30
0.0
 10
9.675240611730494
 20
-6.491283364262595
 30
0.0
 10
9.707796764066101
 20
-6.491283364262595
 30
0.0
 10
9.707796764066101
 20
-6.491283364262595
 30
0.0
 10
9.707796764066101
 20
-6.491283364262595
 30
0.0
 10
9.709484860853876
 20
-6.524287379011289
 30
0.0
 10
9.709484860853876
 20
-6.524287379011289
 30
0.0
 10
9.709484860853876
 20
-6.524287379011289
 30
0.0
 10
9.710759546183419
 20
-6.524287379011289
 30
0.0
 10
9.710759546183419
 20
-6.524287379011289
 30
0.0
 10
9.722197263194447
 20
-6.504822589519623
 30
0.0
 10
9.741248641227883
 20
-6.486632485357507
 30
0.0
 10
9.775079478893037
 20
-6.486632485357507
 30
0.0
 10
9.803019203278411
 20
-6.486632485357507
 30
0.0
 10
9.824172089557842
 20
-6.503547904190082
 30
0.0
 10
9.833060435909787
 20
-6.527663572586829
 30
0.0
 10
9.833060435909787
 20
-6.527663572586829
 30
0.0
 10
9.83388725882625
 20
-6.527663572586829
 30
0.0
 10
9.83388725882625
 20
-6.527663572586829
 30
0.0
 10
9.840226234519107
 20
-6.516225855575802
 30
0.0
 10
9.848287757954594
 20
-6.507371960178711
 30
0.0
 10
9.856728241893456
 20
-6.500998533530997
 30
0.0
 10
9.868992781820946
 20
-6.491696775720825
 30
0.0
 10
9.882532007077976
 20
-6.486632485357507
 30
0.0
 10
9.90199679656964
 20
-6.486632485357507
 30
0.0
 10
9.929075247083703
 20
-6.486632485357507
 30
0.0
 10
9.969279511396567
 20
-6.504409178061397
 30
0.0
 10
9.969279511396567
 20
-6.575481497922099
 30
0.0
 10
9.969279511396567
 20
-6.575481497922099
 30
0.0
 10
9.969279511396567
 20
-6.696059839905845
 30
0.0
 10
9.969279511396567
 20
-6.696059839905845
 30
0.0
 10
9.969279511396567
 20
-6.696059839905845
 30
0.0
 10
9.932899303072328
 20
-6.696059839905845
 30
0.0
 10
9.932899303072328
 20
-6.696059839905845
 30
0.0
 10
9.932899303072328
 20
-6.696059839905845
 30
0.0
 10
9.932899303072328
 20
-6.580132376827187
 30
0.0
 10
9.932899303072328
 20
-6.580132376827187
 30
0.0
 10
9.932899303072328
 20
-6.540789386385633
 30
0.0
 10
9.918498803943986
 20
-6.517087129447115
 30
0.0
 10
9.888457571312603
 20
-6.517087129447115
 30
0.0
 10
9.867304685033172
 20
-6.517087129447115
 30
0.0
 10
9.850802677658826
 20
-6.53272786295015
 30
0.0
 10
9.844463701965961
 20
-6.550952418067121
 30
0.0
 10
9.842775605178193
 20
-6.55601670843044
 30
0.0
 10
9.841500919848652
 20
-6.562769095581526
 30
0.0
 10
9.841500919848652
 20
-6.569555933687471
 30
0.0
 10
9.841500919848652
 20
-6.569555933687471
 30
0.0
 10
9.841500919848652
 20
-6.696059839905845
 30
0.0
 10
9.841500919848652
 20
-6.696059839905845
 30
0.0
 10
9.841500919848652
 20
-6.696059839905845
 30
0.0
 10
9.805120711524413
 20
-6.696059839905845
 30
0.0
 10
9.805120711524413
 20
-6.696059839905845
 30
0.0
 10
9.805120711524413
 20
-6.696059839905845
 30
0.0
 10
9.805120711524413
 20
-6.573345538721245
 30
0.0
 10
9.805120711524413
 20
-6.573345538721245
 30
0.0
 10
9.805120711524413
 20
-6.540789386385633
 30
0.0
 10
9.790720212396069
 20
-6.517087129447115
 30
0.0
 10
9.762401527507314
 20
-6.517087129447115
 30
0.0
 10
9.739112682027027
 20
-6.517087129447115
 30
0.0
 10
9.722197263194447
 20
-6.535690645067464
 30
0.0
 10
9.71627169895982
 20
-6.554328611642668
 30
0.0
 10
9.714170190713817
 20
-6.559806313464212
 30
0.0
 10
9.713308916842503
 20
-6.566179740111924
 30
0.0
 10
9.713308916842503
 20
-6.572518715804786
 30
0.0
 10
9.713308916842503
 20
-6.572518715804786
 30
0.0
 10
9.713308916842503
 20
-6.696059839905845
 30
0.0
 10
9.713308916842503
 20
-6.696059839905845
 30
0.0
 10
9.713308916842503
 20
-6.696059839905845
 30
0.0
 10
9.676928708518261
 20
-6.696059839905845
 30
0.0
 10
9.676928708518261
 20
-6.696059839905845
 30
0.0
 10
9.676928708518261
 20
-6.696059839905845
 30
0.0
 10
9.676928708518261
 20
-6.546714950620262
 30
0.0
 10
9.676928708518261
 20
-6.546714950620262
 30
0.0
  0
HATCH
  5
100
330
F4
100
AcDbEntity
  8
Livello 2
 62
   250
420
  1907995
440
 33554687
100
AcDbHatch
 10
0.0
 20
0.0
 30
0.0
210
0.0
220
0.0
230
1.0
  2
SOLID
 70
     1
 71
     1
 91
        1
 92
        1
 93
        1
 72
     4
 94
        3
 73
     0
 74
     0
 95
       80
 96
       76
 40
0.0
 40
0.0
 40
0.0
 40
0.0
 40
1.0
 40
1.0
 40
1.0
 40
2.0
 40
2.0
 40
2.0
 40
3.0
 40
3.0
 40
3.0
 40
4.0
 40
4.0
 40
4.0
 40
5.0
 40
5.0
 40
5.0
 40
6.0
 40
6.0
 40
6.0
 40
7.0
 40
7.0
 40
7.0
 40
8.0
 40
8.0
 40
8.0
 40
9.0
 40
9.0
 40
9.0
 40
10.0
 40
10.0
 40
10.0
 40
11.0
 40
11.0
 40
11.0
 40
12.0
 40
12.0
 40
12.0
 40
13.0
 40
13.0
 40
13.0
 40
14.0
 40
14.0
 40
14.0
 40
15.0
 40
15.0
 40
15.0
 40
16.0
 40
16.0
 40
16.0
 40
17.0
 40
17.0
 40
17.0
 40
18.0
 40
18.0
 40
18.0
 40
19.0
 40
19.0
 40
19.0
 40
20.0
 40
20.0
 40
20.0
 40
21.0
 40
21.0
 40
21.0
 40
22.0
 40
22.0
 40
22.0
 40
23.0
 40
23.0
 40
23.0
 40
24.0
 40
24.0
 40
24.0
 40
25.0
 40
25.0
 40
25.0
 40
25.0
 10
9.676928708518261
 20
-6.546714950620262
 10
9.676928708518261
 20
-6.525562064340831
 10
9.676480846105183
 20
-6.508198783095171
 10
9.675240611730494
 20
-6.491283364262595
 10
9.675240611730494
 20
-6.491283364262595
 10
9.707796764066101
 20
-6.491283364262595
 10
9.707796764066101
 20
-6.491283364262595
 10
9.707796764066101
 20
-6.491283364262595
 10
9.709484860853876
 20
-6.524287379011289
 10
9.709484860853876
 20
-6.524287379011289
 10
9.709484860853876
 20
-6.524287379011289
 10
9.710759546183419
 20
-6.524287379011289
 10
9.710759546183419
 20
-6.524287379011289
 10
9.722197263194447
 20
-6.504822589519623
 10
9.741248641227883
 20
-6.486632485357507
 10
9.775079478893037
 20
-6.486632485357507
 10
9.803019203278411
 20
-6.486632485357507
 10
9.824172089557842
 20
-6.503547904190082
 10
9.833060435909787
 20
-6.527663572586829
 10
9.833060435909787
 20
-6.527663572586829
 10
9.83388725882625
 20
-6.527663572586829
 10
9.83388725882625
 20
-6.527663572586829
 10
9.840226234519107
 20
-6.516225855575802
 10
9.848287757954594
 20
-6.507371960178711
 10
9.856728241893456
 20
-6.500998533530997
 10
9.868992781820946
 20
-6.491696775720825
 10
9.882532007077976
 20
-6.486632485357507
 10
9.90199679656964
 20
-6.486632485357507
 10
9.929075247083703
 20
-6.486632485357507
 10
9.969279511396567
 20
-6.504409178061397
 10
9.969279511396567
 20
-6.575481497922099
 10
9.969279511396567
 20
-6.575481497922099
 10
9.969279511396567
 20
-6.696059839905845
 10
9.969279511396567
 20
-6.696059839905845
 10
9.969279511396567
 20
-6.696059839905845
 10
9.932899303072328
 20
-6.696059839905845
 10
9.932899303072328
 20
-6.696059839905845
 10
9.932899303072328
 20
-6.696059839905845
 10
9.932899303072328
 20
-6.580132376827187
 10
9.932899303072328
 20
-6.580132376827187
 10
9.932899303072328
 20
-6.540789386385633
 10
9.918498803943986
 20
-6.517087129447115
 10
9.888457571312603
 20
-6.517087129447115
 10
9.867304685033172
 20
-6.517087129447115
 10
9.850802677658826
 20
-6.53272786295015
 10
9.844463701965961
 20
-6.550952418067121
 10
9.842775605178193
 20
-6.55601670843044
 10
9.841500919848652
 20
-6.562769095581526
 10
9.841500919848652
 20
-6.569555933687471
 10
9.841500919848652
 20
-6.569555933687471
 10
9.841500919848652
 20
-6.696059839905845
 10
9.841500919848652
 20
-6.696059839905845
 10
9.841500919848652
 20
-6.696059839905845
 10
9.805120711524413
 20
-6.696059839905845
 10
9.805120711524413
 20
-6.696059839905845
 10
9.805120711524413
 20
-6.696059839905845
 10
9.805120711524413
 20
-6.573345538721245
 10
9.805120711524413
 20
-6.573345538721245
 10
9.805120711524413
 20
-6.540789386385633
 10
9.790720212396069
 20
-6.517087129447115
 10
9.762401527507314
 20
-6.517087129447115
 10
9.739112682027027
 20
-6.517087129447115
 10
9.722197263194447
 20
-6.535690645067464
 10
9.71627169895982
 20
-6.554328611642668
 10
9.714170190713817
 20
-6.559806313464212
 10
9.713308916842503
 20
-6.566179740111924
 10
9.713308916842503
 20
-6.572518715804786
 10
9.713308916842503
 20
-6.572518715804786
 10
9.713308916842503
 20
-6.696059839905845
 10
9.713308916842503
 20
-6.696059839905845
 10
9.713308916842503
 20
-6.696059839905845
 10
9.676928708518261
 20
-6.696059839905845
 10
9.676928708518261
 20
-6.696059839905845
 10
9.676928708518261
 20
-6.696059839905845
 10
9.676928708518261
 20
-6.546714950620262
 10
9.676928708518261
 20
-6.546714950620262
 97
        1
330
FF
 75
     2
 76
     1
 98
        1
 10
0.0
 20
0.0
450
        0
451
        0
460
0.0
461
0.0
452
        0
462
0.0
453
        0
470

  0
ENDBLK
  5
F7
330
F4
100
AcDbEntity
  8
0
100
AcDbBlockEnd
  0
BLOCK
  5
103
330
101
100
AcDbEntity
  8
0
100
AcDbBlockBegin
  2
Block_4
 70
     0
 10
0.0
 20
0.0
 30
0.0
  3
Block_4
  1

  0
INSERT
  5
106
330
101
100
AcDbEntity
  8
Livello 2
100
AcDbBlockReference
  2
Block_5
 10
0.0
 20
0.0
 30
0.0
  0
ENDBLK
  5
104
330
101
100
AcDbEntity
  8
0
100
AcDbBlockEnd
  0
BLOCK
  5
107
330
105
100
AcDbEntity
  8
0
100
AcDbBlockBegin
  2
Block_5
 70
     0
 10
0.0
 20
0.0
 30
0.0
  3
Block_5
  1

  0
SPLINE
  5
109
330
105
100
AcDbEntity
  8
Livello 2
100
AcDbSpline
210
0.0
220
0.0
230
1.0
 70
    11
 71
     3
 72
    29
 73
    25
 74
     0
 42
0.000000001
 43
0.0000000001
 40
0.0
 40
0.0
 40
0.0
 40
0.0
 40
1.0
 40
1.0
 40
1.0
 40
2.0
 40
2.0
 40
2.0
 40
3.0
 40
3.0
 40
3.0
 40
4.0
 40
4.0
 40
4.0
 40
5.0
 40
5.0
 40
5.0
 40
6.0
 40
6.0
 40
6.0
 40
7.0
 40
7.0
 40
7.0
 40
8.0
 40
8.0
 40
8.0
 40
8.0
 10
0.5688197155696006
 20
-1.333665364249916
 30
0.0
 10
0.5688197155696006
 20
-1.333665364249916
 30
0.0
 10
0.5679756671757144
 20
-1.333665364249916
 30
0.0
 10
0.5679756671757144
 20
-1.333665364249916
 30
0.0
 10
0.5679756671757144
 20
-1.333665364249916
 30
0.0
 10
0.5201577418404466
 20
-1.359469129434438
 30
0.0
 10
0.5201577418404466
 20
-1.359469129434438
 30
0.0
 10
0.5201577418404466
 20
-1.359469129434438
 30
0.0
 10
0.5129574922762746
 20
-1.331150444545684
 30
0.0
 10
0.5129574922762746
 20
-1.331150444545684
 30
0.0
 10
0.5129574922762746
 20
-1.331150444545684
 30
0.0
 10
0.5730399575390316
 20
-1.298973252713447
 30
0.0
 10
0.5730399575390316
 20
-1.298973252713447
 30
0.0
 10
0.5730399575390316
 20
-1.298973252713447
 30
0.0
 10
0.6047865124356089
 20
-1.298973252713447
 30
0.0
 10
0.6047865124356089
 20
-1.298973252713447
 30
0.0
 10
0.6047865124356089
 20
-1.298973252713447
 30
0.0
 10
0.6047865124356089
 20
-1.573995225300945
 30
0.0
 10
0.6047865124356089
 20
-1.573995225300945
 30
0.0
 10
0.6047865124356089
 20
-1.573995225300945
 30
0.0
 10
0.5688197155696006
 20
-1.573995225300945
 30
0.0
 10
0.5688197155696006
 20
-1.573995225300945
 30
0.0
 10
0.5688197155696006
 20
-1.573995225300945
 30
0.0
 10
0.5688197155696006
 20
-1.333665364249916
 30
0.0
 10
0.5688197155696006
 20
-1.333665364249916
 30
0.0
  0
HATCH
  5
10A
330
105
100
AcDbEntity
  8
Livello 2
 62
   250
420
  1907995
440
 33554687
100
AcDbHatch
 10
0.0
 20
0.0
 30
0.0
210
0.0
220
0.0
230
1.0
  2
SOLID
 70
     1
 71
     1
 91
        1
 92
        1
 93
        1
 72
     4
 94
        3
 73
     0
 74
     0
 95
       29
 96
       25
 40
0.0
 40
0.0
 40
0.0
 40
0.0
 40
1.0
 40
1.0
 40
1.0
 40
2.0
 40
2.0
 40
2.0
 40
3.0
 40
3.0
 40
3.0
 40
4.0
 40
4.0
 40
4.0
 40
5.0
 40
5.0
 40
5.0
 40
6.0
 40
6.0
 40
6.0
 40
7.0
 40
7.0
 40
7.0
 40
8.0
 40
8.0
 40
8.0
 40
8.0
 10
0.5688197155696006
 20
-1.333665364249916
 10
0.5688197155696006
 20
-1.333665364249916
 10
0.5679756671757144
 20
-1.333665364249916
 10
0.5679756671757144
 20
-1.333665364249916
 10
0.5679756671757144
 20
-1.333665364249916
 10
0.5201577418404466
 20
-1.359469129434438
 10
0.5201577418404466
 20
-1.359469129434438
 10
0.5201577418404466
 20
-1.359469129434438
 10
0.5129574922762746
 20
-1.331150444545684
 10
0.5129574922762746
 20
-1.331150444545684
 10
0.5129574922762746
 20
-1.331150444545684
 10
0.5730399575390316
 20
-1.298973252713447
 10
0.5730399575390316
 20
-1.298973252713447
 10
0.5730399575390316
 20
-1.298973252713447
 10
0.6047865124356089
 20
-1.298973252713447
 10
0.6047865124356089
 20
-1.298973252713447
 10
0.6047865124356089
 20
-1.298973252713447
 10
0.6047865124356089
 20
-1.573995225300945
 10
0.6047865124356089
 20
-1.573995225300945
 10
0.6047865124356089
 20
-1.573995225300945
 10
0.5688197155696006
 20
-1.573995225300945
 10
0.5688197155696006
 20
-1.573995225300945
 10
0.5688197155696006
 20
-1.573995225300945
 10
0.5688197155696006
 20
-1.333665364249916
 10
0.5688197155696006
 20
-1.333665364249916
 97
        1
330
109
 75
     2
 76
     1
 98
        1
 10
0.0
 20
0.0
450
        0
451
        0
460
0.0
461
0.0
452
        0
462
0.0
453
        0
470

  0
SPLINE
  5
10B
330
105
100
AcDbEntity
  8
Livello 2
100
AcDbSpline
210
0.0
220
0.0
230
1.0
 70
     9
 71
     3
 72
    17
 73
    13
 74
     0
 42
0.000000001
 43
0.0000000001
 40
0.0
 40
0.0
 40
0.0
 40
0.0
 40
1.0
 40
1.0
 40
1.0
 40
2.0
 40
2.0
 40
2.0
 40
3.0
 40
3.0
 40
3.0
 40
4.0
 40
4.0
 40
4.0
 40
4.0
 10
0.7474823674346574
 20
-1.364981282210834
 30
0.0
 10
0.7474823674346574
 20
-1.392473144183129
 30
0.0
 10
0.7682046167784349
 20
-1.407287054769704
 30
0.0
 10
0.799933946197586
 20
-1.415761989663418
 30
0.0
 10
0.8236362031361046
 20
-1.407700466227933
 30
0.0
 10
0.8418263072982238
 20
-1.390785047395359
 30
0.0
 10
0.8418263072982238
 20
-1.36584255608215
 30
0.0
 10
0.8418263072982238
 20
-1.343828395931403
 30
0.0
 10
0.8287177189768483
 20
-1.320987412864196
 30
0.0
 10
0.7952830672924987
 20
-1.320987412864196
 30
0.0
 10
0.7643977862672339
 20
-1.320987412864196
 30
0.0
 10
0.7474823674346574
 20
-1.341279025272319
 30
0.0
 10
0.7474823674346574
 20
-1.364981282210834
 30
0.0
  0
SPLINE
  5
10C
330
105
100
AcDbEntity
  8
Livello 2
100
AcDbSpline
210
0.0
220
0.0
230
1.0
 70
     9
 71
     3
 72
    17
 73
    13
 74
     0
 42
0.000000001
 43
0.0000000001
 40
0.0
 40
0.0
 40
0.0
 40
0.0
 40
1.0
 40
1.0
 40
1.0
 40
2.0
 40
2.0
 40
2.0
 40
3.0
 40
3.0
 40
3.0
 40
4.0
 40
4.0
 40
4.0
 40
4.0
 10
0.8498706052562823
 20
-1.502475043027158
 30
0.0
 10
0.8498706052562823
 20
-1.469057616820235
 30
0.0
 10
0.8265989852534197
 20
-1.453003471858969
 30
0.0
 10
0.7893575030578691
 20
-1.442427028719254
 30
0.0
 10
0.7572147621804879
 20
-1.451728786529428
 30
0.0
 10
0.7398514809348288
 20
-1.47288167280886
 30
0.0
 10
0.7398514809348288
 20
-1.499098849451613
 30
0.0
 10
0.7385940210827126
 20
-1.52703857383699
 30
0.0
 10
0.7597469073621466
 20
-1.551567653691968
 30
0.0
 10
0.7948696558342686
 20
-1.551567653691968
 30
0.0
 10
0.828287082041192
 20
-1.551567653691968
 30
0.0
 10
0.8498706052562823
 20
-1.530828178870764
 30
0.0
 10
0.8498706052562823
 20
-1.502475043027158
 30
0.0
  0
SPLINE
  5
10D
330
105
100
AcDbEntity
  8
Livello 2
100
AcDbSpline
210
0.0
220
0.0
230
1.0
 70
     9
 71
     3
 72
    35
 73
    31
 74
     0
 42
0.000000001
 43
0.0000000001
 40
0.0
 40
0.0
 40
0.0
 40
0.0
 40
1.0
 40
1.0
 40
1.0
 40
2.0
 40
2.0
 40
2.0
 40
3.0
 40
3.0
 40
3.0
 40
4.0
 40
4.0
 40
4.0
 40
5.0
 40
5.0
 40
5.0
 40
6.0
 40
6.0
 40
6.0
 40
7.0
 40
7.0
 40
7.0
 40
8.0
 40
8.0
 40
8.0
 40
9.0
 40
9.0
 40
9.0
 40
10.0
 40
10.0
 40
10.0
 40
10.0
 10
0.701783175822818
 20
-1.504197590769783
 30
0.0
 10
0.701783175822818
 20
-1.469505479233315
 30
0.0
 10
0.7225054251665958
 20
-1.444941948423485
 30
0.0
 10
0.7563534883091755
 20
-1.430575900249993
 30
0.0
 10
0.7563534883091755
 20
-1.430575900249993
 30
0.0
 10
0.7559400768509456
 20
-1.429301214920451
 30
0.0
 10
0.7559400768509456
 20
-1.429301214920451
 30
0.0
 10
0.7254682072839107
 20
-1.414900715792108
 30
0.0
 10
0.7123596189625351
 20
-1.391198458853589
 30
0.0
 10
0.7123596189625351
 20
-1.367530652869922
 30
0.0
 10
0.7123596189625351
 20
-1.323950194981512
 30
0.0
 10
0.7491704642224298
 20
-1.294322373808363
 30
0.0
 10
0.7974018010159273
 20
-1.294322373808363
 30
0.0
 10
0.8507146536501684
 20
-1.294322373808363
 30
0.0
 10
0.8773624672285759
 20
-1.327739800015287
 30
0.0
 10
0.8773624672285759
 20
-1.362018500093522
 30
0.0
 10
0.8773624672285759
 20
-1.38530734557381
 30
0.0
 10
0.8659419756949727
 20
-1.410249836887017
 30
0.0
 10
0.832093912552393
 20
-1.426338432803136
 30
0.0
 10
0.832093912552393
 20
-1.426338432803136
 30
0.0
 10
0.832093912552393
 20
-1.427613118132678
 30
0.0
 10
0.832093912552393
 20
-1.427613118132678
 30
0.0
 10
0.8663726126306292
 20
-1.441152343389711
 30
0.0
 10
0.887525498910063
 20
-1.46526801178646
 30
0.0
 10
0.887525498910063
 20
-1.498685437993384
 30
0.0
 10
0.887525498910063
 20
-1.54650336332865
 30
0.0
 10
0.8464771862033112
 20
-1.57864610420603
 30
0.0
 10
0.7940083819629562
 20
-1.57864610420603
 30
0.0
 10
0.736475287359284
 20
-1.57864610420603
 30
0.0
 10
0.701783175822818
 20
-1.544367404127793
 30
0.0
 10
0.701783175822818
 20
-1.504197590769783
 30
0.0
  0
HATCH
  5
10E
330
105
100
AcDbEntity
  8
Livello 2
 62
   250
420
  1907995
440
 33554687
100
AcDbHatch
 10
0.0
 20
0.0
 30
0.0
210
0.0
220
0.0
230
1.0
  2
SOLID
 70
     1
 71
     1
 91
        3
 92
        1
 93
        1
 72
     4
 94
        3
 73
     0
 74
     0
 95
       17
 96
       13
 40
0.0
 40
0.0
 40
0.0
 40
0.0
 40
1.0
 40
1.0
 40
1.0
 40
2.0
 40
2.0
 40
2.0
 40
3.0
 40
3.0
 40
3.0
 40
4.0
 40
4.0
 40
4.0
 40
4.0
 10
0.7474823674346574
 20
-1.364981282210834
 10
0.7474823674346574
 20
-1.392473144183129
 10
0.7682046167784349
 20
-1.407287054769704
 10
0.799933946197586
 20
-1.415761989663418
 10
0.8236362031361046
 20
-1.407700466227933
 10
0.8418263072982238
 20
-1.390785047395359
 10
0.8418263072982238
 20
-1.36584255608215
 10
0.8418263072982238
 20
-1.343828395931403
 10
0.8287177189768483
 20
-1.320987412864196
 10
0.7952830672924987
 20
-1.320987412864196
 10
0.7643977862672339
 20
-1.320987412864196
 10
0.7474823674346574
 20
-1.341279025272319
 10
0.7474823674346574
 20
-1.364981282210834
 97
        1
330
10B
 92
        1
 93
        1
 72
     4
 94
        3
 73
     0
 74
     0
 95
       17
 96
       13
 40
0.0
 40
0.0
 40
0.0
 40
0.0
 40
1.0
 40
1.0
 40
1.0
 40
2.0
 40
2.0
 40
2.0
 40
3.0
 40
3.0
 40
3.0
 40
4.0
 40
4.0
 40
4.0
 40
4.0
 10
0.8498706052562823
 20
-1.502475043027158
 10
0.8498706052562823
 20
-1.469057616820235
 10
0.8265989852534197
 20
-1.453003471858969
 10
0.7893575030578691
 20
-1.442427028719254
 10
0.7572147621804879
 20
-1.451728786529428
 10
0.7398514809348288
 20
-1.47288167280886
 10
0.7398514809348288
 20
-1.499098849451613
 10
0.7385940210827126
 20
-1.52703857383699
 10
0.7597469073621466
 20
-1.551567653691968
 10
0.7948696558342686
 20
-1.551567653691968
 10
0.828287082041192
 20
-1.551567653691968
 10
0.8498706052562823
 20
-1.530828178870764
 10
0.8498706052562823
 20
-1.502475043027158
 97
        1
330
10C
 92
        1
 93
        1
 72
     4
 94
        3
 73
     0
 74
     0
 95
       35
 96
       31
 40
0.0
 40
0.0
 40
0.0
 40
0.0
 40
1.0
 40
1.0
 40
1.0
 40
2.0
 40
2.0
 40
2.0
 40
3.0
 40
3.0
 40
3.0
 40
4.0
 40
4.0
 40
4.0
 40
5.0
 40
5.0
 40
5.0
 40
6.0
 40
6.0
 40
6.0
 40
7.0
 40
7.0
 40
7.0
 40
8.0
 40
8.0
 40
8.0
 40
9.0
 40
9.0
 40
9.0
 40
10.0
 40
10.0
 40
10.0
 40
10.0
 10
0.701783175822818
 20
-1.504197590769783
 10
0.701783175822818
 20
-1.469505479233315
 10
0.7225054251665958
 20
-1.444941948423485
 10
0.7563534883091755
 20
-1.430575900249993
 10
0.7563534883091755
 20
-1.430575900249993
 10
0.7559400768509456
 20
-1.429301214920451
 10
0.7559400768509456
 20
-1.429301214920451
 10
0.7254682072839107
 20
-1.414900715792108
 10
0.7123596189625351
 20
-1.391198458853589
 10
0.7123596189625351
 20
-1.367530652869922
 10
0.7123596189625351
 20
-1.323950194981512
 10
0.7491704642224298
 20
-1.294322373808363
 10
0.7974018010159273
 20
-1.294322373808363
 10
0.8507146536501684
 20
-1.294322373808363
 10
0.8773624672285759
 20
-1.327739800015287
 10
0.8773624672285759
 20
-1.362018500093522
 10
0.8773624672285759
 20
-1.38530734557381
 10
0.8659419756949727
 20
-1.410249836887017
 10
0.832093912552393
 20
-1.426338432803136
 10
0.832093912552393
 20
-1.426338432803136
 10
0.832093912552393
 20
-1.427613118132678
 10
0.832093912552393
 20
-1.427613118132678
 10
0.8663726126306292
 20
-1.441152343389711
 10
0.887525498910063
 20
-1.46526801178646
 10
0.887525498910063
 20
-1.498685437993384
 10
0.887525498910063
 20
-1.54650336332865
 10
0.8464771862033112
 20
-1.57864610420603
 10
0.7940083819629562
 20
-1.57864610420603
 10
0.736475287359284
 20
-1.57864610420603
 10
0.701783175822818
 20
-1.544367404127793
 10
0.701783175822818
 20
-1.504197590769783
 97
        1
330
10D
 75
     2
 76
     1
 98
        1
 10
0.0
 20
0.0
450
        0
451
        0
460
0.0
461
0.0
452
        0
462
0.0
453
        0
470

  0
SPLINE
  5
10F
330
105
100
AcDbEntity
  8
Livello 2
100
AcDbSpline
210
0.0
220
0.0
230
1.0
 70
     9
 71
     3
 72
    59
 73
    55
 74
     0
 42
0.000000001
 43
0.0000000001
 40
0.0
 40
0.0
 40
0.0
 40
0.0
 40
1.0
 40
1.0
 40
1.0
 40
2.0
 40
2.0
 40
2.0
 40
3.0
 40
3.0
 40
3.0
 40
4.0
 40
4.0
 40
4.0
 40
5.0
 40
5.0
 40
5.0
 40
6.0
 40
6.0
 40
6.0
 40
7.0
 40
7.0
 40
7.0
 40
8.0
 40
8.0
 40
8.0
 40
9.0
 40
9.0
 40
9.0
 40
10.0
 40
10.0
 40
10.0
 40
11.0
 40
11.0
 40
11.0
 40
12.0
 40
12.0
 40
12.0
 40
13.0
 40
13.0
 40
13.0
 40
14.0
 40
14.0
 40
14.0
 40
15.0
 40
15.0
 40
15.0
 40
16.0
 40
16.0
 40
16.0
 40
17.0
 40
17.0
 40
17.0
 40
18.0
 40
18.0
 40
18.0
 40
18.0
 10
0.9312093096630308
 20
-1.531276041283845
 30
0.0
 10
0.9417857528027479
 20
-1.538028428434936
 30
0.0
 10
0.9663320581351527
 20
-1.548604871574651
 30
0.0
 10
0.9921358233196745
 20
-1.548604871574651
 30
0.0
 10
1.039953748654939
 20
-1.548604871574651
 30
0.0
 10
1.054750433764088
 20
-1.518150227485044
 30
0.0
 10
1.054337022305859
 20
-1.495309244417839
 30
0.0
 10
1.0539063853702
 20
-1.456793076892745
 30
0.0
 10
1.019214273833737
 20
-1.440291069518399
 30
0.0
 10
0.9832474769677295
 20
-1.440291069518399
 30
0.0
 10
0.9832474769677295
 20
-1.440291069518399
 30
0.0
 10
0.9625252276239519
 20
-1.440291069518399
 30
0.0
 10
0.9625252276239519
 20
-1.440291069518399
 30
0.0
 10
0.9625252276239519
 20
-1.440291069518399
 30
0.0
 10
0.9625252276239519
 20
-1.412385796087875
 30
0.0
 10
0.9625252276239519
 20
-1.412385796087875
 30
0.0
 10
0.9625252276239519
 20
-1.412385796087875
 30
0.0
 10
0.9832474769677295
 20
-1.412385796087875
 30
0.0
 10
0.9832474769677295
 20
-1.412385796087875
 30
0.0
 10
1.010325927481793
 20
-1.412385796087875
 30
0.0
 10
1.044604627560028
 20
-1.39839870841776
 30
0.0
 10
1.044604627560028
 20
-1.36584255608215
 30
0.0
 10
1.044604627560028
 20
-1.343828395931403
 30
0.0
 10
1.030634765367339
 20
-1.324363606439741
 30
0.0
 10
0.9963732907665315
 20
-1.324363606439741
 30
0.0
 10
0.9743591306157851
 20
-1.324363606439741
 30
0.0
 10
0.9532062443363511
 20
-1.334113226662999
 30
0.0
 10
0.9413723413445179
 20
-1.342553710601859
 30
0.0
 10
0.9413723413445179
 20
-1.342553710601859
 30
0.0
 10
0.9316399465986872
 20
-1.315475260087797
 30
0.0
 10
0.9316399465986872
 20
-1.315475260087797
 30
0.0
 10
0.9460232202496051
 20
-1.304898816948079
 30
0.0
 10
0.9739457191575551
 20
-1.294322373808363
 30
0.0
 10
1.003556314853274
 20
-1.294322373808363
 30
0.0
 10
1.057713215881401
 20
-1.294322373808363
 30
0.0
 10
1.082259521213809
 20
-1.326465114685744
 30
0.0
 10
1.082259521213809
 20
-1.359916991847518
 30
0.0
 10
1.082259521213809
 20
-1.388270127691124
 30
0.0
 10
1.065326876903807
 20
-1.412385796087875
 30
0.0
 10
1.031478813761224
 20
-1.424650336015365
 30
0.0
 10
1.031478813761224
 20
-1.424650336015365
 30
0.0
 10
1.031478813761224
 20
-1.425477158931824
 30
0.0
 10
1.031478813761224
 20
-1.425477158931824
 30
0.0
 10
1.065326876903807
 20
-1.432263997037764
 30
0.0
 10
1.092835964353527
 20
-1.457654350764058
 30
0.0
 10
1.092835964353527
 20
-1.496136067334299
 30
0.0
 10
1.092835964353527
 20
-1.540164387635791
 30
0.0
 10
1.05855726427529
 20
-1.57864610420603
 30
0.0
 10
0.9925664602553306
 20
-1.57864610420603
 30
0.0
 10
0.9616811792300655
 20
-1.57864610420603
 30
0.0
 10
0.9346027287160019
 20
-1.568930934937628
 30
0.0
 10
0.9210635034589699
 20
-1.560042588585683
 30
0.0
 10
0.9210635034589699
 20
-1.560042588585683
 30
0.0
 10
0.9312093096630308
 20
-1.531276041283845
 30
0.0
 10
0.9312093096630308
 20
-1.531276041283845
 30
0.0
  0
HATCH
  5
110
330
105
100
AcDbEntity
  8
Livello 2
 62
   250
420
  1907995
440
 33554687
100
AcDbHatch
 10
0.0
 20
0.0
 30
0.0
210
0.0
220
0.0
230
1.0
  2
SOLID
 70
     1
 71
     1
 91
        1
 92
        1
 93
        1
 72
     4
 94
        3
 73
     0
 74
     0
 95
       59
 96
       55
 40
0.0
 40
0.0
 40
0.0
 40
0.0
 40
1.0
 40
1.0
 40
1.0
 40
2.0
 40
2.0
 40
2.0
 40
3.0
 40
3.0
 40
3.0
 40
4.0
 40
4.0
 40
4.0
 40
5.0
 40
5.0
 40
5.0
 40
6.0
 40
6.0
 40
6.0
 40
7.0
 40
7.0
 40
7.0
 40
8.0
 40
8.0
 40
8.0
 40
9.0
 40
9.0
 40
9.0
 40
10.0
 40
10.0
 40
10.0
 40
11.0
 40
11.0
 40
11.0
 40
12.0
 40
12.0
 40
12.0
 40
13.0
 40
13.0
 40
13.0
 40
14.0
 40
14.0
 40
14.0
 40
15.0
 40
15.0
 40
15.0
 40
16.0
 40
16.0
 40
16.0
 40
17.0
 40
17.0
 40
17.0
 40
18.0
 40
18.0
 40
18.0
 40
18.0
 10
0.9312093096630308
 20
-1.531276041283845
 10
0.9417857528027479
 20
-1.538028428434936
 10
0.9663320581351527
 20
-1.548604871574651
 10
0.9921358233196745
 20
-1.548604871574651
 10
1.039953748654939
 20
-1.548604871574651
 10
1.054750433764088
 20
-1.518150227485044
 10
1.054337022305859
 20
-1.495309244417839
 10
1.0539063853702
 20
-1.456793076892745
 10
1.019214273833737
 20
-1.440291069518399
 10
0.9832474769677295
 20
-1.440291069518399
 10
0.9832474769677295
 20
-1.440291069518399
 10
0.9625252276239519
 20
-1.440291069518399
 10
0.9625252276239519
 20
-1.440291069518399
 10
0.9625252276239519
 20
-1.440291069518399
 10
0.9625252276239519
 20
-1.412385796087875
 10
0.9625252276239519
 20
-1.412385796087875
 10
0.9625252276239519
 20
-1.412385796087875
 10
0.9832474769677295
 20
-1.412385796087875
 10
0.9832474769677295
 20
-1.412385796087875
 10
1.010325927481793
 20
-1.412385796087875
 10
1.044604627560028
 20
-1.39839870841776
 10
1.044604627560028
 20
-1.36584255608215
 10
1.044604627560028
 20
-1.343828395931403
 10
1.030634765367339
 20
-1.324363606439741
 10
0.9963732907665315
 20
-1.324363606439741
 10
0.9743591306157851
 20
-1.324363606439741
 10
0.9532062443363511
 20
-1.334113226662999
 10
0.9413723413445179
 20
-1.342553710601859
 10
0.9413723413445179
 20
-1.342553710601859
 10
0.9316399465986872
 20
-1.315475260087797
 10
0.9316399465986872
 20
-1.315475260087797
 10
0.9460232202496051
 20
-1.304898816948079
 10
0.9739457191575551
 20
-1.294322373808363
 10
1.003556314853274
 20
-1.294322373808363
 10
1.057713215881401
 20
-1.294322373808363
 10
1.082259521213809
 20
-1.326465114685744
 10
1.082259521213809
 20
-1.359916991847518
 10
1.082259521213809
 20
-1.388270127691124
 10
1.065326876903807
 20
-1.412385796087875
 10
1.031478813761224
 20
-1.424650336015365
 10
1.031478813761224
 20
-1.424650336015365
 10
1.031478813761224
 20
-1.425477158931824
 10
1.031478813761224
 20
-1.425477158931824
 10
1.065326876903807
 20
-1.432263997037764
 10
1.092835964353527
 20
-1.457654350764058
 10
1.092835964353527
 20
-1.496136067334299
 10
1.092835964353527
 20
-1.540164387635791
 10
1.05855726427529
 20
-1.57864610420603
 10
0.9925664602553306
 20
-1.57864610420603
 10
0.9616811792300655
 20
-1.57864610420603
 10
0.9346027287160019
 20
-1.568930934937628
 10
0.9210635034589699
 20
-1.560042588585683
 10
0.9210635034589699
 20
-1.560042588585683
 10
0.9312093096630308
 20
-1.531276041283845
 10
0.9312093096630308
 20
-1.531276041283845
 97
        1
330
10F
 75
     2
 76
     1
 98
        1
 10
0.0
 20
0.0
450
        0
451
        0
460
0.0
461
0.0
452
        0
462
0.0
453
        0
470

  0
SPLINE
  5
111
330
105
100
AcDbEntity
  8
Livello 2
100
AcDbSpline
210
0.0
220
0.0
230
1.0
 70
     9
 71
     3
 72
    17
 73
    13
 74
     0
 42
0.000000001
 43
0.0000000001
 40
0.0
 40
0.0
 40
0.0
 40
0.0
 40
1.0
 40
1.0
 40
1.0
 40
2.0
 40
2.0
 40
2.0
 40
3.0
 40
3.0
 40
3.0
 40
4.0
 40
4.0
 40
4.0
 40
4.0
 10
1.17289998343073
 20
-1.437741698859314
 30
0.0
 10
1.17289998343073
 20
-1.5092618811331
 30
0.0
 10
1.194914143581478
 20
-1.549879556904196
 30
0.0
 10
1.228779432201485
 20
-1.549879556904196
 30
0.0
 10
1.266847737313495
 20
-1.549879556904196
 30
0.0
 10
1.285037841475614
 20
-1.505437825144473
 30
0.0
 10
1.285037841475614
 20
-1.435226779155081
 30
0.0
 10
1.285037841475614
 20
-1.367530652869922
 30
0.0
 10
1.267674560229956
 20
-1.323088921110199
 30
0.0
 10
1.229192843659715
 20
-1.323088921110199
 30
0.0
 10
1.196602240369252
 20
-1.323088921110199
 30
0.0
 10
1.17289998343073
 20
-1.362879773964835
 30
0.0
 10
1.17289998343073
 20
-1.437741698859314
 30
0.0
  0
SPLINE
  5
112
330
105
100
AcDbEntity
  8
Livello 2
100
AcDbSpline
210
0.0
220
0.0
230
1.0
 70
     9
 71
     3
 72
    17
 73
    13
 74
     0
 42
0.000000001
 43
0.0000000001
 40
0.0
 40
0.0
 40
0.0
 40
0.0
 40
1.0
 40
1.0
 40
1.0
 40
2.0
 40
2.0
 40
2.0
 40
3.0
 40
3.0
 40
3.0
 40
4.0
 40
4.0
 40
4.0
 40
4.0
 10
1.322279323671166
 20
-1.433538682367309
 30
0.0
 10
1.322279323671166
 20
-1.52703857383699
 30
0.0
 10
1.2875872121347
 20
-1.57864610420603
 30
0.0
 10
1.226643473000629
 20
-1.57864610420603
 30
0.0
 10
1.17289998343073
 20
-1.57864610420603
 30
0.0
 10
1.136519775106495
 20
-1.52831325916653
 30
0.0
 10
1.135692952190034
 20
-1.437328287401084
 30
0.0
 10
1.135692952190034
 20
-1.345103081260946
 30
0.0
 10
1.175449354089817
 20
-1.294322373808363
 30
0.0
 10
1.231294351905718
 20
-1.294322373808363
 30
0.0
 10
1.289275308922469
 20
-1.294322373808363
 30
0.0
 10
1.322279323671166
 20
-1.345929904177406
 30
0.0
 10
1.322279323671166
 20
-1.433538682367309
 30
0.0
  0
HATCH
  5
113
330
105
100
AcDbEntity
  8
Livello 2
 62
   250
420
  1907995
440
 33554687
100
AcDbHatch
 10
0.0
 20
0.0
 30
0.0
210
0.0
220
0.0
230
1.0
  2
SOLID
 70
     1
 71
     1
 91
        2
 92
        1
 93
        1
 72
     4
 94
        3
 73
     0
 74
     0
 95
       17
 96
       13
 40
0.0
 40
0.0
 40
0.0
 40
0.0
 40
1.0
 40
1.0
 40
1.0
 40
2.0
 40
2.0
 40
2.0
 40
3.0
 40
3.0
 40
3.0
 40
4.0
 40
4.0
 40
4.0
 40
4.0
 10
1.17289998343073
 20
-1.437741698859314
 10
1.17289998343073
 20
-1.5092618811331
 10
1.194914143581478
 20
-1.549879556904196
 10
1.228779432201485
 20
-1.549879556904196
 10
1.266847737313495
 20
-1.549879556904196
 10
1.285037841475614
 20
-1.505437825144473
 10
1.285037841475614
 20
-1.435226779155081
 10
1.285037841475614
 20
-1.367530652869922
 10
1.267674560229956
 20
-1.323088921110199
 10
1.229192843659715
 20
-1.323088921110199
 10
1.196602240369252
 20
-1.323088921110199
 10
1.17289998343073
 20
-1.362879773964835
 10
1.17289998343073
 20
-1.437741698859314
 97
        1
330
111
 92
        1
 93
        1
 72
     4
 94
        3
 73
     0
 74
     0
 95
       17
 96
       13
 40
0.0
 40
0.0
 40
0.0
 40
0.0
 40
1.0
 40
1.0
 40
1.0
 40
2.0
 40
2.0
 40
2.0
 40
3.0
 40
3.0
 40
3.0
 40
4.0
 40
4.0
 40
4.0
 40
4.0
 10
1.322279323671166
 20
-1.433538682367309
 10
1.322279323671166
 20
-1.52703857383699
 10
1.2875872121347
 20
-1.57864610420603
 10
1.226643473000629
 20
-1.57864610420603
 10
1.17289998343073
 20
-1.57864610420603
 10
1.136519775106495
 20
-1.52831325916653
 10
1.135692952190034
 20
-1.437328287401084
 10
1.135692952190034
 20
-1.345103081260946
 10
1.175449354089817
 20
-1.294322373808363
 10
1.231294351905718
 20
-1.294322373808363
 10
1.289275308922469
 20
-1.294322373808363
 10
1.322279323671166
 20
-1.345929904177406
 10
1.322279323671166
 20
-1.433538682367309
 97
        1
330
112
 75
     2
 76
     1
 98
        1
 10
0.0
 20
0.0
450
        0
451
        0
460
0.0
461
0.0
452
        0
462
0.0
453
        0
470

  0
SPLINE
  5
114
330
105
100
AcDbEntity
  8
Livello 2
100
AcDbSpline
210
0.0
220
0.0
230
1.0
 70
     9
 71
     3
 72
    80
 73
    76
 74
     0
 42
0.000000001
 43
0.0000000001
 40
0.0
 40
0.0
 40
0.0
 40
0.0
 40
1.0
 40
1.0
 40
1.0
 40
2.0
 40
2.0
 40
2.0
 40
3.0
 40
3.0
 40
3.0
 40
4.0
 40
4.0
 40
4.0
 40
5.0
 40
5.0
 40
5.0
 40
6.0
 40
6.0
 40
6.0
 40
7.0
 40
7.0
 40
7.0
 40
8.0
 40
8.0
 40
8.0
 40
9.0
 40
9.0
 40
9.0
 40
10.0
 40
10.0
 40
10.0
 40
11.0
 40
11.0
 40
11.0
 40
12.0
 40
12.0
 40
12.0
 40
13.0
 40
13.0
 40
13.0
 40
14.0
 40
14.0
 40
14.0
 40
15.0
 40
15.0
 40
15.0
 40
16.0
 40
16.0
 40
16.0
 40
17.0
 40
17.0
 40
17.0
 40
18.0
 40
18.0
 40
18.0
 40
19.0
 40
19.0
 40
19.0
 40
20.0
 40
20.0
 40
20.0
 40
21.0
 40
21.0
 40
21.0
 40
22.0
 40
22.0
 40
22.0
 40
23.0
 40
23.0
 40
23.0
 40
24.0
 40
24.0
 40
24.0
 40
25.0
 40
25.0
 40
25.0
 40
25.0
 10
1.458257242473974
 20
-1.424650336015365
 30
0.0
 10
1.458257242473974
 20
-1.40349744973593
 30
0.0
 10
1.457809380060894
 20
-1.386134168490271
 30
0.0
 10
1.45653469473135
 20
-1.369218749657695
 30
0.0
 10
1.45653469473135
 20
-1.369218749657695
 30
0.0
 10
1.489125298021813
 20
-1.369218749657695
 30
0.0
 10
1.489125298021813
 20
-1.369218749657695
 30
0.0
 10
1.489125298021813
 20
-1.369218749657695
 30
0.0
 10
1.490813394809588
 20
-1.402222764406386
 30
0.0
 10
1.490813394809588
 20
-1.402222764406386
 30
0.0
 10
1.490813394809588
 20
-1.402222764406386
 30
0.0
 10
1.492088080139129
 20
-1.402222764406386
 30
0.0
 10
1.492088080139129
 20
-1.402222764406386
 30
0.0
 10
1.503525797150159
 20
-1.382757974914725
 30
0.0
 10
1.522542724228736
 20
-1.364567870752606
 30
0.0
 10
1.556408012848744
 20
-1.364567870752606
 30
0.0
 10
1.584313286279265
 20
-1.364567870752606
 30
0.0
 10
1.605466172558699
 20
-1.381483289585184
 30
0.0
 10
1.614354518910646
 20
-1.405598957981932
 30
0.0
 10
1.614354518910646
 20
-1.405598957981932
 30
0.0
 10
1.615215792781956
 20
-1.405598957981932
 30
0.0
 10
1.615215792781956
 20
-1.405598957981932
 30
0.0
 10
1.621554768474819
 20
-1.394161240970903
 30
0.0
 10
1.629581840955449
 20
-1.38530734557381
 30
0.0
 10
1.638056775849165
 20
-1.378933918926099
 30
0.0
 10
1.650321315776654
 20
-1.369632161115925
 30
0.0
 10
1.663860541033686
 20
-1.364567870752606
 30
0.0
 10
1.683325330525349
 20
-1.364567870752606
 30
0.0
 10
1.710403781039409
 20
-1.364567870752606
 30
0.0
 10
1.750608045352278
 20
-1.382344563456497
 30
0.0
 10
1.750608045352278
 20
-1.453416883317198
 30
0.0
 10
1.750608045352278
 20
-1.453416883317198
 30
0.0
 10
1.750608045352278
 20
-1.573995225300945
 30
0.0
 10
1.750608045352278
 20
-1.573995225300945
 30
0.0
 10
1.750608045352278
 20
-1.573995225300945
 30
0.0
 10
1.714227837028039
 20
-1.573995225300945
 30
0.0
 10
1.714227837028039
 20
-1.573995225300945
 30
0.0
 10
1.714227837028039
 20
-1.573995225300945
 30
0.0
 10
1.714227837028039
 20
-1.458067762222285
 30
0.0
 10
1.714227837028039
 20
-1.458067762222285
 30
0.0
 10
1.714227837028039
 20
-1.418724771780735
 30
0.0
 10
1.699827337899695
 20
-1.395022514842215
 30
0.0
 10
1.669786105268316
 20
-1.395022514842215
 30
0.0
 10
1.648633218988883
 20
-1.395022514842215
 30
0.0
 10
1.632131211614534
 20
-1.410663248345248
 30
0.0
 10
1.625792235921676
 20
-1.428887803462219
 30
0.0
 10
1.624104139133903
 20
-1.433952093825539
 30
0.0
 10
1.622829453804359
 20
-1.440704480976629
 30
0.0
 10
1.622829453804359
 20
-1.44749131908257
 30
0.0
 10
1.622829453804359
 20
-1.44749131908257
 30
0.0
 10
1.622829453804359
 20
-1.573995225300945
 30
0.0
 10
1.622829453804359
 20
-1.573995225300945
 30
0.0
 10
1.622829453804359
 20
-1.573995225300945
 30
0.0
 10
1.586449245480123
 20
-1.573995225300945
 30
0.0
 10
1.586449245480123
 20
-1.573995225300945
 30
0.0
 10
1.586449245480123
 20
-1.573995225300945
 30
0.0
 10
1.586449245480123
 20
-1.451280924116345
 30
0.0
 10
1.586449245480123
 20
-1.451280924116345
 30
0.0
 10
1.586449245480123
 20
-1.418724771780735
 30
0.0
 10
1.572048746351779
 20
-1.395022514842215
 30
0.0
 10
1.543695610508173
 20
-1.395022514842215
 30
0.0
 10
1.520441215982735
 20
-1.395022514842215
 30
0.0
 10
1.503525797150159
 20
-1.413626030462563
 30
0.0
 10
1.497600232915528
 20
-1.432263997037764
 30
0.0
 10
1.495464273714675
 20
-1.437741698859314
 30
0.0
 10
1.494637450798214
 20
-1.444115125507024
 30
0.0
 10
1.494637450798214
 20
-1.450454101199885
 30
0.0
 10
1.494637450798214
 20
-1.450454101199885
 30
0.0
 10
1.494637450798214
 20
-1.573995225300945
 30
0.0
 10
1.494637450798214
 20
-1.573995225300945
 30
0.0
 10
1.494637450798214
 20
-1.573995225300945
 30
0.0
 10
1.458257242473974
 20
-1.573995225300945
 30
0.0
 10
1.458257242473974
 20
-1.573995225300945
 30
0.0
 10
1.458257242473974
 20
-1.573995225300945
 30
0.0
 10
1.458257242473974
 20
-1.424650336015365
 30
0.0
 10
1.458257242473974
 20
-1.424650336015365
 30
0.0
  0
HATCH
  5
115
330
105
100
AcDbEntity
  8
Livello 2
 62
   250
420
  1907995
440
 33554687
100
AcDbHatch
 10
0.0
 20
0.0
 30
0.0
210
0.0
220
0.0
230
1.0
  2
SOLID
 70
     1
 71
     1
 91
        1
 92
        1
 93
        1
 72
     4
 94
        3
 73
     0
 74
     0
 95
       80
 96
       76
 40
0.0
 40
0.0
 40
0.0
 40
0.0
 40
1.0
 40
1.0
 40
1.0
 40
2.0
 40
2.0
 40
2.0
 40
3.0
 40
3.0
 40
3.0
 40
4.0
 40
4.0
 40
4.0
 40
5.0
 40
5.0
 40
5.0
 40
6.0
 40
6.0
 40
6.0
 40
7.0
 40
7.0
 40
7.0
 40
8.0
 40
8.0
 40
8.0
 40
9.0
 40
9.0
 40
9.0
 40
10.0
 40
10.0
 40
10.0
 40
11.0
 40
11.0
 40
11.0
 40
12.0
 40
12.0
 40
12.0
 40
13.0
 40
13.0
 40
13.0
 40
14.0
 40
14.0
 40
14.0
 40
15.0
 40
15.0
 40
15.0
 40
16.0
 40
16.0
 40
16.0
 40
17.0
 40
17.0
 40
17.0
 40
18.0
 40
18.0
 40
18.0
 40
19.0
 40
19.0
 40
19.0
 40
20.0
 40
20.0
 40
20.0
 40
21.0
 40
21.0
 40
21.0
 40
22.0
 40
22.0
 40
22.0
 40
23.0
 40
23.0
 40
23.0
 40
24.0
 40
24.0
 40
24.0
 40
25.0
 40
25.0
 40
25.0
 40
25.0
 10
1.458257242473974
 20
-1.424650336015365
 10
1.458257242473974
 20
-1.40349744973593
 10
1.457809380060894
 20
-1.386134168490271
 10
1.45653469473135
 20
-1.369218749657695
 10
1.45653469473135
 20
-1.369218749657695
 10
1.489125298021813
 20
-1.369218749657695
 10
1.489125298021813
 20
-1.369218749657695
 10
1.489125298021813
 20
-1.369218749657695
 10
1.490813394809588
 20
-1.402222764406386
 10
1.490813394809588
 20
-1.402222764406386
 10
1.490813394809588
 20
-1.402222764406386
 10
1.492088080139129
 20
-1.402222764406386
 10
1.492088080139129
 20
-1.402222764406386
 10
1.503525797150159
 20
-1.382757974914725
 10
1.522542724228736
 20
-1.364567870752606
 10
1.556408012848744
 20
-1.364567870752606
 10
1.584313286279265
 20
-1.364567870752606
 10
1.605466172558699
 20
-1.381483289585184
 10
1.614354518910646
 20
-1.405598957981932
 10
1.614354518910646
 20
-1.405598957981932
 10
1.615215792781956
 20
-1.405598957981932
 10
1.615215792781956
 20
-1.405598957981932
 10
1.621554768474819
 20
-1.394161240970903
 10
1.629581840955449
 20
-1.38530734557381
 10
1.638056775849165
 20
-1.378933918926099
 10
1.650321315776654
 20
-1.369632161115925
 10
1.663860541033686
 20
-1.364567870752606
 10
1.683325330525349
 20
-1.364567870752606
 10
1.710403781039409
 20
-1.364567870752606
 10
1.750608045352278
 20
-1.382344563456497
 10
1.750608045352278
 20
-1.453416883317198
 10
1.750608045352278
 20
-1.453416883317198
 10
1.750608045352278
 20
-1.573995225300945
 10
1.750608045352278
 20
-1.573995225300945
 10
1.750608045352278
 20
-1.573995225300945
 10
1.714227837028039
 20
-1.573995225300945
 10
1.714227837028039
 20
-1.573995225300945
 10
1.714227837028039
 20
-1.573995225300945
 10
1.714227837028039
 20
-1.458067762222285
 10
1.714227837028039
 20
-1.458067762222285
 10
1.714227837028039
 20
-1.418724771780735
 10
1.699827337899695
 20
-1.395022514842215
 10
1.669786105268316
 20
-1.395022514842215
 10
1.648633218988883
 20
-1.395022514842215
 10
1.632131211614534
 20
-1.410663248345248
 10
1.625792235921676
 20
-1.428887803462219
 10
1.624104139133903
 20
-1.433952093825539
 10
1.622829453804359
 20
-1.440704480976629
 10
1.622829453804359
 20
-1.44749131908257
 10
1.622829453804359
 20
-1.44749131908257
 10
1.622829453804359
 20
-1.573995225300945
 10
1.622829453804359
 20
-1.573995225300945
 10
1.622829453804359
 20
-1.573995225300945
 10
1.586449245480123
 20
-1.573995225300945
 10
1.586449245480123
 20
-1.573995225300945
 10
1.586449245480123
 20
-1.573995225300945
 10
1.586449245480123
 20
-1.451280924116345
 10
1.586449245480123
 20
-1.451280924116345
 10
1.586449245480123
 20
-1.418724771780735
 10
1.572048746351779
 20
-1.395022514842215
 10
1.543695610508173
 20
-1.395022514842215
 10
1.520441215982735
 20
-1.395022514842215
 10
1.503525797150159
 20
-1.413626030462563
 10
1.497600232915528
 20
-1.432263997037764
 10
1.495464273714675
 20
-1.437741698859314
 10
1.494637450798214
 20
-1.444115125507024
 10
1.494637450798214
 20
-1.450454101199885
 10
1.494637450798214
 20
-1.450454101199885
 10
1.494637450798214
 20
-1.573995225300945
 10
1.494637450798214
 20
-1.573995225300945
 10
1.494637450798214
 20
-1.573995225300945
 10
1.458257242473974
 20
-1.573995225300945
 10
1.458257242473974
 20
-1.573995225300945
 10
1.458257242473974
 20
-1.573995225300945
 10
1.458257242473974
 20
-1.424650336015365
 10
1.458257242473974
 20
-1.424650336015365
 97
        1
330
114
 75
     2
 76
     1
 98
        1
 10
0.0
 20
0.0
450
        0
451
        0
460
0.0
461
0.0
452
        0
462
0.0
453
        0
470

  0
SPLINE
  5
116
330
105
100
AcDbEntity
  8
Livello 2
100
AcDbSpline
210
0.0
220
0.0
230
1.0
 70
     9
 71
     3
 72
    80
 73
    76
 74
     0
 42
0.000000001
 43
0.0000000001
 40
0.0
 40
0.0
 40
0.0
 40
0.0
 40
1.0
 40
1.0
 40
1.0
 40
2.0
 40
2.0
 40
2.0
 40
3.0
 40
3.0
 40
3.0
 40
4.0
 40
4.0
 40
4.0
 40
5.0
 40
5.0
 40
5.0
 40
6.0
 40
6.0
 40
6.0
 40
7.0
 40
7.0
 40
7.0
 40
8.0
 40
8.0
 40
8.0
 40
9.0
 40
9.0
 40
9.0
 40
10.0
 40
10.0
 40
10.0
 40
11.0
 40
11.0
 40
11.0
 40
12.0
 40
12.0
 40
12.0
 40
13.0
 40
13.0
 40
13.0
 40
14.0
 40
14.0
 40
14.0
 40
15.0
 40
15.0
 40
15.0
 40
16.0
 40
16.0
 40
16.0
 40
17.0
 40
17.0
 40
17.0
 40
18.0
 40
18.0
 40
18.0
 40
19.0
 40
19.0
 40
19.0
 40
20.0
 40
20.0
 40
20.0
 40
21.0
 40
21.0
 40
21.0
 40
22.0
 40
22.0
 40
22.0
 40
23.0
 40
23.0
 40
23.0
 40
24.0
 40
24.0
 40
24.0
 40
25.0
 40
25.0
 40
25.0
 40
25.0
 10
1.811310627802379
 20
-1.424650336015365
 30
0.0
 10
1.811310627802379
 20
-1.40349744973593
 30
0.0
 10
1.810862765389298
 20
-1.386134168490271
 30
0.0
 10
1.809588080059754
 20
-1.369218749657695
 30
0.0
 10
1.809588080059754
 20
-1.369218749657695
 30
0.0
 10
1.842178683350219
 20
-1.369218749657695
 30
0.0
 10
1.842178683350219
 20
-1.369218749657695
 30
0.0
 10
1.842178683350219
 20
-1.369218749657695
 30
0.0
 10
1.843866780137991
 20
-1.402222764406386
 30
0.0
 10
1.843866780137991
 20
-1.402222764406386
 30
0.0
 10
1.843866780137991
 20
-1.402222764406386
 30
0.0
 10
1.845141465467533
 20
-1.402222764406386
 30
0.0
 10
1.845141465467533
 20
-1.402222764406386
 30
0.0
 10
1.856579182478563
 20
-1.382757974914725
 30
0.0
 10
1.875596109557142
 20
-1.364567870752606
 30
0.0
 10
1.909461398177148
 20
-1.364567870752606
 30
0.0
 10
1.937366671607668
 20
-1.364567870752606
 30
0.0
 10
1.958519557887106
 20
-1.381483289585184
 30
0.0
 10
1.96740790423905
 20
-1.405598957981932
 30
0.0
 10
1.96740790423905
 20
-1.405598957981932
 30
0.0
 10
1.968269178110363
 20
-1.405598957981932
 30
0.0
 10
1.968269178110363
 20
-1.405598957981932
 30
0.0
 10
1.97460815380322
 20
-1.394161240970903
 30
0.0
 10
1.982635226283854
 20
-1.38530734557381
 30
0.0
 10
1.991110161177569
 20
-1.378933918926099
 30
0.0
 10
2.003374701105057
 20
-1.369632161115925
 30
0.0
 10
2.01691392636209
 20
-1.364567870752606
 30
0.0
 10
2.03637871585375
 20
-1.364567870752606
 30
0.0
 10
2.063457166367816
 20
-1.364567870752606
 30
0.0
 10
2.103661430680678
 20
-1.382344563456497
 30
0.0
 10
2.103661430680678
 20
-1.453416883317198
 30
0.0
 10
2.103661430680678
 20
-1.453416883317198
 30
0.0
 10
2.103661430680678
 20
-1.573995225300945
 30
0.0
 10
2.103661430680678
 20
-1.573995225300945
 30
0.0
 10
2.103661430680678
 20
-1.573995225300945
 30
0.0
 10
2.067281222356442
 20
-1.573995225300945
 30
0.0
 10
2.067281222356442
 20
-1.573995225300945
 30
0.0
 10
2.067281222356442
 20
-1.573995225300945
 30
0.0
 10
2.067281222356442
 20
-1.458067762222285
 30
0.0
 10
2.067281222356442
 20
-1.458067762222285
 30
0.0
 10
2.067281222356442
 20
-1.418724771780735
 30
0.0
 10
2.052880723228099
 20
-1.395022514842215
 30
0.0
 10
2.022839490596719
 20
-1.395022514842215
 30
0.0
 10
2.001686604317284
 20
-1.395022514842215
 30
0.0
 10
1.985184596942938
 20
-1.410663248345248
 30
0.0
 10
1.97884562125008
 20
-1.428887803462219
 30
0.0
 10
1.977157524462304
 20
-1.433952093825539
 30
0.0
 10
1.975882839132765
 20
-1.440704480976629
 30
0.0
 10
1.975882839132765
 20
-1.44749131908257
 30
0.0
 10
1.975882839132765
 20
-1.44749131908257
 30
0.0
 10
1.975882839132765
 20
-1.573995225300945
 30
0.0
 10
1.975882839132765
 20
-1.573995225300945
 30
0.0
 10
1.975882839132765
 20
-1.573995225300945
 30
0.0
 10
1.939502630808526
 20
-1.573995225300945
 30
0.0
 10
1.939502630808526
 20
-1.573995225300945
 30
0.0
 10
1.939502630808526
 20
-1.573995225300945
 30
0.0
 10
1.939502630808526
 20
-1.451280924116345
 30
0.0
 10
1.939502630808526
 20
-1.451280924116345
 30
0.0
 10
1.939502630808526
 20
-1.418724771780735
 30
0.0
 10
1.925102131680182
 20
-1.395022514842215
 30
0.0
 10
1.896748995836576
 20
-1.395022514842215
 30
0.0
 10
1.873494601311139
 20
-1.395022514842215
 30
0.0
 10
1.856579182478563
 20
-1.413626030462563
 30
0.0
 10
1.850653618243931
 20
-1.432263997037764
 30
0.0
 10
1.848517659043078
 20
-1.437741698859314
 30
0.0
 10
1.847690836126615
 20
-1.444115125507024
 30
0.0
 10
1.847690836126615
 20
-1.450454101199885
 30
0.0
 10
1.847690836126615
 20
-1.450454101199885
 30
0.0
 10
1.847690836126615
 20
-1.573995225300945
 30
0.0
 10
1.847690836126615
 20
-1.573995225300945
 30
0.0
 10
1.847690836126615
 20
-1.573995225300945
 30
0.0
 10
1.811310627802379
 20
-1.573995225300945
 30
0.0
 10
1.811310627802379
 20
-1.573995225300945
 30
0.0
 10
1.811310627802379
 20
-1.573995225300945
 30
0.0
 10
1.811310627802379
 20
-1.424650336015365
 30
0.0
 10
1.811310627802379
 20
-1.424650336015365
 30
0.0
  0
HATCH
  5
117
330
105
100
AcDbEntity
  8
Livello 2
 62
   250
420
  1907995
440
 33554687
100
AcDbHatch
 10
0.0
 20
0.0
 30
0.0
210
0.0
220
0.0
230
1.0
  2
SOLID
 70
     1
 71
     1
 91
        1
 92
        1
 93
        1
 72
     4
 94
        3
 73
     0
 74
     0
 95
       80
 96
       76
 40
0.0
 40
0.0
 40
0.0
 40
0.0
 40
1.0
 40
1.0
 40
1.0
 40
2.0
 40
2.0
 40
2.0
 40
3.0
 40
3.0
 40
3.0
 40
4.0
 40
4.0
 40
4.0
 40
5.0
 40
5.0
 40
5.0
 40
6.0
 40
6.0
 40
6.0
 40
7.0
 40
7.0
 40
7.0
 40
8.0
 40
8.0
 40
8.0
 40
9.0
 40
9.0
 40
9.0
 40
10.0
 40
10.0
 40
10.0
 40
11.0
 40
11.0
 40
11.0
 40
12.0
 40
12.0
 40
12.0
 40
13.0
 40
13.0
 40
13.0
 40
14.0
 40
14.0
 40
14.0
 40
15.0
 40
15.0
 40
15.0
 40
16.0
 40
16.0
 40
16.0
 40
17.0
 40
17.0
 40
17.0
 40
18.0
 40
18.0
 40
18.0
 40
19.0
 40
19.0
 40
19.0
 40
20.0
 40
20.0
 40
20.0
 40
21.0
 40
21.0
 40
21.0
 40
22.0
 40
22.0
 40
22.0
 40
23.0
 40
23.0
 40
23.0
 40
24.0
 40
24.0
 40
24.0
 40
25.0
 40
25.0
 40
25.0
 40
25.0
 10
1.811310627802379
 20
-1.424650336015365
 10
1.811310627802379
 20
-1.40349744973593
 10
1.810862765389298
 20
-1.386134168490271
 10
1.809588080059754
 20
-1.369218749657695
 10
1.809588080059754
 20
-1.369218749657695
 10
1.842178683350219
 20
-1.369218749657695
 10
1.842178683350219
 20
-1.369218749657695
 10
1.842178683350219
 20
-1.369218749657695
 10
1.843866780137991
 20
-1.402222764406386
 10
1.843866780137991
 20
-1.402222764406386
 10
1.843866780137991
 20
-1.402222764406386
 10
1.845141465467533
 20
-1.402222764406386
 10
1.845141465467533
 20
-1.402222764406386
 10
1.856579182478563
 20
-1.382757974914725
 10
1.875596109557142
 20
-1.364567870752606
 10
1.909461398177148
 20
-1.364567870752606
 10
1.937366671607668
 20
-1.364567870752606
 10
1.958519557887106
 20
-1.381483289585184
 10
1.96740790423905
 20
-1.405598957981932
 10
1.96740790423905
 20
-1.405598957981932
 10
1.968269178110363
 20
-1.405598957981932
 10
1.968269178110363
 20
-1.405598957981932
 10
1.97460815380322
 20
-1.394161240970903
 10
1.982635226283854
 20
-1.38530734557381
 10
1.991110161177569
 20
-1.378933918926099
 10
2.003374701105057
 20
-1.369632161115925
 10
2.01691392636209
 20
-1.364567870752606
 10
2.03637871585375
 20
-1.364567870752606
 10
2.063457166367816
 20
-1.364567870752606
 10
2.103661430680678
 20
-1.382344563456497
 10
2.103661430680678
 20
-1.453416883317198
 10
2.103661430680678
 20
-1.453416883317198
 10
2.103661430680678
 20
-1.573995225300945
 10
2.103661430680678
 20
-1.573995225300945
 10
2.103661430680678
 20
-1.573995225300945
 10
2.067281222356442
 20
-1.573995225300945
 10
2.067281222356442
 20
-1.573995225300945
 10
2.067281222356442
 20
-1.573995225300945
 10
2.067281222356442
 20
-1.458067762222285
 10
2.067281222356442
 20
-1.458067762222285
 10
2.067281222356442
 20
-1.418724771780735
 10
2.052880723228099
 20
-1.395022514842215
 10
2.022839490596719
 20
-1.395022514842215
 10
2.001686604317284
 20
-1.395022514842215
 10
1.985184596942938
 20
-1.410663248345248
 10
1.97884562125008
 20
-1.428887803462219
 10
1.977157524462304
 20
-1.433952093825539
 10
1.975882839132765
 20
-1.440704480976629
 10
1.975882839132765
 20
-1.44749131908257
 10
1.975882839132765
 20
-1.44749131908257
 10
1.975882839132765
 20
-1.573995225300945
 10
1.975882839132765
 20
-1.573995225300945
 10
1.975882839132765
 20
-1.573995225300945
 10
1.939502630808526
 20
-1.573995225300945
 10
1.939502630808526
 20
-1.573995225300945
 10
1.939502630808526
 20
-1.573995225300945
 10
1.939502630808526
 20
-1.451280924116345
 10
1.939502630808526
 20
-1.451280924116345
 10
1.939502630808526
 20
-1.418724771780735
 10
1.925102131680182
 20
-1.395022514842215
 10
1.896748995836576
 20
-1.395022514842215
 10
1.873494601311139
 20
-1.395022514842215
 10
1.856579182478563
 20
-1.413626030462563
 10
1.850653618243931
 20
-1.432263997037764
 10
1.848517659043078
 20
-1.437741698859314
 10
1.847690836126615
 20
-1.444115125507024
 10
1.847690836126615
 20
-1.450454101199885
 10
1.847690836126615
 20
-1.450454101199885
 10
1.847690836126615
 20
-1.573995225300945
 10
1.847690836126615
 20
-1.573995225300945
 10
1.847690836126615
 20
-1.573995225300945
 10
1.811310627802379
 20
-1.573995225300945
 10
1.811310627802379
 20
-1.573995225300945
 10
1.811310627802379
 20
-1.573995225300945
 10
1.811310627802379
 20
-1.424650336015365
 10
1.811310627802379
 20
-1.424650336015365
 97
        1
330
116
 75
     2
 76
     1
 98
        1
 10
0.0
 20
0.0
450
        0
451
        0
460
0.0
461
0.0
452
        0
462
0.0
453
        0
470

  0
ENDBLK
  5
108
330
105
100
AcDbEntity
  8
0
100
AcDbBlockEnd
  0
BLOCK
  5
11B
330
119
100
AcDbEntity
  8
0
100
AcDbBlockBegin
  2
Block_6
 70
     0
 10
0.0
 20
0.0
 30
0.0
  3
Block_6
  1

  0
INSERT
  5
11E
330
119
100
AcDbEntity
  8
Livello 2
100
AcDbBlockReference
  2
Block_7
 10
0.0
 20
0.0
 30
0.0
  0
ENDBLK
  5
11C
330
119
100
AcDbEntity
  8
0
100
AcDbBlockEnd
  0
BLOCK
  5
11F
330
11D
100
AcDbEntity
  8
0
100
AcDbBlockBegin
  2
Block_7
 70
     0
 10
0.0
 20
0.0
 30
0.0
  3
Block_7
  1

  0
SPLINE
  5
121
330
11D
100
AcDbEntity
  8
Livello 2
100
AcDbSpline
210
0.0
220
0.0
230
1.0
 70
    11
 71
     3
 72
    29
 73
    25
 74
     0
 42
0.000000001
 43
0.0000000001
 40
0.0
 40
0.0
 40
0.0
 40
0.0
 40
1.0
 40
1.0
 40
1.0
 40
2.0
 40
2.0
 40
2.0
 40
3.0
 40
3.0
 40
3.0
 40
4.0
 40
4.0
 40
4.0
 40
5.0
 40
5.0
 40
5.0
 40
6.0
 40
6.0
 40
6.0
 40
7.0
 40
7.0
 40
7.0
 40
8.0
 40
8.0
 40
8.0
 40
8.0
 10
3.677208793568543
 20
-1.213672688498665
 30
0.0
 10
3.677208793568543
 20
-1.213672688498665
 30
0.0
 10
3.676364745174658
 20
-1.213672688498665
 30
0.0
 10
3.676364745174658
 20
-1.213672688498665
 30
0.0
 10
3.676364745174658
 20
-1.213672688498665
 30
0.0
 10
3.628546819839387
 20
-1.239476453683185
 30
0.0
 10
3.628546819839387
 20
-1.239476453683185
 30
0.0
 10
3.628546819839387
 20
-1.239476453683185
 30
0.0
 10
3.621346570275218
 20
-1.211157768794432
 30
0.0
 10
3.621346570275218
 20
-1.211157768794432
 30
0.0
 10
3.621346570275218
 20
-1.211157768794432
 30
0.0
 10
3.681429035537973
 20
-1.178980576962197
 30
0.0
 10
3.681429035537973
 20
-1.178980576962197
 30
0.0
 10
3.681429035537973
 20
-1.178980576962197
 30
0.0
 10
3.713175590434552
 20
-1.178980576962197
 30
0.0
 10
3.713175590434552
 20
-1.178980576962197
 30
0.0
 10
3.713175590434552
 20
-1.178980576962197
 30
0.0
 10
3.713175590434552
 20
-1.454002549549693
 30
0.0
 10
3.713175590434552
 20
-1.454002549549693
 30
0.0
 10
3.713175590434552
 20
-1.454002549549693
 30
0.0
 10
3.677208793568543
 20
-1.454002549549693
 30
0.0
 10
3.677208793568543
 20
-1.454002549549693
 30
0.0
 10
3.677208793568543
 20
-1.454002549549693
 30
0.0
 10
3.677208793568543
 20
-1.213672688498665
 30
0.0
 10
3.677208793568543
 20
-1.213672688498665
 30
0.0
  0
HATCH
  5
122
330
11D
100
AcDbEntity
  8
Livello 2
 62
   250
420
  1907995
440
 33554687
100
AcDbHatch
 10
0.0
 20
0.0
 30
0.0
210
0.0
220
0.0
230
1.0
  2
SOLID
 70
     1
 71
     1
 91
        1
 92
        1
 93
        1
 72
     4
 94
        3
 73
     0
 74
     0
 95
       29
 96
       25
 40
0.0
 40
0.0
 40
0.0
 40
0.0
 40
1.0
 40
1.0
 40
1.0
 40
2.0
 40
2.0
 40
2.0
 40
3.0
 40
3.0
 40
3.0
 40
4.0
 40
4.0
 40
4.0
 40
5.0
 40
5.0
 40
5.0
 40
6.0
 40
6.0
 40
6.0
 40
7.0
 40
7.0
 40
7.0
 40
8.0
 40
8.0
 40
8.0
 40
8.0
 10
3.677208793568543
 20
-1.213672688498665
 10
3.677208793568543
 20
-1.213672688498665
 10
3.676364745174658
 20
-1.213672688498665
 10
3.676364745174658
 20
-1.213672688498665
 10
3.676364745174658
 20
-1.213672688498665
 10
3.628546819839387
 20
-1.239476453683185
 10
3.628546819839387
 20
-1.239476453683185
 10
3.628546819839387
 20
-1.239476453683185
 10
3.621346570275218
 20
-1.211157768794432
 10
3.621346570275218
 20
-1.211157768794432
 10
3.621346570275218
 20
-1.211157768794432
 10
3.681429035537973
 20
-1.178980576962197
 10
3.681429035537973
 20
-1.178980576962197
 10
3.681429035537973
 20
-1.178980576962197
 10
3.713175590434552
 20
-1.178980576962197
 10
3.713175590434552
 20
-1.178980576962197
 10
3.713175590434552
 20
-1.178980576962197
 10
3.713175590434552
 20
-1.454002549549693
 10
3.713175590434552
 20
-1.454002549549693
 10
3.713175590434552
 20
-1.454002549549693
 10
3.677208793568543
 20
-1.454002549549693
 10
3.677208793568543
 20
-1.454002549549693
 10
3.677208793568543
 20
-1.454002549549693
 10
3.677208793568543
 20
-1.213672688498665
 10
3.677208793568543
 20
-1.213672688498665
 97
        1
330
121
 75
     2
 76
     1
 98
        1
 10
0.0
 20
0.0
450
        0
451
        0
460
0.0
461
0.0
452
        0
462
0.0
453
        0
470

  0
SPLINE
  5
123
330
11D
100
AcDbEntity
  8
Livello 2
100
AcDbSpline
210
0.0
220
0.0
230
1.0
 70
    11
 71
     3
 72
    47
 73
    43
 74
     0
 42
0.000000001
 43
0.0000000001
 40
0.0
 40
0.0
 40
0.0
 40
0.0
 40
1.0
 40
1.0
 40
1.0
 40
2.0
 40
2.0
 40
2.0
 40
3.0
 40
3.0
 40
3.0
 40
4.0
 40
4.0
 40
4.0
 40
5.0
 40
5.0
 40
5.0
 40
6.0
 40
6.0
 40
6.0
 40
7.0
 40
7.0
 40
7.0
 40
8.0
 40
8.0
 40
8.0
 40
9.0
 40
9.0
 40
9.0
 40
10.0
 40
10.0
 40
10.0
 40
11.0
 40
11.0
 40
11.0
 40
12.0
 40
12.0
 40
12.0
 40
13.0
 40
13.0
 40
13.0
 40
14.0
 40
14.0
 40
14.0
 40
14.0
 10
3.813548447397305
 20
-1.454002549549693
 30
0.0
 10
3.813548447397305
 20
-1.454002549549693
 30
0.0
 10
3.813548447397305
 20
-1.431161566482485
 30
0.0
 10
3.813548447397305
 20
-1.431161566482485
 30
0.0
 10
3.813548447397305
 20
-1.431161566482485
 30
0.0
 10
3.842745631634798
 20
-1.402808430638879
 30
0.0
 10
3.842745631634798
 20
-1.402808430638879
 30
0.0
 10
3.912973903101616
 20
-1.335973578225034
 30
0.0
 10
3.944720457998194
 20
-1.300420192817254
 30
0.0
 10
3.945133869456423
 20
-1.258941243174847
 30
0.0
 10
3.945133869456423
 20
-1.231035969744322
 30
0.0
 10
3.931594644199392
 20
-1.205232204559802
 30
0.0
 10
3.890563556970067
 20
-1.205232204559802
 30
0.0
 10
3.865603840179431
 20
-1.205232204559802
 30
0.0
 10
3.844864365358228
 20
-1.217910155945522
 30
0.0
 10
3.832169188495082
 20
-1.228486599085238
 30
0.0
 10
3.832169188495082
 20
-1.228486599085238
 30
0.0
 10
3.820318060025821
 20
-1.202269422442488
 30
0.0
 10
3.820318060025821
 20
-1.202269422442488
 30
0.0
 10
3.839369438059252
 20
-1.18618082652637
 30
0.0
 10
3.866447888573318
 20
-1.17432969805711
 30
0.0
 10
3.898177217992468
 20
-1.17432969805711
 30
0.0
 10
3.957415634861338
 20
-1.17432969805711
 30
0.0
 10
3.982375351651973
 20
-1.214947373828207
 30
0.0
 10
3.982375351651973
 20
-1.25429036426976
 30
0.0
 10
3.982375351651973
 20
-1.305071071722343
 30
0.0
 10
3.94556450639208
 20
-1.346102158951665
 30
0.0
 10
3.887600774852752
 20
-1.401947156767568
 30
0.0
 10
3.887600774852752
 20
-1.401947156767568
 30
0.0
 10
3.865603840179431
 20
-1.422273220130541
 30
0.0
 10
3.865603840179431
 20
-1.422273220130541
 30
0.0
 10
3.865603840179431
 20
-1.422273220130541
 30
0.0
 10
3.865603840179431
 20
-1.423100043047002
 30
0.0
 10
3.865603840179431
 20
-1.423100043047002
 30
0.0
 10
3.865603840179431
 20
-1.423100043047002
 30
0.0
 10
3.989144964280491
 20
-1.423100043047002
 30
0.0
 10
3.989144964280491
 20
-1.423100043047002
 30
0.0
 10
3.989144964280491
 20
-1.423100043047002
 30
0.0
 10
3.989144964280491
 20
-1.454002549549693
 30
0.0
 10
3.989144964280491
 20
-1.454002549549693
 30
0.0
 10
3.989144964280491
 20
-1.454002549549693
 30
0.0
 10
3.813548447397305
 20
-1.454002549549693
 30
0.0
 10
3.813548447397305
 20
-1.454002549549693
 30
0.0
  0
HATCH
  5
124
330
11D
100
AcDbEntity
  8
Livello 2
 62
   250
420
  1907995
440
 33554687
100
AcDbHatch
 10
0.0
 20
0.0
 30
0.0
210
0.0
220
0.0
230
1.0
  2
SOLID
 70
     1
 71
     1
 91
        1
 92
        1
 93
        1
 72
     4
 94
        3
 73
     0
 74
     0
 95
       47
 96
       43
 40
0.0
 40
0.0
 40
0.0
 40
0.0
 40
1.0
 40
1.0
 40
1.0
 40
2.0
 40
2.0
 40
2.0
 40
3.0
 40
3.0
 40
3.0
 40
4.0
 40
4.0
 40
4.0
 40
5.0
 40
5.0
 40
5.0
 40
6.0
 40
6.0
 40
6.0
 40
7.0
 40
7.0
 40
7.0
 40
8.0
 40
8.0
 40
8.0
 40
9.0
 40
9.0
 40
9.0
 40
10.0
 40
10.0
 40
10.0
 40
11.0
 40
11.0
 40
11.0
 40
12.0
 40
12.0
 40
12.0
 40
13.0
 40
13.0
 40
13.0
 40
14.0
 40
14.0
 40
14.0
 40
14.0
 10
3.813548447397305
 20
-1.454002549549693
 10
3.813548447397305
 20
-1.454002549549693
 10
3.813548447397305
 20
-1.431161566482485
 10
3.813548447397305
 20
-1.431161566482485
 10
3.813548447397305
 20
-1.431161566482485
 10
3.842745631634798
 20
-1.402808430638879
 10
3.842745631634798
 20
-1.402808430638879
 10
3.912973903101616
 20
-1.335973578225034
 10
3.944720457998194
 20
-1.300420192817254
 10
3.945133869456423
 20
-1.258941243174847
 10
3.945133869456423
 20
-1.231035969744322
 10
3.931594644199392
 20
-1.205232204559802
 10
3.890563556970067
 20
-1.205232204559802
 10
3.865603840179431
 20
-1.205232204559802
 10
3.844864365358228
 20
-1.217910155945522
 10
3.832169188495082
 20
-1.228486599085238
 10
3.832169188495082
 20
-1.228486599085238
 10
3.820318060025821
 20
-1.202269422442488
 10
3.820318060025821
 20
-1.202269422442488
 10
3.839369438059252
 20
-1.18618082652637
 10
3.866447888573318
 20
-1.17432969805711
 10
3.898177217992468
 20
-1.17432969805711
 10
3.957415634861338
 20
-1.17432969805711
 10
3.982375351651973
 20
-1.214947373828207
 10
3.982375351651973
 20
-1.25429036426976
 10
3.982375351651973
 20
-1.305071071722343
 10
3.94556450639208
 20
-1.346102158951665
 10
3.887600774852752
 20
-1.401947156767568
 10
3.887600774852752
 20
-1.401947156767568
 10
3.865603840179431
 20
-1.422273220130541
 10
3.865603840179431
 20
-1.422273220130541
 10
3.865603840179431
 20
-1.422273220130541
 10
3.865603840179431
 20
-1.423100043047002
 10
3.865603840179431
 20
-1.423100043047002
 10
3.865603840179431
 20
-1.423100043047002
 10
3.989144964280491
 20
-1.423100043047002
 10
3.989144964280491
 20
-1.423100043047002
 10
3.989144964280491
 20
-1.423100043047002
 10
3.989144964280491
 20
-1.454002549549693
 10
3.989144964280491
 20
-1.454002549549693
 10
3.989144964280491
 20
-1.454002549549693
 10
3.813548447397305
 20
-1.454002549549693
 10
3.813548447397305
 20
-1.454002549549693
 97
        1
330
123
 75
     2
 76
     1
 98
        1
 10
0.0
 20
0.0
450
        0
451
        0
460
0.0
461
0.0
452
        0
462
0.0
453
        0
470

  0
SPLINE
  5
125
330
11D
100
AcDbEntity
  8
Livello 2
100
AcDbSpline
210
0.0
220
0.0
230
1.0
 70
     9
 71
     3
 72
    17
 73
    13
 74
     0
 42
0.000000001
 43
0.0000000001
 40
0.0
 40
0.0
 40
0.0
 40
0.0
 40
1.0
 40
1.0
 40
1.0
 40
2.0
 40
2.0
 40
2.0
 40
3.0
 40
3.0
 40
3.0
 40
4.0
 40
4.0
 40
4.0
 40
4.0
 10
4.064144692994378
 20
-1.317749023108061
 30
0.0
 10
4.064144692994378
 20
-1.389269205381849
 30
0.0
 10
4.086141627667697
 20
-1.429886881152943
 30
0.0
 10
4.119989690810277
 20
-1.429886881152943
 30
0.0
 10
4.158075221399716
 20
-1.429886881152943
 30
0.0
 10
4.176265325561836
 20
-1.385445149393222
 30
0.0
 10
4.176265325561836
 20
-1.31523410340383
 30
0.0
 10
4.176265325561836
 20
-1.247537977118667
 30
0.0
 10
4.158919269793602
 20
-1.203096245358947
 30
0.0
 10
4.120420327745935
 20
-1.203096245358947
 30
0.0
 10
4.08782972445547
 20
-1.203096245358947
 30
0.0
 10
4.064144692994378
 20
-1.242887098213583
 30
0.0
 10
4.064144692994378
 20
-1.317749023108061
 30
0.0
  0
SPLINE
  5
126
330
11D
100
AcDbEntity
  8
Livello 2
100
AcDbSpline
210
0.0
220
0.0
230
1.0
 70
     9
 71
     3
 72
    17
 73
    13
 74
     0
 42
0.000000001
 43
0.0000000001
 40
0.0
 40
0.0
 40
0.0
 40
0.0
 40
1.0
 40
1.0
 40
1.0
 40
2.0
 40
2.0
 40
2.0
 40
3.0
 40
3.0
 40
3.0
 40
4.0
 40
4.0
 40
4.0
 40
4.0
 10
4.21348958227996
 20
-1.313546006616057
 30
0.0
 10
4.21348958227996
 20
-1.407045898085738
 30
0.0
 10
4.178797470743495
 20
-1.45865342845478
 30
0.0
 10
4.117870957086848
 20
-1.45865342845478
 30
0.0
 10
4.064144692994378
 20
-1.45865342845478
 30
0.0
 10
4.027747259192715
 20
-1.408320583415278
 30
0.0
 10
4.026903210798828
 20
-1.317335611649832
 30
0.0
 10
4.026903210798828
 20
-1.225110405509692
 30
0.0
 10
4.066676838176038
 20
-1.17432969805711
 30
0.0
 10
4.122521835991936
 20
-1.17432969805711
 30
0.0
 10
4.180485567531266
 20
-1.17432969805711
 30
0.0
 10
4.21348958227996
 20
-1.225937228426154
 30
0.0
 10
4.21348958227996
 20
-1.313546006616057
 30
0.0
  0
HATCH
  5
127
330
11D
100
AcDbEntity
  8
Livello 2
 62
   250
420
  1907995
440
 33554687
100
AcDbHatch
 10
0.0
 20
0.0
 30
0.0
210
0.0
220
0.0
230
1.0
  2
SOLID
 70
     1
 71
     1
 91
        2
 92
        1
 93
        1
 72
     4
 94
        3
 73
     0
 74
     0
 95
       17
 96
       13
 40
0.0
 40
0.0
 40
0.0
 40
0.0
 40
1.0
 40
1.0
 40
1.0
 40
2.0
 40
2.0
 40
2.0
 40
3.0
 40
3.0
 40
3.0
 40
4.0
 40
4.0
 40
4.0
 40
4.0
 10
4.064144692994378
 20
-1.317749023108061
 10
4.064144692994378
 20
-1.389269205381849
 10
4.086141627667697
 20
-1.429886881152943
 10
4.119989690810277
 20
-1.429886881152943
 10
4.158075221399716
 20
-1.429886881152943
 10
4.176265325561836
 20
-1.385445149393222
 10
4.176265325561836
 20
-1.31523410340383
 10
4.176265325561836
 20
-1.247537977118667
 10
4.158919269793602
 20
-1.203096245358947
 10
4.120420327745935
 20
-1.203096245358947
 10
4.08782972445547
 20
-1.203096245358947
 10
4.064144692994378
 20
-1.242887098213583
 10
4.064144692994378
 20
-1.317749023108061
 97
        1
330
125
 92
        1
 93
        1
 72
     4
 94
        3
 73
     0
 74
     0
 95
       17
 96
       13
 40
0.0
 40
0.0
 40
0.0
 40
0.0
 40
1.0
 40
1.0
 40
1.0
 40
2.0
 40
2.0
 40
2.0
 40
3.0
 40
3.0
 40
3.0
 40
4.0
 40
4.0
 40
4.0
 40
4.0
 10
4.21348958227996
 20
-1.313546006616057
 10
4.21348958227996
 20
-1.407045898085738
 10
4.178797470743495
 20
-1.45865342845478
 10
4.117870957086848
 20
-1.45865342845478
 10
4.064144692994378
 20
-1.45865342845478
 10
4.027747259192715
 20
-1.408320583415278
 10
4.026903210798828
 20
-1.317335611649832
 10
4.026903210798828
 20
-1.225110405509692
 10
4.066676838176038
 20
-1.17432969805711
 10
4.122521835991936
 20
-1.17432969805711
 10
4.180485567531266
 20
-1.17432969805711
 10
4.21348958227996
 20
-1.225937228426154
 10
4.21348958227996
 20
-1.313546006616057
 97
        1
330
126
 75
     2
 76
     1
 98
        1
 10
0.0
 20
0.0
450
        0
451
        0
460
0.0
461
0.0
452
        0
462
0.0
453
        0
470

  0
SPLINE
  5
128
330
11D
100
AcDbEntity
  8
Livello 2
100
AcDbSpline
210
0.0
220
0.0
230
1.0
 70
     9
 71
     3
 72
    80
 73
    76
 74
     0
 42
0.000000001
 43
0.0000000001
 40
0.0
 40
0.0
 40
0.0
 40
0.0
 40
1.0
 40
1.0
 40
1.0
 40
2.0
 40
2.0
 40
2.0
 40
3.0
 40
3.0
 40
3.0
 40
4.0
 40
4.0
 40
4.0
 40
5.0
 40
5.0
 40
5.0
 40
6.0
 40
6.0
 40
6.0
 40
7.0
 40
7.0
 40
7.0
 40
8.0
 40
8.0
 40
8.0
 40
9.0
 40
9.0
 40
9.0
 40
10.0
 40
10.0
 40
10.0
 40
11.0
 40
11.0
 40
11.0
 40
12.0
 40
12.0
 40
12.0
 40
13.0
 40
13.0
 40
13.0
 40
14.0
 40
14.0
 40
14.0
 40
15.0
 40
15.0
 40
15.0
 40
16.0
 40
16.0
 40
16.0
 40
17.0
 40
17.0
 40
17.0
 40
18.0
 40
18.0
 40
18.0
 40
19.0
 40
19.0
 40
19.0
 40
20.0
 40
20.0
 40
20.0
 40
21.0
 40
21.0
 40
21.0
 40
22.0
 40
22.0
 40
22.0
 40
23.0
 40
23.0
 40
23.0
 40
24.0
 40
24.0
 40
24.0
 40
25.0
 40
25.0
 40
25.0
 40
25.0
 10
4.349501952037623
 20
-1.304657660264113
 30
0.0
 10
4.349501952037623
 20
-1.283504773984676
 30
0.0
 10
4.34905408962454
 20
-1.266141492739019
 30
0.0
 10
4.347779404294998
 20
-1.249226073906442
 30
0.0
 10
4.347779404294998
 20
-1.249226073906442
 30
0.0
 10
4.380370007585463
 20
-1.249226073906442
 30
0.0
 10
4.380370007585463
 20
-1.249226073906442
 30
0.0
 10
4.380370007585463
 20
-1.249226073906442
 30
0.0
 10
4.382058104373235
 20
-1.282230088655133
 30
0.0
 10
4.382058104373235
 20
-1.282230088655133
 30
0.0
 10
4.382058104373235
 20
-1.282230088655133
 30
0.0
 10
4.383332789702776
 20
-1.282230088655133
 30
0.0
 10
4.383332789702776
 20
-1.282230088655133
 30
0.0
 10
4.394770506713806
 20
-1.262765299163475
 30
0.0
 10
4.413787433792387
 20
-1.244575195001355
 30
0.0
 10
4.447652722412389
 20
-1.244575195001355
 30
0.0
 10
4.475557995842915
 20
-1.244575195001355
 30
0.0
 10
4.496710882122346
 20
-1.261490613833932
 30
0.0
 10
4.505599228474292
 20
-1.285606282230678
 30
0.0
 10
4.505599228474292
 20
-1.285606282230678
 30
0.0
 10
4.506460502345606
 20
-1.285606282230678
 30
0.0
 10
4.506460502345606
 20
-1.285606282230678
 30
0.0
 10
4.512799478038465
 20
-1.274168565219652
 30
0.0
 10
4.520826550519096
 20
-1.26531466982256
 30
0.0
 10
4.529301485412813
 20
-1.258941243174847
 30
0.0
 10
4.541566025340299
 20
-1.249639485364672
 30
0.0
 10
4.555105250597334
 20
-1.244575195001355
 30
0.0
 10
4.574570040088993
 20
-1.244575195001355
 30
0.0
 10
4.601648490603058
 20
-1.244575195001355
 30
0.0
 10
4.641852754915922
 20
-1.262351887705245
 30
0.0
 10
4.641852754915922
 20
-1.333424207565949
 30
0.0
 10
4.641852754915922
 20
-1.333424207565949
 30
0.0
 10
4.641852754915922
 20
-1.454002549549693
 30
0.0
 10
4.641852754915922
 20
-1.454002549549693
 30
0.0
 10
4.641852754915922
 20
-1.454002549549693
 30
0.0
 10
4.605472546591686
 20
-1.454002549549693
 30
0.0
 10
4.605472546591686
 20
-1.454002549549693
 30
0.0
 10
4.605472546591686
 20
-1.454002549549693
 30
0.0
 10
4.605472546591686
 20
-1.338075086471036
 30
0.0
 10
4.605472546591686
 20
-1.338075086471036
 30
0.0
 10
4.605472546591686
 20
-1.298732096029483
 30
0.0
 10
4.591072047463342
 20
-1.275029839090964
 30
0.0
 10
4.561030814831963
 20
-1.275029839090964
 30
0.0
 10
4.53987792855253
 20
-1.275029839090964
 30
0.0
 10
4.523375921178183
 20
-1.290670572593997
 30
0.0
 10
4.517036945485322
 20
-1.308895127710969
 30
0.0
 10
4.515348848697549
 20
-1.313959418074287
 30
0.0
 10
4.514074163368007
 20
-1.320711805225377
 30
0.0
 10
4.514074163368007
 20
-1.327498643331319
 30
0.0
 10
4.514074163368007
 20
-1.327498643331319
 30
0.0
 10
4.514074163368007
 20
-1.454002549549693
 30
0.0
 10
4.514074163368007
 20
-1.454002549549693
 30
0.0
 10
4.514074163368007
 20
-1.454002549549693
 30
0.0
 10
4.477693955043766
 20
-1.454002549549693
 30
0.0
 10
4.477693955043766
 20
-1.454002549549693
 30
0.0
 10
4.477693955043766
 20
-1.454002549549693
 30
0.0
 10
4.477693955043766
 20
-1.331288248365094
 30
0.0
 10
4.477693955043766
 20
-1.331288248365094
 30
0.0
 10
4.477693955043766
 20
-1.298732096029483
 30
0.0
 10
4.463293455915423
 20
-1.275029839090964
 30
0.0
 10
4.434940320071818
 20
-1.275029839090964
 30
0.0
 10
4.411685925546382
 20
-1.275029839090964
 30
0.0
 10
4.394770506713806
 20
-1.293633354711313
 30
0.0
 10
4.388844942479176
 20
-1.312271321286514
 30
0.0
 10
4.386708983278319
 20
-1.317749023108061
 30
0.0
 10
4.385882160361861
 20
-1.324122449755774
 30
0.0
 10
4.385882160361861
 20
-1.330461425448631
 30
0.0
 10
4.385882160361861
 20
-1.330461425448631
 30
0.0
 10
4.385882160361861
 20
-1.454002549549693
 30
0.0
 10
4.385882160361861
 20
-1.454002549549693
 30
0.0
 10
4.385882160361861
 20
-1.454002549549693
 30
0.0
 10
4.349501952037623
 20
-1.454002549549693
 30
0.0
 10
4.349501952037623
 20
-1.454002549549693
 30
0.0
 10
4.349501952037623
 20
-1.454002549549693
 30
0.0
 10
4.349501952037623
 20
-1.304657660264113
 30
0.0
 10
4.349501952037623
 20
-1.304657660264113
 30
0.0
  0
HATCH
  5
129
330
11D
100
AcDbEntity
  8
Livello 2
 62
   250
420
  1907995
440
 33554687
100
AcDbHatch
 10
0.0
 20
0.0
 30
0.0
210
0.0
220
0.0
230
1.0
  2
SOLID
 70
     1
 71
     1
 91
        1
 92
        1
 93
        1
 72
     4
 94
        3
 73
     0
 74
     0
 95
       80
 96
       76
 40
0.0
 40
0.0
 40
0.0
 40
0.0
 40
1.0
 40
1.0
 40
1.0
 40
2.0
 40
2.0
 40
2.0
 40
3.0
 40
3.0
 40
3.0
 40
4.0
 40
4.0
 40
4.0
 40
5.0
 40
5.0
 40
5.0
 40
6.0
 40
6.0
 40
6.0
 40
7.0
 40
7.0
 40
7.0
 40
8.0
 40
8.0
 40
8.0
 40
9.0
 40
9.0
 40
9.0
 40
10.0
 40
10.0
 40
10.0
 40
11.0
 40
11.0
 40
11.0
 40
12.0
 40
12.0
 40
12.0
 40
13.0
 40
13.0
 40
13.0
 40
14.0
 40
14.0
 40
14.0
 40
15.0
 40
15.0
 40
15.0
 40
16.0
 40
16.0
 40
16.0
 40
17.0
 40
17.0
 40
17.0
 40
18.0
 40
18.0
 40
18.0
 40
19.0
 40
19.0
 40
19.0
 40
20.0
 40
20.0
 40
20.0
 40
21.0
 40
21.0
 40
21.0
 40
22.0
 40
22.0
 40
22.0
 40
23.0
 40
23.0
 40
23.0
 40
24.0
 40
24.0
 40
24.0
 40
25.0
 40
25.0
 40
25.0
 40
25.0
 10
4.349501952037623
 20
-1.304657660264113
 10
4.349501952037623
 20
-1.283504773984676
 10
4.34905408962454
 20
-1.266141492739019
 10
4.347779404294998
 20
-1.249226073906442
 10
4.347779404294998
 20
-1.249226073906442
 10
4.380370007585463
 20
-1.249226073906442
 10
4.380370007585463
 20
-1.249226073906442
 10
4.380370007585463
 20
-1.249226073906442
 10
4.382058104373235
 20
-1.282230088655133
 10
4.382058104373235
 20
-1.282230088655133
 10
4.382058104373235
 20
-1.282230088655133
 10
4.383332789702776
 20
-1.282230088655133
 10
4.383332789702776
 20
-1.282230088655133
 10
4.394770506713806
 20
-1.262765299163475
 10
4.413787433792387
 20
-1.244575195001355
 10
4.447652722412389
 20
-1.244575195001355
 10
4.475557995842915
 20
-1.244575195001355
 10
4.496710882122346
 20
-1.261490613833932
 10
4.505599228474292
 20
-1.285606282230678
 10
4.505599228474292
 20
-1.285606282230678
 10
4.506460502345606
 20
-1.285606282230678
 10
4.506460502345606
 20
-1.285606282230678
 10
4.512799478038465
 20
-1.274168565219652
 10
4.520826550519096
 20
-1.26531466982256
 10
4.529301485412813
 20
-1.258941243174847
 10
4.541566025340299
 20
-1.249639485364672
 10
4.555105250597334
 20
-1.244575195001355
 10
4.574570040088993
 20
-1.244575195001355
 10
4.601648490603058
 20
-1.244575195001355
 10
4.641852754915922
 20
-1.262351887705245
 10
4.641852754915922
 20
-1.333424207565949
 10
4.641852754915922
 20
-1.333424207565949
 10
4.641852754915922
 20
-1.454002549549693
 10
4.641852754915922
 20
-1.454002549549693
 10
4.641852754915922
 20
-1.454002549549693
 10
4.605472546591686
 20
-1.454002549549693
 10
4.605472546591686
 20
-1.454002549549693
 10
4.605472546591686
 20
-1.454002549549693
 10
4.605472546591686
 20
-1.338075086471036
 10
4.605472546591686
 20
-1.338075086471036
 10
4.605472546591686
 20
-1.298732096029483
 10
4.591072047463342
 20
-1.275029839090964
 10
4.561030814831963
 20
-1.275029839090964
 10
4.53987792855253
 20
-1.275029839090964
 10
4.523375921178183
 20
-1.290670572593997
 10
4.517036945485322
 20
-1.308895127710969
 10
4.515348848697549
 20
-1.313959418074287
 10
4.514074163368007
 20
-1.320711805225377
 10
4.514074163368007
 20
-1.327498643331319
 10
4.514074163368007
 20
-1.327498643331319
 10
4.514074163368007
 20
-1.454002549549693
 10
4.514074163368007
 20
-1.454002549549693
 10
4.514074163368007
 20
-1.454002549549693
 10
4.477693955043766
 20
-1.454002549549693
 10
4.477693955043766
 20
-1.454002549549693
 10
4.477693955043766
 20
-1.454002549549693
 10
4.477693955043766
 20
-1.331288248365094
 10
4.477693955043766
 20
-1.331288248365094
 10
4.477693955043766
 20
-1.298732096029483
 10
4.463293455915423
 20
-1.275029839090964
 10
4.434940320071818
 20
-1.275029839090964
 10
4.411685925546382
 20
-1.275029839090964
 10
4.394770506713806
 20
-1.293633354711313
 10
4.388844942479176
 20
-1.312271321286514
 10
4.386708983278319
 20
-1.317749023108061
 10
4.385882160361861
 20
-1.324122449755774
 10
4.385882160361861
 20
-1.330461425448631
 10
4.385882160361861
 20
-1.330461425448631
 10
4.385882160361861
 20
-1.454002549549693
 10
4.385882160361861
 20
-1.454002549549693
 10
4.385882160361861
 20
-1.454002549549693
 10
4.349501952037623
 20
-1.454002549549693
 10
4.349501952037623
 20
-1.454002549549693
 10
4.349501952037623
 20
-1.454002549549693
 10
4.349501952037623
 20
-1.304657660264113
 10
4.349501952037623
 20
-1.304657660264113
 97
        1
330
128
 75
     2
 76
     1
 98
        1
 10
0.0
 20
0.0
450
        0
451
        0
460
0.0
461
0.0
452
        0
462
0.0
453
        0
470

  0
SPLINE
  5
12A
330
11D
100
AcDbEntity
  8
Livello 2
100
AcDbSpline
210
0.0
220
0.0
230
1.0
 70
     9
 71
     3
 72
    80
 73
    76
 74
     0
 42
0.000000001
 43
0.0000000001
 40
0.0
 40
0.0
 40
0.0
 40
0.0
 40
1.0
 40
1.0
 40
1.0
 40
2.0
 40
2.0
 40
2.0
 40
3.0
 40
3.0
 40
3.0
 40
4.0
 40
4.0
 40
4.0
 40
5.0
 40
5.0
 40
5.0
 40
6.0
 40
6.0
 40
6.0
 40
7.0
 40
7.0
 40
7.0
 40
8.0
 40
8.0
 40
8.0
 40
9.0
 40
9.0
 40
9.0
 40
10.0
 40
10.0
 40
10.0
 40
11.0
 40
11.0
 40
11.0
 40
12.0
 40
12.0
 40
12.0
 40
13.0
 40
13.0
 40
13.0
 40
14.0
 40
14.0
 40
14.0
 40
15.0
 40
15.0
 40
15.0
 40
16.0
 40
16.0
 40
16.0
 40
17.0
 40
17.0
 40
17.0
 40
18.0
 40
18.0
 40
18.0
 40
19.0
 40
19.0
 40
19.0
 40
20.0
 40
20.0
 40
20.0
 40
21.0
 40
21.0
 40
21.0
 40
22.0
 40
22.0
 40
22.0
 40
23.0
 40
23.0
 40
23.0
 40
24.0
 40
24.0
 40
24.0
 40
25.0
 40
25.0
 40
25.0
 40
25.0
 10
4.702555337366026
 20
-1.304657660264113
 30
0.0
 10
4.702555337366026
 20
-1.283504773984676
 30
0.0
 10
4.702107474952945
 20
-1.266141492739019
 30
0.0
 10
4.700832789623402
 20
-1.249226073906442
 30
0.0
 10
4.700832789623402
 20
-1.249226073906442
 30
0.0
 10
4.733423392913866
 20
-1.249226073906442
 30
0.0
 10
4.733423392913866
 20
-1.249226073906442
 30
0.0
 10
4.733423392913866
 20
-1.249226073906442
 30
0.0
 10
4.735111489701636
 20
-1.282230088655133
 30
0.0
 10
4.735111489701636
 20
-1.282230088655133
 30
0.0
 10
4.735111489701636
 20
-1.282230088655133
 30
0.0
 10
4.736386175031181
 20
-1.282230088655133
 30
0.0
 10
4.736386175031181
 20
-1.282230088655133
 30
0.0
 10
4.74782389204221
 20
-1.262765299163475
 30
0.0
 10
4.766840819120789
 20
-1.244575195001355
 30
0.0
 10
4.800706107740793
 20
-1.244575195001355
 30
0.0
 10
4.828611381171318
 20
-1.244575195001355
 30
0.0
 10
4.849764267450749
 20
-1.261490613833932
 30
0.0
 10
4.858652613802696
 20
-1.285606282230678
 30
0.0
 10
4.858652613802696
 20
-1.285606282230678
 30
0.0
 10
4.859513887674007
 20
-1.285606282230678
 30
0.0
 10
4.859513887674007
 20
-1.285606282230678
 30
0.0
 10
4.865852863366868
 20
-1.274168565219652
 30
0.0
 10
4.873879935847501
 20
-1.26531466982256
 30
0.0
 10
4.882354870741216
 20
-1.258941243174847
 30
0.0
 10
4.894619410668703
 20
-1.249639485364672
 30
0.0
 10
4.908158635925738
 20
-1.244575195001355
 30
0.0
 10
4.927623425417396
 20
-1.244575195001355
 30
0.0
 10
4.95470187593146
 20
-1.244575195001355
 30
0.0
 10
4.994906140244328
 20
-1.262351887705245
 30
0.0
 10
4.994906140244328
 20
-1.333424207565949
 30
0.0
 10
4.994906140244328
 20
-1.333424207565949
 30
0.0
 10
4.994906140244328
 20
-1.454002549549693
 30
0.0
 10
4.994906140244328
 20
-1.454002549549693
 30
0.0
 10
4.994906140244328
 20
-1.454002549549693
 30
0.0
 10
4.958525931920089
 20
-1.454002549549693
 30
0.0
 10
4.958525931920089
 20
-1.454002549549693
 30
0.0
 10
4.958525931920089
 20
-1.454002549549693
 30
0.0
 10
4.958525931920089
 20
-1.338075086471036
 30
0.0
 10
4.958525931920089
 20
-1.338075086471036
 30
0.0
 10
4.958525931920089
 20
-1.298732096029483
 30
0.0
 10
4.944125432791746
 20
-1.275029839090964
 30
0.0
 10
4.914084200160367
 20
-1.275029839090964
 30
0.0
 10
4.892931313880933
 20
-1.275029839090964
 30
0.0
 10
4.876429306506586
 20
-1.290670572593997
 30
0.0
 10
4.870090330813726
 20
-1.308895127710969
 30
0.0
 10
4.868402234025953
 20
-1.313959418074287
 30
0.0
 10
4.86712754869641
 20
-1.320711805225377
 30
0.0
 10
4.86712754869641
 20
-1.327498643331319
 30
0.0
 10
4.86712754869641
 20
-1.327498643331319
 30
0.0
 10
4.86712754869641
 20
-1.454002549549693
 30
0.0
 10
4.86712754869641
 20
-1.454002549549693
 30
0.0
 10
4.86712754869641
 20
-1.454002549549693
 30
0.0
 10
4.830747340372171
 20
-1.454002549549693
 30
0.0
 10
4.830747340372171
 20
-1.454002549549693
 30
0.0
 10
4.830747340372171
 20
-1.454002549549693
 30
0.0
 10
4.830747340372171
 20
-1.331288248365094
 30
0.0
 10
4.830747340372171
 20
-1.331288248365094
 30
0.0
 10
4.830747340372171
 20
-1.298732096029483
 30
0.0
 10
4.816346841243829
 20
-1.275029839090964
 30
0.0
 10
4.787993705400221
 20
-1.275029839090964
 30
0.0
 10
4.764739310874785
 20
-1.275029839090964
 30
0.0
 10
4.74782389204221
 20
-1.293633354711313
 30
0.0
 10
4.741898327807581
 20
-1.312271321286514
 30
0.0
 10
4.739762368606722
 20
-1.317749023108061
 30
0.0
 10
4.738935545690265
 20
-1.324122449755774
 30
0.0
 10
4.738935545690265
 20
-1.330461425448631
 30
0.0
 10
4.738935545690265
 20
-1.330461425448631
 30
0.0
 10
4.738935545690265
 20
-1.454002549549693
 30
0.0
 10
4.738935545690265
 20
-1.454002549549693
 30
0.0
 10
4.738935545690265
 20
-1.454002549549693
 30
0.0
 10
4.702555337366026
 20
-1.454002549549693
 30
0.0
 10
4.702555337366026
 20
-1.454002549549693
 30
0.0
 10
4.702555337366026
 20
-1.454002549549693
 30
0.0
 10
4.702555337366026
 20
-1.304657660264113
 30
0.0
 10
4.702555337366026
 20
-1.304657660264113
 30
0.0
  0
HATCH
  5
12B
330
11D
100
AcDbEntity
  8
Livello 2
 62
   250
420
  1907995
440
 33554687
100
AcDbHatch
 10
0.0
 20
0.0
 30
0.0
210
0.0
220
0.0
230
1.0
  2
SOLID
 70
     1
 71
     1
 91
        1
 92
        1
 93
        1
 72
     4
 94
        3
 73
     0
 74
     0
 95
       80
 96
       76
 40
0.0
 40
0.0
 40
0.0
 40
0.0
 40
1.0
 40
1.0
 40
1.0
 40
2.0
 40
2.0
 40
2.0
 40
3.0
 40
3.0
 40
3.0
 40
4.0
 40
4.0
 40
4.0
 40
5.0
 40
5.0
 40
5.0
 40
6.0
 40
6.0
 40
6.0
 40
7.0
 40
7.0
 40
7.0
 40
8.0
 40
8.0
 40
8.0
 40
9.0
 40
9.0
 40
9.0
 40
10.0
 40
10.0
 40
10.0
 40
11.0
 40
11.0
 40
11.0
 40
12.0
 40
12.0
 40
12.0
 40
13.0
 40
13.0
 40
13.0
 40
14.0
 40
14.0
 40
14.0
 40
15.0
 40
15.0
 40
15.0
 40
16.0
 40
16.0
 40
16.0
 40
17.0
 40
17.0
 40
17.0
 40
18.0
 40
18.0
 40
18.0
 40
19.0
 40
19.0
 40
19.0
 40
20.0
 40
20.0
 40
20.0
 40
21.0
 40
21.0
 40
21.0
 40
22.0
 40
22.0
 40
22.0
 40
23.0
 40
23.0
 40
23.0
 40
24.0
 40
24.0
 40
24.0
 40
25.0
 40
25.0
 40
25.0
 40
25.0
 10
4.702555337366026
 20
-1.304657660264113
 10
4.702555337366026
 20
-1.283504773984676
 10
4.702107474952945
 20
-1.266141492739019
 10
4.700832789623402
 20
-1.249226073906442
 10
4.700832789623402
 20
-1.249226073906442
 10
4.733423392913866
 20
-1.249226073906442
 10
4.733423392913866
 20
-1.249226073906442
 10
4.733423392913866
 20
-1.249226073906442
 10
4.735111489701636
 20
-1.282230088655133
 10
4.735111489701636
 20
-1.282230088655133
 10
4.735111489701636
 20
-1.282230088655133
 10
4.736386175031181
 20
-1.282230088655133
 10
4.736386175031181
 20
-1.282230088655133
 10
4.74782389204221
 20
-1.262765299163475
 10
4.766840819120789
 20
-1.244575195001355
 10
4.800706107740793
 20
-1.244575195001355
 10
4.828611381171318
 20
-1.244575195001355
 10
4.849764267450749
 20
-1.261490613833932
 10
4.858652613802696
 20
-1.285606282230678
 10
4.858652613802696
 20
-1.285606282230678
 10
4.859513887674007
 20
-1.285606282230678
 10
4.859513887674007
 20
-1.285606282230678
 10
4.865852863366868
 20
-1.274168565219652
 10
4.873879935847501
 20
-1.26531466982256
 10
4.882354870741216
 20
-1.258941243174847
 10
4.894619410668703
 20
-1.249639485364672
 10
4.908158635925738
 20
-1.244575195001355
 10
4.927623425417396
 20
-1.244575195001355
 10
4.95470187593146
 20
-1.244575195001355
 10
4.994906140244328
 20
-1.262351887705245
 10
4.994906140244328
 20
-1.333424207565949
 10
4.994906140244328
 20
-1.333424207565949
 10
4.994906140244328
 20
-1.454002549549693
 10
4.994906140244328
 20
-1.454002549549693
 10
4.994906140244328
 20
-1.454002549549693
 10
4.958525931920089
 20
-1.454002549549693
 10
4.958525931920089
 20
-1.454002549549693
 10
4.958525931920089
 20
-1.454002549549693
 10
4.958525931920089
 20
-1.338075086471036
 10
4.958525931920089
 20
-1.338075086471036
 10
4.958525931920089
 20
-1.298732096029483
 10
4.944125432791746
 20
-1.275029839090964
 10
4.914084200160367
 20
-1.275029839090964
 10
4.892931313880933
 20
-1.275029839090964
 10
4.876429306506586
 20
-1.290670572593997
 10
4.870090330813726
 20
-1.308895127710969
 10
4.868402234025953
 20
-1.313959418074287
 10
4.86712754869641
 20
-1.320711805225377
 10
4.86712754869641
 20
-1.327498643331319
 10
4.86712754869641
 20
-1.327498643331319
 10
4.86712754869641
 20
-1.454002549549693
 10
4.86712754869641
 20
-1.454002549549693
 10
4.86712754869641
 20
-1.454002549549693
 10
4.830747340372171
 20
-1.454002549549693
 10
4.830747340372171
 20
-1.454002549549693
 10
4.830747340372171
 20
-1.454002549549693
 10
4.830747340372171
 20
-1.331288248365094
 10
4.830747340372171
 20
-1.331288248365094
 10
4.830747340372171
 20
-1.298732096029483
 10
4.816346841243829
 20
-1.275029839090964
 10
4.787993705400221
 20
-1.275029839090964
 10
4.764739310874785
 20
-1.275029839090964
 10
4.74782389204221
 20
-1.293633354711313
 10
4.741898327807581
 20
-1.312271321286514
 10
4.739762368606722
 20
-1.317749023108061
 10
4.738935545690265
 20
-1.324122449755774
 10
4.738935545690265
 20
-1.330461425448631
 10
4.738935545690265
 20
-1.330461425448631
 10
4.738935545690265
 20
-1.454002549549693
 10
4.738935545690265
 20
-1.454002549549693
 10
4.738935545690265
 20
-1.454002549549693
 10
4.702555337366026
 20
-1.454002549549693
 10
4.702555337366026
 20
-1.454002549549693
 10
4.702555337366026
 20
-1.454002549549693
 10
4.702555337366026
 20
-1.304657660264113
 10
4.702555337366026
 20
-1.304657660264113
 97
        1
330
12A
 75
     2
 76
     1
 98
        1
 10
0.0
 20
0.0
450
        0
451
        0
460
0.0
461
0.0
452
        0
462
0.0
453
        0
470

  0
ENDBLK
  5
120
330
11D
100
AcDbEntity
  8
0
100
AcDbBlockEnd
  0
ENDSEC
  0
SECTION
  2
ENTITIES
  0
LINE
  5
79
330
70
100
AcDbEntity
  8
0
100
AcDbLine
 10
7.987316512744071
 20
-2.033384973670401
 30
0.0
 11
7.987316512744071
 21
-2.043913850796821
 31
0.0
  0
LINE
  5
7A
330
70
100
AcDbEntity
  8
0
100
AcDbLine
 10
8.113663038256374
 20
-2.043913850796821
 30
0.0
 11
8.113663038256374
 21
-2.033384973670401
 31
0.0
  0
LINE
  5
7B
330
70
100
AcDbEntity
  8
0
100
AcDbLine
 10
7.987316512744071
 20
-2.043913850796821
 30
0.0
 11
8.014671337937651
 21
-2.059707166485491
 31
0.0
  0
LINE
  5
7C
330
70
100
AcDbEntity
  8
0
100
AcDbLine
 10
8.086308213062661
 20
-2.059707166485491
 30
0.0
 11
8.113663038256374
 21
-2.043913850796821
 31
0.0
  0
LINE
  5
7D
330
70
100
AcDbEntity
  8
0
100
AcDbLine
 10
8.103134161129954
 20
-2.033384973670401
 30
0.0
 11
8.103134161129954
 21
-1.85002582614546
 31
0.0
  0
LINE
  5
7E
330
70
100
AcDbEntity
  8
0
100
AcDbLine
 10
7.997845389869592
 20
-1.85002582614546
 30
0.0
 11
7.997845389869592
 21
-2.033384973670401
 31
0.0
  0
LINE
  5
7F
330
70
100
AcDbEntity
  8
0
100
AcDbLine
 10
8.032064240529081
 20
-2.100945268562262
 30
0.0
 11
8.034696459811105
 21
-2.103577487844253
 31
0.0
  0
LINE
  5
80
330
70
100
AcDbEntity
  8
0
100
AcDbLine
 10
8.032064240529081
 20
-2.059707166485491
 30
0.0
 11
8.032064240529081
 21
-2.100945268562262
 31
0.0
  0
LINE
  5
81
330
70
100
AcDbEntity
  8
0
100
AcDbLine
 10
8.068915310470465
 20
-2.100945268562262
 30
0.0
 11
8.068915310470465
 21
-2.059707166485491
 31
0.0
  0
LINE
  5
82
330
70
100
AcDbEntity
  8
0
100
AcDbLine
 10
8.103192127122232
 20
-2.043913850796821
 30
0.0
 11
8.113663038256374
 21
-2.043913850796821
 31
0.0
  0
LINE
  5
83
330
70
100
AcDbEntity
  8
0
100
AcDbLine
 10
7.987316512744071
 20
-2.043913850796821
 30
0.0
 11
8.103192127122232
 21
-2.043913850796821
 31
0.0
  0
LINE
  5
84
330
70
100
AcDbEntity
  8
0
100
AcDbLine
 10
7.987316512744071
 20
-2.033384973670401
 30
0.0
 11
8.113663038256374
 21
-2.033384973670401
 31
0.0
  0
LINE
  5
85
330
70
100
AcDbEntity
  8
0
100
AcDbLine
 10
7.984684293462817
 20
-1.85002582614546
 30
0.0
 11
8.116295257537498
 21
-1.85002582614546
 31
0.0
  0
LINE
  5
86
330
70
100
AcDbEntity
  8
0
100
AcDbLine
 10
7.984684293462817
 20
-1.832477697602653
 30
0.0
 11
8.116295257537498
 21
-1.832477697602653
 31
0.0
  0
LINE
  5
87
330
70
100
AcDbEntity
  8
0
100
AcDbLine
 10
8.080371339450621
 20
-2.059707166485491
 30
0.0
 11
8.014671337937651
 21
-2.059707166485491
 31
0.0
  0
LINE
  5
88
330
70
100
AcDbEntity
  8
0
100
AcDbLine
 10
8.086308213062661
 20
-2.059707166485491
 30
0.0
 11
8.080371339450621
 21
-2.059707166485491
 31
0.0
  0
LINE
  5
89
330
70
100
AcDbEntity
  8
0
100
AcDbLine
 10
8.063665363406094
 20
-2.103577487844253
 30
0.0
 11
8.034696459811105
 21
-2.103577487844253
 31
0.0
  0
LINE
  5
8A
330
70
100
AcDbEntity
  8
0
100
AcDbLine
 10
8.032064240529081
 20
-2.100945268562262
 30
0.0
 11
8.065861294722916
 21
-2.100945268562262
 31
0.0
  0
LINE
  5
8B
330
70
100
AcDbEntity
  8
0
100
AcDbLine
 10
8.116295257537498
 20
-1.85002582614546
 30
0.0
 11
8.116295257537498
 21
-1.832477697602653
 31
0.0
  0
LINE
  5
8C
330
70
100
AcDbEntity
  8
0
100
AcDbLine
 10
7.984684293462817
 20
-1.85002582614546
 30
0.0
 11
7.984684293462817
 21
-1.832477697602653
 31
0.0
  0
LINE
  5
8D
330
70
100
AcDbEntity
  8
0
100
AcDbLine
 10
7.997845389869592
 20
-1.85002582614546
 30
0.0
 11
7.997845389869592
 21
-2.033384973670401
 31
0.0
  0
LINE
  5
8E
330
70
100
AcDbEntity
  8
0
100
AcDbLine
 10
4.973263702019328
 20
-1.862095300858094
 30
0.0
 11
4.973263702019328
 21
-1.876417236579315
 31
0.0
  0
LINE
  5
8F
330
70
100
AcDbEntity
  8
0
100
AcDbLine
 10
4.990636349277163
 20
-1.865659439008376
 30
0.0
 11
4.990636349277163
 21
-1.892921251473813
 31
0.0
  0
SPLINE
  5
90
330
70
100
AcDbEntity
  8
0
100
AcDbSpline
210
0.0
220
0.0
230
1.0
 70
     8
 71
     3
 72
    11
 73
     7
 74
     0
 42
0.000000001
 43
0.0000000001
 40
0.0
 40
0.0
 40
0.0
 40
0.0
 40
1.0
 40
1.0
 40
1.0
 40
2.0
 40
2.0
 40
2.0
 40
2.0
 10
4.990636349277163
 20
-1.865659439008376
 30
0.0
 10
4.989425590672141
 20
-1.860411799581214
 30
0.0
 10
4.984190024613193
 20
-1.857139261079514
 30
0.0
 10
4.978942385185613
 20
-1.858350019685016
 30
0.0
 10
4.976661287762673
 20
-1.858876324582433
 30
0.0
 10
4.974645659426407
 20
-1.860205698777354
 30
0.0
 10
4.973263702019328
 20
-1.862095300858094
 30
0.0
  0
LINE
  5
91
330
70
100
AcDbEntity
  8
0
100
AcDbLine
 10
4.973263702019328
 20
-1.923747202090398
 30
0.0
 11
4.973263702019328
 21
-1.909425266369147
 31
0.0
  0
LINE
  5
92
330
70
100
AcDbEntity
  8
0
100
AcDbLine
 10
4.990636349277163
 20
-1.92018306393925
 30
0.0
 11
4.990636349277163
 21
-1.892921251473813
 31
0.0
  0
SPLINE
  5
93
330
70
100
AcDbEntity
  8
0
100
AcDbSpline
210
0.0
220
0.0
230
1.0
 70
     8
 71
     3
 72
    11
 73
     7
 74
     0
 42
0.000000001
 43
0.0000000001
 40
0.0
 40
0.0
 40
0.0
 40
0.0
 40
1.0
 40
1.0
 40
1.0
 40
2.0
 40
2.0
 40
2.0
 40
2.0
 10
4.973263702019328
 20
-1.923747202090398
 30
0.0
 10
4.976442879771355
 20
-1.928094210806849
 30
0.0
 10
4.9825440593868
 20
-1.929040924857534
 30
0.0
 10
4.986891068103701
 20
-1.925861747105956
 30
0.0
 10
4.988780670184342
 20
-1.92447978969846
 30
0.0
 10
4.990110044379299
 20
-1.922464161362194
 30
0.0
 10
4.990636349277163
 20
-1.92018306393925
 30
0.0
  0
LINE
  5
94
330
70
100
AcDbEntity
  8
0
100
AcDbLine
 10
3.803388465796315
 20
-1.862095300858094
 30
0.0
 11
3.803388465796315
 21
-1.876417236579315
 31
0.0
  0
LINE
  5
95
330
70
100
AcDbEntity
  8
0
100
AcDbLine
 10
3.786015818538476
 20
-1.865659439008376
 30
0.0
 11
3.786015818538476
 21
-1.892921251473813
 31
0.0
  0
SPLINE
  5
96
330
70
100
AcDbEntity
  8
0
100
AcDbSpline
210
0.0
220
0.0
230
1.0
 70
     8
 71
     3
 72
    11
 73
     7
 74
     0
 42
0.000000001
 43
0.0000000001
 40
0.0
 40
0.0
 40
0.0
 40
0.0
 40
1.0
 40
1.0
 40
1.0
 40
2.0
 40
2.0
 40
2.0
 40
2.0
 10
3.803388465796315
 20
-1.862095300858094
 30
0.0
 10
3.800209288044288
 20
-1.857748292140745
 30
0.0
 10
3.794108108428391
 20
-1.85680157809006
 30
0.0
 10
3.789761099711522
 20
-1.859980755842504
 30
0.0
 10
3.787871497630816
 20
-1.861362713249168
 30
0.0
 10
3.786542123436306
 20
-1.863378341585434
 30
0.0
 10
3.786015818538476
 20
-1.865659439008376
 30
0.0
  0
LINE
  5
97
330
70
100
AcDbEntity
  8
0
100
AcDbLine
 10
3.803388465796315
 20
-1.923747202090398
 30
0.0
 11
3.803388465796315
 21
-1.909425266369147
 31
0.0
  0
LINE
  5
98
330
70
100
AcDbEntity
  8
0
100
AcDbLine
 10
3.786015818538476
 20
-1.92018306393925
 30
0.0
 11
3.786015818538476
 21
-1.892921251473813
 31
0.0
  0
SPLINE
  5
99
330
70
100
AcDbEntity
  8
0
100
AcDbSpline
210
0.0
220
0.0
230
1.0
 70
     8
 71
     3
 72
    11
 73
     7
 74
     0
 42
0.000000001
 43
0.0000000001
 40
0.0
 40
0.0
 40
0.0
 40
0.0
 40
1.0
 40
1.0
 40
1.0
 40
2.0
 40
2.0
 40
2.0
 40
2.0
 10
3.786015818538476
 20
-1.92018306393925
 30
0.0
 10
3.787226577143468
 20
-1.925430703367215
 30
0.0
 10
3.792462143202065
 20
-1.928703241868083
 30
0.0
 10
3.79770978263006
 20
-1.927492483263474
 30
0.0
 10
3.799990880052521
 20
-1.926966178365164
 30
0.0
 10
3.802006508389236
 20
-1.925636804170304
 30
0.0
 10
3.803388465796315
 20
-1.923747202090398
 30
0.0
  0
LINE
  5
9A
330
70
100
AcDbEntity
  8
0
100
AcDbLine
 10
0.4689618504373386
 20
-6.188989454725517
 30
0.0
 11
0.4689618504373386
 21
-5.971556244210883
 31
0.0
  0
LINE
  5
9B
330
70
100
AcDbEntity
  8
0
100
AcDbLine
 10
0.4728614345244119
 20
-6.192909296799607
 30
0.0
 11
9.045707165594533
 21
-6.192909296799607
 31
0.0
  0
LINE
  5
9C
330
70
100
AcDbEntity
  8
0
100
AcDbLine
 10
0.4728614345244119
 20
-5.967656660123457
 30
0.0
 11
9.045707165594533
 21
-5.967656660123457
 31
0.0
  0
SPLINE
  5
9D
330
70
100
AcDbEntity
  8
0
100
AcDbSpline
210
0.0
220
0.0
230
1.0
 70
     8
 71
     3
 72
     8
 73
     4
 74
     0
 42
0.000000001
 43
0.0000000001
 40
0.0
 40
0.0
 40
0.0
 40
0.0
 40
1.0
 40
1.0
 40
1.0
 40
1.0
 10
0.4689618504373386
 20
-6.189009712633573
 30
0.0
 10
0.4689618504373386
 20
-6.191163393455455
 30
0.0
 10
0.4707077537024331
 20
-6.192909296720165
 30
0.0
 10
0.4728614345244119
 20
-6.192909296720165
 30
0.0
  0
SPLINE
  5
9E
330
70
100
AcDbEntity
  8
0
100
AcDbSpline
210
0.0
220
0.0
230
1.0
 70
     8
 71
     3
 72
     8
 73
     4
 74
     0
 42
0.000000001
 43
0.0000000001
 40
0.0
 40
0.0
 40
0.0
 40
0.0
 40
1.0
 40
1.0
 40
1.0
 40
1.0
 10
0.4728614345244119
 20
-5.967656660123457
 30
0.0
 10
0.4707077537024331
 20
-5.967656660123457
 30
0.0
 10
0.4689618504373386
 20
-5.969402563388998
 30
0.0
 10
0.4689618504373386
 20
-5.971556244210883
 30
0.0
  0
SPLINE
  5
9F
330
70
100
AcDbEntity
  8
0
100
AcDbSpline
210
0.0
220
0.0
230
1.0
 70
     8
 71
     3
 72
     8
 73
     4
 74
     0
 42
0.000000001
 43
0.0000000001
 40
0.0
 40
0.0
 40
0.0
 40
0.0
 40
1.0
 40
1.0
 40
1.0
 40
1.0
 10
9.045707165594533
 20
-6.192909296799607
 30
0.0
 10
9.046999374096335
 20
-6.192909296799607
 30
0.0
 10
9.048046916063119
 20
-6.191861754833722
 30
0.0
 10
9.048046916063119
 20
-6.190569546331918
 30
0.0
  0
SPLINE
  5
A0
330
70
100
AcDbEntity
  8
0
100
AcDbSpline
210
0.0
220
0.0
230
1.0
 70
     8
 71
     3
 72
    11
 73
     7
 74
     0
 42
0.000000001
 43
0.0000000001
 40
0.0
 40
0.0
 40
0.0
 40
0.0
 40
1.0
 40
1.0
 40
1.0
 40
2.0
 40
2.0
 40
2.0
 40
2.0
 10
9.048046916063119
 20
-6.188830888146465
 30
0.0
 10
9.048046916063119
 20
-6.188935838869677
 30
0.0
 10
9.048014710159607
 20
-6.189040972435914
 30
0.0
 10
9.047966605794314
 20
-6.189135325535677
 30
0.0
 10
9.047767240495675
 20
-6.189526365606557
 30
0.0
 10
9.047294798111217
 20
-6.189732236910796
 30
0.0
 10
9.046877040789103
 20
-6.18985335678087
 30
0.0
  0
LINE
  5
A1
330
70
100
AcDbEntity
  8
0
100
AcDbLine
 10
9.046877040789103
 20
-6.18985335678087
 30
0.0
 11
9.045707165594533
 21
-6.190011533184253
 31
0.0
  0
LINE
  5
A2
330
70
100
AcDbEntity
  8
0
100
AcDbLine
 10
9.049606749682023
 20
-6.188989454725517
 30
0.0
 11
9.049606749682023
 21
-5.971556244210883
 31
0.0
  0
SPLINE
  5
A3
330
70
100
AcDbEntity
  8
0
100
AcDbSpline
210
0.0
220
0.0
230
1.0
 70
     8
 71
     3
 72
     8
 73
     4
 74
     0
 42
0.000000001
 43
0.0000000001
 40
0.0
 40
0.0
 40
0.0
 40
0.0
 40
1.0
 40
1.0
 40
1.0
 40
1.0
 10
9.045707165594533
 20
-6.192909296720165
 30
0.0
 10
9.047860846416416
 20
-6.192909296720165
 30
0.0
 10
9.049606749682023
 20
-6.191163393455455
 30
0.0
 10
9.049606749682023
 20
-6.189009712633573
 30
0.0
  0
SPLINE
  5
A4
330
70
100
AcDbEntity
  8
0
100
AcDbSpline
210
0.0
220
0.0
230
1.0
 70
     8
 71
     3
 72
     8
 73
     4
 74
     0
 42
0.000000001
 43
0.0000000001
 40
0.0
 40
0.0
 40
0.0
 40
0.0
 40
1.0
 40
1.0
 40
1.0
 40
1.0
 10
9.049606749682023
 20
-5.971556244210883
 30
0.0
 10
9.049606749682023
 20
-5.969402563388998
 30
0.0
 10
9.047860846416416
 20
-5.967656660123457
 30
0.0
 10
9.045707165594533
 20
-5.967656660123457
 30
0.0
  0
SPLINE
  5
A5
330
70
100
AcDbEntity
  8
0
100
AcDbSpline
210
0.0
220
0.0
230
1.0
 70
     8
 71
     3
 72
    11
 73
     7
 74
     0
 42
0.000000001
 43
0.0000000001
 40
0.0
 40
0.0
 40
0.0
 40
0.0
 40
1.0
 40
1.0
 40
1.0
 40
2.0
 40
2.0
 40
2.0
 40
2.0
 10
9.049606749682023
 20
-6.188043791481391
 30
0.0
 10
9.049606749682023
 20
-6.188218709299547
 30
0.0
 10
9.049553073190626
 20
-6.188393931915887
 30
0.0
 10
9.049472899261434
 20
-6.188551187084642
 30
0.0
 10
9.04914062380533
 20
-6.189202920544691
 30
0.0
 10
9.048353219789772
 20
-6.189546039342546
 30
0.0
 10
9.047656957637892
 20
-6.189747905818546
 30
0.0
  0
LINE
  5
A6
330
70
100
AcDbEntity
  8
0
100
AcDbLine
 10
9.047656957637892
 20
-6.189747905818546
 30
0.0
 11
9.045707165594533
 21
-6.190011533184253
 31
0.0
  0
LINE
  5
A7
330
70
100
AcDbEntity
  8
0
100
AcDbLine
 10
1.463538312329023
 20
-2.103577487844253
 30
0.0
 11
1.463538312329023
 21
-5.967656660123457
 31
0.0
  0
LINE
  5
A8
330
70
100
AcDbEntity
  8
0
100
AcDbLine
 10
1.475237064691343
 20
-2.103577487844253
 30
0.0
 11
1.475237064691343
 21
-5.967656660123457
 31
0.0
  0
SPLINE
  5
A9
330
70
100
AcDbEntity
  8
0
100
AcDbSpline
210
0.0
220
0.0
230
1.0
 70
     8
 71
     3
 72
    29
 73
    25
 74
     0
 42
0.000000001
 43
0.0000000001
 40
0.0
 40
0.0
 40
0.0
 40
0.0
 40
1.0
 40
1.0
 40
1.0
 40
2.0
 40
2.0
 40
2.0
 40
3.0
 40
3.0
 40
3.0
 40
4.0
 40
4.0
 40
4.0
 40
5.0
 40
5.0
 40
5.0
 40
6.0
 40
6.0
 40
6.0
 40
7.0
 40
7.0
 40
7.0
 40
8.0
 40
8.0
 40
8.0
 40
8.0
 10
4.408831754724061
 20
-2.056194218688426
 30
0.0
 10
4.408830478833316
 20
-2.056346017304699
 30
0.0
 10
4.408829202942988
 20
-2.056497815920139
 30
0.0
 10
4.40882792705266
 20
-2.056649614536415
 30
0.0
 10
4.408827873257394
 20
-2.056656014825754
 30
0.0
 10
4.408827819461706
 20
-2.05666241511513
 30
0.0
 10
4.408827765674367
 20
-2.056668815404504
 30
0.0
 10
4.408312211571487
 20
-2.118015693510553
 30
0.0
 10
4.408522459563777
 20
-2.17932404386311
 30
0.0
 10
4.414031505613348
 20
-2.240351118113593
 30
0.0
 10
4.459845576991289
 20
-2.747861621849417
 30
0.0
 10
4.872116072459493
 20
-3.235919518861984
 30
0.0
 10
5.346264814293332
 20
-3.451477452423558
 30
0.0
 10
6.023644250631447
 20
-3.759428309720658
 30
0.0
 10
6.827314805285942
 20
-3.511217233763086
 30
0.0
 10
7.507724628235341
 20
-3.760580567706721
 30
0.0
 10
8.125578124411106
 20
-3.987017639158176
 30
0.0
 10
8.641793972025764
 20
-4.623741849970969
 30
0.0
 10
8.784245587319496
 20
-5.277687793890597
 30
0.0
 10
8.829652275805742
 20
-5.486134147420549
 30
0.0
 10
8.837083539343849
 20
-5.696330274141112
 30
0.0
 10
8.843883564706564
 20
-5.90685820758641
 30
0.0
 10
8.844538085125087
 20
-5.927122077742092
 30
0.0
 10
8.845186757391699
 20
-5.947389021945792
 30
0.0
 10
8.845834109422341
 20
-5.967656660123457
 30
0.0
  0
LINE
  5
AA
330
70
100
AcDbEntity
  8
0
100
AcDbLine
 10
4.341138042004772
 20
-2.036718415926403
 30
0.0
 11
4.453738533491744
 21
-2.036718415926403
 31
0.0
  0
LINE
  5
AB
330
70
100
AcDbEntity
  8
0
100
AcDbLine
 10
3.686400942174052
 20
-2.027456903639714
 30
0.0
 11
3.686400942174052
 21
-2.036718415926403
 31
0.0
  0
LINE
  5
AC
330
70
100
AcDbEntity
  8
0
100
AcDbLine
 10
5.090251225641559
 20
-2.027456903639714
 30
0.0
 11
5.090251225641559
 21
-2.036718415926403
 31
0.0
  0
LINE
  5
AD
330
70
100
AcDbEntity
  8
0
100
AcDbLine
 10
8.055030287789437
 20
-2.103577487844253
 30
0.0
 11
8.055030287789437
 21
-4.086270412212676
 31
0.0
  0
LINE
  5
AE
330
70
100
AcDbEntity
  8
0
100
AcDbLine
 10
8.043331535426734
 20
-2.103577487844253
 30
0.0
 11
8.043331535426734
 21
-4.076413778398618
 31
0.0
  0
LINE
  5
AF
330
70
100
AcDbEntity
  8
0
100
AcDbLine
 10
8.044062707450052
 20
-2.103577487844253
 30
0.0
 11
8.055761459811858
 21
-2.103577487844253
 31
0.0
  0
LINE
  5
B0
330
70
100
AcDbEntity
  8
0
100
AcDbLine
 10
1.531252087374489
 20
-2.033384973670401
 30
0.0
 11
1.531252087374489
 21
-2.043913850796821
 31
0.0
  0
LINE
  5
B1
330
70
100
AcDbEntity
  8
0
100
AcDbLine
 10
1.4049055618626
 20
-2.043913850796821
 30
0.0
 11
1.4049055618626
 21
-2.033384973670401
 31
0.0
  0
LINE
  5
B2
330
70
100
AcDbEntity
  8
0
100
AcDbLine
 10
1.531252087374489
 20
-2.043913850796821
 30
0.0
 11
1.503897262181289
 21
-2.059707166485491
 31
0.0
  0
LINE
  5
B3
330
70
100
AcDbEntity
  8
0
100
AcDbLine
 10
1.432260387055801
 20
-2.059707166485491
 30
0.0
 11
1.4049055618626
 21
-2.043913850796821
 31
0.0
  0
LINE
  5
B4
330
70
100
AcDbEntity
  8
0
100
AcDbLine
 10
1.415434438988573
 20
-2.033384973670401
 30
0.0
 11
1.415434438988573
 21
-1.85002582614546
 31
0.0
  0
LINE
  5
B5
330
70
100
AcDbEntity
  8
0
100
AcDbLine
 10
1.520723210248515
 20
-1.85002582614546
 30
0.0
 11
1.520723210248515
 21
-2.033384973670401
 31
0.0
  0
LINE
  5
B6
330
70
100
AcDbEntity
  8
0
100
AcDbLine
 10
1.48650435958909
 20
-2.100945268562262
 30
0.0
 11
1.483872140307487
 21
-2.103577487844253
 31
0.0
  0
LINE
  5
B7
330
70
100
AcDbEntity
  8
0
100
AcDbLine
 10
1.48650435958909
 20
-2.059707166485491
 30
0.0
 11
1.48650435958909
 21
-2.100945268562262
 31
0.0
  0
LINE
  5
B8
330
70
100
AcDbEntity
  8
0
100
AcDbLine
 10
1.44965328964803
 20
-2.100945268562262
 30
0.0
 11
1.44965328964803
 21
-2.059707166485491
 31
0.0
  0
LINE
  5
B9
330
70
100
AcDbEntity
  8
0
100
AcDbLine
 10
1.415376472996259
 20
-2.043913850796821
 30
0.0
 11
1.4049055618626
 21
-2.043913850796821
 31
0.0
  0
LINE
  5
BA
330
70
100
AcDbEntity
  8
0
100
AcDbLine
 10
1.531252087374489
 20
-2.043913850796821
 30
0.0
 11
1.415376472996259
 21
-2.043913850796821
 31
0.0
  0
LINE
  5
BB
330
70
100
AcDbEntity
  8
0
100
AcDbLine
 10
1.531252087374489
 20
-2.033384973670401
 30
0.0
 11
1.4049055618626
 21
-2.033384973670401
 31
0.0
  0
LINE
  5
BC
330
70
100
AcDbEntity
  8
0
100
AcDbLine
 10
1.533884306656061
 20
-1.85002582614546
 30
0.0
 11
1.402273342581028
 21
-1.85002582614546
 31
0.0
  0
LINE
  5
BD
330
70
100
AcDbEntity
  8
0
100
AcDbLine
 10
1.533884306656061
 20
-1.832477697602653
 30
0.0
 11
1.402273342581028
 21
-1.832477697602653
 31
0.0
  0
LINE
  5
BE
330
70
100
AcDbEntity
  8
0
100
AcDbLine
 10
1.438197260668319
 20
-2.059707166485491
 30
0.0
 11
1.503897262181289
 21
-2.059707166485491
 31
0.0
  0
LINE
  5
BF
330
70
100
AcDbEntity
  8
0
100
AcDbLine
 10
1.432260387055801
 20
-2.059707166485491
 30
0.0
 11
1.438197260668319
 21
-2.059707166485491
 31
0.0
  0
LINE
  5
C0
330
70
100
AcDbEntity
  8
0
100
AcDbLine
 10
1.454903236712913
 20
-2.103577487844253
 30
0.0
 11
1.483872140307487
 21
-2.103577487844253
 31
0.0
  0
LINE
  5
C1
330
70
100
AcDbEntity
  8
0
100
AcDbLine
 10
1.48650435958909
 20
-2.100945268562262
 30
0.0
 11
1.452707305395643
 21
-2.100945268562262
 31
0.0
  0
LINE
  5
C2
330
70
100
AcDbEntity
  8
0
100
AcDbLine
 10
1.402273342581028
 20
-1.85002582614546
 30
0.0
 11
1.402273342581028
 21
-1.832477697602653
 31
0.0
  0
LINE
  5
C3
330
70
100
AcDbEntity
  8
0
100
AcDbLine
 10
1.533884306656061
 20
-1.85002582614546
 30
0.0
 11
1.533884306656061
 21
-1.832477697602653
 31
0.0
  0
LINE
  5
C4
330
70
100
AcDbEntity
  8
0
100
AcDbLine
 10
1.520723210248515
 20
-1.85002582614546
 30
0.0
 11
1.520723210248515
 21
-2.033384973670401
 31
0.0
  0
LINE
  5
C5
330
70
100
AcDbEntity
  8
0
100
AcDbLine
 10
1.474505892668954
 20
-2.103577487844253
 30
0.0
 11
1.462807140306636
 21
-2.103577487844253
 31
0.0
  0
SPLINE
  5
C6
330
70
100
AcDbEntity
  8
0
100
AcDbSpline
210
0.0
220
0.0
230
1.0
 70
     8
 71
     3
 72
    86
 73
    82
 74
     0
 42
0.000000001
 43
0.0000000001
 40
0.0
 40
0.0
 40
0.0
 40
0.0
 40
1.0
 40
1.0
 40
1.0
 40
2.0
 40
2.0
 40
2.0
 40
3.0
 40
3.0
 40
3.0
 40
4.0
 40
4.0
 40
4.0
 40
5.0
 40
5.0
 40
5.0
 40
6.0
 40
6.0
 40
6.0
 40
7.0
 40
7.0
 40
7.0
 40
8.0
 40
8.0
 40
8.0
 40
9.0
 40
9.0
 40
9.0
 40
10.0
 40
10.0
 40
10.0
 40
11.0
 40
11.0
 40
11.0
 40
12.0
 40
12.0
 40
12.0
 40
13.0
 40
13.0
 40
13.0
 40
14.0
 40
14.0
 40
14.0
 40
15.0
 40
15.0
 40
15.0
 40
16.0
 40
16.0
 40
16.0
 40
17.0
 40
17.0
 40
17.0
 40
18.0
 40
18.0
 40
18.0
 40
19.0
 40
19.0
 40
19.0
 40
20.0
 40
20.0
 40
20.0
 40
21.0
 40
21.0
 40
21.0
 40
22.0
 40
22.0
 40
22.0
 40
23.0
 40
23.0
 40
23.0
 40
24.0
 40
24.0
 40
24.0
 40
25.0
 40
25.0
 40
25.0
 40
26.0
 40
26.0
 40
26.0
 40
27.0
 40
27.0
 40
27.0
 40
27.0
 10
4.385677418206556
 20
-2.056163050683343
 30
0.0
 10
4.385676612807718
 20
-2.056258869601754
 30
0.0
 10
4.385675807408912
 20
-2.056354688520162
 30
0.0
 10
4.385675002010521
 20
-2.056450507438603
 30
0.0
 10
4.385674935516961
 20
-2.056458418226813
 30
0.0
 10
4.385674869023401
 20
-2.056466329014988
 30
0.0
 10
4.385674802541551
 20
-2.056474239812374
 30
0.0
 10
4.385397869448051
 20
-2.089427097019146
 30
0.0
 10
4.385326564239531
 20
-2.122533966408215
 30
0.0
 10
4.386180307364238
 20
-2.155758455922931
 30
0.0
 10
4.386858150635439
 20
-2.182137580963448
 30
0.0
 10
4.388119597628193
 20
-2.208591200580078
 30
0.0
 10
4.390334118766459
 20
-2.235097399653029
 30
0.0
 10
4.393892061360381
 20
-2.277683371425712
 30
0.0
 10
4.399979057852136
 20
-2.320173570806892
 30
0.0
 10
4.408421847206358
 20
-2.36232704738916
 30
0.0
 10
4.41686463656061
 20
-2.404480523971424
 30
0.0
 10
4.427660550507504
 20
-2.446328404399503
 30
0.0
 10
4.440630195723938
 20
-2.487730604913815
 30
0.0
 10
4.466569486156386
 20
-2.570535005942411
 30
0.0
 10
4.501200908651886
 20
-2.651555681104234
 30
0.0
 10
4.543120716389358
 20
-2.729702165734589
 30
0.0
 10
4.625738609803088
 20
-2.883717612996586
 30
0.0
 10
4.736645618319228
 20
-3.026584406050119
 30
0.0
 10
4.86547741893341
 20
-3.149973983083332
 30
0.0
 10
4.994309219547596
 20
-3.273363560116611
 30
0.0
 10
5.141076691068374
 20
-3.377288167719143
 30
0.0
 10
5.295695888009617
 20
-3.453181447837128
 30
0.0
 10
5.332974706279967
 20
-3.471479381428367
 30
0.0
 10
5.370700045063933
 20
-3.488103373110051
 30
0.0
 10
5.408740511168637
 20
-3.503113088176173
 30
0.0
 10
5.446780977273729
 20
-3.518122803242293
 30
0.0
 10
5.485156742415558
 20
-3.531549143029081
 30
0.0
 10
5.523818980664061
 20
-3.543568039037034
 30
0.0
 10
5.601143457162094
 20
-3.567605831052943
 30
0.0
 10
5.679611440620178
 20
-3.586013852825108
 30
0.0
 10
5.758862517760177
 20
-3.600210840950983
 30
0.0
 10
5.959779240047605
 20
-3.636202936245011
 30
0.0
 10
6.165713444275325
 20
-3.645180772071102
 30
0.0
 10
6.371369516081771
 20
-3.649972010896623
 30
0.0
 10
6.577025587888987
 20
-3.654763249722082
 30
0.0
 10
6.782427893716977
 20
-3.655365598494839
 30
0.0
 10
6.982207917130803
 20
-3.674010825787733
 30
0.0
 10
7.076181198562407
 20
-3.682781238172761
 30
0.0
 10
7.168906442122392
 20
-3.695534602065273
 30
0.0
 10
7.259845601378387
 20
-3.714536145655305
 30
0.0
 10
7.316315128493624
 20
-3.726335333043025
 30
0.0
 10
7.372096565606027
 20
-3.740542893005346
 30
0.0
 10
7.427073797000286
 20
-3.757699207087671
 30
0.0
 10
7.464921935838981
 20
-3.769510179392086
 30
0.0
 10
7.502376767546397
 20
-3.782734792757666
 30
0.0
 10
7.539456977392249
 20
-3.797496699442035
 30
0.0
 10
7.576537187238097
 20
-3.812258606126401
 30
0.0
 10
7.613236660556297
 20
-3.828518146030086
 30
0.0
 10
7.64949136125038
 20
-3.846188015054522
 30
0.0
 10
7.722000762640464
 20
-3.881527753103453
 30
0.0
 10
7.79273126068815
 20
-3.922509595235915
 30
0.0
 10
7.861164905969316
 20
-3.968425226962636
 30
0.0
 10
7.998032196530746
 20
-4.060256490416917
 30
0.0
 10
8.125707907948267
 20
-4.171830059792775
 30
0.0
 10
8.240050722458649
 20
-4.297358782010021
 30
0.0
 10
8.35439353696813
 20
-4.422887504228164
 30
0.0
 10
8.455401089797209
 20
-4.562367279864671
 30
0.0
 10
8.538998718982856
 20
-4.709921162762959
 30
0.0
 10
8.570770344883925
 20
-4.765999628304103
 30
0.0
 10
8.600028099070771
 20
-4.823243677608449
 30
0.0
 10
8.62655183366645
 20
-4.881328732896219
 30
0.0
 10
8.679599302855486
 20
-4.997498843470994
 30
0.0
 10
8.721707460526188
 20
-5.117032658811976
 30
0.0
 10
8.751147809601285
 20
-5.237329925839888
 30
0.0
 10
8.763222065062631
 20
-5.286666974448941
 30
0.0
 10
8.773076090193303
 20
-5.336112100514957
 30
0.0
 10
8.781097988576423
 20
-5.38573180788015
 30
0.0
 10
8.789119886959412
 20
-5.435351515245342
 30
0.0
 10
8.795343364282871
 20
-5.485128319622167
 30
0.0
 10
8.800271598569192
 20
-5.535049590930213
 30
0.0
 10
8.810128067143374
 20
-5.634892133546502
 30
0.0
 10
8.814798470951211
 20
-5.735313787911054
 30
0.0
 10
8.818355487613237
 20
-5.836166676157502
 30
0.0
 10
8.819899033441796
 20
-5.879931175950282
 30
0.0
 10
8.8212678554085
 20
-5.923792405577162
 30
0.0
 10
8.822668524339865
 20
-5.967656660123457
 30
0.0
  0
LINE
  5
C7
330
70
100
AcDbEntity
  8
0
100
AcDbLine
 10
8.055030287789437
 20
-4.116764952325418
 30
0.0
 11
8.055030287789437
 21
-5.967656660123457
 31
0.0
  0
LINE
  5
C8
330
70
100
AcDbEntity
  8
0
100
AcDbLine
 10
8.043331535426734
 20
-4.10671878710227
 30
0.0
 11
8.043331535426734
 21
-5.967656660123457
 31
0.0
  0
LINE
  5
C9
330
70
100
AcDbEntity
  8
0
100
AcDbLine
 10
3.686400942174052
 20
-2.027456903639714
 30
0.0
 11
5.090251225641559
 21
-2.027456903639714
 31
0.0
  0
LINE
  5
CA
330
70
100
AcDbEntity
  8
0
100
AcDbLine
 10
3.686400942174052
 20
-2.036718415926403
 30
0.0
 11
5.090251225641559
 21
-2.036718415926403
 31
0.0
  0
LWPOLYLINE
  5
CB
330
70
100
AcDbEntity
  8
0
100
AcDbPolyline
 90
        4
 70
     1
 43
0.0
 10
3.803388465796315
 20
-2.027456903639714
 10
4.973263702019328
 20
-2.027456903639714
 10
4.973263702019328
 20
-1.832477697602653
 10
3.803388465796315
 20
-1.832477697602653
  0
SPLINE
  5
CC
330
70
100
AcDbEntity
  8
0
100
AcDbSpline
210
0.0
220
0.0
230
1.0
 70
     8
 71
     3
 72
     8
 73
     4
 74
     0
 42
0.000000001
 43
0.0000000001
 40
0.0
 40
0.0
 40
0.0
 40
0.0
 40
1.0
 40
1.0
 40
1.0
 40
1.0
 10
4.341096456622222
 20
-2.044543371946748
 30
0.0
 10
4.376917945860101
 20
-2.06071080085754
 30
0.0
 10
4.417958629636379
 20
-2.06071080085754
 30
0.0
 10
4.453780118874258
 20
-2.044543371946748
 30
0.0
  0
LINE
  5
CD
330
70
100
AcDbEntity
  8
0
100
AcDbLine
 10
4.433987641460936
 20
-2.034724535531253
 30
0.0
 11
4.433996888880423
 21
-2.034733782950711
 31
0.0
  0
SPLINE
  5
CE
330
70
100
AcDbEntity
  8
0
100
AcDbSpline
210
0.0
220
0.0
230
1.0
 70
     8
 71
     3
 72
     8
 73
     4
 74
     0
 42
0.000000001
 43
0.0000000001
 40
0.0
 40
0.0
 40
0.0
 40
0.0
 40
1.0
 40
1.0
 40
1.0
 40
1.0
 10
4.338944525937127
 20
-2.041211179048358
 30
0.0
 10
4.338944525937127
 20
-2.042648330533872
 30
0.0
 10
4.339786541636845
 20
-2.043952163757889
 30
0.0
 10
4.341096456626461
 20
-2.044543371938372
 30
0.0
  0
SPLINE
  5
CF
330
70
100
AcDbEntity
  8
0
100
AcDbSpline
210
0.0
220
0.0
230
1.0
 70
     8
 71
     3
 72
     8
 73
     4
 74
     0
 42
0.000000001
 43
0.0000000001
 40
0.0
 40
0.0
 40
0.0
 40
0.0
 40
1.0
 40
1.0
 40
1.0
 40
1.0
 10
4.453780118870088
 20
-2.044543371938372
 30
0.0
 10
4.455090033859669
 20
-2.043952163757889
 30
0.0
 10
4.455932049559422
 20
-2.042648330533872
 30
0.0
 10
4.455932049559422
 20
-2.041211179048358
 30
0.0
  0
SPLINE
  5
D0
330
70
100
AcDbEntity
  8
0
100
AcDbSpline
210
0.0
220
0.0
230
1.0
 70
     8
 71
     3
 72
     8
 73
     4
 74
     0
 42
0.000000001
 43
0.0000000001
 40
0.0
 40
0.0
 40
0.0
 40
0.0
 40
1.0
 40
1.0
 40
1.0
 40
1.0
 10
4.455932049559422
 20
-2.038911931994463
 30
0.0
 10
4.455932049559422
 20
-2.037700486521273
 30
0.0
 10
4.454949978964488
 20
-2.036718415926403
 30
0.0
 10
4.453738533491744
 20
-2.036718415926403
 30
0.0
  0
SPLINE
  5
D1
330
70
100
AcDbEntity
  8
0
100
AcDbSpline
210
0.0
220
0.0
230
1.0
 70
     8
 71
     3
 72
     8
 73
     4
 74
     0
 42
0.000000001
 43
0.0000000001
 40
0.0
 40
0.0
 40
0.0
 40
0.0
 40
1.0
 40
1.0
 40
1.0
 40
1.0
 10
4.341138042004772
 20
-2.036718415926403
 30
0.0
 10
4.339926596532029
 20
-2.036718415926403
 30
0.0
 10
4.338944525937127
 20
-2.037700486521273
 30
0.0
 10
4.338944525937127
 20
-2.038911931994463
 30
0.0
  0
LINE
  5
D2
330
70
100
AcDbEntity
  8
0
100
AcDbLine
 10
4.455932049559422
 20
-2.038911931994463
 30
0.0
 11
4.455932049559422
 21
-2.041211179048358
 31
0.0
  0
LINE
  5
D3
330
70
100
AcDbEntity
  8
0
100
AcDbLine
 10
4.338944525937127
 20
-2.038911931994463
 30
0.0
 11
4.338944525937127
 21
-2.041211179048358
 31
0.0
  0
LWPOLYLINE
  5
D5
330
70
100
AcDbEntity
  8
0
100
AcDbPolyline
 90
        2
 70
     0
 43
0.0
 10
8.575502361922348
 20
-7.374556735745025
 10
8.575502361922348
 20
-7.374556735745025
  0
HATCH
  5
D6
330
70
100
AcDbEntity
  8
Livello 2
 62
    18
420
    65793
440
 33554687
100
AcDbHatch
 10
0.0
 20
0.0
 30
0.0
210
0.0
220
0.0
230
1.0
  2
SOLID
 70
     1
 71
     1
 91
        1
 92
        3
 72
     0
 73
     1
 93
        1
 10
8.575502361922348
 20
-7.374556735745025
 97
        0
 75
     2
 76
     1
 98
        1
 10
0.0
 20
0.0
450
        0
451
        0
460
0.0
461
0.0
452
        0
462
0.0
453
        0
470

  0
LINE
  5
D7
330
70
100
AcDbEntity
  8
0
100
AcDbLine
 10
9.248031912581627
 20
-5.969606452167139
 30
0.0
 11
9.248031912581627
 21
-6.188043791481391
 31
0.0
  0
LINE
  5
D8
330
70
100
AcDbEntity
  8
0
100
AcDbLine
 10
3.686400942174052
 20
-1.65805555514104
 30
0.0
 11
5.090251225641559
 21
-1.65805555514104
 31
0.0
  0
LINE
  5
D9
330
70
100
AcDbEntity
  8
0
100
AcDbLine
 10
0.4689618504373386
 20
-6.533894797420909
 30
0.0
 11
9.045707165594533
 21
-6.533894797420909
 31
0.0
  0
LINE
  5
118
330
70
100
AcDbEntity
  8
0
100
AcDbLine
 10
0.2769680850371525
 20
-1.65805555514104
 30
0.0
 11
0.2769680850371525
 21
-5.971556244210883
 31
0.0
  0
MTEXT
  5
179
330
70
100
AcDbEntity
  8
0
100
AcDbMText
 10
-3.251093955242673
 20
-3.54835460339576
 30
0.0
 40
0.4
 41
3.395125530511613
 46
0.0
 71
     1
 72
     5
  1
1830mm
 73
     1
 44
1.0
1001
ACAD
1000
ACAD_MTEXT_COLUMN_INFO_BEGIN
1070
    75
1070
     2
1070
    79
1070
     0
1070
    76
1070
     1
1070
    78
1070
     0
1070
    48
1040
3.395125530511613
1070
    49
1040
2.0
1070
    50
1070
     1
1040
0.0
1000
ACAD_MTEXT_COLUMN_INFO_END
  0
MTEXT
  5
181
330
70
100
AcDbEntity
  8
0
100
AcDbMText
 10
3.535494938469858
 20
-1.081331918405209
 30
0.0
 40
0.4
 41
3.395125530511613
 46
0.0
 71
     1
 72
     5
  1
120mm
 73
     1
 44
1.0
1001
ACAD
1000
ACAD_MTEXT_COLUMN_INFO_BEGIN
1070
    75
1070
     2
1070
    79
1070
     0
1070
    76
1070
     1
1070
    78
1070
     0
1070
    48
1040
3.395125530511613
1070
    49
1040
2.0
1070
    50
1070
     1
1040
0.0
1000
ACAD_MTEXT_COLUMN_INFO_END
  0
MTEXT
  5
187
330
70
100
AcDbEntity
  8
0
100
AcDbMText
 10
9.433580082140217
 20
-5.920288355866492
 30
0.0
 40
0.4
 41
3.395125530511613
 46
0.0
 71
     1
 72
     5
  1
34mm
 73
     1
 44
1.0
1001
ACAD
1000
ACAD_MTEXT_COLUMN_INFO_BEGIN
1070
    75
1070
     2
1070
    79
1070
     0
1070
    76
1070
     1
1070
    78
1070
     0
1070
    48
1040
3.395125530511613
1070
    49
1040
2.0
1070
    50
1070
     1
1040
0.0
1000
ACAD_MTEXT_COLUMN_INFO_END
  0
MTEXT
  5
18D
330
70
100
AcDbEntity
  8
0
100
AcDbMText
 10
3.685271958055896
 20
-7.236613546929732
 30
0.0
 40
0.4
 41
3.395125530511613
 46
0.0
 71
     1
 72
     5
  1
1100mm
 73
     1
 44
1.0
1001
ACAD
1000
ACAD_MTEXT_COLUMN_INFO_BEGIN
1070
    75
1070
     2
1070
    79
1070
     0
1070
    76
1070
     1
1070
    78
1070
     0
1070
    48
1040
3.395125530511613
1070
    49
1040
2.0
1070
    50
1070
     1
1040
0.0
1000
ACAD_MTEXT_COLUMN_INFO_END
  0
ENDSEC
  0
SECTION
  2
OBJECTS
  0
DICTIONARY
  5
C
330
0
100
AcDbDictionary
281
     1
  3
ACAD_CIP_PREVIOUS_PRODUCT_INFO
350
16F
  3
ACAD_COLOR
350
63
  3
ACAD_DETAILVIEWSTYLE
350
6A
  3
ACAD_GROUP
350
D
  3
ACAD_LAYOUT
350
62
  3
ACAD_MATERIAL
350
10
  3
ACAD_MLEADERSTYLE
350
66
  3
ACAD_MLINESTYLE
350
5F
  3
ACAD_PLOTSETTINGS
350
61
  3
ACAD_PLOTSTYLENAME
350
E
  3
ACAD_SCALELIST
350
42
  3
ACAD_SECTIONVIEWSTYLE
350
68
  3
ACAD_TABLESTYLE
350
64
  3
ACAD_VISUALSTYLE
350
29
  3
ACDB_RECOMPOSE_DATA
350
244
  3
AcDbVariableDictionary
350
12C
  0
DICTIONARY
  5
172
330
2
100
AcDbDictionary
280
     1
281
     1
  3
ACAD_LAYERSTATES
360
173
  0
XRECORD
  5
16F
102
{ACAD_REACTORS
330
C
102
}
330
C
100
AcDbXrecord
280
     1
300
ACD
300
2019
300
ACD_F_S
  0
DICTIONARY
  5
63
102
{ACAD_REACTORS
330
C
102
}
330
C
100
AcDbDictionary
281
     1
  0
DICTIONARY
  5
6A
102
{ACAD_REACTORS
330
C
102
}
330
C
100
AcDbDictionary
281
     1
  3
Imperial24
350
6B
  0
DICTIONARY
  5
D
102
{ACAD_REACTORS
330
C
102
}
330
C
100
AcDbDictionary
281
     1
  0
DICTIONARY
  5
62
102
{ACAD_REACTORS
330
C
102
}
330
C
100
AcDbDictionary
281
     1
  3
Layout1
350
6F
  3
Layout2
350
77
  3
Model
350
73
  0
DICTIONARY
  5
10
102
{ACAD_REACTORS
330
C
102
}
330
C
100
AcDbDictionary
281
     1
  3
ByBlock
350
19
  3
ByLayer
350
11
  3
Global
350
21
  0
DICTIONARY
  5
66
102
{ACAD_REACTORS
330
C
102
}
330
C
100
AcDbDictionary
281
     1
  3
Standard
350
67
  0
DICTIONARY
  5
5F
102
{ACAD_REACTORS
330
C
102
}
330
C
100
AcDbDictionary
281
     1
  3
Standard
350
60
  0
DICTIONARY
  5
61
102
{ACAD_REACTORS
330
C
102
}
330
C
100
AcDbDictionary
281
     1
  0
ACDBDICTIONARYWDFLT
  5
E
102
{ACAD_REACTORS
330
C
102
}
330
C
100
AcDbDictionary
281
     1
  3
Normal
350
F
100
AcDbDictionaryWithDefault
340
F
  0
DICTIONARY
  5
42
102
{ACAD_REACTORS
330
C
102
}
330
C
100
AcDbDictionary
281
     1
  3
A0
350
43
  3
A1
350
44
  3
A2
350
45
  3
A3
350
46
  3
A4
350
47
  3
A5
350
48
  3
A6
350
49
  3
A7
350
4A
  3
A8
350
4B
  3
A9
350
4C
  3
B0
350
4D
  3
B1
350
4E
  3
B2
350
4F
  3
B3
350
50
  3
B4
350
51
  3
B5
350
52
  3
B6
350
53
  0
DICTIONARY
  5
68
102
{ACAD_REACTORS
330
C
102
}
330
C
100
AcDbDictionary
281
     1
  3
Imperial24
350
69
  0
DICTIONARY
  5
64
102
{ACAD_REACTORS
330
C
102
}
330
C
100
AcDbDictionary
281
     1
  3
Standard
350
65
  0
DICTIONARY
  5
29
102
{ACAD_REACTORS
330
C
102
}
330
C
100
AcDbDictionary
281
     1
  3
2dWireframe
350
2F
  3
Basic
350
2E
  3
Brighten
350
35
  3
ColorChange
350
39
  3
Conceptual
350
32
  3
Dim
350
34
  3
EdgeColorOff
350
41
  3
Facepattern
350
38
  3
Flat
350
2A
  3
FlatWithEdges
350
2B
  3
Gouraud
350
2C
  3
GouraudWithEdges
350
2D
  3
Hidden
350
31
  3
JitterOff
350
3F
  3
Linepattern
350
37
  3
OverhangOff
350
40
  3
Realistic
350
33
  3
Shaded
350
3E
  3
Shaded with edges
350
3D
  3
Shades of Gray
350
3A
  3
Sketchy
350
3B
  3
Thicken
350
36
  3
Wireframe
350
30
  3
X-Ray
350
3C
  0
XRECORD
  5
244
102
{ACAD_REACTORS
330
C
102
}
330
C
100
AcDbXrecord
280
     1
 90
        1
330
65
330
179
330
181
330
187
330
18D
  0
DICTIONARY
  5
12C
102
{ACAD_REACTORS
330
C
102
}
330
C
100
AcDbDictionary
281
     1
  3
CANNOSCALE
350
131
  3
CMLEADERSTYLE
350
12E
  3
CTABLESTYLE
350
12D
  3
CVIEWDETAILSTYLE
350
12F
  3
CVIEWSECTIONSTYLE
350
130
  3
XCLIPFRAME
350
242
  0
DICTIONARY
  5
173
102
{ACAD_REACTORS
330
172
102
}
330
172
100
AcDbDictionary
281
     1
  0
ACDBDETAILVIEWSTYLE
  5
6B
102
{ACAD_XDICTIONARY
360
279
102
}
102
{ACAD_REACTORS
330
6A
102
}
330
6A
100
AcDbModelDocViewStyle
 70
     0
  3
Imperial24
290
     0
100
AcDbDetailViewStyle
 70
     0
 71
     0
 90
        3
 71
     1
340
55
 62
   256
 40
0.24
340
0
 62
   256
 40
0.24
300

 40
0.36
280
     3
 71
     2
340
5D
 90
       25
 62
   256
 71
     3
340
55
 62
   256
 40
0.24
 90
        1
 40
0.75
 90
        1
300
%<\AcVar ViewType \f "%tc1">% %<\AcVar ViewDetailId>%\PSCALE %<\AcVar ViewScale \f "%sn">%
 71
     4
340
5D
 90
       25
 62
   256
340
5D
 90
       25
 62
   256
280
     0
  0
LAYOUT
  5
6F
102
{ACAD_REACTORS
330
62
102
}
330
62
100
AcDbPlotSettings
  1

  2

  4

  6

 40
0.0
 41
0.0
 42
0.0
 43
0.0
 44
0.0
 45
0.0
 46
0.0
 47
0.0
 48
0.0
 49
0.0
140
0.0
141
0.0
142
1.0
143
1.0
 70
   688
 72
     0
 73
     0
 74
     5
  7

 75
    16
147
1.0
 76
     0
 77
     2
 78
   300
148
0.0
149
0.0
100
AcDbLayout
  1
Layout1
 70
     1
 71
     1
 10
0.0
 20
0.0
 11
12.0
 21
9.0
 12
0.0
 22
0.0
 32
0.0
 14
1.000000000000000E+20
 24
1.000000000000000E+20
 34
1.000000000000000E+20
 15
-1.000000000000000E+20
 25
-1.000000000000000E+20
 35
-1.000000000000000E+20
146
0.0
 13
0.0
 23
0.0
 33
0.0
 16
1.0
 26
0.0
 36
0.0
 17
0.0
 27
1.0
 37
0.0
 76
     0
330
6C
  0
LAYOUT
  5
77
102
{ACAD_REACTORS
330
62
102
}
330
62
100
AcDbPlotSettings
  1

  2

  4

  6

 40
0.0
 41
0.0
 42
0.0
 43
0.0
 44
0.0
 45
0.0
 46
0.0
 47
0.0
 48
0.0
 49
0.0
140
0.0
141
0.0
142
1.0
143
1.0
 70
   688
 72
     0
 73
     0
 74
     5
  7

 75
    16
147
1.0
 76
     0
 77
     2
 78
   300
148
0.0
149
0.0
100
AcDbLayout
  1
Layout2
 70
     1
 71
     2
 10
0.0
 20
0.0
 11
12.0
 21
9.0
 12
0.0
 22
0.0
 32
0.0
 14
0.0
 24
0.0
 34
0.0
 15
0.0
 25
0.0
 35
0.0
146
0.0
 13
0.0
 23
0.0
 33
0.0
 16
1.0
 26
0.0
 36
0.0
 17
0.0
 27
1.0
 37
0.0
 76
     0
330
74
  0
LAYOUT
  5
73
102
{ACAD_REACTORS
330
62
102
}
330
62
100
AcDbPlotSettings
  1

  2
Adobe PDF
  4
A4
  6

 40
3.174999952316282
 41
3.174999952316282
 42
3.175003051757812
 43
3.17498779296875
 44
209.9733276367186
 45
297.0318298339844
 46
0.0
 47
0.0
 48
0.0
 49
0.0
140
0.0
141
0.0
142
1.0
143
3.66865556626541
 70
 11952
 72
     0
 73
     1
 74
     0
  7

 75
     0
147
0.2725794182466608
 76
     0
 77
     2
 78
   300
148
385.3283209481708
149
227.1367544769985
100
AcDbLayout
  1
Model
 70
     1
 71
     0
 10
0.0
 20
0.0
 11
12.0
 21
9.0
 12
0.0
 22
0.0
 32
0.0
 14
0.0
 24
0.0
 34
0.0
 15
0.0
 25
0.0
 35
0.0
146
0.0
 13
0.0
 23
0.0
 33
0.0
 16
1.0
 26
0.0
 36
0.0
 17
0.0
 27
1.0
 37
0.0
 76
     0
330
70
331
57
1001
ACAD_PSEXT
1000
Adobe PDF
1000
Adobe PDF Converter
1000
Documents\*.pdf
1000

1070
     0
  0
MATERIAL
  5
19
102
{ACAD_XDICTIONARY
360
1A
102
}
102
{ACAD_REACTORS
330
10
102
}
330
10
100
AcDbMaterial
  1
ByBlock
 72
     0
 43
0.0208333333333333
 43
0.0
 43
0.0
 43
0.0
 43
0.0
 43
0.0208333333333333
 43
0.0
 43
0.0
 43
0.0
 43
0.0
 43
1.0
 43
0.0
 43
0.0
 43
0.0
 43
0.0
 43
1.0
 77
     0
 47
0.0208333333333333
 47
0.0
 47
0.0
 47
0.0
 47
0.0
 47
0.0208333333333333
 47
0.0
 47
0.0
 47
0.0
 47
0.0
 47
1.0
 47
0.0
 47
0.0
 47
0.0
 47
0.0
 47
1.0
171
     0
 49
0.0208333333333333
 49
0.0
 49
0.0
 49
0.0
 49
0.0
 49
0.0208333333333333
 49
0.0
 49
0.0
 49
0.0
 49
0.0
 49
1.0
 49
0.0
 49
0.0
 49
0.0
 49
0.0
 49
1.0
175
     0
142
0.0208333333333333
142
0.0
142
0.0
142
0.0
142
0.0
142
0.0208333333333333
142
0.0
142
0.0
142
0.0
142
0.0
142
1.0
142
0.0
142
0.0
142
0.0
142
0.0
142
1.0
179
     0
144
0.0208333333333333
144
0.0
144
0.0
144
0.0
144
0.0
144
0.0208333333333333
144
0.0
144
0.0
144
0.0
144
0.0
144
1.0
144
0.0
144
0.0
144
0.0
144
0.0
144
1.0
147
0.0208333333333333
147
0.0
147
0.0
147
0.0
147
0.0
147
0.0208333333333333
147
0.0
147
0.0
147
0.0
147
0.0
147
1.0
147
0.0
147
0.0
147
0.0
147
0.0
147
1.0
  0
MATERIAL
  5
11
102
{ACAD_XDICTIONARY
360
12
102
}
102
{ACAD_REACTORS
330
10
102
}
330
10
100
AcDbMaterial
  1
ByLayer
 72
     0
 43
0.0208333333333333
 43
0.0
 43
0.0
 43
0.0
 43
0.0
 43
0.0208333333333333
 43
0.0
 43
0.0
 43
0.0
 43
0.0
 43
1.0
 43
0.0
 43
0.0
 43
0.0
 43
0.0
 43
1.0
 77
     0
 47
0.0208333333333333
 47
0.0
 47
0.0
 47
0.0
 47
0.0
 47
0.0208333333333333
 47
0.0
 47
0.0
 47
0.0
 47
0.0
 47
1.0
 47
0.0
 47
0.0
 47
0.0
 47
0.0
 47
1.0
171
     0
 49
0.0208333333333333
 49
0.0
 49
0.0
 49
0.0
 49
0.0
 49
0.0208333333333333
 49
0.0
 49
0.0
 49
0.0
 49
0.0
 49
1.0
 49
0.0
 49
0.0
 49
0.0
 49
0.0
 49
1.0
175
     0
142
0.0208333333333333
142
0.0
142
0.0
142
0.0
142
0.0
142
0.0208333333333333
142
0.0
142
0.0
142
0.0
142
0.0
142
1.0
142
0.0
142
0.0
142
0.0
142
0.0
142
1.0
179
     0
144
0.0208333333333333
144
0.0
144
0.0
144
0.0
144
0.0
144
0.0208333333333333
144
0.0
144
0.0
144
0.0
144
0.0
144
1.0
144
0.0
144
0.0
144
0.0
144
0.0
144
1.0
147
0.0208333333333333
147
0.0
147
0.0
147
0.0
147
0.0
147
0.0208333333333333
147
0.0
147
0.0
147
0.0
147
0.0
147
1.0
147
0.0
147
0.0
147
0.0
147
0.0
147
1.0
  0
MATERIAL
  5
21
102
{ACAD_XDICTIONARY
360
22
102
}
102
{ACAD_REACTORS
330
10
102
}
330
10
100
AcDbMaterial
  1
Global
 72
     0
 43
0.0208333333333333
 43
0.0
 43
0.0
 43
0.0
 43
0.0
 43
0.0208333333333333
 43
0.0
 43
0.0
 43
0.0
 43
0.0
 43
1.0
 43
0.0
 43
0.0
 43
0.0
 43
0.0
 43
1.0
 77
     0
 47
0.0208333333333333
 47
0.0
 47
0.0
 47
0.0
 47
0.0
 47
0.0208333333333333
 47
0.0
 47
0.0
 47
0.0
 47
0.0
 47
1.0
 47
0.0
 47
0.0
 47
0.0
 47
0.0
 47
1.0
171
     0
 49
0.0208333333333333
 49
0.0
 49
0.0
 49
0.0
 49
0.0
 49
0.0208333333333333
 49
0.0
 49
0.0
 49
0.0
 49
0.0
 49
1.0
 49
0.0
 49
0.0
 49
0.0
 49
0.0
 49
1.0
175
     0
142
0.0208333333333333
142
0.0
142
0.0
142
0.0
142
0.0
142
0.0208333333333333
142
0.0
142
0.0
142
0.0
142
0.0
142
1.0
142
0.0
142
0.0
142
0.0
142
0.0
142
1.0
179
     0
144
0.0208333333333333
144
0.0
144
0.0
144
0.0
144
0.0
144
0.0208333333333333
144
0.0
144
0.0
144
0.0
144
0.0
144
1.0
144
0.0
144
0.0
144
0.0
144
0.0
144
1.0
147
0.0208333333333333
147
0.0
147
0.0
147
0.0
147
0.0
147
0.0208333333333333
147
0.0
147
0.0
147
0.0
147
0.0
147
1.0
147
0.0
147
0.0
147
0.0
147
0.0
147
1.0
  0
MLEADERSTYLE
  5
67
102
{ACAD_XDICTIONARY
360
275
102
}
102
{ACAD_REACTORS
330
66
102
}
330
66
100
AcDbMLeaderStyle
170
     2
171
     1
172
     0
 90
        2
 40
0.0
 41
0.0
173
     1
 91
-1056964608
340
5B
 92
       -2
290
     1
 42
0.09
291
     1
 43
0.36
  3
Standard
 44
0.18
300

342
55
174
     1
178
     6
175
     1
176
     0
 93
-1056964608
 45
0.18
292
     0
297
     0
 46
0.18
 94
-1056964608
 47
1.0
 49
1.0
140
1.0
293
     1
141
0.0
294
     1
177
     0
142
1.0
295
     0
296
     0
143
0.125
1001
ACAD_MLEADERVER
1070
     2
  0
MLINESTYLE
  5
60
102
{ACAD_REACTORS
330
5F
102
}
330
5F
100
AcDbMlineStyle
  2
STANDARD
 70
     0
  3

 62
   256
 51
90.0
 52
90.0
 71
     2
 49
0.5
 62
   256
  6
BYLAYER
 49
-0.5
 62
   256
  6
BYLAYER
  0
ACDBPLACEHOLDER
  5
F
102
{ACAD_REACTORS
330
E
102
}
330
E
  0
SCALE
  5
43
102
{ACAD_REACTORS
330
42
102
}
330
42
100
AcDbScale
 70
     0
300
1:1
140
1.0
141
1.0
290
     1
  0
SCALE
  5
44
102
{ACAD_REACTORS
330
42
102
}
330
42
100
AcDbScale
 70
     0
300
1/128" = 1'-0"
140
0.0078125
141
12.0
290
     0
  0
SCALE
  5
45
102
{ACAD_REACTORS
330
42
102
}
330
42
100
AcDbScale
 70
     0
300
1/64" = 1'-0"
140
0.015625
141
12.0
290
     0
  0
SCALE
  5
46
102
{ACAD_REACTORS
330
42
102
}
330
42
100
AcDbScale
 70
     0
300
1/32" = 1'-0"
140
0.03125
141
12.0
290
     0
  0
SCALE
  5
47
102
{ACAD_REACTORS
330
42
102
}
330
42
100
AcDbScale
 70
     0
300
1/16" = 1'-0"
140
0.0625
141
12.0
290
     0
  0
SCALE
  5
48
102
{ACAD_REACTORS
330
42
102
}
330
42
100
AcDbScale
 70
     0
300
3/32" = 1'-0"
140
0.09375
141
12.0
290
     0
  0
SCALE
  5
49
102
{ACAD_REACTORS
330
42
102
}
330
42
100
AcDbScale
 70
     0
300
1/8" = 1'-0"
140
0.125
141
12.0
290
     0
  0
SCALE
  5
4A
102
{ACAD_REACTORS
330
42
102
}
330
42
100
AcDbScale
 70
     0
300
3/16" = 1'-0"
140
0.1875
141
12.0
290
     0
  0
SCALE
  5
4B
102
{ACAD_REACTORS
330
42
102
}
330
42
100
AcDbScale
 70
     0
300
1/4" = 1'-0"
140
0.25
141
12.0
290
     0
  0
SCALE
  5
4C
102
{ACAD_REACTORS
330
42
102
}
330
42
100
AcDbScale
 70
     0
300
3/8" = 1'-0"
140
0.375
141
12.0
290
     0
  0
SCALE
  5
4D
102
{ACAD_REACTORS
330
42
102
}
330
42
100
AcDbScale
 70
     0
300
1/2" = 1'-0"
140
0.5
141
12.0
290
     0
  0
SCALE
  5
4E
102
{ACAD_REACTORS
330
42
102
}
330
42
100
AcDbScale
 70
     0
300
3/4" = 1'-0"
140
0.75
141
12.0
290
     0
  0
SCALE
  5
4F
102
{ACAD_REACTORS
330
42
102
}
330
42
100
AcDbScale
 70
     0
300
1" = 1'-0"
140
1.0
141
12.0
290
     0
  0
SCALE
  5
50
102
{ACAD_REACTORS
330
42
102
}
330
42
100
AcDbScale
 70
     0
300
1-1/2" = 1'-0"
140
1.5
141
12.0
290
     0
  0
SCALE
  5
51
102
{ACAD_REACTORS
330
42
102
}
330
42
100
AcDbScale
 70
     0
300
3" = 1'-0"
140
3.0
141
12.0
290
     0
  0
SCALE
  5
52
102
{ACAD_REACTORS
330
42
102
}
330
42
100
AcDbScale
 70
     0
300
6" = 1'-0"
140
6.0
141
12.0
290
     0
  0
SCALE
  5
53
102
{ACAD_REACTORS
330
42
102
}
330
42
100
AcDbScale
 70
     0
300
1'-0" = 1'-0"
140
12.0
141
12.0
290
     0
  0
ACDBSECTIONVIEWSTYLE
  5
69
102
{ACAD_XDICTIONARY
360
277
102
}
102
{ACAD_REACTORS
330
68
102
}
330
68
100
AcDbModelDocViewStyle
 70
     0
  3
Imperial24
290
     0
100
AcDbSectionViewStyle
 70
     0
 71
     0
 90
       78
 71
     1
340
55
 62
   256
 40
0.24
340
0
340
0
 62
   256
 40
0.24
300
I, O, Q, S, X, Z
 40
0.48
 90
        3
 40
0.18
 90
        1
 71
     2
340
5D
 90
       25
 62
   256
340
5D
 90
       50
 62
   256
 40
0.24
 40
0.0
 40
0.24
 71
     3
340
55
 62
   256
 40
0.24
 90
        1
 40
0.75
 90
        1
300
%<\AcVar ViewType \f "%tc1">% %<\AcVar ViewSectionStartId>%-%<\AcVar ViewSectionEndId>%\PSCALE %<\AcVar ViewScale \f "%sn">%
 71
     4
 62
   256
 62
   257
300
ANSI31
 40
1.0
 90
        0
290
     0
290
     0
 90
        6
 40
0.0
 40
1.570796326794896
 40
0.2617993877991494
 40
1.308996938995747
 40
-0.2617993877991494
 40
1.832595714594044
  0
TABLESTYLE
  5
65
102
{ACAD_XDICTIONARY
360
132
102
}
102
{ACAD_REACTORS
330
64
102
}
330
64
100
AcDbTableStyle
  3
Standard
 70
     0
 71
     0
 40
0.06
 41
0.06
280
     0
281
     0
  7
Standard
140
0.18
170
     2
 62
     0
 63
     7
283
     0
 90
      512
 91
        0
  1

274
    -2
284
     1
 64
     0
275
    -2
285
     1
 65
     0
276
    -2
286
     1
 66
     0
277
    -2
287
     1
 67
     0
278
    -2
288
     1
 68
     0
279
    -2
289
     1
 69
     0
  7
Standard
140
0.25
170
     5
 62
     0
 63
     7
283
     0
 90
      512
 91
        0
  1

274
    -2
284
     1
 64
     0
275
    -2
285
     1
 65
     0
276
    -2
286
     1
 66
     0
277
    -2
287
     1
 67
     0
278
    -2
288
     1
 68
     0
279
    -2
289
     1
 69
     0
  7
Standard
140
0.18
170
     5
 62
     0
 63
     7
283
     0
 90
      512
 91
        0
  1

274
    -2
284
     1
 64
     0
275
    -2
285
     1
 65
     0
276
    -2
286
     1
 66
     0
277
    -2
287
     1
 67
     0
278
    -2
288
     1
 68
     0
279
    -2
289
     1
 69
     0
  0
VISUALSTYLE
  5
2F
102
{ACAD_XDICTIONARY
360
24F
102
}
102
{ACAD_REACTORS
330
29
102
}
330
29
100
AcDbVisualStyle
  2

 70
     4
 71
     0
 72
     2
 73
     0
 90
        0
 40
-0.6
 41
-30.0
 62
     5
 63
     7
421
 16777215
 74
     1
 91
        4
 64
     7
 65
   257
 75
     1
175
     1
 42
1.0
 92
        0
 66
   257
 43
1.0
 76
     1
 77
     6
 78
     2
 67
     7
 79
     5
170
     0
171
     0
290
     0
174
     0
 93
        1
 44
0.0
173
     0
291
     0
 45
0.0
1001
ACAD
1000
AcDbSavedByObjectVersion
1070
     0
  0
VISUALSTYLE
  5
2E
102
{ACAD_XDICTIONARY
360
24D
102
}
102
{ACAD_REACTORS
330
29
102
}
330
29
100
AcDbVisualStyle
  2

 70
     7
 71
     1
 72
     0
 73
     1
 90
        0
 40
-0.6
 41
-30.0
 62
     5
 63
     7
421
 16777215
 74
     0
 91
        4
 64
     7
 65
   257
 75
     1
175
     1
 42
1.0
 92
        8
 66
     7
 43
1.0
 76
     1
 77
     6
 78
     2
 67
     7
 79
     5
170
     0
171
     0
290
     0
174
     0
 93
        1
 44
0.0
173
     0
291
     1
 45
0.0
1001
ACAD
1000
AcDbSavedByObjectVersion
1070
     0
  0
VISUALSTYLE
  5
35
102
{ACAD_XDICTIONARY
360
25B
102
}
102
{ACAD_REACTORS
330
29
102
}
330
29
100
AcDbVisualStyle
  2

 70
    12
 71
     2
 72
     2
 73
     0
 90
        0
 40
-0.6
 41
-30.0
 62
     5
 63
     7
421
 16777215
 74
     1
 91
        4
 64
     7
 65
   257
 75
     1
175
     1
 42
1.0
 92
        8
 66
     7
 43
1.0
 76
     1
 77
     6
 78
     2
 67
     7
 79
     5
170
     0
171
     0
290
     0
174
     0
 93
        1
 44
50.0
173
     0
291
     1
 45
0.0
1001
ACAD
1000
AcDbSavedByObjectVersion
1070
     0
  0
VISUALSTYLE
  5
39
102
{ACAD_XDICTIONARY
360
263
102
}
102
{ACAD_REACTORS
330
29
102
}
330
29
100
AcDbVisualStyle
  2

 70
    16
 71
     2
 72
     2
 73
     3
 90
        0
 40
-0.6
 41
-30.0
 62
     5
 63
     8
421
  8421504
 74
     1
 91
        4
 64
     7
 65
   257
 75
     1
175
     1
 42
1.0
 92
        8
 66
     8
424
  8421504
 43
1.0
 76
     1
 77
     6
 78
     2
 67
     7
 79
     5
170
     0
171
     0
290
     0
174
     0
 93
        1
 44
0.0
173
     0
291
     1
 45
0.0
1001
ACAD
1000
AcDbSavedByObjectVersion
1070
     0
  0
VISUALSTYLE
  5
32
102
{ACAD_XDICTIONARY
360
255
102
}
102
{ACAD_REACTORS
330
29
102
}
330
29
100
AcDbVisualStyle
  2

 70
     9
 71
     3
 72
     2
 73
     0
 90
        0
 40
-0.6
 41
-30.0
 62
     5
 63
     7
421
 16777215
 74
     2
 91
        2
 64
     7
 65
   257
 75
     1
175
     1
 42
179.0
 92
        8
 66
     7
 43
1.0
 76
     1
 77
     6
 78
     2
 67
     7
 79
     3
170
     0
171
     0
290
     0
174
     0
 93
        1
 44
0.0
173
     0
291
     0
 45
0.0
1001
ACAD
1000
AcDbSavedByObjectVersion
1070
     0
  0
VISUALSTYLE
  5
34
102
{ACAD_XDICTIONARY
360
259
102
}
102
{ACAD_REACTORS
330
29
102
}
330
29
100
AcDbVisualStyle
  2

 70
    11
 71
     2
 72
     2
 73
     0
 90
        0
 40
-0.6
 41
-30.0
 62
     5
 63
     7
421
 16777215
 74
     1
 91
        4
 64
     7
 65
   257
 75
     1
175
     1
 42
1.0
 92
        8
 66
     7
 43
1.0
 76
     1
 77
     6
 78
     2
 67
     7
 79
     5
170
     0
171
     0
290
     0
174
     0
 93
        1
 44
-50.0
173
     0
291
     1
 45
0.0
1001
ACAD
1000
AcDbSavedByObjectVersion
1070
     0
  0
VISUALSTYLE
  5
41
102
{ACAD_XDICTIONARY
360
273
102
}
102
{ACAD_REACTORS
330
29
102
}
330
29
100
AcDbVisualStyle
  2

 70
    22
 71
     2
 72
     2
 73
     0
 90
        0
 40
-0.6
 41
-30.0
 62
     5
 63
     7
421
 16777215
 74
     1
 91
        4
 64
     7
 65
   257
 75
     1
175
     1
 42
1.0
 92
        8
 66
     7
 43
1.0
 76
     1
 77
     6
 78
     2
 67
     7
 79
     5
170
     0
171
     0
290
     0
174
     0
 93
        1
 44
0.0
173
     0
291
     1
 45
0.0
1001
ACAD
1000
AcDbSavedByObjectVersion
1070
     0
  0
VISUALSTYLE
  5
38
102
{ACAD_XDICTIONARY
360
261
102
}
102
{ACAD_REACTORS
330
29
102
}
330
29
100
AcDbVisualStyle
  2

 70
    15
 71
     2
 72
     2
 73
     0
 90
        0
 40
-0.6
 41
-30.0
 62
     5
 63
     7
421
 16777215
 74
     1
 91
        4
 64
     7
 65
   257
 75
     1
175
     1
 42
1.0
 92
        8
 66
     7
 43
1.0
 76
     1
 77
     6
 78
     2
 67
     7
 79
     5
170
     0
171
     0
290
     0
174
     0
 93
        1
 44
0.0
173
     0
291
     1
 45
0.0
1001
ACAD
1000
AcDbSavedByObjectVersion
1070
     0
  0
VISUALSTYLE
  5
2A
102
{ACAD_XDICTIONARY
360
245
102
}
102
{ACAD_REACTORS
330
29
102
}
330
29
100
AcDbVisualStyle
  2

 70
     0
 71
     2
 72
     1
 73
     1
 90
        2
 40
-0.6
 41
30.0
 62
     5
 63
     7
421
 16777215
 74
     0
 91
        0
 64
     7
 65
   257
 75
     1
175
     1
 42
1.0
 92
        8
 66
     7
 43
1.0
 76
     1
 77
     6
 78
     2
 67
     7
 79
     5
170
     0
171
     0
290
     0
174
     0
 93
       13
 44
0.0
173
     0
291
     1
 45
0.0
1001
ACAD
1000
AcDbSavedByObjectVersion
1070
     0
  0
VISUALSTYLE
  5
2B
102
{ACAD_XDICTIONARY
360
247
102
}
102
{ACAD_REACTORS
330
29
102
}
330
29
100
AcDbVisualStyle
  2

 70
     1
 71
     2
 72
     1
 73
     1
 90
        2
 40
-0.6
 41
30.0
 62
     5
 63
     7
421
 16777215
 74
     1
 91
        0
 64
     7
 65
   257
 75
     1
175
     1
 42
1.0
 92
        0
 66
   257
 43
1.0
 76
     1
 77
     6
 78
     2
 67
     7
 79
     5
170
     0
171
     0
290
     0
174
     0
 93
       13
 44
0.0
173
     0
291
     1
 45
0.0
1001
ACAD
1000
AcDbSavedByObjectVersion
1070
     0
  0
VISUALSTYLE
  5
2C
102
{ACAD_XDICTIONARY
360
249
102
}
102
{ACAD_REACTORS
330
29
102
}
330
29
100
AcDbVisualStyle
  2

 70
     2
 71
     2
 72
     2
 73
     1
 90
        2
 40
-0.6
 41
30.0
 62
     5
 63
     7
421
 16777215
 74
     0
 91
        0
 64
     7
 65
   257
 75
     1
175
     1
 42
1.0
 92
        0
 66
     7
 43
1.0
 76
     1
 77
     6
 78
     2
 67
     7
 79
     5
170
     0
171
     0
290
     0
174
     0
 93
       13
 44
0.0
173
     0
291
     1
 45
0.0
1001
ACAD
1000
AcDbSavedByObjectVersion
1070
     0
  0
VISUALSTYLE
  5
2D
102
{ACAD_XDICTIONARY
360
24B
102
}
102
{ACAD_REACTORS
330
29
102
}
330
29
100
AcDbVisualStyle
  2

 70
     3
 71
     2
 72
     2
 73
     1
 90
        2
 40
-0.6
 41
30.0
 62
     5
 63
     7
421
 16777215
 74
     1
 91
        0
 64
     7
 65
   257
 75
     1
175
     1
 42
1.0
 92
        0
 66
   257
 43
1.0
 76
     1
 77
     6
 78
     2
 67
     7
 79
     5
170
     0
171
     0
290
     0
174
     0
 93
       13
 44
0.0
173
     0
291
     1
 45
0.0
1001
ACAD
1000
AcDbSavedByObjectVersion
1070
     0
  0
VISUALSTYLE
  5
31
102
{ACAD_XDICTIONARY
360
253
102
}
102
{ACAD_REACTORS
330
29
102
}
330
29
100
AcDbVisualStyle
  2

 70
     6
 71
     1
 72
     2
 73
     2
 90
        0
 40
-0.6
 41
-30.0
 62
     5
 63
     7
421
 16777215
 74
     2
 91
        2
 64
     7
 65
   257
 75
     2
175
     1
 42
40.0
 92
        0
 66
   257
 43
1.0
 76
     1
 77
     6
 78
     2
 67
     7
 79
     3
170
     0
171
     0
290
     0
174
     0
 93
        1
 44
0.0
173
     0
291
     0
 45
0.0
1001
ACAD
1000
AcDbSavedByObjectVersion
1070
     0
  0
VISUALSTYLE
  5
3F
102
{ACAD_XDICTIONARY
360
26F
102
}
102
{ACAD_REACTORS
330
29
102
}
330
29
100
AcDbVisualStyle
  2

 70
    20
 71
     2
 72
     2
 73
     0
 90
        0
 40
-0.6
 41
-30.0
 62
     5
 63
     7
421
 16777215
 74
     1
 91
        4
 64
     7
 65
   257
 75
     1
175
     1
 42
1.0
 92
       10
 66
     7
 43
1.0
 76
     1
 77
     6
 78
     2
 67
     7
 79
     5
170
     0
171
     0
290
     0
174
     0
 93
        1
 44
0.0
173
     0
291
     1
 45
0.0
1001
ACAD
1000
AcDbSavedByObjectVersion
1070
     0
  0
VISUALSTYLE
  5
37
102
{ACAD_XDICTIONARY
360
25F
102
}
102
{ACAD_REACTORS
330
29
102
}
330
29
100
AcDbVisualStyle
  2

 70
    14
 71
     2
 72
     2
 73
     0
 90
        0
 40
-0.6
 41
-30.0
 62
     5
 63
     7
421
 16777215
 74
     1
 91
        4
 64
     7
 65
   257
 75
     7
175
     7
 42
1.0
 92
        8
 66
     7
 43
1.0
 76
     1
 77
     6
 78
     2
 67
     7
 79
     5
170
     0
171
     0
290
     0
174
     0
 93
        1
 44
0.0
173
     0
291
     1
 45
0.0
1001
ACAD
1000
AcDbSavedByObjectVersion
1070
     0
  0
VISUALSTYLE
  5
40
102
{ACAD_XDICTIONARY
360
271
102
}
102
{ACAD_REACTORS
330
29
102
}
330
29
100
AcDbVisualStyle
  2

 70
    21
 71
     2
 72
     2
 73
     0
 90
        0
 40
-0.6
 41
-30.0
 62
     5
 63
     7
421
 16777215
 74
     1
 91
        4
 64
     7
 65
   257
 75
     1
175
     1
 42
1.0
 92
        9
 66
     7
 43
1.0
 76
     1
 77
     6
 78
     2
 67
     7
 79
     5
170
     0
171
     0
290
     0
174
     0
 93
        1
 44
0.0
173
     0
291
     1
 45
0.0
1001
ACAD
1000
AcDbSavedByObjectVersion
1070
     0
  0
VISUALSTYLE
  5
33
102
{ACAD_XDICTIONARY
360
257
102
}
102
{ACAD_REACTORS
330
29
102
}
330
29
100
AcDbVisualStyle
  2

 70
     8
 71
     2
 72
     3
 73
     0
 90
        2
 40
-0.6
 41
30.0
 62
     5
 63
     7
421
 16777215
 74
     0
 91
        0
 64
     7
 65
   257
 75
     1
175
     1
 42
1.0
 92
        8
 66
   257
 43
1.0
 76
     1
 77
     6
 78
     2
 67
     7
 79
     3
170
     0
171
     0
290
     0
174
     0
 93
       13
 44
0.0
173
     0
291
     0
 45
0.0
1001
ACAD
1000
AcDbSavedByObjectVersion
1070
     0
  0
VISUALSTYLE
  5
3E
102
{ACAD_XDICTIONARY
360
26D
102
}
102
{ACAD_REACTORS
330
29
102
}
330
29
100
AcDbVisualStyle
  2

 70
    27
 71
     2
 72
     2
 73
     1
 90
        2
 40
-0.6
 41
30.0
 62
     5
 63
     7
421
 16777215
 74
     0
 91
        4
 64
     7
 65
   257
 75
     1
175
     1
 42
1.0
 92
        8
 66
   257
 43
1.0
 76
     1
 77
     6
 78
     2
 67
     8
425
  7895160
 79
     3
170
     0
171
     0
290
     0
174
     0
 93
        5
 44
0.0
173
     0
291
     0
 45
0.0
1001
ACAD
1000
AcDbSavedByObjectVersion
1070
     0
  0
VISUALSTYLE
  5
3D
102
{ACAD_XDICTIONARY
360
26B
102
}
102
{ACAD_REACTORS
330
29
102
}
330
29
100
AcDbVisualStyle
  2

 70
    26
 71
     2
 72
     2
 73
     1
 90
        2
 40
-0.6
 41
30.0
 62
     5
 63
     7
421
 16777215
 74
     1
 91
        2
 64
     7
 65
   257
 75
     2
175
     1
 42
1.0
 92
        8
 66
   257
 43
1.0
 76
     1
 77
     6
 78
     2
 67
     7
 79
     3
170
     0
171
     0
290
     0
174
     0
 93
        5
 44
0.0
173
     0
291
     0
 45
0.0
1001
ACAD
1000
AcDbSavedByObjectVersion
1070
     0
  0
VISUALSTYLE
  5
3A
102
{ACAD_XDICTIONARY
360
265
102
}
102
{ACAD_REACTORS
330
29
102
}
330
29
100
AcDbVisualStyle
  2

 70
    23
 71
     2
 72
     2
 73
     3
 90
        0
 40
-0.6
 41
-30.0
 62
     5
 63
     7
421
 16777215
 74
     2
 91
        2
 64
     7
 65
     7
 75
     1
175
     1
 42
40.0
 92
        8
 66
     7
 43
1.0
 76
     1
 77
     6
 78
     2
 67
     7
 79
     3
170
     0
171
     0
290
     0
174
     0
 93
        1
 44
0.0
173
     0
291
     0
 45
0.0
1001
ACAD
1000
AcDbSavedByObjectVersion
1070
     0
  0
VISUALSTYLE
  5
3B
102
{ACAD_XDICTIONARY
360
267
102
}
102
{ACAD_REACTORS
330
29
102
}
330
29
100
AcDbVisualStyle
  2

 70
    24
 71
     1
 72
     2
 73
     2
 90
        0
 40
-0.6
 41
-30.0
 62
     5
 63
     7
421
 16777215
 74
     2
 91
        2
 64
     7
 65
     7
 75
     1
175
     1
 42
40.0
 92
       11
 66
     7
 43
1.0
 76
     1
 77
     6
 78
     2
 67
     7
 79
     6
170
     0
171
     0
290
     0
174
     0
 93
        1
 44
0.0
173
     0
291
     0
 45
0.0
1001
ACAD
1000
AcDbSavedByObjectVersion
1070
     0
  0
VISUALSTYLE
  5
36
102
{ACAD_XDICTIONARY
360
25D
102
}
102
{ACAD_REACTORS
330
29
102
}
330
29
100
AcDbVisualStyle
  2

 70
    13
 71
     2
 72
     2
 73
     0
 90
        0
 40
-0.6
 41
-30.0
 62
     5
 63
     7
421
 16777215
 74
     1
 91
        4
 64
     7
 65
   257
 75
     1
175
     1
 42
1.0
 92
       12
 66
     7
 43
1.0
 76
     1
 77
     6
 78
     2
 67
     7
 79
     5
170
     0
171
     0
290
     0
174
     0
 93
        1
 44
0.0
173
     0
291
     1
 45
0.0
1001
ACAD
1000
AcDbSavedByObjectVersion
1070
     0
  0
VISUALSTYLE
  5
30
102
{ACAD_XDICTIONARY
360
251
102
}
102
{ACAD_REACTORS
330
29
102
}
330
29
100
AcDbVisualStyle
  2

 70
     5
 71
     0
 72
     2
 73
     0
 90
        0
 40
-0.6
 41
-30.0
 62
     5
 63
     7
421
 16777215
 74
     1
 91
        4
 64
     7
 65
   257
 75
     1
175
     1
 42
1.0
 92
        0
 66
   257
 43
1.0
 76
     1
 77
     6
 78
     2
 67
     7
 79
     3
170
     0
171
     0
290
     0
174
     0
 93
        1
 44
0.0
173
     0
291
     0
 45
0.0
1001
ACAD
1000
AcDbSavedByObjectVersion
1070
     0
  0
VISUALSTYLE
  5
3C
102
{ACAD_XDICTIONARY
360
269
102
}
102
{ACAD_REACTORS
330
29
102
}
330
29
100
AcDbVisualStyle
  2

 70
    25
 71
     2
 72
     2
 73
     1
 90
        1
 40
0.5
 41
-30.0
 62
     5
 63
     7
421
 16777215
 74
     1
 91
        0
 64
     7
 65
   257
 75
     1
175
     1
 42
1.0
 92
        8
 66
     7
 43
1.0
 76
     1
 77
     6
 78
     2
 67
     7
 79
     3
170
     0
171
     0
290
     0
174
     0
 93
       13
 44
0.0
173
     0
291
     0
 45
0.0
1001
ACAD
1000
AcDbSavedByObjectVersion
1070
     0
  0
DICTIONARYVAR
  5
131
102
{ACAD_REACTORS
330
12C
102
}
330
12C
100
DictionaryVariables
280
     0
  1
1:1
  0
DICTIONARYVAR
  5
12E
102
{ACAD_REACTORS
330
12C
102
}
330
12C
100
DictionaryVariables
280
     0
  1
STANDARD
  0
DICTIONARYVAR
  5
12D
102
{ACAD_REACTORS
330
12C
102
}
330
12C
100
DictionaryVariables
280
     0
  1
STANDARD
  0
DICTIONARYVAR
  5
12F
102
{ACAD_REACTORS
330
12C
102
}
330
12C
100
DictionaryVariables
280
     0
  1
Imperial24
  0
DICTIONARYVAR
  5
130
102
{ACAD_REACTORS
330
12C
102
}
330
12C
100
DictionaryVariables
280
     0
  1
Imperial24
  0
DICTIONARYVAR
  5
242
102
{ACAD_REACTORS
330
12C
102
}
330
12C
100
DictionaryVariables
280
     0
  1
2
  0
DICTIONARY
  5
279
330
6B
100
AcDbDictionary
280
     1
281
     1
  3
ACAD_XREC_ROUNDTRIP
360
27A
  0
DICTIONARY
  5
1A
330
19
100
AcDbDictionary
280
     1
281
     1
  3
BUMPTILE
360
1C
  3
DIFFUSETILE
360
1B
  3
OPACITYTILE
360
1F
  3
REFLECTIONTILE
360
1E
  3
REFRACTIONTILE
360
20
  3
SPECULARTILE
360
1D
  0
DICTIONARY
  5
12
330
11
100
AcDbDictionary
280
     1
281
     1
  3
BUMPTILE
360
14
  3
DIFFUSETILE
360
13
  3
OPACITYTILE
360
17
  3
REFLECTIONTILE
360
16
  3
REFRACTIONTILE
360
18
  3
SPECULARTILE
360
15
  0
DICTIONARY
  5
22
330
21
100
AcDbDictionary
280
     1
281
     1
  3
BUMPTILE
360
24
  3
DIFFUSETILE
360
23
  3
OPACITYTILE
360
27
  3
REFLECTIONTILE
360
26
  3
REFRACTIONTILE
360
28
  3
SPECULARTILE
360
25
  0
DICTIONARY
  5
275
330
67
100
AcDbDictionary
280
     1
281
     1
  3
ACAD_XREC_ROUNDTRIP
360
276
  0
DICTIONARY
  5
277
330
69
100
AcDbDictionary
280
     1
281
     1
  3
ACAD_XREC_ROUNDTRIP
360
278
  0
DICTIONARY
  5
132
330
65
100
AcDbDictionary
280
     1
281
     1
  3
ACAD_ROUNDTRIP_2008_TABLESTYLE_CELLSTYLEMAP
360
243
  0
DICTIONARY
  5
24F
330
2F
100
AcDbDictionary
280
     1
281
     1
  3
ACAD_XREC_ROUNDTRIP
360
250
  0
DICTIONARY
  5
24D
330
2E
100
AcDbDictionary
280
     1
281
     1
  3
ACAD_XREC_ROUNDTRIP
360
24E
  0
DICTIONARY
  5
25B
330
35
100
AcDbDictionary
280
     1
281
     1
  3
ACAD_XREC_ROUNDTRIP
360
25C
  0
DICTIONARY
  5
263
330
39
100
AcDbDictionary
280
     1
281
     1
  3
ACAD_XREC_ROUNDTRIP
360
264
  0
DICTIONARY
  5
255
330
32
100
AcDbDictionary
280
     1
281
     1
  3
ACAD_XREC_ROUNDTRIP
360
256
  0
DICTIONARY
  5
259
330
34
100
AcDbDictionary
280
     1
281
     1
  3
ACAD_XREC_ROUNDTRIP
360
25A
  0
DICTIONARY
  5
273
330
41
100
AcDbDictionary
280
     1
281
     1
  3
ACAD_XREC_ROUNDTRIP
360
274
  0
DICTIONARY
  5
261
330
38
100
AcDbDictionary
280
     1
281
     1
  3
ACAD_XREC_ROUNDTRIP
360
262
  0
DICTIONARY
  5
245
330
2A
100
AcDbDictionary
280
     1
281
     1
  3
ACAD_XREC_ROUNDTRIP
360
246
  0
DICTIONARY
  5
247
330
2B
100
AcDbDictionary
280
     1
281
     1
  3
ACAD_XREC_ROUNDTRIP
360
248
  0
DICTIONARY
  5
249
330
2C
100
AcDbDictionary
280
     1
281
     1
  3
ACAD_XREC_ROUNDTRIP
360
24A
  0
DICTIONARY
  5
24B
330
2D
100
AcDbDictionary
280
     1
281
     1
  3
ACAD_XREC_ROUNDTRIP
360
24C
  0
DICTIONARY
  5
253
330
31
100
AcDbDictionary
280
     1
281
     1
  3
ACAD_XREC_ROUNDTRIP
360
254
  0
DICTIONARY
  5
26F
330
3F
100
AcDbDictionary
280
     1
281
     1
  3
ACAD_XREC_ROUNDTRIP
360
270
  0
DICTIONARY
  5
25F
330
37
100
AcDbDictionary
280
     1
281
     1
  3
ACAD_XREC_ROUNDTRIP
360
260
  0
DICTIONARY
  5
271
330
40
100
AcDbDictionary
280
     1
281
     1
  3
ACAD_XREC_ROUNDTRIP
360
272
  0
DICTIONARY
  5
257
330
33
100
AcDbDictionary
280
     1
281
     1
  3
ACAD_XREC_ROUNDTRIP
360
258
  0
DICTIONARY
  5
26D
330
3E
100
AcDbDictionary
280
     1
281
     1
  3
ACAD_XREC_ROUNDTRIP
360
26E
  0
DICTIONARY
  5
26B
330
3D
100
AcDbDictionary
280
     1
281
     1
  3
ACAD_XREC_ROUNDTRIP
360
26C
  0
DICTIONARY
  5
265
330
3A
100
AcDbDictionary
280
     1
281
     1
  3
ACAD_XREC_ROUNDTRIP
360
266
  0
DICTIONARY
  5
267
330
3B
100
AcDbDictionary
280
     1
281
     1
  3
ACAD_XREC_ROUNDTRIP
360
268
  0
DICTIONARY
  5
25D
330
36
100
AcDbDictionary
280
     1
281
     1
  3
ACAD_XREC_ROUNDTRIP
360
25E
  0
DICTIONARY
  5
251
330
30
100
AcDbDictionary
280
     1
281
     1
  3
ACAD_XREC_ROUNDTRIP
360
252
  0
DICTIONARY
  5
269
330
3C
100
AcDbDictionary
280
     1
281
     1
  3
ACAD_XREC_ROUNDTRIP
360
26A
  0
XRECORD
  5
27A
102
{ACAD_REACTORS
330
279
102
}
330
279
100
AcDbXrecord
280
     1
102
DISPLAYNAME
  1
Imperial24
102
FLAGS
 90
        0
  0
XRECORD
  5
1C
102
{ACAD_REACTORS
330
1A
102
}
330
1A
100
AcDbXrecord
280
     1
270
     1
271
     1
  0
XRECORD
  5
1B
102
{ACAD_REACTORS
330
1A
102
}
330
1A
100
AcDbXrecord
280
     1
270
     1
271
     1
  0
XRECORD
  5
1F
102
{ACAD_REACTORS
330
1A
102
}
330
1A
100
AcDbXrecord
280
     1
270
     1
271
     1
  0
XRECORD
  5
1E
102
{ACAD_REACTORS
330
1A
102
}
330
1A
100
AcDbXrecord
280
     1
270
     1
271
     1
  0
XRECORD
  5
20
102
{ACAD_REACTORS
330
1A
102
}
330
1A
100
AcDbXrecord
280
     1
270
     1
271
     1
  0
XRECORD
  5
1D
102
{ACAD_REACTORS
330
1A
102
}
330
1A
100
AcDbXrecord
280
     1
270
     1
271
     1
  0
XRECORD
  5
14
102
{ACAD_REACTORS
330
12
102
}
330
12
100
AcDbXrecord
280
     1
270
     1
271
     1
  0
XRECORD
  5
13
102
{ACAD_REACTORS
330
12
102
}
330
12
100
AcDbXrecord
280
     1
270
     1
271
     1
  0
XRECORD
  5
17
102
{ACAD_REACTORS
330
12
102
}
330
12
100
AcDbXrecord
280
     1
270
     1
271
     1
  0
XRECORD
  5
16
102
{ACAD_REACTORS
330
12
102
}
330
12
100
AcDbXrecord
280
     1
270
     1
271
     1
  0
XRECORD
  5
18
102
{ACAD_REACTORS
330
12
102
}
330
12
100
AcDbXrecord
280
     1
270
     1
271
     1
  0
XRECORD
  5
15
102
{ACAD_REACTORS
330
12
102
}
330
12
100
AcDbXrecord
280
     1
270
     1
271
     1
  0
XRECORD
  5
24
102
{ACAD_REACTORS
330
22
102
}
330
22
100
AcDbXrecord
280
     1
270
     1
271
     1
  0
XRECORD
  5
23
102
{ACAD_REACTORS
330
22
102
}
330
22
100
AcDbXrecord
280
     1
270
     1
271
     1
  0
XRECORD
  5
27
102
{ACAD_REACTORS
330
22
102
}
330
22
100
AcDbXrecord
280
     1
270
     1
271
     1
  0
XRECORD
  5
26
102
{ACAD_REACTORS
330
22
102
}
330
22
100
AcDbXrecord
280
     1
270
     1
271
     1
  0
XRECORD
  5
28
102
{ACAD_REACTORS
330
22
102
}
330
22
100
AcDbXrecord
280
     1
270
     1
271
     1
  0
XRECORD
  5
25
102
{ACAD_REACTORS
330
22
102
}
330
22
100
AcDbXrecord
280
     1
270
     1
271
     1
  0
XRECORD
  5
276
102
{ACAD_REACTORS
330
275
102
}
330
275
100
AcDbXrecord
280
     1
102
ACAD_ROUNDTRIP_2012_MLEADER_STYLE
298
     1
  0
XRECORD
  5
278
102
{ACAD_REACTORS
330
277
102
}
330
277
100
AcDbXrecord
280
     1
102
DISPLAYNAME
  1
Imperial24
102
FLAGS
 90
        0
  0
CELLSTYLEMAP
  5
243
102
{ACAD_REACTORS
330
132
102
}
330
132
100
AcDbCellStyleMap
 90
        3
300
CELLSTYLE
  1
TABLEFORMAT_BEGIN
 90
        5
170
     1
 91
        0
 92
    32768
 62
   257
 93
        1
300
CONTENTFORMAT
  1
CONTENTFORMAT_BEGIN
 90
        0
 91
        0
 92
      512
 93
        0
300

 40
0.0
140
1.0
 94
        5
 62
     0
340
55
144
0.25
309
CONTENTFORMAT_END
171
     1
301
MARGIN
  1
CELLMARGIN_BEGIN
 40
0.06
 40
0.06
 40
0.06
 40
0.06
 40
0.18
 40
0.18
309
CELLMARGIN_END
 94
        6
 95
        1
302
GRIDFORMAT
  1
GRIDFORMAT_BEGIN
 90
        0
 91
        1
 62
     0
 92
       -2
340
0
 93
        0
 40
0.045
309
GRIDFORMAT_END
 95
        2
302
GRIDFORMAT
  1
GRIDFORMAT_BEGIN
 90
        0
 91
        1
 62
     0
 92
       -2
340
0
 93
        0
 40
0.045
309
GRIDFORMAT_END
 95
        4
302
GRIDFORMAT
  1
GRIDFORMAT_BEGIN
 90
        0
 91
        1
 62
     0
 92
       -2
340
0
 93
        0
 40
0.045
309
GRIDFORMAT_END
 95
        8
302
GRIDFORMAT
  1
GRIDFORMAT_BEGIN
 90
        0
 91
        1
 62
     0
 92
       -2
340
0
 93
        0
 40
0.045
309
GRIDFORMAT_END
 95
       16
302
GRIDFORMAT
  1
GRIDFORMAT_BEGIN
 90
        0
 91
        1
 62
     0
 92
       -2
340
0
 93
        0
 40
0.045
309
GRIDFORMAT_END
 95
       32
302
GRIDFORMAT
  1
GRIDFORMAT_BEGIN
 90
        0
 91
        1
 62
     0
 92
       -2
340
0
 93
        0
 40
0.045
309
GRIDFORMAT_END
309
TABLEFORMAT_END
  1
CELLSTYLE_BEGIN
 90
        1
 91
        1
300
_TITLE
309
CELLSTYLE_END
300
CELLSTYLE
  1
TABLEFORMAT_BEGIN
 90
        5
170
     1
 91
        0
 92
        0
 62
   257
 93
        1
300
CONTENTFORMAT
  1
CONTENTFORMAT_BEGIN
 90
        0
 91
        0
 92
      512
 93
        0
300

 40
0.0
140
1.0
 94
        5
 62
     0
340
55
144
0.18
309
CONTENTFORMAT_END
171
     1
301
MARGIN
  1
CELLMARGIN_BEGIN
 40
0.06
 40
0.06
 40
0.06
 40
0.06
 40
0.18
 40
0.18
309
CELLMARGIN_END
 94
        6
 95
        1
302
GRIDFORMAT
  1
GRIDFORMAT_BEGIN
 90
        0
 91
        1
 62
     0
 92
       -2
340
0
 93
        0
 40
0.045
309
GRIDFORMAT_END
 95
        2
302
GRIDFORMAT
  1
GRIDFORMAT_BEGIN
 90
        0
 91
        1
 62
     0
 92
       -2
340
0
 93
        0
 40
0.045
309
GRIDFORMAT_END
 95
        4
302
GRIDFORMAT
  1
GRIDFORMAT_BEGIN
 90
        0
 91
        1
 62
     0
 92
       -2
340
0
 93
        0
 40
0.045
309
GRIDFORMAT_END
 95
        8
302
GRIDFORMAT
  1
GRIDFORMAT_BEGIN
 90
        0
 91
        1
 62
     0
 92
       -2
340
0
 93
        0
 40
0.045
309
GRIDFORMAT_END
 95
       16
302
GRIDFORMAT
  1
GRIDFORMAT_BEGIN
 90
        0
 91
        1
 62
     0
 92
       -2
340
0
 93
        0
 40
0.045
309
GRIDFORMAT_END
 95
       32
302
GRIDFORMAT
  1
GRIDFORMAT_BEGIN
 90
        0
 91
        1
 62
     0
 92
       -2
340
0
 93
        0
 40
0.045
309
GRIDFORMAT_END
309
TABLEFORMAT_END
  1
CELLSTYLE_BEGIN
 90
        2
 91
        1
300
_HEADER
309
CELLSTYLE_END
300
CELLSTYLE
  1
TABLEFORMAT_BEGIN
 90
        5
170
     1
 91
        0
 92
        0
 62
   257
 93
        1
300
CONTENTFORMAT
  1
CONTENTFORMAT_BEGIN
 90
        0
 91
        0
 92
      512
 93
        0
300

 40
0.0
140
1.0
 94
        2
 62
     0
340
55
144
0.18
309
CONTENTFORMAT_END
171
     1
301
MARGIN
  1
CELLMARGIN_BEGIN
 40
0.06
 40
0.06
 40
0.06
 40
0.06
 40
0.18
 40
0.18
309
CELLMARGIN_END
 94
        6
 95
        1
302
GRIDFORMAT
  1
GRIDFORMAT_BEGIN
 90
        0
 91
        1
 62
     0
 92
       -2
340
0
 93
        0
 40
0.045
309
GRIDFORMAT_END
 95
        2
302
GRIDFORMAT
  1
GRIDFORMAT_BEGIN
 90
        0
 91
        1
 62
     0
 92
       -2
340
0
 93
        0
 40
0.045
309
GRIDFORMAT_END
 95
        4
302
GRIDFORMAT
  1
GRIDFORMAT_BEGIN
 90
        0
 91
        1
 62
     0
 92
       -2
340
0
 93
        0
 40
0.045
309
GRIDFORMAT_END
 95
        8
302
GRIDFORMAT
  1
GRIDFORMAT_BEGIN
 90
        0
 91
        1
 62
     0
 92
       -2
340
0
 93
        0
 40
0.045
309
GRIDFORMAT_END
 95
       16
302
GRIDFORMAT
  1
GRIDFORMAT_BEGIN
 90
        0
 91
        1
 62
     0
 92
       -2
340
0
 93
        0
 40
0.045
309
GRIDFORMAT_END
 95
       32
302
GRIDFORMAT
  1
GRIDFORMAT_BEGIN
 90
        0
 91
        1
 62
     0
 92
       -2
340
0
 93
        0
 40
0.045
309
GRIDFORMAT_END
309
TABLEFORMAT_END
  1
CELLSTYLE_BEGIN
 90
        3
 91
        2
300
_DATA
309
CELLSTYLE_END
  0
XRECORD
  5
250
102
{ACAD_REACTORS
330
24F
102
}
330
24F
100
AcDbXrecord
280
     1
102
RTVSPost2010Prop28
280
     1
102
RTVSPost2010PropOp28
 70
     1
102
RTVSPost2010Prop29
280
     1
102
RTVSPost2010PropOp29
 70
     1
102
RTVSPost2010Prop30
280
     0
102
RTVSPost2010PropOp30
 70
     1
102
RTVSPost2010Prop31
280
     0
102
RTVSPost2010PropOp31
 70
     1
102
RTVSPost2010Prop32
280
     0
102
RTVSPost2010PropOp32
 70
     1
102
RTVSPost2010Prop33
280
     0
102
RTVSPost2010PropOp33
 70
     1
102
RTVSPost2010Prop34
280
     0
102
RTVSPost2010PropOp34
 70
     1
102
RTVSPost2010Prop35
280
     0
102
RTVSPost2010PropOp35
 70
     1
102
RTVSPost2010Prop36
280
     0
102
RTVSPost2010PropOp36
 70
     1
102
RTVSPost2010Prop37
 90
       50
102
RTVSPost2010PropOp37
 70
     1
102
RTVSPost2010Prop38
140
0.0
102
RTVSPost2010PropOp38
 70
     1
102
RTVSPost2010Prop39
140
1.0
102
RTVSPost2010PropOp39
 70
     1
102
RTVSPost2010Prop40
 90
        0
102
RTVSPost2010PropOp40
 70
     1
102
RTVSPost2010Prop41ColorIndex
 90
       18
102
RTVSPost2010Prop41ColorRGB
 90
        0
102
RTVSPost2010PropOp41
 70
     1
102
RTVSPost2010Prop42
 90
       50
102
RTVSPost2010PropOp42
 70
     1
102
RTVSPost2010Prop43
 90
        3
102
RTVSPost2010PropOp43
 70
     1
102
RTVSPost2010Prop44ColorIndex
 90
        5
102
RTVSPost2010Prop44ColorRGB
 90
      255
102
RTVSPost2010PropOp44
 70
     1
102
RTVSPost2010Prop45
280
     0
102
RTVSPost2010PropOp45
 70
     1
102
RTVSPost2010Prop46
 90
       50
102
RTVSPost2010PropOp46
 70
     1
102
RTVSPost2010Prop47
 90
       50
102
RTVSPost2010PropOp47
 70
     1
102
RTVSPost2010Prop48
 90
       50
102
RTVSPost2010PropOp48
 70
     1
102
RTVSPost2010Prop49
280
     0
102
RTVSPost2010PropOp49
 70
     1
102
RTVSPost2010Prop50
 90
       50
102
RTVSPost2010PropOp50
 70
     1
102
RTVSPost2010Prop51ColorIndex
 90
      256
102
RTVSPost2010Prop51ColorRGB
 90
-16777216
102
RTVSPost2010PropOp51
 70
     0
102
RTVSPost2010Prop52
140
1.0
102
RTVSPost2010PropOp52
 70
     0
102
RTVSPost2010Prop53
 90
        2
102
RTVSPost2010PropOp53
 70
     1
102
RTVSPost2010Prop54
  1
strokes_ogs.tif
102
RTVSPost2010PropOp54
 70
     1
102
RTVSPost2010Prop55
280
     0
102
RTVSPost2010PropOp55
 70
     1
102
RTVSPost2010Prop56
140
1.0
102
RTVSPost2010PropOp56
 70
     1
102
RTVSPost2010Prop57
140
1.0
102
RTVSPost2010PropOp57
 70
     1
102
RTVSPropertyOp0
 70
     1
102
RTVSPropertyOp1
 70
     1
102
RTVSPropertyOp2
 70
     1
102
RTVSPropertyOp3
 70
     1
102
RTVSPropertyOp4
 70
     1
102
RTVSPropertyOp5
 70
     1
102
RTVSPropertyOp6
 70
     1
102
RTVSPropertyOp7
 70
     1
102
RTVSPropertyOp8
 70
     1
102
RTVSPropertyOp9
 70
     1
102
RTVSPropertyOp10
 70
     1
102
RTVSPropertyOp11
 70
     1
102
RTVSPropertyOp12
 70
     1
102
RTVSPropertyOp13
 70
     1
102
RTVSPropertyOp14
 70
     1
102
RTVSPropertyOp15
 70
     1
102
RTVSPropertyOp16
 70
     1
102
RTVSPropertyOp17
 70
     1
102
RTVSPropertyOp18
 70
     1
102
RTVSPropertyOp19
 70
     1
102
RTVSPropertyOp20
 70
     1
102
RTVSPropertyOp21
 70
     1
102
RTVSPropertyOp22
 70
     1
102
RTVSPropertyOp23
 70
     1
102
RTVSPropertyOp24
 70
     1
102
RTVSPropertyOp25
 70
     1
102
RTVSPropertyOp26
 70
     1
102
RTVSPropertyOp27
 70
     1
102
RTVSPropertyOp28
 70
     1
102
RTVSPropertyOp29
 70
     1
102
RTVSPropertyOp30
 70
     1
102
RTVSPropertyOp31
 70
     1
102
RTVSPropertyOp32
 70
     1
102
RTVSPropertyOp33
 70
     1
102
RTVSPropertyOp34
 70
     1
102
RTVSPropertyOp35
 70
     1
102
RTVSPropertyOp36
 70
     1
102
RTVSPropertyOp37
 70
     1
102
RTVSPropertyOp38
 70
     1
102
RTVSPropertyOp39
 70
     1
102
RTVSPropertyOp40
 70
     1
102
RTVSPropertyOp41
 70
     1
102
RTVSPropertyOp42
 70
     1
102
RTVSPropertyOp43
 70
     1
102
RTVSPropertyOp44
 70
     1
102
RTVSPropertyOp45
 70
     1
102
RTVSPropertyOp46
 70
     1
102
RTVSPropertyOp47
 70
     1
102
RTVSPropertyOp48
 70
     1
102
RTVSPropertyOp49
 70
     1
102
RTVSPropertyOp50
 70
     1
102
RTVSPropertyOp51
 70
     0
102
RTVSPropertyOp52
 70
     0
102
RTVSPropertyOp53
 70
     1
102
RTVSPropertyOp54
 70
     1
102
RTVSPropertyOp55
 70
     1
102
RTVSPropertyOp56
 70
     1
102
RTVSPropertyOp57
 70
     1
102
RTVSPropertyOp58
 70
     1
102
RTVSPropertyOp59
 70
     1
102
RTVSPropertyOp60
 70
     1
102
RTVSPropertyOp61
 70
     1
102
RTVSPropertyOp62
 70
     1
  0
XRECORD
  5
24E
102
{ACAD_REACTORS
330
24D
102
}
330
24D
100
AcDbXrecord
280
     1
102
RTVSPost2010Prop28
280
     0
102
RTVSPost2010PropOp28
 70
     1
102
RTVSPost2010Prop29
280
     1
102
RTVSPost2010PropOp29
 70
     1
102
RTVSPost2010Prop30
280
     1
102
RTVSPost2010PropOp30
 70
     1
102
RTVSPost2010Prop31
280
     0
102
RTVSPost2010PropOp31
 70
     1
102
RTVSPost2010Prop32
280
     0
102
RTVSPost2010PropOp32
 70
     1
102
RTVSPost2010Prop33
280
     0
102
RTVSPost2010PropOp33
 70
     1
102
RTVSPost2010Prop34
280
     0
102
RTVSPost2010PropOp34
 70
     1
102
RTVSPost2010Prop35
280
     0
102
RTVSPost2010PropOp35
 70
     1
102
RTVSPost2010Prop36
280
     0
102
RTVSPost2010PropOp36
 70
     1
102
RTVSPost2010Prop37
 90
       50
102
RTVSPost2010PropOp37
 70
     1
102
RTVSPost2010Prop38
140
0.0
102
RTVSPost2010PropOp38
 70
     1
102
RTVSPost2010Prop39
140
1.0
102
RTVSPost2010PropOp39
 70
     1
102
RTVSPost2010Prop40
 90
        0
102
RTVSPost2010PropOp40
 70
     1
102
RTVSPost2010Prop41ColorIndex
 90
       18
102
RTVSPost2010Prop41ColorRGB
 90
        0
102
RTVSPost2010PropOp41
 70
     1
102
RTVSPost2010Prop42
 90
       50
102
RTVSPost2010PropOp42
 70
     1
102
RTVSPost2010Prop43
 90
        3
102
RTVSPost2010PropOp43
 70
     1
102
RTVSPost2010Prop44ColorIndex
 90
        5
102
RTVSPost2010Prop44ColorRGB
 90
      255
102
RTVSPost2010PropOp44
 70
     1
102
RTVSPost2010Prop45
280
     0
102
RTVSPost2010PropOp45
 70
     1
102
RTVSPost2010Prop46
 90
       50
102
RTVSPost2010PropOp46
 70
     1
102
RTVSPost2010Prop47
 90
       50
102
RTVSPost2010PropOp47
 70
     1
102
RTVSPost2010Prop48
 90
       50
102
RTVSPost2010PropOp48
 70
     1
102
RTVSPost2010Prop49
280
     0
102
RTVSPost2010PropOp49
 70
     1
102
RTVSPost2010Prop50
 90
       50
102
RTVSPost2010PropOp50
 70
     1
102
RTVSPost2010Prop51ColorIndex
 90
      256
102
RTVSPost2010Prop51ColorRGB
 90
-16777216
102
RTVSPost2010PropOp51
 70
     0
102
RTVSPost2010Prop52
140
1.0
102
RTVSPost2010PropOp52
 70
     0
102
RTVSPost2010Prop53
 90
        2
102
RTVSPost2010PropOp53
 70
     1
102
RTVSPost2010Prop54
  1
strokes_ogs.tif
102
RTVSPost2010PropOp54
 70
     1
102
RTVSPost2010Prop55
280
     0
102
RTVSPost2010PropOp55
 70
     1
102
RTVSPost2010Prop56
140
1.0
102
RTVSPost2010PropOp56
 70
     1
102
RTVSPost2010Prop57
140
1.0
102
RTVSPost2010PropOp57
 70
     1
102
RTVSPropertyOp0
 70
     1
102
RTVSPropertyOp1
 70
     1
102
RTVSPropertyOp2
 70
     1
102
RTVSPropertyOp3
 70
     1
102
RTVSPropertyOp4
 70
     1
102
RTVSPropertyOp5
 70
     1
102
RTVSPropertyOp6
 70
     1
102
RTVSPropertyOp7
 70
     1
102
RTVSPropertyOp8
 70
     1
102
RTVSPropertyOp9
 70
     1
102
RTVSPropertyOp10
 70
     1
102
RTVSPropertyOp11
 70
     1
102
RTVSPropertyOp12
 70
     1
102
RTVSPropertyOp13
 70
     1
102
RTVSPropertyOp14
 70
     1
102
RTVSPropertyOp15
 70
     1
102
RTVSPropertyOp16
 70
     1
102
RTVSPropertyOp17
 70
     1
102
RTVSPropertyOp18
 70
     1
102
RTVSPropertyOp19
 70
     1
102
RTVSPropertyOp20
 70
     1
102
RTVSPropertyOp21
 70
     1
102
RTVSPropertyOp22
 70
     1
102
RTVSPropertyOp23
 70
     1
102
RTVSPropertyOp24
 70
     1
102
RTVSPropertyOp25
 70
     1
102
RTVSPropertyOp26
 70
     1
102
RTVSPropertyOp27
 70
     1
102
RTVSPropertyOp28
 70
     1
102
RTVSPropertyOp29
 70
     1
102
RTVSPropertyOp30
 70
     1
102
RTVSPropertyOp31
 70
     1
102
RTVSPropertyOp32
 70
     1
102
RTVSPropertyOp33
 70
     1
102
RTVSPropertyOp34
 70
     1
102
RTVSPropertyOp35
 70
     1
102
RTVSPropertyOp36
 70
     1
102
RTVSPropertyOp37
 70
     1
102
RTVSPropertyOp38
 70
     1
102
RTVSPropertyOp39
 70
     1
102
RTVSPropertyOp40
 70
     1
102
RTVSPropertyOp41
 70
     1
102
RTVSPropertyOp42
 70
     1
102
RTVSPropertyOp43
 70
     1
102
RTVSPropertyOp44
 70
     1
102
RTVSPropertyOp45
 70
     1
102
RTVSPropertyOp46
 70
     1
102
RTVSPropertyOp47
 70
     1
102
RTVSPropertyOp48
 70
     1
102
RTVSPropertyOp49
 70
     1
102
RTVSPropertyOp50
 70
     1
102
RTVSPropertyOp51
 70
     0
102
RTVSPropertyOp52
 70
     0
102
RTVSPropertyOp53
 70
     1
102
RTVSPropertyOp54
 70
     1
102
RTVSPropertyOp55
 70
     1
102
RTVSPropertyOp56
 70
     1
102
RTVSPropertyOp57
 70
     1
102
RTVSPropertyOp58
 70
     1
102
RTVSPropertyOp59
 70
     1
102
RTVSPropertyOp60
 70
     1
102
RTVSPropertyOp61
 70
     1
102
RTVSPropertyOp62
 70
     1
  0
XRECORD
  5
25C
102
{ACAD_REACTORS
330
25B
102
}
330
25B
100
AcDbXrecord
280
     1
102
RTVSPost2010Prop28
280
     0
102
RTVSPost2010PropOp28
 70
     1
102
RTVSPost2010Prop29
280
     1
102
RTVSPost2010PropOp29
 70
     1
102
RTVSPost2010Prop30
280
     1
102
RTVSPost2010PropOp30
 70
     1
102
RTVSPost2010Prop31
280
     0
102
RTVSPost2010PropOp31
 70
     1
102
RTVSPost2010Prop32
280
     0
102
RTVSPost2010PropOp32
 70
     1
102
RTVSPost2010Prop33
280
     0
102
RTVSPost2010PropOp33
 70
     1
102
RTVSPost2010Prop34
280
     0
102
RTVSPost2010PropOp34
 70
     1
102
RTVSPost2010Prop35
280
     0
102
RTVSPost2010PropOp35
 70
     1
102
RTVSPost2010Prop36
280
     0
102
RTVSPost2010PropOp36
 70
     1
102
RTVSPost2010Prop37
 90
       50
102
RTVSPost2010PropOp37
 70
     1
102
RTVSPost2010Prop38
140
0.0
102
RTVSPost2010PropOp38
 70
     1
102
RTVSPost2010Prop39
140
1.0
102
RTVSPost2010PropOp39
 70
     1
102
RTVSPost2010Prop40
 90
        0
102
RTVSPost2010PropOp40
 70
     1
102
RTVSPost2010Prop41ColorIndex
 90
       18
102
RTVSPost2010Prop41ColorRGB
 90
        0
102
RTVSPost2010PropOp41
 70
     1
102
RTVSPost2010Prop42
 90
       50
102
RTVSPost2010PropOp42
 70
     1
102
RTVSPost2010Prop43
 90
        3
102
RTVSPost2010PropOp43
 70
     1
102
RTVSPost2010Prop44ColorIndex
 90
        5
102
RTVSPost2010Prop44ColorRGB
 90
      255
102
RTVSPost2010PropOp44
 70
     1
102
RTVSPost2010Prop45
280
     0
102
RTVSPost2010PropOp45
 70
     1
102
RTVSPost2010Prop46
 90
       50
102
RTVSPost2010PropOp46
 70
     1
102
RTVSPost2010Prop47
 90
       50
102
RTVSPost2010PropOp47
 70
     1
102
RTVSPost2010Prop48
 90
       50
102
RTVSPost2010PropOp48
 70
     1
102
RTVSPost2010Prop49
280
     0
102
RTVSPost2010PropOp49
 70
     1
102
RTVSPost2010Prop50
 90
       50
102
RTVSPost2010PropOp50
 70
     1
102
RTVSPost2010Prop51ColorIndex
 90
      256
102
RTVSPost2010Prop51ColorRGB
 90
-16777216
102
RTVSPost2010PropOp51
 70
     0
102
RTVSPost2010Prop52
140
1.0
102
RTVSPost2010PropOp52
 70
     0
102
RTVSPost2010Prop53
 90
        2
102
RTVSPost2010PropOp53
 70
     1
102
RTVSPost2010Prop54
  1
strokes_ogs.tif
102
RTVSPost2010PropOp54
 70
     1
102
RTVSPost2010Prop55
280
     0
102
RTVSPost2010PropOp55
 70
     1
102
RTVSPost2010Prop56
140
1.0
102
RTVSPost2010PropOp56
 70
     1
102
RTVSPost2010Prop57
140
1.0
102
RTVSPost2010PropOp57
 70
     1
102
RTVSPropertyOp0
 70
     1
102
RTVSPropertyOp1
 70
     1
102
RTVSPropertyOp2
 70
     1
102
RTVSPropertyOp3
 70
     1
102
RTVSPropertyOp4
 70
     1
102
RTVSPropertyOp5
 70
     1
102
RTVSPropertyOp6
 70
     1
102
RTVSPropertyOp7
 70
     1
102
RTVSPropertyOp8
 70
     1
102
RTVSPropertyOp9
 70
     1
102
RTVSPropertyOp10
 70
     1
102
RTVSPropertyOp11
 70
     1
102
RTVSPropertyOp12
 70
     1
102
RTVSPropertyOp13
 70
     1
102
RTVSPropertyOp14
 70
     1
102
RTVSPropertyOp15
 70
     1
102
RTVSPropertyOp16
 70
     1
102
RTVSPropertyOp17
 70
     1
102
RTVSPropertyOp18
 70
     1
102
RTVSPropertyOp19
 70
     1
102
RTVSPropertyOp20
 70
     1
102
RTVSPropertyOp21
 70
     1
102
RTVSPropertyOp22
 70
     1
102
RTVSPropertyOp23
 70
     1
102
RTVSPropertyOp24
 70
     1
102
RTVSPropertyOp25
 70
     1
102
RTVSPropertyOp26
 70
     1
102
RTVSPropertyOp27
 70
     1
102
RTVSPropertyOp28
 70
     1
102
RTVSPropertyOp29
 70
     1
102
RTVSPropertyOp30
 70
     1
102
RTVSPropertyOp31
 70
     1
102
RTVSPropertyOp32
 70
     1
102
RTVSPropertyOp33
 70
     1
102
RTVSPropertyOp34
 70
     1
102
RTVSPropertyOp35
 70
     1
102
RTVSPropertyOp36
 70
     1
102
RTVSPropertyOp37
 70
     1
102
RTVSPropertyOp38
 70
     1
102
RTVSPropertyOp39
 70
     1
102
RTVSPropertyOp40
 70
     1
102
RTVSPropertyOp41
 70
     1
102
RTVSPropertyOp42
 70
     1
102
RTVSPropertyOp43
 70
     1
102
RTVSPropertyOp44
 70
     1
102
RTVSPropertyOp45
 70
     1
102
RTVSPropertyOp46
 70
     1
102
RTVSPropertyOp47
 70
     1
102
RTVSPropertyOp48
 70
     1
102
RTVSPropertyOp49
 70
     1
102
RTVSPropertyOp50
 70
     1
102
RTVSPropertyOp51
 70
     0
102
RTVSPropertyOp52
 70
     0
102
RTVSPropertyOp53
 70
     1
102
RTVSPropertyOp54
 70
     1
102
RTVSPropertyOp55
 70
     1
102
RTVSPropertyOp56
 70
     1
102
RTVSPropertyOp57
 70
     1
102
RTVSPropertyOp58
 70
     1
102
RTVSPropertyOp59
 70
     1
102
RTVSPropertyOp60
 70
     1
102
RTVSPropertyOp61
 70
     1
102
RTVSPropertyOp62
 70
     1
  0
XRECORD
  5
264
102
{ACAD_REACTORS
330
263
102
}
330
263
100
AcDbXrecord
280
     1
102
RTVSPost2010Prop28
280
     0
102
RTVSPost2010PropOp28
 70
     1
102
RTVSPost2010Prop29
280
     1
102
RTVSPost2010PropOp29
 70
     1
102
RTVSPost2010Prop30
280
     1
102
RTVSPost2010PropOp30
 70
     1
102
RTVSPost2010Prop31
280
     0
102
RTVSPost2010PropOp31
 70
     1
102
RTVSPost2010Prop32
280
     0
102
RTVSPost2010PropOp32
 70
     1
102
RTVSPost2010Prop33
280
     0
102
RTVSPost2010PropOp33
 70
     1
102
RTVSPost2010Prop34
280
     0
102
RTVSPost2010PropOp34
 70
     1
102
RTVSPost2010Prop35
280
     0
102
RTVSPost2010PropOp35
 70
     1
102
RTVSPost2010Prop36
280
     0
102
RTVSPost2010PropOp36
 70
     1
102
RTVSPost2010Prop37
 90
       50
102
RTVSPost2010PropOp37
 70
     1
102
RTVSPost2010Prop38
140
0.0
102
RTVSPost2010PropOp38
 70
     1
102
RTVSPost2010Prop39
140
1.0
102
RTVSPost2010PropOp39
 70
     1
102
RTVSPost2010Prop40
 90
        0
102
RTVSPost2010PropOp40
 70
     1
102
RTVSPost2010Prop41ColorIndex
 90
       18
102
RTVSPost2010Prop41ColorRGB
 90
        0
102
RTVSPost2010PropOp41
 70
     1
102
RTVSPost2010Prop42
 90
       50
102
RTVSPost2010PropOp42
 70
     1
102
RTVSPost2010Prop43
 90
        3
102
RTVSPost2010PropOp43
 70
     1
102
RTVSPost2010Prop44ColorIndex
 90
        5
102
RTVSPost2010Prop44ColorRGB
 90
      255
102
RTVSPost2010PropOp44
 70
     1
102
RTVSPost2010Prop45
280
     0
102
RTVSPost2010PropOp45
 70
     1
102
RTVSPost2010Prop46
 90
       50
102
RTVSPost2010PropOp46
 70
     1
102
RTVSPost2010Prop47
 90
       50
102
RTVSPost2010PropOp47
 70
     1
102
RTVSPost2010Prop48
 90
       50
102
RTVSPost2010PropOp48
 70
     1
102
RTVSPost2010Prop49
280
     0
102
RTVSPost2010PropOp49
 70
     1
102
RTVSPost2010Prop50
 90
       50
102
RTVSPost2010PropOp50
 70
     1
102
RTVSPost2010Prop51ColorIndex
 90
      256
102
RTVSPost2010Prop51ColorRGB
 90
-16777216
102
RTVSPost2010PropOp51
 70
     0
102
RTVSPost2010Prop52
140
1.0
102
RTVSPost2010PropOp52
 70
     0
102
RTVSPost2010Prop53
 90
        2
102
RTVSPost2010PropOp53
 70
     1
102
RTVSPost2010Prop54
  1
strokes_ogs.tif
102
RTVSPost2010PropOp54
 70
     1
102
RTVSPost2010Prop55
280
     0
102
RTVSPost2010PropOp55
 70
     1
102
RTVSPost2010Prop56
140
1.0
102
RTVSPost2010PropOp56
 70
     1
102
RTVSPost2010Prop57
140
1.0
102
RTVSPost2010PropOp57
 70
     1
102
RTVSPropertyOp0
 70
     1
102
RTVSPropertyOp1
 70
     1
102
RTVSPropertyOp2
 70
     1
102
RTVSPropertyOp3
 70
     1
102
RTVSPropertyOp4
 70
     1
102
RTVSPropertyOp5
 70
     1
102
RTVSPropertyOp6
 70
     1
102
RTVSPropertyOp7
 70
     1
102
RTVSPropertyOp8
 70
     1
102
RTVSPropertyOp9
 70
     1
102
RTVSPropertyOp10
 70
     1
102
RTVSPropertyOp11
 70
     1
102
RTVSPropertyOp12
 70
     1
102
RTVSPropertyOp13
 70
     1
102
RTVSPropertyOp14
 70
     1
102
RTVSPropertyOp15
 70
     1
102
RTVSPropertyOp16
 70
     1
102
RTVSPropertyOp17
 70
     1
102
RTVSPropertyOp18
 70
     1
102
RTVSPropertyOp19
 70
     1
102
RTVSPropertyOp20
 70
     1
102
RTVSPropertyOp21
 70
     1
102
RTVSPropertyOp22
 70
     1
102
RTVSPropertyOp23
 70
     1
102
RTVSPropertyOp24
 70
     1
102
RTVSPropertyOp25
 70
     1
102
RTVSPropertyOp26
 70
     1
102
RTVSPropertyOp27
 70
     1
102
RTVSPropertyOp28
 70
     1
102
RTVSPropertyOp29
 70
     1
102
RTVSPropertyOp30
 70
     1
102
RTVSPropertyOp31
 70
     1
102
RTVSPropertyOp32
 70
     1
102
RTVSPropertyOp33
 70
     1
102
RTVSPropertyOp34
 70
     1
102
RTVSPropertyOp35
 70
     1
102
RTVSPropertyOp36
 70
     1
102
RTVSPropertyOp37
 70
     1
102
RTVSPropertyOp38
 70
     1
102
RTVSPropertyOp39
 70
     1
102
RTVSPropertyOp40
 70
     1
102
RTVSPropertyOp41
 70
     1
102
RTVSPropertyOp42
 70
     1
102
RTVSPropertyOp43
 70
     1
102
RTVSPropertyOp44
 70
     1
102
RTVSPropertyOp45
 70
     1
102
RTVSPropertyOp46
 70
     1
102
RTVSPropertyOp47
 70
     1
102
RTVSPropertyOp48
 70
     1
102
RTVSPropertyOp49
 70
     1
102
RTVSPropertyOp50
 70
     1
102
RTVSPropertyOp51
 70
     0
102
RTVSPropertyOp52
 70
     0
102
RTVSPropertyOp53
 70
     1
102
RTVSPropertyOp54
 70
     1
102
RTVSPropertyOp55
 70
     1
102
RTVSPropertyOp56
 70
     1
102
RTVSPropertyOp57
 70
     1
102
RTVSPropertyOp58
 70
     1
102
RTVSPropertyOp59
 70
     1
102
RTVSPropertyOp60
 70
     1
102
RTVSPropertyOp61
 70
     1
102
RTVSPropertyOp62
 70
     1
  0
XRECORD
  5
256
102
{ACAD_REACTORS
330
255
102
}
330
255
100
AcDbXrecord
280
     1
102
RTVSPost2010Prop28
280
     0
102
RTVSPost2010PropOp28
 70
     1
102
RTVSPost2010Prop29
280
     1
102
RTVSPost2010PropOp29
 70
     1
102
RTVSPost2010Prop30
280
     1
102
RTVSPost2010PropOp30
 70
     1
102
RTVSPost2010Prop31
280
     0
102
RTVSPost2010PropOp31
 70
     1
102
RTVSPost2010Prop32
280
     0
102
RTVSPost2010PropOp32
 70
     1
102
RTVSPost2010Prop33
280
     0
102
RTVSPost2010PropOp33
 70
     1
102
RTVSPost2010Prop34
280
     0
102
RTVSPost2010PropOp34
 70
     1
102
RTVSPost2010Prop35
280
     0
102
RTVSPost2010PropOp35
 70
     1
102
RTVSPost2010Prop36
280
     0
102
RTVSPost2010PropOp36
 70
     1
102
RTVSPost2010Prop37
 90
       50
102
RTVSPost2010PropOp37
 70
     1
102
RTVSPost2010Prop38
140
0.0
102
RTVSPost2010PropOp38
 70
     1
102
RTVSPost2010Prop39
140
1.0
102
RTVSPost2010PropOp39
 70
     1
102
RTVSPost2010Prop40
 90
        0
102
RTVSPost2010PropOp40
 70
     1
102
RTVSPost2010Prop41ColorIndex
 90
       18
102
RTVSPost2010Prop41ColorRGB
 90
        0
102
RTVSPost2010PropOp41
 70
     1
102
RTVSPost2010Prop42
 90
       50
102
RTVSPost2010PropOp42
 70
     1
102
RTVSPost2010Prop43
 90
        3
102
RTVSPost2010PropOp43
 70
     1
102
RTVSPost2010Prop44ColorIndex
 90
        5
102
RTVSPost2010Prop44ColorRGB
 90
      255
102
RTVSPost2010PropOp44
 70
     1
102
RTVSPost2010Prop45
280
     0
102
RTVSPost2010PropOp45
 70
     1
102
RTVSPost2010Prop46
 90
       50
102
RTVSPost2010PropOp46
 70
     1
102
RTVSPost2010Prop47
 90
       50
102
RTVSPost2010PropOp47
 70
     1
102
RTVSPost2010Prop48
 90
       50
102
RTVSPost2010PropOp48
 70
     1
102
RTVSPost2010Prop49
280
     0
102
RTVSPost2010PropOp49
 70
     1
102
RTVSPost2010Prop50
 90
       50
102
RTVSPost2010PropOp50
 70
     1
102
RTVSPost2010Prop51ColorIndex
 90
      256
102
RTVSPost2010Prop51ColorRGB
 90
-16777216
102
RTVSPost2010PropOp51
 70
     0
102
RTVSPost2010Prop52
140
1.0
102
RTVSPost2010PropOp52
 70
     0
102
RTVSPost2010Prop53
 90
        2
102
RTVSPost2010PropOp53
 70
     1
102
RTVSPost2010Prop54
  1
strokes_ogs.tif
102
RTVSPost2010PropOp54
 70
     1
102
RTVSPost2010Prop55
280
     0
102
RTVSPost2010PropOp55
 70
     1
102
RTVSPost2010Prop56
140
1.0
102
RTVSPost2010PropOp56
 70
     1
102
RTVSPost2010Prop57
140
1.0
102
RTVSPost2010PropOp57
 70
     1
102
RTVSPropertyOp0
 70
     1
102
RTVSPropertyOp1
 70
     1
102
RTVSPropertyOp2
 70
     1
102
RTVSPropertyOp3
 70
     1
102
RTVSPropertyOp4
 70
     1
102
RTVSPropertyOp5
 70
     1
102
RTVSPropertyOp6
 70
     1
102
RTVSPropertyOp7
 70
     1
102
RTVSPropertyOp8
 70
     1
102
RTVSPropertyOp9
 70
     1
102
RTVSPropertyOp10
 70
     1
102
RTVSPropertyOp11
 70
     1
102
RTVSPropertyOp12
 70
     1
102
RTVSPropertyOp13
 70
     1
102
RTVSPropertyOp14
 70
     1
102
RTVSPropertyOp15
 70
     1
102
RTVSPropertyOp16
 70
     1
102
RTVSPropertyOp17
 70
     1
102
RTVSPropertyOp18
 70
     1
102
RTVSPropertyOp19
 70
     1
102
RTVSPropertyOp20
 70
     1
102
RTVSPropertyOp21
 70
     1
102
RTVSPropertyOp22
 70
     1
102
RTVSPropertyOp23
 70
     1
102
RTVSPropertyOp24
 70
     1
102
RTVSPropertyOp25
 70
     1
102
RTVSPropertyOp26
 70
     1
102
RTVSPropertyOp27
 70
     1
102
RTVSPropertyOp28
 70
     1
102
RTVSPropertyOp29
 70
     1
102
RTVSPropertyOp30
 70
     1
102
RTVSPropertyOp31
 70
     1
102
RTVSPropertyOp32
 70
     1
102
RTVSPropertyOp33
 70
     1
102
RTVSPropertyOp34
 70
     1
102
RTVSPropertyOp35
 70
     1
102
RTVSPropertyOp36
 70
     1
102
RTVSPropertyOp37
 70
     1
102
RTVSPropertyOp38
 70
     1
102
RTVSPropertyOp39
 70
     1
102
RTVSPropertyOp40
 70
     1
102
RTVSPropertyOp41
 70
     1
102
RTVSPropertyOp42
 70
     1
102
RTVSPropertyOp43
 70
     1
102
RTVSPropertyOp44
 70
     1
102
RTVSPropertyOp45
 70
     1
102
RTVSPropertyOp46
 70
     1
102
RTVSPropertyOp47
 70
     1
102
RTVSPropertyOp48
 70
     1
102
RTVSPropertyOp49
 70
     1
102
RTVSPropertyOp50
 70
     1
102
RTVSPropertyOp51
 70
     0
102
RTVSPropertyOp52
 70
     0
102
RTVSPropertyOp53
 70
     1
102
RTVSPropertyOp54
 70
     1
102
RTVSPropertyOp55
 70
     1
102
RTVSPropertyOp56
 70
     1
102
RTVSPropertyOp57
 70
     1
102
RTVSPropertyOp58
 70
     1
102
RTVSPropertyOp59
 70
     1
102
RTVSPropertyOp60
 70
     1
102
RTVSPropertyOp61
 70
     1
102
RTVSPropertyOp62
 70
     1
  0
XRECORD
  5
25A
102
{ACAD_REACTORS
330
259
102
}
330
259
100
AcDbXrecord
280
     1
102
RTVSPost2010Prop28
280
     0
102
RTVSPost2010PropOp28
 70
     1
102
RTVSPost2010Prop29
280
     1
102
RTVSPost2010PropOp29
 70
     1
102
RTVSPost2010Prop30
280
     1
102
RTVSPost2010PropOp30
 70
     1
102
RTVSPost2010Prop31
280
     0
102
RTVSPost2010PropOp31
 70
     1
102
RTVSPost2010Prop32
280
     0
102
RTVSPost2010PropOp32
 70
     1
102
RTVSPost2010Prop33
280
     0
102
RTVSPost2010PropOp33
 70
     1
102
RTVSPost2010Prop34
280
     0
102
RTVSPost2010PropOp34
 70
     1
102
RTVSPost2010Prop35
280
     0
102
RTVSPost2010PropOp35
 70
     1
102
RTVSPost2010Prop36
280
     0
102
RTVSPost2010PropOp36
 70
     1
102
RTVSPost2010Prop37
 90
       50
102
RTVSPost2010PropOp37
 70
     1
102
RTVSPost2010Prop38
140
0.0
102
RTVSPost2010PropOp38
 70
     1
102
RTVSPost2010Prop39
140
1.0
102
RTVSPost2010PropOp39
 70
     1
102
RTVSPost2010Prop40
 90
        0
102
RTVSPost2010PropOp40
 70
     1
102
RTVSPost2010Prop41ColorIndex
 90
       18
102
RTVSPost2010Prop41ColorRGB
 90
        0
102
RTVSPost2010PropOp41
 70
     1
102
RTVSPost2010Prop42
 90
       50
102
RTVSPost2010PropOp42
 70
     1
102
RTVSPost2010Prop43
 90
        3
102
RTVSPost2010PropOp43
 70
     1
102
RTVSPost2010Prop44ColorIndex
 90
        5
102
RTVSPost2010Prop44ColorRGB
 90
      255
102
RTVSPost2010PropOp44
 70
     1
102
RTVSPost2010Prop45
280
     0
102
RTVSPost2010PropOp45
 70
     1
102
RTVSPost2010Prop46
 90
       50
102
RTVSPost2010PropOp46
 70
     1
102
RTVSPost2010Prop47
 90
       50
102
RTVSPost2010PropOp47
 70
     1
102
RTVSPost2010Prop48
 90
       50
102
RTVSPost2010PropOp48
 70
     1
102
RTVSPost2010Prop49
280
     0
102
RTVSPost2010PropOp49
 70
     1
102
RTVSPost2010Prop50
 90
       50
102
RTVSPost2010PropOp50
 70
     1
102
RTVSPost2010Prop51ColorIndex
 90
      256
102
RTVSPost2010Prop51ColorRGB
 90
-16777216
102
RTVSPost2010PropOp51
 70
     0
102
RTVSPost2010Prop52
140
1.0
102
RTVSPost2010PropOp52
 70
     0
102
RTVSPost2010Prop53
 90
        2
102
RTVSPost2010PropOp53
 70
     1
102
RTVSPost2010Prop54
  1
strokes_ogs.tif
102
RTVSPost2010PropOp54
 70
     1
102
RTVSPost2010Prop55
280
     0
102
RTVSPost2010PropOp55
 70
     1
102
RTVSPost2010Prop56
140
1.0
102
RTVSPost2010PropOp56
 70
     1
102
RTVSPost2010Prop57
140
1.0
102
RTVSPost2010PropOp57
 70
     1
102
RTVSPropertyOp0
 70
     1
102
RTVSPropertyOp1
 70
     1
102
RTVSPropertyOp2
 70
     1
102
RTVSPropertyOp3
 70
     1
102
RTVSPropertyOp4
 70
     1
102
RTVSPropertyOp5
 70
     1
102
RTVSPropertyOp6
 70
     1
102
RTVSPropertyOp7
 70
     1
102
RTVSPropertyOp8
 70
     1
102
RTVSPropertyOp9
 70
     1
102
RTVSPropertyOp10
 70
     1
102
RTVSPropertyOp11
 70
     1
102
RTVSPropertyOp12
 70
     1
102
RTVSPropertyOp13
 70
     1
102
RTVSPropertyOp14
 70
     1
102
RTVSPropertyOp15
 70
     1
102
RTVSPropertyOp16
 70
     1
102
RTVSPropertyOp17
 70
     1
102
RTVSPropertyOp18
 70
     1
102
RTVSPropertyOp19
 70
     1
102
RTVSPropertyOp20
 70
     1
102
RTVSPropertyOp21
 70
     1
102
RTVSPropertyOp22
 70
     1
102
RTVSPropertyOp23
 70
     1
102
RTVSPropertyOp24
 70
     1
102
RTVSPropertyOp25
 70
     1
102
RTVSPropertyOp26
 70
     1
102
RTVSPropertyOp27
 70
     1
102
RTVSPropertyOp28
 70
     1
102
RTVSPropertyOp29
 70
     1
102
RTVSPropertyOp30
 70
     1
102
RTVSPropertyOp31
 70
     1
102
RTVSPropertyOp32
 70
     1
102
RTVSPropertyOp33
 70
     1
102
RTVSPropertyOp34
 70
     1
102
RTVSPropertyOp35
 70
     1
102
RTVSPropertyOp36
 70
     1
102
RTVSPropertyOp37
 70
     1
102
RTVSPropertyOp38
 70
     1
102
RTVSPropertyOp39
 70
     1
102
RTVSPropertyOp40
 70
     1
102
RTVSPropertyOp41
 70
     1
102
RTVSPropertyOp42
 70
     1
102
RTVSPropertyOp43
 70
     1
102
RTVSPropertyOp44
 70
     1
102
RTVSPropertyOp45
 70
     1
102
RTVSPropertyOp46
 70
     1
102
RTVSPropertyOp47
 70
     1
102
RTVSPropertyOp48
 70
     1
102
RTVSPropertyOp49
 70
     1
102
RTVSPropertyOp50
 70
     1
102
RTVSPropertyOp51
 70
     0
102
RTVSPropertyOp52
 70
     0
102
RTVSPropertyOp53
 70
     1
102
RTVSPropertyOp54
 70
     1
102
RTVSPropertyOp55
 70
     1
102
RTVSPropertyOp56
 70
     1
102
RTVSPropertyOp57
 70
     1
102
RTVSPropertyOp58
 70
     1
102
RTVSPropertyOp59
 70
     1
102
RTVSPropertyOp60
 70
     1
102
RTVSPropertyOp61
 70
     1
102
RTVSPropertyOp62
 70
     1
  0
XRECORD
  5
274
102
{ACAD_REACTORS
330
273
102
}
330
273
100
AcDbXrecord
280
     1
102
RTVSPost2010Prop28
280
     0
102
RTVSPost2010PropOp28
 70
     0
102
RTVSPost2010Prop29
280
     1
102
RTVSPost2010PropOp29
 70
     0
102
RTVSPost2010Prop30
280
     1
102
RTVSPost2010PropOp30
 70
     0
102
RTVSPost2010Prop31
280
     0
102
RTVSPost2010PropOp31
 70
     0
102
RTVSPost2010Prop32
280
     0
102
RTVSPost2010PropOp32
 70
     0
102
RTVSPost2010Prop33
280
     0
102
RTVSPost2010PropOp33
 70
     0
102
RTVSPost2010Prop34
280
     0
102
RTVSPost2010PropOp34
 70
     0
102
RTVSPost2010Prop35
280
     0
102
RTVSPost2010PropOp35
 70
     0
102
RTVSPost2010Prop36
280
     0
102
RTVSPost2010PropOp36
 70
     0
102
RTVSPost2010Prop37
 90
       50
102
RTVSPost2010PropOp37
 70
     0
102
RTVSPost2010Prop38
140
0.0
102
RTVSPost2010PropOp38
 70
     0
102
RTVSPost2010Prop39
140
1.0
102
RTVSPost2010PropOp39
 70
     0
102
RTVSPost2010Prop40
 90
        0
102
RTVSPost2010PropOp40
 70
     0
102
RTVSPost2010Prop41ColorIndex
 90
       18
102
RTVSPost2010Prop41ColorRGB
 90
        0
102
RTVSPost2010PropOp41
 70
     0
102
RTVSPost2010Prop42
 90
       50
102
RTVSPost2010PropOp42
 70
     0
102
RTVSPost2010Prop43
 90
        3
102
RTVSPost2010PropOp43
 70
     0
102
RTVSPost2010Prop44ColorIndex
 90
        5
102
RTVSPost2010Prop44ColorRGB
 90
      255
102
RTVSPost2010PropOp44
 70
     0
102
RTVSPost2010Prop45
280
     0
102
RTVSPost2010PropOp45
 70
     0
102
RTVSPost2010Prop46
 90
       50
102
RTVSPost2010PropOp46
 70
     0
102
RTVSPost2010Prop47
 90
       50
102
RTVSPost2010PropOp47
 70
     0
102
RTVSPost2010Prop48
 90
       50
102
RTVSPost2010PropOp48
 70
     0
102
RTVSPost2010Prop49
280
     0
102
RTVSPost2010PropOp49
 70
     0
102
RTVSPost2010Prop50
 90
       50
102
RTVSPost2010PropOp50
 70
     0
102
RTVSPost2010Prop51ColorIndex
 90
      256
102
RTVSPost2010Prop51ColorRGB
 90
-16777216
102
RTVSPost2010PropOp51
 70
     0
102
RTVSPost2010Prop52
140
1.0
102
RTVSPost2010PropOp52
 70
     0
102
RTVSPost2010Prop53
 90
        2
102
RTVSPost2010PropOp53
 70
     0
102
RTVSPost2010Prop54
  1
strokes_ogs.tif
102
RTVSPost2010PropOp54
 70
     0
102
RTVSPost2010Prop55
280
     0
102
RTVSPost2010PropOp55
 70
     0
102
RTVSPost2010Prop56
140
1.0
102
RTVSPost2010PropOp56
 70
     0
102
RTVSPost2010Prop57
140
1.0
102
RTVSPost2010PropOp57
 70
     0
102
RTVSPropertyOp0
 70
     0
102
RTVSPropertyOp1
 70
     0
102
RTVSPropertyOp2
 70
     0
102
RTVSPropertyOp3
 70
     0
102
RTVSPropertyOp4
 70
     0
102
RTVSPropertyOp5
 70
     0
102
RTVSPropertyOp6
 70
     0
102
RTVSPropertyOp7
 70
     0
102
RTVSPropertyOp8
 70
     0
102
RTVSPropertyOp9
 70
     0
102
RTVSPropertyOp10
 70
     0
102
RTVSPropertyOp11
 70
     0
102
RTVSPropertyOp12
 70
     0
102
RTVSPropertyOp13
 70
     0
102
RTVSPropertyOp14
 70
     2
102
RTVSPropertyOp15
 70
     0
102
RTVSPropertyOp16
 70
     0
102
RTVSPropertyOp17
 70
     0
102
RTVSPropertyOp18
 70
     0
102
RTVSPropertyOp19
 70
     0
102
RTVSPropertyOp20
 70
     0
102
RTVSPropertyOp21
 70
     0
102
RTVSPropertyOp22
 70
     0
102
RTVSPropertyOp23
 70
     0
102
RTVSPropertyOp24
 70
     0
102
RTVSPropertyOp25
 70
     0
102
RTVSPropertyOp26
 70
     0
102
RTVSPropertyOp27
 70
     0
102
RTVSPropertyOp28
 70
     0
102
RTVSPropertyOp29
 70
     0
102
RTVSPropertyOp30
 70
     0
102
RTVSPropertyOp31
 70
     0
102
RTVSPropertyOp32
 70
     0
102
RTVSPropertyOp33
 70
     0
102
RTVSPropertyOp34
 70
     0
102
RTVSPropertyOp35
 70
     0
102
RTVSPropertyOp36
 70
     0
102
RTVSPropertyOp37
 70
     0
102
RTVSPropertyOp38
 70
     0
102
RTVSPropertyOp39
 70
     0
102
RTVSPropertyOp40
 70
     0
102
RTVSPropertyOp41
 70
     0
102
RTVSPropertyOp42
 70
     0
102
RTVSPropertyOp43
 70
     0
102
RTVSPropertyOp44
 70
     0
102
RTVSPropertyOp45
 70
     0
102
RTVSPropertyOp46
 70
     0
102
RTVSPropertyOp47
 70
     0
102
RTVSPropertyOp48
 70
     0
102
RTVSPropertyOp49
 70
     0
102
RTVSPropertyOp50
 70
     0
102
RTVSPropertyOp51
 70
     0
102
RTVSPropertyOp52
 70
     0
102
RTVSPropertyOp53
 70
     0
102
RTVSPropertyOp54
 70
     0
102
RTVSPropertyOp55
 70
     0
102
RTVSPropertyOp56
 70
     0
102
RTVSPropertyOp57
 70
     0
102
RTVSPropertyOp58
 70
     1
102
RTVSPropertyOp59
 70
     1
102
RTVSPropertyOp60
 70
     1
102
RTVSPropertyOp61
 70
     1
102
RTVSPropertyOp62
 70
     1
  0
XRECORD
  5
262
102
{ACAD_REACTORS
330
261
102
}
330
261
100
AcDbXrecord
280
     1
102
RTVSPost2010Prop28
280
     0
102
RTVSPost2010PropOp28
 70
     1
102
RTVSPost2010Prop29
280
     1
102
RTVSPost2010PropOp29
 70
     1
102
RTVSPost2010Prop30
280
     1
102
RTVSPost2010PropOp30
 70
     1
102
RTVSPost2010Prop31
280
     0
102
RTVSPost2010PropOp31
 70
     1
102
RTVSPost2010Prop32
280
     0
102
RTVSPost2010PropOp32
 70
     1
102
RTVSPost2010Prop33
280
     0
102
RTVSPost2010PropOp33
 70
     1
102
RTVSPost2010Prop34
280
     0
102
RTVSPost2010PropOp34
 70
     1
102
RTVSPost2010Prop35
280
     0
102
RTVSPost2010PropOp35
 70
     1
102
RTVSPost2010Prop36
280
     0
102
RTVSPost2010PropOp36
 70
     1
102
RTVSPost2010Prop37
 90
       50
102
RTVSPost2010PropOp37
 70
     1
102
RTVSPost2010Prop38
140
0.0
102
RTVSPost2010PropOp38
 70
     1
102
RTVSPost2010Prop39
140
1.0
102
RTVSPost2010PropOp39
 70
     1
102
RTVSPost2010Prop40
 90
        0
102
RTVSPost2010PropOp40
 70
     1
102
RTVSPost2010Prop41ColorIndex
 90
       18
102
RTVSPost2010Prop41ColorRGB
 90
        0
102
RTVSPost2010PropOp41
 70
     1
102
RTVSPost2010Prop42
 90
       50
102
RTVSPost2010PropOp42
 70
     1
102
RTVSPost2010Prop43
 90
        3
102
RTVSPost2010PropOp43
 70
     1
102
RTVSPost2010Prop44ColorIndex
 90
        5
102
RTVSPost2010Prop44ColorRGB
 90
      255
102
RTVSPost2010PropOp44
 70
     1
102
RTVSPost2010Prop45
280
     0
102
RTVSPost2010PropOp45
 70
     1
102
RTVSPost2010Prop46
 90
       50
102
RTVSPost2010PropOp46
 70
     1
102
RTVSPost2010Prop47
 90
       50
102
RTVSPost2010PropOp47
 70
     1
102
RTVSPost2010Prop48
 90
       50
102
RTVSPost2010PropOp48
 70
     1
102
RTVSPost2010Prop49
280
     0
102
RTVSPost2010PropOp49
 70
     1
102
RTVSPost2010Prop50
 90
       50
102
RTVSPost2010PropOp50
 70
     1
102
RTVSPost2010Prop51ColorIndex
 90
      256
102
RTVSPost2010Prop51ColorRGB
 90
-16777216
102
RTVSPost2010PropOp51
 70
     0
102
RTVSPost2010Prop52
140
1.0
102
RTVSPost2010PropOp52
 70
     0
102
RTVSPost2010Prop53
 90
        2
102
RTVSPost2010PropOp53
 70
     1
102
RTVSPost2010Prop54
  1
strokes_ogs.tif
102
RTVSPost2010PropOp54
 70
     1
102
RTVSPost2010Prop55
280
     0
102
RTVSPost2010PropOp55
 70
     1
102
RTVSPost2010Prop56
140
1.0
102
RTVSPost2010PropOp56
 70
     1
102
RTVSPost2010Prop57
140
1.0
102
RTVSPost2010PropOp57
 70
     1
102
RTVSPropertyOp0
 70
     1
102
RTVSPropertyOp1
 70
     1
102
RTVSPropertyOp2
 70
     1
102
RTVSPropertyOp3
 70
     1
102
RTVSPropertyOp4
 70
     1
102
RTVSPropertyOp5
 70
     1
102
RTVSPropertyOp6
 70
     1
102
RTVSPropertyOp7
 70
     1
102
RTVSPropertyOp8
 70
     1
102
RTVSPropertyOp9
 70
     1
102
RTVSPropertyOp10
 70
     1
102
RTVSPropertyOp11
 70
     1
102
RTVSPropertyOp12
 70
     1
102
RTVSPropertyOp13
 70
     1
102
RTVSPropertyOp14
 70
     1
102
RTVSPropertyOp15
 70
     1
102
RTVSPropertyOp16
 70
     1
102
RTVSPropertyOp17
 70
     1
102
RTVSPropertyOp18
 70
     1
102
RTVSPropertyOp19
 70
     1
102
RTVSPropertyOp20
 70
     1
102
RTVSPropertyOp21
 70
     1
102
RTVSPropertyOp22
 70
     1
102
RTVSPropertyOp23
 70
     1
102
RTVSPropertyOp24
 70
     1
102
RTVSPropertyOp25
 70
     1
102
RTVSPropertyOp26
 70
     1
102
RTVSPropertyOp27
 70
     1
102
RTVSPropertyOp28
 70
     1
102
RTVSPropertyOp29
 70
     1
102
RTVSPropertyOp30
 70
     1
102
RTVSPropertyOp31
 70
     1
102
RTVSPropertyOp32
 70
     1
102
RTVSPropertyOp33
 70
     1
102
RTVSPropertyOp34
 70
     1
102
RTVSPropertyOp35
 70
     1
102
RTVSPropertyOp36
 70
     1
102
RTVSPropertyOp37
 70
     1
102
RTVSPropertyOp38
 70
     1
102
RTVSPropertyOp39
 70
     1
102
RTVSPropertyOp40
 70
     1
102
RTVSPropertyOp41
 70
     1
102
RTVSPropertyOp42
 70
     1
102
RTVSPropertyOp43
 70
     1
102
RTVSPropertyOp44
 70
     1
102
RTVSPropertyOp45
 70
     1
102
RTVSPropertyOp46
 70
     1
102
RTVSPropertyOp47
 70
     1
102
RTVSPropertyOp48
 70
     1
102
RTVSPropertyOp49
 70
     1
102
RTVSPropertyOp50
 70
     1
102
RTVSPropertyOp51
 70
     0
102
RTVSPropertyOp52
 70
     0
102
RTVSPropertyOp53
 70
     1
102
RTVSPropertyOp54
 70
     1
102
RTVSPropertyOp55
 70
     1
102
RTVSPropertyOp56
 70
     1
102
RTVSPropertyOp57
 70
     1
102
RTVSPropertyOp58
 70
     1
102
RTVSPropertyOp59
 70
     1
102
RTVSPropertyOp60
 70
     1
102
RTVSPropertyOp61
 70
     1
102
RTVSPropertyOp62
 70
     1
  0
XRECORD
  5
246
102
{ACAD_REACTORS
330
245
102
}
330
245
100
AcDbXrecord
280
     1
102
RTVSPost2010Prop28
280
     0
102
RTVSPost2010PropOp28
 70
     1
102
RTVSPost2010Prop29
280
     1
102
RTVSPost2010PropOp29
 70
     1
102
RTVSPost2010Prop30
280
     1
102
RTVSPost2010PropOp30
 70
     1
102
RTVSPost2010Prop31
280
     0
102
RTVSPost2010PropOp31
 70
     1
102
RTVSPost2010Prop32
280
     0
102
RTVSPost2010PropOp32
 70
     1
102
RTVSPost2010Prop33
280
     0
102
RTVSPost2010PropOp33
 70
     1
102
RTVSPost2010Prop34
280
     0
102
RTVSPost2010PropOp34
 70
     1
102
RTVSPost2010Prop35
280
     0
102
RTVSPost2010PropOp35
 70
     1
102
RTVSPost2010Prop36
280
     0
102
RTVSPost2010PropOp36
 70
     1
102
RTVSPost2010Prop37
 90
       50
102
RTVSPost2010PropOp37
 70
     1
102
RTVSPost2010Prop38
140
0.0
102
RTVSPost2010PropOp38
 70
     1
102
RTVSPost2010Prop39
140
1.0
102
RTVSPost2010PropOp39
 70
     1
102
RTVSPost2010Prop40
 90
        0
102
RTVSPost2010PropOp40
 70
     1
102
RTVSPost2010Prop41ColorIndex
 90
       18
102
RTVSPost2010Prop41ColorRGB
 90
        0
102
RTVSPost2010PropOp41
 70
     1
102
RTVSPost2010Prop42
 90
       50
102
RTVSPost2010PropOp42
 70
     1
102
RTVSPost2010Prop43
 90
        3
102
RTVSPost2010PropOp43
 70
     1
102
RTVSPost2010Prop44ColorIndex
 90
        5
102
RTVSPost2010Prop44ColorRGB
 90
      255
102
RTVSPost2010PropOp44
 70
     1
102
RTVSPost2010Prop45
280
     0
102
RTVSPost2010PropOp45
 70
     1
102
RTVSPost2010Prop46
 90
       50
102
RTVSPost2010PropOp46
 70
     1
102
RTVSPost2010Prop47
 90
       50
102
RTVSPost2010PropOp47
 70
     1
102
RTVSPost2010Prop48
 90
       50
102
RTVSPost2010PropOp48
 70
     1
102
RTVSPost2010Prop49
280
     0
102
RTVSPost2010PropOp49
 70
     1
102
RTVSPost2010Prop50
 90
       50
102
RTVSPost2010PropOp50
 70
     1
102
RTVSPost2010Prop51ColorIndex
 90
      256
102
RTVSPost2010Prop51ColorRGB
 90
-16777216
102
RTVSPost2010PropOp51
 70
     0
102
RTVSPost2010Prop52
140
1.0
102
RTVSPost2010PropOp52
 70
     0
102
RTVSPost2010Prop53
 90
        2
102
RTVSPost2010PropOp53
 70
     1
102
RTVSPost2010Prop54
  1
strokes_ogs.tif
102
RTVSPost2010PropOp54
 70
     1
102
RTVSPost2010Prop55
280
     0
102
RTVSPost2010PropOp55
 70
     1
102
RTVSPost2010Prop56
140
1.0
102
RTVSPost2010PropOp56
 70
     1
102
RTVSPost2010Prop57
140
1.0
102
RTVSPost2010PropOp57
 70
     1
102
RTVSPropertyOp0
 70
     1
102
RTVSPropertyOp1
 70
     1
102
RTVSPropertyOp2
 70
     1
102
RTVSPropertyOp3
 70
     1
102
RTVSPropertyOp4
 70
     1
102
RTVSPropertyOp5
 70
     1
102
RTVSPropertyOp6
 70
     1
102
RTVSPropertyOp7
 70
     1
102
RTVSPropertyOp8
 70
     1
102
RTVSPropertyOp9
 70
     1
102
RTVSPropertyOp10
 70
     1
102
RTVSPropertyOp11
 70
     1
102
RTVSPropertyOp12
 70
     1
102
RTVSPropertyOp13
 70
     1
102
RTVSPropertyOp14
 70
     1
102
RTVSPropertyOp15
 70
     1
102
RTVSPropertyOp16
 70
     1
102
RTVSPropertyOp17
 70
     1
102
RTVSPropertyOp18
 70
     1
102
RTVSPropertyOp19
 70
     1
102
RTVSPropertyOp20
 70
     1
102
RTVSPropertyOp21
 70
     1
102
RTVSPropertyOp22
 70
     1
102
RTVSPropertyOp23
 70
     1
102
RTVSPropertyOp24
 70
     1
102
RTVSPropertyOp25
 70
     1
102
RTVSPropertyOp26
 70
     1
102
RTVSPropertyOp27
 70
     1
102
RTVSPropertyOp28
 70
     1
102
RTVSPropertyOp29
 70
     1
102
RTVSPropertyOp30
 70
     1
102
RTVSPropertyOp31
 70
     1
102
RTVSPropertyOp32
 70
     1
102
RTVSPropertyOp33
 70
     1
102
RTVSPropertyOp34
 70
     1
102
RTVSPropertyOp35
 70
     1
102
RTVSPropertyOp36
 70
     1
102
RTVSPropertyOp37
 70
     1
102
RTVSPropertyOp38
 70
     1
102
RTVSPropertyOp39
 70
     1
102
RTVSPropertyOp40
 70
     1
102
RTVSPropertyOp41
 70
     1
102
RTVSPropertyOp42
 70
     1
102
RTVSPropertyOp43
 70
     1
102
RTVSPropertyOp44
 70
     1
102
RTVSPropertyOp45
 70
     1
102
RTVSPropertyOp46
 70
     1
102
RTVSPropertyOp47
 70
     1
102
RTVSPropertyOp48
 70
     1
102
RTVSPropertyOp49
 70
     1
102
RTVSPropertyOp50
 70
     1
102
RTVSPropertyOp51
 70
     0
102
RTVSPropertyOp52
 70
     0
102
RTVSPropertyOp53
 70
     1
102
RTVSPropertyOp54
 70
     1
102
RTVSPropertyOp55
 70
     1
102
RTVSPropertyOp56
 70
     1
102
RTVSPropertyOp57
 70
     1
102
RTVSPropertyOp58
 70
     1
102
RTVSPropertyOp59
 70
     1
102
RTVSPropertyOp60
 70
     1
102
RTVSPropertyOp61
 70
     1
102
RTVSPropertyOp62
 70
     1
  0
XRECORD
  5
248
102
{ACAD_REACTORS
330
247
102
}
330
247
100
AcDbXrecord
280
     1
102
RTVSPost2010Prop28
280
     0
102
RTVSPost2010PropOp28
 70
     1
102
RTVSPost2010Prop29
280
     1
102
RTVSPost2010PropOp29
 70
     1
102
RTVSPost2010Prop30
280
     1
102
RTVSPost2010PropOp30
 70
     1
102
RTVSPost2010Prop31
280
     0
102
RTVSPost2010PropOp31
 70
     1
102
RTVSPost2010Prop32
280
     0
102
RTVSPost2010PropOp32
 70
     1
102
RTVSPost2010Prop33
280
     0
102
RTVSPost2010PropOp33
 70
     1
102
RTVSPost2010Prop34
280
     0
102
RTVSPost2010PropOp34
 70
     1
102
RTVSPost2010Prop35
280
     0
102
RTVSPost2010PropOp35
 70
     1
102
RTVSPost2010Prop36
280
     0
102
RTVSPost2010PropOp36
 70
     1
102
RTVSPost2010Prop37
 90
       50
102
RTVSPost2010PropOp37
 70
     1
102
RTVSPost2010Prop38
140
0.0
102
RTVSPost2010PropOp38
 70
     1
102
RTVSPost2010Prop39
140
1.0
102
RTVSPost2010PropOp39
 70
     1
102
RTVSPost2010Prop40
 90
        0
102
RTVSPost2010PropOp40
 70
     1
102
RTVSPost2010Prop41ColorIndex
 90
       18
102
RTVSPost2010Prop41ColorRGB
 90
        0
102
RTVSPost2010PropOp41
 70
     1
102
RTVSPost2010Prop42
 90
       50
102
RTVSPost2010PropOp42
 70
     1
102
RTVSPost2010Prop43
 90
        3
102
RTVSPost2010PropOp43
 70
     1
102
RTVSPost2010Prop44ColorIndex
 90
        5
102
RTVSPost2010Prop44ColorRGB
 90
      255
102
RTVSPost2010PropOp44
 70
     1
102
RTVSPost2010Prop45
280
     0
102
RTVSPost2010PropOp45
 70
     1
102
RTVSPost2010Prop46
 90
       50
102
RTVSPost2010PropOp46
 70
     1
102
RTVSPost2010Prop47
 90
       50
102
RTVSPost2010PropOp47
 70
     1
102
RTVSPost2010Prop48
 90
       50
102
RTVSPost2010PropOp48
 70
     1
102
RTVSPost2010Prop49
280
     0
102
RTVSPost2010PropOp49
 70
     1
102
RTVSPost2010Prop50
 90
       50
102
RTVSPost2010PropOp50
 70
     1
102
RTVSPost2010Prop51ColorIndex
 90
      256
102
RTVSPost2010Prop51ColorRGB
 90
-16777216
102
RTVSPost2010PropOp51
 70
     0
102
RTVSPost2010Prop52
140
1.0
102
RTVSPost2010PropOp52
 70
     0
102
RTVSPost2010Prop53
 90
        2
102
RTVSPost2010PropOp53
 70
     1
102
RTVSPost2010Prop54
  1
strokes_ogs.tif
102
RTVSPost2010PropOp54
 70
     1
102
RTVSPost2010Prop55
280
     0
102
RTVSPost2010PropOp55
 70
     1
102
RTVSPost2010Prop56
140
1.0
102
RTVSPost2010PropOp56
 70
     1
102
RTVSPost2010Prop57
140
1.0
102
RTVSPost2010PropOp57
 70
     1
102
RTVSPropertyOp0
 70
     1
102
RTVSPropertyOp1
 70
     1
102
RTVSPropertyOp2
 70
     1
102
RTVSPropertyOp3
 70
     1
102
RTVSPropertyOp4
 70
     1
102
RTVSPropertyOp5
 70
     1
102
RTVSPropertyOp6
 70
     1
102
RTVSPropertyOp7
 70
     1
102
RTVSPropertyOp8
 70
     1
102
RTVSPropertyOp9
 70
     1
102
RTVSPropertyOp10
 70
     1
102
RTVSPropertyOp11
 70
     1
102
RTVSPropertyOp12
 70
     1
102
RTVSPropertyOp13
 70
     1
102
RTVSPropertyOp14
 70
     1
102
RTVSPropertyOp15
 70
     1
102
RTVSPropertyOp16
 70
     1
102
RTVSPropertyOp17
 70
     1
102
RTVSPropertyOp18
 70
     1
102
RTVSPropertyOp19
 70
     1
102
RTVSPropertyOp20
 70
     1
102
RTVSPropertyOp21
 70
     1
102
RTVSPropertyOp22
 70
     1
102
RTVSPropertyOp23
 70
     1
102
RTVSPropertyOp24
 70
     1
102
RTVSPropertyOp25
 70
     1
102
RTVSPropertyOp26
 70
     1
102
RTVSPropertyOp27
 70
     1
102
RTVSPropertyOp28
 70
     1
102
RTVSPropertyOp29
 70
     1
102
RTVSPropertyOp30
 70
     1
102
RTVSPropertyOp31
 70
     1
102
RTVSPropertyOp32
 70
     1
102
RTVSPropertyOp33
 70
     1
102
RTVSPropertyOp34
 70
     1
102
RTVSPropertyOp35
 70
     1
102
RTVSPropertyOp36
 70
     1
102
RTVSPropertyOp37
 70
     1
102
RTVSPropertyOp38
 70
     1
102
RTVSPropertyOp39
 70
     1
102
RTVSPropertyOp40
 70
     1
102
RTVSPropertyOp41
 70
     1
102
RTVSPropertyOp42
 70
     1
102
RTVSPropertyOp43
 70
     1
102
RTVSPropertyOp44
 70
     1
102
RTVSPropertyOp45
 70
     1
102
RTVSPropertyOp46
 70
     1
102
RTVSPropertyOp47
 70
     1
102
RTVSPropertyOp48
 70
     1
102
RTVSPropertyOp49
 70
     1
102
RTVSPropertyOp50
 70
     1
102
RTVSPropertyOp51
 70
     0
102
RTVSPropertyOp52
 70
     0
102
RTVSPropertyOp53
 70
     1
102
RTVSPropertyOp54
 70
     1
102
RTVSPropertyOp55
 70
     1
102
RTVSPropertyOp56
 70
     1
102
RTVSPropertyOp57
 70
     1
102
RTVSPropertyOp58
 70
     1
102
RTVSPropertyOp59
 70
     1
102
RTVSPropertyOp60
 70
     1
102
RTVSPropertyOp61
 70
     1
102
RTVSPropertyOp62
 70
     1
  0
XRECORD
  5
24A
102
{ACAD_REACTORS
330
249
102
}
330
249
100
AcDbXrecord
280
     1
102
RTVSPost2010Prop28
280
     0
102
RTVSPost2010PropOp28
 70
     1
102
RTVSPost2010Prop29
280
     1
102
RTVSPost2010PropOp29
 70
     1
102
RTVSPost2010Prop30
280
     1
102
RTVSPost2010PropOp30
 70
     1
102
RTVSPost2010Prop31
280
     0
102
RTVSPost2010PropOp31
 70
     1
102
RTVSPost2010Prop32
280
     0
102
RTVSPost2010PropOp32
 70
     1
102
RTVSPost2010Prop33
280
     0
102
RTVSPost2010PropOp33
 70
     1
102
RTVSPost2010Prop34
280
     0
102
RTVSPost2010PropOp34
 70
     1
102
RTVSPost2010Prop35
280
     0
102
RTVSPost2010PropOp35
 70
     1
102
RTVSPost2010Prop36
280
     0
102
RTVSPost2010PropOp36
 70
     1
102
RTVSPost2010Prop37
 90
       50
102
RTVSPost2010PropOp37
 70
     1
102
RTVSPost2010Prop38
140
0.0
102
RTVSPost2010PropOp38
 70
     1
102
RTVSPost2010Prop39
140
1.0
102
RTVSPost2010PropOp39
 70
     1
102
RTVSPost2010Prop40
 90
        0
102
RTVSPost2010PropOp40
 70
     1
102
RTVSPost2010Prop41ColorIndex
 90
       18
102
RTVSPost2010Prop41ColorRGB
 90
        0
102
RTVSPost2010PropOp41
 70
     1
102
RTVSPost2010Prop42
 90
       50
102
RTVSPost2010PropOp42
 70
     1
102
RTVSPost2010Prop43
 90
        3
102
RTVSPost2010PropOp43
 70
     1
102
RTVSPost2010Prop44ColorIndex
 90
        5
102
RTVSPost2010Prop44ColorRGB
 90
      255
102
RTVSPost2010PropOp44
 70
     1
102
RTVSPost2010Prop45
280
     0
102
RTVSPost2010PropOp45
 70
     1
102
RTVSPost2010Prop46
 90
       50
102
RTVSPost2010PropOp46
 70
     1
102
RTVSPost2010Prop47
 90
       50
102
RTVSPost2010PropOp47
 70
     1
102
RTVSPost2010Prop48
 90
       50
102
RTVSPost2010PropOp48
 70
     1
102
RTVSPost2010Prop49
280
     0
102
RTVSPost2010PropOp49
 70
     1
102
RTVSPost2010Prop50
 90
       50
102
RTVSPost2010PropOp50
 70
     1
102
RTVSPost2010Prop51ColorIndex
 90
      256
102
RTVSPost2010Prop51ColorRGB
 90
-16777216
102
RTVSPost2010PropOp51
 70
     0
102
RTVSPost2010Prop52
140
1.0
102
RTVSPost2010PropOp52
 70
     0
102
RTVSPost2010Prop53
 90
        2
102
RTVSPost2010PropOp53
 70
     1
102
RTVSPost2010Prop54
  1
strokes_ogs.tif
102
RTVSPost2010PropOp54
 70
     1
102
RTVSPost2010Prop55
280
     0
102
RTVSPost2010PropOp55
 70
     1
102
RTVSPost2010Prop56
140
1.0
102
RTVSPost2010PropOp56
 70
     1
102
RTVSPost2010Prop57
140
1.0
102
RTVSPost2010PropOp57
 70
     1
102
RTVSPropertyOp0
 70
     1
102
RTVSPropertyOp1
 70
     1
102
RTVSPropertyOp2
 70
     1
102
RTVSPropertyOp3
 70
     1
102
RTVSPropertyOp4
 70
     1
102
RTVSPropertyOp5
 70
     1
102
RTVSPropertyOp6
 70
     1
102
RTVSPropertyOp7
 70
     1
102
RTVSPropertyOp8
 70
     1
102
RTVSPropertyOp9
 70
     1
102
RTVSPropertyOp10
 70
     1
102
RTVSPropertyOp11
 70
     1
102
RTVSPropertyOp12
 70
     1
102
RTVSPropertyOp13
 70
     1
102
RTVSPropertyOp14
 70
     1
102
RTVSPropertyOp15
 70
     1
102
RTVSPropertyOp16
 70
     1
102
RTVSPropertyOp17
 70
     1
102
RTVSPropertyOp18
 70
     1
102
RTVSPropertyOp19
 70
     1
102
RTVSPropertyOp20
 70
     1
102
RTVSPropertyOp21
 70
     1
102
RTVSPropertyOp22
 70
     1
102
RTVSPropertyOp23
 70
     1
102
RTVSPropertyOp24
 70
     1
102
RTVSPropertyOp25
 70
     1
102
RTVSPropertyOp26
 70
     1
102
RTVSPropertyOp27
 70
     1
102
RTVSPropertyOp28
 70
     1
102
RTVSPropertyOp29
 70
     1
102
RTVSPropertyOp30
 70
     1
102
RTVSPropertyOp31
 70
     1
102
RTVSPropertyOp32
 70
     1
102
RTVSPropertyOp33
 70
     1
102
RTVSPropertyOp34
 70
     1
102
RTVSPropertyOp35
 70
     1
102
RTVSPropertyOp36
 70
     1
102
RTVSPropertyOp37
 70
     1
102
RTVSPropertyOp38
 70
     1
102
RTVSPropertyOp39
 70
     1
102
RTVSPropertyOp40
 70
     1
102
RTVSPropertyOp41
 70
     1
102
RTVSPropertyOp42
 70
     1
102
RTVSPropertyOp43
 70
     1
102
RTVSPropertyOp44
 70
     1
102
RTVSPropertyOp45
 70
     1
102
RTVSPropertyOp46
 70
     1
102
RTVSPropertyOp47
 70
     1
102
RTVSPropertyOp48
 70
     1
102
RTVSPropertyOp49
 70
     1
102
RTVSPropertyOp50
 70
     1
102
RTVSPropertyOp51
 70
     0
102
RTVSPropertyOp52
 70
     0
102
RTVSPropertyOp53
 70
     1
102
RTVSPropertyOp54
 70
     1
102
RTVSPropertyOp55
 70
     1
102
RTVSPropertyOp56
 70
     1
102
RTVSPropertyOp57
 70
     1
102
RTVSPropertyOp58
 70
     1
102
RTVSPropertyOp59
 70
     1
102
RTVSPropertyOp60
 70
     1
102
RTVSPropertyOp61
 70
     1
102
RTVSPropertyOp62
 70
     1
  0
XRECORD
  5
24C
102
{ACAD_REACTORS
330
24B
102
}
330
24B
100
AcDbXrecord
280
     1
102
RTVSPost2010Prop28
280
     0
102
RTVSPost2010PropOp28
 70
     1
102
RTVSPost2010Prop29
280
     1
102
RTVSPost2010PropOp29
 70
     1
102
RTVSPost2010Prop30
280
     1
102
RTVSPost2010PropOp30
 70
     1
102
RTVSPost2010Prop31
280
     0
102
RTVSPost2010PropOp31
 70
     1
102
RTVSPost2010Prop32
280
     0
102
RTVSPost2010PropOp32
 70
     1
102
RTVSPost2010Prop33
280
     0
102
RTVSPost2010PropOp33
 70
     1
102
RTVSPost2010Prop34
280
     0
102
RTVSPost2010PropOp34
 70
     1
102
RTVSPost2010Prop35
280
     0
102
RTVSPost2010PropOp35
 70
     1
102
RTVSPost2010Prop36
280
     0
102
RTVSPost2010PropOp36
 70
     1
102
RTVSPost2010Prop37
 90
       50
102
RTVSPost2010PropOp37
 70
     1
102
RTVSPost2010Prop38
140
0.0
102
RTVSPost2010PropOp38
 70
     1
102
RTVSPost2010Prop39
140
1.0
102
RTVSPost2010PropOp39
 70
     1
102
RTVSPost2010Prop40
 90
        0
102
RTVSPost2010PropOp40
 70
     1
102
RTVSPost2010Prop41ColorIndex
 90
       18
102
RTVSPost2010Prop41ColorRGB
 90
        0
102
RTVSPost2010PropOp41
 70
     1
102
RTVSPost2010Prop42
 90
       50
102
RTVSPost2010PropOp42
 70
     1
102
RTVSPost2010Prop43
 90
        3
102
RTVSPost2010PropOp43
 70
     1
102
RTVSPost2010Prop44ColorIndex
 90
        5
102
RTVSPost2010Prop44ColorRGB
 90
      255
102
RTVSPost2010PropOp44
 70
     1
102
RTVSPost2010Prop45
280
     0
102
RTVSPost2010PropOp45
 70
     1
102
RTVSPost2010Prop46
 90
       50
102
RTVSPost2010PropOp46
 70
     1
102
RTVSPost2010Prop47
 90
       50
102
RTVSPost2010PropOp47
 70
     1
102
RTVSPost2010Prop48
 90
       50
102
RTVSPost2010PropOp48
 70
     1
102
RTVSPost2010Prop49
280
     0
102
RTVSPost2010PropOp49
 70
     1
102
RTVSPost2010Prop50
 90
       50
102
RTVSPost2010PropOp50
 70
     1
102
RTVSPost2010Prop51ColorIndex
 90
      256
102
RTVSPost2010Prop51ColorRGB
 90
-16777216
102
RTVSPost2010PropOp51
 70
     0
102
RTVSPost2010Prop52
140
1.0
102
RTVSPost2010PropOp52
 70
     0
102
RTVSPost2010Prop53
 90
        2
102
RTVSPost2010PropOp53
 70
     1
102
RTVSPost2010Prop54
  1
strokes_ogs.tif
102
RTVSPost2010PropOp54
 70
     1
102
RTVSPost2010Prop55
280
     0
102
RTVSPost2010PropOp55
 70
     1
102
RTVSPost2010Prop56
140
1.0
102
RTVSPost2010PropOp56
 70
     1
102
RTVSPost2010Prop57
140
1.0
102
RTVSPost2010PropOp57
 70
     1
102
RTVSPropertyOp0
 70
     1
102
RTVSPropertyOp1
 70
     1
102
RTVSPropertyOp2
 70
     1
102
RTVSPropertyOp3
 70
     1
102
RTVSPropertyOp4
 70
     1
102
RTVSPropertyOp5
 70
     1
102
RTVSPropertyOp6
 70
     1
102
RTVSPropertyOp7
 70
     1
102
RTVSPropertyOp8
 70
     1
102
RTVSPropertyOp9
 70
     1
102
RTVSPropertyOp10
 70
     1
102
RTVSPropertyOp11
 70
     1
102
RTVSPropertyOp12
 70
     1
102
RTVSPropertyOp13
 70
     1
102
RTVSPropertyOp14
 70
     1
102
RTVSPropertyOp15
 70
     1
102
RTVSPropertyOp16
 70
     1
102
RTVSPropertyOp17
 70
     1
102
RTVSPropertyOp18
 70
     1
102
RTVSPropertyOp19
 70
     1
102
RTVSPropertyOp20
 70
     1
102
RTVSPropertyOp21
 70
     1
102
RTVSPropertyOp22
 70
     1
102
RTVSPropertyOp23
 70
     1
102
RTVSPropertyOp24
 70
     1
102
RTVSPropertyOp25
 70
     1
102
RTVSPropertyOp26
 70
     1
102
RTVSPropertyOp27
 70
     1
102
RTVSPropertyOp28
 70
     1
102
RTVSPropertyOp29
 70
     1
102
RTVSPropertyOp30
 70
     1
102
RTVSPropertyOp31
 70
     1
102
RTVSPropertyOp32
 70
     1
102
RTVSPropertyOp33
 70
     1
102
RTVSPropertyOp34
 70
     1
102
RTVSPropertyOp35
 70
     1
102
RTVSPropertyOp36
 70
     1
102
RTVSPropertyOp37
 70
     1
102
RTVSPropertyOp38
 70
     1
102
RTVSPropertyOp39
 70
     1
102
RTVSPropertyOp40
 70
     1
102
RTVSPropertyOp41
 70
     1
102
RTVSPropertyOp42
 70
     1
102
RTVSPropertyOp43
 70
     1
102
RTVSPropertyOp44
 70
     1
102
RTVSPropertyOp45
 70
     1
102
RTVSPropertyOp46
 70
     1
102
RTVSPropertyOp47
 70
     1
102
RTVSPropertyOp48
 70
     1
102
RTVSPropertyOp49
 70
     1
102
RTVSPropertyOp50
 70
     1
102
RTVSPropertyOp51
 70
     0
102
RTVSPropertyOp52
 70
     0
102
RTVSPropertyOp53
 70
     1
102
RTVSPropertyOp54
 70
     1
102
RTVSPropertyOp55
 70
     1
102
RTVSPropertyOp56
 70
     1
102
RTVSPropertyOp57
 70
     1
102
RTVSPropertyOp58
 70
     1
102
RTVSPropertyOp59
 70
     1
102
RTVSPropertyOp60
 70
     1
102
RTVSPropertyOp61
 70
     1
102
RTVSPropertyOp62
 70
     1
  0
XRECORD
  5
254
102
{ACAD_REACTORS
330
253
102
}
330
253
100
AcDbXrecord
280
     1
102
RTVSPost2010Prop28
280
     0
102
RTVSPost2010PropOp28
 70
     1
102
RTVSPost2010Prop29
280
     1
102
RTVSPost2010PropOp29
 70
     1
102
RTVSPost2010Prop30
280
     1
102
RTVSPost2010PropOp30
 70
     1
102
RTVSPost2010Prop31
280
     0
102
RTVSPost2010PropOp31
 70
     1
102
RTVSPost2010Prop32
280
     0
102
RTVSPost2010PropOp32
 70
     1
102
RTVSPost2010Prop33
280
     0
102
RTVSPost2010PropOp33
 70
     1
102
RTVSPost2010Prop34
280
     0
102
RTVSPost2010PropOp34
 70
     1
102
RTVSPost2010Prop35
280
     0
102
RTVSPost2010PropOp35
 70
     1
102
RTVSPost2010Prop36
280
     0
102
RTVSPost2010PropOp36
 70
     1
102
RTVSPost2010Prop37
 90
       50
102
RTVSPost2010PropOp37
 70
     1
102
RTVSPost2010Prop38
140
0.0
102
RTVSPost2010PropOp38
 70
     1
102
RTVSPost2010Prop39
140
1.0
102
RTVSPost2010PropOp39
 70
     1
102
RTVSPost2010Prop40
 90
        0
102
RTVSPost2010PropOp40
 70
     1
102
RTVSPost2010Prop41ColorIndex
 90
       18
102
RTVSPost2010Prop41ColorRGB
 90
        0
102
RTVSPost2010PropOp41
 70
     1
102
RTVSPost2010Prop42
 90
       50
102
RTVSPost2010PropOp42
 70
     1
102
RTVSPost2010Prop43
 90
        3
102
RTVSPost2010PropOp43
 70
     1
102
RTVSPost2010Prop44ColorIndex
 90
        5
102
RTVSPost2010Prop44ColorRGB
 90
      255
102
RTVSPost2010PropOp44
 70
     1
102
RTVSPost2010Prop45
280
     0
102
RTVSPost2010PropOp45
 70
     1
102
RTVSPost2010Prop46
 90
       50
102
RTVSPost2010PropOp46
 70
     1
102
RTVSPost2010Prop47
 90
       50
102
RTVSPost2010PropOp47
 70
     1
102
RTVSPost2010Prop48
 90
       50
102
RTVSPost2010PropOp48
 70
     1
102
RTVSPost2010Prop49
280
     0
102
RTVSPost2010PropOp49
 70
     1
102
RTVSPost2010Prop50
 90
       50
102
RTVSPost2010PropOp50
 70
     1
102
RTVSPost2010Prop51ColorIndex
 90
      256
102
RTVSPost2010Prop51ColorRGB
 90
-16777216
102
RTVSPost2010PropOp51
 70
     0
102
RTVSPost2010Prop52
140
1.0
102
RTVSPost2010PropOp52
 70
     0
102
RTVSPost2010Prop53
 90
        2
102
RTVSPost2010PropOp53
 70
     1
102
RTVSPost2010Prop54
  1
strokes_ogs.tif
102
RTVSPost2010PropOp54
 70
     1
102
RTVSPost2010Prop55
280
     0
102
RTVSPost2010PropOp55
 70
     1
102
RTVSPost2010Prop56
140
1.0
102
RTVSPost2010PropOp56
 70
     1
102
RTVSPost2010Prop57
140
1.0
102
RTVSPost2010PropOp57
 70
     1
102
RTVSPropertyOp0
 70
     1
102
RTVSPropertyOp1
 70
     1
102
RTVSPropertyOp2
 70
     1
102
RTVSPropertyOp3
 70
     1
102
RTVSPropertyOp4
 70
     1
102
RTVSPropertyOp5
 70
     1
102
RTVSPropertyOp6
 70
     1
102
RTVSPropertyOp7
 70
     1
102
RTVSPropertyOp8
 70
     1
102
RTVSPropertyOp9
 70
     1
102
RTVSPropertyOp10
 70
     1
102
RTVSPropertyOp11
 70
     1
102
RTVSPropertyOp12
 70
     1
102
RTVSPropertyOp13
 70
     1
102
RTVSPropertyOp14
 70
     1
102
RTVSPropertyOp15
 70
     1
102
RTVSPropertyOp16
 70
     1
102
RTVSPropertyOp17
 70
     1
102
RTVSPropertyOp18
 70
     1
102
RTVSPropertyOp19
 70
     1
102
RTVSPropertyOp20
 70
     1
102
RTVSPropertyOp21
 70
     1
102
RTVSPropertyOp22
 70
     1
102
RTVSPropertyOp23
 70
     1
102
RTVSPropertyOp24
 70
     1
102
RTVSPropertyOp25
 70
     1
102
RTVSPropertyOp26
 70
     1
102
RTVSPropertyOp27
 70
     1
102
RTVSPropertyOp28
 70
     1
102
RTVSPropertyOp29
 70
     1
102
RTVSPropertyOp30
 70
     1
102
RTVSPropertyOp31
 70
     1
102
RTVSPropertyOp32
 70
     1
102
RTVSPropertyOp33
 70
     1
102
RTVSPropertyOp34
 70
     1
102
RTVSPropertyOp35
 70
     1
102
RTVSPropertyOp36
 70
     1
102
RTVSPropertyOp37
 70
     1
102
RTVSPropertyOp38
 70
     1
102
RTVSPropertyOp39
 70
     1
102
RTVSPropertyOp40
 70
     1
102
RTVSPropertyOp41
 70
     1
102
RTVSPropertyOp42
 70
     1
102
RTVSPropertyOp43
 70
     1
102
RTVSPropertyOp44
 70
     1
102
RTVSPropertyOp45
 70
     1
102
RTVSPropertyOp46
 70
     1
102
RTVSPropertyOp47
 70
     1
102
RTVSPropertyOp48
 70
     1
102
RTVSPropertyOp49
 70
     1
102
RTVSPropertyOp50
 70
     1
102
RTVSPropertyOp51
 70
     0
102
RTVSPropertyOp52
 70
     0
102
RTVSPropertyOp53
 70
     1
102
RTVSPropertyOp54
 70
     1
102
RTVSPropertyOp55
 70
     1
102
RTVSPropertyOp56
 70
     1
102
RTVSPropertyOp57
 70
     1
102
RTVSPropertyOp58
 70
     1
102
RTVSPropertyOp59
 70
     1
102
RTVSPropertyOp60
 70
     1
102
RTVSPropertyOp61
 70
     1
102
RTVSPropertyOp62
 70
     1
  0
XRECORD
  5
270
102
{ACAD_REACTORS
330
26F
102
}
330
26F
100
AcDbXrecord
280
     1
102
RTVSPost2010Prop28
280
     0
102
RTVSPost2010PropOp28
 70
     0
102
RTVSPost2010Prop29
280
     1
102
RTVSPost2010PropOp29
 70
     0
102
RTVSPost2010Prop30
280
     1
102
RTVSPost2010PropOp30
 70
     0
102
RTVSPost2010Prop31
280
     0
102
RTVSPost2010PropOp31
 70
     0
102
RTVSPost2010Prop32
280
     0
102
RTVSPost2010PropOp32
 70
     0
102
RTVSPost2010Prop33
280
     0
102
RTVSPost2010PropOp33
 70
     0
102
RTVSPost2010Prop34
280
     0
102
RTVSPost2010PropOp34
 70
     0
102
RTVSPost2010Prop35
280
     0
102
RTVSPost2010PropOp35
 70
     0
102
RTVSPost2010Prop36
280
     0
102
RTVSPost2010PropOp36
 70
     0
102
RTVSPost2010Prop37
 90
       50
102
RTVSPost2010PropOp37
 70
     0
102
RTVSPost2010Prop38
140
0.0
102
RTVSPost2010PropOp38
 70
     0
102
RTVSPost2010Prop39
140
1.0
102
RTVSPost2010PropOp39
 70
     0
102
RTVSPost2010Prop40
 90
        0
102
RTVSPost2010PropOp40
 70
     0
102
RTVSPost2010Prop41ColorIndex
 90
       18
102
RTVSPost2010Prop41ColorRGB
 90
        0
102
RTVSPost2010PropOp41
 70
     0
102
RTVSPost2010Prop42
 90
       50
102
RTVSPost2010PropOp42
 70
     0
102
RTVSPost2010Prop43
 90
        3
102
RTVSPost2010PropOp43
 70
     0
102
RTVSPost2010Prop44ColorIndex
 90
        5
102
RTVSPost2010Prop44ColorRGB
 90
      255
102
RTVSPost2010PropOp44
 70
     0
102
RTVSPost2010Prop45
280
     0
102
RTVSPost2010PropOp45
 70
     0
102
RTVSPost2010Prop46
 90
       50
102
RTVSPost2010PropOp46
 70
     0
102
RTVSPost2010Prop47
 90
       50
102
RTVSPost2010PropOp47
 70
     0
102
RTVSPost2010Prop48
 90
       50
102
RTVSPost2010PropOp48
 70
     0
102
RTVSPost2010Prop49
280
     0
102
RTVSPost2010PropOp49
 70
     0
102
RTVSPost2010Prop50
 90
       50
102
RTVSPost2010PropOp50
 70
     0
102
RTVSPost2010Prop51ColorIndex
 90
      256
102
RTVSPost2010Prop51ColorRGB
 90
-16777216
102
RTVSPost2010PropOp51
 70
     0
102
RTVSPost2010Prop52
140
1.0
102
RTVSPost2010PropOp52
 70
     0
102
RTVSPost2010Prop53
 90
        2
102
RTVSPost2010PropOp53
 70
     0
102
RTVSPost2010Prop54
  1
strokes_ogs.tif
102
RTVSPost2010PropOp54
 70
     0
102
RTVSPost2010Prop55
280
     0
102
RTVSPost2010PropOp55
 70
     0
102
RTVSPost2010Prop56
140
1.0
102
RTVSPost2010PropOp56
 70
     0
102
RTVSPost2010Prop57
140
1.0
102
RTVSPost2010PropOp57
 70
     0
102
RTVSPropertyOp0
 70
     0
102
RTVSPropertyOp1
 70
     0
102
RTVSPropertyOp2
 70
     0
102
RTVSPropertyOp3
 70
     0
102
RTVSPropertyOp4
 70
     0
102
RTVSPropertyOp5
 70
     0
102
RTVSPropertyOp6
 70
     0
102
RTVSPropertyOp7
 70
     0
102
RTVSPropertyOp8
 70
     0
102
RTVSPropertyOp9
 70
     0
102
RTVSPropertyOp10
 70
     0
102
RTVSPropertyOp11
 70
     0
102
RTVSPropertyOp12
 70
     0
102
RTVSPropertyOp13
 70
     0
102
RTVSPropertyOp14
 70
     2
102
RTVSPropertyOp15
 70
     0
102
RTVSPropertyOp16
 70
     0
102
RTVSPropertyOp17
 70
     0
102
RTVSPropertyOp18
 70
     0
102
RTVSPropertyOp19
 70
     0
102
RTVSPropertyOp20
 70
     0
102
RTVSPropertyOp21
 70
     0
102
RTVSPropertyOp22
 70
     0
102
RTVSPropertyOp23
 70
     0
102
RTVSPropertyOp24
 70
     0
102
RTVSPropertyOp25
 70
     0
102
RTVSPropertyOp26
 70
     0
102
RTVSPropertyOp27
 70
     0
102
RTVSPropertyOp28
 70
     0
102
RTVSPropertyOp29
 70
     0
102
RTVSPropertyOp30
 70
     0
102
RTVSPropertyOp31
 70
     0
102
RTVSPropertyOp32
 70
     0
102
RTVSPropertyOp33
 70
     0
102
RTVSPropertyOp34
 70
     0
102
RTVSPropertyOp35
 70
     0
102
RTVSPropertyOp36
 70
     0
102
RTVSPropertyOp37
 70
     0
102
RTVSPropertyOp38
 70
     0
102
RTVSPropertyOp39
 70
     0
102
RTVSPropertyOp40
 70
     0
102
RTVSPropertyOp41
 70
     0
102
RTVSPropertyOp42
 70
     0
102
RTVSPropertyOp43
 70
     0
102
RTVSPropertyOp44
 70
     0
102
RTVSPropertyOp45
 70
     0
102
RTVSPropertyOp46
 70
     0
102
RTVSPropertyOp47
 70
     0
102
RTVSPropertyOp48
 70
     0
102
RTVSPropertyOp49
 70
     0
102
RTVSPropertyOp50
 70
     0
102
RTVSPropertyOp51
 70
     0
102
RTVSPropertyOp52
 70
     0
102
RTVSPropertyOp53
 70
     0
102
RTVSPropertyOp54
 70
     0
102
RTVSPropertyOp55
 70
     0
102
RTVSPropertyOp56
 70
     0
102
RTVSPropertyOp57
 70
     0
102
RTVSPropertyOp58
 70
     1
102
RTVSPropertyOp59
 70
     1
102
RTVSPropertyOp60
 70
     1
102
RTVSPropertyOp61
 70
     1
102
RTVSPropertyOp62
 70
     1
  0
XRECORD
  5
260
102
{ACAD_REACTORS
330
25F
102
}
330
25F
100
AcDbXrecord
280
     1
102
RTVSPost2010Prop28
280
     0
102
RTVSPost2010PropOp28
 70
     1
102
RTVSPost2010Prop29
280
     1
102
RTVSPost2010PropOp29
 70
     1
102
RTVSPost2010Prop30
280
     1
102
RTVSPost2010PropOp30
 70
     1
102
RTVSPost2010Prop31
280
     0
102
RTVSPost2010PropOp31
 70
     1
102
RTVSPost2010Prop32
280
     0
102
RTVSPost2010PropOp32
 70
     1
102
RTVSPost2010Prop33
280
     0
102
RTVSPost2010PropOp33
 70
     1
102
RTVSPost2010Prop34
280
     0
102
RTVSPost2010PropOp34
 70
     1
102
RTVSPost2010Prop35
280
     0
102
RTVSPost2010PropOp35
 70
     1
102
RTVSPost2010Prop36
280
     0
102
RTVSPost2010PropOp36
 70
     1
102
RTVSPost2010Prop37
 90
       50
102
RTVSPost2010PropOp37
 70
     1
102
RTVSPost2010Prop38
140
0.0
102
RTVSPost2010PropOp38
 70
     1
102
RTVSPost2010Prop39
140
1.0
102
RTVSPost2010PropOp39
 70
     1
102
RTVSPost2010Prop40
 90
        0
102
RTVSPost2010PropOp40
 70
     1
102
RTVSPost2010Prop41ColorIndex
 90
       18
102
RTVSPost2010Prop41ColorRGB
 90
        0
102
RTVSPost2010PropOp41
 70
     1
102
RTVSPost2010Prop42
 90
       50
102
RTVSPost2010PropOp42
 70
     1
102
RTVSPost2010Prop43
 90
        3
102
RTVSPost2010PropOp43
 70
     1
102
RTVSPost2010Prop44ColorIndex
 90
        5
102
RTVSPost2010Prop44ColorRGB
 90
      255
102
RTVSPost2010PropOp44
 70
     1
102
RTVSPost2010Prop45
280
     0
102
RTVSPost2010PropOp45
 70
     1
102
RTVSPost2010Prop46
 90
       50
102
RTVSPost2010PropOp46
 70
     1
102
RTVSPost2010Prop47
 90
       50
102
RTVSPost2010PropOp47
 70
     1
102
RTVSPost2010Prop48
 90
       50
102
RTVSPost2010PropOp48
 70
     1
102
RTVSPost2010Prop49
280
     0
102
RTVSPost2010PropOp49
 70
     1
102
RTVSPost2010Prop50
 90
       50
102
RTVSPost2010PropOp50
 70
     1
102
RTVSPost2010Prop51ColorIndex
 90
      256
102
RTVSPost2010Prop51ColorRGB
 90
-16777216
102
RTVSPost2010PropOp51
 70
     0
102
RTVSPost2010Prop52
140
1.0
102
RTVSPost2010PropOp52
 70
     0
102
RTVSPost2010Prop53
 90
        2
102
RTVSPost2010PropOp53
 70
     1
102
RTVSPost2010Prop54
  1
strokes_ogs.tif
102
RTVSPost2010PropOp54
 70
     1
102
RTVSPost2010Prop55
280
     0
102
RTVSPost2010PropOp55
 70
     1
102
RTVSPost2010Prop56
140
1.0
102
RTVSPost2010PropOp56
 70
     1
102
RTVSPost2010Prop57
140
1.0
102
RTVSPost2010PropOp57
 70
     1
102
RTVSPropertyOp0
 70
     1
102
RTVSPropertyOp1
 70
     1
102
RTVSPropertyOp2
 70
     1
102
RTVSPropertyOp3
 70
     1
102
RTVSPropertyOp4
 70
     1
102
RTVSPropertyOp5
 70
     1
102
RTVSPropertyOp6
 70
     1
102
RTVSPropertyOp7
 70
     1
102
RTVSPropertyOp8
 70
     1
102
RTVSPropertyOp9
 70
     1
102
RTVSPropertyOp10
 70
     1
102
RTVSPropertyOp11
 70
     1
102
RTVSPropertyOp12
 70
     1
102
RTVSPropertyOp13
 70
     1
102
RTVSPropertyOp14
 70
     1
102
RTVSPropertyOp15
 70
     1
102
RTVSPropertyOp16
 70
     1
102
RTVSPropertyOp17
 70
     1
102
RTVSPropertyOp18
 70
     1
102
RTVSPropertyOp19
 70
     1
102
RTVSPropertyOp20
 70
     1
102
RTVSPropertyOp21
 70
     1
102
RTVSPropertyOp22
 70
     1
102
RTVSPropertyOp23
 70
     1
102
RTVSPropertyOp24
 70
     1
102
RTVSPropertyOp25
 70
     1
102
RTVSPropertyOp26
 70
     1
102
RTVSPropertyOp27
 70
     1
102
RTVSPropertyOp28
 70
     1
102
RTVSPropertyOp29
 70
     1
102
RTVSPropertyOp30
 70
     1
102
RTVSPropertyOp31
 70
     1
102
RTVSPropertyOp32
 70
     1
102
RTVSPropertyOp33
 70
     1
102
RTVSPropertyOp34
 70
     1
102
RTVSPropertyOp35
 70
     1
102
RTVSPropertyOp36
 70
     1
102
RTVSPropertyOp37
 70
     1
102
RTVSPropertyOp38
 70
     1
102
RTVSPropertyOp39
 70
     1
102
RTVSPropertyOp40
 70
     1
102
RTVSPropertyOp41
 70
     1
102
RTVSPropertyOp42
 70
     1
102
RTVSPropertyOp43
 70
     1
102
RTVSPropertyOp44
 70
     1
102
RTVSPropertyOp45
 70
     1
102
RTVSPropertyOp46
 70
     1
102
RTVSPropertyOp47
 70
     1
102
RTVSPropertyOp48
 70
     1
102
RTVSPropertyOp49
 70
     1
102
RTVSPropertyOp50
 70
     1
102
RTVSPropertyOp51
 70
     0
102
RTVSPropertyOp52
 70
     0
102
RTVSPropertyOp53
 70
     1
102
RTVSPropertyOp54
 70
     1
102
RTVSPropertyOp55
 70
     1
102
RTVSPropertyOp56
 70
     1
102
RTVSPropertyOp57
 70
     1
102
RTVSPropertyOp58
 70
     1
102
RTVSPropertyOp59
 70
     1
102
RTVSPropertyOp60
 70
     1
102
RTVSPropertyOp61
 70
     1
102
RTVSPropertyOp62
 70
     1
  0
XRECORD
  5
272
102
{ACAD_REACTORS
330
271
102
}
330
271
100
AcDbXrecord
280
     1
102
RTVSPost2010Prop28
280
     0
102
RTVSPost2010PropOp28
 70
     0
102
RTVSPost2010Prop29
280
     1
102
RTVSPost2010PropOp29
 70
     0
102
RTVSPost2010Prop30
280
     1
102
RTVSPost2010PropOp30
 70
     0
102
RTVSPost2010Prop31
280
     0
102
RTVSPost2010PropOp31
 70
     0
102
RTVSPost2010Prop32
280
     0
102
RTVSPost2010PropOp32
 70
     0
102
RTVSPost2010Prop33
280
     0
102
RTVSPost2010PropOp33
 70
     0
102
RTVSPost2010Prop34
280
     0
102
RTVSPost2010PropOp34
 70
     0
102
RTVSPost2010Prop35
280
     0
102
RTVSPost2010PropOp35
 70
     0
102
RTVSPost2010Prop36
280
     0
102
RTVSPost2010PropOp36
 70
     0
102
RTVSPost2010Prop37
 90
       50
102
RTVSPost2010PropOp37
 70
     0
102
RTVSPost2010Prop38
140
0.0
102
RTVSPost2010PropOp38
 70
     0
102
RTVSPost2010Prop39
140
1.0
102
RTVSPost2010PropOp39
 70
     0
102
RTVSPost2010Prop40
 90
        0
102
RTVSPost2010PropOp40
 70
     0
102
RTVSPost2010Prop41ColorIndex
 90
       18
102
RTVSPost2010Prop41ColorRGB
 90
        0
102
RTVSPost2010PropOp41
 70
     0
102
RTVSPost2010Prop42
 90
       50
102
RTVSPost2010PropOp42
 70
     0
102
RTVSPost2010Prop43
 90
        3
102
RTVSPost2010PropOp43
 70
     0
102
RTVSPost2010Prop44ColorIndex
 90
        5
102
RTVSPost2010Prop44ColorRGB
 90
      255
102
RTVSPost2010PropOp44
 70
     0
102
RTVSPost2010Prop45
280
     0
102
RTVSPost2010PropOp45
 70
     0
102
RTVSPost2010Prop46
 90
       50
102
RTVSPost2010PropOp46
 70
     0
102
RTVSPost2010Prop47
 90
       50
102
RTVSPost2010PropOp47
 70
     0
102
RTVSPost2010Prop48
 90
       50
102
RTVSPost2010PropOp48
 70
     0
102
RTVSPost2010Prop49
280
     0
102
RTVSPost2010PropOp49
 70
     0
102
RTVSPost2010Prop50
 90
       50
102
RTVSPost2010PropOp50
 70
     0
102
RTVSPost2010Prop51ColorIndex
 90
      256
102
RTVSPost2010Prop51ColorRGB
 90
-16777216
102
RTVSPost2010PropOp51
 70
     0
102
RTVSPost2010Prop52
140
1.0
102
RTVSPost2010PropOp52
 70
     0
102
RTVSPost2010Prop53
 90
        2
102
RTVSPost2010PropOp53
 70
     0
102
RTVSPost2010Prop54
  1
strokes_ogs.tif
102
RTVSPost2010PropOp54
 70
     0
102
RTVSPost2010Prop55
280
     0
102
RTVSPost2010PropOp55
 70
     0
102
RTVSPost2010Prop56
140
1.0
102
RTVSPost2010PropOp56
 70
     0
102
RTVSPost2010Prop57
140
1.0
102
RTVSPost2010PropOp57
 70
     0
102
RTVSPropertyOp0
 70
     0
102
RTVSPropertyOp1
 70
     0
102
RTVSPropertyOp2
 70
     0
102
RTVSPropertyOp3
 70
     0
102
RTVSPropertyOp4
 70
     0
102
RTVSPropertyOp5
 70
     0
102
RTVSPropertyOp6
 70
     0
102
RTVSPropertyOp7
 70
     0
102
RTVSPropertyOp8
 70
     0
102
RTVSPropertyOp9
 70
     0
102
RTVSPropertyOp10
 70
     0
102
RTVSPropertyOp11
 70
     0
102
RTVSPropertyOp12
 70
     0
102
RTVSPropertyOp13
 70
     0
102
RTVSPropertyOp14
 70
     2
102
RTVSPropertyOp15
 70
     0
102
RTVSPropertyOp16
 70
     0
102
RTVSPropertyOp17
 70
     0
102
RTVSPropertyOp18
 70
     0
102
RTVSPropertyOp19
 70
     0
102
RTVSPropertyOp20
 70
     0
102
RTVSPropertyOp21
 70
     0
102
RTVSPropertyOp22
 70
     0
102
RTVSPropertyOp23
 70
     0
102
RTVSPropertyOp24
 70
     0
102
RTVSPropertyOp25
 70
     0
102
RTVSPropertyOp26
 70
     0
102
RTVSPropertyOp27
 70
     0
102
RTVSPropertyOp28
 70
     0
102
RTVSPropertyOp29
 70
     0
102
RTVSPropertyOp30
 70
     0
102
RTVSPropertyOp31
 70
     0
102
RTVSPropertyOp32
 70
     0
102
RTVSPropertyOp33
 70
     0
102
RTVSPropertyOp34
 70
     0
102
RTVSPropertyOp35
 70
     0
102
RTVSPropertyOp36
 70
     0
102
RTVSPropertyOp37
 70
     0
102
RTVSPropertyOp38
 70
     0
102
RTVSPropertyOp39
 70
     0
102
RTVSPropertyOp40
 70
     0
102
RTVSPropertyOp41
 70
     0
102
RTVSPropertyOp42
 70
     0
102
RTVSPropertyOp43
 70
     0
102
RTVSPropertyOp44
 70
     0
102
RTVSPropertyOp45
 70
     0
102
RTVSPropertyOp46
 70
     0
102
RTVSPropertyOp47
 70
     0
102
RTVSPropertyOp48
 70
     0
102
RTVSPropertyOp49
 70
     0
102
RTVSPropertyOp50
 70
     0
102
RTVSPropertyOp51
 70
     0
102
RTVSPropertyOp52
 70
     0
102
RTVSPropertyOp53
 70
     0
102
RTVSPropertyOp54
 70
     0
102
RTVSPropertyOp55
 70
     0
102
RTVSPropertyOp56
 70
     0
102
RTVSPropertyOp57
 70
     0
102
RTVSPropertyOp58
 70
     1
102
RTVSPropertyOp59
 70
     1
102
RTVSPropertyOp60
 70
     1
102
RTVSPropertyOp61
 70
     1
102
RTVSPropertyOp62
 70
     1
  0
XRECORD
  5
258
102
{ACAD_REACTORS
330
257
102
}
330
257
100
AcDbXrecord
280
     1
102
RTVSPost2010Prop28
280
     0
102
RTVSPost2010PropOp28
 70
     1
102
RTVSPost2010Prop29
280
     1
102
RTVSPost2010PropOp29
 70
     1
102
RTVSPost2010Prop30
280
     1
102
RTVSPost2010PropOp30
 70
     1
102
RTVSPost2010Prop31
280
     0
102
RTVSPost2010PropOp31
 70
     1
102
RTVSPost2010Prop32
280
     0
102
RTVSPost2010PropOp32
 70
     1
102
RTVSPost2010Prop33
280
     0
102
RTVSPost2010PropOp33
 70
     1
102
RTVSPost2010Prop34
280
     0
102
RTVSPost2010PropOp34
 70
     1
102
RTVSPost2010Prop35
280
     0
102
RTVSPost2010PropOp35
 70
     1
102
RTVSPost2010Prop36
280
     0
102
RTVSPost2010PropOp36
 70
     1
102
RTVSPost2010Prop37
 90
       50
102
RTVSPost2010PropOp37
 70
     1
102
RTVSPost2010Prop38
140
0.0
102
RTVSPost2010PropOp38
 70
     1
102
RTVSPost2010Prop39
140
1.0
102
RTVSPost2010PropOp39
 70
     1
102
RTVSPost2010Prop40
 90
        0
102
RTVSPost2010PropOp40
 70
     1
102
RTVSPost2010Prop41ColorIndex
 90
       18
102
RTVSPost2010Prop41ColorRGB
 90
        0
102
RTVSPost2010PropOp41
 70
     1
102
RTVSPost2010Prop42
 90
       50
102
RTVSPost2010PropOp42
 70
     1
102
RTVSPost2010Prop43
 90
        3
102
RTVSPost2010PropOp43
 70
     1
102
RTVSPost2010Prop44ColorIndex
 90
        5
102
RTVSPost2010Prop44ColorRGB
 90
      255
102
RTVSPost2010PropOp44
 70
     1
102
RTVSPost2010Prop45
280
     0
102
RTVSPost2010PropOp45
 70
     1
102
RTVSPost2010Prop46
 90
       50
102
RTVSPost2010PropOp46
 70
     1
102
RTVSPost2010Prop47
 90
       50
102
RTVSPost2010PropOp47
 70
     1
102
RTVSPost2010Prop48
 90
       50
102
RTVSPost2010PropOp48
 70
     1
102
RTVSPost2010Prop49
280
     0
102
RTVSPost2010PropOp49
 70
     1
102
RTVSPost2010Prop50
 90
       50
102
RTVSPost2010PropOp50
 70
     1
102
RTVSPost2010Prop51ColorIndex
 90
      256
102
RTVSPost2010Prop51ColorRGB
 90
-16777216
102
RTVSPost2010PropOp51
 70
     0
102
RTVSPost2010Prop52
140
1.0
102
RTVSPost2010PropOp52
 70
     0
102
RTVSPost2010Prop53
 90
        2
102
RTVSPost2010PropOp53
 70
     1
102
RTVSPost2010Prop54
  1
strokes_ogs.tif
102
RTVSPost2010PropOp54
 70
     1
102
RTVSPost2010Prop55
280
     0
102
RTVSPost2010PropOp55
 70
     1
102
RTVSPost2010Prop56
140
1.0
102
RTVSPost2010PropOp56
 70
     1
102
RTVSPost2010Prop57
140
1.0
102
RTVSPost2010PropOp57
 70
     1
102
RTVSPropertyOp0
 70
     1
102
RTVSPropertyOp1
 70
     1
102
RTVSPropertyOp2
 70
     1
102
RTVSPropertyOp3
 70
     1
102
RTVSPropertyOp4
 70
     1
102
RTVSPropertyOp5
 70
     1
102
RTVSPropertyOp6
 70
     1
102
RTVSPropertyOp7
 70
     1
102
RTVSPropertyOp8
 70
     1
102
RTVSPropertyOp9
 70
     1
102
RTVSPropertyOp10
 70
     1
102
RTVSPropertyOp11
 70
     1
102
RTVSPropertyOp12
 70
     1
102
RTVSPropertyOp13
 70
     1
102
RTVSPropertyOp14
 70
     1
102
RTVSPropertyOp15
 70
     1
102
RTVSPropertyOp16
 70
     1
102
RTVSPropertyOp17
 70
     1
102
RTVSPropertyOp18
 70
     1
102
RTVSPropertyOp19
 70
     1
102
RTVSPropertyOp20
 70
     1
102
RTVSPropertyOp21
 70
     1
102
RTVSPropertyOp22
 70
     1
102
RTVSPropertyOp23
 70
     1
102
RTVSPropertyOp24
 70
     1
102
RTVSPropertyOp25
 70
     1
102
RTVSPropertyOp26
 70
     1
102
RTVSPropertyOp27
 70
     1
102
RTVSPropertyOp28
 70
     1
102
RTVSPropertyOp29
 70
     1
102
RTVSPropertyOp30
 70
     1
102
RTVSPropertyOp31
 70
     1
102
RTVSPropertyOp32
 70
     1
102
RTVSPropertyOp33
 70
     1
102
RTVSPropertyOp34
 70
     1
102
RTVSPropertyOp35
 70
     1
102
RTVSPropertyOp36
 70
     1
102
RTVSPropertyOp37
 70
     1
102
RTVSPropertyOp38
 70
     1
102
RTVSPropertyOp39
 70
     1
102
RTVSPropertyOp40
 70
     1
102
RTVSPropertyOp41
 70
     1
102
RTVSPropertyOp42
 70
     1
102
RTVSPropertyOp43
 70
     1
102
RTVSPropertyOp44
 70
     1
102
RTVSPropertyOp45
 70
     1
102
RTVSPropertyOp46
 70
     1
102
RTVSPropertyOp47
 70
     1
102
RTVSPropertyOp48
 70
     1
102
RTVSPropertyOp49
 70
     1
102
RTVSPropertyOp50
 70
     1
102
RTVSPropertyOp51
 70
     0
102
RTVSPropertyOp52
 70
     0
102
RTVSPropertyOp53
 70
     1
102
RTVSPropertyOp54
 70
     1
102
RTVSPropertyOp55
 70
     1
102
RTVSPropertyOp56
 70
     1
102
RTVSPropertyOp57
 70
     1
102
RTVSPropertyOp58
 70
     1
102
RTVSPropertyOp59
 70
     1
102
RTVSPropertyOp60
 70
     1
102
RTVSPropertyOp61
 70
     1
102
RTVSPropertyOp62
 70
     1
  0
XRECORD
  5
26E
102
{ACAD_REACTORS
330
26D
102
}
330
26D
100
AcDbXrecord
280
     1
102
RTVSPost2010Prop28
280
     0
102
RTVSPost2010PropOp28
 70
     1
102
RTVSPost2010Prop29
280
     1
102
RTVSPost2010PropOp29
 70
     1
102
RTVSPost2010Prop30
280
     1
102
RTVSPost2010PropOp30
 70
     1
102
RTVSPost2010Prop31
280
     0
102
RTVSPost2010PropOp31
 70
     1
102
RTVSPost2010Prop32
280
     0
102
RTVSPost2010PropOp32
 70
     1
102
RTVSPost2010Prop33
280
     0
102
RTVSPost2010PropOp33
 70
     1
102
RTVSPost2010Prop34
280
     0
102
RTVSPost2010PropOp34
 70
     1
102
RTVSPost2010Prop35
280
     0
102
RTVSPost2010PropOp35
 70
     1
102
RTVSPost2010Prop36
280
     0
102
RTVSPost2010PropOp36
 70
     1
102
RTVSPost2010Prop37
 90
       50
102
RTVSPost2010PropOp37
 70
     1
102
RTVSPost2010Prop38
140
0.0
102
RTVSPost2010PropOp38
 70
     1
102
RTVSPost2010Prop39
140
1.0
102
RTVSPost2010PropOp39
 70
     1
102
RTVSPost2010Prop40
 90
        0
102
RTVSPost2010PropOp40
 70
     1
102
RTVSPost2010Prop41ColorIndex
 90
       18
102
RTVSPost2010Prop41ColorRGB
 90
        0
102
RTVSPost2010PropOp41
 70
     1
102
RTVSPost2010Prop42
 90
       50
102
RTVSPost2010PropOp42
 70
     1
102
RTVSPost2010Prop43
 90
        3
102
RTVSPost2010PropOp43
 70
     1
102
RTVSPost2010Prop44ColorIndex
 90
        5
102
RTVSPost2010Prop44ColorRGB
 90
      255
102
RTVSPost2010PropOp44
 70
     1
102
RTVSPost2010Prop45
280
     0
102
RTVSPost2010PropOp45
 70
     1
102
RTVSPost2010Prop46
 90
       50
102
RTVSPost2010PropOp46
 70
     1
102
RTVSPost2010Prop47
 90
       50
102
RTVSPost2010PropOp47
 70
     1
102
RTVSPost2010Prop48
 90
       50
102
RTVSPost2010PropOp48
 70
     1
102
RTVSPost2010Prop49
280
     0
102
RTVSPost2010PropOp49
 70
     1
102
RTVSPost2010Prop50
 90
       50
102
RTVSPost2010PropOp50
 70
     1
102
RTVSPost2010Prop51ColorIndex
 90
      256
102
RTVSPost2010Prop51ColorRGB
 90
-16777216
102
RTVSPost2010PropOp51
 70
     0
102
RTVSPost2010Prop52
140
1.0
102
RTVSPost2010PropOp52
 70
     0
102
RTVSPost2010Prop53
 90
        2
102
RTVSPost2010PropOp53
 70
     1
102
RTVSPost2010Prop54
  1
strokes_ogs.tif
102
RTVSPost2010PropOp54
 70
     1
102
RTVSPost2010Prop55
280
     0
102
RTVSPost2010PropOp55
 70
     1
102
RTVSPost2010Prop56
140
1.0
102
RTVSPost2010PropOp56
 70
     1
102
RTVSPost2010Prop57
140
1.0
102
RTVSPost2010PropOp57
 70
     1
102
RTVSPropertyOp0
 70
     1
102
RTVSPropertyOp1
 70
     1
102
RTVSPropertyOp2
 70
     1
102
RTVSPropertyOp3
 70
     1
102
RTVSPropertyOp4
 70
     1
102
RTVSPropertyOp5
 70
     1
102
RTVSPropertyOp6
 70
     1
102
RTVSPropertyOp7
 70
     1
102
RTVSPropertyOp8
 70
     1
102
RTVSPropertyOp9
 70
     1
102
RTVSPropertyOp10
 70
     1
102
RTVSPropertyOp11
 70
     1
102
RTVSPropertyOp12
 70
     1
102
RTVSPropertyOp13
 70
     1
102
RTVSPropertyOp14
 70
     1
102
RTVSPropertyOp15
 70
     1
102
RTVSPropertyOp16
 70
     1
102
RTVSPropertyOp17
 70
     1
102
RTVSPropertyOp18
 70
     1
102
RTVSPropertyOp19
 70
     1
102
RTVSPropertyOp20
 70
     1
102
RTVSPropertyOp21
 70
     1
102
RTVSPropertyOp22
 70
     1
102
RTVSPropertyOp23
 70
     1
102
RTVSPropertyOp24
 70
     1
102
RTVSPropertyOp25
 70
     1
102
RTVSPropertyOp26
 70
     1
102
RTVSPropertyOp27
 70
     1
102
RTVSPropertyOp28
 70
     1
102
RTVSPropertyOp29
 70
     1
102
RTVSPropertyOp30
 70
     1
102
RTVSPropertyOp31
 70
     1
102
RTVSPropertyOp32
 70
     1
102
RTVSPropertyOp33
 70
     1
102
RTVSPropertyOp34
 70
     1
102
RTVSPropertyOp35
 70
     1
102
RTVSPropertyOp36
 70
     1
102
RTVSPropertyOp37
 70
     1
102
RTVSPropertyOp38
 70
     1
102
RTVSPropertyOp39
 70
     1
102
RTVSPropertyOp40
 70
     1
102
RTVSPropertyOp41
 70
     1
102
RTVSPropertyOp42
 70
     1
102
RTVSPropertyOp43
 70
     1
102
RTVSPropertyOp44
 70
     1
102
RTVSPropertyOp45
 70
     1
102
RTVSPropertyOp46
 70
     1
102
RTVSPropertyOp47
 70
     1
102
RTVSPropertyOp48
 70
     1
102
RTVSPropertyOp49
 70
     1
102
RTVSPropertyOp50
 70
     1
102
RTVSPropertyOp51
 70
     0
102
RTVSPropertyOp52
 70
     0
102
RTVSPropertyOp53
 70
     1
102
RTVSPropertyOp54
 70
     1
102
RTVSPropertyOp55
 70
     1
102
RTVSPropertyOp56
 70
     1
102
RTVSPropertyOp57
 70
     1
102
RTVSPropertyOp58
 70
     1
102
RTVSPropertyOp59
 70
     1
102
RTVSPropertyOp60
 70
     1
102
RTVSPropertyOp61
 70
     1
102
RTVSPropertyOp62
 70
     1
  0
XRECORD
  5
26C
102
{ACAD_REACTORS
330
26B
102
}
330
26B
100
AcDbXrecord
280
     1
102
RTVSPost2010Prop28
280
     0
102
RTVSPost2010PropOp28
 70
     1
102
RTVSPost2010Prop29
280
     1
102
RTVSPost2010PropOp29
 70
     1
102
RTVSPost2010Prop30
280
     1
102
RTVSPost2010PropOp30
 70
     1
102
RTVSPost2010Prop31
280
     0
102
RTVSPost2010PropOp31
 70
     1
102
RTVSPost2010Prop32
280
     0
102
RTVSPost2010PropOp32
 70
     1
102
RTVSPost2010Prop33
280
     0
102
RTVSPost2010PropOp33
 70
     1
102
RTVSPost2010Prop34
280
     0
102
RTVSPost2010PropOp34
 70
     1
102
RTVSPost2010Prop35
280
     0
102
RTVSPost2010PropOp35
 70
     1
102
RTVSPost2010Prop36
280
     0
102
RTVSPost2010PropOp36
 70
     1
102
RTVSPost2010Prop37
 90
       50
102
RTVSPost2010PropOp37
 70
     1
102
RTVSPost2010Prop38
140
0.0
102
RTVSPost2010PropOp38
 70
     1
102
RTVSPost2010Prop39
140
1.0
102
RTVSPost2010PropOp39
 70
     1
102
RTVSPost2010Prop40
 90
        0
102
RTVSPost2010PropOp40
 70
     1
102
RTVSPost2010Prop41ColorIndex
 90
       18
102
RTVSPost2010Prop41ColorRGB
 90
        0
102
RTVSPost2010PropOp41
 70
     1
102
RTVSPost2010Prop42
 90
       50
102
RTVSPost2010PropOp42
 70
     1
102
RTVSPost2010Prop43
 90
        3
102
RTVSPost2010PropOp43
 70
     1
102
RTVSPost2010Prop44ColorIndex
 90
        5
102
RTVSPost2010Prop44ColorRGB
 90
      255
102
RTVSPost2010PropOp44
 70
     1
102
RTVSPost2010Prop45
280
     0
102
RTVSPost2010PropOp45
 70
     1
102
RTVSPost2010Prop46
 90
       50
102
RTVSPost2010PropOp46
 70
     1
102
RTVSPost2010Prop47
 90
       50
102
RTVSPost2010PropOp47
 70
     1
102
RTVSPost2010Prop48
 90
       50
102
RTVSPost2010PropOp48
 70
     1
102
RTVSPost2010Prop49
280
     0
102
RTVSPost2010PropOp49
 70
     1
102
RTVSPost2010Prop50
 90
       50
102
RTVSPost2010PropOp50
 70
     1
102
RTVSPost2010Prop51ColorIndex
 90
      256
102
RTVSPost2010Prop51ColorRGB
 90
-16777216
102
RTVSPost2010PropOp51
 70
     0
102
RTVSPost2010Prop52
140
1.0
102
RTVSPost2010PropOp52
 70
     0
102
RTVSPost2010Prop53
 90
        2
102
RTVSPost2010PropOp53
 70
     1
102
RTVSPost2010Prop54
  1
strokes_ogs.tif
102
RTVSPost2010PropOp54
 70
     1
102
RTVSPost2010Prop55
280
     0
102
RTVSPost2010PropOp55
 70
     1
102
RTVSPost2010Prop56
140
1.0
102
RTVSPost2010PropOp56
 70
     1
102
RTVSPost2010Prop57
140
1.0
102
RTVSPost2010PropOp57
 70
     1
102
RTVSPropertyOp0
 70
     1
102
RTVSPropertyOp1
 70
     1
102
RTVSPropertyOp2
 70
     1
102
RTVSPropertyOp3
 70
     1
102
RTVSPropertyOp4
 70
     1
102
RTVSPropertyOp5
 70
     1
102
RTVSPropertyOp6
 70
     1
102
RTVSPropertyOp7
 70
     1
102
RTVSPropertyOp8
 70
     1
102
RTVSPropertyOp9
 70
     1
102
RTVSPropertyOp10
 70
     1
102
RTVSPropertyOp11
 70
     1
102
RTVSPropertyOp12
 70
     1
102
RTVSPropertyOp13
 70
     1
102
RTVSPropertyOp14
 70
     1
102
RTVSPropertyOp15
 70
     1
102
RTVSPropertyOp16
 70
     1
102
RTVSPropertyOp17
 70
     1
102
RTVSPropertyOp18
 70
     1
102
RTVSPropertyOp19
 70
     1
102
RTVSPropertyOp20
 70
     1
102
RTVSPropertyOp21
 70
     1
102
RTVSPropertyOp22
 70
     1
102
RTVSPropertyOp23
 70
     1
102
RTVSPropertyOp24
 70
     1
102
RTVSPropertyOp25
 70
     1
102
RTVSPropertyOp26
 70
     1
102
RTVSPropertyOp27
 70
     1
102
RTVSPropertyOp28
 70
     1
102
RTVSPropertyOp29
 70
     1
102
RTVSPropertyOp30
 70
     1
102
RTVSPropertyOp31
 70
     1
102
RTVSPropertyOp32
 70
     1
102
RTVSPropertyOp33
 70
     1
102
RTVSPropertyOp34
 70
     1
102
RTVSPropertyOp35
 70
     1
102
RTVSPropertyOp36
 70
     1
102
RTVSPropertyOp37
 70
     1
102
RTVSPropertyOp38
 70
     1
102
RTVSPropertyOp39
 70
     1
102
RTVSPropertyOp40
 70
     1
102
RTVSPropertyOp41
 70
     1
102
RTVSPropertyOp42
 70
     1
102
RTVSPropertyOp43
 70
     1
102
RTVSPropertyOp44
 70
     1
102
RTVSPropertyOp45
 70
     1
102
RTVSPropertyOp46
 70
     1
102
RTVSPropertyOp47
 70
     1
102
RTVSPropertyOp48
 70
     1
102
RTVSPropertyOp49
 70
     1
102
RTVSPropertyOp50
 70
     1
102
RTVSPropertyOp51
 70
     0
102
RTVSPropertyOp52
 70
     0
102
RTVSPropertyOp53
 70
     1
102
RTVSPropertyOp54
 70
     1
102
RTVSPropertyOp55
 70
     1
102
RTVSPropertyOp56
 70
     1
102
RTVSPropertyOp57
 70
     1
102
RTVSPropertyOp58
 70
     1
102
RTVSPropertyOp59
 70
     1
102
RTVSPropertyOp60
 70
     1
102
RTVSPropertyOp61
 70
     1
102
RTVSPropertyOp62
 70
     1
  0
XRECORD
  5
266
102
{ACAD_REACTORS
330
265
102
}
330
265
100
AcDbXrecord
280
     1
102
RTVSPost2010Prop28
280
     0
102
RTVSPost2010PropOp28
 70
     1
102
RTVSPost2010Prop29
280
     1
102
RTVSPost2010PropOp29
 70
     1
102
RTVSPost2010Prop30
280
     1
102
RTVSPost2010PropOp30
 70
     1
102
RTVSPost2010Prop31
280
     0
102
RTVSPost2010PropOp31
 70
     1
102
RTVSPost2010Prop32
280
     0
102
RTVSPost2010PropOp32
 70
     1
102
RTVSPost2010Prop33
280
     0
102
RTVSPost2010PropOp33
 70
     1
102
RTVSPost2010Prop34
280
     0
102
RTVSPost2010PropOp34
 70
     1
102
RTVSPost2010Prop35
280
     0
102
RTVSPost2010PropOp35
 70
     1
102
RTVSPost2010Prop36
280
     0
102
RTVSPost2010PropOp36
 70
     1
102
RTVSPost2010Prop37
 90
       50
102
RTVSPost2010PropOp37
 70
     1
102
RTVSPost2010Prop38
140
0.0
102
RTVSPost2010PropOp38
 70
     1
102
RTVSPost2010Prop39
140
1.0
102
RTVSPost2010PropOp39
 70
     1
102
RTVSPost2010Prop40
 90
        0
102
RTVSPost2010PropOp40
 70
     1
102
RTVSPost2010Prop41ColorIndex
 90
       18
102
RTVSPost2010Prop41ColorRGB
 90
        0
102
RTVSPost2010PropOp41
 70
     1
102
RTVSPost2010Prop42
 90
       50
102
RTVSPost2010PropOp42
 70
     1
102
RTVSPost2010Prop43
 90
        3
102
RTVSPost2010PropOp43
 70
     1
102
RTVSPost2010Prop44ColorIndex
 90
        5
102
RTVSPost2010Prop44ColorRGB
 90
      255
102
RTVSPost2010PropOp44
 70
     1
102
RTVSPost2010Prop45
280
     0
102
RTVSPost2010PropOp45
 70
     1
102
RTVSPost2010Prop46
 90
       50
102
RTVSPost2010PropOp46
 70
     1
102
RTVSPost2010Prop47
 90
       50
102
RTVSPost2010PropOp47
 70
     1
102
RTVSPost2010Prop48
 90
       50
102
RTVSPost2010PropOp48
 70
     1
102
RTVSPost2010Prop49
280
     0
102
RTVSPost2010PropOp49
 70
     1
102
RTVSPost2010Prop50
 90
       50
102
RTVSPost2010PropOp50
 70
     1
102
RTVSPost2010Prop51ColorIndex
 90
      256
102
RTVSPost2010Prop51ColorRGB
 90
-16777216
102
RTVSPost2010PropOp51
 70
     0
102
RTVSPost2010Prop52
140
1.0
102
RTVSPost2010PropOp52
 70
     0
102
RTVSPost2010Prop53
 90
        2
102
RTVSPost2010PropOp53
 70
     1
102
RTVSPost2010Prop54
  1
strokes_ogs.tif
102
RTVSPost2010PropOp54
 70
     1
102
RTVSPost2010Prop55
280
     0
102
RTVSPost2010PropOp55
 70
     1
102
RTVSPost2010Prop56
140
1.0
102
RTVSPost2010PropOp56
 70
     1
102
RTVSPost2010Prop57
140
1.0
102
RTVSPost2010PropOp57
 70
     1
102
RTVSPropertyOp0
 70
     1
102
RTVSPropertyOp1
 70
     1
102
RTVSPropertyOp2
 70
     1
102
RTVSPropertyOp3
 70
     1
102
RTVSPropertyOp4
 70
     1
102
RTVSPropertyOp5
 70
     1
102
RTVSPropertyOp6
 70
     1
102
RTVSPropertyOp7
 70
     1
102
RTVSPropertyOp8
 70
     1
102
RTVSPropertyOp9
 70
     1
102
RTVSPropertyOp10
 70
     1
102
RTVSPropertyOp11
 70
     1
102
RTVSPropertyOp12
 70
     1
102
RTVSPropertyOp13
 70
     1
102
RTVSPropertyOp14
 70
     1
102
RTVSPropertyOp15
 70
     1
102
RTVSPropertyOp16
 70
     1
102
RTVSPropertyOp17
 70
     1
102
RTVSPropertyOp18
 70
     1
102
RTVSPropertyOp19
 70
     1
102
RTVSPropertyOp20
 70
     1
102
RTVSPropertyOp21
 70
     1
102
RTVSPropertyOp22
 70
     1
102
RTVSPropertyOp23
 70
     1
102
RTVSPropertyOp24
 70
     1
102
RTVSPropertyOp25
 70
     1
102
RTVSPropertyOp26
 70
     1
102
RTVSPropertyOp27
 70
     1
102
RTVSPropertyOp28
 70
     1
102
RTVSPropertyOp29
 70
     1
102
RTVSPropertyOp30
 70
     1
102
RTVSPropertyOp31
 70
     1
102
RTVSPropertyOp32
 70
     1
102
RTVSPropertyOp33
 70
     1
102
RTVSPropertyOp34
 70
     1
102
RTVSPropertyOp35
 70
     1
102
RTVSPropertyOp36
 70
     1
102
RTVSPropertyOp37
 70
     1
102
RTVSPropertyOp38
 70
     1
102
RTVSPropertyOp39
 70
     1
102
RTVSPropertyOp40
 70
     1
102
RTVSPropertyOp41
 70
     1
102
RTVSPropertyOp42
 70
     1
102
RTVSPropertyOp43
 70
     1
102
RTVSPropertyOp44
 70
     1
102
RTVSPropertyOp45
 70
     1
102
RTVSPropertyOp46
 70
     1
102
RTVSPropertyOp47
 70
     1
102
RTVSPropertyOp48
 70
     1
102
RTVSPropertyOp49
 70
     1
102
RTVSPropertyOp50
 70
     1
102
RTVSPropertyOp51
 70
     0
102
RTVSPropertyOp52
 70
     0
102
RTVSPropertyOp53
 70
     1
102
RTVSPropertyOp54
 70
     1
102
RTVSPropertyOp55
 70
     1
102
RTVSPropertyOp56
 70
     1
102
RTVSPropertyOp57
 70
     1
102
RTVSPropertyOp58
 70
     1
102
RTVSPropertyOp59
 70
     1
102
RTVSPropertyOp60
 70
     1
102
RTVSPropertyOp61
 70
     1
102
RTVSPropertyOp62
 70
     1
  0
XRECORD
  5
268
102
{ACAD_REACTORS
330
267
102
}
330
267
100
AcDbXrecord
280
     1
102
RTVSPost2010Prop28
280
     0
102
RTVSPost2010PropOp28
 70
     1
102
RTVSPost2010Prop29
280
     1
102
RTVSPost2010PropOp29
 70
     1
102
RTVSPost2010Prop30
280
     1
102
RTVSPost2010PropOp30
 70
     1
102
RTVSPost2010Prop31
280
     0
102
RTVSPost2010PropOp31
 70
     1
102
RTVSPost2010Prop32
280
     0
102
RTVSPost2010PropOp32
 70
     1
102
RTVSPost2010Prop33
280
     0
102
RTVSPost2010PropOp33
 70
     1
102
RTVSPost2010Prop34
280
     0
102
RTVSPost2010PropOp34
 70
     1
102
RTVSPost2010Prop35
280
     0
102
RTVSPost2010PropOp35
 70
     1
102
RTVSPost2010Prop36
280
     0
102
RTVSPost2010PropOp36
 70
     1
102
RTVSPost2010Prop37
 90
       50
102
RTVSPost2010PropOp37
 70
     1
102
RTVSPost2010Prop38
140
0.0
102
RTVSPost2010PropOp38
 70
     1
102
RTVSPost2010Prop39
140
1.0
102
RTVSPost2010PropOp39
 70
     1
102
RTVSPost2010Prop40
 90
        0
102
RTVSPost2010PropOp40
 70
     1
102
RTVSPost2010Prop41ColorIndex
 90
       18
102
RTVSPost2010Prop41ColorRGB
 90
        0
102
RTVSPost2010PropOp41
 70
     1
102
RTVSPost2010Prop42
 90
       50
102
RTVSPost2010PropOp42
 70
     1
102
RTVSPost2010Prop43
 90
        3
102
RTVSPost2010PropOp43
 70
     1
102
RTVSPost2010Prop44ColorIndex
 90
        5
102
RTVSPost2010Prop44ColorRGB
 90
      255
102
RTVSPost2010PropOp44
 70
     1
102
RTVSPost2010Prop45
280
     0
102
RTVSPost2010PropOp45
 70
     1
102
RTVSPost2010Prop46
 90
       50
102
RTVSPost2010PropOp46
 70
     1
102
RTVSPost2010Prop47
 90
       50
102
RTVSPost2010PropOp47
 70
     1
102
RTVSPost2010Prop48
 90
       50
102
RTVSPost2010PropOp48
 70
     1
102
RTVSPost2010Prop49
280
     0
102
RTVSPost2010PropOp49
 70
     1
102
RTVSPost2010Prop50
 90
       50
102
RTVSPost2010PropOp50
 70
     1
102
RTVSPost2010Prop51ColorIndex
 90
      256
102
RTVSPost2010Prop51ColorRGB
 90
-16777216
102
RTVSPost2010PropOp51
 70
     0
102
RTVSPost2010Prop52
140
1.0
102
RTVSPost2010PropOp52
 70
     0
102
RTVSPost2010Prop53
 90
        2
102
RTVSPost2010PropOp53
 70
     1
102
RTVSPost2010Prop54
  1
strokes_ogs.tif
102
RTVSPost2010PropOp54
 70
     1
102
RTVSPost2010Prop55
280
     0
102
RTVSPost2010PropOp55
 70
     1
102
RTVSPost2010Prop56
140
1.0
102
RTVSPost2010PropOp56
 70
     1
102
RTVSPost2010Prop57
140
1.0
102
RTVSPost2010PropOp57
 70
     1
102
RTVSPropertyOp0
 70
     1
102
RTVSPropertyOp1
 70
     1
102
RTVSPropertyOp2
 70
     1
102
RTVSPropertyOp3
 70
     1
102
RTVSPropertyOp4
 70
     1
102
RTVSPropertyOp5
 70
     1
102
RTVSPropertyOp6
 70
     1
102
RTVSPropertyOp7
 70
     1
102
RTVSPropertyOp8
 70
     1
102
RTVSPropertyOp9
 70
     1
102
RTVSPropertyOp10
 70
     1
102
RTVSPropertyOp11
 70
     1
102
RTVSPropertyOp12
 70
     1
102
RTVSPropertyOp13
 70
     1
102
RTVSPropertyOp14
 70
     1
102
RTVSPropertyOp15
 70
     1
102
RTVSPropertyOp16
 70
     1
102
RTVSPropertyOp17
 70
     1
102
RTVSPropertyOp18
 70
     1
102
RTVSPropertyOp19
 70
     1
102
RTVSPropertyOp20
 70
     1
102
RTVSPropertyOp21
 70
     1
102
RTVSPropertyOp22
 70
     1
102
RTVSPropertyOp23
 70
     1
102
RTVSPropertyOp24
 70
     1
102
RTVSPropertyOp25
 70
     1
102
RTVSPropertyOp26
 70
     1
102
RTVSPropertyOp27
 70
     1
102
RTVSPropertyOp28
 70
     1
102
RTVSPropertyOp29
 70
     1
102
RTVSPropertyOp30
 70
     1
102
RTVSPropertyOp31
 70
     1
102
RTVSPropertyOp32
 70
     1
102
RTVSPropertyOp33
 70
     1
102
RTVSPropertyOp34
 70
     1
102
RTVSPropertyOp35
 70
     1
102
RTVSPropertyOp36
 70
     1
102
RTVSPropertyOp37
 70
     1
102
RTVSPropertyOp38
 70
     1
102
RTVSPropertyOp39
 70
     1
102
RTVSPropertyOp40
 70
     1
102
RTVSPropertyOp41
 70
     1
102
RTVSPropertyOp42
 70
     1
102
RTVSPropertyOp43
 70
     1
102
RTVSPropertyOp44
 70
     1
102
RTVSPropertyOp45
 70
     1
102
RTVSPropertyOp46
 70
     1
102
RTVSPropertyOp47
 70
     1
102
RTVSPropertyOp48
 70
     1
102
RTVSPropertyOp49
 70
     1
102
RTVSPropertyOp50
 70
     1
102
RTVSPropertyOp51
 70
     0
102
RTVSPropertyOp52
 70
     0
102
RTVSPropertyOp53
 70
     1
102
RTVSPropertyOp54
 70
     1
102
RTVSPropertyOp55
 70
     1
102
RTVSPropertyOp56
 70
     1
102
RTVSPropertyOp57
 70
     1
102
RTVSPropertyOp58
 70
     1
102
RTVSPropertyOp59
 70
     1
102
RTVSPropertyOp60
 70
     1
102
RTVSPropertyOp61
 70
     1
102
RTVSPropertyOp62
 70
     1
  0
XRECORD
  5
25E
102
{ACAD_REACTORS
330
25D
102
}
330
25D
100
AcDbXrecord
280
     1
102
RTVSPost2010Prop28
280
     0
102
RTVSPost2010PropOp28
 70
     1
102
RTVSPost2010Prop29
280
     1
102
RTVSPost2010PropOp29
 70
     1
102
RTVSPost2010Prop30
280
     1
102
RTVSPost2010PropOp30
 70
     1
102
RTVSPost2010Prop31
280
     0
102
RTVSPost2010PropOp31
 70
     1
102
RTVSPost2010Prop32
280
     0
102
RTVSPost2010PropOp32
 70
     1
102
RTVSPost2010Prop33
280
     0
102
RTVSPost2010PropOp33
 70
     1
102
RTVSPost2010Prop34
280
     0
102
RTVSPost2010PropOp34
 70
     1
102
RTVSPost2010Prop35
280
     0
102
RTVSPost2010PropOp35
 70
     1
102
RTVSPost2010Prop36
280
     0
102
RTVSPost2010PropOp36
 70
     1
102
RTVSPost2010Prop37
 90
       50
102
RTVSPost2010PropOp37
 70
     1
102
RTVSPost2010Prop38
140
0.0
102
RTVSPost2010PropOp38
 70
     1
102
RTVSPost2010Prop39
140
1.0
102
RTVSPost2010PropOp39
 70
     1
102
RTVSPost2010Prop40
 90
        0
102
RTVSPost2010PropOp40
 70
     1
102
RTVSPost2010Prop41ColorIndex
 90
       18
102
RTVSPost2010Prop41ColorRGB
 90
        0
102
RTVSPost2010PropOp41
 70
     1
102
RTVSPost2010Prop42
 90
       50
102
RTVSPost2010PropOp42
 70
     1
102
RTVSPost2010Prop43
 90
        3
102
RTVSPost2010PropOp43
 70
     1
102
RTVSPost2010Prop44ColorIndex
 90
        5
102
RTVSPost2010Prop44ColorRGB
 90
      255
102
RTVSPost2010PropOp44
 70
     1
102
RTVSPost2010Prop45
280
     0
102
RTVSPost2010PropOp45
 70
     1
102
RTVSPost2010Prop46
 90
       50
102
RTVSPost2010PropOp46
 70
     1
102
RTVSPost2010Prop47
 90
       50
102
RTVSPost2010PropOp47
 70
     1
102
RTVSPost2010Prop48
 90
       50
102
RTVSPost2010PropOp48
 70
     1
102
RTVSPost2010Prop49
280
     0
102
RTVSPost2010PropOp49
 70
     1
102
RTVSPost2010Prop50
 90
       50
102
RTVSPost2010PropOp50
 70
     1
102
RTVSPost2010Prop51ColorIndex
 90
      256
102
RTVSPost2010Prop51ColorRGB
 90
-16777216
102
RTVSPost2010PropOp51
 70
     0
102
RTVSPost2010Prop52
140
1.0
102
RTVSPost2010PropOp52
 70
     0
102
RTVSPost2010Prop53
 90
        2
102
RTVSPost2010PropOp53
 70
     1
102
RTVSPost2010Prop54
  1
strokes_ogs.tif
102
RTVSPost2010PropOp54
 70
     1
102
RTVSPost2010Prop55
280
     0
102
RTVSPost2010PropOp55
 70
     1
102
RTVSPost2010Prop56
140
1.0
102
RTVSPost2010PropOp56
 70
     1
102
RTVSPost2010Prop57
140
1.0
102
RTVSPost2010PropOp57
 70
     1
102
RTVSPropertyOp0
 70
     1
102
RTVSPropertyOp1
 70
     1
102
RTVSPropertyOp2
 70
     1
102
RTVSPropertyOp3
 70
     1
102
RTVSPropertyOp4
 70
     1
102
RTVSPropertyOp5
 70
     1
102
RTVSPropertyOp6
 70
     1
102
RTVSPropertyOp7
 70
     1
102
RTVSPropertyOp8
 70
     1
102
RTVSPropertyOp9
 70
     1
102
RTVSPropertyOp10
 70
     1
102
RTVSPropertyOp11
 70
     1
102
RTVSPropertyOp12
 70
     1
102
RTVSPropertyOp13
 70
     1
102
RTVSPropertyOp14
 70
     1
102
RTVSPropertyOp15
 70
     1
102
RTVSPropertyOp16
 70
     1
102
RTVSPropertyOp17
 70
     1
102
RTVSPropertyOp18
 70
     1
102
RTVSPropertyOp19
 70
     1
102
RTVSPropertyOp20
 70
     1
102
RTVSPropertyOp21
 70
     1
102
RTVSPropertyOp22
 70
     1
102
RTVSPropertyOp23
 70
     1
102
RTVSPropertyOp24
 70
     1
102
RTVSPropertyOp25
 70
     1
102
RTVSPropertyOp26
 70
     1
102
RTVSPropertyOp27
 70
     1
102
RTVSPropertyOp28
 70
     1
102
RTVSPropertyOp29
 70
     1
102
RTVSPropertyOp30
 70
     1
102
RTVSPropertyOp31
 70
     1
102
RTVSPropertyOp32
 70
     1
102
RTVSPropertyOp33
 70
     1
102
RTVSPropertyOp34
 70
     1
102
RTVSPropertyOp35
 70
     1
102
RTVSPropertyOp36
 70
     1
102
RTVSPropertyOp37
 70
     1
102
RTVSPropertyOp38
 70
     1
102
RTVSPropertyOp39
 70
     1
102
RTVSPropertyOp40
 70
     1
102
RTVSPropertyOp41
 70
     1
102
RTVSPropertyOp42
 70
     1
102
RTVSPropertyOp43
 70
     1
102
RTVSPropertyOp44
 70
     1
102
RTVSPropertyOp45
 70
     1
102
RTVSPropertyOp46
 70
     1
102
RTVSPropertyOp47
 70
     1
102
RTVSPropertyOp48
 70
     1
102
RTVSPropertyOp49
 70
     1
102
RTVSPropertyOp50
 70
     1
102
RTVSPropertyOp51
 70
     0
102
RTVSPropertyOp52
 70
     0
102
RTVSPropertyOp53
 70
     1
102
RTVSPropertyOp54
 70
     1
102
RTVSPropertyOp55
 70
     1
102
RTVSPropertyOp56
 70
     1
102
RTVSPropertyOp57
 70
     1
102
RTVSPropertyOp58
 70
     1
102
RTVSPropertyOp59
 70
     1
102
RTVSPropertyOp60
 70
     1
102
RTVSPropertyOp61
 70
     1
102
RTVSPropertyOp62
 70
     1
  0
XRECORD
  5
252
102
{ACAD_REACTORS
330
251
102
}
330
251
100
AcDbXrecord
280
     1
102
RTVSPost2010Prop28
280
     0
102
RTVSPost2010PropOp28
 70
     1
102
RTVSPost2010Prop29
280
     1
102
RTVSPost2010PropOp29
 70
     1
102
RTVSPost2010Prop30
280
     1
102
RTVSPost2010PropOp30
 70
     1
102
RTVSPost2010Prop31
280
     0
102
RTVSPost2010PropOp31
 70
     1
102
RTVSPost2010Prop32
280
     0
102
RTVSPost2010PropOp32
 70
     1
102
RTVSPost2010Prop33
280
     0
102
RTVSPost2010PropOp33
 70
     1
102
RTVSPost2010Prop34
280
     0
102
RTVSPost2010PropOp34
 70
     1
102
RTVSPost2010Prop35
280
     0
102
RTVSPost2010PropOp35
 70
     1
102
RTVSPost2010Prop36
280
     0
102
RTVSPost2010PropOp36
 70
     1
102
RTVSPost2010Prop37
 90
       50
102
RTVSPost2010PropOp37
 70
     1
102
RTVSPost2010Prop38
140
0.0
102
RTVSPost2010PropOp38
 70
     1
102
RTVSPost2010Prop39
140
1.0
102
RTVSPost2010PropOp39
 70
     1
102
RTVSPost2010Prop40
 90
        0
102
RTVSPost2010PropOp40
 70
     1
102
RTVSPost2010Prop41ColorIndex
 90
       18
102
RTVSPost2010Prop41ColorRGB
 90
        0
102
RTVSPost2010PropOp41
 70
     1
102
RTVSPost2010Prop42
 90
       50
102
RTVSPost2010PropOp42
 70
     1
102
RTVSPost2010Prop43
 90
        3
102
RTVSPost2010PropOp43
 70
     1
102
RTVSPost2010Prop44ColorIndex
 90
        5
102
RTVSPost2010Prop44ColorRGB
 90
      255
102
RTVSPost2010PropOp44
 70
     1
102
RTVSPost2010Prop45
280
     0
102
RTVSPost2010PropOp45
 70
     1
102
RTVSPost2010Prop46
 90
       50
102
RTVSPost2010PropOp46
 70
     1
102
RTVSPost2010Prop47
 90
       50
102
RTVSPost2010PropOp47
 70
     1
102
RTVSPost2010Prop48
 90
       50
102
RTVSPost2010PropOp48
 70
     1
102
RTVSPost2010Prop49
280
     0
102
RTVSPost2010PropOp49
 70
     1
102
RTVSPost2010Prop50
 90
       50
102
RTVSPost2010PropOp50
 70
     1
102
RTVSPost2010Prop51ColorIndex
 90
      256
102
RTVSPost2010Prop51ColorRGB
 90
-16777216
102
RTVSPost2010PropOp51
 70
     0
102
RTVSPost2010Prop52
140
1.0
102
RTVSPost2010PropOp52
 70
     0
102
RTVSPost2010Prop53
 90
        2
102
RTVSPost2010PropOp53
 70
     1
102
RTVSPost2010Prop54
  1
strokes_ogs.tif
102
RTVSPost2010PropOp54
 70
     1
102
RTVSPost2010Prop55
280
     0
102
RTVSPost2010PropOp55
 70
     1
102
RTVSPost2010Prop56
140
1.0
102
RTVSPost2010PropOp56
 70
     1
102
RTVSPost2010Prop57
140
1.0
102
RTVSPost2010PropOp57
 70
     1
102
RTVSPropertyOp0
 70
     1
102
RTVSPropertyOp1
 70
     1
102
RTVSPropertyOp2
 70
     1
102
RTVSPropertyOp3
 70
     1
102
RTVSPropertyOp4
 70
     1
102
RTVSPropertyOp5
 70
     1
102
RTVSPropertyOp6
 70
     1
102
RTVSPropertyOp7
 70
     1
102
RTVSPropertyOp8
 70
     1
102
RTVSPropertyOp9
 70
     1
102
RTVSPropertyOp10
 70
     1
102
RTVSPropertyOp11
 70
     1
102
RTVSPropertyOp12
 70
     1
102
RTVSPropertyOp13
 70
     1
102
RTVSPropertyOp14
 70
     1
102
RTVSPropertyOp15
 70
     1
102
RTVSPropertyOp16
 70
     1
102
RTVSPropertyOp17
 70
     1
102
RTVSPropertyOp18
 70
     1
102
RTVSPropertyOp19
 70
     1
102
RTVSPropertyOp20
 70
     1
102
RTVSPropertyOp21
 70
     1
102
RTVSPropertyOp22
 70
     1
102
RTVSPropertyOp23
 70
     1
102
RTVSPropertyOp24
 70
     1
102
RTVSPropertyOp25
 70
     1
102
RTVSPropertyOp26
 70
     1
102
RTVSPropertyOp27
 70
     1
102
RTVSPropertyOp28
 70
     1
102
RTVSPropertyOp29
 70
     1
102
RTVSPropertyOp30
 70
     1
102
RTVSPropertyOp31
 70
     1
102
RTVSPropertyOp32
 70
     1
102
RTVSPropertyOp33
 70
     1
102
RTVSPropertyOp34
 70
     1
102
RTVSPropertyOp35
 70
     1
102
RTVSPropertyOp36
 70
     1
102
RTVSPropertyOp37
 70
     1
102
RTVSPropertyOp38
 70
     1
102
RTVSPropertyOp39
 70
     1
102
RTVSPropertyOp40
 70
     1
102
RTVSPropertyOp41
 70
     1
102
RTVSPropertyOp42
 70
     1
102
RTVSPropertyOp43
 70
     1
102
RTVSPropertyOp44
 70
     1
102
RTVSPropertyOp45
 70
     1
102
RTVSPropertyOp46
 70
     1
102
RTVSPropertyOp47
 70
     1
102
RTVSPropertyOp48
 70
     1
102
RTVSPropertyOp49
 70
     1
102
RTVSPropertyOp50
 70
     1
102
RTVSPropertyOp51
 70
     0
102
RTVSPropertyOp52
 70
     0
102
RTVSPropertyOp53
 70
     1
102
RTVSPropertyOp54
 70
     1
102
RTVSPropertyOp55
 70
     1
102
RTVSPropertyOp56
 70
     1
102
RTVSPropertyOp57
 70
     1
102
RTVSPropertyOp58
 70
     1
102
RTVSPropertyOp59
 70
     1
102
RTVSPropertyOp60
 70
     1
102
RTVSPropertyOp61
 70
     1
102
RTVSPropertyOp62
 70
     1
  0
XRECORD
  5
26A
102
{ACAD_REACTORS
330
269
102
}
330
269
100
AcDbXrecord
280
     1
102
RTVSPost2010Prop28
280
     0
102
RTVSPost2010PropOp28
 70
     1
102
RTVSPost2010Prop29
280
     1
102
RTVSPost2010PropOp29
 70
     1
102
RTVSPost2010Prop30
280
     1
102
RTVSPost2010PropOp30
 70
     1
102
RTVSPost2010Prop31
280
     0
102
RTVSPost2010PropOp31
 70
     1
102
RTVSPost2010Prop32
280
     0
102
RTVSPost2010PropOp32
 70
     1
102
RTVSPost2010Prop33
280
     0
102
RTVSPost2010PropOp33
 70
     1
102
RTVSPost2010Prop34
280
     0
102
RTVSPost2010PropOp34
 70
     1
102
RTVSPost2010Prop35
280
     0
102
RTVSPost2010PropOp35
 70
     1
102
RTVSPost2010Prop36
280
     0
102
RTVSPost2010PropOp36
 70
     1
102
RTVSPost2010Prop37
 90
       50
102
RTVSPost2010PropOp37
 70
     1
102
RTVSPost2010Prop38
140
0.0
102
RTVSPost2010PropOp38
 70
     1
102
RTVSPost2010Prop39
140
1.0
102
RTVSPost2010PropOp39
 70
     1
102
RTVSPost2010Prop40
 90
        0
102
RTVSPost2010PropOp40
 70
     1
102
RTVSPost2010Prop41ColorIndex
 90
       18
102
RTVSPost2010Prop41ColorRGB
 90
        0
102
RTVSPost2010PropOp41
 70
     1
102
RTVSPost2010Prop42
 90
       50
102
RTVSPost2010PropOp42
 70
     1
102
RTVSPost2010Prop43
 90
        3
102
RTVSPost2010PropOp43
 70
     1
102
RTVSPost2010Prop44ColorIndex
 90
        5
102
RTVSPost2010Prop44ColorRGB
 90
      255
102
RTVSPost2010PropOp44
 70
     1
102
RTVSPost2010Prop45
280
     0
102
RTVSPost2010PropOp45
 70
     1
102
RTVSPost2010Prop46
 90
       50
102
RTVSPost2010PropOp46
 70
     1
102
RTVSPost2010Prop47
 90
       50
102
RTVSPost2010PropOp47
 70
     1
102
RTVSPost2010Prop48
 90
       50
102
RTVSPost2010PropOp48
 70
     1
102
RTVSPost2010Prop49
280
     0
102
RTVSPost2010PropOp49
 70
     1
102
RTVSPost2010Prop50
 90
       50
102
RTVSPost2010PropOp50
 70
     1
102
RTVSPost2010Prop51ColorIndex
 90
      256
102
RTVSPost2010Prop51ColorRGB
 90
-16777216
102
RTVSPost2010PropOp51
 70
     0
102
RTVSPost2010Prop52
140
1.0
102
RTVSPost2010PropOp52
 70
     0
102
RTVSPost2010Prop53
 90
        2
102
RTVSPost2010PropOp53
 70
     1
102
RTVSPost2010Prop54
  1
strokes_ogs.tif
102
RTVSPost2010PropOp54
 70
     1
102
RTVSPost2010Prop55
280
     0
102
RTVSPost2010PropOp55
 70
     1
102
RTVSPost2010Prop56
140
1.0
102
RTVSPost2010PropOp56
 70
     1
102
RTVSPost2010Prop57
140
1.0
102
RTVSPost2010PropOp57
 70
     1
102
RTVSPropertyOp0
 70
     1
102
RTVSPropertyOp1
 70
     1
102
RTVSPropertyOp2
 70
     1
102
RTVSPropertyOp3
 70
     1
102
RTVSPropertyOp4
 70
     1
102
RTVSPropertyOp5
 70
     1
102
RTVSPropertyOp6
 70
     1
102
RTVSPropertyOp7
 70
     1
102
RTVSPropertyOp8
 70
     1
102
RTVSPropertyOp9
 70
     1
102
RTVSPropertyOp10
 70
     1
102
RTVSPropertyOp11
 70
     1
102
RTVSPropertyOp12
 70
     1
102
RTVSPropertyOp13
 70
     1
102
RTVSPropertyOp14
 70
     1
102
RTVSPropertyOp15
 70
     1
102
RTVSPropertyOp16
 70
     1
102
RTVSPropertyOp17
 70
     1
102
RTVSPropertyOp18
 70
     1
102
RTVSPropertyOp19
 70
     1
102
RTVSPropertyOp20
 70
     1
102
RTVSPropertyOp21
 70
     1
102
RTVSPropertyOp22
 70
     1
102
RTVSPropertyOp23
 70
     1
102
RTVSPropertyOp24
 70
     1
102
RTVSPropertyOp25
 70
     1
102
RTVSPropertyOp26
 70
     1
102
RTVSPropertyOp27
 70
     1
102
RTVSPropertyOp28
 70
     1
102
RTVSPropertyOp29
 70
     1
102
RTVSPropertyOp30
 70
     1
102
RTVSPropertyOp31
 70
     1
102
RTVSPropertyOp32
 70
     1
102
RTVSPropertyOp33
 70
     1
102
RTVSPropertyOp34
 70
     1
102
RTVSPropertyOp35
 70
     1
102
RTVSPropertyOp36
 70
     1
102
RTVSPropertyOp37
 70
     1
102
RTVSPropertyOp38
 70
     1
102
RTVSPropertyOp39
 70
     1
102
RTVSPropertyOp40
 70
     1
102
RTVSPropertyOp41
 70
     1
102
RTVSPropertyOp42
 70
     1
102
RTVSPropertyOp43
 70
     1
102
RTVSPropertyOp44
 70
     1
102
RTVSPropertyOp45
 70
     1
102
RTVSPropertyOp46
 70
     1
102
RTVSPropertyOp47
 70
     1
102
RTVSPropertyOp48
 70
     1
102
RTVSPropertyOp49
 70
     1
102
RTVSPropertyOp50
 70
     1
102
RTVSPropertyOp51
 70
     0
102
RTVSPropertyOp52
 70
     0
102
RTVSPropertyOp53
 70
     1
102
RTVSPropertyOp54
 70
     1
102
RTVSPropertyOp55
 70
     1
102
RTVSPropertyOp56
 70
     1
102
RTVSPropertyOp57
 70
     1
102
RTVSPropertyOp58
 70
     1
102
RTVSPropertyOp59
 70
     1
102
RTVSPropertyOp60
 70
     1
102
RTVSPropertyOp61
 70
     1
102
RTVSPropertyOp62
 70
     1
  0
ENDSEC
  0
EOF
