  0
SECTION
  2
HEADER
  9
$ACADVER
  1
AC1027
  9
$ACADMAINTVER
 70
   125
  9
$DWGCODEPAGE
  3
ANSI_1252
  9
$LASTSAVEDBY
  1
ufficio.tecnico
  9
$REQUIREDVERSIONS
160
                 0
  9
$INSBASE
 10
0.0
 20
0.0
 30
0.0
  9
$EXTMIN
 10
17.2014438480183
 20
17.63888888447917
 30
0.0
  9
$EXTMAX
 10
2939.683142350983
 20
231.1682109678698
 30
0.0
  9
$LIMMIN
 10
0.0
 20
0.0
  9
$LIMMAX
 10
12.0
 20
9.0
  9
$ORTHOMODE
 70
     0
  9
$REGENMODE
 70
     1
  9
$FILLMODE
 70
     1
  9
$QTEXTMODE
 70
     0
  9
$MIRRTEXT
 70
     0
  9
$LTSCALE
 40
1.0
  9
$ATTMODE
 70
     1
  9
$TEXTSIZE
 40
0.2
  9
$TRACEWID
 40
0.05
  9
$TEXTSTYLE
  7
Standard
  9
$CLAYER
  8
0
  9
$CELTYPE
  6
ByLayer
  9
$CECOLOR
 62
   256
  9
$CELTSCALE
 40
1.0
  9
$DISPSILH
 70
     0
  9
$DIMSCALE
 40
1.0
  9
$DIMASZ
 40
0.18
  9
$DIMEXO
 40
0.0625
  9
$DIMDLI
 40
0.38
  9
$DIMRND
 40
0.0
  9
$DIMDLE
 40
0.0
  9
$DIMEXE
 40
0.18
  9
$DIMTP
 40
0.0
  9
$DIMTM
 40
0.0
  9
$DIMTXT
 40
0.18
  9
$DIMCEN
 40
0.09
  9
$DIMTSZ
 40
0.0
  9
$DIMTOL
 70
     0
  9
$DIMLIM
 70
     0
  9
$DIMTIH
 70
     1
  9
$DIMTOH
 70
     1
  9
$DIMSE1
 70
     0
  9
$DIMSE2
 70
     0
  9
$DIMTAD
 70
     0
  9
$DIMZIN
 70
     0
  9
$DIMBLK
  1

  9
$DIMASO
 70
     1
  9
$DIMSHO
 70
     1
  9
$DIMPOST
  1

  9
$DIMAPOST
  1

  9
$DIMALT
 70
     0
  9
$DIMALTD
 70
     2
  9
$DIMALTF
 40
25.4
  9
$DIMLFAC
 40
1.0
  9
$DIMTOFL
 70
     0
  9
$DIMTVP
 40
0.0
  9
$DIMTIX
 70
     0
  9
$DIMSOXD
 70
     0
  9
$DIMSAH
 70
     0
  9
$DIMBLK1
  1

  9
$DIMBLK2
  1

  9
$DIMSTYLE
  2
Standard
  9
$DIMCLRD
 70
     0
  9
$DIMCLRE
 70
     0
  9
$DIMCLRT
 70
     0
  9
$DIMTFAC
 40
1.0
  9
$DIMGAP
 40
0.09
  9
$DIMJUST
 70
     0
  9
$DIMSD1
 70
     0
  9
$DIMSD2
 70
     0
  9
$DIMTOLJ
 70
     1
  9
$DIMTZIN
 70
     0
  9
$DIMALTZ
 70
     0
  9
$DIMALTTZ
 70
     0
  9
$DIMUPT
 70
     0
  9
$DIMDEC
 70
     4
  9
$DIMTDEC
 70
     4
  9
$DIMALTU
 70
     2
  9
$DIMALTTD
 70
     2
  9
$DIMTXSTY
  7
Standard
  9
$DIMAUNIT
 70
     0
  9
$DIMADEC
 70
     0
  9
$DIMALTRND
 40
0.0
  9
$DIMAZIN
 70
     0
  9
$DIMDSEP
 70
    46
  9
$DIMATFIT
 70
     3
  9
$DIMFRAC
 70
     0
  9
$DIMLDRBLK
  1

  9
$DIMLUNIT
 70
     2
  9
$DIMLWD
 70
    -2
  9
$DIMLWE
 70
    -2
  9
$DIMTMOVE
 70
     0
  9
$DIMFXL
 40
1.0
  9
$DIMFXLON
 70
     0
  9
$DIMJOGANG
 40
0.7853981633974483
  9
$DIMTFILL
 70
     0
  9
$DIMTFILLCLR
 70
     0
  9
$DIMARCSYM
 70
     0
  9
$DIMLTYPE
  6

  9
$DIMLTEX1
  6

  9
$DIMLTEX2
  6

  9
$DIMTXTDIRECTION
 70
     0
  9
$LUNITS
 70
     2
  9
$LUPREC
 70
     4
  9
$SKETCHINC
 40
0.1
  9
$FILLETRAD
 40
0.0
  9
$AUNITS
 70
     0
  9
$AUPREC
 70
     0
  9
$MENU
  1
.
  9
$ELEVATION
 40
0.0
  9
$PELEVATION
 40
0.0
  9
$THICKNESS
 40
0.0
  9
$LIMCHECK
 70
     0
  9
$CHAMFERA
 40
0.0
  9
$CHAMFERB
 40
0.0
  9
$CHAMFERC
 40
0.0
  9
$CHAMFERD
 40
0.0
  9
$SKPOLY
 70
     0
  9
$TDCREATE
 40
2459913.631053241
  9
$TDUCREATE
 40
2459913.589386574
  9
$TDUPDATE
 40
2459913.633310185
  9
$TDUUPDATE
 40
2459913.591643518
  9
$TDINDWG
 40
0.0016435185
  9
$TDUSRTIMER
 40
0.0016435185
  9
$USRTIMER
 70
     1
  9
$ANGBASE
 50
0.0
  9
$ANGDIR
 70
     0
  9
$PDMODE
 70
     0
  9
$PDSIZE
 40
0.0
  9
$PLINEWID
 40
0.0
  9
$SPLFRAME
 70
     0
  9
$SPLINETYPE
 70
     6
  9
$SPLINESEGS
 70
     8
  9
$HANDSEED
  5
F9
  9
$SURFTAB1
 70
     6
  9
$SURFTAB2
 70
     6
  9
$SURFTYPE
 70
     6
  9
$SURFU
 70
     6
  9
$SURFV
 70
     6
  9
$UCSBASE
  2

  9
$UCSNAME
  2

  9
$UCSORG
 10
0.0
 20
0.0
 30
0.0
  9
$UCSXDIR
 10
1.0
 20
0.0
 30
0.0
  9
$UCSYDIR
 10
0.0
 20
1.0
 30
0.0
  9
$UCSORTHOREF
  2

  9
$UCSORTHOVIEW
 70
     0
  9
$UCSORGTOP
 10
0.0
 20
0.0
 30
0.0
  9
$UCSORGBOTTOM
 10
0.0
 20
0.0
 30
0.0
  9
$UCSORGLEFT
 10
0.0
 20
0.0
 30
0.0
  9
$UCSORGRIGHT
 10
0.0
 20
0.0
 30
0.0
  9
$UCSORGFRONT
 10
0.0
 20
0.0
 30
0.0
  9
$UCSORGBACK
 10
0.0
 20
0.0
 30
0.0
  9
$PUCSBASE
  2

  9
$PUCSNAME
  2

  9
$PUCSORG
 10
0.0
 20
0.0
 30
0.0
  9
$PUCSXDIR
 10
1.0
 20
0.0
 30
0.0
  9
$PUCSYDIR
 10
0.0
 20
1.0
 30
0.0
  9
$PUCSORTHOREF
  2

  9
$PUCSORTHOVIEW
 70
     0
  9
$PUCSORGTOP
 10
0.0
 20
0.0
 30
0.0
  9
$PUCSORGBOTTOM
 10
0.0
 20
0.0
 30
0.0
  9
$PUCSORGLEFT
 10
0.0
 20
0.0
 30
0.0
  9
$PUCSORGRIGHT
 10
0.0
 20
0.0
 30
0.0
  9
$PUCSORGFRONT
 10
0.0
 20
0.0
 30
0.0
  9
$PUCSORGBACK
 10
0.0
 20
0.0
 30
0.0
  9
$USERI1
 70
     0
  9
$USERI2
 70
     0
  9
$USERI3
 70
     0
  9
$USERI4
 70
     0
  9
$USERI5
 70
     0
  9
$USERR1
 40
0.0
  9
$USERR2
 40
0.0
  9
$USERR3
 40
0.0
  9
$USERR4
 40
0.0
  9
$USERR5
 40
0.0
  9
$WORLDVIEW
 70
     1
  9
$SHADEDGE
 70
     3
  9
$SHADEDIF
 70
    70
  9
$TILEMODE
 70
     1
  9
$MAXACTVP
 70
    64
  9
$PINSBASE
 10
0.0
 20
0.0
 30
0.0
  9
$PLIMCHECK
 70
     0
  9
$PEXTMIN
 10
1.000000000000000E+20
 20
1.000000000000000E+20
 30
1.000000000000000E+20
  9
$PEXTMAX
 10
-1.000000000000000E+20
 20
-1.000000000000000E+20
 30
-1.000000000000000E+20
  9
$PLIMMIN
 10
0.0
 20
0.0
  9
$PLIMMAX
 10
12.0
 20
9.0
  9
$UNITMODE
 70
     0
  9
$VISRETAIN
 70
     1
  9
$PLINEGEN
 70
     0
  9
$PSLTSCALE
 70
     1
  9
$TREEDEPTH
 70
  3020
  9
$CMLSTYLE
  2
Standard
  9
$CMLJUST
 70
     0
  9
$CMLSCALE
 40
1.0
  9
$PROXYGRAPHICS
 70
     1
  9
$MEASUREMENT
 70
     0
  9
$CELWEIGHT
370
    -1
  9
$ENDCAPS
280
     0
  9
$JOINSTYLE
280
     0
  9
$LWDISPLAY
290
     1
  9
$INSUNITS
 70
     4
  9
$HYPERLINKBASE
  1

  9
$STYLESHEET
  1

  9
$XEDIT
290
     1
  9
$CEPSNTYPE
380
     0
  9
$PSTYLEMODE
290
     1
  9
$FINGERPRINTGUID
  2
{3F0E9E10-5BFA-BC47-B827-8CABE5E1B58B}
  9
$VERSIONGUID
  2
{949854DF-3E8A-9B40-84C4-DAFC8811203E}
  9
$EXTNAMES
290
     1
  9
$PSVPSCALE
 40
0.0
  9
$OLESTARTUP
290
     0
  9
$SORTENTS
280
   127
  9
$INDEXCTL
280
     0
  9
$HIDETEXT
280
     1
  9
$XCLIPFRAME
280
     2
  9
$HALOGAP
280
     0
  9
$OBSCOLOR
 70
   257
  9
$OBSLTYPE
280
     0
  9
$INTERSECTIONDISPLAY
280
     0
  9
$INTERSECTIONCOLOR
 70
   257
  9
$DIMASSOC
280
     2
  9
$PROJECTNAME
  1

  9
$CAMERADISPLAY
290
     0
  9
$LENSLENGTH
 40
50.0
  9
$CAMERAHEIGHT
 40
0.0
  9
$STEPSPERSEC
 40
2.0
  9
$STEPSIZE
 40
6.0
  9
$3DDWFPREC
 40
2.0
  9
$PSOLWIDTH
 40
0.25
  9
$PSOLHEIGHT
 40
4.0
  9
$LOFTANG1
 40
1.570796326794896
  9
$LOFTANG2
 40
1.570796326794896
  9
$LOFTMAG1
 40
0.0
  9
$LOFTMAG2
 40
0.0
  9
$LOFTPARAM
 70
     7
  9
$LOFTNORMALS
280
     1
  9
$LATITUDE
 40
37.795
  9
$LONGITUDE
 40
-122.394
  9
$NORTHDIRECTION
 40
0.0
  9
$TIMEZONE
 70
 -8000
  9
$LIGHTGLYPHDISPLAY
280
     1
  9
$TILEMODELIGHTSYNCH
280
     1
  9
$CMATERIAL
347
11
  9
$SOLIDHIST
280
     0
  9
$SHOWHIST
280
     1
  9
$DWFFRAME
280
     2
  9
$DGNFRAME
280
     0
  9
$REALWORLDSCALE
290
     1
  9
$INTERFERECOLOR
 62
     1
  9
$INTERFEREOBJVS
345
33
  9
$INTERFEREVPVS
346
30
  9
$CSHADOW
280
     0
  9
$SHADOWPLANELOCATION
 40
0.0
  0
ENDSEC
  0
SECTION
  2
CLASSES
  0
CLASS
  1
ACDBDICTIONARYWDFLT
  2
AcDbDictionaryWithDefault
  3
ObjectDBX Classes
 90
        0
 91
        1
280
     0
281
     0
  0
CLASS
  1
MATERIAL
  2
AcDbMaterial
  3
ObjectDBX Classes
 90
     1153
 91
        3
280
     0
281
     0
  0
CLASS
  1
VISUALSTYLE
  2
AcDbVisualStyle
  3
ObjectDBX Classes
 90
     4095
 91
       24
280
     0
281
     0
  0
CLASS
  1
SCALE
  2
AcDbScale
  3
ObjectDBX Classes
 90
     1153
 91
       17
280
     0
281
     0
  0
CLASS
  1
TABLESTYLE
  2
AcDbTableStyle
  3
ObjectDBX Classes
 90
     4095
 91
        1
280
     0
281
     0
  0
CLASS
  1
MLEADERSTYLE
  2
AcDbMLeaderStyle
  3
ACDB_MLEADERSTYLE_CLASS
 90
     4095
 91
        1
280
     0
281
     0
  0
CLASS
  1
ACDBSECTIONVIEWSTYLE
  2
AcDbSectionViewStyle
  3
ObjectDBX Classes
 90
     1025
 91
        1
280
     0
281
     0
  0
CLASS
  1
ACDBDETAILVIEWSTYLE
  2
AcDbDetailViewStyle
  3
ObjectDBX Classes
 90
     1025
 91
        1
280
     0
281
     0
  0
CLASS
  1
DICTIONARYVAR
  2
AcDbDictionaryVar
  3
ObjectDBX Classes
 90
        0
 91
        5
280
     0
281
     0
  0
CLASS
  1
CELLSTYLEMAP
  2
AcDbCellStyleMap
  3
ObjectDBX Classes
 90
     1152
 91
        1
280
     0
281
     0
  0
ENDSEC
  0
SECTION
  2
TABLES
  0
TABLE
  2
VPORT
  5
8
330
0
100
AcDbSymbolTable
 70
     1
1001
ACAD
1000
DbSaveVer
1071
      249
  0
VPORT
  5
57
330
8
100
AcDbSymbolTableRecord
100
AcDbViewportTableRecord
  2
*Active
 70
     0
 10
0.0
 20
0.0
 11
1.0
 21
1.0
 12
119.2114494796155
 22
24.62466830561846
 13
0.0
 23
0.0
 14
1.0
 24
1.0
 15
0.0
 25
0.0
 16
0.0
 26
0.0
 36
1.0
 17
117.014559345465
 27
124.4035499261745
 37
0.0
 40
334.9430333481802
 41
2.435279187817259
 42
50.0
 43
0.0
 44
0.0
 50
0.0
 51
0.0
 71
     0
 72
   100
 73
     1
 74
     1
 75
     0
 76
     0
 77
     0
 78
     0
281
     0
 65
     1
110
0.0
120
0.0
130
0.0
111
1.0
121
0.0
131
0.0
112
0.0
122
1.0
132
0.0
 79
     0
146
0.0
348
2F
 60
     3
 61
     5
292
     1
282
     1
141
0.0
142
0.0
 63
   250
421
  3355443
1001
ACAD_NAV_VCDISPLAY
1070
     3
  0
ENDTAB
  0
TABLE
  2
LTYPE
  5
5
330
0
100
AcDbSymbolTable
 70
     3
  0
LTYPE
  5
5B
330
5
100
AcDbSymbolTableRecord
100
AcDbLinetypeTableRecord
  2
ByBlock
 70
     0
  3

 72
    65
 73
     0
 40
0.0
  0
LTYPE
  5
5C
330
5
100
AcDbSymbolTableRecord
100
AcDbLinetypeTableRecord
  2
ByLayer
 70
     0
  3

 72
    65
 73
     0
 40
0.0
  0
LTYPE
  5
5D
330
5
100
AcDbSymbolTableRecord
100
AcDbLinetypeTableRecord
  2
Continuous
 70
     0
  3
Solid line
 72
    65
 73
     0
 40
0.0
  0
ENDTAB
  0
TABLE
  2
LAYER
  5
2
330
0
100
AcDbSymbolTable
 70
     2
  0
LAYER
  5
54
330
2
100
AcDbSymbolTableRecord
100
AcDbLayerTableRecord
  2
0
 70
     0
 62
     7
  6
Continuous
370
    -3
390
F
347
21
348
0
  0
LAYER
  5
78
330
2
100
AcDbSymbolTableRecord
100
AcDbLayerTableRecord
  2
Livello 1
 70
     0
 62
     7
  6
Continuous
370
     0
390
F
347
21
348
0
  0
ENDTAB
  0
TABLE
  2
STYLE
  5
3
330
0
100
AcDbSymbolTable
 70
     2
  0
STYLE
  5
55
330
3
100
AcDbSymbolTableRecord
100
AcDbTextStyleTableRecord
  2
Standard
 70
     0
 40
0.0
 41
1.0
 50
0.0
 71
     0
 42
0.2
  3
txt
  4

  0
STYLE
  5
5A
330
3
100
AcDbSymbolTableRecord
100
AcDbTextStyleTableRecord
  2
Annotative
 70
     0
 40
0.0
 41
1.0
 50
0.0
 71
     0
 42
0.2
  3
txt
  4

1001
AcadAnnotative
1000
AnnotativeData
1002
{
1070
     1
1070
     1
1002
}
  0
ENDTAB
  0
TABLE
  2
VIEW
  5
6
330
0
100
AcDbSymbolTable
 70
     0
  0
ENDTAB
  0
TABLE
  2
UCS
  5
7
330
0
100
AcDbSymbolTable
 70
     0
  0
ENDTAB
  0
TABLE
  2
APPID
  5
9
330
0
100
AcDbSymbolTable
 70
     4
  0
APPID
  5
56
330
9
100
AcDbSymbolTableRecord
100
AcDbRegAppTableRecord
  2
ACAD
 70
     0
  0
APPID
  5
5E
330
9
100
AcDbSymbolTableRecord
100
AcDbRegAppTableRecord
  2
AcadAnnotative
 70
     0
  0
APPID
  5
DE
330
9
100
AcDbSymbolTableRecord
100
AcDbRegAppTableRecord
  2
ACAD_EXEMPT_FROM_CAD_STANDARDS
 70
     0
  0
APPID
  5
EB
330
9
100
AcDbSymbolTableRecord
100
AcDbRegAppTableRecord
  2
ACAD_NAV_VCDISPLAY
 70
     0
  0
ENDTAB
  0
TABLE
  2
DIMSTYLE
  5
A
330
0
100
AcDbSymbolTable
 70
     3
100
AcDbDimStyleTable
 71
     1
340
58
  0
DIMSTYLE
105
58
330
A
100
AcDbSymbolTableRecord
100
AcDbDimStyleTableRecord
  2
Standard
 70
     0
340
55
  0
DIMSTYLE
105
59
330
A
100
AcDbSymbolTableRecord
100
AcDbDimStyleTableRecord
  2
Annotative
 70
     0
340
55
1001
AcadAnnotative
1000
AnnotativeData
1002
{
1070
     1
1070
     1
1002
}
  0
ENDTAB
  0
TABLE
  2
BLOCK_RECORD
  5
1
330
0
100
AcDbSymbolTable
 70
     3
  0
BLOCK_RECORD
  5
70
330
1
100
AcDbSymbolTableRecord
100
AcDbBlockTableRecord
  2
*Model_Space
340
73
 70
     0
280
     1
281
     0
  0
BLOCK_RECORD
  5
6C
330
1
100
AcDbSymbolTableRecord
100
AcDbBlockTableRecord
  2
*Paper_Space
340
6F
 70
     0
280
     1
281
     0
  0
BLOCK_RECORD
  5
74
330
1
100
AcDbSymbolTableRecord
100
AcDbBlockTableRecord
  2
*Paper_Space0
340
77
 70
     0
280
     1
281
     0
  0
ENDTAB
  0
ENDSEC
  0
SECTION
  2
BLOCKS
  0
BLOCK
  5
71
330
70
100
AcDbEntity
  8
0
100
AcDbBlockBegin
  2
*Model_Space
 70
     0
 10
0.0
 20
0.0
 30
0.0
  3
*Model_Space
  1

  0
ENDBLK
  5
72
330
70
100
AcDbEntity
  8
0
100
AcDbBlockEnd
  0
BLOCK
  5
6D
330
6C
100
AcDbEntity
 67
     1
  8
0
100
AcDbBlockBegin
  2
*Paper_Space
 70
     0
 10
0.0
 20
0.0
 30
0.0
  3
*Paper_Space
  1

  0
ENDBLK
  5
6E
330
6C
100
AcDbEntity
 67
     1
  8
0
100
AcDbBlockEnd
  0
BLOCK
  5
75
330
74
100
AcDbEntity
 67
     1
  8
0
100
AcDbBlockBegin
  2
*Paper_Space0
 70
     0
 10
0.0
 20
0.0
 30
0.0
  3
*Paper_Space0
  1

  0
ENDBLK
  5
76
330
74
100
AcDbEntity
 67
     1
  8
0
100
AcDbBlockEnd
  0
ENDSEC
  0
SECTION
  2
ENTITIES
  0
LWPOLYLINE
  5
79
330
70
100
AcDbEntity
  8
Livello 1
370
    25
100
AcDbPolyline
 90
        5
 70
     0
 43
0.0
 10
31.38311078028764
 20
68.05788822591901
 10
176.7981123588224
 20
68.05788822591901
 10
176.7981123588224
 20
78.64122155660651
 10
31.38311078028764
 20
78.64122155660651
 10
31.38311078028764
 20
68.05788822591901
  0
LWPOLYLINE
  5
7A
330
70
100
AcDbEntity
  8
Livello 1
370
    25
100
AcDbPolyline
 90
        5
 70
     0
 43
0.0
 10
188.7361110639271
 20
68.05788822591901
 10
195.3401007269896
 20
68.05788822591901
 10
195.3401007269896
 20
78.64122155660651
 10
188.7361110639271
 20
78.64122155660651
 10
188.7361110639271
 20
68.05788822591901
  0
LWPOLYLINE
  5
7B
330
70
100
AcDbEntity
  8
Livello 1
370
    25
100
AcDbPolyline
 90
        5
 70
     0
 43
0.0
 10
77.65344270248366
 20
166.313556375251
 10
130.5277777451458
 20
166.313556375251
 10
130.5277777451458
 20
166.440551207576
 10
77.65344270248366
 20
166.440551207576
 10
77.65344270248366
 20
166.313556375251
  0
LWPOLYLINE
  5
7C
330
70
100
AcDbEntity
  8
Livello 1
370
    25
100
AcDbPolyline
 90
        5
 70
     0
 43
0.0
 10
80.95544291697631
 20
166.440551207576
 10
127.2257721476911
 20
166.440551207576
 10
127.2257721476911
 20
171.7322178729198
 10
80.95544291697631
 20
171.7322178729198
 10
80.95544291697631
 20
166.440551207576
  0
LWPOLYLINE
  5
7D
330
70
100
AcDbEntity
  8
Livello 1
370
    25
100
AcDbPolyline
 90
        5
 70
     0
 43
0.0
 10
81.08244313226302
 20
166.5675568058245
 10
127.0987773153661
 20
166.5675568058245
 10
127.0987773153661
 20
171.7322178729198
 10
81.08244313226302
 20
171.7322178729198
 10
81.08244313226302
 20
166.5675568058245
  0
LWPOLYLINE
  5
7E
330
70
100
AcDbEntity
  8
Livello 1
370
    25
100
AcDbPolyline
 90
        5
 70
     0
 43
0.0
 10
125.4901115103755
 20
166.0595559446776
 10
123.6274452748114
 20
166.0595559446776
 10
123.6274452748114
 20
166.313556375251
 10
125.4901115103755
 20
166.313556375251
 10
125.4901115103755
 20
166.0595559446776
  0
LWPOLYLINE
  5
7F
330
70
100
AcDbEntity
  8
Livello 1
370
    25
100
AcDbPolyline
 90
        5
 70
     0
 43
0.0
 10
124.8127734402052
 20
165.3822178745073
 10
124.3047725790583
 20
165.3822178745073
 10
124.3047725790583
 20
166.0595559446776
 10
124.8127734402052
 20
166.0595559446776
 10
124.8127734402052
 20
165.3822178745073
  0
LINE
  5
80
330
70
100
AcDbEntity
  8
Livello 1
370
    25
100
AcDbLine
 10
83.58011044426069
 20
165.3822178745073
 30
0.0
 11
83.58011044426069
 21
84.94888994424401
 31
0.0
  0
LINE
  5
81
330
70
100
AcDbEntity
  8
Livello 1
370
    25
100
AcDbLine
 10
84.63844377732943
 20
78.64122155660651
 30
0.0
 11
84.63844377732943
 21
83.89055661117525
 31
0.0
  0
SPLINE
  5
82
330
70
100
AcDbEntity
  8
Livello 1
370
    25
100
AcDbSpline
210
0.0
220
0.0
230
1.0
 70
     8
 71
     3
 72
     8
 73
     4
 74
     0
 42
0.000000001
 43
0.0000000001
 40
0.0
 40
0.0
 40
0.0
 40
0.0
 40
1.0
 40
1.0
 40
1.0
 40
1.0
 10
84.63844377732943
 20
83.91181930987327
 30
0.0
 10
84.63838456475079
 20
84.48458796614286
 30
0.0
 10
84.17404490591776
 20
84.94888994424401
 30
0.0
 10
83.60127624964819
 20
84.94888994424401
 30
0.0
  0
LINE
  5
83
330
70
100
AcDbEntity
  8
Livello 1
370
    25
100
AcDbLine
 10
83.58011044426069
 20
84.94888994424401
 30
0.0
 11
83.58011044426069
 21
84.94888994424401
 31
0.0
  0
SPLINE
  5
84
330
70
100
AcDbEntity
  8
Livello 1
370
    25
100
AcDbSpline
210
0.0
220
0.0
230
1.0
 70
     8
 71
     3
 72
     8
 73
     4
 74
     0
 42
0.000000001
 43
0.0000000001
 40
0.0
 40
0.0
 40
0.0
 40
0.0
 40
1.0
 40
1.0
 40
1.0
 40
1.0
 10
83.60127624964819
 20
84.94888994424401
 30
0.0
 10
83.02846452968505
 20
84.94888994424401
 30
0.0
 10
82.56410872196694
 20
84.48452875356421
 30
0.0
 10
82.56410872196694
 20
83.91172241656276
 30
0.0
  0
LWPOLYLINE
  5
85
330
70
100
AcDbEntity
  8
Livello 1
370
    25
100
AcDbPolyline
 90
        3
 70
     0
 43
0.0
 10
82.52177711119193
 20
83.89055661117525
 10
82.52177711119193
 20
78.64122155660651
 10
84.63844377732943
 20
78.64122155660651
  0
LINE
  5
86
330
70
100
AcDbEntity
  8
Livello 1
370
    25
100
AcDbLine
 10
124.5587730096318
 20
165.3822178745073
 30
0.0
 11
124.5587730096318
 21
84.94888994424401
 31
0.0
  0
LINE
  5
87
330
70
100
AcDbEntity
  8
Livello 1
370
    25
100
AcDbLine
 10
123.500439676563
 20
78.64122155660651
 30
0.0
 11
123.500439676563
 21
83.89055661117525
 31
0.0
  0
SPLINE
  5
88
330
70
100
AcDbEntity
  8
Livello 1
370
    25
100
AcDbSpline
210
0.0
220
0.0
230
1.0
 70
     8
 71
     3
 72
     8
 73
     4
 74
     0
 42
0.000000001
 43
0.0000000001
 40
0.0
 40
0.0
 40
0.0
 40
0.0
 40
1.0
 40
1.0
 40
1.0
 40
1.0
 10
124.5799388150193
 20
84.94888994424401
 30
0.0
 10
124.0071270950561
 20
84.94888994424401
 30
0.0
 10
123.542771287338
 20
84.48452875356421
 30
0.0
 10
123.542771287338
 20
83.91172241656276
 30
0.0
  0
LINE
  5
89
330
70
100
AcDbEntity
  8
Livello 1
370
    25
100
AcDbLine
 10
124.5587730096318
 20
84.94888994424401
 30
0.0
 11
124.5587730096318
 21
84.94888994424401
 31
0.0
  0
SPLINE
  5
8A
330
70
100
AcDbEntity
  8
Livello 1
370
    25
100
AcDbSpline
210
0.0
220
0.0
230
1.0
 70
     8
 71
     3
 72
     8
 73
     4
 74
     0
 42
0.000000001
 43
0.0000000001
 40
0.0
 40
0.0
 40
0.0
 40
0.0
 40
1.0
 40
1.0
 40
1.0
 40
1.0
 10
125.6171063427005
 20
83.91181930987327
 30
0.0
 10
125.6170417471602
 20
84.48458796614286
 30
0.0
 10
125.1527182372122
 20
84.94888994424401
 30
0.0
 10
124.5799388150193
 20
84.94888994424401
 30
0.0
  0
LWPOLYLINE
  5
8B
330
70
100
AcDbEntity
  8
Livello 1
370
    25
100
AcDbPolyline
 90
        3
 70
     0
 43
0.0
 10
125.6171063427005
 20
83.89055661117525
 10
125.6171063427005
 20
78.64122155660651
 10
123.500439676563
 20
78.64122155660651
  0
SPLINE
  5
8C
330
70
100
AcDbEntity
  8
Livello 1
370
     9
100
AcDbSpline
210
0.0
220
0.0
230
1.0
 70
     9
 71
     3
 72
   503
 73
   499
 74
     0
 42
0.000000001
 43
0.0000000001
 40
0.0
 40
0.0
 40
0.0
 40
0.0
 40
1.0
 40
1.0
 40
1.0
 40
2.0
 40
2.0
 40
2.0
 40
3.0
 40
3.0
 40
3.0
 40
4.0
 40
4.0
 40
4.0
 40
5.0
 40
5.0
 40
5.0
 40
6.0
 40
6.0
 40
6.0
 40
7.0
 40
7.0
 40
7.0
 40
8.0
 40
8.0
 40
8.0
 40
9.0
 40
9.0
 40
9.0
 40
10.0
 40
10.0
 40
10.0
 40
11.0
 40
11.0
 40
11.0
 40
12.0
 40
12.0
 40
12.0
 40
13.0
 40
13.0
 40
13.0
 40
14.0
 40
14.0
 40
14.0
 40
15.0
 40
15.0
 40
15.0
 40
16.0
 40
16.0
 40
16.0
 40
17.0
 40
17.0
 40
17.0
 40
18.0
 40
18.0
 40
18.0
 40
19.0
 40
19.0
 40
19.0
 40
20.0
 40
20.0
 40
20.0
 40
21.0
 40
21.0
 40
21.0
 40
22.0
 40
22.0
 40
22.0
 40
23.0
 40
23.0
 40
23.0
 40
24.0
 40
24.0
 40
24.0
 40
25.0
 40
25.0
 40
25.0
 40
26.0
 40
26.0
 40
26.0
 40
27.0
 40
27.0
 40
27.0
 40
28.0
 40
28.0
 40
28.0
 40
29.0
 40
29.0
 40
29.0
 40
30.0
 40
30.0
 40
30.0
 40
31.0
 40
31.0
 40
31.0
 40
32.0
 40
32.0
 40
32.0
 40
33.0
 40
33.0
 40
33.0
 40
34.0
 40
34.0
 40
34.0
 40
35.0
 40
35.0
 40
35.0
 40
36.0
 40
36.0
 40
36.0
 40
37.0
 40
37.0
 40
37.0
 40
38.0
 40
38.0
 40
38.0
 40
39.0
 40
39.0
 40
39.0
 40
40.0
 40
40.0
 40
40.0
 40
41.0
 40
41.0
 40
41.0
 40
42.0
 40
42.0
 40
42.0
 40
43.0
 40
43.0
 40
43.0
 40
44.0
 40
44.0
 40
44.0
 40
45.0
 40
45.0
 40
45.0
 40
46.0
 40
46.0
 40
46.0
 40
47.0
 40
47.0
 40
47.0
 40
48.0
 40
48.0
 40
48.0
 40
49.0
 40
49.0
 40
49.0
 40
50.0
 40
50.0
 40
50.0
 40
51.0
 40
51.0
 40
51.0
 40
52.0
 40
52.0
 40
52.0
 40
53.0
 40
53.0
 40
53.0
 40
54.0
 40
54.0
 40
54.0
 40
55.0
 40
55.0
 40
55.0
 40
56.0
 40
56.0
 40
56.0
 40
57.0
 40
57.0
 40
57.0
 40
58.0
 40
58.0
 40
58.0
 40
59.0
 40
59.0
 40
59.0
 40
60.0
 40
60.0
 40
60.0
 40
61.0
 40
61.0
 40
61.0
 40
62.0
 40
62.0
 40
62.0
 40
63.0
 40
63.0
 40
63.0
 40
64.0
 40
64.0
 40
64.0
 40
65.0
 40
65.0
 40
65.0
 40
66.0
 40
66.0
 40
66.0
 40
67.0
 40
67.0
 40
67.0
 40
68.0
 40
68.0
 40
68.0
 40
69.0
 40
69.0
 40
69.0
 40
70.0
 40
70.0
 40
70.0
 40
71.0
 40
71.0
 40
71.0
 40
72.0
 40
72.0
 40
72.0
 40
73.0
 40
73.0
 40
73.0
 40
74.0
 40
74.0
 40
74.0
 40
75.0
 40
75.0
 40
75.0
 40
76.0
 40
76.0
 40
76.0
 40
77.0
 40
77.0
 40
77.0
 40
78.0
 40
78.0
 40
78.0
 40
79.0
 40
79.0
 40
79.0
 40
80.0
 40
80.0
 40
80.0
 40
81.0
 40
81.0
 40
81.0
 40
82.0
 40
82.0
 40
82.0
 40
83.0
 40
83.0
 40
83.0
 40
84.0
 40
84.0
 40
84.0
 40
85.0
 40
85.0
 40
85.0
 40
86.0
 40
86.0
 40
86.0
 40
87.0
 40
87.0
 40
87.0
 40
88.0
 40
88.0
 40
88.0
 40
89.0
 40
89.0
 40
89.0
 40
90.0
 40
90.0
 40
90.0
 40
91.0
 40
91.0
 40
91.0
 40
92.0
 40
92.0
 40
92.0
 40
93.0
 40
93.0
 40
93.0
 40
94.0
 40
94.0
 40
94.0
 40
95.0
 40
95.0
 40
95.0
 40
96.0
 40
96.0
 40
96.0
 40
97.0
 40
97.0
 40
97.0
 40
98.0
 40
98.0
 40
98.0
 40
99.0
 40
99.0
 40
99.0
 40
100.0
 40
100.0
 40
100.0
 40
101.0
 40
101.0
 40
101.0
 40
102.0
 40
102.0
 40
102.0
 40
103.0
 40
103.0
 40
103.0
 40
104.0
 40
104.0
 40
104.0
 40
105.0
 40
105.0
 40
105.0
 40
106.0
 40
106.0
 40
106.0
 40
107.0
 40
107.0
 40
107.0
 40
108.0
 40
108.0
 40
108.0
 40
109.0
 40
109.0
 40
109.0
 40
110.0
 40
110.0
 40
110.0
 40
111.0
 40
111.0
 40
111.0
 40
112.0
 40
112.0
 40
112.0
 40
113.0
 40
113.0
 40
113.0
 40
114.0
 40
114.0
 40
114.0
 40
115.0
 40
115.0
 40
115.0
 40
116.0
 40
116.0
 40
116.0
 40
117.0
 40
117.0
 40
117.0
 40
118.0
 40
118.0
 40
118.0
 40
119.0
 40
119.0
 40
119.0
 40
120.0
 40
120.0
 40
120.0
 40
121.0
 40
121.0
 40
121.0
 40
122.0
 40
122.0
 40
122.0
 40
123.0
 40
123.0
 40
123.0
 40
124.0
 40
124.0
 40
124.0
 40
125.0
 40
125.0
 40
125.0
 40
126.0
 40
126.0
 40
126.0
 40
127.0
 40
127.0
 40
127.0
 40
128.0
 40
128.0
 40
128.0
 40
129.0
 40
129.0
 40
129.0
 40
130.0
 40
130.0
 40
130.0
 40
131.0
 40
131.0
 40
131.0
 40
132.0
 40
132.0
 40
132.0
 40
133.0
 40
133.0
 40
133.0
 40
134.0
 40
134.0
 40
134.0
 40
135.0
 40
135.0
 40
135.0
 40
136.0
 40
136.0
 40
136.0
 40
137.0
 40
137.0
 40
137.0
 40
138.0
 40
138.0
 40
138.0
 40
139.0
 40
139.0
 40
139.0
 40
140.0
 40
140.0
 40
140.0
 40
141.0
 40
141.0
 40
141.0
 40
142.0
 40
142.0
 40
142.0
 40
143.0
 40
143.0
 40
143.0
 40
144.0
 40
144.0
 40
144.0
 40
145.0
 40
145.0
 40
145.0
 40
146.0
 40
146.0
 40
146.0
 40
147.0
 40
147.0
 40
147.0
 40
148.0
 40
148.0
 40
148.0
 40
149.0
 40
149.0
 40
149.0
 40
150.0
 40
150.0
 40
150.0
 40
151.0
 40
151.0
 40
151.0
 40
152.0
 40
152.0
 40
152.0
 40
153.0
 40
153.0
 40
153.0
 40
154.0
 40
154.0
 40
154.0
 40
155.0
 40
155.0
 40
155.0
 40
156.0
 40
156.0
 40
156.0
 40
157.0
 40
157.0
 40
157.0
 40
158.0
 40
158.0
 40
158.0
 40
159.0
 40
159.0
 40
159.0
 40
160.0
 40
160.0
 40
160.0
 40
161.0
 40
161.0
 40
161.0
 40
162.0
 40
162.0
 40
162.0
 40
163.0
 40
163.0
 40
163.0
 40
164.0
 40
164.0
 40
164.0
 40
165.0
 40
165.0
 40
165.0
 40
166.0
 40
166.0
 40
166.0
 40
166.0
 10
91.15774330403349
 20
78.51407061839232
 30
0.0
 10
91.08901364910275
 20
78.51407061839232
 30
0.0
 10
91.03251408314465
 20
78.56884763660779
 30
0.0
 10
91.03079153540203
 20
78.63774954631279
 30
0.0
 10
91.03079153540203
 20
78.63774954631279
 30
0.0
 10
90.94621444123914
 20
81.8974988944562
 30
0.0
 10
90.94621444123914
 20
81.8974988944562
 30
0.0
 10
90.94621444123914
 20
81.8974988944562
 30
0.0
 10
90.98841686093345
 20
83.51290416748984
 30
0.0
 10
90.98841686093345
 20
83.51290416748984
 30
0.0
 10
90.98841686093345
 20
83.51290416748984
 30
0.0
 10
91.07333846464486
 20
85.16723901950681
 30
0.0
 10
91.07333846464486
 20
85.16723901950681
 30
0.0
 10
91.07333846464486
 20
85.16723901950681
 30
0.0
 10
91.28590085608477
 20
86.78574487847717
 30
0.0
 10
91.28590085608477
 20
86.78574487847717
 30
0.0
 10
91.28590085608477
 20
86.78574487847717
 30
0.0
 10
91.62627629002747
 20
88.40390622789902
 30
0.0
 10
91.62627629002747
 20
88.40390622789902
 30
0.0
 10
91.62627629002747
 20
88.40390622789902
 30
0.0
 10
91.83935544579016
 20
89.21453719557831
 30
0.0
 10
91.83935544579016
 20
89.21453719557831
 30
0.0
 10
91.83935544579016
 20
89.21453719557831
 30
0.0
 10
92.0949815307957
 20
90.02482365370907
 30
0.0
 10
92.0949815307957
 20
90.02482365370907
 30
0.0
 10
92.0949815307957
 20
90.02482365370907
 30
0.0
 10
92.43776853157806
 20
90.84027775506772
 30
0.0
 10
92.43776853157806
 20
90.84027775506772
 30
0.0
 10
92.43776853157806
 20
90.84027775506772
 30
0.0
 10
92.77728269164944
 20
91.60439993369612
 30
0.0
 10
92.77728269164944
 20
91.60439993369612
 30
0.0
 10
92.77728269164944
 20
91.60439993369612
 30
0.0
 10
93.15968829051216
 20
92.41158580589017
 30
0.0
 10
93.15968829051216
 20
92.41158580589017
 30
0.0
 10
93.15968829051216
 20
92.41158580589017
 30
0.0
 10
93.63028833379729
 20
93.22531735950617
 30
0.0
 10
93.63028833379729
 20
93.22531735950617
 30
0.0
 10
93.63028833379729
 20
93.22531735950617
 30
0.0
 10
94.60593937522004
 20
94.79490286258601
 30
0.0
 10
94.60593937522004
 20
94.79490286258601
 30
0.0
 10
94.60593937522004
 20
94.79490286258601
 30
0.0
 10
95.66771780377406
 20
96.32418074848841
 30
0.0
 10
95.66771780377406
 20
96.32418074848841
 30
0.0
 10
95.66771780377406
 20
96.32418074848841
 30
0.0
 10
96.81355656216815
 20
97.85208059619669
 30
0.0
 10
96.81355656216815
 20
97.85208059619669
 30
0.0
 10
96.81355656216815
 20
97.85208059619669
 30
0.0
 10
100.3294487596398
 20
102.2996988676542
 30
0.0
 10
100.3294487596398
 20
102.2996988676542
 30
0.0
 10
100.3294487596398
 20
102.2996988676542
 30
0.0
 10
101.3848537615461
 20
103.7352701563578
 30
0.0
 10
101.3848537615461
 20
103.7352701563578
 30
0.0
 10
101.3848537615461
 20
103.7352701563578
 30
0.0
 10
101.8461520470211
 20
104.4487494313531
 30
0.0
 10
101.8461520470211
 20
104.4487494313531
 30
0.0
 10
101.8461520470211
 20
104.4487494313531
 30
0.0
 10
102.3136515043695
 20
105.1291557896899
 30
0.0
 10
102.3136515043695
 20
105.1291557896899
 30
0.0
 10
102.3136515043695
 20
105.1291557896899
 30
0.0
 10
102.7341254083442
 20
105.8016384284107
 30
0.0
 10
102.7341254083442
 20
105.8016384284107
 30
0.0
 10
102.7341254083442
 20
105.8016384284107
 30
0.0
 10
103.4493272310821
 20
107.1486707631434
 30
0.0
 10
103.4493272310821
 20
107.1486707631434
 30
0.0
 10
103.4493272310821
 20
107.1486707631434
 30
0.0
 10
103.6965128321488
 20
107.8111626249569
 30
0.0
 10
103.6965128321488
 20
107.8111626249569
 30
0.0
 10
103.6965128321488
 20
107.8111626249569
 30
0.0
 10
103.9058023828777
 20
108.4819227159351
 30
0.0
 10
103.9058023828777
 20
108.4819227159351
 30
0.0
 10
103.9058023828777
 20
108.4819227159351
 30
0.0
 10
104.0737507877836
 20
109.1116861706387
 30
0.0
 10
104.0737507877836
 20
109.1116861706387
 30
0.0
 10
104.0737507877836
 20
109.1116861706387
 30
0.0
 10
104.1552272960098
 20
109.7307698293381
 30
0.0
 10
104.1552272960098
 20
109.7307698293381
 30
0.0
 10
104.1552272960098
 20
109.7307698293381
 30
0.0
 10
104.1969129513813
 20
110.315402533185
 30
0.0
 10
104.1969129513813
 20
110.315402533185
 30
0.0
 10
104.1969129513813
 20
110.315402533185
 30
0.0
 10
104.1543660221385
 20
110.9331081536903
 30
0.0
 10
104.1543660221385
 20
110.9331081536903
 30
0.0
 10
104.1543660221385
 20
110.9331081536903
 30
0.0
 10
104.0299980751209
 20
111.50775008063
 30
0.0
 10
104.0299980751209
 20
111.50775008063
 30
0.0
 10
104.0299980751209
 20
111.50775008063
 30
0.0
 10
103.8229478364574
 20
112.0841145553123
 30
0.0
 10
103.8229478364574
 20
112.0841145553123
 30
0.0
 10
103.8229478364574
 20
112.0841145553123
 30
0.0
 10
103.5325262870509
 20
112.6625460872857
 30
0.0
 10
103.5325262870509
 20
112.6625460872857
 30
0.0
 10
103.5325262870509
 20
112.6625460872857
 30
0.0
 10
103.1583889173527
 20
113.2437336956474
 30
0.0
 10
103.1583889173527
 20
113.2437336956474
 30
0.0
 10
103.1583889173527
 20
113.2437336956474
 30
0.0
 10
102.741187854089
 20
113.7849581963801
 30
0.0
 10
102.741187854089
 20
113.7849581963801
 30
0.0
 10
102.741187854089
 20
113.7849581963801
 30
0.0
 10
102.2404432253079
 20
114.3268717162099
 30
0.0
 10
102.2404432253079
 20
114.3268717162099
 30
0.0
 10
102.2404432253079
 20
114.3268717162099
 30
0.0
 10
101.6937065717988
 20
114.8732638601706
 30
0.0
 10
101.6937065717988
 20
114.8732638601706
 30
0.0
 10
101.6937065717988
 20
114.8732638601706
 30
0.0
 10
101.1042507342725
 20
115.4206895327767
 30
0.0
 10
101.1042507342725
 20
115.4206895327767
 30
0.0
 10
101.1042507342725
 20
115.4206895327767
 30
0.0
 10
100.4372802483282
 20
115.9198838685895
 30
0.0
 10
100.4372802483282
 20
115.9198838685895
 30
0.0
 10
100.4372802483282
 20
115.9198838685895
 30
0.0
 10
99.75601261612004
 20
116.4735107130691
 30
0.0
 10
99.75601261612004
 20
116.4735107130691
 30
0.0
 10
99.75601261612004
 20
116.4735107130691
 30
0.0
 10
97.4796657742412
 20
117.9900417456761
 30
0.0
 10
97.4796657742412
 20
117.9900417456761
 30
0.0
 10
97.4796657742412
 20
117.9900417456761
 30
0.0
 10
92.61398516564858
 20
121.0365396832825
 30
0.0
 10
92.61398516564858
 20
121.0365396832825
 30
0.0
 10
92.61398516564858
 20
121.0365396832825
 30
0.0
 10
91.04629446508566
 20
122.0535318705283
 30
0.0
 10
91.04629446508566
 20
122.0535318705283
 30
0.0
 10
91.04629446508566
 20
122.0535318705283
 30
0.0
 10
90.32265215840892
 20
122.5640950214423
 30
0.0
 10
90.32265215840892
 20
122.5640950214423
 30
0.0
 10
90.32265215840892
 20
122.5640950214423
 30
0.0
 10
88.96494002767196
 20
123.5821207373336
 30
0.0
 10
88.96494002767196
 20
123.5821207373336
 30
0.0
 10
88.96494002767196
 20
123.5821207373336
 30
0.0
 10
88.36583792278702
 20
124.0954399646359
 30
0.0
 10
88.36583792278702
 20
124.0954399646359
 30
0.0
 10
88.36583792278702
 20
124.0954399646359
 30
0.0
 10
87.8120388235331
 20
124.6066921346469
 30
0.0
 10
87.8120388235331
 20
124.6066921346469
 30
0.0
 10
87.8120388235331
 20
124.6066921346469
 30
0.0
 10
87.29682479371399
 20
125.1641085841604
 30
0.0
 10
87.29682479371399
 20
125.1641085841604
 30
0.0
 10
87.29682479371399
 20
125.1641085841604
 30
0.0
 10
86.86928844399449
 20
125.677083301914
 30
0.0
 10
86.86928844399449
 20
125.677083301914
 30
0.0
 10
86.86928844399449
 20
125.677083301914
 30
0.0
 10
86.51995576179016
 20
126.242078961495
 30
0.0
 10
86.51995576179016
 20
126.242078961495
 30
0.0
 10
86.51995576179016
 20
126.242078961495
 30
0.0
 10
86.22006019979915
 20
126.7984618823629
 30
0.0
 10
86.22006019979915
 20
126.7984618823629
 30
0.0
 10
86.22006019979915
 20
126.7984618823629
 30
0.0
 10
86.00164114603431
 20
127.3638020514924
 30
0.0
 10
86.00164114603431
 20
127.3638020514924
 30
0.0
 10
86.00164114603431
 20
127.3638020514924
 30
0.0
 10
85.86934947940072
 20
127.9308647683645
 30
0.0
 10
85.86934947940072
 20
127.9308647683645
 30
0.0
 10
85.86934947940072
 20
127.9308647683645
 30
0.0
 10
85.82421872854395
 20
128.5003390520763
 30
0.0
 10
85.82421872854395
 20
128.5003390520763
 30
0.0
 10
85.82421872854395
 20
128.5003390520763
 30
0.0
 10
85.82387421899543
 20
129.102541742898
 30
0.0
 10
85.82387421899543
 20
129.102541742898
 30
0.0
 10
85.82387421899543
 20
129.102541742898
 30
0.0
 10
85.90982935135242
 20
129.6720160266098
 30
0.0
 10
85.90982935135242
 20
129.6720160266098
 30
0.0
 10
85.90982935135242
 20
129.6720160266098
 30
0.0
 10
86.08260088993768
 20
130.2804198893049
 30
0.0
 10
86.08260088993768
 20
130.2804198893049
 30
0.0
 10
86.08260088993768
 20
130.2804198893049
 30
0.0
 10
86.29688582912022
 20
130.8809000323839
 30
0.0
 10
86.29688582912022
 20
130.8809000323839
 30
0.0
 10
86.29688582912022
 20
130.8809000323839
 30
0.0
 10
86.55268416890002
 20
131.5203097544463
 30
0.0
 10
86.55268416890002
 20
131.5203097544463
 30
0.0
 10
86.55268416890002
 20
131.5203097544463
 30
0.0
 10
86.89891626516764
 20
132.1290581266899
 30
0.0
 10
86.89891626516764
 20
132.1290581266899
 30
0.0
 10
86.89891626516764
 20
132.1290581266899
 30
0.0
 10
87.23567434885081
 20
132.7605441291362
 30
0.0
 10
87.23567434885081
 20
132.7605441291362
 30
0.0
 10
87.23567434885081
 20
132.7605441291362
 30
0.0
 10
88.13449976095249
 20
134.0035345802144
 30
0.0
 10
88.13449976095249
 20
134.0035345802144
 30
0.0
 10
88.13449976095249
 20
134.0035345802144
 30
0.0
 10
89.70460202835509
 20
135.9558701917055
 30
0.0
 10
89.70460202835509
 20
135.9558701917055
 30
0.0
 10
89.70460202835509
 20
135.9558701917055
 30
0.0
 10
90.9381184668488
 20
137.2749972530076
 30
0.0
 10
90.9381184668488
 20
137.2749972530076
 30
0.0
 10
90.9381184668488
 20
137.2749972530076
 30
0.0
 10
92.25173337537457
 20
138.6313313455505
 30
0.0
 10
92.25173337537457
 20
138.6313313455505
 30
0.0
 10
92.25173337537457
 20
138.6313313455505
 30
0.0
 10
95.00505368718625
 20
141.3843071478136
 30
0.0
 10
95.00505368718625
 20
141.3843071478136
 30
0.0
 10
95.00505368718625
 20
141.3843071478136
 30
0.0
 10
97.79764808752977
 20
144.2616508970943
 30
0.0
 10
97.79764808752977
 20
144.2616508970943
 30
0.0
 10
97.79764808752977
 20
144.2616508970943
 30
0.0
 10
99.10730113624749
 20
145.697911204895
 30
0.0
 10
99.10730113624749
 20
145.697911204895
 30
0.0
 10
99.10730113624749
 20
145.697911204895
 30
0.0
 10
100.3745795104966
 20
147.1768906967127
 30
0.0
 10
100.3745795104966
 20
147.1768906967127
 30
0.0
 10
100.3745795104966
 20
147.1768906967127
 30
0.0
 10
101.5124945492746
 20
148.694283003191
 30
0.0
 10
101.5124945492746
 20
148.694283003191
 30
0.0
 10
101.5124945492746
 20
148.694283003191
 30
0.0
 10
102.0165120187667
 20
149.4506537169776
 30
0.0
 10
102.0165120187667
 20
149.4506537169776
 30
0.0
 10
102.0165120187667
 20
149.4506537169776
 30
0.0
 10
102.9451375068158
 20
150.9704575902956
 30
0.0
 10
102.9451375068158
 20
150.9704575902956
 30
0.0
 10
102.9451375068158
 20
150.9704575902956
 30
0.0
 10
103.3644056273707
 20
151.7676526855824
 30
0.0
 10
103.3644056273707
 20
151.7676526855824
 30
0.0
 10
103.3644056273707
 20
151.7676526855824
 30
0.0
 10
103.699268908537
 20
152.5221285968521
 30
0.0
 10
103.699268908537
 20
152.5221285968521
 30
0.0
 10
103.699268908537
 20
152.5221285968521
 30
0.0
 10
103.992618789106
 20
153.3188069278161
 30
0.0
 10
103.992618789106
 20
153.3188069278161
 30
0.0
 10
103.992618789106
 20
153.3188069278161
 30
0.0
 10
104.244627523852
 20
154.117380061297
 30
0.0
 10
104.244627523852
 20
154.117380061297
 30
0.0
 10
104.244627523852
 20
154.117380061297
 30
0.0
 10
104.4551228580008
 20
154.8751288132777
 30
0.0
 10
104.4551228580008
 20
154.8751288132777
 30
0.0
 10
104.4551228580008
 20
154.8751288132777
 30
0.0
 10
104.6225544985839
 20
155.6718071442418
 30
0.0
 10
104.6225544985839
 20
155.6718071442418
 30
0.0
 10
104.6225544985839
 20
155.6718071442418
 30
0.0
 10
104.7898138843928
 20
157.2674031182352
 30
0.0
 10
104.7898138843928
 20
157.2674031182352
 30
0.0
 10
104.7898138843928
 20
157.2674031182352
 30
0.0
 10
104.8314995397643
 20
158.1073173975391
 30
0.0
 10
104.8314995397643
 20
158.1073173975391
 30
0.0
 10
104.8314995397643
 20
158.1073173975391
 30
0.0
 10
104.8311550302158
 20
159.7096313077288
 30
0.0
 10
104.8311550302158
 20
159.7096313077288
 30
0.0
 10
104.8311550302158
 20
159.7096313077288
 30
0.0
 10
104.7048922806814
 20
161.3508747969019
 30
0.0
 10
104.7048922806814
 20
161.3508747969019
 30
0.0
 10
104.7048922806814
 20
161.3508747969019
 30
0.0
 10
104.4938801822098
 20
162.9953911267858
 30
0.0
 10
104.4938801822098
 20
162.9953911267858
 30
0.0
 10
104.4938801822098
 20
162.9953911267858
 30
0.0
 10
103.9442151975382
 20
166.2926920157185
 30
0.0
 10
103.9442151975382
 20
166.2926920157185
 30
0.0
 10
103.9326741276626
 20
166.3617661801977
 30
0.0
 10
103.9793551714878
 20
166.4272229944175
 30
0.0
 10
104.0486015907413
 20
166.4387640642931
 30
0.0
 10
104.1190537934147
 20
166.4497883698459
 30
0.0
 10
104.1831325694403
 20
166.4034518355693
 30
0.0
 10
104.1946736393159
 20
166.33437767109
 30
0.0
 10
104.1946736393159
 20
166.33437767109
 30
0.0
 10
104.7450276430845
 20
163.0324259032523
 30
0.0
 10
104.7450276430845
 20
163.0324259032523
 30
0.0
 10
104.7450276430845
 20
163.0324259032523
 30
0.0
 10
104.9575900345245
 20
161.3767130130412
 30
0.0
 10
104.9575900345245
 20
161.3767130130412
 30
0.0
 10
104.9575900345245
 20
161.3767130130412
 30
0.0
 10
105.0850585674787
 20
159.7192775750875
 30
0.0
 10
105.0850585674787
 20
159.7192775750875
 30
0.0
 10
105.0850585674787
 20
159.7192775750875
 30
0.0
 10
105.0854030770272
 20
158.1009439708914
 30
0.0
 10
105.0854030770272
 20
158.1009439708914
 30
0.0
 10
105.0854030770272
 20
158.1009439708914
 30
0.0
 10
105.0430284025587
 20
157.2477660739693
 30
0.0
 10
105.0430284025587
 20
157.2477660739693
 30
0.0
 10
105.0430284025587
 20
157.2477660739693
 30
0.0
 10
104.8731851951359
 20
155.6323608009356
 30
0.0
 10
104.8731851951359
 20
155.6323608009356
 30
0.0
 10
104.8731851951359
 20
155.6323608009356
 30
0.0
 10
104.7016194399704
 20
154.8150118970601
 30
0.0
 10
104.7016194399704
 20
154.8150118970601
 30
0.0
 10
104.7016194399704
 20
154.8150118970601
 30
0.0
 10
104.4880235198849
 20
154.0452053108811
 30
0.0
 10
104.4880235198849
 20
154.0452053108811
 30
0.0
 10
104.4880235198849
 20
154.0452053108811
 30
0.0
 10
104.2329141992022
 20
153.2366414004929
 30
0.0
 10
104.2329141992022
 20
153.2366414004929
 30
0.0
 10
104.2329141992022
 20
153.2366414004929
 30
0.0
 10
103.9345689301795
 20
152.4266994519107
 30
0.0
 10
103.9345689301795
 20
152.4266994519107
 30
0.0
 10
103.9345689301795
 20
152.4266994519107
 30
0.0
 10
103.5928154580427
 20
151.6570651205058
 30
0.0
 10
103.5928154580427
 20
151.6570651205058
 30
0.0
 10
103.5928154580427
 20
151.6570651205058
 30
0.0
 10
103.165795872646
 20
150.8450561146324
 30
0.0
 10
103.165795872646
 20
150.8450561146324
 30
0.0
 10
103.165795872646
 20
150.8450561146324
 30
0.0
 10
102.2304524484007
 20
149.3140556809874
 30
0.0
 10
102.2304524484007
 20
149.3140556809874
 30
0.0
 10
102.2304524484007
 20
149.3140556809874
 30
0.0
 10
101.7197170427124
 20
148.5476941902936
 30
0.0
 10
101.7197170427124
 20
148.5476941902936
 30
0.0
 10
101.7197170427124
 20
148.5476941902936
 30
0.0
 10
100.5726725008985
 20
147.0180717948427
 30
0.0
 10
100.5726725008985
 20
147.0180717948427
 30
0.0
 10
100.5726725008985
 20
147.0180717948427
 30
0.0
 10
99.29764266180754
 20
145.5297905452147
 30
0.0
 10
99.29764266180754
 20
145.5297905452147
 30
0.0
 10
99.29764266180754
 20
145.5297905452147
 30
0.0
 10
97.98264971508768
 20
144.0876699351283
 30
0.0
 10
97.98264971508768
 20
144.0876699351283
 30
0.0
 10
97.98264971508768
 20
144.0876699351283
 30
0.0
 10
95.18592120016185
 20
141.2058512016777
 30
0.0
 10
95.18592120016185
 20
141.2058512016777
 30
0.0
 10
95.18592120016185
 20
141.2058512016777
 30
0.0
 10
92.43277314312445
 20
138.4528753994145
 30
0.0
 10
92.43277314312445
 20
138.4528753994145
 30
0.0
 10
92.43277314312445
 20
138.4528753994145
 30
0.0
 10
91.12208656576115
 20
137.0999864023569
 30
0.0
 10
91.12208656576115
 20
137.0999864023569
 30
0.0
 10
91.12208656576115
 20
137.0999864023569
 30
0.0
 10
89.89580482778647
 20
135.7891275702194
 30
0.0
 10
89.89580482778647
 20
135.7891275702194
 30
0.0
 10
89.89580482778647
 20
135.7891275702194
 30
0.0
 10
88.3360378468396
 20
133.8491943024752
 30
0.0
 10
88.3360378468396
 20
133.8491943024752
 30
0.0
 10
88.3360378468396
 20
133.8491943024752
 30
0.0
 10
87.45116507145318
 20
132.627218933857
 30
0.0
 10
87.45116507145318
 20
132.627218933857
 30
0.0
 10
87.45116507145318
 20
132.627218933857
 30
0.0
 10
87.12129717874052
 20
132.006412727415
 30
0.0
 10
87.12129717874052
 20
132.006412727415
 30
0.0
 10
87.12129717874052
 20
132.006412727415
 30
0.0
 10
86.78074949002356
 20
131.4100666989183
 30
0.0
 10
86.78074949002356
 20
131.4100666989183
 30
0.0
 10
86.78074949002356
 20
131.4100666989183
 30
0.0
 10
86.53442516282821
 20
130.7909830402189
 30
0.0
 10
86.53442516282821
 20
130.7909830402189
 30
0.0
 10
86.53442516282821
 20
130.7909830402189
 30
0.0
 10
86.32427433822796
 20
130.2029052408868
 30
0.0
 10
86.32427433822796
 20
130.2029052408868
 30
0.0
 10
86.32427433822796
 20
130.2029052408868
 30
0.0
 10
86.15753171674187
 20
129.6179280274913
 30
0.0
 10
86.15753171674187
 20
129.6179280274913
 30
0.0
 10
86.15753171674187
 20
129.6179280274913
 30
0.0
 10
86.07639971806424
 20
129.0832492081805
 30
0.0
 10
86.07639971806424
 20
129.0832492081805
 30
0.0
 10
86.07639971806424
 20
129.0832492081805
 30
0.0
 10
86.07777775625834
 20
128.509985319435
 30
0.0
 10
86.07777775625834
 20
128.509985319435
 30
0.0
 10
86.07777775625834
 20
128.509985319435
 30
0.0
 10
86.11963566640412
 20
127.9691053282508
 30
0.0
 10
86.11963566640412
 20
127.9691053282508
 30
0.0
 10
86.11963566640412
 20
127.9691053282508
 30
0.0
 10
86.24383135864738
 20
127.4378716044252
 30
0.0
 10
86.24383135864738
 20
127.4378716044252
 30
0.0
 10
86.24383135864738
 20
127.4378716044252
 30
0.0
 10
86.4503648329881
 20
126.90422631376
 30
0.0
 10
86.4503648329881
 20
126.90422631376
 30
0.0
 10
86.4503648329881
 20
126.90422631376
 30
0.0
 10
86.73992510852334
 20
126.3688584753522
 30
0.0
 10
86.73992510852334
 20
126.3688584753522
 30
0.0
 10
86.73992510852334
 20
126.3688584753522
 30
0.0
 10
87.0749606444639
 20
125.8248778982313
 30
0.0
 10
87.0749606444639
 20
125.8248778982313
 30
0.0
 10
87.0749606444639
 20
125.8248778982313
 30
0.0
 10
87.48768308359684
 20
125.3315402247435
 30
0.0
 10
87.48768308359684
 20
125.3315402247435
 30
0.0
 10
87.48768308359684
 20
125.3315402247435
 30
0.0
 10
87.99152829831461
 20
124.7861816094284
 30
0.0
 10
87.99152829831461
 20
124.7861816094284
 30
0.0
 10
87.99152829831461
 20
124.7861816094284
 30
0.0
 10
88.53464760156425
 20
124.2852647258731
 30
0.0
 10
88.53464760156425
 20
124.2852647258731
 30
0.0
 10
88.53464760156425
 20
124.2852647258731
 30
0.0
 10
89.12375892954198
 20
123.7802137277355
 30
0.0
 10
89.12375892954198
 20
123.7802137277355
 30
0.0
 10
89.12375892954198
 20
123.7802137277355
 30
0.0
 10
90.4719970476945
 20
122.7694227123632
 30
0.0
 10
90.4719970476945
 20
122.7694227123632
 30
0.0
 10
90.4719970476945
 20
122.7694227123632
 30
0.0
 10
91.18857690862647
 20
122.2636826951285
 30
0.0
 10
91.18857690862647
 20
122.2636826951285
 30
0.0
 10
91.18857690862647
 20
122.2636826951285
 30
0.0
 10
92.75092771118726
 20
121.2504801129165
 30
0.0
 10
92.75092771118726
 20
121.2504801129165
 30
0.0
 10
92.75092771118726
 20
121.2504801129165
 30
0.0
 10
94.35823700983059
 20
120.2352104734134
 30
0.0
 10
94.35823700983059
 20
120.2352104734134
 30
0.0
 10
94.35823700983059
 20
120.2352104734134
 30
0.0
 10
97.61729733887692
 20
118.2036376657616
 30
0.0
 10
97.61729733887692
 20
118.2036376657616
 30
0.0
 10
97.61729733887692
 20
118.2036376657616
 30
0.0
 10
99.90656328882545
 20
116.6778048753444
 30
0.0
 10
99.90656328882545
 20
116.6778048753444
 30
0.0
 10
99.90656328882545
 20
116.6778048753444
 30
0.0
 10
100.5935153285842
 20
116.1200439162825
 30
0.0
 10
100.5935153285842
 20
116.1200439162825
 30
0.0
 10
100.5935153285842
 20
116.1200439162825
 30
0.0
 10
101.2668592411763
 20
115.6153374276934
 30
0.0
 10
101.2668592411763
 20
115.6153374276934
 30
0.0
 10
101.2668592411763
 20
115.6153374276934
 30
0.0
 10
101.8699232058693
 20
115.0561984304373
 30
0.0
 10
101.8699232058693
 20
115.0561984304373
 30
0.0
 10
101.8699232058693
 20
115.0561984304373
 30
0.0
 10
102.4235500503489
 20
114.5029160955062
 30
0.0
 10
102.4235500503489
 20
114.5029160955062
 30
0.0
 10
102.4235500503489
 20
114.5029160955062
 30
0.0
 10
102.9351467299085
 20
113.9486002319295
 30
0.0
 10
102.9351467299085
 20
113.9486002319295
 30
0.0
 10
102.9351467299085
 20
113.9486002319295
 30
0.0
 10
103.3657836655648
 20
113.389805744222
 30
0.0
 10
103.3657836655648
 20
113.389805744222
 30
0.0
 10
103.3657836655648
 20
113.389805744222
 30
0.0
 10
103.7528401433326
 20
112.7879475629488
 30
0.0
 10
103.7528401433326
 20
112.7879475629488
 30
0.0
 10
103.7528401433326
 20
112.7879475629488
 30
0.0
 10
104.0560085460346
 20
112.183677814836
 30
0.0
 10
104.0560085460346
 20
112.183677814836
 30
0.0
 10
104.0560085460346
 20
112.183677814836
 30
0.0
 10
104.2737385807024
 20
111.5769964998835
 30
0.0
 10
104.2737385807024
 20
111.5769964998835
 30
0.0
 10
104.2737385807024
 20
111.5769964998835
 30
0.0
 10
104.4053412282389
 20
110.9682481276399
 30
0.0
 10
104.4053412282389
 20
110.9682481276399
 30
0.0
 10
104.4053412282389
 20
110.9682481276399
 30
0.0
 10
104.4502997243214
 20
110.3150580236365
 30
0.0
 10
104.4502997243214
 20
110.3150580236365
 30
0.0
 10
104.4502997243214
 20
110.3150580236365
 30
0.0
 10
104.4077527950786
 20
109.7049316131987
 30
0.0
 10
104.4077527950786
 20
109.7049316131987
 30
0.0
 10
104.4077527950786
 20
109.7049316131987
 30
0.0
 10
104.3223144270444
 20
109.0620767956511
 30
0.0
 10
104.3223144270444
 20
109.0620767956511
 30
0.0
 10
104.3223144270444
 20
109.0620767956511
 30
0.0
 10
104.1497151432334
 20
108.4112982584874
 30
0.0
 10
104.1497151432334
 20
108.4112982584874
 30
0.0
 10
104.1497151432334
 20
108.4112982584874
 30
0.0
 10
103.9366359874707
 20
107.7288248428594
 30
0.0
 10
103.9366359874707
 20
107.7288248428594
 30
0.0
 10
103.9366359874707
 20
107.7288248428594
 30
0.0
 10
103.6803208833681
 20
107.0446288794888
 30
0.0
 10
103.6803208833681
 20
107.0446288794888
 30
0.0
 10
103.6803208833681
 20
107.0446288794888
 30
0.0
 10
102.9540947550774
 20
105.675203424102
 30
0.0
 10
102.9540947550774
 20
105.675203424102
 30
0.0
 10
102.9540947550774
 20
105.675203424102
 30
0.0
 10
102.5260416410351
 20
104.9899739320858
 30
0.0
 10
102.5260416410351
 20
104.9899739320858
 30
0.0
 10
102.5260416410351
 20
104.9899739320858
 30
0.0
 10
102.0575086550412
 20
104.3078450260064
 30
0.0
 10
102.0575086550412
 20
104.3078450260064
 30
0.0
 10
102.0575086550412
 20
104.3078450260064
 30
0.0
 10
101.5937988027265
 20
103.5912651650744
 30
0.0
 10
101.5937988027265
 20
103.5912651650744
 30
0.0
 10
101.5937988027265
 20
103.5912651650744
 30
0.0
 10
100.5311591003012
 20
102.1457030994636
 30
0.0
 10
100.5311591003012
 20
102.1457030994636
 30
0.0
 10
100.5311591003012
 20
102.1457030994636
 30
0.0
 10
97.014922393281
 20
97.69739334086517
 30
0.0
 10
97.014922393281
 20
97.69739334086517
 30
0.0
 10
97.014922393281
 20
97.69739334086517
 30
0.0
 10
95.87373451379198
 20
96.17569713307414
 30
0.0
 10
95.87373451379198
 20
96.17569713307414
 30
0.0
 10
95.87373451379198
 20
96.17569713307414
 30
0.0
 10
94.81815725711143
 20
94.65537649543339
 30
0.0
 10
94.81815725711143
 20
94.65537649543339
 30
0.0
 10
94.81815725711143
 20
94.65537649543339
 30
0.0
 10
93.84801836846508
 20
93.09440373106667
 30
0.0
 10
93.84801836846508
 20
93.09440373106667
 30
0.0
 10
93.84801836846508
 20
93.09440373106667
 30
0.0
 10
93.38430851615045
 20
92.2934190307461
 30
0.0
 10
93.38430851615045
 20
92.2934190307461
 30
0.0
 10
93.38430851615045
 20
92.2934190307461
 30
0.0
 10
93.00810408916118
 20
91.49829099275043
 30
0.0
 10
93.00810408916118
 20
91.49829099275043
 30
0.0
 10
93.00810408916118
 20
91.49829099275043
 30
0.0
 10
92.67082924115522
 20
90.73933645734989
 30
0.0
 10
92.67082924115522
 20
90.73933645734989
 30
0.0
 10
92.67082924115522
 20
90.73933645734989
 30
0.0
 10
92.33320988360073
 20
89.93731822838373
 30
0.0
 10
92.33320988360073
 20
89.93731822838373
 30
0.0
 10
92.33320988360073
 20
89.93731822838373
 30
0.0
 10
92.08326820614585
 20
89.1439127381307
 30
0.0
 10
92.08326820614585
 20
89.1439127381307
 30
0.0
 10
92.08326820614585
 20
89.1439127381307
 30
0.0
 10
91.87328963631989
 20
88.34533960464979
 30
0.0
 10
91.87328963631989
 20
88.34533960464979
 30
0.0
 10
91.87328963631989
 20
88.34533960464979
 30
0.0
 10
91.53601478831392
 20
86.74302569446009
 30
0.0
 10
91.53601478831392
 20
86.74302569446009
 30
0.0
 10
91.53601478831392
 20
86.74302569446009
 30
0.0
 10
91.32603621848794
 20
85.14415687975562
 30
0.0
 10
91.32603621848794
 20
85.14415687975562
 30
0.0
 10
91.32603621848794
 20
85.14415687975562
 30
0.0
 10
91.24214814342209
 20
83.5029133905826
 30
0.0
 10
91.24214814342209
 20
83.5029133905826
 30
0.0
 10
91.24214814342209
 20
83.5029133905826
 30
0.0
 10
91.20011797850207
 20
81.8974988944562
 30
0.0
 10
91.20011797850207
 20
81.8974988944562
 30
0.0
 10
91.20011797850207
 20
81.8974988944562
 30
0.0
 10
91.28469507266494
 20
78.64463973728328
 30
0.0
 10
91.28469507266494
 20
78.64463973728328
 30
0.0
 10
91.28658987518184
 20
78.57435978938418
 30
0.0
 10
91.2311238378693
 20
78.51613767568347
 30
0.0
 10
91.16101614474446
 20
78.51407061839232
 30
0.0
 10
91.1599826160989
 20
78.51407061839232
 30
0.0
 10
91.15877683267907
 20
78.51407061839232
 30
0.0
 10
91.15774330403349
 20
78.51407061839232
 30
0.0
  0
LWPOLYLINE
  5
8D
330
70
100
AcDbEntity
  8
Livello 1
370
    25
100
AcDbPolyline
 90
        5
 70
     0
 43
0.0
 10
82.64877732647866
 20
166.0595559446776
 10
84.51144356204272
 20
166.0595559446776
 10
84.51144356204272
 20
166.313556375251
 10
82.64877732647866
 20
166.313556375251
 10
82.64877732647866
 20
166.0595559446776
  0
LWPOLYLINE
  5
8E
330
70
100
AcDbEntity
  8
Livello 1
370
    25
100
AcDbPolyline
 90
        5
 70
     0
 43
0.0
 10
83.32611001368723
 20
165.3822178745073
 10
83.83411087483413
 20
165.3822178745073
 10
83.83411087483413
 20
166.0595559446776
 10
83.32611001368723
 20
166.0595559446776
 10
83.32611001368723
 20
165.3822178745073
  0
LWPOLYLINE
  5
92
330
70
100
AcDbEntity
  8
Livello 1
370
    25
100
AcDbPolyline
 90
        5
 70
     0
 43
0.0
 10
185.7361922926112
 20
166.4407073134652
 10
198.7466384563508
 20
166.4407073134652
 10
198.7466384563508
 20
166.5677021457902
 10
185.7361922926112
 20
166.5677021457902
 10
185.7361922926112
 20
166.4407073134652
  0
LWPOLYLINE
  5
93
330
70
100
AcDbEntity
  8
Livello 1
370
    25
100
AcDbPolyline
 90
        5
 70
     0
 43
0.0
 10
189.0381925071042
 20
166.5677021457902
 10
195.4446328588961
 20
166.5677021457902
 10
195.4446328588961
 20
171.859368811134
 10
189.0381925071042
 20
171.859368811134
 10
189.0381925071042
 20
166.5677021457902
  0
LWPOLYLINE
  5
94
330
70
100
AcDbEntity
  8
Livello 1
370
    25
100
AcDbPolyline
 90
        5
 70
     0
 43
0.0
 10
189.1651977066149
 20
166.6947131270003
 10
195.3176430107951
 20
166.6947131270003
 10
195.3176430107951
 20
171.8593634281723
 10
189.1651977066149
 20
171.8593634281723
 10
189.1651977066149
 20
166.6947131270003
  0
LINE
  5
95
330
70
100
AcDbEntity
  8
Livello 1
370
    25
100
AcDbLine
 10
192.0156378120781
 20
165.5093688127215
 30
0.0
 11
192.0156378120781
 21
85.0760408824582
 31
0.0
  0
LINE
  5
96
330
70
100
AcDbEntity
  8
Livello 1
370
    25
100
AcDbLine
 10
193.0739711451469
 20
78.76837249482071
 30
0.0
 11
193.0739711451469
 21
84.01770754938945
 31
0.0
  0
SPLINE
  5
97
330
70
100
AcDbEntity
  8
Livello 1
370
    25
100
AcDbSpline
210
0.0
220
0.0
230
1.0
 70
     8
 71
     3
 72
     8
 73
     4
 74
     0
 42
0.000000001
 43
0.0000000001
 40
0.0
 40
0.0
 40
0.0
 40
0.0
 40
1.0
 40
1.0
 40
1.0
 40
1.0
 10
193.0739711451469
 20
84.03897024808747
 30
0.0
 10
193.0739119325682
 20
84.61173890435706
 30
0.0
 10
192.6095722737352
 20
85.0760408824582
 30
0.0
 10
192.0368036174656
 20
85.0760408824582
 30
0.0
  0
LINE
  5
98
330
70
100
AcDbEntity
  8
Livello 1
370
    25
100
AcDbLine
 10
192.0156378120781
 20
85.0760408824582
 30
0.0
 11
192.0156378120781
 21
85.0760408824582
 31
0.0
  0
SPLINE
  5
99
330
70
100
AcDbEntity
  8
Livello 1
370
     9
100
AcDbSpline
210
0.0
220
0.0
230
1.0
 70
     9
 71
     3
 72
    77
 73
    73
 74
     0
 42
0.000000001
 43
0.0000000001
 40
0.0
 40
0.0
 40
0.0
 40
0.0
 40
1.0
 40
1.0
 40
1.0
 40
2.0
 40
2.0
 40
2.0
 40
3.0
 40
3.0
 40
3.0
 40
4.0
 40
4.0
 40
4.0
 40
5.0
 40
5.0
 40
5.0
 40
6.0
 40
6.0
 40
6.0
 40
7.0
 40
7.0
 40
7.0
 40
8.0
 40
8.0
 40
8.0
 40
9.0
 40
9.0
 40
9.0
 40
10.0
 40
10.0
 40
10.0
 40
11.0
 40
11.0
 40
11.0
 40
12.0
 40
12.0
 40
12.0
 40
13.0
 40
13.0
 40
13.0
 40
14.0
 40
14.0
 40
14.0
 40
15.0
 40
15.0
 40
15.0
 40
16.0
 40
16.0
 40
16.0
 40
17.0
 40
17.0
 40
17.0
 40
18.0
 40
18.0
 40
18.0
 40
19.0
 40
19.0
 40
19.0
 40
20.0
 40
20.0
 40
20.0
 40
21.0
 40
21.0
 40
21.0
 40
22.0
 40
22.0
 40
22.0
 40
23.0
 40
23.0
 40
23.0
 40
24.0
 40
24.0
 40
24.0
 40
24.0
 10
190.9995387977362
 20
83.91184622468177
 30
0.0
 10
190.9561305946221
 20
83.91184622468177
 30
0.0
 10
190.9147894487991
 20
83.93423934533588
 30
0.0
 10
190.8913627994994
 20
83.97247990522215
 30
0.0
 10
188.2744682689036
 20
88.22303871492341
 30
0.0
 10
187.0407795756356
 20
96.73621416852428
 30
0.0
 10
187.2244031649995
 20
100.9261392976851
 30
0.0
 10
187.4125053784941
 20
105.2232068964372
 30
0.0
 10
188.997249301709
 20
107.6974744739437
 30
0.0
 10
190.6750108030257
 20
110.3171250809277
 30
0.0
 10
192.1364203078687
 20
112.5984673112601
 30
0.0
 10
193.6470946781507
 20
114.9573241900107
 30
0.0
 10
194.3340467179096
 20
118.7128227784815
 30
0.0
 10
195.1818847168295
 20
123.3475097347881
 30
0.0
 10
194.0660182891571
 20
126.2951334319678
 30
0.0
 10
192.7741074821884
 20
129.7081895292049
 30
0.0
 10
191.6606526213556
 20
132.6503010736082
 30
0.0
 10
190.3983696355601
 20
135.9851535033301
 30
0.0
 10
190.1510117797192
 20
141.0525444525841
 30
0.0
 10
189.8371635810129
 20
147.4831559596134
 30
0.0
 10
191.3185546396704
 20
154.1156575135544
 30
0.0
 10
194.5538438098685
 20
160.7655530739579
 30
0.0
 10
194.5593559626449
 20
160.7772663986077
 30
0.0
 10
194.5669351727124
 20
160.7881184493863
 30
0.0
 10
194.5758924209741
 20
160.7975924619707
 30
0.0
 10
194.588983783818
 20
160.811545098686
 30
0.0
 10
195.898120068213
 20
162.3232529976136
 30
0.0
 10
192.1791394918858
 20
166.0976996112533
 30
0.0
 10
192.1302191359952
 20
166.1476534957895
 30
0.0
 10
192.1305636455437
 20
166.2279242205958
 30
0.0
 10
192.1805175300798
 20
166.2771890860348
 30
0.0
 10
192.2308159241645
 20
166.3266262062482
 30
0.0
 10
192.3107421394223
 20
166.3255926776026
 30
0.0
 10
192.3603515144099
 20
166.2758110478408
 30
0.0
 10
196.1113714787499
 20
162.4688082818654
 30
0.0
 10
194.9352158800856
 20
160.8277370474667
 30
0.0
 10
194.7743299209245
 20
160.6387735601007
 30
0.0
 10
191.5635009286716
 20
154.0329752219084
 30
0.0
 10
190.0934786851155
 20
147.4473306923048
 30
0.0
 10
190.4045708074336
 20
141.064946796331
 30
0.0
 10
190.6502061155319
 20
136.0375189547059
 30
0.0
 10
191.9049098912599
 20
132.7226480787985
 30
0.0
 10
193.0118190706706
 20
129.7981065213699
 30
0.0
 10
194.3171657500318
 20
126.3495659406348
 30
0.0
 10
195.4444009928056
 20
123.3712808936363
 30
0.0
 10
194.5841606501387
 20
118.6673475180762
 30
0.0
 10
193.8879068525697
 20
114.8625840641663
 30
0.0
 10
192.3634521003466
 20
112.4820230838586
 30
0.0
 10
190.8889512326597
 20
110.1803547901632
 30
0.0
 10
189.2301377565119
 20
107.5903320043524
 30
0.0
 10
187.6633083298203
 20
105.1439697002765
 30
0.0
 10
187.4779621927138
 20
100.9151149921323
 30
0.0
 10
187.300884284772
 20
96.8729844592887
 30
0.0
 10
188.4618814633012
 20
88.50863713065063
 30
0.0
 10
190.9296033593856
 20
84.39863821674757
 30
0.0
 10
191.0815320702852
 20
84.86510189463455
 30
0.0
 10
191.520437235106
 20
85.2030680125534
 30
0.0
 10
192.0368570483449
 20
85.2030680125534
 30
0.0
 10
192.107136996244
 20
85.2030680125534
 30
0.0
 10
192.1639810717507
 20
85.14622393704678
 30
0.0
 10
192.1639810717507
 20
85.07594398914768
 30
0.0
 10
192.1639810717507
 20
85.00566404124858
 30
0.0
 10
192.107136996244
 20
84.94881996574196
 30
0.0
 10
192.0368570483449
 20
84.94881996574196
 30
0.0
 10
191.534906636144
 20
84.94881996574196
 30
0.0
 10
191.1266628211419
 20
84.54057615073987
 30
0.0
 10
191.1266628211419
 20
84.03897024808747
 30
0.0
 10
191.1266628211419
 20
83.98212617258087
 30
0.0
 10
191.0887667708042
 20
83.93217228804473
 30
0.0
 10
191.0339897525887
 20
83.91666935836111
 30
0.0
 10
191.0226209374874
 20
83.91356877242438
 30
0.0
 10
191.0109076128375
 20
83.91184622468177
 30
0.0
 10
190.9995387977362
 20
83.91184622468177
 30
0.0
  0
LWPOLYLINE
  5
9A
330
70
100
AcDbEntity
  8
Livello 1
370
    25
100
AcDbPolyline
 90
        3
 70
     0
 43
0.0
 10
190.9573044790094
 20
84.01770754938945
 10
190.9573044790094
 20
78.76837249482071
 10
193.0739711451469
 20
78.76837249482071
  0
LWPOLYLINE
  5
9B
330
70
100
AcDbEntity
  8
Livello 1
370
    25
100
AcDbPolyline
 90
        5
 70
     0
 43
0.0
 10
191.0843046942961
 20
166.1867068828918
 10
192.9469709298602
 20
166.1867068828918
 10
192.9469709298602
 20
166.4407073134652
 10
191.0843046942961
 20
166.4407073134652
 10
191.0843046942961
 20
166.1867068828918
  0
LWPOLYLINE
  5
9C
330
70
100
AcDbEntity
  8
Livello 1
370
    25
100
AcDbPolyline
 90
        5
 70
     0
 43
0.0
 10
191.7616373815047
 20
165.5093688127215
 10
192.2696382426516
 20
165.5093688127215
 10
192.2696382426516
 20
166.1867068828918
 10
191.7616373815047
 20
166.1867068828918
 10
191.7616373815047
 20
165.5093688127215
  0
LINE
  5
E5
330
70
100
AcDbEntity
  8
0
100
AcDbLine
 10
31.38311078028764
 20
57.7368933619057
 30
0.0
 11
176.7981123588224
 21
57.7368933619057
 31
0.0
  0
LINE
  5
E6
330
70
100
AcDbEntity
  8
0
100
AcDbLine
 10
188.7361110639271
 20
57.7368933619057
 30
0.0
 11
195.3401007269896
 21
57.73689336190571
 31
0.0
  0
LINE
  5
E7
330
70
100
AcDbEntity
  8
0
100
AcDbLine
 10
215.9288051798041
 20
171.859368811134
 30
0.0
 11
215.928805179804
 21
68.05788822591901
 31
0.0
  0
MTEXT
  5
E9
330
70
100
AcDbEntity
  8
0
100
AcDbMText
 10
97.51739220743537
 20
54.89714330942013
 30
0.0
 40
4.0
 41
1921.52076940311
 46
0.0
 71
     1
 72
     5
  1
1.100
 73
     1
 44
1.0
1001
ACAD
1000
ACAD_MTEXT_COLUMN_INFO_BEGIN
1070
    75
1070
     2
1070
    79
1070
     0
1070
    76
1070
     1
1070
    78
1070
     0
1070
    48
1040
1921.52076940311
1070
    49
1040
20.0
1070
    50
1070
     1
1040
0.0
1000
ACAD_MTEXT_COLUMN_INFO_END
  0
MTEXT
  5
EA
330
70
100
AcDbEntity
  8
0
100
AcDbMText
 10
187.6732685623862
 20
55.88531746848298
 30
0.0
 40
4.0
 41
1921.52076940311
 46
0.0
 71
     1
 72
     5
  1
80
 73
     1
 44
1.0
1001
ACAD
1000
ACAD_MTEXT_COLUMN_INFO_BEGIN
1070
    75
1070
     2
1070
    79
1070
     0
1070
    76
1070
     1
1070
    78
1070
     0
1070
    48
1040
1921.52076940311
1070
    49
1040
20.0
1070
    50
1070
     1
1040
0.0
1000
ACAD_MTEXT_COLUMN_INFO_END
  0
MTEXT
  5
F1
330
70
100
AcDbEntity
  8
0
100
AcDbMText
 10
222.8437624657853
 20
121.6140429472867
 30
0.0
 40
4.0
 41
1921.52076940311
 46
0.0
 71
     1
 72
     5
  1
2.170
 73
     1
 44
1.0
1001
ACAD
1000
ACAD_MTEXT_COLUMN_INFO_BEGIN
1070
    75
1070
     2
1070
    79
1070
     0
1070
    76
1070
     1
1070
    78
1070
     0
1070
    48
1040
1921.52076940311
1070
    49
1040
20.0
1070
    50
1070
     1
1040
0.0
1000
ACAD_MTEXT_COLUMN_INFO_END
  0
ENDSEC
  0
SECTION
  2
OBJECTS
  0
DICTIONARY
  5
C
330
0
100
AcDbDictionary
281
     1
  3
ACAD_CIP_PREVIOUS_PRODUCT_INFO
350
DD
  3
ACAD_COLOR
350
63
  3
ACAD_DETAILVIEWSTYLE
350
6A
  3
ACAD_GROUP
350
D
  3
ACAD_LAYOUT
350
62
  3
ACAD_MATERIAL
350
10
  3
ACAD_MLEADERSTYLE
350
66
  3
ACAD_MLINESTYLE
350
5F
  3
ACAD_PLOTSETTINGS
350
61
  3
ACAD_PLOTSTYLENAME
350
E
  3
ACAD_SCALELIST
350
42
  3
ACAD_SECTIONVIEWSTYLE
350
68
  3
ACAD_TABLESTYLE
350
64
  3
ACAD_VISUALSTYLE
350
29
  3
ACDB_RECOMPOSE_DATA
350
F4
  3
AcDbVariableDictionary
350
D3
  0
XRECORD
  5
DD
102
{ACAD_REACTORS
330
C
102
}
330
C
100
AcDbXrecord
280
     1
300
ACD
300
2022
300

  0
DICTIONARY
  5
63
102
{ACAD_REACTORS
330
C
102
}
330
C
100
AcDbDictionary
281
     1
  0
DICTIONARY
  5
6A
102
{ACAD_REACTORS
330
C
102
}
330
C
100
AcDbDictionary
281
     1
  3
Imperial24
350
6B
  0
DICTIONARY
  5
D
102
{ACAD_REACTORS
330
C
102
}
330
C
100
AcDbDictionary
281
     1
  0
DICTIONARY
  5
62
102
{ACAD_REACTORS
330
C
102
}
330
C
100
AcDbDictionary
281
     1
  3
Layout1
350
6F
  3
Layout2
350
77
  3
Model
350
73
  0
DICTIONARY
  5
10
102
{ACAD_REACTORS
330
C
102
}
330
C
100
AcDbDictionary
281
     1
  3
ByBlock
350
19
  3
ByLayer
350
11
  3
Global
350
21
  0
DICTIONARY
  5
66
102
{ACAD_REACTORS
330
C
102
}
330
C
100
AcDbDictionary
281
     1
  3
Standard
350
67
  0
DICTIONARY
  5
5F
102
{ACAD_REACTORS
330
C
102
}
330
C
100
AcDbDictionary
281
     1
  3
Standard
350
60
  0
DICTIONARY
  5
61
102
{ACAD_REACTORS
330
C
102
}
330
C
100
AcDbDictionary
281
     1
  0
ACDBDICTIONARYWDFLT
  5
E
102
{ACAD_REACTORS
330
C
102
}
330
C
100
AcDbDictionary
281
     1
  3
Normal
350
F
100
AcDbDictionaryWithDefault
340
F
  0
DICTIONARY
  5
42
102
{ACAD_REACTORS
330
C
102
}
330
C
100
AcDbDictionary
281
     1
  3
A0
350
43
  3
A1
350
44
  3
A2
350
45
  3
A3
350
46
  3
A4
350
47
  3
A5
350
48
  3
A6
350
49
  3
A7
350
4A
  3
A8
350
4B
  3
A9
350
4C
  3
B0
350
4D
  3
B1
350
4E
  3
B2
350
4F
  3
B3
350
50
  3
B4
350
51
  3
B5
350
52
  3
B6
350
53
  0
DICTIONARY
  5
68
102
{ACAD_REACTORS
330
C
102
}
330
C
100
AcDbDictionary
281
     1
  3
Imperial24
350
69
  0
DICTIONARY
  5
64
102
{ACAD_REACTORS
330
C
102
}
330
C
100
AcDbDictionary
281
     1
  3
Standard
350
65
  0
DICTIONARY
  5
29
102
{ACAD_REACTORS
330
C
102
}
330
C
100
AcDbDictionary
281
     1
  3
2dWireframe
350
2F
  3
Basic
350
2E
  3
Brighten
350
35
  3
ColorChange
350
39
  3
Conceptual
350
32
  3
Dim
350
34
  3
EdgeColorOff
350
41
  3
Facepattern
350
38
  3
Flat
350
2A
  3
FlatWithEdges
350
2B
  3
Gouraud
350
2C
  3
GouraudWithEdges
350
2D
  3
Hidden
350
31
  3
JitterOff
350
3F
  3
Linepattern
350
37
  3
OverhangOff
350
40
  3
Realistic
350
33
  3
Shaded
350
3E
  3
Shaded with edges
350
3D
  3
Shades of Gray
350
3A
  3
Sketchy
350
3B
  3
Thicken
350
36
  3
Wireframe
350
30
  3
X-Ray
350
3C
  0
XRECORD
  5
F4
102
{ACAD_REACTORS
330
C
102
}
330
C
100
AcDbXrecord
280
     1
 90
        1
330
65
330
E9
330
EA
330
F1
  0
DICTIONARY
  5
D3
102
{ACAD_REACTORS
330
C
102
}
330
C
100
AcDbDictionary
281
     1
  3
CANNOSCALE
350
D8
  3
CMLEADERSTYLE
350
D5
  3
CTABLESTYLE
350
D4
  3
CVIEWDETAILSTYLE
350
D6
  3
CVIEWSECTIONSTYLE
350
D7
  0
ACDBDETAILVIEWSTYLE
  5
6B
102
{ACAD_XDICTIONARY
360
F7
102
}
102
{ACAD_REACTORS
330
6A
102
}
330
6A
100
AcDbModelDocViewStyle
 70
     0
  3
Imperial24
290
     0
100
AcDbDetailViewStyle
 70
     0
 71
     0
 90
        3
 71
     1
340
55
 62
   256
 40
0.24
340
0
 62
   256
 40
0.24
300

 40
0.36
280
     3
 71
     2
340
5D
 90
       25
 62
   256
 71
     3
340
55
 62
   256
 40
0.24
 90
        1
 40
0.75
 90
        1
300
%<\AcVar ViewType \f "%tc1">% %<\AcVar ViewDetailId>%\PSCALE %<\AcVar ViewScale \f "%sn">%
 71
     4
340
5D
 90
       25
 62
   256
340
5D
 90
       25
 62
   256
280
     0
  0
LAYOUT
  5
6F
102
{ACAD_REACTORS
330
62
102
}
330
62
100
AcDbPlotSettings
  1

  2

  4

  6

 40
0.0
 41
0.0
 42
0.0
 43
0.0
 44
0.0
 45
0.0
 46
0.0
 47
0.0
 48
0.0
 49
0.0
140
0.0
141
0.0
142
1.0
143
1.0
 70
   688
 72
     0
 73
     0
 74
     5
  7

 75
    16
147
1.0
 76
     0
 77
     2
 78
   300
148
0.0
149
0.0
100
AcDbLayout
  1
Layout1
 70
     1
 71
     1
 10
0.0
 20
0.0
 11
12.0
 21
9.0
 12
0.0
 22
0.0
 32
0.0
 14
1.000000000000000E+20
 24
1.000000000000000E+20
 34
1.000000000000000E+20
 15
-1.000000000000000E+20
 25
-1.000000000000000E+20
 35
-1.000000000000000E+20
146
0.0
 13
0.0
 23
0.0
 33
0.0
 16
1.0
 26
0.0
 36
0.0
 17
0.0
 27
1.0
 37
0.0
 76
     0
330
6C
  0
LAYOUT
  5
77
102
{ACAD_REACTORS
330
62
102
}
330
62
100
AcDbPlotSettings
  1

  2

  4

  6

 40
0.0
 41
0.0
 42
0.0
 43
0.0
 44
0.0
 45
0.0
 46
0.0
 47
0.0
 48
0.0
 49
0.0
140
0.0
141
0.0
142
1.0
143
1.0
 70
   688
 72
     0
 73
     0
 74
     5
  7

 75
    16
147
1.0
 76
     0
 77
     2
 78
   300
148
0.0
149
0.0
100
AcDbLayout
  1
Layout2
 70
     1
 71
     2
 10
0.0
 20
0.0
 11
12.0
 21
9.0
 12
0.0
 22
0.0
 32
0.0
 14
0.0
 24
0.0
 34
0.0
 15
0.0
 25
0.0
 35
0.0
146
0.0
 13
0.0
 23
0.0
 33
0.0
 16
1.0
 26
0.0
 36
0.0
 17
0.0
 27
1.0
 37
0.0
 76
     0
330
74
  0
LAYOUT
  5
73
102
{ACAD_REACTORS
330
62
102
}
330
62
100
AcDbPlotSettings
  1

  2

  4

  6

 40
0.0
 41
0.0
 42
0.0
 43
0.0
 44
0.0
 45
0.0
 46
0.0
 47
0.0
 48
0.0
 49
0.0
140
0.0
141
0.0
142
1.0
143
1.0
 70
  1712
 72
     0
 73
     0
 74
     0
  7

 75
     0
147
1.0
 76
     0
 77
     2
 78
   300
148
0.0
149
0.0
100
AcDbLayout
  1
Model
 70
     1
 71
     0
 10
0.0
 20
0.0
 11
12.0
 21
9.0
 12
0.0
 22
0.0
 32
0.0
 14
0.0
 24
0.0
 34
0.0
 15
0.0
 25
0.0
 35
0.0
146
0.0
 13
0.0
 23
0.0
 33
0.0
 16
1.0
 26
0.0
 36
0.0
 17
0.0
 27
1.0
 37
0.0
 76
     0
330
70
331
57
  0
MATERIAL
  5
19
102
{ACAD_XDICTIONARY
360
1A
102
}
102
{ACAD_REACTORS
330
10
102
}
330
10
100
AcDbMaterial
  1
ByBlock
 72
     0
 43
0.0208333333333333
 43
0.0
 43
0.0
 43
0.0
 43
0.0
 43
0.0208333333333333
 43
0.0
 43
0.0
 43
0.0
 43
0.0
 43
1.0
 43
0.0
 43
0.0
 43
0.0
 43
0.0
 43
1.0
 77
     0
 47
0.0208333333333333
 47
0.0
 47
0.0
 47
0.0
 47
0.0
 47
0.0208333333333333
 47
0.0
 47
0.0
 47
0.0
 47
0.0
 47
1.0
 47
0.0
 47
0.0
 47
0.0
 47
0.0
 47
1.0
171
     0
 49
0.0208333333333333
 49
0.0
 49
0.0
 49
0.0
 49
0.0
 49
0.0208333333333333
 49
0.0
 49
0.0
 49
0.0
 49
0.0
 49
1.0
 49
0.0
 49
0.0
 49
0.0
 49
0.0
 49
1.0
175
     0
142
0.0208333333333333
142
0.0
142
0.0
142
0.0
142
0.0
142
0.0208333333333333
142
0.0
142
0.0
142
0.0
142
0.0
142
1.0
142
0.0
142
0.0
142
0.0
142
0.0
142
1.0
179
     0
144
0.0208333333333333
144
0.0
144
0.0
144
0.0
144
0.0
144
0.0208333333333333
144
0.0
144
0.0
144
0.0
144
0.0
144
1.0
144
0.0
144
0.0
144
0.0
144
0.0
144
1.0
147
0.0208333333333333
147
0.0
147
0.0
147
0.0
147
0.0
147
0.0208333333333333
147
0.0
147
0.0
147
0.0
147
0.0
147
1.0
147
0.0
147
0.0
147
0.0
147
0.0
147
1.0
  0
MATERIAL
  5
11
102
{ACAD_XDICTIONARY
360
12
102
}
102
{ACAD_REACTORS
330
10
102
}
330
10
100
AcDbMaterial
  1
ByLayer
 72
     0
 43
0.0208333333333333
 43
0.0
 43
0.0
 43
0.0
 43
0.0
 43
0.0208333333333333
 43
0.0
 43
0.0
 43
0.0
 43
0.0
 43
1.0
 43
0.0
 43
0.0
 43
0.0
 43
0.0
 43
1.0
 77
     0
 47
0.0208333333333333
 47
0.0
 47
0.0
 47
0.0
 47
0.0
 47
0.0208333333333333
 47
0.0
 47
0.0
 47
0.0
 47
0.0
 47
1.0
 47
0.0
 47
0.0
 47
0.0
 47
0.0
 47
1.0
171
     0
 49
0.0208333333333333
 49
0.0
 49
0.0
 49
0.0
 49
0.0
 49
0.0208333333333333
 49
0.0
 49
0.0
 49
0.0
 49
0.0
 49
1.0
 49
0.0
 49
0.0
 49
0.0
 49
0.0
 49
1.0
175
     0
142
0.0208333333333333
142
0.0
142
0.0
142
0.0
142
0.0
142
0.0208333333333333
142
0.0
142
0.0
142
0.0
142
0.0
142
1.0
142
0.0
142
0.0
142
0.0
142
0.0
142
1.0
179
     0
144
0.0208333333333333
144
0.0
144
0.0
144
0.0
144
0.0
144
0.0208333333333333
144
0.0
144
0.0
144
0.0
144
0.0
144
1.0
144
0.0
144
0.0
144
0.0
144
0.0
144
1.0
147
0.0208333333333333
147
0.0
147
0.0
147
0.0
147
0.0
147
0.0208333333333333
147
0.0
147
0.0
147
0.0
147
0.0
147
1.0
147
0.0
147
0.0
147
0.0
147
0.0
147
1.0
  0
MATERIAL
  5
21
102
{ACAD_XDICTIONARY
360
22
102
}
102
{ACAD_REACTORS
330
10
102
}
330
10
100
AcDbMaterial
  1
Global
 72
     0
 43
0.0208333333333333
 43
0.0
 43
0.0
 43
0.0
 43
0.0
 43
0.0208333333333333
 43
0.0
 43
0.0
 43
0.0
 43
0.0
 43
1.0
 43
0.0
 43
0.0
 43
0.0
 43
0.0
 43
1.0
 77
     0
 47
0.0208333333333333
 47
0.0
 47
0.0
 47
0.0
 47
0.0
 47
0.0208333333333333
 47
0.0
 47
0.0
 47
0.0
 47
0.0
 47
1.0
 47
0.0
 47
0.0
 47
0.0
 47
0.0
 47
1.0
171
     0
 49
0.0208333333333333
 49
0.0
 49
0.0
 49
0.0
 49
0.0
 49
0.0208333333333333
 49
0.0
 49
0.0
 49
0.0
 49
0.0
 49
1.0
 49
0.0
 49
0.0
 49
0.0
 49
0.0
 49
1.0
175
     0
142
0.0208333333333333
142
0.0
142
0.0
142
0.0
142
0.0
142
0.0208333333333333
142
0.0
142
0.0
142
0.0
142
0.0
142
1.0
142
0.0
142
0.0
142
0.0
142
0.0
142
1.0
179
     0
144
0.0208333333333333
144
0.0
144
0.0
144
0.0
144
0.0
144
0.0208333333333333
144
0.0
144
0.0
144
0.0
144
0.0
144
1.0
144
0.0
144
0.0
144
0.0
144
0.0
144
1.0
147
0.0208333333333333
147
0.0
147
0.0
147
0.0
147
0.0
147
0.0208333333333333
147
0.0
147
0.0
147
0.0
147
0.0
147
1.0
147
0.0
147
0.0
147
0.0
147
0.0
147
1.0
  0
MLEADERSTYLE
  5
67
102
{ACAD_REACTORS
330
66
102
}
330
66
100
AcDbMLeaderStyle
179
     2
170
     2
171
     1
172
     0
 90
        2
 40
0.0
 41
0.0
173
     1
 91
-1056964608
340
5B
 92
       -2
290
     1
 42
0.09
291
     1
 43
0.36
  3
Standard
 44
0.18
300

342
55
174
     1
178
     6
175
     1
176
     0
 93
-1056964608
 45
0.18
292
     0
297
     0
 46
0.18
 94
-1056964608
 47
1.0
 49
1.0
140
1.0
293
     1
141
0.0
294
     1
177
     0
142
1.0
295
     0
296
     0
143
0.125
271
     0
272
     9
273
     9
298
     1
  0
MLINESTYLE
  5
60
102
{ACAD_REACTORS
330
5F
102
}
330
5F
100
AcDbMlineStyle
  2
STANDARD
 70
     0
  3

 62
   256
 51
90.0
 52
90.0
 71
     2
 49
0.5
 62
   256
  6
BYLAYER
 49
-0.5
 62
   256
  6
BYLAYER
  0
ACDBPLACEHOLDER
  5
F
102
{ACAD_REACTORS
330
E
102
}
330
E
  0
SCALE
  5
43
102
{ACAD_REACTORS
330
42
102
}
330
42
100
AcDbScale
 70
     0
300
1:1
140
1.0
141
1.0
290
     1
  0
SCALE
  5
44
102
{ACAD_REACTORS
330
42
102
}
330
42
100
AcDbScale
 70
     0
300
1/128" = 1'-0"
140
0.0078125
141
12.0
290
     0
  0
SCALE
  5
45
102
{ACAD_REACTORS
330
42
102
}
330
42
100
AcDbScale
 70
     0
300
1/64" = 1'-0"
140
0.015625
141
12.0
290
     0
  0
SCALE
  5
46
102
{ACAD_REACTORS
330
42
102
}
330
42
100
AcDbScale
 70
     0
300
1/32" = 1'-0"
140
0.03125
141
12.0
290
     0
  0
SCALE
  5
47
102
{ACAD_REACTORS
330
42
102
}
330
42
100
AcDbScale
 70
     0
300
1/16" = 1'-0"
140
0.0625
141
12.0
290
     0
  0
SCALE
  5
48
102
{ACAD_REACTORS
330
42
102
}
330
42
100
AcDbScale
 70
     0
300
3/32" = 1'-0"
140
0.09375
141
12.0
290
     0
  0
SCALE
  5
49
102
{ACAD_REACTORS
330
42
102
}
330
42
100
AcDbScale
 70
     0
300
1/8" = 1'-0"
140
0.125
141
12.0
290
     0
  0
SCALE
  5
4A
102
{ACAD_REACTORS
330
42
102
}
330
42
100
AcDbScale
 70
     0
300
3/16" = 1'-0"
140
0.1875
141
12.0
290
     0
  0
SCALE
  5
4B
102
{ACAD_REACTORS
330
42
102
}
330
42
100
AcDbScale
 70
     0
300
1/4" = 1'-0"
140
0.25
141
12.0
290
     0
  0
SCALE
  5
4C
102
{ACAD_REACTORS
330
42
102
}
330
42
100
AcDbScale
 70
     0
300
3/8" = 1'-0"
140
0.375
141
12.0
290
     0
  0
SCALE
  5
4D
102
{ACAD_REACTORS
330
42
102
}
330
42
100
AcDbScale
 70
     0
300
1/2" = 1'-0"
140
0.5
141
12.0
290
     0
  0
SCALE
  5
4E
102
{ACAD_REACTORS
330
42
102
}
330
42
100
AcDbScale
 70
     0
300
3/4" = 1'-0"
140
0.75
141
12.0
290
     0
  0
SCALE
  5
4F
102
{ACAD_REACTORS
330
42
102
}
330
42
100
AcDbScale
 70
     0
300
1" = 1'-0"
140
1.0
141
12.0
290
     0
  0
SCALE
  5
50
102
{ACAD_REACTORS
330
42
102
}
330
42
100
AcDbScale
 70
     0
300
1-1/2" = 1'-0"
140
1.5
141
12.0
290
     0
  0
SCALE
  5
51
102
{ACAD_REACTORS
330
42
102
}
330
42
100
AcDbScale
 70
     0
300
3" = 1'-0"
140
3.0
141
12.0
290
     0
  0
SCALE
  5
52
102
{ACAD_REACTORS
330
42
102
}
330
42
100
AcDbScale
 70
     0
300
6" = 1'-0"
140
6.0
141
12.0
290
     0
  0
SCALE
  5
53
102
{ACAD_REACTORS
330
42
102
}
330
42
100
AcDbScale
 70
     0
300
1'-0" = 1'-0"
140
12.0
141
12.0
290
     0
  0
ACDBSECTIONVIEWSTYLE
  5
69
102
{ACAD_XDICTIONARY
360
F5
102
}
102
{ACAD_REACTORS
330
68
102
}
330
68
100
AcDbModelDocViewStyle
 70
     0
  3
Imperial24
290
     0
100
AcDbSectionViewStyle
 70
     0
 71
     0
 90
       78
 71
     1
340
55
 62
   256
 40
0.24
340
0
340
0
 62
   256
 40
0.24
300
I, O, Q, S, X, Z
 40
0.48
 90
        3
 40
0.18
 90
        1
 71
     2
340
5D
 90
       25
 62
   256
340
5D
 90
       50
 62
   256
 40
0.24
 40
0.0
 40
0.24
 71
     3
340
55
 62
   256
 40
0.24
 90
        1
 40
0.75
 90
        1
300
%<\AcVar ViewType \f "%tc1">% %<\AcVar ViewSectionStartId>%-%<\AcVar ViewSectionEndId>%\PSCALE %<\AcVar ViewScale \f "%sn">%
 71
     4
 62
   256
 62
   257
300
ANSI31
 40
1.0
 90
        0
290
     0
290
     0
 90
        6
 40
0.0
 40
1.570796326794896
 40
0.2617993877991494
 40
1.308996938995747
 40
-0.2617993877991494
 40
1.832595714594046
  0
TABLESTYLE
  5
65
102
{ACAD_XDICTIONARY
360
F2
102
}
102
{ACAD_REACTORS
330
64
102
}
330
64
100
AcDbTableStyle
280
     0
  3
Standard
 70
     0
 71
     0
 40
0.06
 41
0.06
280
     0
281
     0
  7
Standard
140
0.18
170
     2
 62
     0
 63
     7
283
     0
 90
      512
 91
        0
  1

274
    -2
284
     1
 64
     0
275
    -2
285
     1
 65
     0
276
    -2
286
     1
 66
     0
277
    -2
287
     1
 67
     0
278
    -2
288
     1
 68
     0
279
    -2
289
     1
 69
     0
  7
Standard
140
0.25
170
     5
 62
     0
 63
     7
283
     0
 90
      512
 91
        0
  1

274
    -2
284
     1
 64
     0
275
    -2
285
     1
 65
     0
276
    -2
286
     1
 66
     0
277
    -2
287
     1
 67
     0
278
    -2
288
     1
 68
     0
279
    -2
289
     1
 69
     0
  7
Standard
140
0.18
170
     5
 62
     0
 63
     7
283
     0
 90
      512
 91
        0
  1

274
    -2
284
     1
 64
     0
275
    -2
285
     1
 65
     0
276
    -2
286
     1
 66
     0
277
    -2
287
     1
 67
     0
278
    -2
288
     1
 68
     0
279
    -2
289
     1
 69
     0
  0
VISUALSTYLE
  5
2F
102
{ACAD_REACTORS
330
29
102
}
330
29
100
AcDbVisualStyle
  2
2dWireframe
 70
     4
177
     3
291
     0
 70
    58
 90
        0
176
     1
 90
        2
176
     1
 90
        0
176
     1
 90
        0
176
     1
 40
0.6
176
     1
 40
30.0
176
     1
 62
     7
420
 16777215
176
     1
 90
        1
176
     1
 90
        4
176
     1
 62
     7
176
     1
 62
   257
176
     1
 90
        1
176
     1
 90
        1
176
     1
 40
1.0
176
     1
 90
        0
176
     1
 62
   257
176
     1
 40
1.0
176
     1
 90
        1
176
     1
 90
        6
176
     1
 90
        2
176
     1
 62
     7
176
     1
 90
        5
176
     1
 90
        0
176
     1
 90
        0
176
     1
290
     0
176
     1
 90
        1
176
     1
 40
0.0
176
     1
 90
        0
176
     1
290
     1
176
     1
290
     1
176
     1
290
     0
176
     1
290
     0
176
     1
290
     0
176
     1
290
     0
176
     1
290
     0
176
     1
290
     0
176
     1
290
     0
176
     1
 90
       50
176
     1
 40
0.0
176
     1
 40
1.0
176
     1
 90
        0
176
     1
 62
    18
420
        0
176
     1
 90
       50
176
     1
 90
        3
176
     1
 62
     5
420
      255
176
     1
290
     0
176
     1
 90
       50
176
     1
 90
       50
176
     1
 90
       50
176
     1
290
     0
176
     1
 90
       50
176
     1
 62
   256
176
     0
 40
1.0
176
     0
 90
        2
176
     1
  1
strokes_ogs.tif
176
     1
290
     0
176
     1
 40
1.0
176
     1
 40
1.0
176
     1
1001
ACAD
1000
AcDbSavedByObjectVersion
1070
     0
  0
VISUALSTYLE
  5
2E
102
{ACAD_REACTORS
330
29
102
}
330
29
100
AcDbVisualStyle
  2
Basic
 70
     7
177
     3
291
     1
 70
    58
 90
        1
176
     1
 90
        0
176
     1
 90
        1
176
     1
 90
        0
176
     1
 40
0.6
176
     1
 40
30.0
176
     1
 62
     7
420
 16777215
176
     1
 90
        0
176
     1
 90
        4
176
     1
 62
     7
176
     1
 62
   257
176
     1
 90
        1
176
     1
 90
        1
176
     1
 40
1.0
176
     1
 90
        8
176
     1
 62
     7
176
     1
 40
1.0
176
     1
 90
        1
176
     1
 90
        6
176
     1
 90
        2
176
     1
 62
     7
176
     1
 90
        5
176
     1
 90
        0
176
     1
 90
        0
176
     1
290
     0
176
     1
 90
        1
176
     1
 40
0.0
176
     1
 90
        0
176
     1
290
     0
176
     1
290
     1
176
     1
290
     1
176
     1
290
     0
176
     1
290
     0
176
     1
290
     0
176
     1
290
     0
176
     1
290
     0
176
     1
290
     0
176
     1
 90
       50
176
     1
 40
0.0
176
     1
 40
1.0
176
     1
 90
        0
176
     1
 62
    18
420
        0
176
     1
 90
       50
176
     1
 90
        3
176
     1
 62
     5
420
      255
176
     1
290
     0
176
     1
 90
       50
176
     1
 90
       50
176
     1
 90
       50
176
     1
290
     0
176
     1
 90
       50
176
     1
 62
   256
176
     0
 40
1.0
176
     0
 90
        2
176
     1
  1
strokes_ogs.tif
176
     1
290
     0
176
     1
 40
1.0
176
     1
 40
1.0
176
     1
1001
ACAD
1000
AcDbSavedByObjectVersion
1070
     0
  0
VISUALSTYLE
  5
35
102
{ACAD_REACTORS
330
29
102
}
330
29
100
AcDbVisualStyle
  2
Brighten
 70
    12
177
     3
291
     1
 70
    58
 90
        2
176
     1
 90
        2
176
     1
 90
        0
176
     1
 90
        0
176
     1
 40
0.6
176
     1
 40
30.0
176
     1
 62
     7
420
 16777215
176
     1
 90
        1
176
     1
 90
        4
176
     1
 62
     7
176
     1
 62
   257
176
     1
 90
        1
176
     1
 90
        1
176
     1
 40
1.0
176
     1
 90
        8
176
     1
 62
     7
176
     1
 40
1.0
176
     1
 90
        1
176
     1
 90
        6
176
     1
 90
        2
176
     1
 62
     7
176
     1
 90
        5
176
     1
 90
        0
176
     1
 90
        0
176
     1
290
     0
176
     1
 90
        1
176
     1
 40
50.0
176
     1
 90
        0
176
     1
290
     0
176
     1
290
     1
176
     1
290
     1
176
     1
290
     0
176
     1
290
     0
176
     1
290
     0
176
     1
290
     0
176
     1
290
     0
176
     1
290
     0
176
     1
 90
       50
176
     1
 40
0.0
176
     1
 40
1.0
176
     1
 90
        0
176
     1
 62
    18
420
        0
176
     1
 90
       50
176
     1
 90
        3
176
     1
 62
     5
420
      255
176
     1
290
     0
176
     1
 90
       50
176
     1
 90
       50
176
     1
 90
       50
176
     1
290
     0
176
     1
 90
       50
176
     1
 62
   256
176
     0
 40
1.0
176
     0
 90
        2
176
     1
  1
strokes_ogs.tif
176
     1
290
     0
176
     1
 40
1.0
176
     1
 40
1.0
176
     1
1001
ACAD
1000
AcDbSavedByObjectVersion
1070
     0
  0
VISUALSTYLE
  5
39
102
{ACAD_REACTORS
330
29
102
}
330
29
100
AcDbVisualStyle
  2
ColorChange
 70
    16
177
     3
291
     1
 70
    58
 90
        2
176
     1
 90
        2
176
     1
 90
        3
176
     1
 90
        0
176
     1
 40
0.6
176
     1
 40
30.0
176
     1
 62
     8
420
  8421504
176
     1
 90
        1
176
     1
 90
        4
176
     1
 62
     7
176
     1
 62
   257
176
     1
 90
        1
176
     1
 90
        1
176
     1
 40
1.0
176
     1
 90
        8
176
     1
 62
     8
420
  8421504
176
     1
 40
1.0
176
     1
 90
        1
176
     1
 90
        6
176
     1
 90
        2
176
     1
 62
     7
176
     1
 90
        5
176
     1
 90
        0
176
     1
 90
        0
176
     1
290
     0
176
     1
 90
        1
176
     1
 40
0.0
176
     1
 90
        0
176
     1
290
     0
176
     1
290
     1
176
     1
290
     1
176
     1
290
     0
176
     1
290
     0
176
     1
290
     0
176
     1
290
     0
176
     1
290
     0
176
     1
290
     0
176
     1
 90
       50
176
     1
 40
0.0
176
     1
 40
1.0
176
     1
 90
        0
176
     1
 62
    18
420
        0
176
     1
 90
       50
176
     1
 90
        3
176
     1
 62
     5
420
      255
176
     1
290
     0
176
     1
 90
       50
176
     1
 90
       50
176
     1
 90
       50
176
     1
290
     0
176
     1
 90
       50
176
     1
 62
   256
176
     0
 40
1.0
176
     0
 90
        2
176
     1
  1
strokes_ogs.tif
176
     1
290
     0
176
     1
 40
1.0
176
     1
 40
1.0
176
     1
1001
ACAD
1000
AcDbSavedByObjectVersion
1070
     0
  0
VISUALSTYLE
  5
32
102
{ACAD_REACTORS
330
29
102
}
330
29
100
AcDbVisualStyle
  2
Conceptual
 70
     9
177
     3
291
     0
 70
    58
 90
        3
176
     1
 90
        2
176
     1
 90
        0
176
     1
 90
        0
176
     1
 40
0.6
176
     1
 40
30.0
176
     1
 62
     7
420
 16777215
176
     1
 90
        2
176
     1
 90
        2
176
     1
 62
     7
176
     1
 62
   257
176
     1
 90
        1
176
     1
 90
        1
176
     1
 40
179.0
176
     1
 90
        8
176
     1
 62
     7
176
     1
 40
1.0
176
     1
 90
        1
176
     1
 90
        6
176
     1
 90
        2
176
     1
 62
     7
176
     1
 90
        3
176
     1
 90
        0
176
     1
 90
        0
176
     1
290
     0
176
     1
 90
        1
176
     1
 40
0.0
176
     1
 90
        0
176
     1
290
     0
176
     1
290
     1
176
     1
290
     1
176
     1
290
     0
176
     1
290
     0
176
     1
290
     0
176
     1
290
     0
176
     1
290
     0
176
     1
290
     0
176
     1
 90
       50
176
     1
 40
0.0
176
     1
 40
1.0
176
     1
 90
        0
176
     1
 62
    18
420
        0
176
     1
 90
       50
176
     1
 90
        3
176
     1
 62
     5
420
      255
176
     1
290
     0
176
     1
 90
       50
176
     1
 90
       50
176
     1
 90
       50
176
     1
290
     0
176
     1
 90
       50
176
     1
 62
   256
176
     0
 40
1.0
176
     0
 90
        2
176
     1
  1
strokes_ogs.tif
176
     1
290
     0
176
     1
 40
1.0
176
     1
 40
1.0
176
     1
1001
ACAD
1000
AcDbSavedByObjectVersion
1070
     0
  0
VISUALSTYLE
  5
34
102
{ACAD_REACTORS
330
29
102
}
330
29
100
AcDbVisualStyle
  2
Dim
 70
    11
177
     3
291
     1
 70
    58
 90
        2
176
     1
 90
        2
176
     1
 90
        0
176
     1
 90
        0
176
     1
 40
0.6
176
     1
 40
30.0
176
     1
 62
     7
420
 16777215
176
     1
 90
        1
176
     1
 90
        4
176
     1
 62
     7
176
     1
 62
   257
176
     1
 90
        1
176
     1
 90
        1
176
     1
 40
1.0
176
     1
 90
        8
176
     1
 62
     7
176
     1
 40
1.0
176
     1
 90
        1
176
     1
 90
        6
176
     1
 90
        2
176
     1
 62
     7
176
     1
 90
        5
176
     1
 90
        0
176
     1
 90
        0
176
     1
290
     0
176
     1
 90
        1
176
     1
 40
-50.0
176
     1
 90
        0
176
     1
290
     0
176
     1
290
     1
176
     1
290
     1
176
     1
290
     0
176
     1
290
     0
176
     1
290
     0
176
     1
290
     0
176
     1
290
     0
176
     1
290
     0
176
     1
 90
       50
176
     1
 40
0.0
176
     1
 40
1.0
176
     1
 90
        0
176
     1
 62
    18
420
        0
176
     1
 90
       50
176
     1
 90
        3
176
     1
 62
     5
420
      255
176
     1
290
     0
176
     1
 90
       50
176
     1
 90
       50
176
     1
 90
       50
176
     1
290
     0
176
     1
 90
       50
176
     1
 62
   256
176
     0
 40
1.0
176
     0
 90
        2
176
     1
  1
strokes_ogs.tif
176
     1
290
     0
176
     1
 40
1.0
176
     1
 40
1.0
176
     1
1001
ACAD
1000
AcDbSavedByObjectVersion
1070
     0
  0
VISUALSTYLE
  5
41
102
{ACAD_REACTORS
330
29
102
}
330
29
100
AcDbVisualStyle
  2
EdgeColorOff
 70
    22
177
     3
291
     1
 70
    58
 90
        2
176
     0
 90
        2
176
     0
 90
        0
176
     0
 90
        0
176
     0
 40
0.6
176
     0
 40
30.0
176
     0
 62
     7
420
 16777215
176
     0
 90
        1
176
     0
 90
        4
176
     0
 62
     7
176
     0
 62
   257
176
     0
 90
        1
176
     0
 90
        1
176
     0
 40
1.0
176
     0
 90
        8
176
     2
 62
     7
176
     0
 40
1.0
176
     0
 90
        1
176
     0
 90
        6
176
     0
 90
        2
176
     0
 62
     7
176
     0
 90
        5
176
     0
 90
        0
176
     0
 90
        0
176
     0
290
     0
176
     0
 90
        1
176
     0
 40
0.0
176
     0
 90
        0
176
     0
290
     0
176
     0
290
     1
176
     0
290
     1
176
     0
290
     0
176
     0
290
     0
176
     0
290
     0
176
     0
290
     0
176
     0
290
     0
176
     0
290
     0
176
     0
 90
       50
176
     0
 40
0.0
176
     0
 40
1.0
176
     0
 90
        0
176
     0
 62
    18
420
        0
176
     0
 90
       50
176
     0
 90
        3
176
     0
 62
     5
420
      255
176
     0
290
     0
176
     0
 90
       50
176
     0
 90
       50
176
     0
 90
       50
176
     0
290
     0
176
     0
 90
       50
176
     0
 62
   256
176
     0
 40
1.0
176
     0
 90
        2
176
     0
  1
strokes_ogs.tif
176
     0
290
     0
176
     0
 40
1.0
176
     0
 40
1.0
176
     0
1001
ACAD
1000
AcDbSavedByObjectVersion
1070
     0
  0
VISUALSTYLE
  5
38
102
{ACAD_REACTORS
330
29
102
}
330
29
100
AcDbVisualStyle
  2
Facepattern
 70
    15
177
     3
291
     1
 70
    58
 90
        2
176
     1
 90
        2
176
     1
 90
        0
176
     1
 90
        0
176
     1
 40
0.6
176
     1
 40
30.0
176
     1
 62
     7
420
 16777215
176
     1
 90
        1
176
     1
 90
        4
176
     1
 62
     7
176
     1
 62
   257
176
     1
 90
        1
176
     1
 90
        1
176
     1
 40
1.0
176
     1
 90
        8
176
     1
 62
     7
176
     1
 40
1.0
176
     1
 90
        1
176
     1
 90
        6
176
     1
 90
        2
176
     1
 62
     7
176
     1
 90
        5
176
     1
 90
        0
176
     1
 90
        0
176
     1
290
     0
176
     1
 90
        1
176
     1
 40
0.0
176
     1
 90
        0
176
     1
290
     0
176
     1
290
     1
176
     1
290
     1
176
     1
290
     0
176
     1
290
     0
176
     1
290
     0
176
     1
290
     0
176
     1
290
     0
176
     1
290
     0
176
     1
 90
       50
176
     1
 40
0.0
176
     1
 40
1.0
176
     1
 90
        0
176
     1
 62
    18
420
        0
176
     1
 90
       50
176
     1
 90
        3
176
     1
 62
     5
420
      255
176
     1
290
     0
176
     1
 90
       50
176
     1
 90
       50
176
     1
 90
       50
176
     1
290
     0
176
     1
 90
       50
176
     1
 62
   256
176
     0
 40
1.0
176
     0
 90
        2
176
     1
  1
strokes_ogs.tif
176
     1
290
     0
176
     1
 40
1.0
176
     1
 40
1.0
176
     1
1001
ACAD
1000
AcDbSavedByObjectVersion
1070
     0
  0
VISUALSTYLE
  5
2A
102
{ACAD_REACTORS
330
29
102
}
330
29
100
AcDbVisualStyle
  2
Flat
 70
     0
177
     3
291
     1
 70
    58
 90
        2
176
     1
 90
        1
176
     1
 90
        1
176
     1
 90
        2
176
     1
 40
0.6
176
     1
 40
30.0
176
     1
 62
     7
420
 16777215
176
     1
 90
        0
176
     1
 90
        0
176
     1
 62
     7
176
     1
 62
   257
176
     1
 90
        1
176
     1
 90
        1
176
     1
 40
1.0
176
     1
 90
        8
176
     1
 62
     7
176
     1
 40
1.0
176
     1
 90
        1
176
     1
 90
        6
176
     1
 90
        2
176
     1
 62
     7
176
     1
 90
        5
176
     1
 90
        0
176
     1
 90
        0
176
     1
290
     0
176
     1
 90
       13
176
     1
 40
0.0
176
     1
 90
        0
176
     1
290
     0
176
     1
290
     1
176
     1
290
     1
176
     1
290
     0
176
     1
290
     0
176
     1
290
     0
176
     1
290
     0
176
     1
290
     0
176
     1
290
     0
176
     1
 90
       50
176
     1
 40
0.0
176
     1
 40
1.0
176
     1
 90
        0
176
     1
 62
    18
420
        0
176
     1
 90
       50
176
     1
 90
        3
176
     1
 62
     5
420
      255
176
     1
290
     0
176
     1
 90
       50
176
     1
 90
       50
176
     1
 90
       50
176
     1
290
     0
176
     1
 90
       50
176
     1
 62
   256
176
     0
 40
1.0
176
     0
 90
        2
176
     1
  1
strokes_ogs.tif
176
     1
290
     0
176
     1
 40
1.0
176
     1
 40
1.0
176
     1
1001
ACAD
1000
AcDbSavedByObjectVersion
1070
     0
  0
VISUALSTYLE
  5
2B
102
{ACAD_REACTORS
330
29
102
}
330
29
100
AcDbVisualStyle
  2
FlatWithEdges
 70
     1
177
     3
291
     1
 70
    58
 90
        2
176
     1
 90
        1
176
     1
 90
        1
176
     1
 90
        2
176
     1
 40
0.6
176
     1
 40
30.0
176
     1
 62
     7
420
 16777215
176
     1
 90
        1
176
     1
 90
        0
176
     1
 62
     7
176
     1
 62
   257
176
     1
 90
        1
176
     1
 90
        1
176
     1
 40
1.0
176
     1
 90
        0
176
     1
 62
   257
176
     1
 40
1.0
176
     1
 90
        1
176
     1
 90
        6
176
     1
 90
        2
176
     1
 62
     7
176
     1
 90
        5
176
     1
 90
        0
176
     1
 90
        0
176
     1
290
     0
176
     1
 90
       13
176
     1
 40
0.0
176
     1
 90
        0
176
     1
290
     0
176
     1
290
     1
176
     1
290
     1
176
     1
290
     0
176
     1
290
     0
176
     1
290
     0
176
     1
290
     0
176
     1
290
     0
176
     1
290
     0
176
     1
 90
       50
176
     1
 40
0.0
176
     1
 40
1.0
176
     1
 90
        0
176
     1
 62
    18
420
        0
176
     1
 90
       50
176
     1
 90
        3
176
     1
 62
     5
420
      255
176
     1
290
     0
176
     1
 90
       50
176
     1
 90
       50
176
     1
 90
       50
176
     1
290
     0
176
     1
 90
       50
176
     1
 62
   256
176
     0
 40
1.0
176
     0
 90
        2
176
     1
  1
strokes_ogs.tif
176
     1
290
     0
176
     1
 40
1.0
176
     1
 40
1.0
176
     1
1001
ACAD
1000
AcDbSavedByObjectVersion
1070
     0
  0
VISUALSTYLE
  5
2C
102
{ACAD_REACTORS
330
29
102
}
330
29
100
AcDbVisualStyle
  2
Gouraud
 70
     2
177
     3
291
     1
 70
    58
 90
        2
176
     1
 90
        2
176
     1
 90
        1
176
     1
 90
        2
176
     1
 40
0.6
176
     1
 40
30.0
176
     1
 62
     7
420
 16777215
176
     1
 90
        0
176
     1
 90
        0
176
     1
 62
     7
176
     1
 62
   257
176
     1
 90
        1
176
     1
 90
        1
176
     1
 40
1.0
176
     1
 90
        0
176
     1
 62
     7
176
     1
 40
1.0
176
     1
 90
        1
176
     1
 90
        6
176
     1
 90
        2
176
     1
 62
     7
176
     1
 90
        5
176
     1
 90
        0
176
     1
 90
        0
176
     1
290
     0
176
     1
 90
       13
176
     1
 40
0.0
176
     1
 90
        0
176
     1
290
     0
176
     1
290
     1
176
     1
290
     1
176
     1
290
     0
176
     1
290
     0
176
     1
290
     0
176
     1
290
     0
176
     1
290
     0
176
     1
290
     0
176
     1
 90
       50
176
     1
 40
0.0
176
     1
 40
1.0
176
     1
 90
        0
176
     1
 62
    18
420
        0
176
     1
 90
       50
176
     1
 90
        3
176
     1
 62
     5
420
      255
176
     1
290
     0
176
     1
 90
       50
176
     1
 90
       50
176
     1
 90
       50
176
     1
290
     0
176
     1
 90
       50
176
     1
 62
   256
176
     0
 40
1.0
176
     0
 90
        2
176
     1
  1
strokes_ogs.tif
176
     1
290
     0
176
     1
 40
1.0
176
     1
 40
1.0
176
     1
1001
ACAD
1000
AcDbSavedByObjectVersion
1070
     0
  0
VISUALSTYLE
  5
2D
102
{ACAD_REACTORS
330
29
102
}
330
29
100
AcDbVisualStyle
  2
GouraudWithEdges
 70
     3
177
     3
291
     1
 70
    58
 90
        2
176
     1
 90
        2
176
     1
 90
        1
176
     1
 90
        2
176
     1
 40
0.6
176
     1
 40
30.0
176
     1
 62
     7
420
 16777215
176
     1
 90
        1
176
     1
 90
        0
176
     1
 62
     7
176
     1
 62
   257
176
     1
 90
        1
176
     1
 90
        1
176
     1
 40
1.0
176
     1
 90
        0
176
     1
 62
   257
176
     1
 40
1.0
176
     1
 90
        1
176
     1
 90
        6
176
     1
 90
        2
176
     1
 62
     7
176
     1
 90
        5
176
     1
 90
        0
176
     1
 90
        0
176
     1
290
     0
176
     1
 90
       13
176
     1
 40
0.0
176
     1
 90
        0
176
     1
290
     0
176
     1
290
     1
176
     1
290
     1
176
     1
290
     0
176
     1
290
     0
176
     1
290
     0
176
     1
290
     0
176
     1
290
     0
176
     1
290
     0
176
     1
 90
       50
176
     1
 40
0.0
176
     1
 40
1.0
176
     1
 90
        0
176
     1
 62
    18
420
        0
176
     1
 90
       50
176
     1
 90
        3
176
     1
 62
     5
420
      255
176
     1
290
     0
176
     1
 90
       50
176
     1
 90
       50
176
     1
 90
       50
176
     1
290
     0
176
     1
 90
       50
176
     1
 62
   256
176
     0
 40
1.0
176
     0
 90
        2
176
     1
  1
strokes_ogs.tif
176
     1
290
     0
176
     1
 40
1.0
176
     1
 40
1.0
176
     1
1001
ACAD
1000
AcDbSavedByObjectVersion
1070
     0
  0
VISUALSTYLE
  5
31
102
{ACAD_REACTORS
330
29
102
}
330
29
100
AcDbVisualStyle
  2
Hidden
 70
     6
177
     3
291
     0
 70
    58
 90
        1
176
     1
 90
        2
176
     1
 90
        2
176
     1
 90
        0
176
     1
 40
0.6
176
     1
 40
30.0
176
     1
 62
     7
420
 16777215
176
     1
 90
        2
176
     1
 90
        2
176
     1
 62
     7
176
     1
 62
   257
176
     1
 90
        2
176
     1
 90
        1
176
     1
 40
40.0
176
     1
 90
        0
176
     1
 62
   257
176
     1
 40
1.0
176
     1
 90
        1
176
     1
 90
        6
176
     1
 90
        2
176
     1
 62
     7
176
     1
 90
        3
176
     1
 90
        0
176
     1
 90
        0
176
     1
290
     0
176
     1
 90
        1
176
     1
 40
0.0
176
     1
 90
        0
176
     1
290
     0
176
     1
290
     1
176
     1
290
     1
176
     1
290
     0
176
     1
290
     0
176
     1
290
     0
176
     1
290
     0
176
     1
290
     0
176
     1
290
     0
176
     1
 90
       50
176
     1
 40
0.0
176
     1
 40
1.0
176
     1
 90
        0
176
     1
 62
    18
420
        0
176
     1
 90
       50
176
     1
 90
        3
176
     1
 62
     5
420
      255
176
     1
290
     0
176
     1
 90
       50
176
     1
 90
       50
176
     1
 90
       50
176
     1
290
     0
176
     1
 90
       50
176
     1
 62
   256
176
     0
 40
1.0
176
     0
 90
        2
176
     1
  1
strokes_ogs.tif
176
     1
290
     0
176
     1
 40
1.0
176
     1
 40
1.0
176
     1
1001
ACAD
1000
AcDbSavedByObjectVersion
1070
     0
  0
VISUALSTYLE
  5
3F
102
{ACAD_REACTORS
330
29
102
}
330
29
100
AcDbVisualStyle
  2
JitterOff
 70
    20
177
     3
291
     1
 70
    58
 90
        2
176
     0
 90
        2
176
     0
 90
        0
176
     0
 90
        0
176
     0
 40
0.6
176
     0
 40
30.0
176
     0
 62
     7
420
 16777215
176
     0
 90
        1
176
     0
 90
        4
176
     0
 62
     7
176
     0
 62
   257
176
     0
 90
        1
176
     0
 90
        1
176
     0
 40
1.0
176
     0
 90
       10
176
     2
 62
     7
176
     0
 40
1.0
176
     0
 90
        1
176
     0
 90
        6
176
     0
 90
        2
176
     0
 62
     7
176
     0
 90
        5
176
     0
 90
        0
176
     0
 90
        0
176
     0
290
     0
176
     0
 90
        1
176
     0
 40
0.0
176
     0
 90
        0
176
     0
290
     0
176
     0
290
     1
176
     0
290
     1
176
     0
290
     0
176
     0
290
     0
176
     0
290
     0
176
     0
290
     0
176
     0
290
     0
176
     0
290
     0
176
     0
 90
       50
176
     0
 40
0.0
176
     0
 40
1.0
176
     0
 90
        0
176
     0
 62
    18
420
        0
176
     0
 90
       50
176
     0
 90
        3
176
     0
 62
     5
420
      255
176
     0
290
     0
176
     0
 90
       50
176
     0
 90
       50
176
     0
 90
       50
176
     0
290
     0
176
     0
 90
       50
176
     0
 62
   256
176
     0
 40
1.0
176
     0
 90
        2
176
     0
  1
strokes_ogs.tif
176
     0
290
     0
176
     0
 40
1.0
176
     0
 40
1.0
176
     0
1001
ACAD
1000
AcDbSavedByObjectVersion
1070
     0
  0
VISUALSTYLE
  5
37
102
{ACAD_REACTORS
330
29
102
}
330
29
100
AcDbVisualStyle
  2
Linepattern
 70
    14
177
     3
291
     1
 70
    58
 90
        2
176
     1
 90
        2
176
     1
 90
        0
176
     1
 90
        0
176
     1
 40
0.6
176
     1
 40
30.0
176
     1
 62
     7
420
 16777215
176
     1
 90
        1
176
     1
 90
        4
176
     1
 62
     7
176
     1
 62
   257
176
     1
 90
        7
176
     1
 90
        7
176
     1
 40
1.0
176
     1
 90
        8
176
     1
 62
     7
176
     1
 40
1.0
176
     1
 90
        1
176
     1
 90
        6
176
     1
 90
        2
176
     1
 62
     7
176
     1
 90
        5
176
     1
 90
        0
176
     1
 90
        0
176
     1
290
     0
176
     1
 90
        1
176
     1
 40
0.0
176
     1
 90
        0
176
     1
290
     0
176
     1
290
     1
176
     1
290
     1
176
     1
290
     0
176
     1
290
     0
176
     1
290
     0
176
     1
290
     0
176
     1
290
     0
176
     1
290
     0
176
     1
 90
       50
176
     1
 40
0.0
176
     1
 40
1.0
176
     1
 90
        0
176
     1
 62
    18
420
        0
176
     1
 90
       50
176
     1
 90
        3
176
     1
 62
     5
420
      255
176
     1
290
     0
176
     1
 90
       50
176
     1
 90
       50
176
     1
 90
       50
176
     1
290
     0
176
     1
 90
       50
176
     1
 62
   256
176
     0
 40
1.0
176
     0
 90
        2
176
     1
  1
strokes_ogs.tif
176
     1
290
     0
176
     1
 40
1.0
176
     1
 40
1.0
176
     1
1001
ACAD
1000
AcDbSavedByObjectVersion
1070
     0
  0
VISUALSTYLE
  5
40
102
{ACAD_REACTORS
330
29
102
}
330
29
100
AcDbVisualStyle
  2
OverhangOff
 70
    21
177
     3
291
     1
 70
    58
 90
        2
176
     0
 90
        2
176
     0
 90
        0
176
     0
 90
        0
176
     0
 40
0.6
176
     0
 40
30.0
176
     0
 62
     7
420
 16777215
176
     0
 90
        1
176
     0
 90
        4
176
     0
 62
     7
176
     0
 62
   257
176
     0
 90
        1
176
     0
 90
        1
176
     0
 40
1.0
176
     0
 90
        9
176
     2
 62
     7
176
     0
 40
1.0
176
     0
 90
        1
176
     0
 90
        6
176
     0
 90
        2
176
     0
 62
     7
176
     0
 90
        5
176
     0
 90
        0
176
     0
 90
        0
176
     0
290
     0
176
     0
 90
        1
176
     0
 40
0.0
176
     0
 90
        0
176
     0
290
     0
176
     0
290
     1
176
     0
290
     1
176
     0
290
     0
176
     0
290
     0
176
     0
290
     0
176
     0
290
     0
176
     0
290
     0
176
     0
290
     0
176
     0
 90
       50
176
     0
 40
0.0
176
     0
 40
1.0
176
     0
 90
        0
176
     0
 62
    18
420
        0
176
     0
 90
       50
176
     0
 90
        3
176
     0
 62
     5
420
      255
176
     0
290
     0
176
     0
 90
       50
176
     0
 90
       50
176
     0
 90
       50
176
     0
290
     0
176
     0
 90
       50
176
     0
 62
   256
176
     0
 40
1.0
176
     0
 90
        2
176
     0
  1
strokes_ogs.tif
176
     0
290
     0
176
     0
 40
1.0
176
     0
 40
1.0
176
     0
1001
ACAD
1000
AcDbSavedByObjectVersion
1070
     0
  0
VISUALSTYLE
  5
33
102
{ACAD_REACTORS
330
29
102
}
330
29
100
AcDbVisualStyle
  2
Realistic
 70
     8
177
     3
291
     0
 70
    58
 90
        2
176
     1
 90
        3
176
     1
 90
        0
176
     1
 90
        2
176
     1
 40
0.6
176
     1
 40
30.0
176
     1
 62
     7
420
 16777215
176
     1
 90
        0
176
     1
 90
        0
176
     1
 62
     7
176
     1
 62
   257
176
     1
 90
        1
176
     1
 90
        1
176
     1
 40
1.0
176
     1
 90
        8
176
     1
 62
   257
176
     1
 40
1.0
176
     1
 90
        1
176
     1
 90
        6
176
     1
 90
        2
176
     1
 62
     7
176
     1
 90
        3
176
     1
 90
        0
176
     1
 90
        0
176
     1
290
     0
176
     1
 90
       13
176
     1
 40
0.0
176
     1
 90
        0
176
     1
290
     0
176
     1
290
     1
176
     1
290
     1
176
     1
290
     0
176
     1
290
     0
176
     1
290
     0
176
     1
290
     0
176
     1
290
     0
176
     1
290
     0
176
     1
 90
       50
176
     1
 40
0.0
176
     1
 40
1.0
176
     1
 90
        0
176
     1
 62
    18
420
        0
176
     1
 90
       50
176
     1
 90
        3
176
     1
 62
     5
420
      255
176
     1
290
     0
176
     1
 90
       50
176
     1
 90
       50
176
     1
 90
       50
176
     1
290
     0
176
     1
 90
       50
176
     1
 62
   256
176
     0
 40
1.0
176
     0
 90
        2
176
     1
  1
strokes_ogs.tif
176
     1
290
     0
176
     1
 40
1.0
176
     1
 40
1.0
176
     1
1001
ACAD
1000
AcDbSavedByObjectVersion
1070
     0
  0
VISUALSTYLE
  5
3E
102
{ACAD_REACTORS
330
29
102
}
330
29
100
AcDbVisualStyle
  2
Shaded
 70
    27
177
     3
291
     0
 70
    58
 90
        2
176
     1
 90
        2
176
     1
 90
        1
176
     1
 90
        2
176
     1
 40
0.6
176
     1
 40
30.0
176
     1
 62
     7
420
 16777215
176
     1
 90
        0
176
     1
 90
        4
176
     1
 62
     7
176
     1
 62
   257
176
     1
 90
        1
176
     1
 90
        1
176
     1
 40
1.0
176
     1
 90
        8
176
     1
 62
   257
176
     1
 40
1.0
176
     1
 90
        1
176
     1
 90
        6
176
     1
 90
        2
176
     1
 62
     8
420
  7895160
176
     1
 90
        3
176
     1
 90
        0
176
     1
 90
        0
176
     1
290
     0
176
     1
 90
        5
176
     1
 40
0.0
176
     1
 90
        0
176
     1
290
     0
176
     1
290
     1
176
     1
290
     1
176
     1
290
     0
176
     1
290
     0
176
     1
290
     0
176
     1
290
     0
176
     1
290
     0
176
     1
290
     0
176
     1
 90
       50
176
     1
 40
0.0
176
     1
 40
1.0
176
     1
 90
        0
176
     1
 62
    18
420
        0
176
     1
 90
       50
176
     1
 90
        3
176
     1
 62
     5
420
      255
176
     1
290
     0
176
     1
 90
       50
176
     1
 90
       50
176
     1
 90
       50
176
     1
290
     0
176
     1
 90
       50
176
     1
 62
   256
176
     0
 40
1.0
176
     0
 90
        2
176
     1
  1
strokes_ogs.tif
176
     1
290
     0
176
     1
 40
1.0
176
     1
 40
1.0
176
     1
1001
ACAD
1000
AcDbSavedByObjectVersion
1070
     0
  0
VISUALSTYLE
  5
3D
102
{ACAD_REACTORS
330
29
102
}
330
29
100
AcDbVisualStyle
  2
Shaded with edges
 70
    26
177
     3
291
     0
 70
    58
 90
        2
176
     1
 90
        2
176
     1
 90
        1
176
     1
 90
        2
176
     1
 40
0.6
176
     1
 40
30.0
176
     1
 62
     7
420
 16777215
176
     1
 90
        1
176
     1
 90
        2
176
     1
 62
     7
176
     1
 62
   257
176
     1
 90
        2
176
     1
 90
        1
176
     1
 40
1.0
176
     1
 90
        8
176
     1
 62
   257
176
     1
 40
1.0
176
     1
 90
        1
176
     1
 90
        6
176
     1
 90
        2
176
     1
 62
     7
176
     1
 90
        3
176
     1
 90
        0
176
     1
 90
        0
176
     1
290
     0
176
     1
 90
        5
176
     1
 40
0.0
176
     1
 90
        0
176
     1
290
     0
176
     1
290
     1
176
     1
290
     1
176
     1
290
     0
176
     1
290
     0
176
     1
290
     0
176
     1
290
     0
176
     1
290
     0
176
     1
290
     0
176
     1
 90
       50
176
     1
 40
0.0
176
     1
 40
1.0
176
     1
 90
        0
176
     1
 62
    18
420
        0
176
     1
 90
       50
176
     1
 90
        3
176
     1
 62
     5
420
      255
176
     1
290
     0
176
     1
 90
       50
176
     1
 90
       50
176
     1
 90
       50
176
     1
290
     0
176
     1
 90
       50
176
     1
 62
   256
176
     0
 40
1.0
176
     0
 90
        2
176
     1
  1
strokes_ogs.tif
176
     1
290
     0
176
     1
 40
1.0
176
     1
 40
1.0
176
     1
1001
ACAD
1000
AcDbSavedByObjectVersion
1070
     0
  0
VISUALSTYLE
  5
3A
102
{ACAD_REACTORS
330
29
102
}
330
29
100
AcDbVisualStyle
  2
Shades of Gray
 70
    23
177
     3
291
     0
 70
    58
 90
        2
176
     1
 90
        2
176
     1
 90
        3
176
     1
 90
        0
176
     1
 40
0.6
176
     1
 40
30.0
176
     1
 62
     7
420
 16777215
176
     1
 90
        2
176
     1
 90
        2
176
     1
 62
     7
176
     1
 62
     7
176
     1
 90
        1
176
     1
 90
        1
176
     1
 40
40.0
176
     1
 90
        8
176
     1
 62
     7
176
     1
 40
1.0
176
     1
 90
        1
176
     1
 90
        6
176
     1
 90
        2
176
     1
 62
     7
176
     1
 90
        3
176
     1
 90
        0
176
     1
 90
        0
176
     1
290
     0
176
     1
 90
        1
176
     1
 40
0.0
176
     1
 90
        0
176
     1
290
     0
176
     1
290
     1
176
     1
290
     1
176
     1
290
     0
176
     1
290
     0
176
     1
290
     0
176
     1
290
     0
176
     1
290
     0
176
     1
290
     0
176
     1
 90
       50
176
     1
 40
0.0
176
     1
 40
1.0
176
     1
 90
        0
176
     1
 62
    18
420
        0
176
     1
 90
       50
176
     1
 90
        3
176
     1
 62
     5
420
      255
176
     1
290
     0
176
     1
 90
       50
176
     1
 90
       50
176
     1
 90
       50
176
     1
290
     0
176
     1
 90
       50
176
     1
 62
   256
176
     0
 40
1.0
176
     0
 90
        2
176
     1
  1
strokes_ogs.tif
176
     1
290
     0
176
     1
 40
1.0
176
     1
 40
1.0
176
     1
1001
ACAD
1000
AcDbSavedByObjectVersion
1070
     0
  0
VISUALSTYLE
  5
3B
102
{ACAD_REACTORS
330
29
102
}
330
29
100
AcDbVisualStyle
  2
Sketchy
 70
    24
177
     3
291
     0
 70
    58
 90
        1
176
     1
 90
        2
176
     1
 90
        2
176
     1
 90
        0
176
     1
 40
0.6
176
     1
 40
30.0
176
     1
 62
     7
420
 16777215
176
     1
 90
        2
176
     1
 90
        2
176
     1
 62
     7
176
     1
 62
     7
176
     1
 90
        1
176
     1
 90
        1
176
     1
 40
40.0
176
     1
 90
       11
176
     1
 62
     7
176
     1
 40
1.0
176
     1
 90
        1
176
     1
 90
        6
176
     1
 90
        2
176
     1
 62
     7
176
     1
 90
        6
176
     1
 90
        0
176
     1
 90
        0
176
     1
290
     0
176
     1
 90
        1
176
     1
 40
0.0
176
     1
 90
        0
176
     1
290
     0
176
     1
290
     1
176
     1
290
     1
176
     1
290
     0
176
     1
290
     0
176
     1
290
     0
176
     1
290
     0
176
     1
290
     0
176
     1
290
     0
176
     1
 90
       50
176
     1
 40
0.0
176
     1
 40
1.0
176
     1
 90
        0
176
     1
 62
    18
420
        0
176
     1
 90
       50
176
     1
 90
        3
176
     1
 62
     5
420
      255
176
     1
290
     0
176
     1
 90
       50
176
     1
 90
       50
176
     1
 90
       50
176
     1
290
     0
176
     1
 90
       50
176
     1
 62
   256
176
     0
 40
1.0
176
     0
 90
        2
176
     1
  1
strokes_ogs.tif
176
     1
290
     0
176
     1
 40
1.0
176
     1
 40
1.0
176
     1
1001
ACAD
1000
AcDbSavedByObjectVersion
1070
     0
  0
VISUALSTYLE
  5
36
102
{ACAD_REACTORS
330
29
102
}
330
29
100
AcDbVisualStyle
  2
Thicken
 70
    13
177
     3
291
     1
 70
    58
 90
        2
176
     1
 90
        2
176
     1
 90
        0
176
     1
 90
        0
176
     1
 40
0.6
176
     1
 40
30.0
176
     1
 62
     7
420
 16777215
176
     1
 90
        1
176
     1
 90
        4
176
     1
 62
     7
176
     1
 62
   257
176
     1
 90
        1
176
     1
 90
        1
176
     1
 40
1.0
176
     1
 90
       12
176
     1
 62
     7
176
     1
 40
1.0
176
     1
 90
        1
176
     1
 90
        6
176
     1
 90
        2
176
     1
 62
     7
176
     1
 90
        5
176
     1
 90
        0
176
     1
 90
        0
176
     1
290
     0
176
     1
 90
        1
176
     1
 40
0.0
176
     1
 90
        0
176
     1
290
     0
176
     1
290
     1
176
     1
290
     1
176
     1
290
     0
176
     1
290
     0
176
     1
290
     0
176
     1
290
     0
176
     1
290
     0
176
     1
290
     0
176
     1
 90
       50
176
     1
 40
0.0
176
     1
 40
1.0
176
     1
 90
        0
176
     1
 62
    18
420
        0
176
     1
 90
       50
176
     1
 90
        3
176
     1
 62
     5
420
      255
176
     1
290
     0
176
     1
 90
       50
176
     1
 90
       50
176
     1
 90
       50
176
     1
290
     0
176
     1
 90
       50
176
     1
 62
   256
176
     0
 40
1.0
176
     0
 90
        2
176
     1
  1
strokes_ogs.tif
176
     1
290
     0
176
     1
 40
1.0
176
     1
 40
1.0
176
     1
1001
ACAD
1000
AcDbSavedByObjectVersion
1070
     0
  0
VISUALSTYLE
  5
30
102
{ACAD_REACTORS
330
29
102
}
330
29
100
AcDbVisualStyle
  2
Wireframe
 70
     5
177
     3
291
     0
 70
    58
 90
        0
176
     1
 90
        2
176
     1
 90
        0
176
     1
 90
        0
176
     1
 40
0.6
176
     1
 40
30.0
176
     1
 62
     7
420
 16777215
176
     1
 90
        1
176
     1
 90
        4
176
     1
 62
     7
176
     1
 62
   257
176
     1
 90
        1
176
     1
 90
        1
176
     1
 40
1.0
176
     1
 90
        0
176
     1
 62
   257
176
     1
 40
1.0
176
     1
 90
        1
176
     1
 90
        6
176
     1
 90
        2
176
     1
 62
     7
176
     1
 90
        3
176
     1
 90
        0
176
     1
 90
        0
176
     1
290
     0
176
     1
 90
        1
176
     1
 40
0.0
176
     1
 90
        0
176
     1
290
     0
176
     1
290
     1
176
     1
290
     1
176
     1
290
     0
176
     1
290
     0
176
     1
290
     0
176
     1
290
     0
176
     1
290
     0
176
     1
290
     0
176
     1
 90
       50
176
     1
 40
0.0
176
     1
 40
1.0
176
     1
 90
        0
176
     1
 62
    18
420
        0
176
     1
 90
       50
176
     1
 90
        3
176
     1
 62
     5
420
      255
176
     1
290
     0
176
     1
 90
       50
176
     1
 90
       50
176
     1
 90
       50
176
     1
290
     0
176
     1
 90
       50
176
     1
 62
   256
176
     0
 40
1.0
176
     0
 90
        2
176
     1
  1
strokes_ogs.tif
176
     1
290
     0
176
     1
 40
1.0
176
     1
 40
1.0
176
     1
1001
ACAD
1000
AcDbSavedByObjectVersion
1070
     0
  0
VISUALSTYLE
  5
3C
102
{ACAD_REACTORS
330
29
102
}
330
29
100
AcDbVisualStyle
  2
X-Ray
 70
    25
177
     3
291
     0
 70
    58
 90
        2
176
     1
 90
        2
176
     1
 90
        1
176
     1
 90
        1
176
     1
 40
0.5
176
     1
 40
30.0
176
     1
 62
     7
420
 16777215
176
     1
 90
        1
176
     1
 90
        0
176
     1
 62
     7
176
     1
 62
   257
176
     1
 90
        1
176
     1
 90
        1
176
     1
 40
1.0
176
     1
 90
        8
176
     1
 62
     7
176
     1
 40
1.0
176
     1
 90
        1
176
     1
 90
        6
176
     1
 90
        2
176
     1
 62
     7
176
     1
 90
        3
176
     1
 90
        0
176
     1
 90
        0
176
     1
290
     0
176
     1
 90
       13
176
     1
 40
0.0
176
     1
 90
        0
176
     1
290
     0
176
     1
290
     1
176
     1
290
     1
176
     1
290
     0
176
     1
290
     0
176
     1
290
     0
176
     1
290
     0
176
     1
290
     0
176
     1
290
     0
176
     1
 90
       50
176
     1
 40
0.0
176
     1
 40
1.0
176
     1
 90
        0
176
     1
 62
    18
420
        0
176
     1
 90
       50
176
     1
 90
        3
176
     1
 62
     5
420
      255
176
     1
290
     0
176
     1
 90
       50
176
     1
 90
       50
176
     1
 90
       50
176
     1
290
     0
176
     1
 90
       50
176
     1
 62
   256
176
     0
 40
1.0
176
     0
 90
        2
176
     1
  1
strokes_ogs.tif
176
     1
290
     0
176
     1
 40
1.0
176
     1
 40
1.0
176
     1
1001
ACAD
1000
AcDbSavedByObjectVersion
1070
     0
  0
DICTIONARYVAR
  5
D8
102
{ACAD_REACTORS
330
D3
102
}
330
D3
100
DictionaryVariables
280
     0
  1
1:1
  0
DICTIONARYVAR
  5
D5
102
{ACAD_REACTORS
330
D3
102
}
330
D3
100
DictionaryVariables
280
     0
  1
STANDARD
  0
DICTIONARYVAR
  5
D4
102
{ACAD_REACTORS
330
D3
102
}
330
D3
100
DictionaryVariables
280
     0
  1
STANDARD
  0
DICTIONARYVAR
  5
D6
102
{ACAD_REACTORS
330
D3
102
}
330
D3
100
DictionaryVariables
280
     0
  1
Imperial24
  0
DICTIONARYVAR
  5
D7
102
{ACAD_REACTORS
330
D3
102
}
330
D3
100
DictionaryVariables
280
     0
  1
Imperial24
  0
DICTIONARY
  5
F7
330
6B
100
AcDbDictionary
280
     1
281
     1
  3
ACAD_XREC_ROUNDTRIP
360
F8
  0
DICTIONARY
  5
1A
330
19
100
AcDbDictionary
280
     1
281
     1
  3
BUMPTILE
360
1C
  3
DIFFUSETILE
360
1B
  3
OPACITYTILE
360
1F
  3
REFLECTIONTILE
360
1E
  3
REFRACTIONTILE
360
20
  3
SPECULARTILE
360
1D
  0
DICTIONARY
  5
12
330
11
100
AcDbDictionary
280
     1
281
     1
  3
BUMPTILE
360
14
  3
DIFFUSETILE
360
13
  3
OPACITYTILE
360
17
  3
REFLECTIONTILE
360
16
  3
REFRACTIONTILE
360
18
  3
SPECULARTILE
360
15
  0
DICTIONARY
  5
22
330
21
100
AcDbDictionary
280
     1
281
     1
  3
BUMPTILE
360
24
  3
DIFFUSETILE
360
23
  3
OPACITYTILE
360
27
  3
REFLECTIONTILE
360
26
  3
REFRACTIONTILE
360
28
  3
SPECULARTILE
360
25
  0
DICTIONARY
  5
F5
330
69
100
AcDbDictionary
280
     1
281
     1
  3
ACAD_XREC_ROUNDTRIP
360
F6
  0
DICTIONARY
  5
F2
330
65
100
AcDbDictionary
280
     1
281
     1
  3
ACAD_ROUNDTRIP_2008_TABLESTYLE_CELLSTYLEMAP
360
F3
  0
XRECORD
  5
F8
102
{ACAD_REACTORS
330
F7
102
}
330
F7
100
AcDbXrecord
280
     1
102
DISPLAYNAME
  1
Imperial24
102
FLAGS
 90
        0
  0
XRECORD
  5
1C
102
{ACAD_REACTORS
330
1A
102
}
330
1A
100
AcDbXrecord
280
     1
270
     1
271
     1
  0
XRECORD
  5
1B
102
{ACAD_REACTORS
330
1A
102
}
330
1A
100
AcDbXrecord
280
     1
270
     1
271
     1
  0
XRECORD
  5
1F
102
{ACAD_REACTORS
330
1A
102
}
330
1A
100
AcDbXrecord
280
     1
270
     1
271
     1
  0
XRECORD
  5
1E
102
{ACAD_REACTORS
330
1A
102
}
330
1A
100
AcDbXrecord
280
     1
270
     1
271
     1
  0
XRECORD
  5
20
102
{ACAD_REACTORS
330
1A
102
}
330
1A
100
AcDbXrecord
280
     1
270
     1
271
     1
  0
XRECORD
  5
1D
102
{ACAD_REACTORS
330
1A
102
}
330
1A
100
AcDbXrecord
280
     1
270
     1
271
     1
  0
XRECORD
  5
14
102
{ACAD_REACTORS
330
12
102
}
330
12
100
AcDbXrecord
280
     1
270
     1
271
     1
  0
XRECORD
  5
13
102
{ACAD_REACTORS
330
12
102
}
330
12
100
AcDbXrecord
280
     1
270
     1
271
     1
  0
XRECORD
  5
17
102
{ACAD_REACTORS
330
12
102
}
330
12
100
AcDbXrecord
280
     1
270
     1
271
     1
  0
XRECORD
  5
16
102
{ACAD_REACTORS
330
12
102
}
330
12
100
AcDbXrecord
280
     1
270
     1
271
     1
  0
XRECORD
  5
18
102
{ACAD_REACTORS
330
12
102
}
330
12
100
AcDbXrecord
280
     1
270
     1
271
     1
  0
XRECORD
  5
15
102
{ACAD_REACTORS
330
12
102
}
330
12
100
AcDbXrecord
280
     1
270
     1
271
     1
  0
XRECORD
  5
24
102
{ACAD_REACTORS
330
22
102
}
330
22
100
AcDbXrecord
280
     1
270
     1
271
     1
  0
XRECORD
  5
23
102
{ACAD_REACTORS
330
22
102
}
330
22
100
AcDbXrecord
280
     1
270
     1
271
     1
  0
XRECORD
  5
27
102
{ACAD_REACTORS
330
22
102
}
330
22
100
AcDbXrecord
280
     1
270
     1
271
     1
  0
XRECORD
  5
26
102
{ACAD_REACTORS
330
22
102
}
330
22
100
AcDbXrecord
280
     1
270
     1
271
     1
  0
XRECORD
  5
28
102
{ACAD_REACTORS
330
22
102
}
330
22
100
AcDbXrecord
280
     1
270
     1
271
     1
  0
XRECORD
  5
25
102
{ACAD_REACTORS
330
22
102
}
330
22
100
AcDbXrecord
280
     1
270
     1
271
     1
  0
XRECORD
  5
F6
102
{ACAD_REACTORS
330
F5
102
}
330
F5
100
AcDbXrecord
280
     1
102
DISPLAYNAME
  1
Imperial24
102
FLAGS
 90
        0
  0
CELLSTYLEMAP
  5
F3
102
{ACAD_REACTORS
330
F2
102
}
330
F2
100
AcDbCellStyleMap
 90
        3
300
CELLSTYLE
  1
TABLEFORMAT_BEGIN
 90
        5
170
     1
 91
        0
 92
    32768
 62
   257
 93
        1
300
CONTENTFORMAT
  1
CONTENTFORMAT_BEGIN
 90
        0
 91
        0
 92
      512
 93
        0
300

 40
0.0
140
1.0
 94
        5
 62
     0
340
55
144
0.25
309
CONTENTFORMAT_END
171
     0
 94
        0
309
TABLEFORMAT_END
  1
CELLSTYLE_BEGIN
 90
        1
 91
        1
300
_TITLE
309
CELLSTYLE_END
300
CELLSTYLE
  1
TABLEFORMAT_BEGIN
 90
        5
170
     1
 91
        0
 92
        0
 62
   257
 93
        1
300
CONTENTFORMAT
  1
CONTENTFORMAT_BEGIN
 90
        0
 91
        0
 92
      512
 93
        0
300

 40
0.0
140
1.0
 94
        5
 62
     0
340
55
144
0.18
309
CONTENTFORMAT_END
171
     0
 94
        0
309
TABLEFORMAT_END
  1
CELLSTYLE_BEGIN
 90
        2
 91
        1
300
_HEADER
309
CELLSTYLE_END
300
CELLSTYLE
  1
TABLEFORMAT_BEGIN
 90
        5
170
     1
 91
        0
 92
        0
 62
   257
 93
        1
300
CONTENTFORMAT
  1
CONTENTFORMAT_BEGIN
 90
        0
 91
        0
 92
      512
 93
        0
300

 40
0.0
140
1.0
 94
        2
 62
     0
340
55
144
0.18
309
CONTENTFORMAT_END
171
     0
 94
        0
309
TABLEFORMAT_END
  1
CELLSTYLE_BEGIN
 90
        3
 91
        2
300
_DATA
309
CELLSTYLE_END
  0
ENDSEC
  0
EOF
