  0
SECTION
  2
HEADER
  9
$ACADVER
  1
AC1021
  9
$ACADMAINTVER
 70
    50
  9
$DWGCODEPAGE
  3
ANSI_1252
  9
$LASTSAVEDBY
  1
ufficio.tecnico
  9
$INSBASE
 10
0.0
 20
0.0
 30
0.0
  9
$EXTMIN
 10
0.1697452044266114
 20
-9.519378736076113
 30
0.0
  9
$EXTMAX
 10
9.593032414356352
 20
-1.081494094296768
 30
0.0
  9
$LIMMIN
 10
0.0
 20
0.0
  9
$LIMMAX
 10
12.0
 20
9.0
  9
$ORTHOMODE
 70
     0
  9
$REGENMODE
 70
     1
  9
$FILLMODE
 70
     1
  9
$QTEXTMODE
 70
     0
  9
$MIRRTEXT
 70
     0
  9
$LTSCALE
 40
1.0
  9
$ATTMODE
 70
     1
  9
$TEXTSIZE
 40
0.2
  9
$TRACEWID
 40
0.05
  9
$TEXTSTYLE
  7
Standard
  9
$CLAYER
  8
0
  9
$CELTYPE
  6
ByLayer
  9
$CECOLOR
 62
   256
  9
$CELTSCALE
 40
1.0
  9
$DISPSILH
 70
     0
  9
$DIMSCALE
 40
1.0
  9
$DIMASZ
 40
0.18
  9
$DIMEXO
 40
0.0625
  9
$DIMDLI
 40
0.38
  9
$DIMRND
 40
0.0
  9
$DIMDLE
 40
0.0
  9
$DIMEXE
 40
0.18
  9
$DIMTP
 40
0.0
  9
$DIMTM
 40
0.0
  9
$DIMTXT
 40
0.18
  9
$DIMCEN
 40
0.09
  9
$DIMTSZ
 40
0.0
  9
$DIMTOL
 70
     0
  9
$DIMLIM
 70
     0
  9
$DIMTIH
 70
     1
  9
$DIMTOH
 70
     1
  9
$DIMSE1
 70
     0
  9
$DIMSE2
 70
     0
  9
$DIMTAD
 70
     0
  9
$DIMZIN
 70
     0
  9
$DIMBLK
  1

  9
$DIMASO
 70
     1
  9
$DIMSHO
 70
     1
  9
$DIMPOST
  1

  9
$DIMAPOST
  1

  9
$DIMALT
 70
     0
  9
$DIMALTD
 70
     2
  9
$DIMALTF
 40
25.4
  9
$DIMLFAC
 40
1.0
  9
$DIMTOFL
 70
     0
  9
$DIMTVP
 40
0.0
  9
$DIMTIX
 70
     0
  9
$DIMSOXD
 70
     0
  9
$DIMSAH
 70
     0
  9
$DIMBLK1
  1

  9
$DIMBLK2
  1

  9
$DIMSTYLE
  2
Standard
  9
$DIMCLRD
 70
     0
  9
$DIMCLRE
 70
     0
  9
$DIMCLRT
 70
     0
  9
$DIMTFAC
 40
1.0
  9
$DIMGAP
 40
0.09
  9
$DIMJUST
 70
     0
  9
$DIMSD1
 70
     0
  9
$DIMSD2
 70
     0
  9
$DIMTOLJ
 70
     1
  9
$DIMTZIN
 70
     0
  9
$DIMALTZ
 70
     0
  9
$DIMALTTZ
 70
     0
  9
$DIMUPT
 70
     0
  9
$DIMDEC
 70
     4
  9
$DIMTDEC
 70
     4
  9
$DIMALTU
 70
     2
  9
$DIMALTTD
 70
     2
  9
$DIMTXSTY
  7
Standard
  9
$DIMAUNIT
 70
     0
  9
$DIMADEC
 70
     0
  9
$DIMALTRND
 40
0.0
  9
$DIMAZIN
 70
     0
  9
$DIMDSEP
 70
    46
  9
$DIMATFIT
 70
     3
  9
$DIMFRAC
 70
     0
  9
$DIMLDRBLK
  1

  9
$DIMLUNIT
 70
     2
  9
$DIMLWD
 70
    -2
  9
$DIMLWE
 70
    -2
  9
$DIMTMOVE
 70
     0
  9
$DIMFXL
 40
1.0
  9
$DIMFXLON
 70
     0
  9
$DIMJOGANG
 40
0.7853981633974483
  9
$DIMTFILL
 70
     0
  9
$DIMTFILLCLR
 70
     0
  9
$DIMARCSYM
 70
     0
  9
$DIMLTYPE
  6

  9
$DIMLTEX1
  6

  9
$DIMLTEX2
  6

  9
$LUNITS
 70
     2
  9
$LUPREC
 70
     4
  9
$SKETCHINC
 40
0.1
  9
$FILLETRAD
 40
0.0
  9
$AUNITS
 70
     0
  9
$AUPREC
 70
     0
  9
$MENU
  1
.
  9
$ELEVATION
 40
0.0
  9
$PELEVATION
 40
0.0
  9
$THICKNESS
 40
0.0
  9
$LIMCHECK
 70
     0
  9
$CHAMFERA
 40
0.0
  9
$CHAMFERB
 40
0.0
  9
$CHAMFERC
 40
0.0
  9
$CHAMFERD
 40
0.0
  9
$SKPOLY
 70
     0
  9
$TDCREATE
 40
2459457.583796297
  9
$TDUCREATE
 40
2459457.500462963
  9
$TDUPDATE
 40
2459457.729814815
  9
$TDUUPDATE
 40
2459457.646481482
  9
$TDINDWG
 40
0.0010416667
  9
$TDUSRTIMER
 40
0.0010416667
  9
$USRTIMER
 70
     1
  9
$ANGBASE
 50
0.0
  9
$ANGDIR
 70
     0
  9
$PDMODE
 70
     0
  9
$PDSIZE
 40
0.0
  9
$PLINEWID
 40
0.0
  9
$SPLFRAME
 70
     0
  9
$SPLINETYPE
 70
     6
  9
$SPLINESEGS
 70
     8
  9
$HANDSEED
  5
1A3
  9
$SURFTAB1
 70
     6
  9
$SURFTAB2
 70
     6
  9
$SURFTYPE
 70
     6
  9
$SURFU
 70
     6
  9
$SURFV
 70
     6
  9
$UCSBASE
  2

  9
$UCSNAME
  2

  9
$UCSORG
 10
0.0
 20
0.0
 30
0.0
  9
$UCSXDIR
 10
1.0
 20
0.0
 30
0.0
  9
$UCSYDIR
 10
0.0
 20
1.0
 30
0.0
  9
$UCSORTHOREF
  2

  9
$UCSORTHOVIEW
 70
     0
  9
$UCSORGTOP
 10
0.0
 20
0.0
 30
0.0
  9
$UCSORGBOTTOM
 10
0.0
 20
0.0
 30
0.0
  9
$UCSORGLEFT
 10
0.0
 20
0.0
 30
0.0
  9
$UCSORGRIGHT
 10
0.0
 20
0.0
 30
0.0
  9
$UCSORGFRONT
 10
0.0
 20
0.0
 30
0.0
  9
$UCSORGBACK
 10
0.0
 20
0.0
 30
0.0
  9
$PUCSBASE
  2

  9
$PUCSNAME
  2

  9
$PUCSORG
 10
0.0
 20
0.0
 30
0.0
  9
$PUCSXDIR
 10
1.0
 20
0.0
 30
0.0
  9
$PUCSYDIR
 10
0.0
 20
1.0
 30
0.0
  9
$PUCSORTHOREF
  2

  9
$PUCSORTHOVIEW
 70
     0
  9
$PUCSORGTOP
 10
0.0
 20
0.0
 30
0.0
  9
$PUCSORGBOTTOM
 10
0.0
 20
0.0
 30
0.0
  9
$PUCSORGLEFT
 10
0.0
 20
0.0
 30
0.0
  9
$PUCSORGRIGHT
 10
0.0
 20
0.0
 30
0.0
  9
$PUCSORGFRONT
 10
0.0
 20
0.0
 30
0.0
  9
$PUCSORGBACK
 10
0.0
 20
0.0
 30
0.0
  9
$USERI1
 70
     0
  9
$USERI2
 70
     0
  9
$USERI3
 70
     0
  9
$USERI4
 70
     0
  9
$USERI5
 70
     0
  9
$USERR1
 40
0.0
  9
$USERR2
 40
0.0
  9
$USERR3
 40
0.0
  9
$USERR4
 40
0.0
  9
$USERR5
 40
0.0
  9
$WORLDVIEW
 70
     1
  9
$SHADEDGE
 70
     3
  9
$SHADEDIF
 70
    70
  9
$TILEMODE
 70
     1
  9
$MAXACTVP
 70
    64
  9
$PINSBASE
 10
0.0
 20
0.0
 30
0.0
  9
$PLIMCHECK
 70
     0
  9
$PEXTMIN
 10
1.000000000000000E+20
 20
1.000000000000000E+20
 30
1.000000000000000E+20
  9
$PEXTMAX
 10
-1.000000000000000E+20
 20
-1.000000000000000E+20
 30
-1.000000000000000E+20
  9
$PLIMMIN
 10
0.0
 20
0.0
  9
$PLIMMAX
 10
12.0
 20
9.0
  9
$UNITMODE
 70
     0
  9
$VISRETAIN
 70
     1
  9
$PLINEGEN
 70
     0
  9
$PSLTSCALE
 70
     1
  9
$TREEDEPTH
 70
  3020
  9
$CMLSTYLE
  2
Standard
  9
$CMLJUST
 70
     0
  9
$CMLSCALE
 40
1.0
  9
$PROXYGRAPHICS
 70
     1
  9
$MEASUREMENT
 70
     0
  9
$CELWEIGHT
370
    -1
  9
$ENDCAPS
280
     0
  9
$JOINSTYLE
280
     0
  9
$LWDISPLAY
290
     1
  9
$INSUNITS
 70
     5
  9
$HYPERLINKBASE
  1

  9
$STYLESHEET
  1

  9
$XEDIT
290
     1
  9
$CEPSNTYPE
380
     0
  9
$PSTYLEMODE
290
     1
  9
$FINGERPRINTGUID
  2
{F620FA50-ABF0-6D48-81F5-4F98DF1C30AB}
  9
$VERSIONGUID
  2
{F32B6FF3-D503-B146-AA13-BC7786D8969A}
  9
$EXTNAMES
290
     1
  9
$PSVPSCALE
 40
0.0
  9
$OLESTARTUP
290
     0
  9
$SORTENTS
280
   127
  9
$INDEXCTL
280
     0
  9
$HIDETEXT
280
     1
  9
$XCLIPFRAME
290
     0
  9
$HALOGAP
280
     0
  9
$OBSCOLOR
 70
   257
  9
$OBSLTYPE
280
     0
  9
$INTERSECTIONDISPLAY
280
     0
  9
$INTERSECTIONCOLOR
 70
   257
  9
$DIMASSOC
280
     2
  9
$PROJECTNAME
  1

  9
$CAMERADISPLAY
290
     0
  9
$LENSLENGTH
 40
50.0
  9
$CAMERAHEIGHT
 40
0.0
  9
$STEPSPERSEC
 40
2.0
  9
$STEPSIZE
 40
6.0
  9
$3DDWFPREC
 40
2.0
  9
$PSOLWIDTH
 40
0.25
  9
$PSOLHEIGHT
 40
4.0
  9
$LOFTANG1
 40
1.570796326794896
  9
$LOFTANG2
 40
1.570796326794896
  9
$LOFTMAG1
 40
0.0
  9
$LOFTMAG2
 40
0.0
  9
$LOFTPARAM
 70
     7
  9
$LOFTNORMALS
280
     1
  9
$LATITUDE
 40
37.795
  9
$LONGITUDE
 40
-122.394
  9
$NORTHDIRECTION
 40
0.0
  9
$TIMEZONE
 70
 -8000
  9
$LIGHTGLYPHDISPLAY
280
     1
  9
$TILEMODELIGHTSYNCH
280
     1
  9
$CMATERIAL
347
11
  9
$SOLIDHIST
280
     0
  9
$SHOWHIST
280
     1
  9
$DWFFRAME
280
     2
  9
$DGNFRAME
280
     0
  9
$REALWORLDSCALE
290
     1
  9
$INTERFERECOLOR
 62
     1
  9
$INTERFEREOBJVS
345
33
  9
$INTERFEREVPVS
346
30
  9
$CSHADOW
280
     0
  9
$SHADOWPLANELOCATION
 40
0.0
  0
ENDSEC
  0
SECTION
  2
CLASSES
  0
CLASS
  1
ACDBDICTIONARYWDFLT
  2
AcDbDictionaryWithDefault
  3
ObjectDBX Classes
 90
        0
 91
        1
280
     0
281
     0
  0
CLASS
  1
MATERIAL
  2
AcDbMaterial
  3
ObjectDBX Classes
 90
     1153
 91
        3
280
     0
281
     0
  0
CLASS
  1
VISUALSTYLE
  2
AcDbVisualStyle
  3
ObjectDBX Classes
 90
     4095
 91
       24
280
     0
281
     0
  0
CLASS
  1
SCALE
  2
AcDbScale
  3
ObjectDBX Classes
 90
     1153
 91
       17
280
     0
281
     0
  0
CLASS
  1
TABLESTYLE
  2
AcDbTableStyle
  3
ObjectDBX Classes
 90
     4095
 91
        1
280
     0
281
     0
  0
CLASS
  1
MLEADERSTYLE
  2
AcDbMLeaderStyle
  3
ACDB_MLEADERSTYLE_CLASS
 90
     4095
 91
        1
280
     0
281
     0
  0
CLASS
  1
ACDBSECTIONVIEWSTYLE
  2
AcDbSectionViewStyle
  3
ObjectDBX Classes
 90
     1025
 91
        1
280
     0
281
     0
  0
CLASS
  1
ACDBDETAILVIEWSTYLE
  2
AcDbDetailViewStyle
  3
ObjectDBX Classes
 90
     1025
 91
        1
280
     0
281
     0
  0
CLASS
  1
DICTIONARYVAR
  2
AcDbDictionaryVar
  3
ObjectDBX Classes
 90
        0
 91
        6
280
     0
281
     0
  0
CLASS
  1
CELLSTYLEMAP
  2
AcDbCellStyleMap
  3
ObjectDBX Classes
 90
     1152
 91
        3
280
     0
281
     0
  0
ENDSEC
  0
SECTION
  2
TABLES
  0
TABLE
  2
VPORT
  5
8
330
0
100
AcDbSymbolTable
 70
     1
  0
VPORT
  5
57
330
8
100
AcDbSymbolTableRecord
100
AcDbViewportTableRecord
  2
*Active
 70
     0
 10
0.0
 20
0.0
 11
1.0
 21
1.0
 12
7.776972955133718
 22
-0.5973532736693841
 13
0.0
 23
0.0
 14
1.0
 24
1.0
 15
0.0
 25
0.0
 16
0.0
 26
0.0
 36
1.0
 17
4.999999998749408
 27
-4.999999998749408
 37
0.0
 40
16.54490184476162
 41
2.545333333333333
 42
50.0
 43
0.0
 44
0.0
 50
0.0
 51
0.0
 71
     0
 72
   100
 73
     1
 74
     0
 75
     1
 76
     0
 77
     0
 78
     0
281
     0
 65
     1
110
0.0
120
0.0
130
0.0
111
1.0
121
0.0
131
0.0
112
0.0
122
1.0
132
0.0
 79
     0
146
0.0
348
2F
 60
     3
 61
     5
292
     1
282
     1
141
0.0
142
0.0
 63
   250
421
  3355443
1001
ACAD_NAV_VCDISPLAY
1070
     3
  0
ENDTAB
  0
TABLE
  2
LTYPE
  5
5
330
0
100
AcDbSymbolTable
 70
     2
  0
LTYPE
  5
5B
330
5
100
AcDbSymbolTableRecord
100
AcDbLinetypeTableRecord
  2
ByBlock
 70
     0
  3

 72
    65
 73
     0
 40
0.0
  0
LTYPE
  5
5C
330
5
100
AcDbSymbolTableRecord
100
AcDbLinetypeTableRecord
  2
ByLayer
 70
     0
  3

 72
    65
 73
     0
 40
0.0
  0
LTYPE
  5
5D
330
5
100
AcDbSymbolTableRecord
100
AcDbLinetypeTableRecord
  2
Continuous
 70
     0
  3
Solid line
 72
    65
 73
     0
 40
0.0
  0
ENDTAB
  0
TABLE
  2
LAYER
  5
2
330
0
100
AcDbSymbolTable
 70
     3
  0
LAYER
  5
54
330
2
100
AcDbSymbolTableRecord
100
AcDbLayerTableRecord
  2
0
 70
     0
 62
     7
  6
Continuous
370
    -3
390
F
347
21
  0
LAYER
  5
78
330
2
100
AcDbSymbolTableRecord
100
AcDbLayerTableRecord
  2
Livello 1
 70
     0
 62
     7
  6
Continuous
370
     0
390
F
347
21
  0
LAYER
  5
7D
330
2
100
AcDbSymbolTableRecord
100
AcDbLayerTableRecord
  2
Livello 2
 70
     0
 62
     7
  6
Continuous
370
     0
390
F
347
21
  0
ENDTAB
  0
TABLE
  2
STYLE
  5
3
330
0
100
AcDbSymbolTable
 70
     2
  0
STYLE
  5
55
330
3
100
AcDbSymbolTableRecord
100
AcDbTextStyleTableRecord
  2
Standard
 70
     0
 40
0.0
 41
1.0
 50
0.0
 71
     0
 42
0.2
  3
txt
  4

  0
STYLE
  5
5A
330
3
100
AcDbSymbolTableRecord
100
AcDbTextStyleTableRecord
  2
Annotative
 70
     0
 40
0.0
 41
1.0
 50
0.0
 71
     0
 42
0.2
  3
txt
  4

1001
AcadAnnotative
1000
AnnotativeData
1002
{
1070
     1
1070
     1
1002
}
  0
ENDTAB
  0
TABLE
  2
VIEW
  5
6
330
0
100
AcDbSymbolTable
 70
     0
  0
ENDTAB
  0
TABLE
  2
UCS
  5
7
330
0
100
AcDbSymbolTable
 70
     0
  0
ENDTAB
  0
TABLE
  2
APPID
  5
9
330
0
100
AcDbSymbolTable
 70
     5
  0
APPID
  5
56
330
9
100
AcDbSymbolTableRecord
100
AcDbRegAppTableRecord
  2
ACAD
 70
     0
  0
APPID
  5
5E
330
9
100
AcDbSymbolTableRecord
100
AcDbRegAppTableRecord
  2
AcadAnnotative
 70
     0
  0
APPID
  5
115
330
9
100
AcDbSymbolTableRecord
100
AcDbRegAppTableRecord
  2
ACAD_NAV_VCDISPLAY
 70
     0
  0
APPID
  5
11C
330
9
100
AcDbSymbolTableRecord
100
AcDbRegAppTableRecord
  2
ACAD_EXEMPT_FROM_CAD_STANDARDS
 70
     0
  0
APPID
  5
19C
330
9
100
AcDbSymbolTableRecord
100
AcDbRegAppTableRecord
  2
ACAD_MLEADERVER
 70
     0
  0
ENDTAB
  0
TABLE
  2
DIMSTYLE
  5
A
330
0
100
AcDbSymbolTable
 70
     2
100
AcDbDimStyleTable
 71
     0
  0
DIMSTYLE
105
58
330
A
100
AcDbSymbolTableRecord
100
AcDbDimStyleTableRecord
  2
Standard
 70
     0
340
55
  0
DIMSTYLE
105
59
330
A
100
AcDbSymbolTableRecord
100
AcDbDimStyleTableRecord
  2
Annotative
 70
     0
340
55
1001
AcadAnnotative
1000
AnnotativeData
1002
{
1070
     1
1070
     1
1002
}
  0
ENDTAB
  0
TABLE
  2
BLOCK_RECORD
  5
1
330
0
100
AcDbSymbolTable
 70
    13
  0
BLOCK_RECORD
  5
70
330
1
100
AcDbSymbolTableRecord
100
AcDbBlockTableRecord
  2
*Model_Space
340
73
 70
     0
280
     1
281
     0
  0
BLOCK_RECORD
  5
6C
330
1
100
AcDbSymbolTableRecord
100
AcDbBlockTableRecord
  2
*Paper_Space
340
6F
 70
     0
280
     1
281
     0
  0
BLOCK_RECORD
  5
74
330
1
100
AcDbSymbolTableRecord
100
AcDbBlockTableRecord
  2
*Paper_Space0
340
77
 70
     0
280
     1
281
     0
  0
BLOCK_RECORD
  5
82
330
1
100
AcDbSymbolTableRecord
100
AcDbBlockTableRecord
  2
Block_0
340
0
 70
     0
280
     1
281
     0
  0
BLOCK_RECORD
  5
86
330
1
100
AcDbSymbolTableRecord
100
AcDbBlockTableRecord
  2
Block_1
340
0
102
{BLKREFS
331
87
102
}
 70
     0
280
     1
281
     0
  0
BLOCK_RECORD
  5
96
330
1
100
AcDbSymbolTableRecord
100
AcDbBlockTableRecord
  2
Block_2
340
0
 70
     0
280
     1
281
     0
  0
BLOCK_RECORD
  5
9A
330
1
100
AcDbSymbolTableRecord
100
AcDbBlockTableRecord
  2
Block_3
340
0
102
{BLKREFS
331
9B
102
}
 70
     0
280
     1
281
     0
  0
BLOCK_RECORD
  5
AC
330
1
100
AcDbSymbolTableRecord
100
AcDbBlockTableRecord
  2
Block_4
340
0
 70
     0
280
     1
281
     0
  0
BLOCK_RECORD
  5
B0
330
1
100
AcDbSymbolTableRecord
100
AcDbBlockTableRecord
  2
Block_5
340
0
102
{BLKREFS
331
B1
102
}
 70
     0
280
     1
281
     0
  0
BLOCK_RECORD
  5
BF
330
1
100
AcDbSymbolTableRecord
100
AcDbBlockTableRecord
  2
Block_6
340
0
 70
     0
280
     1
281
     0
  0
BLOCK_RECORD
  5
C3
330
1
100
AcDbSymbolTableRecord
100
AcDbBlockTableRecord
  2
Block_7
340
0
102
{BLKREFS
331
C4
102
}
 70
     0
280
     1
281
     0
  0
ENDTAB
  0
ENDSEC
  0
SECTION
  2
BLOCKS
  0
BLOCK
  5
71
330
70
100
AcDbEntity
  8
0
100
AcDbBlockBegin
  2
*Model_Space
 70
     0
 10
0.0
 20
0.0
 30
0.0
  3
*Model_Space
  1

  0
ENDBLK
  5
72
330
70
100
AcDbEntity
  8
0
100
AcDbBlockEnd
  0
BLOCK
  5
6D
330
6C
100
AcDbEntity
 67
     1
  8
0
100
AcDbBlockBegin
  2
*Paper_Space
 70
     0
 10
0.0
 20
0.0
 30
0.0
  3
*Paper_Space
  1

  0
ENDBLK
  5
6E
330
6C
100
AcDbEntity
 67
     1
  8
0
100
AcDbBlockEnd
  0
BLOCK
  5
75
330
74
100
AcDbEntity
 67
     1
  8
0
100
AcDbBlockBegin
  2
*Paper_Space0
 70
     0
 10
0.0
 20
0.0
 30
0.0
  3
*Paper_Space0
  1

  0
ENDBLK
  5
76
330
74
100
AcDbEntity
 67
     1
  8
0
100
AcDbBlockEnd
  0
BLOCK
  5
84
330
82
100
AcDbEntity
  8
0
100
AcDbBlockBegin
  2
Block_0
 70
     0
 10
0.0
 20
0.0
 30
0.0
  3
Block_0
  1

  0
INSERT
  5
87
330
82
100
AcDbEntity
  8
Livello 2
100
AcDbBlockReference
  2
Block_1
 10
0.0
 20
0.0
 30
0.0
  0
ENDBLK
  5
85
330
82
100
AcDbEntity
  8
0
100
AcDbBlockEnd
  0
BLOCK
  5
88
330
86
100
AcDbEntity
  8
0
100
AcDbBlockBegin
  2
Block_1
 70
     0
 10
0.0
 20
0.0
 30
0.0
  3
Block_1
  1

  0
SPLINE
  5
8A
330
86
100
AcDbEntity
  8
Livello 2
100
AcDbSpline
210
0.0
220
0.0
230
1.0
 70
     9
 71
     3
 72
    59
 73
    55
 74
     0
 42
0.000000001
 43
0.0000000001
 40
0.0
 40
0.0
 40
0.0
 40
0.0
 40
1.0
 40
1.0
 40
1.0
 40
2.0
 40
2.0
 40
2.0
 40
3.0
 40
3.0
 40
3.0
 40
4.0
 40
4.0
 40
4.0
 40
5.0
 40
5.0
 40
5.0
 40
6.0
 40
6.0
 40
6.0
 40
7.0
 40
7.0
 40
7.0
 40
8.0
 40
8.0
 40
8.0
 40
9.0
 40
9.0
 40
9.0
 40
10.0
 40
10.0
 40
10.0
 40
11.0
 40
11.0
 40
11.0
 40
12.0
 40
12.0
 40
12.0
 40
13.0
 40
13.0
 40
13.0
 40
14.0
 40
14.0
 40
14.0
 40
15.0
 40
15.0
 40
15.0
 40
16.0
 40
16.0
 40
16.0
 40
17.0
 40
17.0
 40
17.0
 40
18.0
 40
18.0
 40
18.0
 40
18.0
 10
4.364815401469558
 20
-8.962657061561417
 30
0.0
 10
4.375391844609276
 20
-8.969409448712507
 30
0.0
 10
4.399938149941681
 20
-8.979985891852225
 30
0.0
 10
4.425741915126201
 20
-8.979985891852225
 30
0.0
 10
4.47355984046147
 20
-8.979985891852225
 30
0.0
 10
4.488356525570617
 20
-8.949531247762616
 30
0.0
 10
4.487943114112388
 20
-8.926690264695407
 30
0.0
 10
4.487512477176731
 20
-8.888174097170319
 30
0.0
 10
4.452820365640266
 20
-8.871672089795968
 30
0.0
 10
4.416853568774257
 20
-8.871672089795968
 30
0.0
 10
4.416853568774257
 20
-8.871672089795968
 30
0.0
 10
4.396131319430479
 20
-8.871672089795968
 30
0.0
 10
4.396131319430479
 20
-8.871672089795968
 30
0.0
 10
4.396131319430479
 20
-8.871672089795968
 30
0.0
 10
4.396131319430479
 20
-8.843766816365445
 30
0.0
 10
4.396131319430479
 20
-8.843766816365445
 30
0.0
 10
4.396131319430479
 20
-8.843766816365445
 30
0.0
 10
4.416853568774257
 20
-8.843766816365445
 30
0.0
 10
4.416853568774257
 20
-8.843766816365445
 30
0.0
 10
4.443932019288322
 20
-8.843766816365445
 30
0.0
 10
4.478210719366559
 20
-8.829779728695331
 30
0.0
 10
4.478210719366559
 20
-8.797223576359719
 30
0.0
 10
4.478210719366559
 20
-8.775209416208973
 30
0.0
 10
4.464240857173868
 20
-8.755744626717312
 30
0.0
 10
4.429979382573059
 20
-8.755744626717312
 30
0.0
 10
4.407965222422313
 20
-8.755744626717312
 30
0.0
 10
4.386812336142878
 20
-8.765494246940567
 30
0.0
 10
4.374978433151047
 20
-8.773934730879433
 30
0.0
 10
4.374978433151047
 20
-8.773934730879433
 30
0.0
 10
4.365246038405214
 20
-8.746856280365369
 30
0.0
 10
4.365246038405214
 20
-8.746856280365369
 30
0.0
 10
4.379629312056133
 20
-8.736279837225652
 30
0.0
 10
4.407551810964084
 20
-8.725703394085934
 30
0.0
 10
4.437162406659806
 20
-8.725703394085934
 30
0.0
 10
4.491319307687933
 20
-8.725703394085934
 30
0.0
 10
4.515865613020339
 20
-8.757846134963315
 30
0.0
 10
4.515865613020339
 20
-8.791298012125089
 30
0.0
 10
4.515865613020339
 20
-8.819651147968697
 30
0.0
 10
4.498932968710334
 20
-8.843766816365445
 30
0.0
 10
4.465084905567755
 20
-8.856031356292936
 30
0.0
 10
4.465084905567755
 20
-8.856031356292936
 30
0.0
 10
4.465084905567755
 20
-8.856858179209396
 30
0.0
 10
4.465084905567755
 20
-8.856858179209396
 30
0.0
 10
4.498932968710334
 20
-8.863645017315338
 30
0.0
 10
4.526442056160054
 20
-8.889035371041629
 30
0.0
 10
4.526442056160054
 20
-8.927517087611869
 30
0.0
 10
4.526442056160054
 20
-8.971545407913362
 30
0.0
 10
4.492163356081817
 20
-9.010027124483601
 30
0.0
 10
4.426172552061857
 20
-9.010027124483601
 30
0.0
 10
4.395287271036593
 20
-9.010027124483601
 30
0.0
 10
4.36820882052253
 20
-9.000311955215199
 30
0.0
 10
4.354669595265498
 20
-8.991423608863254
 30
0.0
 10
4.354669595265498
 20
-8.991423608863254
 30
0.0
 10
4.364815401469558
 20
-8.962657061561417
 30
0.0
 10
4.364815401469558
 20
-8.962657061561417
 30
0.0
  0
HATCH
  5
8B
330
86
100
AcDbEntity
  8
Livello 2
 62
   250
420
  1907995
440
 33554687
100
AcDbHatch
 10
0.0
 20
0.0
 30
0.0
210
0.0
220
0.0
230
1.0
  2
SOLID
 70
     1
 71
     1
 91
        1
 92
        1
 93
        1
 72
     4
 94
        3
 73
     0
 74
     0
 95
       59
 96
       55
 40
0.0
 40
0.0
 40
0.0
 40
0.0
 40
1.0
 40
1.0
 40
1.0
 40
2.0
 40
2.0
 40
2.0
 40
3.0
 40
3.0
 40
3.0
 40
4.0
 40
4.0
 40
4.0
 40
5.0
 40
5.0
 40
5.0
 40
6.0
 40
6.0
 40
6.0
 40
7.0
 40
7.0
 40
7.0
 40
8.0
 40
8.0
 40
8.0
 40
9.0
 40
9.0
 40
9.0
 40
10.0
 40
10.0
 40
10.0
 40
11.0
 40
11.0
 40
11.0
 40
12.0
 40
12.0
 40
12.0
 40
13.0
 40
13.0
 40
13.0
 40
14.0
 40
14.0
 40
14.0
 40
15.0
 40
15.0
 40
15.0
 40
16.0
 40
16.0
 40
16.0
 40
17.0
 40
17.0
 40
17.0
 40
18.0
 40
18.0
 40
18.0
 40
18.0
 10
4.364815401469558
 20
-8.962657061561417
 10
4.375391844609276
 20
-8.969409448712507
 10
4.399938149941681
 20
-8.979985891852225
 10
4.425741915126201
 20
-8.979985891852225
 10
4.47355984046147
 20
-8.979985891852225
 10
4.488356525570617
 20
-8.949531247762616
 10
4.487943114112388
 20
-8.926690264695407
 10
4.487512477176731
 20
-8.888174097170319
 10
4.452820365640266
 20
-8.871672089795968
 10
4.416853568774257
 20
-8.871672089795968
 10
4.416853568774257
 20
-8.871672089795968
 10
4.396131319430479
 20
-8.871672089795968
 10
4.396131319430479
 20
-8.871672089795968
 10
4.396131319430479
 20
-8.871672089795968
 10
4.396131319430479
 20
-8.843766816365445
 10
4.396131319430479
 20
-8.843766816365445
 10
4.396131319430479
 20
-8.843766816365445
 10
4.416853568774257
 20
-8.843766816365445
 10
4.416853568774257
 20
-8.843766816365445
 10
4.443932019288322
 20
-8.843766816365445
 10
4.478210719366559
 20
-8.829779728695331
 10
4.478210719366559
 20
-8.797223576359719
 10
4.478210719366559
 20
-8.775209416208973
 10
4.464240857173868
 20
-8.755744626717312
 10
4.429979382573059
 20
-8.755744626717312
 10
4.407965222422313
 20
-8.755744626717312
 10
4.386812336142878
 20
-8.765494246940567
 10
4.374978433151047
 20
-8.773934730879433
 10
4.374978433151047
 20
-8.773934730879433
 10
4.365246038405214
 20
-8.746856280365369
 10
4.365246038405214
 20
-8.746856280365369
 10
4.379629312056133
 20
-8.736279837225652
 10
4.407551810964084
 20
-8.725703394085934
 10
4.437162406659806
 20
-8.725703394085934
 10
4.491319307687933
 20
-8.725703394085934
 10
4.515865613020339
 20
-8.757846134963315
 10
4.515865613020339
 20
-8.791298012125089
 10
4.515865613020339
 20
-8.819651147968697
 10
4.498932968710334
 20
-8.843766816365445
 10
4.465084905567755
 20
-8.856031356292936
 10
4.465084905567755
 20
-8.856031356292936
 10
4.465084905567755
 20
-8.856858179209396
 10
4.465084905567755
 20
-8.856858179209396
 10
4.498932968710334
 20
-8.863645017315338
 10
4.526442056160054
 20
-8.889035371041629
 10
4.526442056160054
 20
-8.927517087611869
 10
4.526442056160054
 20
-8.971545407913362
 10
4.492163356081817
 20
-9.010027124483601
 10
4.426172552061857
 20
-9.010027124483601
 10
4.395287271036593
 20
-9.010027124483601
 10
4.36820882052253
 20
-9.000311955215199
 10
4.354669595265498
 20
-8.991423608863254
 10
4.354669595265498
 20
-8.991423608863254
 10
4.364815401469558
 20
-8.962657061561417
 10
4.364815401469558
 20
-8.962657061561417
 97
        1
330
8A
 75
     2
 76
     1
 98
        1
 10
0.0
 20
0.0
450
        0
451
        0
460
0.0
461
0.0
452
        0
462
0.0
453
        0
470

  0
SPLINE
  5
8C
330
86
100
AcDbEntity
  8
Livello 2
100
AcDbSpline
210
0.0
220
0.0
230
1.0
 70
     9
 71
     3
 72
    17
 73
    13
 74
     0
 42
0.000000001
 43
0.0000000001
 40
0.0
 40
0.0
 40
0.0
 40
0.0
 40
1.0
 40
1.0
 40
1.0
 40
2.0
 40
2.0
 40
2.0
 40
3.0
 40
3.0
 40
3.0
 40
4.0
 40
4.0
 40
4.0
 40
4.0
 10
4.606506075237261
 20
-8.869122719136884
 30
0.0
 10
4.606506075237261
 20
-8.94064290141067
 30
0.0
 10
4.628520235388007
 20
-8.981260577181767
 30
0.0
 10
4.66235107305316
 20
-8.981260577181767
 30
0.0
 10
4.700453829120025
 20
-8.981260577181767
 30
0.0
 10
4.718643933282143
 20
-8.936818845422042
 30
0.0
 10
4.718643933282143
 20
-8.866607799432651
 30
0.0
 10
4.718643933282143
 20
-8.798911673147491
 30
0.0
 10
4.701280652036483
 20
-8.754469941387771
 30
0.0
 10
4.662798935466244
 20
-8.754469941387771
 30
0.0
 10
4.63020833217578
 20
-8.754469941387771
 30
0.0
 10
4.606506075237261
 20
-8.794260794242406
 30
0.0
 10
4.606506075237261
 20
-8.869122719136884
 30
0.0
  0
SPLINE
  5
8D
330
86
100
AcDbEntity
  8
Livello 2
100
AcDbSpline
210
0.0
220
0.0
230
1.0
 70
     9
 71
     3
 72
    17
 73
    13
 74
     0
 42
0.000000001
 43
0.0000000001
 40
0.0
 40
0.0
 40
0.0
 40
0.0
 40
1.0
 40
1.0
 40
1.0
 40
2.0
 40
2.0
 40
2.0
 40
3.0
 40
3.0
 40
3.0
 40
4.0
 40
4.0
 40
4.0
 40
4.0
 10
4.755885415477695
 20
-8.864919702644881
 30
0.0
 10
4.755885415477695
 20
-8.958419594114561
 30
0.0
 10
4.721193303941228
 20
-9.010027124483601
 30
0.0
 10
4.660249564807159
 20
-9.010027124483601
 30
0.0
 10
4.606506075237261
 20
-9.010027124483601
 30
0.0
 10
4.570125866913024
 20
-8.959694279444104
 30
0.0
 10
4.569281818519137
 20
-8.868709307678654
 30
0.0
 10
4.569281818519137
 20
-8.776484101538517
 30
0.0
 10
4.609055445896346
 20
-8.725703394085934
 30
0.0
 10
4.664900443712245
 20
-8.725703394085934
 30
0.0
 10
4.722881400729001
 20
-8.725703394085934
 30
0.0
 10
4.755885415477695
 20
-8.777310924454976
 30
0.0
 10
4.755885415477695
 20
-8.864919702644881
 30
0.0
  0
HATCH
  5
8E
330
86
100
AcDbEntity
  8
Livello 2
 62
   250
420
  1907995
440
 33554687
100
AcDbHatch
 10
0.0
 20
0.0
 30
0.0
210
0.0
220
0.0
230
1.0
  2
SOLID
 70
     1
 71
     1
 91
        2
 92
        1
 93
        1
 72
     4
 94
        3
 73
     0
 74
     0
 95
       17
 96
       13
 40
0.0
 40
0.0
 40
0.0
 40
0.0
 40
1.0
 40
1.0
 40
1.0
 40
2.0
 40
2.0
 40
2.0
 40
3.0
 40
3.0
 40
3.0
 40
4.0
 40
4.0
 40
4.0
 40
4.0
 10
4.606506075237261
 20
-8.869122719136884
 10
4.606506075237261
 20
-8.94064290141067
 10
4.628520235388007
 20
-8.981260577181767
 10
4.66235107305316
 20
-8.981260577181767
 10
4.700453829120025
 20
-8.981260577181767
 10
4.718643933282143
 20
-8.936818845422042
 10
4.718643933282143
 20
-8.866607799432651
 10
4.718643933282143
 20
-8.798911673147491
 10
4.701280652036483
 20
-8.754469941387771
 10
4.662798935466244
 20
-8.754469941387771
 10
4.63020833217578
 20
-8.754469941387771
 10
4.606506075237261
 20
-8.794260794242406
 10
4.606506075237261
 20
-8.869122719136884
 97
        1
330
8C
 92
        1
 93
        1
 72
     4
 94
        3
 73
     0
 74
     0
 95
       17
 96
       13
 40
0.0
 40
0.0
 40
0.0
 40
0.0
 40
1.0
 40
1.0
 40
1.0
 40
2.0
 40
2.0
 40
2.0
 40
3.0
 40
3.0
 40
3.0
 40
4.0
 40
4.0
 40
4.0
 40
4.0
 10
4.755885415477695
 20
-8.864919702644881
 10
4.755885415477695
 20
-8.958419594114561
 10
4.721193303941228
 20
-9.010027124483601
 10
4.660249564807159
 20
-9.010027124483601
 10
4.606506075237261
 20
-9.010027124483601
 10
4.570125866913024
 20
-8.959694279444104
 10
4.569281818519137
 20
-8.868709307678654
 10
4.569281818519137
 20
-8.776484101538517
 10
4.609055445896346
 20
-8.725703394085934
 10
4.664900443712245
 20
-8.725703394085934
 10
4.722881400729001
 20
-8.725703394085934
 10
4.755885415477695
 20
-8.777310924454976
 10
4.755885415477695
 20
-8.864919702644881
 97
        1
330
8D
 75
     2
 76
     1
 98
        1
 10
0.0
 20
0.0
450
        0
451
        0
460
0.0
461
0.0
452
        0
462
0.0
453
        0
470

  0
SPLINE
  5
8F
330
86
100
AcDbEntity
  8
Livello 2
100
AcDbSpline
210
0.0
220
0.0
230
1.0
 70
     9
 71
     3
 72
    17
 73
    13
 74
     0
 42
0.000000001
 43
0.0000000001
 40
0.0
 40
0.0
 40
0.0
 40
0.0
 40
1.0
 40
1.0
 40
1.0
 40
2.0
 40
2.0
 40
2.0
 40
3.0
 40
3.0
 40
3.0
 40
4.0
 40
4.0
 40
4.0
 40
4.0
 10
4.823684894627411
 20
-8.869122719136884
 30
0.0
 10
4.823684894627411
 20
-8.94064290141067
 30
0.0
 10
4.845699054778157
 20
-8.981260577181767
 30
0.0
 10
4.879529892443311
 20
-8.981260577181767
 30
0.0
 10
4.917598197555322
 20
-8.981260577181767
 30
0.0
 10
4.935788301717441
 20
-8.936818845422042
 30
0.0
 10
4.935788301717441
 20
-8.866607799432651
 30
0.0
 10
4.935788301717441
 20
-8.798911673147491
 30
0.0
 10
4.918459471426633
 20
-8.754469941387771
 30
0.0
 10
4.879943303901541
 20
-8.754469941387771
 30
0.0
 10
4.847387151565929
 20
-8.754469941387771
 30
0.0
 10
4.823684894627411
 20
-8.794260794242406
 30
0.0
 10
4.823684894627411
 20
-8.869122719136884
 30
0.0
  0
SPLINE
  5
90
330
86
100
AcDbEntity
  8
Livello 2
100
AcDbSpline
210
0.0
220
0.0
230
1.0
 70
     9
 71
     3
 72
    17
 73
    13
 74
     0
 42
0.000000001
 43
0.0000000001
 40
0.0
 40
0.0
 40
0.0
 40
0.0
 40
1.0
 40
1.0
 40
1.0
 40
2.0
 40
2.0
 40
2.0
 40
3.0
 40
3.0
 40
3.0
 40
4.0
 40
4.0
 40
4.0
 40
4.0
 10
4.97302978391299
 20
-8.864919702644881
 30
0.0
 10
4.97302978391299
 20
-8.958419594114561
 30
0.0
 10
4.938337672376526
 20
-9.010027124483601
 30
0.0
 10
4.877428384197308
 20
-9.010027124483601
 30
0.0
 10
4.823684894627411
 20
-9.010027124483601
 30
0.0
 10
4.787304686303172
 20
-8.959694279444104
 30
0.0
 10
4.786443412431861
 20
-8.868709307678654
 30
0.0
 10
4.786443412431861
 20
-8.776484101538517
 30
0.0
 10
4.826234265286496
 20
-8.725703394085934
 30
0.0
 10
4.882079263102396
 20
-8.725703394085934
 30
0.0
 10
4.940025769164297
 20
-8.725703394085934
 30
0.0
 10
4.97302978391299
 20
-8.777310924454976
 30
0.0
 10
4.97302978391299
 20
-8.864919702644881
 30
0.0
  0
HATCH
  5
91
330
86
100
AcDbEntity
  8
Livello 2
 62
   250
420
  1907995
440
 33554687
100
AcDbHatch
 10
0.0
 20
0.0
 30
0.0
210
0.0
220
0.0
230
1.0
  2
SOLID
 70
     1
 71
     1
 91
        2
 92
        1
 93
        1
 72
     4
 94
        3
 73
     0
 74
     0
 95
       17
 96
       13
 40
0.0
 40
0.0
 40
0.0
 40
0.0
 40
1.0
 40
1.0
 40
1.0
 40
2.0
 40
2.0
 40
2.0
 40
3.0
 40
3.0
 40
3.0
 40
4.0
 40
4.0
 40
4.0
 40
4.0
 10
4.823684894627411
 20
-8.869122719136884
 10
4.823684894627411
 20
-8.94064290141067
 10
4.845699054778157
 20
-8.981260577181767
 10
4.879529892443311
 20
-8.981260577181767
 10
4.917598197555322
 20
-8.981260577181767
 10
4.935788301717441
 20
-8.936818845422042
 10
4.935788301717441
 20
-8.866607799432651
 10
4.935788301717441
 20
-8.798911673147491
 10
4.918459471426633
 20
-8.754469941387771
 10
4.879943303901541
 20
-8.754469941387771
 10
4.847387151565929
 20
-8.754469941387771
 10
4.823684894627411
 20
-8.794260794242406
 10
4.823684894627411
 20
-8.869122719136884
 97
        1
330
8F
 92
        1
 93
        1
 72
     4
 94
        3
 73
     0
 74
     0
 95
       17
 96
       13
 40
0.0
 40
0.0
 40
0.0
 40
0.0
 40
1.0
 40
1.0
 40
1.0
 40
2.0
 40
2.0
 40
2.0
 40
3.0
 40
3.0
 40
3.0
 40
4.0
 40
4.0
 40
4.0
 40
4.0
 10
4.97302978391299
 20
-8.864919702644881
 10
4.97302978391299
 20
-8.958419594114561
 10
4.938337672376526
 20
-9.010027124483601
 10
4.877428384197308
 20
-9.010027124483601
 10
4.823684894627411
 20
-9.010027124483601
 10
4.787304686303172
 20
-8.959694279444104
 10
4.786443412431861
 20
-8.868709307678654
 10
4.786443412431861
 20
-8.776484101538517
 10
4.826234265286496
 20
-8.725703394085934
 10
4.882079263102396
 20
-8.725703394085934
 10
4.940025769164297
 20
-8.725703394085934
 10
4.97302978391299
 20
-8.777310924454976
 10
4.97302978391299
 20
-8.864919702644881
 97
        1
330
90
 75
     2
 76
     1
 98
        1
 10
0.0
 20
0.0
450
        0
451
        0
460
0.0
461
0.0
452
        0
462
0.0
453
        0
470

  0
SPLINE
  5
92
330
86
100
AcDbEntity
  8
Livello 2
100
AcDbSpline
210
0.0
220
0.0
230
1.0
 70
     9
 71
     3
 72
    80
 73
    76
 74
     0
 42
0.000000001
 43
0.0000000001
 40
0.0
 40
0.0
 40
0.0
 40
0.0
 40
1.0
 40
1.0
 40
1.0
 40
2.0
 40
2.0
 40
2.0
 40
3.0
 40
3.0
 40
3.0
 40
4.0
 40
4.0
 40
4.0
 40
5.0
 40
5.0
 40
5.0
 40
6.0
 40
6.0
 40
6.0
 40
7.0
 40
7.0
 40
7.0
 40
8.0
 40
8.0
 40
8.0
 40
9.0
 40
9.0
 40
9.0
 40
10.0
 40
10.0
 40
10.0
 40
11.0
 40
11.0
 40
11.0
 40
12.0
 40
12.0
 40
12.0
 40
13.0
 40
13.0
 40
13.0
 40
14.0
 40
14.0
 40
14.0
 40
15.0
 40
15.0
 40
15.0
 40
16.0
 40
16.0
 40
16.0
 40
17.0
 40
17.0
 40
17.0
 40
18.0
 40
18.0
 40
18.0
 40
19.0
 40
19.0
 40
19.0
 40
20.0
 40
20.0
 40
20.0
 40
21.0
 40
21.0
 40
21.0
 40
22.0
 40
22.0
 40
22.0
 40
23.0
 40
23.0
 40
23.0
 40
24.0
 40
24.0
 40
24.0
 40
25.0
 40
25.0
 40
25.0
 40
25.0
 10
5.109042153670655
 20
-8.856031356292936
 30
0.0
 10
5.109042153670655
 20
-8.834878470013501
 30
0.0
 10
5.108594291257573
 20
-8.817515188767842
 30
0.0
 10
5.107319605928029
 20
-8.800599769935265
 30
0.0
 10
5.107319605928029
 20
-8.800599769935265
 30
0.0
 10
5.139910209218494
 20
-8.800599769935265
 30
0.0
 10
5.139910209218494
 20
-8.800599769935265
 30
0.0
 10
5.139910209218494
 20
-8.800599769935265
 30
0.0
 10
5.141598306006266
 20
-8.833603784683957
 30
0.0
 10
5.141598306006266
 20
-8.833603784683957
 30
0.0
 10
5.141598306006266
 20
-8.833603784683957
 30
0.0
 10
5.142872991335808
 20
-8.833603784683957
 30
0.0
 10
5.142872991335808
 20
-8.833603784683957
 30
0.0
 10
5.154310708346837
 20
-8.814138995192296
 30
0.0
 10
5.173327635425416
 20
-8.795948891030178
 30
0.0
 10
5.207192924045422
 20
-8.795948891030178
 30
0.0
 10
5.235098197475947
 20
-8.795948891030178
 30
0.0
 10
5.256251083755381
 20
-8.812864309862755
 30
0.0
 10
5.265139430107326
 20
-8.836979978259503
 30
0.0
 10
5.265139430107326
 20
-8.836979978259503
 30
0.0
 10
5.266000703978637
 20
-8.836979978259503
 30
0.0
 10
5.266000703978637
 20
-8.836979978259503
 30
0.0
 10
5.272339679671498
 20
-8.825542261248473
 30
0.0
 10
5.280366752152128
 20
-8.816688365851383
 30
0.0
 10
5.288841687045843
 20
-8.810314939203673
 30
0.0
 10
5.301106226973334
 20
-8.801013181393495
 30
0.0
 10
5.314645452230365
 20
-8.795948891030178
 30
0.0
 10
5.334110241722027
 20
-8.795948891030178
 30
0.0
 10
5.36118869223609
 20
-8.795948891030178
 30
0.0
 10
5.401392956548956
 20
-8.813725583734068
 30
0.0
 10
5.401392956548956
 20
-8.884797903594771
 30
0.0
 10
5.401392956548956
 20
-8.884797903594771
 30
0.0
 10
5.401392956548956
 20
-9.005376245578515
 30
0.0
 10
5.401392956548956
 20
-9.005376245578515
 30
0.0
 10
5.401392956548956
 20
-9.005376245578515
 30
0.0
 10
5.365012748224717
 20
-9.005376245578515
 30
0.0
 10
5.365012748224717
 20
-9.005376245578515
 30
0.0
 10
5.365012748224717
 20
-9.005376245578515
 30
0.0
 10
5.365012748224717
 20
-8.889448782499858
 30
0.0
 10
5.365012748224717
 20
-8.889448782499858
 30
0.0
 10
5.365012748224717
 20
-8.850105792058306
 30
0.0
 10
5.350612249096373
 20
-8.826403535119787
 30
0.0
 10
5.320571016464994
 20
-8.826403535119787
 30
0.0
 10
5.299418130185562
 20
-8.826403535119787
 30
0.0
 10
5.282916122811213
 20
-8.842044268622819
 30
0.0
 10
5.276577147118355
 20
-8.860268823739794
 30
0.0
 10
5.274889050330583
 20
-8.86533311410311
 30
0.0
 10
5.27361436500104
 20
-8.872085501254201
 30
0.0
 10
5.27361436500104
 20
-8.878872339360142
 30
0.0
 10
5.27361436500104
 20
-8.878872339360142
 30
0.0
 10
5.27361436500104
 20
-9.005376245578515
 30
0.0
 10
5.27361436500104
 20
-9.005376245578515
 30
0.0
 10
5.27361436500104
 20
-9.005376245578515
 30
0.0
 10
5.237234156676802
 20
-9.005376245578515
 30
0.0
 10
5.237234156676802
 20
-9.005376245578515
 30
0.0
 10
5.237234156676802
 20
-9.005376245578515
 30
0.0
 10
5.237234156676802
 20
-8.882661944393916
 30
0.0
 10
5.237234156676802
 20
-8.882661944393916
 30
0.0
 10
5.237234156676802
 20
-8.850105792058306
 30
0.0
 10
5.222833657548457
 20
-8.826403535119787
 30
0.0
 10
5.194480521704851
 20
-8.826403535119787
 30
0.0
 10
5.171226127179415
 20
-8.826403535119787
 30
0.0
 10
5.154310708346837
 20
-8.845007050740136
 30
0.0
 10
5.148385144112207
 20
-8.863645017315338
 30
0.0
 10
5.146249184911353
 20
-8.869122719136884
 30
0.0
 10
5.145422361994893
 20
-8.875496145784596
 30
0.0
 10
5.145422361994893
 20
-8.881835121477458
 30
0.0
 10
5.145422361994893
 20
-8.881835121477458
 30
0.0
 10
5.145422361994893
 20
-9.005376245578515
 30
0.0
 10
5.145422361994893
 20
-9.005376245578515
 30
0.0
 10
5.145422361994893
 20
-9.005376245578515
 30
0.0
 10
5.109042153670655
 20
-9.005376245578515
 30
0.0
 10
5.109042153670655
 20
-9.005376245578515
 30
0.0
 10
5.109042153670655
 20
-9.005376245578515
 30
0.0
 10
5.109042153670655
 20
-8.856031356292936
 30
0.0
 10
5.109042153670655
 20
-8.856031356292936
 30
0.0
  0
HATCH
  5
93
330
86
100
AcDbEntity
  8
Livello 2
 62
   250
420
  1907995
440
 33554687
100
AcDbHatch
 10
0.0
 20
0.0
 30
0.0
210
0.0
220
0.0
230
1.0
  2
SOLID
 70
     1
 71
     1
 91
        1
 92
        1
 93
        1
 72
     4
 94
        3
 73
     0
 74
     0
 95
       80
 96
       76
 40
0.0
 40
0.0
 40
0.0
 40
0.0
 40
1.0
 40
1.0
 40
1.0
 40
2.0
 40
2.0
 40
2.0
 40
3.0
 40
3.0
 40
3.0
 40
4.0
 40
4.0
 40
4.0
 40
5.0
 40
5.0
 40
5.0
 40
6.0
 40
6.0
 40
6.0
 40
7.0
 40
7.0
 40
7.0
 40
8.0
 40
8.0
 40
8.0
 40
9.0
 40
9.0
 40
9.0
 40
10.0
 40
10.0
 40
10.0
 40
11.0
 40
11.0
 40
11.0
 40
12.0
 40
12.0
 40
12.0
 40
13.0
 40
13.0
 40
13.0
 40
14.0
 40
14.0
 40
14.0
 40
15.0
 40
15.0
 40
15.0
 40
16.0
 40
16.0
 40
16.0
 40
17.0
 40
17.0
 40
17.0
 40
18.0
 40
18.0
 40
18.0
 40
19.0
 40
19.0
 40
19.0
 40
20.0
 40
20.0
 40
20.0
 40
21.0
 40
21.0
 40
21.0
 40
22.0
 40
22.0
 40
22.0
 40
23.0
 40
23.0
 40
23.0
 40
24.0
 40
24.0
 40
24.0
 40
25.0
 40
25.0
 40
25.0
 40
25.0
 10
5.109042153670655
 20
-8.856031356292936
 10
5.109042153670655
 20
-8.834878470013501
 10
5.108594291257573
 20
-8.817515188767842
 10
5.107319605928029
 20
-8.800599769935265
 10
5.107319605928029
 20
-8.800599769935265
 10
5.139910209218494
 20
-8.800599769935265
 10
5.139910209218494
 20
-8.800599769935265
 10
5.139910209218494
 20
-8.800599769935265
 10
5.141598306006266
 20
-8.833603784683957
 10
5.141598306006266
 20
-8.833603784683957
 10
5.141598306006266
 20
-8.833603784683957
 10
5.142872991335808
 20
-8.833603784683957
 10
5.142872991335808
 20
-8.833603784683957
 10
5.154310708346837
 20
-8.814138995192296
 10
5.173327635425416
 20
-8.795948891030178
 10
5.207192924045422
 20
-8.795948891030178
 10
5.235098197475947
 20
-8.795948891030178
 10
5.256251083755381
 20
-8.812864309862755
 10
5.265139430107326
 20
-8.836979978259503
 10
5.265139430107326
 20
-8.836979978259503
 10
5.266000703978637
 20
-8.836979978259503
 10
5.266000703978637
 20
-8.836979978259503
 10
5.272339679671498
 20
-8.825542261248473
 10
5.280366752152128
 20
-8.816688365851383
 10
5.288841687045843
 20
-8.810314939203673
 10
5.301106226973334
 20
-8.801013181393495
 10
5.314645452230365
 20
-8.795948891030178
 10
5.334110241722027
 20
-8.795948891030178
 10
5.36118869223609
 20
-8.795948891030178
 10
5.401392956548956
 20
-8.813725583734068
 10
5.401392956548956
 20
-8.884797903594771
 10
5.401392956548956
 20
-8.884797903594771
 10
5.401392956548956
 20
-9.005376245578515
 10
5.401392956548956
 20
-9.005376245578515
 10
5.401392956548956
 20
-9.005376245578515
 10
5.365012748224717
 20
-9.005376245578515
 10
5.365012748224717
 20
-9.005376245578515
 10
5.365012748224717
 20
-9.005376245578515
 10
5.365012748224717
 20
-8.889448782499858
 10
5.365012748224717
 20
-8.889448782499858
 10
5.365012748224717
 20
-8.850105792058306
 10
5.350612249096373
 20
-8.826403535119787
 10
5.320571016464994
 20
-8.826403535119787
 10
5.299418130185562
 20
-8.826403535119787
 10
5.282916122811213
 20
-8.842044268622819
 10
5.276577147118355
 20
-8.860268823739794
 10
5.274889050330583
 20
-8.86533311410311
 10
5.27361436500104
 20
-8.872085501254201
 10
5.27361436500104
 20
-8.878872339360142
 10
5.27361436500104
 20
-8.878872339360142
 10
5.27361436500104
 20
-9.005376245578515
 10
5.27361436500104
 20
-9.005376245578515
 10
5.27361436500104
 20
-9.005376245578515
 10
5.237234156676802
 20
-9.005376245578515
 10
5.237234156676802
 20
-9.005376245578515
 10
5.237234156676802
 20
-9.005376245578515
 10
5.237234156676802
 20
-8.882661944393916
 10
5.237234156676802
 20
-8.882661944393916
 10
5.237234156676802
 20
-8.850105792058306
 10
5.222833657548457
 20
-8.826403535119787
 10
5.194480521704851
 20
-8.826403535119787
 10
5.171226127179415
 20
-8.826403535119787
 10
5.154310708346837
 20
-8.845007050740136
 10
5.148385144112207
 20
-8.863645017315338
 10
5.146249184911353
 20
-8.869122719136884
 10
5.145422361994893
 20
-8.875496145784596
 10
5.145422361994893
 20
-8.881835121477458
 10
5.145422361994893
 20
-8.881835121477458
 10
5.145422361994893
 20
-9.005376245578515
 10
5.145422361994893
 20
-9.005376245578515
 10
5.145422361994893
 20
-9.005376245578515
 10
5.109042153670655
 20
-9.005376245578515
 10
5.109042153670655
 20
-9.005376245578515
 10
5.109042153670655
 20
-9.005376245578515
 10
5.109042153670655
 20
-8.856031356292936
 10
5.109042153670655
 20
-8.856031356292936
 97
        1
330
92
 75
     2
 76
     1
 98
        1
 10
0.0
 20
0.0
450
        0
451
        0
460
0.0
461
0.0
452
        0
462
0.0
453
        0
470

  0
SPLINE
  5
94
330
86
100
AcDbEntity
  8
Livello 2
100
AcDbSpline
210
0.0
220
0.0
230
1.0
 70
     9
 71
     3
 72
    80
 73
    76
 74
     0
 42
0.000000001
 43
0.0000000001
 40
0.0
 40
0.0
 40
0.0
 40
0.0
 40
1.0
 40
1.0
 40
1.0
 40
2.0
 40
2.0
 40
2.0
 40
3.0
 40
3.0
 40
3.0
 40
4.0
 40
4.0
 40
4.0
 40
5.0
 40
5.0
 40
5.0
 40
6.0
 40
6.0
 40
6.0
 40
7.0
 40
7.0
 40
7.0
 40
8.0
 40
8.0
 40
8.0
 40
9.0
 40
9.0
 40
9.0
 40
10.0
 40
10.0
 40
10.0
 40
11.0
 40
11.0
 40
11.0
 40
12.0
 40
12.0
 40
12.0
 40
13.0
 40
13.0
 40
13.0
 40
14.0
 40
14.0
 40
14.0
 40
15.0
 40
15.0
 40
15.0
 40
16.0
 40
16.0
 40
16.0
 40
17.0
 40
17.0
 40
17.0
 40
18.0
 40
18.0
 40
18.0
 40
19.0
 40
19.0
 40
19.0
 40
20.0
 40
20.0
 40
20.0
 40
21.0
 40
21.0
 40
21.0
 40
22.0
 40
22.0
 40
22.0
 40
23.0
 40
23.0
 40
23.0
 40
24.0
 40
24.0
 40
24.0
 40
25.0
 40
25.0
 40
25.0
 40
25.0
 10
5.462095538999058
 20
-8.856031356292936
 30
0.0
 10
5.462095538999058
 20
-8.834878470013501
 30
0.0
 10
5.461647676585976
 20
-8.817515188767842
 30
0.0
 10
5.460372991256433
 20
-8.800599769935265
 30
0.0
 10
5.460372991256433
 20
-8.800599769935265
 30
0.0
 10
5.492963594546896
 20
-8.800599769935265
 30
0.0
 10
5.492963594546896
 20
-8.800599769935265
 30
0.0
 10
5.492963594546896
 20
-8.800599769935265
 30
0.0
 10
5.494651691334668
 20
-8.833603784683957
 30
0.0
 10
5.494651691334668
 20
-8.833603784683957
 30
0.0
 10
5.494651691334668
 20
-8.833603784683957
 30
0.0
 10
5.495926376664211
 20
-8.833603784683957
 30
0.0
 10
5.495926376664211
 20
-8.833603784683957
 30
0.0
 10
5.507364093675241
 20
-8.814138995192296
 30
0.0
 10
5.526381020753819
 20
-8.795948891030178
 30
0.0
 10
5.560246309373827
 20
-8.795948891030178
 30
0.0
 10
5.588151582804349
 20
-8.795948891030178
 30
0.0
 10
5.609304469083783
 20
-8.812864309862755
 30
0.0
 10
5.618192815435729
 20
-8.836979978259503
 30
0.0
 10
5.618192815435729
 20
-8.836979978259503
 30
0.0
 10
5.619054089307041
 20
-8.836979978259503
 30
0.0
 10
5.619054089307041
 20
-8.836979978259503
 30
0.0
 10
5.625393064999901
 20
-8.825542261248473
 30
0.0
 10
5.633420137480531
 20
-8.816688365851383
 30
0.0
 10
5.641895072374246
 20
-8.810314939203673
 30
0.0
 10
5.654159612301737
 20
-8.801013181393495
 30
0.0
 10
5.667698837558768
 20
-8.795948891030178
 30
0.0
 10
5.687163627050431
 20
-8.795948891030178
 30
0.0
 10
5.714242077564494
 20
-8.795948891030178
 30
0.0
 10
5.754446341877358
 20
-8.813725583734068
 30
0.0
 10
5.754446341877358
 20
-8.884797903594771
 30
0.0
 10
5.754446341877358
 20
-8.884797903594771
 30
0.0
 10
5.754446341877358
 20
-9.005376245578515
 30
0.0
 10
5.754446341877358
 20
-9.005376245578515
 30
0.0
 10
5.754446341877358
 20
-9.005376245578515
 30
0.0
 10
5.71806613355312
 20
-9.005376245578515
 30
0.0
 10
5.71806613355312
 20
-9.005376245578515
 30
0.0
 10
5.71806613355312
 20
-9.005376245578515
 30
0.0
 10
5.71806613355312
 20
-8.889448782499858
 30
0.0
 10
5.71806613355312
 20
-8.889448782499858
 30
0.0
 10
5.71806613355312
 20
-8.850105792058306
 30
0.0
 10
5.703665634424776
 20
-8.826403535119787
 30
0.0
 10
5.673624401793397
 20
-8.826403535119787
 30
0.0
 10
5.652471515513965
 20
-8.826403535119787
 30
0.0
 10
5.635969508139617
 20
-8.842044268622819
 30
0.0
 10
5.629630532446757
 20
-8.860268823739794
 30
0.0
 10
5.627942435658986
 20
-8.86533311410311
 30
0.0
 10
5.626667750329443
 20
-8.872085501254201
 30
0.0
 10
5.626667750329443
 20
-8.878872339360142
 30
0.0
 10
5.626667750329443
 20
-8.878872339360142
 30
0.0
 10
5.626667750329443
 20
-9.005376245578515
 30
0.0
 10
5.626667750329443
 20
-9.005376245578515
 30
0.0
 10
5.626667750329443
 20
-9.005376245578515
 30
0.0
 10
5.590287542005205
 20
-9.005376245578515
 30
0.0
 10
5.590287542005205
 20
-9.005376245578515
 30
0.0
 10
5.590287542005205
 20
-9.005376245578515
 30
0.0
 10
5.590287542005205
 20
-8.882661944393916
 30
0.0
 10
5.590287542005205
 20
-8.882661944393916
 30
0.0
 10
5.590287542005205
 20
-8.850105792058306
 30
0.0
 10
5.57588704287686
 20
-8.826403535119787
 30
0.0
 10
5.547533907033255
 20
-8.826403535119787
 30
0.0
 10
5.524279512507819
 20
-8.826403535119787
 30
0.0
 10
5.507364093675241
 20
-8.845007050740136
 30
0.0
 10
5.501438529440612
 20
-8.863645017315338
 30
0.0
 10
5.499302570239755
 20
-8.869122719136884
 30
0.0
 10
5.498475747323297
 20
-8.875496145784596
 30
0.0
 10
5.498475747323297
 20
-8.881835121477458
 30
0.0
 10
5.498475747323297
 20
-8.881835121477458
 30
0.0
 10
5.498475747323297
 20
-9.005376245578515
 30
0.0
 10
5.498475747323297
 20
-9.005376245578515
 30
0.0
 10
5.498475747323297
 20
-9.005376245578515
 30
0.0
 10
5.462095538999058
 20
-9.005376245578515
 30
0.0
 10
5.462095538999058
 20
-9.005376245578515
 30
0.0
 10
5.462095538999058
 20
-9.005376245578515
 30
0.0
 10
5.462095538999058
 20
-8.856031356292936
 30
0.0
 10
5.462095538999058
 20
-8.856031356292936
 30
0.0
  0
HATCH
  5
95
330
86
100
AcDbEntity
  8
Livello 2
 62
   250
420
  1907995
440
 33554687
100
AcDbHatch
 10
0.0
 20
0.0
 30
0.0
210
0.0
220
0.0
230
1.0
  2
SOLID
 70
     1
 71
     1
 91
        1
 92
        1
 93
        1
 72
     4
 94
        3
 73
     0
 74
     0
 95
       80
 96
       76
 40
0.0
 40
0.0
 40
0.0
 40
0.0
 40
1.0
 40
1.0
 40
1.0
 40
2.0
 40
2.0
 40
2.0
 40
3.0
 40
3.0
 40
3.0
 40
4.0
 40
4.0
 40
4.0
 40
5.0
 40
5.0
 40
5.0
 40
6.0
 40
6.0
 40
6.0
 40
7.0
 40
7.0
 40
7.0
 40
8.0
 40
8.0
 40
8.0
 40
9.0
 40
9.0
 40
9.0
 40
10.0
 40
10.0
 40
10.0
 40
11.0
 40
11.0
 40
11.0
 40
12.0
 40
12.0
 40
12.0
 40
13.0
 40
13.0
 40
13.0
 40
14.0
 40
14.0
 40
14.0
 40
15.0
 40
15.0
 40
15.0
 40
16.0
 40
16.0
 40
16.0
 40
17.0
 40
17.0
 40
17.0
 40
18.0
 40
18.0
 40
18.0
 40
19.0
 40
19.0
 40
19.0
 40
20.0
 40
20.0
 40
20.0
 40
21.0
 40
21.0
 40
21.0
 40
22.0
 40
22.0
 40
22.0
 40
23.0
 40
23.0
 40
23.0
 40
24.0
 40
24.0
 40
24.0
 40
25.0
 40
25.0
 40
25.0
 40
25.0
 10
5.462095538999058
 20
-8.856031356292936
 10
5.462095538999058
 20
-8.834878470013501
 10
5.461647676585976
 20
-8.817515188767842
 10
5.460372991256433
 20
-8.800599769935265
 10
5.460372991256433
 20
-8.800599769935265
 10
5.492963594546896
 20
-8.800599769935265
 10
5.492963594546896
 20
-8.800599769935265
 10
5.492963594546896
 20
-8.800599769935265
 10
5.494651691334668
 20
-8.833603784683957
 10
5.494651691334668
 20
-8.833603784683957
 10
5.494651691334668
 20
-8.833603784683957
 10
5.495926376664211
 20
-8.833603784683957
 10
5.495926376664211
 20
-8.833603784683957
 10
5.507364093675241
 20
-8.814138995192296
 10
5.526381020753819
 20
-8.795948891030178
 10
5.560246309373827
 20
-8.795948891030178
 10
5.588151582804349
 20
-8.795948891030178
 10
5.609304469083783
 20
-8.812864309862755
 10
5.618192815435729
 20
-8.836979978259503
 10
5.618192815435729
 20
-8.836979978259503
 10
5.619054089307041
 20
-8.836979978259503
 10
5.619054089307041
 20
-8.836979978259503
 10
5.625393064999901
 20
-8.825542261248473
 10
5.633420137480531
 20
-8.816688365851383
 10
5.641895072374246
 20
-8.810314939203673
 10
5.654159612301737
 20
-8.801013181393495
 10
5.667698837558768
 20
-8.795948891030178
 10
5.687163627050431
 20
-8.795948891030178
 10
5.714242077564494
 20
-8.795948891030178
 10
5.754446341877358
 20
-8.813725583734068
 10
5.754446341877358
 20
-8.884797903594771
 10
5.754446341877358
 20
-8.884797903594771
 10
5.754446341877358
 20
-9.005376245578515
 10
5.754446341877358
 20
-9.005376245578515
 10
5.754446341877358
 20
-9.005376245578515
 10
5.71806613355312
 20
-9.005376245578515
 10
5.71806613355312
 20
-9.005376245578515
 10
5.71806613355312
 20
-9.005376245578515
 10
5.71806613355312
 20
-8.889448782499858
 10
5.71806613355312
 20
-8.889448782499858
 10
5.71806613355312
 20
-8.850105792058306
 10
5.703665634424776
 20
-8.826403535119787
 10
5.673624401793397
 20
-8.826403535119787
 10
5.652471515513965
 20
-8.826403535119787
 10
5.635969508139617
 20
-8.842044268622819
 10
5.629630532446757
 20
-8.860268823739794
 10
5.627942435658986
 20
-8.86533311410311
 10
5.626667750329443
 20
-8.872085501254201
 10
5.626667750329443
 20
-8.878872339360142
 10
5.626667750329443
 20
-8.878872339360142
 10
5.626667750329443
 20
-9.005376245578515
 10
5.626667750329443
 20
-9.005376245578515
 10
5.626667750329443
 20
-9.005376245578515
 10
5.590287542005205
 20
-9.005376245578515
 10
5.590287542005205
 20
-9.005376245578515
 10
5.590287542005205
 20
-9.005376245578515
 10
5.590287542005205
 20
-8.882661944393916
 10
5.590287542005205
 20
-8.882661944393916
 10
5.590287542005205
 20
-8.850105792058306
 10
5.57588704287686
 20
-8.826403535119787
 10
5.547533907033255
 20
-8.826403535119787
 10
5.524279512507819
 20
-8.826403535119787
 10
5.507364093675241
 20
-8.845007050740136
 10
5.501438529440612
 20
-8.863645017315338
 10
5.499302570239755
 20
-8.869122719136884
 10
5.498475747323297
 20
-8.875496145784596
 10
5.498475747323297
 20
-8.881835121477458
 10
5.498475747323297
 20
-8.881835121477458
 10
5.498475747323297
 20
-9.005376245578515
 10
5.498475747323297
 20
-9.005376245578515
 10
5.498475747323297
 20
-9.005376245578515
 10
5.462095538999058
 20
-9.005376245578515
 10
5.462095538999058
 20
-9.005376245578515
 10
5.462095538999058
 20
-9.005376245578515
 10
5.462095538999058
 20
-8.856031356292936
 10
5.462095538999058
 20
-8.856031356292936
 97
        1
330
94
 75
     2
 76
     1
 98
        1
 10
0.0
 20
0.0
450
        0
451
        0
460
0.0
461
0.0
452
        0
462
0.0
453
        0
470

  0
ENDBLK
  5
89
330
86
100
AcDbEntity
  8
0
100
AcDbBlockEnd
  0
BLOCK
  5
98
330
96
100
AcDbEntity
  8
0
100
AcDbBlockBegin
  2
Block_2
 70
     0
 10
0.0
 20
0.0
 30
0.0
  3
Block_2
  1

  0
INSERT
  5
9B
330
96
100
AcDbEntity
  8
Livello 2
100
AcDbBlockReference
  2
Block_3
 10
0.0
 20
0.0
 30
0.0
  0
ENDBLK
  5
99
330
96
100
AcDbEntity
  8
0
100
AcDbBlockEnd
  0
BLOCK
  5
9C
330
9A
100
AcDbEntity
  8
0
100
AcDbBlockBegin
  2
Block_3
 70
     0
 10
0.0
 20
0.0
 30
0.0
  3
Block_3
  1

  0
SPLINE
  5
9E
330
9A
100
AcDbEntity
  8
Livello 2
100
AcDbSpline
210
0.0
220
0.0
230
1.0
 70
    11
 71
     3
 72
    47
 73
    43
 74
     0
 42
0.000000001
 43
0.0000000001
 40
0.0
 40
0.0
 40
0.0
 40
0.0
 40
1.0
 40
1.0
 40
1.0
 40
2.0
 40
2.0
 40
2.0
 40
3.0
 40
3.0
 40
3.0
 40
4.0
 40
4.0
 40
4.0
 40
5.0
 40
5.0
 40
5.0
 40
6.0
 40
6.0
 40
6.0
 40
7.0
 40
7.0
 40
7.0
 40
8.0
 40
8.0
 40
8.0
 40
9.0
 40
9.0
 40
9.0
 40
10.0
 40
10.0
 40
10.0
 40
11.0
 40
11.0
 40
11.0
 40
12.0
 40
12.0
 40
12.0
 40
13.0
 40
13.0
 40
13.0
 40
14.0
 40
14.0
 40
14.0
 40
14.0
 10
6.918957517801509
 20
-4.999987656085072
 30
0.0
 10
6.918957517801509
 20
-4.999987656085072
 30
0.0
 10
6.918957517801509
 20
-4.977146673017865
 30
0.0
 10
6.918957517801509
 20
-4.977146673017865
 30
0.0
 10
6.918957517801509
 20
-4.977146673017865
 30
0.0
 10
6.948171927516428
 20
-4.948793537174259
 30
0.0
 10
6.948171927516428
 20
-4.948793537174259
 30
0.0
 10
7.018417424460673
 20
-4.881958684760411
 30
0.0
 10
7.050146753879823
 20
-4.846405299352634
 30
0.0
 10
7.050560165338053
 20
-4.804926349710227
 30
0.0
 10
7.050560165338053
 20
-4.777021076279702
 30
0.0
 10
7.037020940081021
 20
-4.751217311095182
 30
0.0
 10
6.995989852851695
 20
-4.751217311095182
 30
0.0
 10
6.971012910583634
 20
-4.751217311095182
 30
0.0
 10
6.950273435762428
 20
-4.763895262480899
 30
0.0
 10
6.937595484376712
 20
-4.774471705620618
 30
0.0
 10
6.937595484376712
 20
-4.774471705620618
 30
0.0
 10
6.925744355907451
 20
-4.748254528977866
 30
0.0
 10
6.925744355907451
 20
-4.748254528977866
 30
0.0
 10
6.944795733940884
 20
-4.732165933061748
 30
0.0
 10
6.971874184454947
 20
-4.72031480459249
 30
0.0
 10
7.003603513874097
 20
-4.72031480459249
 30
0.0
 10
7.062824705265543
 20
-4.72031480459249
 30
0.0
 10
7.087801647533604
 20
-4.760932480363584
 30
0.0
 10
7.087801647533604
 20
-4.800275470805138
 30
0.0
 10
7.087801647533604
 20
-4.851056178257721
 30
0.0
 10
7.050973576796282
 20
-4.892087265487046
 30
0.0
 10
6.99302707073438
 20
-4.947932263302947
 30
0.0
 10
6.99302707073438
 20
-4.947932263302947
 30
0.0
 10
6.971012910583634
 20
-4.96825832666592
 30
0.0
 10
6.971012910583634
 20
-4.96825832666592
 30
0.0
 10
6.971012910583634
 20
-4.96825832666592
 30
0.0
 10
6.971012910583634
 20
-4.96908514958238
 30
0.0
 10
6.971012910583634
 20
-4.96908514958238
 30
0.0
 10
6.971012910583634
 20
-4.96908514958238
 30
0.0
 10
7.094554034684693
 20
-4.96908514958238
 30
0.0
 10
7.094554034684693
 20
-4.96908514958238
 30
0.0
 10
7.094554034684693
 20
-4.96908514958238
 30
0.0
 10
7.094554034684693
 20
-4.999987656085072
 30
0.0
 10
7.094554034684693
 20
-4.999987656085072
 30
0.0
 10
7.094554034684693
 20
-4.999987656085072
 30
0.0
 10
6.918957517801509
 20
-4.999987656085072
 30
0.0
 10
6.918957517801509
 20
-4.999987656085072
 30
0.0
  0
HATCH
  5
9F
330
9A
100
AcDbEntity
  8
Livello 2
 62
   250
420
  1907995
440
 33554687
100
AcDbHatch
 10
0.0
 20
0.0
 30
0.0
210
0.0
220
0.0
230
1.0
  2
SOLID
 70
     1
 71
     1
 91
        1
 92
        1
 93
        1
 72
     4
 94
        3
 73
     0
 74
     0
 95
       47
 96
       43
 40
0.0
 40
0.0
 40
0.0
 40
0.0
 40
1.0
 40
1.0
 40
1.0
 40
2.0
 40
2.0
 40
2.0
 40
3.0
 40
3.0
 40
3.0
 40
4.0
 40
4.0
 40
4.0
 40
5.0
 40
5.0
 40
5.0
 40
6.0
 40
6.0
 40
6.0
 40
7.0
 40
7.0
 40
7.0
 40
8.0
 40
8.0
 40
8.0
 40
9.0
 40
9.0
 40
9.0
 40
10.0
 40
10.0
 40
10.0
 40
11.0
 40
11.0
 40
11.0
 40
12.0
 40
12.0
 40
12.0
 40
13.0
 40
13.0
 40
13.0
 40
14.0
 40
14.0
 40
14.0
 40
14.0
 10
6.918957517801509
 20
-4.999987656085072
 10
6.918957517801509
 20
-4.999987656085072
 10
6.918957517801509
 20
-4.977146673017865
 10
6.918957517801509
 20
-4.977146673017865
 10
6.918957517801509
 20
-4.977146673017865
 10
6.948171927516428
 20
-4.948793537174259
 10
6.948171927516428
 20
-4.948793537174259
 10
7.018417424460673
 20
-4.881958684760411
 10
7.050146753879823
 20
-4.846405299352634
 10
7.050560165338053
 20
-4.804926349710227
 10
7.050560165338053
 20
-4.777021076279702
 10
7.037020940081021
 20
-4.751217311095182
 10
6.995989852851695
 20
-4.751217311095182
 10
6.971012910583634
 20
-4.751217311095182
 10
6.950273435762428
 20
-4.763895262480899
 10
6.937595484376712
 20
-4.774471705620618
 10
6.937595484376712
 20
-4.774471705620618
 10
6.925744355907451
 20
-4.748254528977866
 10
6.925744355907451
 20
-4.748254528977866
 10
6.944795733940884
 20
-4.732165933061748
 10
6.971874184454947
 20
-4.72031480459249
 10
7.003603513874097
 20
-4.72031480459249
 10
7.062824705265543
 20
-4.72031480459249
 10
7.087801647533604
 20
-4.760932480363584
 10
7.087801647533604
 20
-4.800275470805138
 10
7.087801647533604
 20
-4.851056178257721
 10
7.050973576796282
 20
-4.892087265487046
 10
6.99302707073438
 20
-4.947932263302947
 10
6.99302707073438
 20
-4.947932263302947
 10
6.971012910583634
 20
-4.96825832666592
 10
6.971012910583634
 20
-4.96825832666592
 10
6.971012910583634
 20
-4.96825832666592
 10
6.971012910583634
 20
-4.96908514958238
 10
6.971012910583634
 20
-4.96908514958238
 10
6.971012910583634
 20
-4.96908514958238
 10
7.094554034684693
 20
-4.96908514958238
 10
7.094554034684693
 20
-4.96908514958238
 10
7.094554034684693
 20
-4.96908514958238
 10
7.094554034684693
 20
-4.999987656085072
 10
7.094554034684693
 20
-4.999987656085072
 10
7.094554034684693
 20
-4.999987656085072
 10
6.918957517801509
 20
-4.999987656085072
 10
6.918957517801509
 20
-4.999987656085072
 97
        1
330
9E
 75
     2
 76
     1
 98
        1
 10
0.0
 20
0.0
450
        0
451
        0
460
0.0
461
0.0
452
        0
462
0.0
453
        0
470

  0
SPLINE
  5
A0
330
9A
100
AcDbEntity
  8
Livello 2
100
AcDbSpline
210
0.0
220
0.0
230
1.0
 70
     9
 71
     3
 72
    59
 73
    55
 74
     0
 42
0.000000001
 43
0.0000000001
 40
0.0
 40
0.0
 40
0.0
 40
0.0
 40
1.0
 40
1.0
 40
1.0
 40
2.0
 40
2.0
 40
2.0
 40
3.0
 40
3.0
 40
3.0
 40
4.0
 40
4.0
 40
4.0
 40
5.0
 40
5.0
 40
5.0
 40
6.0
 40
6.0
 40
6.0
 40
7.0
 40
7.0
 40
7.0
 40
8.0
 40
8.0
 40
8.0
 40
9.0
 40
9.0
 40
9.0
 40
10.0
 40
10.0
 40
10.0
 40
11.0
 40
11.0
 40
11.0
 40
12.0
 40
12.0
 40
12.0
 40
13.0
 40
13.0
 40
13.0
 40
14.0
 40
14.0
 40
14.0
 40
15.0
 40
15.0
 40
15.0
 40
16.0
 40
16.0
 40
16.0
 40
17.0
 40
17.0
 40
17.0
 40
18.0
 40
18.0
 40
18.0
 40
18.0
 10
7.145024683543603
 20
-4.957268472067974
 30
0.0
 10
7.15560112668332
 20
-4.964020859219063
 30
0.0
 10
7.180130206538299
 20
-4.97459730235878
 30
0.0
 10
7.205968422677672
 20
-4.97459730235878
 30
0.0
 10
7.253751897058088
 20
-4.97459730235878
 30
0.0
 10
7.268565807644661
 20
-4.94414265826917
 30
0.0
 10
7.268152396186432
 20
-4.921301675201965
 30
0.0
 10
7.267738984728201
 20
-4.882785507676873
 30
0.0
 10
7.233046873191736
 20
-4.866283500302524
 30
0.0
 10
7.197080076325728
 20
-4.866283500302524
 30
0.0
 10
7.197080076325728
 20
-4.866283500302524
 30
0.0
 10
7.176340601504525
 20
-4.866283500302524
 30
0.0
 10
7.176340601504525
 20
-4.866283500302524
 30
0.0
 10
7.176340601504525
 20
-4.866283500302524
 30
0.0
 10
7.176340601504525
 20
-4.838378226872001
 30
0.0
 10
7.176340601504525
 20
-4.838378226872001
 30
0.0
 10
7.176340601504525
 20
-4.838378226872001
 30
0.0
 10
7.197080076325728
 20
-4.838378226872001
 30
0.0
 10
7.197080076325728
 20
-4.838378226872001
 30
0.0
 10
7.224158526839792
 20
-4.838378226872001
 30
0.0
 10
7.258402775963175
 20
-4.824391139201886
 30
0.0
 10
7.258402775963175
 20
-4.791834986866277
 30
0.0
 10
7.258402775963175
 20
-4.769820826715529
 30
0.0
 10
7.244450139247914
 20
-4.750356037223869
 30
0.0
 10
7.210171439169678
 20
-4.750356037223869
 30
0.0
 10
7.188191729973784
 20
-4.750356037223869
 30
0.0
 10
7.167038843694349
 20
-4.760105657447126
 30
0.0
 10
7.155187715225091
 20
-4.768546141385987
 30
0.0
 10
7.155187715225091
 20
-4.768546141385987
 30
0.0
 10
7.145438095001833
 20
-4.741467690871923
 30
0.0
 10
7.145438095001833
 20
-4.741467690871923
 30
0.0
 10
7.159838594130177
 20
-4.730891247732206
 30
0.0
 10
7.187743867560702
 20
-4.72031480459249
 30
0.0
 10
7.217371688733852
 20
-4.72031480459249
 30
0.0
 10
7.271528589761977
 20
-4.72031480459249
 30
0.0
 10
7.296057669616956
 20
-4.75245754546987
 30
0.0
 10
7.296057669616956
 20
-4.785909422631646
 30
0.0
 10
7.296057669616956
 20
-4.814262558475252
 30
0.0
 10
7.27914225078438
 20
-4.838378226872001
 30
0.0
 10
7.245311413119226
 20
-4.850642766799492
 30
0.0
 10
7.245311413119226
 20
-4.850642766799492
 30
0.0
 10
7.245311413119226
 20
-4.851469589715951
 30
0.0
 10
7.245311413119226
 20
-4.851469589715951
 30
0.0
 10
7.27914225078438
 20
-4.858256427821893
 30
0.0
 10
7.306634112756674
 20
-4.883646781548183
 30
0.0
 10
7.306634112756674
 20
-4.922128498118425
 30
0.0
 10
7.306634112756674
 20
-4.966156818419919
 30
0.0
 10
7.27238986363329
 20
-5.004638534990159
 30
0.0
 10
7.206381834135902
 20
-5.004638534990159
 30
0.0
 10
7.175479327633213
 20
-5.004638534990159
 30
0.0
 10
7.148400877119149
 20
-4.994923365721755
 30
0.0
 10
7.134861651862117
 20
-4.986035019369808
 30
0.0
 10
7.134861651862117
 20
-4.986035019369808
 30
0.0
 10
7.145024683543603
 20
-4.957268472067974
 30
0.0
 10
7.145024683543603
 20
-4.957268472067974
 30
0.0
  0
HATCH
  5
A1
330
9A
100
AcDbEntity
  8
Livello 2
 62
   250
420
  1907995
440
 33554687
100
AcDbHatch
 10
0.0
 20
0.0
 30
0.0
210
0.0
220
0.0
230
1.0
  2
SOLID
 70
     1
 71
     1
 91
        1
 92
        1
 93
        1
 72
     4
 94
        3
 73
     0
 74
     0
 95
       59
 96
       55
 40
0.0
 40
0.0
 40
0.0
 40
0.0
 40
1.0
 40
1.0
 40
1.0
 40
2.0
 40
2.0
 40
2.0
 40
3.0
 40
3.0
 40
3.0
 40
4.0
 40
4.0
 40
4.0
 40
5.0
 40
5.0
 40
5.0
 40
6.0
 40
6.0
 40
6.0
 40
7.0
 40
7.0
 40
7.0
 40
8.0
 40
8.0
 40
8.0
 40
9.0
 40
9.0
 40
9.0
 40
10.0
 40
10.0
 40
10.0
 40
11.0
 40
11.0
 40
11.0
 40
12.0
 40
12.0
 40
12.0
 40
13.0
 40
13.0
 40
13.0
 40
14.0
 40
14.0
 40
14.0
 40
15.0
 40
15.0
 40
15.0
 40
16.0
 40
16.0
 40
16.0
 40
17.0
 40
17.0
 40
17.0
 40
18.0
 40
18.0
 40
18.0
 40
18.0
 10
7.145024683543603
 20
-4.957268472067974
 10
7.15560112668332
 20
-4.964020859219063
 10
7.180130206538299
 20
-4.97459730235878
 10
7.205968422677672
 20
-4.97459730235878
 10
7.253751897058088
 20
-4.97459730235878
 10
7.268565807644661
 20
-4.94414265826917
 10
7.268152396186432
 20
-4.921301675201965
 10
7.267738984728201
 20
-4.882785507676873
 10
7.233046873191736
 20
-4.866283500302524
 10
7.197080076325728
 20
-4.866283500302524
 10
7.197080076325728
 20
-4.866283500302524
 10
7.176340601504525
 20
-4.866283500302524
 10
7.176340601504525
 20
-4.866283500302524
 10
7.176340601504525
 20
-4.866283500302524
 10
7.176340601504525
 20
-4.838378226872001
 10
7.176340601504525
 20
-4.838378226872001
 10
7.176340601504525
 20
-4.838378226872001
 10
7.197080076325728
 20
-4.838378226872001
 10
7.197080076325728
 20
-4.838378226872001
 10
7.224158526839792
 20
-4.838378226872001
 10
7.258402775963175
 20
-4.824391139201886
 10
7.258402775963175
 20
-4.791834986866277
 10
7.258402775963175
 20
-4.769820826715529
 10
7.244450139247914
 20
-4.750356037223869
 10
7.210171439169678
 20
-4.750356037223869
 10
7.188191729973784
 20
-4.750356037223869
 10
7.167038843694349
 20
-4.760105657447126
 10
7.155187715225091
 20
-4.768546141385987
 10
7.155187715225091
 20
-4.768546141385987
 10
7.145438095001833
 20
-4.741467690871923
 10
7.145438095001833
 20
-4.741467690871923
 10
7.159838594130177
 20
-4.730891247732206
 10
7.187743867560702
 20
-4.72031480459249
 10
7.217371688733852
 20
-4.72031480459249
 10
7.271528589761977
 20
-4.72031480459249
 10
7.296057669616956
 20
-4.75245754546987
 10
7.296057669616956
 20
-4.785909422631646
 10
7.296057669616956
 20
-4.814262558475252
 10
7.27914225078438
 20
-4.838378226872001
 10
7.245311413119226
 20
-4.850642766799492
 10
7.245311413119226
 20
-4.850642766799492
 10
7.245311413119226
 20
-4.851469589715951
 10
7.245311413119226
 20
-4.851469589715951
 10
7.27914225078438
 20
-4.858256427821893
 10
7.306634112756674
 20
-4.883646781548183
 10
7.306634112756674
 20
-4.922128498118425
 10
7.306634112756674
 20
-4.966156818419919
 10
7.27238986363329
 20
-5.004638534990159
 10
7.206381834135902
 20
-5.004638534990159
 10
7.175479327633213
 20
-5.004638534990159
 10
7.148400877119149
 20
-4.994923365721755
 10
7.134861651862117
 20
-4.986035019369808
 10
7.134861651862117
 20
-4.986035019369808
 10
7.145024683543603
 20
-4.957268472067974
 10
7.145024683543603
 20
-4.957268472067974
 97
        1
330
A0
 75
     2
 76
     1
 98
        1
 10
0.0
 20
0.0
450
        0
451
        0
460
0.0
461
0.0
452
        0
462
0.0
453
        0
470

  0
SPLINE
  5
A2
330
9A
100
AcDbEntity
  8
Livello 2
100
AcDbSpline
210
0.0
220
0.0
230
1.0
 70
     9
 71
     3
 72
    17
 73
    13
 74
     0
 42
0.000000001
 43
0.0000000001
 40
0.0
 40
0.0
 40
0.0
 40
0.0
 40
1.0
 40
1.0
 40
1.0
 40
2.0
 40
2.0
 40
2.0
 40
3.0
 40
3.0
 40
3.0
 40
4.0
 40
4.0
 40
4.0
 40
4.0
 10
7.386732582788732
 20
-4.863734129643439
 30
0.0
 10
7.386732582788732
 20
-4.935254311917226
 30
0.0
 10
7.408746742939477
 20
-4.975871987688322
 30
0.0
 10
7.442577580604632
 20
-4.975871987688322
 30
0.0
 10
7.480645885716642
 20
-4.975871987688322
 30
0.0
 10
7.498835989878762
 20
-4.931430255928599
 30
0.0
 10
7.498835989878762
 20
-4.861219209939208
 30
0.0
 10
7.498835989878762
 20
-4.793523083654049
 30
0.0
 10
7.481507159587955
 20
-4.749081351894326
 30
0.0
 10
7.442990992062862
 20
-4.749081351894326
 30
0.0
 10
7.410434839727251
 20
-4.749081351894326
 30
0.0
 10
7.386732582788732
 20
-4.788872204748962
 30
0.0
 10
7.386732582788732
 20
-4.863734129643439
 30
0.0
  0
SPLINE
  5
A3
330
9A
100
AcDbEntity
  8
Livello 2
100
AcDbSpline
210
0.0
220
0.0
230
1.0
 70
     9
 71
     3
 72
    17
 73
    13
 74
     0
 42
0.000000001
 43
0.0000000001
 40
0.0
 40
0.0
 40
0.0
 40
0.0
 40
1.0
 40
1.0
 40
1.0
 40
2.0
 40
2.0
 40
2.0
 40
3.0
 40
3.0
 40
3.0
 40
4.0
 40
4.0
 40
4.0
 40
4.0
 10
7.536077472074311
 20
-4.859531113151436
 30
0.0
 10
7.536077472074311
 20
-4.953031004621117
 30
0.0
 10
7.501385360537847
 20
-5.004638534990159
 30
0.0
 10
7.440476072358629
 20
-5.004638534990159
 30
0.0
 10
7.386732582788732
 20
-5.004638534990159
 30
0.0
 10
7.350352374464494
 20
-4.954305689950659
 30
0.0
 10
7.349491100593183
 20
-4.863320718185209
 30
0.0
 10
7.349491100593183
 20
-4.771095512045071
 30
0.0
 10
7.389281953447817
 20
-4.72031480459249
 30
0.0
 10
7.445126951263717
 20
-4.72031480459249
 30
0.0
 10
7.503073457325619
 20
-4.72031480459249
 30
0.0
 10
7.536077472074311
 20
-4.771922334961533
 30
0.0
 10
7.536077472074311
 20
-4.859531113151436
 30
0.0
  0
HATCH
  5
A4
330
9A
100
AcDbEntity
  8
Livello 2
 62
   250
420
  1907995
440
 33554687
100
AcDbHatch
 10
0.0
 20
0.0
 30
0.0
210
0.0
220
0.0
230
1.0
  2
SOLID
 70
     1
 71
     1
 91
        2
 92
        1
 93
        1
 72
     4
 94
        3
 73
     0
 74
     0
 95
       17
 96
       13
 40
0.0
 40
0.0
 40
0.0
 40
0.0
 40
1.0
 40
1.0
 40
1.0
 40
2.0
 40
2.0
 40
2.0
 40
3.0
 40
3.0
 40
3.0
 40
4.0
 40
4.0
 40
4.0
 40
4.0
 10
7.386732582788732
 20
-4.863734129643439
 10
7.386732582788732
 20
-4.935254311917226
 10
7.408746742939477
 20
-4.975871987688322
 10
7.442577580604632
 20
-4.975871987688322
 10
7.480645885716642
 20
-4.975871987688322
 10
7.498835989878762
 20
-4.931430255928599
 10
7.498835989878762
 20
-4.861219209939208
 10
7.498835989878762
 20
-4.793523083654049
 10
7.481507159587955
 20
-4.749081351894326
 10
7.442990992062862
 20
-4.749081351894326
 10
7.410434839727251
 20
-4.749081351894326
 10
7.386732582788732
 20
-4.788872204748962
 10
7.386732582788732
 20
-4.863734129643439
 97
        1
330
A2
 92
        1
 93
        1
 72
     4
 94
        3
 73
     0
 74
     0
 95
       17
 96
       13
 40
0.0
 40
0.0
 40
0.0
 40
0.0
 40
1.0
 40
1.0
 40
1.0
 40
2.0
 40
2.0
 40
2.0
 40
3.0
 40
3.0
 40
3.0
 40
4.0
 40
4.0
 40
4.0
 40
4.0
 10
7.536077472074311
 20
-4.859531113151436
 10
7.536077472074311
 20
-4.953031004621117
 10
7.501385360537847
 20
-5.004638534990159
 10
7.440476072358629
 20
-5.004638534990159
 10
7.386732582788732
 20
-5.004638534990159
 10
7.350352374464494
 20
-4.954305689950659
 10
7.349491100593183
 20
-4.863320718185209
 10
7.349491100593183
 20
-4.771095512045071
 10
7.389281953447817
 20
-4.72031480459249
 10
7.445126951263717
 20
-4.72031480459249
 10
7.503073457325619
 20
-4.72031480459249
 10
7.536077472074311
 20
-4.771922334961533
 10
7.536077472074311
 20
-4.859531113151436
 97
        1
330
A3
 75
     2
 76
     1
 98
        1
 10
0.0
 20
0.0
450
        0
451
        0
460
0.0
461
0.0
452
        0
462
0.0
453
        0
470

  0
SPLINE
  5
A5
330
9A
100
AcDbEntity
  8
Livello 2
100
AcDbSpline
210
0.0
220
0.0
230
1.0
 70
     9
 71
     3
 72
    17
 73
    13
 74
     0
 42
0.000000001
 43
0.0000000001
 40
0.0
 40
0.0
 40
0.0
 40
0.0
 40
1.0
 40
1.0
 40
1.0
 40
2.0
 40
2.0
 40
2.0
 40
3.0
 40
3.0
 40
3.0
 40
4.0
 40
4.0
 40
4.0
 40
4.0
 10
7.603911402178882
 20
-4.863734129643439
 30
0.0
 10
7.603911402178882
 20
-4.935254311917226
 30
0.0
 10
7.625925562329628
 20
-4.975871987688322
 30
0.0
 10
7.659756399994781
 20
-4.975871987688322
 30
0.0
 10
7.697824705106792
 20
-4.975871987688322
 30
0.0
 10
7.716014809268911
 20
-4.931430255928599
 30
0.0
 10
7.716014809268911
 20
-4.861219209939208
 30
0.0
 10
7.716014809268911
 20
-4.793523083654049
 30
0.0
 10
7.698685978978105
 20
-4.749081351894326
 30
0.0
 10
7.660169811453012
 20
-4.749081351894326
 30
0.0
 10
7.627613659117401
 20
-4.749081351894326
 30
0.0
 10
7.603911402178882
 20
-4.788872204748962
 30
0.0
 10
7.603911402178882
 20
-4.863734129643439
 30
0.0
  0
SPLINE
  5
A6
330
9A
100
AcDbEntity
  8
Livello 2
100
AcDbSpline
210
0.0
220
0.0
230
1.0
 70
     9
 71
     3
 72
    17
 73
    13
 74
     0
 42
0.000000001
 43
0.0000000001
 40
0.0
 40
0.0
 40
0.0
 40
0.0
 40
1.0
 40
1.0
 40
1.0
 40
2.0
 40
2.0
 40
2.0
 40
3.0
 40
3.0
 40
3.0
 40
4.0
 40
4.0
 40
4.0
 40
4.0
 10
7.753256291464463
 20
-4.859531113151436
 30
0.0
 10
7.753256291464463
 20
-4.953031004621117
 30
0.0
 10
7.718564179927997
 20
-5.004638534990159
 30
0.0
 10
7.657654891748779
 20
-5.004638534990159
 30
0.0
 10
7.603911402178882
 20
-5.004638534990159
 30
0.0
 10
7.567531193854643
 20
-4.954305689950659
 30
0.0
 10
7.566669919983332
 20
-4.863320718185209
 30
0.0
 10
7.566669919983332
 20
-4.771095512045071
 30
0.0
 10
7.606460772837968
 20
-4.72031480459249
 30
0.0
 10
7.662305770653867
 20
-4.72031480459249
 30
0.0
 10
7.720252276715768
 20
-4.72031480459249
 30
0.0
 10
7.753256291464463
 20
-4.771922334961533
 30
0.0
 10
7.753256291464463
 20
-4.859531113151436
 30
0.0
  0
HATCH
  5
A7
330
9A
100
AcDbEntity
  8
Livello 2
 62
   250
420
  1907995
440
 33554687
100
AcDbHatch
 10
0.0
 20
0.0
 30
0.0
210
0.0
220
0.0
230
1.0
  2
SOLID
 70
     1
 71
     1
 91
        2
 92
        1
 93
        1
 72
     4
 94
        3
 73
     0
 74
     0
 95
       17
 96
       13
 40
0.0
 40
0.0
 40
0.0
 40
0.0
 40
1.0
 40
1.0
 40
1.0
 40
2.0
 40
2.0
 40
2.0
 40
3.0
 40
3.0
 40
3.0
 40
4.0
 40
4.0
 40
4.0
 40
4.0
 10
7.603911402178882
 20
-4.863734129643439
 10
7.603911402178882
 20
-4.935254311917226
 10
7.625925562329628
 20
-4.975871987688322
 10
7.659756399994781
 20
-4.975871987688322
 10
7.697824705106792
 20
-4.975871987688322
 10
7.716014809268911
 20
-4.931430255928599
 10
7.716014809268911
 20
-4.861219209939208
 10
7.716014809268911
 20
-4.793523083654049
 10
7.698685978978105
 20
-4.749081351894326
 10
7.660169811453012
 20
-4.749081351894326
 10
7.627613659117401
 20
-4.749081351894326
 10
7.603911402178882
 20
-4.788872204748962
 10
7.603911402178882
 20
-4.863734129643439
 97
        1
330
A5
 92
        1
 93
        1
 72
     4
 94
        3
 73
     0
 74
     0
 95
       17
 96
       13
 40
0.0
 40
0.0
 40
0.0
 40
0.0
 40
1.0
 40
1.0
 40
1.0
 40
2.0
 40
2.0
 40
2.0
 40
3.0
 40
3.0
 40
3.0
 40
4.0
 40
4.0
 40
4.0
 40
4.0
 10
7.753256291464463
 20
-4.859531113151436
 10
7.753256291464463
 20
-4.953031004621117
 10
7.718564179927997
 20
-5.004638534990159
 10
7.657654891748779
 20
-5.004638534990159
 10
7.603911402178882
 20
-5.004638534990159
 10
7.567531193854643
 20
-4.954305689950659
 10
7.566669919983332
 20
-4.863320718185209
 10
7.566669919983332
 20
-4.771095512045071
 10
7.606460772837968
 20
-4.72031480459249
 10
7.662305770653867
 20
-4.72031480459249
 10
7.720252276715768
 20
-4.72031480459249
 10
7.753256291464463
 20
-4.771922334961533
 10
7.753256291464463
 20
-4.859531113151436
 97
        1
330
A6
 75
     2
 76
     1
 98
        1
 10
0.0
 20
0.0
450
        0
451
        0
460
0.0
461
0.0
452
        0
462
0.0
453
        0
470

  0
SPLINE
  5
A8
330
9A
100
AcDbEntity
  8
Livello 2
100
AcDbSpline
210
0.0
220
0.0
230
1.0
 70
     9
 71
     3
 72
    80
 73
    76
 74
     0
 42
0.000000001
 43
0.0000000001
 40
0.0
 40
0.0
 40
0.0
 40
0.0
 40
1.0
 40
1.0
 40
1.0
 40
2.0
 40
2.0
 40
2.0
 40
3.0
 40
3.0
 40
3.0
 40
4.0
 40
4.0
 40
4.0
 40
5.0
 40
5.0
 40
5.0
 40
6.0
 40
6.0
 40
6.0
 40
7.0
 40
7.0
 40
7.0
 40
8.0
 40
8.0
 40
8.0
 40
9.0
 40
9.0
 40
9.0
 40
10.0
 40
10.0
 40
10.0
 40
11.0
 40
11.0
 40
11.0
 40
12.0
 40
12.0
 40
12.0
 40
13.0
 40
13.0
 40
13.0
 40
14.0
 40
14.0
 40
14.0
 40
15.0
 40
15.0
 40
15.0
 40
16.0
 40
16.0
 40
16.0
 40
17.0
 40
17.0
 40
17.0
 40
18.0
 40
18.0
 40
18.0
 40
19.0
 40
19.0
 40
19.0
 40
20.0
 40
20.0
 40
20.0
 40
21.0
 40
21.0
 40
21.0
 40
22.0
 40
22.0
 40
22.0
 40
23.0
 40
23.0
 40
23.0
 40
24.0
 40
24.0
 40
24.0
 40
25.0
 40
25.0
 40
25.0
 40
25.0
 10
7.889234210267272
 20
-4.850642766799492
 30
0.0
 10
7.889234210267272
 20
-4.829489880520056
 30
0.0
 10
7.888786347854191
 20
-4.812126599274399
 30
0.0
 10
7.887511662524649
 20
-4.795211180441821
 30
0.0
 10
7.887511662524649
 20
-4.795211180441821
 30
0.0
 10
7.920102265815113
 20
-4.795211180441821
 30
0.0
 10
7.920102265815113
 20
-4.795211180441821
 30
0.0
 10
7.920102265815113
 20
-4.795211180441821
 30
0.0
 10
7.921790362602885
 20
-4.828215195190514
 30
0.0
 10
7.921790362602885
 20
-4.828215195190514
 30
0.0
 10
7.921790362602885
 20
-4.828215195190514
 30
0.0
 10
7.923065047932428
 20
-4.828215195190514
 30
0.0
 10
7.923065047932428
 20
-4.828215195190514
 30
0.0
 10
7.934502764943456
 20
-4.808750405698853
 30
0.0
 10
7.953519692022036
 20
-4.790560301536733
 30
0.0
 10
7.98738498064204
 20
-4.790560301536733
 30
0.0
 10
8.015290254072564
 20
-4.790560301536733
 30
0.0
 10
8.036443140352
 20
-4.807475720369311
 30
0.0
 10
8.045331486703942
 20
-4.831591388766058
 30
0.0
 10
8.045331486703942
 20
-4.831591388766058
 30
0.0
 10
8.046192760575257
 20
-4.831591388766058
 30
0.0
 10
8.046192760575257
 20
-4.831591388766058
 30
0.0
 10
8.052531736268116
 20
-4.820153671755029
 30
0.0
 10
8.060558808748746
 20
-4.811299776357938
 30
0.0
 10
8.069033743642462
 20
-4.804926349710227
 30
0.0
 10
8.081298283569951
 20
-4.79562459190005
 30
0.0
 10
8.094837508826982
 20
-4.790560301536733
 30
0.0
 10
8.114302298318646
 20
-4.790560301536733
 30
0.0
 10
8.141380748832709
 20
-4.790560301536733
 30
0.0
 10
8.181585013145575
 20
-4.808336994240622
 30
0.0
 10
8.181585013145575
 20
-4.879409314101327
 30
0.0
 10
8.181585013145575
 20
-4.879409314101327
 30
0.0
 10
8.181585013145575
 20
-4.999987656085072
 30
0.0
 10
8.181585013145575
 20
-4.999987656085072
 30
0.0
 10
8.181585013145575
 20
-4.999987656085072
 30
0.0
 10
8.145204804821336
 20
-4.999987656085072
 30
0.0
 10
8.145204804821336
 20
-4.999987656085072
 30
0.0
 10
8.145204804821336
 20
-4.999987656085072
 30
0.0
 10
8.145204804821336
 20
-4.884060193006415
 30
0.0
 10
8.145204804821336
 20
-4.884060193006415
 30
0.0
 10
8.145204804821336
 20
-4.844717202564861
 30
0.0
 10
8.130804305692992
 20
-4.821014945626342
 30
0.0
 10
8.100763073061612
 20
-4.821014945626342
 30
0.0
 10
8.079610186782179
 20
-4.821014945626342
 30
0.0
 10
8.063108179407834
 20
-4.836655679129377
 30
0.0
 10
8.056769203714972
 20
-4.854880234246349
 30
0.0
 10
8.0550811069272
 20
-4.859944524609665
 30
0.0
 10
8.053806421597659
 20
-4.866696911760755
 30
0.0
 10
8.053806421597659
 20
-4.873483749866696
 30
0.0
 10
8.053806421597659
 20
-4.873483749866696
 30
0.0
 10
8.053806421597659
 20
-4.999987656085072
 30
0.0
 10
8.053806421597659
 20
-4.999987656085072
 30
0.0
 10
8.053806421597659
 20
-4.999987656085072
 30
0.0
 10
8.01742621327342
 20
-4.999987656085072
 30
0.0
 10
8.01742621327342
 20
-4.999987656085072
 30
0.0
 10
8.01742621327342
 20
-4.999987656085072
 30
0.0
 10
8.01742621327342
 20
-4.877273354900473
 30
0.0
 10
8.01742621327342
 20
-4.877273354900473
 30
0.0
 10
8.01742621327342
 20
-4.844717202564861
 30
0.0
 10
8.003025714145076
 20
-4.821014945626342
 30
0.0
 10
7.974672578301468
 20
-4.821014945626342
 30
0.0
 10
7.951418183776032
 20
-4.821014945626342
 30
0.0
 10
7.934502764943456
 20
-4.839618461246691
 30
0.0
 10
7.928577200708827
 20
-4.858256427821893
 30
0.0
 10
7.926441241507972
 20
-4.863734129643439
 30
0.0
 10
7.925614418591512
 20
-4.870107556291153
 30
0.0
 10
7.925614418591512
 20
-4.876446531984011
 30
0.0
 10
7.925614418591512
 20
-4.876446531984011
 30
0.0
 10
7.925614418591512
 20
-4.999987656085072
 30
0.0
 10
7.925614418591512
 20
-4.999987656085072
 30
0.0
 10
7.925614418591512
 20
-4.999987656085072
 30
0.0
 10
7.889234210267272
 20
-4.999987656085072
 30
0.0
 10
7.889234210267272
 20
-4.999987656085072
 30
0.0
 10
7.889234210267272
 20
-4.999987656085072
 30
0.0
 10
7.889234210267272
 20
-4.850642766799492
 30
0.0
 10
7.889234210267272
 20
-4.850642766799492
 30
0.0
  0
HATCH
  5
A9
330
9A
100
AcDbEntity
  8
Livello 2
 62
   250
420
  1907995
440
 33554687
100
AcDbHatch
 10
0.0
 20
0.0
 30
0.0
210
0.0
220
0.0
230
1.0
  2
SOLID
 70
     1
 71
     1
 91
        1
 92
        1
 93
        1
 72
     4
 94
        3
 73
     0
 74
     0
 95
       80
 96
       76
 40
0.0
 40
0.0
 40
0.0
 40
0.0
 40
1.0
 40
1.0
 40
1.0
 40
2.0
 40
2.0
 40
2.0
 40
3.0
 40
3.0
 40
3.0
 40
4.0
 40
4.0
 40
4.0
 40
5.0
 40
5.0
 40
5.0
 40
6.0
 40
6.0
 40
6.0
 40
7.0
 40
7.0
 40
7.0
 40
8.0
 40
8.0
 40
8.0
 40
9.0
 40
9.0
 40
9.0
 40
10.0
 40
10.0
 40
10.0
 40
11.0
 40
11.0
 40
11.0
 40
12.0
 40
12.0
 40
12.0
 40
13.0
 40
13.0
 40
13.0
 40
14.0
 40
14.0
 40
14.0
 40
15.0
 40
15.0
 40
15.0
 40
16.0
 40
16.0
 40
16.0
 40
17.0
 40
17.0
 40
17.0
 40
18.0
 40
18.0
 40
18.0
 40
19.0
 40
19.0
 40
19.0
 40
20.0
 40
20.0
 40
20.0
 40
21.0
 40
21.0
 40
21.0
 40
22.0
 40
22.0
 40
22.0
 40
23.0
 40
23.0
 40
23.0
 40
24.0
 40
24.0
 40
24.0
 40
25.0
 40
25.0
 40
25.0
 40
25.0
 10
7.889234210267272
 20
-4.850642766799492
 10
7.889234210267272
 20
-4.829489880520056
 10
7.888786347854191
 20
-4.812126599274399
 10
7.887511662524649
 20
-4.795211180441821
 10
7.887511662524649
 20
-4.795211180441821
 10
7.920102265815113
 20
-4.795211180441821
 10
7.920102265815113
 20
-4.795211180441821
 10
7.920102265815113
 20
-4.795211180441821
 10
7.921790362602885
 20
-4.828215195190514
 10
7.921790362602885
 20
-4.828215195190514
 10
7.921790362602885
 20
-4.828215195190514
 10
7.923065047932428
 20
-4.828215195190514
 10
7.923065047932428
 20
-4.828215195190514
 10
7.934502764943456
 20
-4.808750405698853
 10
7.953519692022036
 20
-4.790560301536733
 10
7.98738498064204
 20
-4.790560301536733
 10
8.015290254072564
 20
-4.790560301536733
 10
8.036443140352
 20
-4.807475720369311
 10
8.045331486703942
 20
-4.831591388766058
 10
8.045331486703942
 20
-4.831591388766058
 10
8.046192760575257
 20
-4.831591388766058
 10
8.046192760575257
 20
-4.831591388766058
 10
8.052531736268116
 20
-4.820153671755029
 10
8.060558808748746
 20
-4.811299776357938
 10
8.069033743642462
 20
-4.804926349710227
 10
8.081298283569951
 20
-4.79562459190005
 10
8.094837508826982
 20
-4.790560301536733
 10
8.114302298318646
 20
-4.790560301536733
 10
8.141380748832709
 20
-4.790560301536733
 10
8.181585013145575
 20
-4.808336994240622
 10
8.181585013145575
 20
-4.879409314101327
 10
8.181585013145575
 20
-4.879409314101327
 10
8.181585013145575
 20
-4.999987656085072
 10
8.181585013145575
 20
-4.999987656085072
 10
8.181585013145575
 20
-4.999987656085072
 10
8.145204804821336
 20
-4.999987656085072
 10
8.145204804821336
 20
-4.999987656085072
 10
8.145204804821336
 20
-4.999987656085072
 10
8.145204804821336
 20
-4.884060193006415
 10
8.145204804821336
 20
-4.884060193006415
 10
8.145204804821336
 20
-4.844717202564861
 10
8.130804305692992
 20
-4.821014945626342
 10
8.100763073061612
 20
-4.821014945626342
 10
8.079610186782179
 20
-4.821014945626342
 10
8.063108179407834
 20
-4.836655679129377
 10
8.056769203714972
 20
-4.854880234246349
 10
8.0550811069272
 20
-4.859944524609665
 10
8.053806421597659
 20
-4.866696911760755
 10
8.053806421597659
 20
-4.873483749866696
 10
8.053806421597659
 20
-4.873483749866696
 10
8.053806421597659
 20
-4.999987656085072
 10
8.053806421597659
 20
-4.999987656085072
 10
8.053806421597659
 20
-4.999987656085072
 10
8.01742621327342
 20
-4.999987656085072
 10
8.01742621327342
 20
-4.999987656085072
 10
8.01742621327342
 20
-4.999987656085072
 10
8.01742621327342
 20
-4.877273354900473
 10
8.01742621327342
 20
-4.877273354900473
 10
8.01742621327342
 20
-4.844717202564861
 10
8.003025714145076
 20
-4.821014945626342
 10
7.974672578301468
 20
-4.821014945626342
 10
7.951418183776032
 20
-4.821014945626342
 10
7.934502764943456
 20
-4.839618461246691
 10
7.928577200708827
 20
-4.858256427821893
 10
7.926441241507972
 20
-4.863734129643439
 10
7.925614418591512
 20
-4.870107556291153
 10
7.925614418591512
 20
-4.876446531984011
 10
7.925614418591512
 20
-4.876446531984011
 10
7.925614418591512
 20
-4.999987656085072
 10
7.925614418591512
 20
-4.999987656085072
 10
7.925614418591512
 20
-4.999987656085072
 10
7.889234210267272
 20
-4.999987656085072
 10
7.889234210267272
 20
-4.999987656085072
 10
7.889234210267272
 20
-4.999987656085072
 10
7.889234210267272
 20
-4.850642766799492
 10
7.889234210267272
 20
-4.850642766799492
 97
        1
330
A8
 75
     2
 76
     1
 98
        1
 10
0.0
 20
0.0
450
        0
451
        0
460
0.0
461
0.0
452
        0
462
0.0
453
        0
470

  0
SPLINE
  5
AA
330
9A
100
AcDbEntity
  8
Livello 2
100
AcDbSpline
210
0.0
220
0.0
230
1.0
 70
     9
 71
     3
 72
    80
 73
    76
 74
     0
 42
0.000000001
 43
0.0000000001
 40
0.0
 40
0.0
 40
0.0
 40
0.0
 40
1.0
 40
1.0
 40
1.0
 40
2.0
 40
2.0
 40
2.0
 40
3.0
 40
3.0
 40
3.0
 40
4.0
 40
4.0
 40
4.0
 40
5.0
 40
5.0
 40
5.0
 40
6.0
 40
6.0
 40
6.0
 40
7.0
 40
7.0
 40
7.0
 40
8.0
 40
8.0
 40
8.0
 40
9.0
 40
9.0
 40
9.0
 40
10.0
 40
10.0
 40
10.0
 40
11.0
 40
11.0
 40
11.0
 40
12.0
 40
12.0
 40
12.0
 40
13.0
 40
13.0
 40
13.0
 40
14.0
 40
14.0
 40
14.0
 40
15.0
 40
15.0
 40
15.0
 40
16.0
 40
16.0
 40
16.0
 40
17.0
 40
17.0
 40
17.0
 40
18.0
 40
18.0
 40
18.0
 40
19.0
 40
19.0
 40
19.0
 40
20.0
 40
20.0
 40
20.0
 40
21.0
 40
21.0
 40
21.0
 40
22.0
 40
22.0
 40
22.0
 40
23.0
 40
23.0
 40
23.0
 40
24.0
 40
24.0
 40
24.0
 40
25.0
 40
25.0
 40
25.0
 40
25.0
 10
8.242287595595675
 20
-4.850642766799492
 30
0.0
 10
8.242287595595675
 20
-4.829489880520056
 30
0.0
 10
8.241839733182594
 20
-4.812126599274399
 30
0.0
 10
8.240565047853053
 20
-4.795211180441821
 30
0.0
 10
8.240565047853053
 20
-4.795211180441821
 30
0.0
 10
8.273155651143516
 20
-4.795211180441821
 30
0.0
 10
8.273155651143516
 20
-4.795211180441821
 30
0.0
 10
8.273155651143516
 20
-4.795211180441821
 30
0.0
 10
8.274843747931289
 20
-4.828215195190514
 30
0.0
 10
8.274843747931289
 20
-4.828215195190514
 30
0.0
 10
8.274843747931289
 20
-4.828215195190514
 30
0.0
 10
8.27611843326083
 20
-4.828215195190514
 30
0.0
 10
8.27611843326083
 20
-4.828215195190514
 30
0.0
 10
8.287556150271861
 20
-4.808750405698853
 30
0.0
 10
8.306573077350439
 20
-4.790560301536733
 30
0.0
 10
8.340438365970445
 20
-4.790560301536733
 30
0.0
 10
8.368343639400967
 20
-4.790560301536733
 30
0.0
 10
8.389496525680401
 20
-4.807475720369311
 30
0.0
 10
8.398384872032346
 20
-4.831591388766058
 30
0.0
 10
8.398384872032346
 20
-4.831591388766058
 30
0.0
 10
8.39924614590366
 20
-4.831591388766058
 30
0.0
 10
8.39924614590366
 20
-4.831591388766058
 30
0.0
 10
8.405585121596518
 20
-4.820153671755029
 30
0.0
 10
8.413612194077151
 20
-4.811299776357938
 30
0.0
 10
8.422087128970867
 20
-4.804926349710227
 30
0.0
 10
8.434351668898356
 20
-4.79562459190005
 30
0.0
 10
8.447890894155387
 20
-4.790560301536733
 30
0.0
 10
8.467355683647047
 20
-4.790560301536733
 30
0.0
 10
8.494434134161112
 20
-4.790560301536733
 30
0.0
 10
8.534638398473978
 20
-4.808336994240622
 30
0.0
 10
8.534638398473978
 20
-4.879409314101327
 30
0.0
 10
8.534638398473978
 20
-4.879409314101327
 30
0.0
 10
8.534638398473978
 20
-4.999987656085072
 30
0.0
 10
8.534638398473978
 20
-4.999987656085072
 30
0.0
 10
8.534638398473978
 20
-4.999987656085072
 30
0.0
 10
8.498258190149741
 20
-4.999987656085072
 30
0.0
 10
8.498258190149741
 20
-4.999987656085072
 30
0.0
 10
8.498258190149741
 20
-4.999987656085072
 30
0.0
 10
8.498258190149741
 20
-4.884060193006415
 30
0.0
 10
8.498258190149741
 20
-4.884060193006415
 30
0.0
 10
8.498258190149741
 20
-4.844717202564861
 30
0.0
 10
8.483857691021395
 20
-4.821014945626342
 30
0.0
 10
8.453816458390017
 20
-4.821014945626342
 30
0.0
 10
8.432663572110582
 20
-4.821014945626342
 30
0.0
 10
8.416161564736237
 20
-4.836655679129377
 30
0.0
 10
8.409822589043377
 20
-4.854880234246349
 30
0.0
 10
8.408134492255603
 20
-4.859944524609665
 30
0.0
 10
8.406859806926062
 20
-4.866696911760755
 30
0.0
 10
8.406859806926062
 20
-4.873483749866696
 30
0.0
 10
8.406859806926062
 20
-4.873483749866696
 30
0.0
 10
8.406859806926062
 20
-4.999987656085072
 30
0.0
 10
8.406859806926062
 20
-4.999987656085072
 30
0.0
 10
8.406859806926062
 20
-4.999987656085072
 30
0.0
 10
8.370479598601823
 20
-4.999987656085072
 30
0.0
 10
8.370479598601823
 20
-4.999987656085072
 30
0.0
 10
8.370479598601823
 20
-4.999987656085072
 30
0.0
 10
8.370479598601823
 20
-4.877273354900473
 30
0.0
 10
8.370479598601823
 20
-4.877273354900473
 30
0.0
 10
8.370479598601823
 20
-4.844717202564861
 30
0.0
 10
8.356079099473479
 20
-4.821014945626342
 30
0.0
 10
8.327725963629871
 20
-4.821014945626342
 30
0.0
 10
8.304471569104437
 20
-4.821014945626342
 30
0.0
 10
8.287556150271861
 20
-4.839618461246691
 30
0.0
 10
8.281630586037231
 20
-4.858256427821893
 30
0.0
 10
8.279494626836376
 20
-4.863734129643439
 30
0.0
 10
8.278667803919914
 20
-4.870107556291153
 30
0.0
 10
8.278667803919914
 20
-4.876446531984011
 30
0.0
 10
8.278667803919914
 20
-4.876446531984011
 30
0.0
 10
8.278667803919914
 20
-4.999987656085072
 30
0.0
 10
8.278667803919914
 20
-4.999987656085072
 30
0.0
 10
8.278667803919914
 20
-4.999987656085072
 30
0.0
 10
8.242287595595675
 20
-4.999987656085072
 30
0.0
 10
8.242287595595675
 20
-4.999987656085072
 30
0.0
 10
8.242287595595675
 20
-4.999987656085072
 30
0.0
 10
8.242287595595675
 20
-4.850642766799492
 30
0.0
 10
8.242287595595675
 20
-4.850642766799492
 30
0.0
  0
HATCH
  5
AB
330
9A
100
AcDbEntity
  8
Livello 2
 62
   250
420
  1907995
440
 33554687
100
AcDbHatch
 10
0.0
 20
0.0
 30
0.0
210
0.0
220
0.0
230
1.0
  2
SOLID
 70
     1
 71
     1
 91
        1
 92
        1
 93
        1
 72
     4
 94
        3
 73
     0
 74
     0
 95
       80
 96
       76
 40
0.0
 40
0.0
 40
0.0
 40
0.0
 40
1.0
 40
1.0
 40
1.0
 40
2.0
 40
2.0
 40
2.0
 40
3.0
 40
3.0
 40
3.0
 40
4.0
 40
4.0
 40
4.0
 40
5.0
 40
5.0
 40
5.0
 40
6.0
 40
6.0
 40
6.0
 40
7.0
 40
7.0
 40
7.0
 40
8.0
 40
8.0
 40
8.0
 40
9.0
 40
9.0
 40
9.0
 40
10.0
 40
10.0
 40
10.0
 40
11.0
 40
11.0
 40
11.0
 40
12.0
 40
12.0
 40
12.0
 40
13.0
 40
13.0
 40
13.0
 40
14.0
 40
14.0
 40
14.0
 40
15.0
 40
15.0
 40
15.0
 40
16.0
 40
16.0
 40
16.0
 40
17.0
 40
17.0
 40
17.0
 40
18.0
 40
18.0
 40
18.0
 40
19.0
 40
19.0
 40
19.0
 40
20.0
 40
20.0
 40
20.0
 40
21.0
 40
21.0
 40
21.0
 40
22.0
 40
22.0
 40
22.0
 40
23.0
 40
23.0
 40
23.0
 40
24.0
 40
24.0
 40
24.0
 40
25.0
 40
25.0
 40
25.0
 40
25.0
 10
8.242287595595675
 20
-4.850642766799492
 10
8.242287595595675
 20
-4.829489880520056
 10
8.241839733182594
 20
-4.812126599274399
 10
8.240565047853053
 20
-4.795211180441821
 10
8.240565047853053
 20
-4.795211180441821
 10
8.273155651143516
 20
-4.795211180441821
 10
8.273155651143516
 20
-4.795211180441821
 10
8.273155651143516
 20
-4.795211180441821
 10
8.274843747931289
 20
-4.828215195190514
 10
8.274843747931289
 20
-4.828215195190514
 10
8.274843747931289
 20
-4.828215195190514
 10
8.27611843326083
 20
-4.828215195190514
 10
8.27611843326083
 20
-4.828215195190514
 10
8.287556150271861
 20
-4.808750405698853
 10
8.306573077350439
 20
-4.790560301536733
 10
8.340438365970445
 20
-4.790560301536733
 10
8.368343639400967
 20
-4.790560301536733
 10
8.389496525680401
 20
-4.807475720369311
 10
8.398384872032346
 20
-4.831591388766058
 10
8.398384872032346
 20
-4.831591388766058
 10
8.39924614590366
 20
-4.831591388766058
 10
8.39924614590366
 20
-4.831591388766058
 10
8.405585121596518
 20
-4.820153671755029
 10
8.413612194077151
 20
-4.811299776357938
 10
8.422087128970867
 20
-4.804926349710227
 10
8.434351668898356
 20
-4.79562459190005
 10
8.447890894155387
 20
-4.790560301536733
 10
8.467355683647047
 20
-4.790560301536733
 10
8.494434134161112
 20
-4.790560301536733
 10
8.534638398473978
 20
-4.808336994240622
 10
8.534638398473978
 20
-4.879409314101327
 10
8.534638398473978
 20
-4.879409314101327
 10
8.534638398473978
 20
-4.999987656085072
 10
8.534638398473978
 20
-4.999987656085072
 10
8.534638398473978
 20
-4.999987656085072
 10
8.498258190149741
 20
-4.999987656085072
 10
8.498258190149741
 20
-4.999987656085072
 10
8.498258190149741
 20
-4.999987656085072
 10
8.498258190149741
 20
-4.884060193006415
 10
8.498258190149741
 20
-4.884060193006415
 10
8.498258190149741
 20
-4.844717202564861
 10
8.483857691021395
 20
-4.821014945626342
 10
8.453816458390017
 20
-4.821014945626342
 10
8.432663572110582
 20
-4.821014945626342
 10
8.416161564736237
 20
-4.836655679129377
 10
8.409822589043377
 20
-4.854880234246349
 10
8.408134492255603
 20
-4.859944524609665
 10
8.406859806926062
 20
-4.866696911760755
 10
8.406859806926062
 20
-4.873483749866696
 10
8.406859806926062
 20
-4.873483749866696
 10
8.406859806926062
 20
-4.999987656085072
 10
8.406859806926062
 20
-4.999987656085072
 10
8.406859806926062
 20
-4.999987656085072
 10
8.370479598601823
 20
-4.999987656085072
 10
8.370479598601823
 20
-4.999987656085072
 10
8.370479598601823
 20
-4.999987656085072
 10
8.370479598601823
 20
-4.877273354900473
 10
8.370479598601823
 20
-4.877273354900473
 10
8.370479598601823
 20
-4.844717202564861
 10
8.356079099473479
 20
-4.821014945626342
 10
8.327725963629871
 20
-4.821014945626342
 10
8.304471569104437
 20
-4.821014945626342
 10
8.287556150271861
 20
-4.839618461246691
 10
8.281630586037231
 20
-4.858256427821893
 10
8.279494626836376
 20
-4.863734129643439
 10
8.278667803919914
 20
-4.870107556291153
 10
8.278667803919914
 20
-4.876446531984011
 10
8.278667803919914
 20
-4.876446531984011
 10
8.278667803919914
 20
-4.999987656085072
 10
8.278667803919914
 20
-4.999987656085072
 10
8.278667803919914
 20
-4.999987656085072
 10
8.242287595595675
 20
-4.999987656085072
 10
8.242287595595675
 20
-4.999987656085072
 10
8.242287595595675
 20
-4.999987656085072
 10
8.242287595595675
 20
-4.850642766799492
 10
8.242287595595675
 20
-4.850642766799492
 97
        1
330
AA
 75
     2
 76
     1
 98
        1
 10
0.0
 20
0.0
450
        0
451
        0
460
0.0
461
0.0
452
        0
462
0.0
453
        0
470

  0
ENDBLK
  5
9D
330
9A
100
AcDbEntity
  8
0
100
AcDbBlockEnd
  0
BLOCK
  5
AE
330
AC
100
AcDbEntity
  8
0
100
AcDbBlockBegin
  2
Block_4
 70
     0
 10
0.0
 20
0.0
 30
0.0
  3
Block_4
  1

  0
INSERT
  5
B1
330
AC
100
AcDbEntity
  8
Livello 2
100
AcDbBlockReference
  2
Block_5
 10
0.0
 20
0.0
 30
0.0
  0
ENDBLK
  5
AF
330
AC
100
AcDbEntity
  8
0
100
AcDbBlockEnd
  0
BLOCK
  5
B2
330
B0
100
AcDbEntity
  8
0
100
AcDbBlockBegin
  2
Block_5
 70
     0
 10
0.0
 20
0.0
 30
0.0
  3
Block_5
  1

  0
SPLINE
  5
B4
330
B0
100
AcDbEntity
  8
Livello 2
100
AcDbSpline
210
0.0
220
0.0
230
1.0
 70
    11
 71
     3
 72
    29
 73
    25
 74
     0
 42
0.000000001
 43
0.0000000001
 40
0.0
 40
0.0
 40
0.0
 40
0.0
 40
1.0
 40
1.0
 40
1.0
 40
2.0
 40
2.0
 40
2.0
 40
3.0
 40
3.0
 40
3.0
 40
4.0
 40
4.0
 40
4.0
 40
5.0
 40
5.0
 40
5.0
 40
6.0
 40
6.0
 40
6.0
 40
7.0
 40
7.0
 40
7.0
 40
8.0
 40
8.0
 40
8.0
 40
8.0
 10
1.540543348139168
 20
-7.128384872349847
 30
0.0
 10
1.540543348139168
 20
-7.128384872349847
 30
0.0
 10
1.539699299745283
 20
-7.128384872349847
 30
0.0
 10
1.539699299745283
 20
-7.128384872349847
 30
0.0
 10
1.539699299745283
 20
-7.128384872349847
 30
0.0
 10
1.491881374410014
 20
-7.154188637534367
 30
0.0
 10
1.491881374410014
 20
-7.154188637534367
 30
0.0
 10
1.491881374410014
 20
-7.154188637534367
 30
0.0
 10
1.484681124845842
 20
-7.125869952645615
 30
0.0
 10
1.484681124845842
 20
-7.125869952645615
 30
0.0
 10
1.484681124845842
 20
-7.125869952645615
 30
0.0
 10
1.544763590108599
 20
-7.09369276081338
 30
0.0
 10
1.544763590108599
 20
-7.09369276081338
 30
0.0
 10
1.544763590108599
 20
-7.09369276081338
 30
0.0
 10
1.576510145005176
 20
-7.09369276081338
 30
0.0
 10
1.576510145005176
 20
-7.09369276081338
 30
0.0
 10
1.576510145005176
 20
-7.09369276081338
 30
0.0
 10
1.576510145005176
 20
-7.368714733400876
 30
0.0
 10
1.576510145005176
 20
-7.368714733400876
 30
0.0
 10
1.576510145005176
 20
-7.368714733400876
 30
0.0
 10
1.540543348139168
 20
-7.368714733400876
 30
0.0
 10
1.540543348139168
 20
-7.368714733400876
 30
0.0
 10
1.540543348139168
 20
-7.368714733400876
 30
0.0
 10
1.540543348139168
 20
-7.128384872349847
 30
0.0
 10
1.540543348139168
 20
-7.128384872349847
 30
0.0
  0
HATCH
  5
B5
330
B0
100
AcDbEntity
  8
Livello 2
 62
   250
420
  1907995
440
 33554687
100
AcDbHatch
 10
0.0
 20
0.0
 30
0.0
210
0.0
220
0.0
230
1.0
  2
SOLID
 70
     1
 71
     1
 91
        1
 92
        1
 93
        1
 72
     4
 94
        3
 73
     0
 74
     0
 95
       29
 96
       25
 40
0.0
 40
0.0
 40
0.0
 40
0.0
 40
1.0
 40
1.0
 40
1.0
 40
2.0
 40
2.0
 40
2.0
 40
3.0
 40
3.0
 40
3.0
 40
4.0
 40
4.0
 40
4.0
 40
5.0
 40
5.0
 40
5.0
 40
6.0
 40
6.0
 40
6.0
 40
7.0
 40
7.0
 40
7.0
 40
8.0
 40
8.0
 40
8.0
 40
8.0
 10
1.540543348139168
 20
-7.128384872349847
 10
1.540543348139168
 20
-7.128384872349847
 10
1.539699299745283
 20
-7.128384872349847
 10
1.539699299745283
 20
-7.128384872349847
 10
1.539699299745283
 20
-7.128384872349847
 10
1.491881374410014
 20
-7.154188637534367
 10
1.491881374410014
 20
-7.154188637534367
 10
1.491881374410014
 20
-7.154188637534367
 10
1.484681124845842
 20
-7.125869952645615
 10
1.484681124845842
 20
-7.125869952645615
 10
1.484681124845842
 20
-7.125869952645615
 10
1.544763590108599
 20
-7.09369276081338
 10
1.544763590108599
 20
-7.09369276081338
 10
1.544763590108599
 20
-7.09369276081338
 10
1.576510145005176
 20
-7.09369276081338
 10
1.576510145005176
 20
-7.09369276081338
 10
1.576510145005176
 20
-7.09369276081338
 10
1.576510145005176
 20
-7.368714733400876
 10
1.576510145005176
 20
-7.368714733400876
 10
1.576510145005176
 20
-7.368714733400876
 10
1.540543348139168
 20
-7.368714733400876
 10
1.540543348139168
 20
-7.368714733400876
 10
1.540543348139168
 20
-7.368714733400876
 10
1.540543348139168
 20
-7.128384872349847
 10
1.540543348139168
 20
-7.128384872349847
 97
        1
330
B4
 75
     2
 76
     1
 98
        1
 10
0.0
 20
0.0
450
        0
451
        0
460
0.0
461
0.0
452
        0
462
0.0
453
        0
470

  0
SPLINE
  5
B6
330
B0
100
AcDbEntity
  8
Livello 2
100
AcDbSpline
210
0.0
220
0.0
230
1.0
 70
    11
 71
     3
 72
    50
 73
    46
 74
     0
 42
0.000000001
 43
0.0000000001
 40
0.0
 40
0.0
 40
0.0
 40
0.0
 40
1.0
 40
1.0
 40
1.0
 40
2.0
 40
2.0
 40
2.0
 40
3.0
 40
3.0
 40
3.0
 40
4.0
 40
4.0
 40
4.0
 40
5.0
 40
5.0
 40
5.0
 40
6.0
 40
6.0
 40
6.0
 40
7.0
 40
7.0
 40
7.0
 40
8.0
 40
8.0
 40
8.0
 40
9.0
 40
9.0
 40
9.0
 40
10.0
 40
10.0
 40
10.0
 40
11.0
 40
11.0
 40
11.0
 40
12.0
 40
12.0
 40
12.0
 40
13.0
 40
13.0
 40
13.0
 40
14.0
 40
14.0
 40
14.0
 40
15.0
 40
15.0
 40
15.0
 40
15.0
 10
1.841041801840086
 20
-7.125008678774302
 30
0.0
 10
1.841041801840086
 20
-7.125008678774302
 30
0.0
 10
1.736138644314228
 20
-7.125008678774302
 30
0.0
 10
1.736138644314228
 20
-7.125008678774302
 30
0.0
 10
1.736138644314228
 20
-7.125008678774302
 30
0.0
 10
1.725562201174511
 20
-7.195667587176775
 30
0.0
 10
1.725562201174511
 20
-7.195667587176775
 30
0.0
 10
1.73190117686737
 20
-7.194806313305464
 30
0.0
 10
1.737826741102001
 20
-7.193979490389003
 30
0.0
 10
1.747955321828635
 20
-7.193979490389003
 30
0.0
 10
1.76910820810807
 20
-7.193979490389003
 30
0.0
 10
1.790295545342355
 20
-7.19863036929409
 30
0.0
 10
1.807210964174933
 20
-7.208793400975576
 30
0.0
 10
1.828777261912596
 20
-7.221057940903067
 30
0.0
 10
1.846553954616485
 20
-7.244760197841586
 30
0.0
 10
1.846553954616485
 20
-7.279452309378052
 30
0.0
 10
1.846553954616485
 20
-7.333161347993097
 30
0.0
 10
1.803834770599388
 20
-7.373365612305962
 30
0.0
 10
1.74416571679486
 20
-7.373365612305962
 30
0.0
 10
1.714124484163481
 20
-7.373365612305962
 30
0.0
 10
1.68873413043719
 20
-7.364890677412248
 30
0.0
 10
1.675625542115815
 20
-7.356450193473388
 30
0.0
 10
1.675625542115815
 20
-7.356450193473388
 30
0.0
 10
1.68492729992599
 20
-7.32809705762978
 30
0.0
 10
1.68492729992599
 20
-7.32809705762978
 30
0.0
 10
1.696347791459592
 20
-7.334883895735722
 30
0.0
 10
1.718775363068568
 20
-7.343324379674585
 30
0.0
 10
1.74375230533663
 20
-7.343324379674585
 30
0.0
 10
1.778857828331325
 20
-7.343324379674585
 30
0.0
 10
1.808899060962705
 20
-7.320483396607377
 30
0.0
 10
1.808899060962705
 20
-7.283655325870057
 30
0.0
 10
1.808485649504475
 20
-7.248136391417132
 30
0.0
 10
1.784783392565956
 20
-7.222746037690839
 30
0.0
 10
1.729765217666515
 20
-7.222746037690839
 30
0.0
 10
1.714124484163481
 20
-7.222746037690839
 30
0.0
 10
1.701859944235993
 20
-7.224434134478611
 30
0.0
 10
1.691696912554505
 20
-7.225708819808155
 30
0.0
 10
1.691696912554505
 20
-7.225708819808155
 30
0.0
 10
1.709473605258394
 20
-7.09369276081338
 30
0.0
 10
1.709473605258394
 20
-7.09369276081338
 30
0.0
 10
1.709473605258394
 20
-7.09369276081338
 30
0.0
 10
1.841041801840086
 20
-7.09369276081338
 30
0.0
 10
1.841041801840086
 20
-7.09369276081338
 30
0.0
 10
1.841041801840086
 20
-7.09369276081338
 30
0.0
 10
1.841041801840086
 20
-7.125008678774302
 30
0.0
 10
1.841041801840086
 20
-7.125008678774302
 30
0.0
  0
HATCH
  5
B7
330
B0
100
AcDbEntity
  8
Livello 2
 62
   250
420
  1907995
440
 33554687
100
AcDbHatch
 10
0.0
 20
0.0
 30
0.0
210
0.0
220
0.0
230
1.0
  2
SOLID
 70
     1
 71
     1
 91
        1
 92
        1
 93
        1
 72
     4
 94
        3
 73
     0
 74
     0
 95
       50
 96
       46
 40
0.0
 40
0.0
 40
0.0
 40
0.0
 40
1.0
 40
1.0
 40
1.0
 40
2.0
 40
2.0
 40
2.0
 40
3.0
 40
3.0
 40
3.0
 40
4.0
 40
4.0
 40
4.0
 40
5.0
 40
5.0
 40
5.0
 40
6.0
 40
6.0
 40
6.0
 40
7.0
 40
7.0
 40
7.0
 40
8.0
 40
8.0
 40
8.0
 40
9.0
 40
9.0
 40
9.0
 40
10.0
 40
10.0
 40
10.0
 40
11.0
 40
11.0
 40
11.0
 40
12.0
 40
12.0
 40
12.0
 40
13.0
 40
13.0
 40
13.0
 40
14.0
 40
14.0
 40
14.0
 40
15.0
 40
15.0
 40
15.0
 40
15.0
 10
1.841041801840086
 20
-7.125008678774302
 10
1.841041801840086
 20
-7.125008678774302
 10
1.736138644314228
 20
-7.125008678774302
 10
1.736138644314228
 20
-7.125008678774302
 10
1.736138644314228
 20
-7.125008678774302
 10
1.725562201174511
 20
-7.195667587176775
 10
1.725562201174511
 20
-7.195667587176775
 10
1.73190117686737
 20
-7.194806313305464
 10
1.737826741102001
 20
-7.193979490389003
 10
1.747955321828635
 20
-7.193979490389003
 10
1.76910820810807
 20
-7.193979490389003
 10
1.790295545342355
 20
-7.19863036929409
 10
1.807210964174933
 20
-7.208793400975576
 10
1.828777261912596
 20
-7.221057940903067
 10
1.846553954616485
 20
-7.244760197841586
 10
1.846553954616485
 20
-7.279452309378052
 10
1.846553954616485
 20
-7.333161347993097
 10
1.803834770599388
 20
-7.373365612305962
 10
1.74416571679486
 20
-7.373365612305962
 10
1.714124484163481
 20
-7.373365612305962
 10
1.68873413043719
 20
-7.364890677412248
 10
1.675625542115815
 20
-7.356450193473388
 10
1.675625542115815
 20
-7.356450193473388
 10
1.68492729992599
 20
-7.32809705762978
 10
1.68492729992599
 20
-7.32809705762978
 10
1.696347791459592
 20
-7.334883895735722
 10
1.718775363068568
 20
-7.343324379674585
 10
1.74375230533663
 20
-7.343324379674585
 10
1.778857828331325
 20
-7.343324379674585
 10
1.808899060962705
 20
-7.320483396607377
 10
1.808899060962705
 20
-7.283655325870057
 10
1.808485649504475
 20
-7.248136391417132
 10
1.784783392565956
 20
-7.222746037690839
 10
1.729765217666515
 20
-7.222746037690839
 10
1.714124484163481
 20
-7.222746037690839
 10
1.701859944235993
 20
-7.224434134478611
 10
1.691696912554505
 20
-7.225708819808155
 10
1.691696912554505
 20
-7.225708819808155
 10
1.709473605258394
 20
-7.09369276081338
 10
1.709473605258394
 20
-7.09369276081338
 10
1.709473605258394
 20
-7.09369276081338
 10
1.841041801840086
 20
-7.09369276081338
 10
1.841041801840086
 20
-7.09369276081338
 10
1.841041801840086
 20
-7.09369276081338
 10
1.841041801840086
 20
-7.125008678774302
 10
1.841041801840086
 20
-7.125008678774302
 97
        1
330
B6
 75
     2
 76
     1
 98
        1
 10
0.0
 20
0.0
450
        0
451
        0
460
0.0
461
0.0
452
        0
462
0.0
453
        0
470

  0
SPLINE
  5
B8
330
B0
100
AcDbEntity
  8
Livello 2
100
AcDbSpline
210
0.0
220
0.0
230
1.0
 70
     9
 71
     3
 72
    17
 73
    13
 74
     0
 42
0.000000001
 43
0.0000000001
 40
0.0
 40
0.0
 40
0.0
 40
0.0
 40
1.0
 40
1.0
 40
1.0
 40
2.0
 40
2.0
 40
2.0
 40
3.0
 40
3.0
 40
3.0
 40
4.0
 40
4.0
 40
4.0
 40
4.0
 10
1.927479247565004
 20
-7.232461206959245
 30
0.0
 10
1.927479247565004
 20
-7.30398138923303
 30
0.0
 10
1.94949340771575
 20
-7.344599065004127
 30
0.0
 10
1.983324245380904
 20
-7.344599065004127
 30
0.0
 10
2.021392550492914
 20
-7.344599065004127
 30
0.0
 10
2.039582654655034
 20
-7.300157333244403
 30
0.0
 10
2.039582654655034
 20
-7.229946287255012
 30
0.0
 10
2.039582654655034
 20
-7.162250160969851
 30
0.0
 10
2.022253824364228
 20
-7.117808429210129
 30
0.0
 10
1.983737656839134
 20
-7.117808429210129
 30
0.0
 10
1.951181504503523
 20
-7.117808429210129
 30
0.0
 10
1.927479247565004
 20
-7.157599282064766
 30
0.0
 10
1.927479247565004
 20
-7.232461206959245
 30
0.0
  0
SPLINE
  5
B9
330
B0
100
AcDbEntity
  8
Livello 2
100
AcDbSpline
210
0.0
220
0.0
230
1.0
 70
     9
 71
     3
 72
    17
 73
    13
 74
     0
 42
0.000000001
 43
0.0000000001
 40
0.0
 40
0.0
 40
0.0
 40
0.0
 40
1.0
 40
1.0
 40
1.0
 40
2.0
 40
2.0
 40
2.0
 40
3.0
 40
3.0
 40
3.0
 40
4.0
 40
4.0
 40
4.0
 40
4.0
 10
2.076824136850584
 20
-7.22825819046724
 30
0.0
 10
2.076824136850584
 20
-7.321758081936921
 30
0.0
 10
2.042132025314119
 20
-7.373365612305962
 30
0.0
 10
1.981222737134901
 20
-7.373365612305962
 30
0.0
 10
1.927479247565004
 20
-7.373365612305962
 30
0.0
 10
1.891099039240765
 20
-7.323032767266463
 30
0.0
 10
1.890237765369453
 20
-7.232047795501014
 30
0.0
 10
1.890237765369453
 20
-7.139822589360878
 30
0.0
 10
1.930028618224089
 20
-7.089041881908293
 30
0.0
 10
1.985873616039988
 20
-7.089041881908293
 30
0.0
 10
2.04382012210189
 20
-7.089041881908293
 30
0.0
 10
2.076824136850584
 20
-7.140649412277337
 30
0.0
 10
2.076824136850584
 20
-7.22825819046724
 30
0.0
  0
HATCH
  5
BA
330
B0
100
AcDbEntity
  8
Livello 2
 62
   250
420
  1907995
440
 33554687
100
AcDbHatch
 10
0.0
 20
0.0
 30
0.0
210
0.0
220
0.0
230
1.0
  2
SOLID
 70
     1
 71
     1
 91
        2
 92
        1
 93
        1
 72
     4
 94
        3
 73
     0
 74
     0
 95
       17
 96
       13
 40
0.0
 40
0.0
 40
0.0
 40
0.0
 40
1.0
 40
1.0
 40
1.0
 40
2.0
 40
2.0
 40
2.0
 40
3.0
 40
3.0
 40
3.0
 40
4.0
 40
4.0
 40
4.0
 40
4.0
 10
1.927479247565004
 20
-7.232461206959245
 10
1.927479247565004
 20
-7.30398138923303
 10
1.94949340771575
 20
-7.344599065004127
 10
1.983324245380904
 20
-7.344599065004127
 10
2.021392550492914
 20
-7.344599065004127
 10
2.039582654655034
 20
-7.300157333244403
 10
2.039582654655034
 20
-7.229946287255012
 10
2.039582654655034
 20
-7.162250160969851
 10
2.022253824364228
 20
-7.117808429210129
 10
1.983737656839134
 20
-7.117808429210129
 10
1.951181504503523
 20
-7.117808429210129
 10
1.927479247565004
 20
-7.157599282064766
 10
1.927479247565004
 20
-7.232461206959245
 97
        1
330
B8
 92
        1
 93
        1
 72
     4
 94
        3
 73
     0
 74
     0
 95
       17
 96
       13
 40
0.0
 40
0.0
 40
0.0
 40
0.0
 40
1.0
 40
1.0
 40
1.0
 40
2.0
 40
2.0
 40
2.0
 40
3.0
 40
3.0
 40
3.0
 40
4.0
 40
4.0
 40
4.0
 40
4.0
 10
2.076824136850584
 20
-7.22825819046724
 10
2.076824136850584
 20
-7.321758081936921
 10
2.042132025314119
 20
-7.373365612305962
 10
1.981222737134901
 20
-7.373365612305962
 10
1.927479247565004
 20
-7.373365612305962
 10
1.891099039240765
 20
-7.323032767266463
 10
1.890237765369453
 20
-7.232047795501014
 10
1.890237765369453
 20
-7.139822589360878
 10
1.930028618224089
 20
-7.089041881908293
 10
1.985873616039988
 20
-7.089041881908293
 10
2.04382012210189
 20
-7.089041881908293
 10
2.076824136850584
 20
-7.140649412277337
 10
2.076824136850584
 20
-7.22825819046724
 97
        1
330
B9
 75
     2
 76
     1
 98
        1
 10
0.0
 20
0.0
450
        0
451
        0
460
0.0
461
0.0
452
        0
462
0.0
453
        0
470

  0
SPLINE
  5
BB
330
B0
100
AcDbEntity
  8
Livello 2
100
AcDbSpline
210
0.0
220
0.0
230
1.0
 70
     9
 71
     3
 72
    80
 73
    76
 74
     0
 42
0.000000001
 43
0.0000000001
 40
0.0
 40
0.0
 40
0.0
 40
0.0
 40
1.0
 40
1.0
 40
1.0
 40
2.0
 40
2.0
 40
2.0
 40
3.0
 40
3.0
 40
3.0
 40
4.0
 40
4.0
 40
4.0
 40
5.0
 40
5.0
 40
5.0
 40
6.0
 40
6.0
 40
6.0
 40
7.0
 40
7.0
 40
7.0
 40
8.0
 40
8.0
 40
8.0
 40
9.0
 40
9.0
 40
9.0
 40
10.0
 40
10.0
 40
10.0
 40
11.0
 40
11.0
 40
11.0
 40
12.0
 40
12.0
 40
12.0
 40
13.0
 40
13.0
 40
13.0
 40
14.0
 40
14.0
 40
14.0
 40
15.0
 40
15.0
 40
15.0
 40
16.0
 40
16.0
 40
16.0
 40
17.0
 40
17.0
 40
17.0
 40
18.0
 40
18.0
 40
18.0
 40
19.0
 40
19.0
 40
19.0
 40
20.0
 40
20.0
 40
20.0
 40
21.0
 40
21.0
 40
21.0
 40
22.0
 40
22.0
 40
22.0
 40
23.0
 40
23.0
 40
23.0
 40
24.0
 40
24.0
 40
24.0
 40
25.0
 40
25.0
 40
25.0
 40
25.0
 10
2.212836506608248
 20
-7.219369844115295
 30
0.0
 10
2.212836506608248
 20
-7.198216957835861
 30
0.0
 10
2.212388644195165
 20
-7.180853676590201
 30
0.0
 10
2.211113958865623
 20
-7.163938257757625
 30
0.0
 10
2.211113958865623
 20
-7.163938257757625
 30
0.0
 10
2.243704562156086
 20
-7.163938257757625
 30
0.0
 10
2.243704562156086
 20
-7.163938257757625
 30
0.0
 10
2.243704562156086
 20
-7.163938257757625
 30
0.0
 10
2.245392658943859
 20
-7.196942272506317
 30
0.0
 10
2.245392658943859
 20
-7.196942272506317
 30
0.0
 10
2.245392658943859
 20
-7.196942272506317
 30
0.0
 10
2.246667344273401
 20
-7.196942272506317
 30
0.0
 10
2.246667344273401
 20
-7.196942272506317
 30
0.0
 10
2.258105061284431
 20
-7.177477483014657
 30
0.0
 10
2.27712198836301
 20
-7.159287378852536
 30
0.0
 10
2.310987276983015
 20
-7.159287378852536
 30
0.0
 10
2.33889255041354
 20
-7.159287378852536
 30
0.0
 10
2.360045436692974
 20
-7.176202797685115
 30
0.0
 10
2.368933783044918
 20
-7.200318466081862
 30
0.0
 10
2.368933783044918
 20
-7.200318466081862
 30
0.0
 10
2.36979505691623
 20
-7.200318466081862
 30
0.0
 10
2.36979505691623
 20
-7.200318466081862
 30
0.0
 10
2.37613403260909
 20
-7.188880749070833
 30
0.0
 10
2.384161105089723
 20
-7.180026853673742
 30
0.0
 10
2.392636039983436
 20
-7.173653427026029
 30
0.0
 10
2.404900579910926
 20
-7.164351669215855
 30
0.0
 10
2.418439805167959
 20
-7.159287378852536
 30
0.0
 10
2.43790459465962
 20
-7.159287378852536
 30
0.0
 10
2.464983045173684
 20
-7.159287378852536
 30
0.0
 10
2.505187309486549
 20
-7.177064071556427
 30
0.0
 10
2.505187309486549
 20
-7.248136391417132
 30
0.0
 10
2.505187309486549
 20
-7.248136391417132
 30
0.0
 10
2.505187309486549
 20
-7.368714733400876
 30
0.0
 10
2.505187309486549
 20
-7.368714733400876
 30
0.0
 10
2.505187309486549
 20
-7.368714733400876
 30
0.0
 10
2.46880710116231
 20
-7.368714733400876
 30
0.0
 10
2.46880710116231
 20
-7.368714733400876
 30
0.0
 10
2.46880710116231
 20
-7.368714733400876
 30
0.0
 10
2.46880710116231
 20
-7.252787270322219
 30
0.0
 10
2.46880710116231
 20
-7.252787270322219
 30
0.0
 10
2.46880710116231
 20
-7.213444279880665
 30
0.0
 10
2.454406602033966
 20
-7.189742022942147
 30
0.0
 10
2.424365369402587
 20
-7.189742022942147
 30
0.0
 10
2.403212483123154
 20
-7.189742022942147
 30
0.0
 10
2.386710475748808
 20
-7.205382756445181
 30
0.0
 10
2.380371500055947
 20
-7.223607311562151
 30
0.0
 10
2.378683403268175
 20
-7.228671601925469
 30
0.0
 10
2.377408717938633
 20
-7.235423989076559
 30
0.0
 10
2.377408717938633
 20
-7.242210827182502
 30
0.0
 10
2.377408717938633
 20
-7.242210827182502
 30
0.0
 10
2.377408717938633
 20
-7.368714733400876
 30
0.0
 10
2.377408717938633
 20
-7.368714733400876
 30
0.0
 10
2.377408717938633
 20
-7.368714733400876
 30
0.0
 10
2.341028509614394
 20
-7.368714733400876
 30
0.0
 10
2.341028509614394
 20
-7.368714733400876
 30
0.0
 10
2.341028509614394
 20
-7.368714733400876
 30
0.0
 10
2.341028509614394
 20
-7.246000432216277
 30
0.0
 10
2.341028509614394
 20
-7.246000432216277
 30
0.0
 10
2.341028509614394
 20
-7.213444279880665
 30
0.0
 10
2.326628010486051
 20
-7.189742022942147
 30
0.0
 10
2.298274874642443
 20
-7.189742022942147
 30
0.0
 10
2.275020480117008
 20
-7.189742022942147
 30
0.0
 10
2.258105061284431
 20
-7.208345538562495
 30
0.0
 10
2.252179497049801
 20
-7.226983505137697
 30
0.0
 10
2.250043537848946
 20
-7.232461206959245
 30
0.0
 10
2.249216714932486
 20
-7.238834633606956
 30
0.0
 10
2.249216714932486
 20
-7.245173609299817
 30
0.0
 10
2.249216714932486
 20
-7.245173609299817
 30
0.0
 10
2.249216714932486
 20
-7.368714733400876
 30
0.0
 10
2.249216714932486
 20
-7.368714733400876
 30
0.0
 10
2.249216714932486
 20
-7.368714733400876
 30
0.0
 10
2.212836506608248
 20
-7.368714733400876
 30
0.0
 10
2.212836506608248
 20
-7.368714733400876
 30
0.0
 10
2.212836506608248
 20
-7.368714733400876
 30
0.0
 10
2.212836506608248
 20
-7.219369844115295
 30
0.0
 10
2.212836506608248
 20
-7.219369844115295
 30
0.0
  0
HATCH
  5
BC
330
B0
100
AcDbEntity
  8
Livello 2
 62
   250
420
  1907995
440
 33554687
100
AcDbHatch
 10
0.0
 20
0.0
 30
0.0
210
0.0
220
0.0
230
1.0
  2
SOLID
 70
     1
 71
     1
 91
        1
 92
        1
 93
        1
 72
     4
 94
        3
 73
     0
 74
     0
 95
       80
 96
       76
 40
0.0
 40
0.0
 40
0.0
 40
0.0
 40
1.0
 40
1.0
 40
1.0
 40
2.0
 40
2.0
 40
2.0
 40
3.0
 40
3.0
 40
3.0
 40
4.0
 40
4.0
 40
4.0
 40
5.0
 40
5.0
 40
5.0
 40
6.0
 40
6.0
 40
6.0
 40
7.0
 40
7.0
 40
7.0
 40
8.0
 40
8.0
 40
8.0
 40
9.0
 40
9.0
 40
9.0
 40
10.0
 40
10.0
 40
10.0
 40
11.0
 40
11.0
 40
11.0
 40
12.0
 40
12.0
 40
12.0
 40
13.0
 40
13.0
 40
13.0
 40
14.0
 40
14.0
 40
14.0
 40
15.0
 40
15.0
 40
15.0
 40
16.0
 40
16.0
 40
16.0
 40
17.0
 40
17.0
 40
17.0
 40
18.0
 40
18.0
 40
18.0
 40
19.0
 40
19.0
 40
19.0
 40
20.0
 40
20.0
 40
20.0
 40
21.0
 40
21.0
 40
21.0
 40
22.0
 40
22.0
 40
22.0
 40
23.0
 40
23.0
 40
23.0
 40
24.0
 40
24.0
 40
24.0
 40
25.0
 40
25.0
 40
25.0
 40
25.0
 10
2.212836506608248
 20
-7.219369844115295
 10
2.212836506608248
 20
-7.198216957835861
 10
2.212388644195165
 20
-7.180853676590201
 10
2.211113958865623
 20
-7.163938257757625
 10
2.211113958865623
 20
-7.163938257757625
 10
2.243704562156086
 20
-7.163938257757625
 10
2.243704562156086
 20
-7.163938257757625
 10
2.243704562156086
 20
-7.163938257757625
 10
2.245392658943859
 20
-7.196942272506317
 10
2.245392658943859
 20
-7.196942272506317
 10
2.245392658943859
 20
-7.196942272506317
 10
2.246667344273401
 20
-7.196942272506317
 10
2.246667344273401
 20
-7.196942272506317
 10
2.258105061284431
 20
-7.177477483014657
 10
2.27712198836301
 20
-7.159287378852536
 10
2.310987276983015
 20
-7.159287378852536
 10
2.33889255041354
 20
-7.159287378852536
 10
2.360045436692974
 20
-7.176202797685115
 10
2.368933783044918
 20
-7.200318466081862
 10
2.368933783044918
 20
-7.200318466081862
 10
2.36979505691623
 20
-7.200318466081862
 10
2.36979505691623
 20
-7.200318466081862
 10
2.37613403260909
 20
-7.188880749070833
 10
2.384161105089723
 20
-7.180026853673742
 10
2.392636039983436
 20
-7.173653427026029
 10
2.404900579910926
 20
-7.164351669215855
 10
2.418439805167959
 20
-7.159287378852536
 10
2.43790459465962
 20
-7.159287378852536
 10
2.464983045173684
 20
-7.159287378852536
 10
2.505187309486549
 20
-7.177064071556427
 10
2.505187309486549
 20
-7.248136391417132
 10
2.505187309486549
 20
-7.248136391417132
 10
2.505187309486549
 20
-7.368714733400876
 10
2.505187309486549
 20
-7.368714733400876
 10
2.505187309486549
 20
-7.368714733400876
 10
2.46880710116231
 20
-7.368714733400876
 10
2.46880710116231
 20
-7.368714733400876
 10
2.46880710116231
 20
-7.368714733400876
 10
2.46880710116231
 20
-7.252787270322219
 10
2.46880710116231
 20
-7.252787270322219
 10
2.46880710116231
 20
-7.213444279880665
 10
2.454406602033966
 20
-7.189742022942147
 10
2.424365369402587
 20
-7.189742022942147
 10
2.403212483123154
 20
-7.189742022942147
 10
2.386710475748808
 20
-7.205382756445181
 10
2.380371500055947
 20
-7.223607311562151
 10
2.378683403268175
 20
-7.228671601925469
 10
2.377408717938633
 20
-7.235423989076559
 10
2.377408717938633
 20
-7.242210827182502
 10
2.377408717938633
 20
-7.242210827182502
 10
2.377408717938633
 20
-7.368714733400876
 10
2.377408717938633
 20
-7.368714733400876
 10
2.377408717938633
 20
-7.368714733400876
 10
2.341028509614394
 20
-7.368714733400876
 10
2.341028509614394
 20
-7.368714733400876
 10
2.341028509614394
 20
-7.368714733400876
 10
2.341028509614394
 20
-7.246000432216277
 10
2.341028509614394
 20
-7.246000432216277
 10
2.341028509614394
 20
-7.213444279880665
 10
2.326628010486051
 20
-7.189742022942147
 10
2.298274874642443
 20
-7.189742022942147
 10
2.275020480117008
 20
-7.189742022942147
 10
2.258105061284431
 20
-7.208345538562495
 10
2.252179497049801
 20
-7.226983505137697
 10
2.250043537848946
 20
-7.232461206959245
 10
2.249216714932486
 20
-7.238834633606956
 10
2.249216714932486
 20
-7.245173609299817
 10
2.249216714932486
 20
-7.245173609299817
 10
2.249216714932486
 20
-7.368714733400876
 10
2.249216714932486
 20
-7.368714733400876
 10
2.249216714932486
 20
-7.368714733400876
 10
2.212836506608248
 20
-7.368714733400876
 10
2.212836506608248
 20
-7.368714733400876
 10
2.212836506608248
 20
-7.368714733400876
 10
2.212836506608248
 20
-7.219369844115295
 10
2.212836506608248
 20
-7.219369844115295
 97
        1
330
BB
 75
     2
 76
     1
 98
        1
 10
0.0
 20
0.0
450
        0
451
        0
460
0.0
461
0.0
452
        0
462
0.0
453
        0
470

  0
SPLINE
  5
BD
330
B0
100
AcDbEntity
  8
Livello 2
100
AcDbSpline
210
0.0
220
0.0
230
1.0
 70
     9
 71
     3
 72
    80
 73
    76
 74
     0
 42
0.000000001
 43
0.0000000001
 40
0.0
 40
0.0
 40
0.0
 40
0.0
 40
1.0
 40
1.0
 40
1.0
 40
2.0
 40
2.0
 40
2.0
 40
3.0
 40
3.0
 40
3.0
 40
4.0
 40
4.0
 40
4.0
 40
5.0
 40
5.0
 40
5.0
 40
6.0
 40
6.0
 40
6.0
 40
7.0
 40
7.0
 40
7.0
 40
8.0
 40
8.0
 40
8.0
 40
9.0
 40
9.0
 40
9.0
 40
10.0
 40
10.0
 40
10.0
 40
11.0
 40
11.0
 40
11.0
 40
12.0
 40
12.0
 40
12.0
 40
13.0
 40
13.0
 40
13.0
 40
14.0
 40
14.0
 40
14.0
 40
15.0
 40
15.0
 40
15.0
 40
16.0
 40
16.0
 40
16.0
 40
17.0
 40
17.0
 40
17.0
 40
18.0
 40
18.0
 40
18.0
 40
19.0
 40
19.0
 40
19.0
 40
20.0
 40
20.0
 40
20.0
 40
21.0
 40
21.0
 40
21.0
 40
22.0
 40
22.0
 40
22.0
 40
23.0
 40
23.0
 40
23.0
 40
24.0
 40
24.0
 40
24.0
 40
25.0
 40
25.0
 40
25.0
 40
25.0
 10
2.565889891936651
 20
-7.219369844115295
 30
0.0
 10
2.565889891936651
 20
-7.198216957835861
 30
0.0
 10
2.565442029523568
 20
-7.180853676590201
 30
0.0
 10
2.564167344194026
 20
-7.163938257757625
 30
0.0
 10
2.564167344194026
 20
-7.163938257757625
 30
0.0
 10
2.596757947484491
 20
-7.163938257757625
 30
0.0
 10
2.596757947484491
 20
-7.163938257757625
 30
0.0
 10
2.596757947484491
 20
-7.163938257757625
 30
0.0
 10
2.598446044272263
 20
-7.196942272506317
 30
0.0
 10
2.598446044272263
 20
-7.196942272506317
 30
0.0
 10
2.598446044272263
 20
-7.196942272506317
 30
0.0
 10
2.599720729601805
 20
-7.196942272506317
 30
0.0
 10
2.599720729601805
 20
-7.196942272506317
 30
0.0
 10
2.611158446612834
 20
-7.177477483014657
 30
0.0
 10
2.630175373691414
 20
-7.159287378852536
 30
0.0
 10
2.664040662311419
 20
-7.159287378852536
 30
0.0
 10
2.691945935741943
 20
-7.159287378852536
 30
0.0
 10
2.713098822021377
 20
-7.176202797685115
 30
0.0
 10
2.721987168373321
 20
-7.200318466081862
 30
0.0
 10
2.721987168373321
 20
-7.200318466081862
 30
0.0
 10
2.722848442244634
 20
-7.200318466081862
 30
0.0
 10
2.722848442244634
 20
-7.200318466081862
 30
0.0
 10
2.729187417937493
 20
-7.188880749070833
 30
0.0
 10
2.737214490418125
 20
-7.180026853673742
 30
0.0
 10
2.74568942531184
 20
-7.173653427026029
 30
0.0
 10
2.757953965239329
 20
-7.164351669215855
 30
0.0
 10
2.771493190496361
 20
-7.159287378852536
 30
0.0
 10
2.790957979988023
 20
-7.159287378852536
 30
0.0
 10
2.818036430502088
 20
-7.159287378852536
 30
0.0
 10
2.858240694814952
 20
-7.177064071556427
 30
0.0
 10
2.858240694814952
 20
-7.248136391417132
 30
0.0
 10
2.858240694814952
 20
-7.248136391417132
 30
0.0
 10
2.858240694814952
 20
-7.368714733400876
 30
0.0
 10
2.858240694814952
 20
-7.368714733400876
 30
0.0
 10
2.858240694814952
 20
-7.368714733400876
 30
0.0
 10
2.821860486490714
 20
-7.368714733400876
 30
0.0
 10
2.821860486490714
 20
-7.368714733400876
 30
0.0
 10
2.821860486490714
 20
-7.368714733400876
 30
0.0
 10
2.821860486490714
 20
-7.252787270322219
 30
0.0
 10
2.821860486490714
 20
-7.252787270322219
 30
0.0
 10
2.821860486490714
 20
-7.213444279880665
 30
0.0
 10
2.807459987362371
 20
-7.189742022942147
 30
0.0
 10
2.777418754730991
 20
-7.189742022942147
 30
0.0
 10
2.756265868451558
 20
-7.189742022942147
 30
0.0
 10
2.73976386107721
 20
-7.205382756445181
 30
0.0
 10
2.733424885384351
 20
-7.223607311562151
 30
0.0
 10
2.731736788596578
 20
-7.228671601925469
 30
0.0
 10
2.730462103267035
 20
-7.235423989076559
 30
0.0
 10
2.730462103267035
 20
-7.242210827182502
 30
0.0
 10
2.730462103267035
 20
-7.242210827182502
 30
0.0
 10
2.730462103267035
 20
-7.368714733400876
 30
0.0
 10
2.730462103267035
 20
-7.368714733400876
 30
0.0
 10
2.730462103267035
 20
-7.368714733400876
 30
0.0
 10
2.694081894942798
 20
-7.368714733400876
 30
0.0
 10
2.694081894942798
 20
-7.368714733400876
 30
0.0
 10
2.694081894942798
 20
-7.368714733400876
 30
0.0
 10
2.694081894942798
 20
-7.246000432216277
 30
0.0
 10
2.694081894942798
 20
-7.246000432216277
 30
0.0
 10
2.694081894942798
 20
-7.213444279880665
 30
0.0
 10
2.679681395814454
 20
-7.189742022942147
 30
0.0
 10
2.651328259970848
 20
-7.189742022942147
 30
0.0
 10
2.62807386544541
 20
-7.189742022942147
 30
0.0
 10
2.611158446612834
 20
-7.208345538562495
 30
0.0
 10
2.605232882378205
 20
-7.226983505137697
 30
0.0
 10
2.603096923177349
 20
-7.232461206959245
 30
0.0
 10
2.60227010026089
 20
-7.238834633606956
 30
0.0
 10
2.60227010026089
 20
-7.245173609299817
 30
0.0
 10
2.60227010026089
 20
-7.245173609299817
 30
0.0
 10
2.60227010026089
 20
-7.368714733400876
 30
0.0
 10
2.60227010026089
 20
-7.368714733400876
 30
0.0
 10
2.60227010026089
 20
-7.368714733400876
 30
0.0
 10
2.565889891936651
 20
-7.368714733400876
 30
0.0
 10
2.565889891936651
 20
-7.368714733400876
 30
0.0
 10
2.565889891936651
 20
-7.368714733400876
 30
0.0
 10
2.565889891936651
 20
-7.219369844115295
 30
0.0
 10
2.565889891936651
 20
-7.219369844115295
 30
0.0
  0
HATCH
  5
BE
330
B0
100
AcDbEntity
  8
Livello 2
 62
   250
420
  1907995
440
 33554687
100
AcDbHatch
 10
0.0
 20
0.0
 30
0.0
210
0.0
220
0.0
230
1.0
  2
SOLID
 70
     1
 71
     1
 91
        1
 92
        1
 93
        1
 72
     4
 94
        3
 73
     0
 74
     0
 95
       80
 96
       76
 40
0.0
 40
0.0
 40
0.0
 40
0.0
 40
1.0
 40
1.0
 40
1.0
 40
2.0
 40
2.0
 40
2.0
 40
3.0
 40
3.0
 40
3.0
 40
4.0
 40
4.0
 40
4.0
 40
5.0
 40
5.0
 40
5.0
 40
6.0
 40
6.0
 40
6.0
 40
7.0
 40
7.0
 40
7.0
 40
8.0
 40
8.0
 40
8.0
 40
9.0
 40
9.0
 40
9.0
 40
10.0
 40
10.0
 40
10.0
 40
11.0
 40
11.0
 40
11.0
 40
12.0
 40
12.0
 40
12.0
 40
13.0
 40
13.0
 40
13.0
 40
14.0
 40
14.0
 40
14.0
 40
15.0
 40
15.0
 40
15.0
 40
16.0
 40
16.0
 40
16.0
 40
17.0
 40
17.0
 40
17.0
 40
18.0
 40
18.0
 40
18.0
 40
19.0
 40
19.0
 40
19.0
 40
20.0
 40
20.0
 40
20.0
 40
21.0
 40
21.0
 40
21.0
 40
22.0
 40
22.0
 40
22.0
 40
23.0
 40
23.0
 40
23.0
 40
24.0
 40
24.0
 40
24.0
 40
25.0
 40
25.0
 40
25.0
 40
25.0
 10
2.565889891936651
 20
-7.219369844115295
 10
2.565889891936651
 20
-7.198216957835861
 10
2.565442029523568
 20
-7.180853676590201
 10
2.564167344194026
 20
-7.163938257757625
 10
2.564167344194026
 20
-7.163938257757625
 10
2.596757947484491
 20
-7.163938257757625
 10
2.596757947484491
 20
-7.163938257757625
 10
2.596757947484491
 20
-7.163938257757625
 10
2.598446044272263
 20
-7.196942272506317
 10
2.598446044272263
 20
-7.196942272506317
 10
2.598446044272263
 20
-7.196942272506317
 10
2.599720729601805
 20
-7.196942272506317
 10
2.599720729601805
 20
-7.196942272506317
 10
2.611158446612834
 20
-7.177477483014657
 10
2.630175373691414
 20
-7.159287378852536
 10
2.664040662311419
 20
-7.159287378852536
 10
2.691945935741943
 20
-7.159287378852536
 10
2.713098822021377
 20
-7.176202797685115
 10
2.721987168373321
 20
-7.200318466081862
 10
2.721987168373321
 20
-7.200318466081862
 10
2.722848442244634
 20
-7.200318466081862
 10
2.722848442244634
 20
-7.200318466081862
 10
2.729187417937493
 20
-7.188880749070833
 10
2.737214490418125
 20
-7.180026853673742
 10
2.74568942531184
 20
-7.173653427026029
 10
2.757953965239329
 20
-7.164351669215855
 10
2.771493190496361
 20
-7.159287378852536
 10
2.790957979988023
 20
-7.159287378852536
 10
2.818036430502088
 20
-7.159287378852536
 10
2.858240694814952
 20
-7.177064071556427
 10
2.858240694814952
 20
-7.248136391417132
 10
2.858240694814952
 20
-7.248136391417132
 10
2.858240694814952
 20
-7.368714733400876
 10
2.858240694814952
 20
-7.368714733400876
 10
2.858240694814952
 20
-7.368714733400876
 10
2.821860486490714
 20
-7.368714733400876
 10
2.821860486490714
 20
-7.368714733400876
 10
2.821860486490714
 20
-7.368714733400876
 10
2.821860486490714
 20
-7.252787270322219
 10
2.821860486490714
 20
-7.252787270322219
 10
2.821860486490714
 20
-7.213444279880665
 10
2.807459987362371
 20
-7.189742022942147
 10
2.777418754730991
 20
-7.189742022942147
 10
2.756265868451558
 20
-7.189742022942147
 10
2.73976386107721
 20
-7.205382756445181
 10
2.733424885384351
 20
-7.223607311562151
 10
2.731736788596578
 20
-7.228671601925469
 10
2.730462103267035
 20
-7.235423989076559
 10
2.730462103267035
 20
-7.242210827182502
 10
2.730462103267035
 20
-7.242210827182502
 10
2.730462103267035
 20
-7.368714733400876
 10
2.730462103267035
 20
-7.368714733400876
 10
2.730462103267035
 20
-7.368714733400876
 10
2.694081894942798
 20
-7.368714733400876
 10
2.694081894942798
 20
-7.368714733400876
 10
2.694081894942798
 20
-7.368714733400876
 10
2.694081894942798
 20
-7.246000432216277
 10
2.694081894942798
 20
-7.246000432216277
 10
2.694081894942798
 20
-7.213444279880665
 10
2.679681395814454
 20
-7.189742022942147
 10
2.651328259970848
 20
-7.189742022942147
 10
2.62807386544541
 20
-7.189742022942147
 10
2.611158446612834
 20
-7.208345538562495
 10
2.605232882378205
 20
-7.226983505137697
 10
2.603096923177349
 20
-7.232461206959245
 10
2.60227010026089
 20
-7.238834633606956
 10
2.60227010026089
 20
-7.245173609299817
 10
2.60227010026089
 20
-7.245173609299817
 10
2.60227010026089
 20
-7.368714733400876
 10
2.60227010026089
 20
-7.368714733400876
 10
2.60227010026089
 20
-7.368714733400876
 10
2.565889891936651
 20
-7.368714733400876
 10
2.565889891936651
 20
-7.368714733400876
 10
2.565889891936651
 20
-7.368714733400876
 10
2.565889891936651
 20
-7.219369844115295
 10
2.565889891936651
 20
-7.219369844115295
 97
        1
330
BD
 75
     2
 76
     1
 98
        1
 10
0.0
 20
0.0
450
        0
451
        0
460
0.0
461
0.0
452
        0
462
0.0
453
        0
470

  0
ENDBLK
  5
B3
330
B0
100
AcDbEntity
  8
0
100
AcDbBlockEnd
  0
BLOCK
  5
C1
330
BF
100
AcDbEntity
  8
0
100
AcDbBlockBegin
  2
Block_6
 70
     0
 10
0.0
 20
0.0
 30
0.0
  3
Block_6
  1

  0
INSERT
  5
C4
330
BF
100
AcDbEntity
  8
Livello 2
100
AcDbBlockReference
  2
Block_7
 10
0.0
 20
0.0
 30
0.0
  0
ENDBLK
  5
C2
330
BF
100
AcDbEntity
  8
0
100
AcDbBlockEnd
  0
BLOCK
  5
C5
330
C3
100
AcDbEntity
  8
0
100
AcDbBlockBegin
  2
Block_7
 70
     0
 10
0.0
 20
0.0
 30
0.0
  3
Block_7
  1

  0
SPLINE
  5
C7
330
C3
100
AcDbEntity
  8
Livello 2
100
AcDbSpline
210
0.0
220
0.0
230
1.0
 70
     9
 71
     3
 72
    20
 73
    16
 74
     0
 42
0.000000001
 43
0.0000000001
 40
0.0
 40
0.0
 40
0.0
 40
0.0
 40
1.0
 40
1.0
 40
1.0
 40
2.0
 40
2.0
 40
2.0
 40
3.0
 40
3.0
 40
3.0
 40
4.0
 40
4.0
 40
4.0
 40
5.0
 40
5.0
 40
5.0
 40
5.0
 10
4.535054794873179
 20
-1.569792208808939
 30
0.0
 10
4.535054794873179
 20
-1.604070908887175
 30
0.0
 10
4.555794269694383
 20
-1.628186577283925
 30
0.0
 10
4.587937010571764
 20
-1.628186577283925
 30
0.0
 10
4.612913952839826
 20
-1.628186577283925
 30
0.0
 10
4.632361516854061
 20
-1.615922037356436
 30
0.0
 10
4.642093911599891
 20
-1.599420029982089
 30
0.0
 10
4.644212645323321
 20
-1.596043836406543
 30
0.0
 10
4.645487330652863
 20
-1.591806368959686
 30
0.0
 10
4.645487330652863
 20
-1.585880804725056
 30
0.0
 10
4.645487330652863
 20
-1.538924153261101
 30
0.0
 10
4.62814127488463
 20
-1.502957356395094
 30
0.0
 10
4.589211695901306
 20
-1.502957356395094
 30
0.0
 10
4.557482366482156
 20
-1.502957356395094
 30
0.0
 10
4.535054794873179
 20
-1.530897080780468
 30
0.0
 10
4.535054794873179
 20
-1.569792208808939
 30
0.0
  0
SPLINE
  5
C8
330
C3
100
AcDbEntity
  8
Livello 2
100
AcDbSpline
210
0.0
220
0.0
230
1.0
 70
     9
 71
     3
 72
    41
 73
    37
 74
     0
 42
0.000000001
 43
0.0000000001
 40
0.0
 40
0.0
 40
0.0
 40
0.0
 40
1.0
 40
1.0
 40
1.0
 40
2.0
 40
2.0
 40
2.0
 40
3.0
 40
3.0
 40
3.0
 40
4.0
 40
4.0
 40
4.0
 40
5.0
 40
5.0
 40
5.0
 40
6.0
 40
6.0
 40
6.0
 40
7.0
 40
7.0
 40
7.0
 40
8.0
 40
8.0
 40
8.0
 40
9.0
 40
9.0
 40
9.0
 40
10.0
 40
10.0
 40
10.0
 40
11.0
 40
11.0
 40
11.0
 40
12.0
 40
12.0
 40
12.0
 40
12.0
 10
4.521515569616148
 20
-1.728059895401317
 30
0.0
 10
4.529559867574207
 20
-1.728886718317778
 30
0.0
 10
4.53886162538438
 20
-1.728059895401317
 30
0.0
 10
4.551556802247526
 20
-1.726785210071775
 30
0.0
 10
4.573140325462617
 20
-1.72382242795446
 30
0.0
 10
4.593449163348163
 20
-1.714934081602515
 30
0.0
 10
4.609089896851199
 20
-1.700120171015941
 30
0.0
 10
4.627297226490743
 20
-1.683618163641595
 30
0.0
 10
4.64040581481212
 20
-1.659502495244846
 30
0.0
 10
4.645487330652863
 20
-1.626911891954383
 30
0.0
 10
4.645487330652863
 20
-1.626911891954383
 30
0.0
 10
4.644212645323321
 20
-1.626911891954383
 30
0.0
 10
4.644212645323321
 20
-1.626911891954383
 30
0.0
 10
4.628985323278516
 20
-1.645549858529584
 30
0.0
 10
4.606988388605197
 20
-1.65653971312753
 30
0.0
 10
4.579479301155476
 20
-1.65653971312753
 30
0.0
 10
4.529973279032436
 20
-1.65653971312753
 30
0.0
 10
4.498243949613286
 20
-1.61929823093198
 30
0.0
 10
4.498243949613286
 20
-1.572341579468024
 30
0.0
 10
4.498243949613286
 20
-1.520286186685899
 30
0.0
 10
4.535898843267066
 20
-1.474604220551486
 30
0.0
 10
4.592174478018621
 20
-1.474604220551486
 30
0.0
 10
4.648450112770177
 20
-1.474604220551486
 30
0.0
 10
4.683142224306643
 20
-1.520286186685899
 30
0.0
 10
4.683142224306643
 20
-1.590531683630143
 30
0.0
 10
4.683142224306643
 20
-1.65102756035113
 30
0.0
 10
4.662833386421096
 20
-1.693367783864851
 30
0.0
 10
4.635754935907033
 20
-1.719584960507603
 30
0.0
 10
4.614602049627598
 20
-1.740324435328806
 30
0.0
 10
4.585404865390106
 20
-1.753002386714526
 30
0.0
 10
4.555794269694383
 20
-1.756378580290071
 30
0.0
 10
4.542255044437351
 20
-1.758514539490926
 30
0.0
 10
4.530403915968093
 20
-1.758927950949155
 30
0.0
 10
4.521515569616148
 20
-1.758514539490926
 30
0.0
 10
4.521515569616148
 20
-1.758514539490926
 30
0.0
 10
4.521515569616148
 20
-1.728059895401317
 30
0.0
 10
4.521515569616148
 20
-1.728059895401317
 30
0.0
  0
HATCH
  5
C9
330
C3
100
AcDbEntity
  8
Livello 2
 62
   250
420
  1907995
440
 33554687
100
AcDbHatch
 10
0.0
 20
0.0
 30
0.0
210
0.0
220
0.0
230
1.0
  2
SOLID
 70
     1
 71
     1
 91
        2
 92
        1
 93
        1
 72
     4
 94
        3
 73
     0
 74
     0
 95
       20
 96
       16
 40
0.0
 40
0.0
 40
0.0
 40
0.0
 40
1.0
 40
1.0
 40
1.0
 40
2.0
 40
2.0
 40
2.0
 40
3.0
 40
3.0
 40
3.0
 40
4.0
 40
4.0
 40
4.0
 40
5.0
 40
5.0
 40
5.0
 40
5.0
 10
4.535054794873179
 20
-1.569792208808939
 10
4.535054794873179
 20
-1.604070908887175
 10
4.555794269694383
 20
-1.628186577283925
 10
4.587937010571764
 20
-1.628186577283925
 10
4.612913952839826
 20
-1.628186577283925
 10
4.632361516854061
 20
-1.615922037356436
 10
4.642093911599891
 20
-1.599420029982089
 10
4.644212645323321
 20
-1.596043836406543
 10
4.645487330652863
 20
-1.591806368959686
 10
4.645487330652863
 20
-1.585880804725056
 10
4.645487330652863
 20
-1.538924153261101
 10
4.62814127488463
 20
-1.502957356395094
 10
4.589211695901306
 20
-1.502957356395094
 10
4.557482366482156
 20
-1.502957356395094
 10
4.535054794873179
 20
-1.530897080780468
 10
4.535054794873179
 20
-1.569792208808939
 97
        1
330
C7
 92
        1
 93
        1
 72
     4
 94
        3
 73
     0
 74
     0
 95
       41
 96
       37
 40
0.0
 40
0.0
 40
0.0
 40
0.0
 40
1.0
 40
1.0
 40
1.0
 40
2.0
 40
2.0
 40
2.0
 40
3.0
 40
3.0
 40
3.0
 40
4.0
 40
4.0
 40
4.0
 40
5.0
 40
5.0
 40
5.0
 40
6.0
 40
6.0
 40
6.0
 40
7.0
 40
7.0
 40
7.0
 40
8.0
 40
8.0
 40
8.0
 40
9.0
 40
9.0
 40
9.0
 40
10.0
 40
10.0
 40
10.0
 40
11.0
 40
11.0
 40
11.0
 40
12.0
 40
12.0
 40
12.0
 40
12.0
 10
4.521515569616148
 20
-1.728059895401317
 10
4.529559867574207
 20
-1.728886718317778
 10
4.53886162538438
 20
-1.728059895401317
 10
4.551556802247526
 20
-1.726785210071775
 10
4.573140325462617
 20
-1.72382242795446
 10
4.593449163348163
 20
-1.714934081602515
 10
4.609089896851199
 20
-1.700120171015941
 10
4.627297226490743
 20
-1.683618163641595
 10
4.64040581481212
 20
-1.659502495244846
 10
4.645487330652863
 20
-1.626911891954383
 10
4.645487330652863
 20
-1.626911891954383
 10
4.644212645323321
 20
-1.626911891954383
 10
4.644212645323321
 20
-1.626911891954383
 10
4.628985323278516
 20
-1.645549858529584
 10
4.606988388605197
 20
-1.65653971312753
 10
4.579479301155476
 20
-1.65653971312753
 10
4.529973279032436
 20
-1.65653971312753
 10
4.498243949613286
 20
-1.61929823093198
 10
4.498243949613286
 20
-1.572341579468024
 10
4.498243949613286
 20
-1.520286186685899
 10
4.535898843267066
 20
-1.474604220551486
 10
4.592174478018621
 20
-1.474604220551486
 10
4.648450112770177
 20
-1.474604220551486
 10
4.683142224306643
 20
-1.520286186685899
 10
4.683142224306643
 20
-1.590531683630143
 10
4.683142224306643
 20
-1.65102756035113
 10
4.662833386421096
 20
-1.693367783864851
 10
4.635754935907033
 20
-1.719584960507603
 10
4.614602049627598
 20
-1.740324435328806
 10
4.585404865390106
 20
-1.753002386714526
 10
4.555794269694383
 20
-1.756378580290071
 10
4.542255044437351
 20
-1.758514539490926
 10
4.530403915968093
 20
-1.758927950949155
 10
4.521515569616148
 20
-1.758514539490926
 10
4.521515569616148
 20
-1.758514539490926
 10
4.521515569616148
 20
-1.728059895401317
 10
4.521515569616148
 20
-1.728059895401317
 97
        1
330
C8
 75
     2
 76
     1
 98
        1
 10
0.0
 20
0.0
450
        0
451
        0
460
0.0
461
0.0
452
        0
462
0.0
453
        0
470

  0
SPLINE
  5
CA
330
C3
100
AcDbEntity
  8
Livello 2
100
AcDbSpline
210
0.0
220
0.0
230
1.0
 70
     9
 71
     3
 72
    17
 73
    13
 74
     0
 42
0.000000001
 43
0.0000000001
 40
0.0
 40
0.0
 40
0.0
 40
0.0
 40
1.0
 40
1.0
 40
1.0
 40
2.0
 40
2.0
 40
2.0
 40
3.0
 40
3.0
 40
3.0
 40
4.0
 40
4.0
 40
4.0
 40
4.0
 10
4.750511066520703
 20
-1.618023545602438
 30
0.0
 10
4.750511066520703
 20
-1.689543727876225
 30
0.0
 10
4.772525226671451
 20
-1.73016140364732
 30
0.0
 10
4.806356064336605
 20
-1.73016140364732
 30
0.0
 10
4.844458820403468
 20
-1.73016140364732
 30
0.0
 10
4.862648924565586
 20
-1.685719671887596
 30
0.0
 10
4.862648924565586
 20
-1.615508625898205
 30
0.0
 10
4.862648924565586
 20
-1.547812499613045
 30
0.0
 10
4.845285643319927
 20
-1.503370767853323
 30
0.0
 10
4.806803926749686
 20
-1.503370767853323
 30
0.0
 10
4.774213323459223
 20
-1.503370767853323
 30
0.0
 10
4.750511066520703
 20
-1.543161620707959
 30
0.0
 10
4.750511066520703
 20
-1.618023545602438
 30
0.0
  0
SPLINE
  5
CB
330
C3
100
AcDbEntity
  8
Livello 2
100
AcDbSpline
210
0.0
220
0.0
230
1.0
 70
     9
 71
     3
 72
    17
 73
    13
 74
     0
 42
0.000000001
 43
0.0000000001
 40
0.0
 40
0.0
 40
0.0
 40
0.0
 40
1.0
 40
1.0
 40
1.0
 40
2.0
 40
2.0
 40
2.0
 40
3.0
 40
3.0
 40
3.0
 40
4.0
 40
4.0
 40
4.0
 40
4.0
 10
4.899890406761136
 20
-1.613820529110433
 30
0.0
 10
4.899890406761136
 20
-1.707320420580114
 30
0.0
 10
4.865198295224671
 20
-1.758927950949155
 30
0.0
 10
4.804254556090601
 20
-1.758927950949155
 30
0.0
 10
4.750511066520703
 20
-1.758927950949155
 30
0.0
 10
4.714130858196465
 20
-1.708595105909656
 30
0.0
 10
4.713286809802579
 20
-1.617610134144208
 30
0.0
 10
4.713286809802579
 20
-1.525384928004069
 30
0.0
 10
4.753060437179788
 20
-1.474604220551486
 30
0.0
 10
4.80890543499569
 20
-1.474604220551486
 30
0.0
 10
4.866886392012443
 20
-1.474604220551486
 30
0.0
 10
4.899890406761136
 20
-1.52621175092053
 30
0.0
 10
4.899890406761136
 20
-1.613820529110433
 30
0.0
  0
HATCH
  5
CC
330
C3
100
AcDbEntity
  8
Livello 2
 62
   250
420
  1907995
440
 33554687
100
AcDbHatch
 10
0.0
 20
0.0
 30
0.0
210
0.0
220
0.0
230
1.0
  2
SOLID
 70
     1
 71
     1
 91
        2
 92
        1
 93
        1
 72
     4
 94
        3
 73
     0
 74
     0
 95
       17
 96
       13
 40
0.0
 40
0.0
 40
0.0
 40
0.0
 40
1.0
 40
1.0
 40
1.0
 40
2.0
 40
2.0
 40
2.0
 40
3.0
 40
3.0
 40
3.0
 40
4.0
 40
4.0
 40
4.0
 40
4.0
 10
4.750511066520703
 20
-1.618023545602438
 10
4.750511066520703
 20
-1.689543727876225
 10
4.772525226671451
 20
-1.73016140364732
 10
4.806356064336605
 20
-1.73016140364732
 10
4.844458820403468
 20
-1.73016140364732
 10
4.862648924565586
 20
-1.685719671887596
 10
4.862648924565586
 20
-1.615508625898205
 10
4.862648924565586
 20
-1.547812499613045
 10
4.845285643319927
 20
-1.503370767853323
 10
4.806803926749686
 20
-1.503370767853323
 10
4.774213323459223
 20
-1.503370767853323
 10
4.750511066520703
 20
-1.543161620707959
 10
4.750511066520703
 20
-1.618023545602438
 97
        1
330
CA
 92
        1
 93
        1
 72
     4
 94
        3
 73
     0
 74
     0
 95
       17
 96
       13
 40
0.0
 40
0.0
 40
0.0
 40
0.0
 40
1.0
 40
1.0
 40
1.0
 40
2.0
 40
2.0
 40
2.0
 40
3.0
 40
3.0
 40
3.0
 40
4.0
 40
4.0
 40
4.0
 40
4.0
 10
4.899890406761136
 20
-1.613820529110433
 10
4.899890406761136
 20
-1.707320420580114
 10
4.865198295224671
 20
-1.758927950949155
 10
4.804254556090601
 20
-1.758927950949155
 10
4.750511066520703
 20
-1.758927950949155
 10
4.714130858196465
 20
-1.708595105909656
 10
4.713286809802579
 20
-1.617610134144208
 10
4.713286809802579
 20
-1.525384928004069
 10
4.753060437179788
 20
-1.474604220551486
 10
4.80890543499569
 20
-1.474604220551486
 10
4.866886392012443
 20
-1.474604220551486
 10
4.899890406761136
 20
-1.52621175092053
 10
4.899890406761136
 20
-1.613820529110433
 97
        1
330
CB
 75
     2
 76
     1
 98
        1
 10
0.0
 20
0.0
450
        0
451
        0
460
0.0
461
0.0
452
        0
462
0.0
453
        0
470

  0
SPLINE
  5
CD
330
C3
100
AcDbEntity
  8
Livello 2
100
AcDbSpline
210
0.0
220
0.0
230
1.0
 70
     9
 71
     3
 72
    80
 73
    76
 74
     0
 42
0.000000001
 43
0.0000000001
 40
0.0
 40
0.0
 40
0.0
 40
0.0
 40
1.0
 40
1.0
 40
1.0
 40
2.0
 40
2.0
 40
2.0
 40
3.0
 40
3.0
 40
3.0
 40
4.0
 40
4.0
 40
4.0
 40
5.0
 40
5.0
 40
5.0
 40
6.0
 40
6.0
 40
6.0
 40
7.0
 40
7.0
 40
7.0
 40
8.0
 40
8.0
 40
8.0
 40
9.0
 40
9.0
 40
9.0
 40
10.0
 40
10.0
 40
10.0
 40
11.0
 40
11.0
 40
11.0
 40
12.0
 40
12.0
 40
12.0
 40
13.0
 40
13.0
 40
13.0
 40
14.0
 40
14.0
 40
14.0
 40
15.0
 40
15.0
 40
15.0
 40
16.0
 40
16.0
 40
16.0
 40
17.0
 40
17.0
 40
17.0
 40
18.0
 40
18.0
 40
18.0
 40
19.0
 40
19.0
 40
19.0
 40
20.0
 40
20.0
 40
20.0
 40
21.0
 40
21.0
 40
21.0
 40
22.0
 40
22.0
 40
22.0
 40
23.0
 40
23.0
 40
23.0
 40
24.0
 40
24.0
 40
24.0
 40
25.0
 40
25.0
 40
25.0
 40
25.0
 10
5.035868325563948
 20
-1.604932182758489
 30
0.0
 10
5.035868325563948
 20
-1.583779296479054
 30
0.0
 10
5.035420463150866
 20
-1.566416015233395
 30
0.0
 10
5.034145777821324
 20
-1.549500596400819
 30
0.0
 10
5.034145777821324
 20
-1.549500596400819
 30
0.0
 10
5.066736381111788
 20
-1.549500596400819
 30
0.0
 10
5.066736381111788
 20
-1.549500596400819
 30
0.0
 10
5.066736381111788
 20
-1.549500596400819
 30
0.0
 10
5.068424477899559
 20
-1.582504611149512
 30
0.0
 10
5.068424477899559
 20
-1.582504611149512
 30
0.0
 10
5.068424477899559
 20
-1.582504611149512
 30
0.0
 10
5.069699163229101
 20
-1.582504611149512
 30
0.0
 10
5.069699163229101
 20
-1.582504611149512
 30
0.0
 10
5.081136880240131
 20
-1.56303982165785
 30
0.0
 10
5.10015380731871
 20
-1.54484971749573
 30
0.0
 10
5.134019095938715
 20
-1.54484971749573
 30
0.0
 10
5.16192436936924
 20
-1.54484971749573
 30
0.0
 10
5.183077255648673
 20
-1.561765136328308
 30
0.0
 10
5.191965602000618
 20
-1.585880804725056
 30
0.0
 10
5.191965602000618
 20
-1.585880804725056
 30
0.0
 10
5.192826875871931
 20
-1.585880804725056
 30
0.0
 10
5.192826875871931
 20
-1.585880804725056
 30
0.0
 10
5.19916585156479
 20
-1.574443087714028
 30
0.0
 10
5.207192924045422
 20
-1.565589192316935
 30
0.0
 10
5.215667858939137
 20
-1.559215765669223
 30
0.0
 10
5.227932398866626
 20
-1.549914007859049
 30
0.0
 10
5.241471624123659
 20
-1.54484971749573
 30
0.0
 10
5.26093641361532
 20
-1.54484971749573
 30
0.0
 10
5.288014864129383
 20
-1.54484971749573
 30
0.0
 10
5.328219128442249
 20
-1.56262641019962
 30
0.0
 10
5.328219128442249
 20
-1.633698730060324
 30
0.0
 10
5.328219128442249
 20
-1.633698730060324
 30
0.0
 10
5.328219128442249
 20
-1.754277072044069
 30
0.0
 10
5.328219128442249
 20
-1.754277072044069
 30
0.0
 10
5.328219128442249
 20
-1.754277072044069
 30
0.0
 10
5.291838920118012
 20
-1.754277072044069
 30
0.0
 10
5.291838920118012
 20
-1.754277072044069
 30
0.0
 10
5.291838920118012
 20
-1.754277072044069
 30
0.0
 10
5.291838920118012
 20
-1.638349608965411
 30
0.0
 10
5.291838920118012
 20
-1.638349608965411
 30
0.0
 10
5.291838920118012
 20
-1.599006618523859
 30
0.0
 10
5.277438420989668
 20
-1.57530436158534
 30
0.0
 10
5.247397188358289
 20
-1.57530436158534
 30
0.0
 10
5.226244302078855
 20
-1.57530436158534
 30
0.0
 10
5.209742294704507
 20
-1.590945095088374
 30
0.0
 10
5.203403319011647
 20
-1.609169650205346
 30
0.0
 10
5.201715222223875
 20
-1.614233940568663
 30
0.0
 10
5.200440536894332
 20
-1.620986327719753
 30
0.0
 10
5.200440536894332
 20
-1.627773165825695
 30
0.0
 10
5.200440536894332
 20
-1.627773165825695
 30
0.0
 10
5.200440536894332
 20
-1.754277072044069
 30
0.0
 10
5.200440536894332
 20
-1.754277072044069
 30
0.0
 10
5.200440536894332
 20
-1.754277072044069
 30
0.0
 10
5.164060328570094
 20
-1.754277072044069
 30
0.0
 10
5.164060328570094
 20
-1.754277072044069
 30
0.0
 10
5.164060328570094
 20
-1.754277072044069
 30
0.0
 10
5.164060328570094
 20
-1.63156277085947
 30
0.0
 10
5.164060328570094
 20
-1.63156277085947
 30
0.0
 10
5.164060328570094
 20
-1.599006618523859
 30
0.0
 10
5.149659829441751
 20
-1.57530436158534
 30
0.0
 10
5.121306693598143
 20
-1.57530436158534
 30
0.0
 10
5.098052299072707
 20
-1.57530436158534
 30
0.0
 10
5.081136880240131
 20
-1.593907877205688
 30
0.0
 10
5.075211316005502
 20
-1.612545843780891
 30
0.0
 10
5.073075356804646
 20
-1.618023545602438
 30
0.0
 10
5.072248533888187
 20
-1.624396972250149
 30
0.0
 10
5.072248533888187
 20
-1.63073594794301
 30
0.0
 10
5.072248533888187
 20
-1.63073594794301
 30
0.0
 10
5.072248533888187
 20
-1.754277072044069
 30
0.0
 10
5.072248533888187
 20
-1.754277072044069
 30
0.0
 10
5.072248533888187
 20
-1.754277072044069
 30
0.0
 10
5.035868325563948
 20
-1.754277072044069
 30
0.0
 10
5.035868325563948
 20
-1.754277072044069
 30
0.0
 10
5.035868325563948
 20
-1.754277072044069
 30
0.0
 10
5.035868325563948
 20
-1.604932182758489
 30
0.0
 10
5.035868325563948
 20
-1.604932182758489
 30
0.0
  0
HATCH
  5
CE
330
C3
100
AcDbEntity
  8
Livello 2
 62
   250
420
  1907995
440
 33554687
100
AcDbHatch
 10
0.0
 20
0.0
 30
0.0
210
0.0
220
0.0
230
1.0
  2
SOLID
 70
     1
 71
     1
 91
        1
 92
        1
 93
        1
 72
     4
 94
        3
 73
     0
 74
     0
 95
       80
 96
       76
 40
0.0
 40
0.0
 40
0.0
 40
0.0
 40
1.0
 40
1.0
 40
1.0
 40
2.0
 40
2.0
 40
2.0
 40
3.0
 40
3.0
 40
3.0
 40
4.0
 40
4.0
 40
4.0
 40
5.0
 40
5.0
 40
5.0
 40
6.0
 40
6.0
 40
6.0
 40
7.0
 40
7.0
 40
7.0
 40
8.0
 40
8.0
 40
8.0
 40
9.0
 40
9.0
 40
9.0
 40
10.0
 40
10.0
 40
10.0
 40
11.0
 40
11.0
 40
11.0
 40
12.0
 40
12.0
 40
12.0
 40
13.0
 40
13.0
 40
13.0
 40
14.0
 40
14.0
 40
14.0
 40
15.0
 40
15.0
 40
15.0
 40
16.0
 40
16.0
 40
16.0
 40
17.0
 40
17.0
 40
17.0
 40
18.0
 40
18.0
 40
18.0
 40
19.0
 40
19.0
 40
19.0
 40
20.0
 40
20.0
 40
20.0
 40
21.0
 40
21.0
 40
21.0
 40
22.0
 40
22.0
 40
22.0
 40
23.0
 40
23.0
 40
23.0
 40
24.0
 40
24.0
 40
24.0
 40
25.0
 40
25.0
 40
25.0
 40
25.0
 10
5.035868325563948
 20
-1.604932182758489
 10
5.035868325563948
 20
-1.583779296479054
 10
5.035420463150866
 20
-1.566416015233395
 10
5.034145777821324
 20
-1.549500596400819
 10
5.034145777821324
 20
-1.549500596400819
 10
5.066736381111788
 20
-1.549500596400819
 10
5.066736381111788
 20
-1.549500596400819
 10
5.066736381111788
 20
-1.549500596400819
 10
5.068424477899559
 20
-1.582504611149512
 10
5.068424477899559
 20
-1.582504611149512
 10
5.068424477899559
 20
-1.582504611149512
 10
5.069699163229101
 20
-1.582504611149512
 10
5.069699163229101
 20
-1.582504611149512
 10
5.081136880240131
 20
-1.56303982165785
 10
5.10015380731871
 20
-1.54484971749573
 10
5.134019095938715
 20
-1.54484971749573
 10
5.16192436936924
 20
-1.54484971749573
 10
5.183077255648673
 20
-1.561765136328308
 10
5.191965602000618
 20
-1.585880804725056
 10
5.191965602000618
 20
-1.585880804725056
 10
5.192826875871931
 20
-1.585880804725056
 10
5.192826875871931
 20
-1.585880804725056
 10
5.19916585156479
 20
-1.574443087714028
 10
5.207192924045422
 20
-1.565589192316935
 10
5.215667858939137
 20
-1.559215765669223
 10
5.227932398866626
 20
-1.549914007859049
 10
5.241471624123659
 20
-1.54484971749573
 10
5.26093641361532
 20
-1.54484971749573
 10
5.288014864129383
 20
-1.54484971749573
 10
5.328219128442249
 20
-1.56262641019962
 10
5.328219128442249
 20
-1.633698730060324
 10
5.328219128442249
 20
-1.633698730060324
 10
5.328219128442249
 20
-1.754277072044069
 10
5.328219128442249
 20
-1.754277072044069
 10
5.328219128442249
 20
-1.754277072044069
 10
5.291838920118012
 20
-1.754277072044069
 10
5.291838920118012
 20
-1.754277072044069
 10
5.291838920118012
 20
-1.754277072044069
 10
5.291838920118012
 20
-1.638349608965411
 10
5.291838920118012
 20
-1.638349608965411
 10
5.291838920118012
 20
-1.599006618523859
 10
5.277438420989668
 20
-1.57530436158534
 10
5.247397188358289
 20
-1.57530436158534
 10
5.226244302078855
 20
-1.57530436158534
 10
5.209742294704507
 20
-1.590945095088374
 10
5.203403319011647
 20
-1.609169650205346
 10
5.201715222223875
 20
-1.614233940568663
 10
5.200440536894332
 20
-1.620986327719753
 10
5.200440536894332
 20
-1.627773165825695
 10
5.200440536894332
 20
-1.627773165825695
 10
5.200440536894332
 20
-1.754277072044069
 10
5.200440536894332
 20
-1.754277072044069
 10
5.200440536894332
 20
-1.754277072044069
 10
5.164060328570094
 20
-1.754277072044069
 10
5.164060328570094
 20
-1.754277072044069
 10
5.164060328570094
 20
-1.754277072044069
 10
5.164060328570094
 20
-1.63156277085947
 10
5.164060328570094
 20
-1.63156277085947
 10
5.164060328570094
 20
-1.599006618523859
 10
5.149659829441751
 20
-1.57530436158534
 10
5.121306693598143
 20
-1.57530436158534
 10
5.098052299072707
 20
-1.57530436158534
 10
5.081136880240131
 20
-1.593907877205688
 10
5.075211316005502
 20
-1.612545843780891
 10
5.073075356804646
 20
-1.618023545602438
 10
5.072248533888187
 20
-1.624396972250149
 10
5.072248533888187
 20
-1.63073594794301
 10
5.072248533888187
 20
-1.63073594794301
 10
5.072248533888187
 20
-1.754277072044069
 10
5.072248533888187
 20
-1.754277072044069
 10
5.072248533888187
 20
-1.754277072044069
 10
5.035868325563948
 20
-1.754277072044069
 10
5.035868325563948
 20
-1.754277072044069
 10
5.035868325563948
 20
-1.754277072044069
 10
5.035868325563948
 20
-1.604932182758489
 10
5.035868325563948
 20
-1.604932182758489
 97
        1
330
CD
 75
     2
 76
     1
 98
        1
 10
0.0
 20
0.0
450
        0
451
        0
460
0.0
461
0.0
452
        0
462
0.0
453
        0
470

  0
SPLINE
  5
CF
330
C3
100
AcDbEntity
  8
Livello 2
100
AcDbSpline
210
0.0
220
0.0
230
1.0
 70
     9
 71
     3
 72
    80
 73
    76
 74
     0
 42
0.000000001
 43
0.0000000001
 40
0.0
 40
0.0
 40
0.0
 40
0.0
 40
1.0
 40
1.0
 40
1.0
 40
2.0
 40
2.0
 40
2.0
 40
3.0
 40
3.0
 40
3.0
 40
4.0
 40
4.0
 40
4.0
 40
5.0
 40
5.0
 40
5.0
 40
6.0
 40
6.0
 40
6.0
 40
7.0
 40
7.0
 40
7.0
 40
8.0
 40
8.0
 40
8.0
 40
9.0
 40
9.0
 40
9.0
 40
10.0
 40
10.0
 40
10.0
 40
11.0
 40
11.0
 40
11.0
 40
12.0
 40
12.0
 40
12.0
 40
13.0
 40
13.0
 40
13.0
 40
14.0
 40
14.0
 40
14.0
 40
15.0
 40
15.0
 40
15.0
 40
16.0
 40
16.0
 40
16.0
 40
17.0
 40
17.0
 40
17.0
 40
18.0
 40
18.0
 40
18.0
 40
19.0
 40
19.0
 40
19.0
 40
20.0
 40
20.0
 40
20.0
 40
21.0
 40
21.0
 40
21.0
 40
22.0
 40
22.0
 40
22.0
 40
23.0
 40
23.0
 40
23.0
 40
24.0
 40
24.0
 40
24.0
 40
25.0
 40
25.0
 40
25.0
 40
25.0
 10
5.388921710892351
 20
-1.604932182758489
 30
0.0
 10
5.388921710892351
 20
-1.583779296479054
 30
0.0
 10
5.388473848479269
 20
-1.566416015233395
 30
0.0
 10
5.387199163149726
 20
-1.549500596400819
 30
0.0
 10
5.387199163149726
 20
-1.549500596400819
 30
0.0
 10
5.419789766440191
 20
-1.549500596400819
 30
0.0
 10
5.419789766440191
 20
-1.549500596400819
 30
0.0
 10
5.419789766440191
 20
-1.549500596400819
 30
0.0
 10
5.421477863227963
 20
-1.582504611149512
 30
0.0
 10
5.421477863227963
 20
-1.582504611149512
 30
0.0
 10
5.421477863227963
 20
-1.582504611149512
 30
0.0
 10
5.422752548557505
 20
-1.582504611149512
 30
0.0
 10
5.422752548557505
 20
-1.582504611149512
 30
0.0
 10
5.434190265568535
 20
-1.56303982165785
 30
0.0
 10
5.453207192647114
 20
-1.54484971749573
 30
0.0
 10
5.487072481267119
 20
-1.54484971749573
 30
0.0
 10
5.514977754697643
 20
-1.54484971749573
 30
0.0
 10
5.536130640977077
 20
-1.561765136328308
 30
0.0
 10
5.545018987329021
 20
-1.585880804725056
 30
0.0
 10
5.545018987329021
 20
-1.585880804725056
 30
0.0
 10
5.545880261200334
 20
-1.585880804725056
 30
0.0
 10
5.545880261200334
 20
-1.585880804725056
 30
0.0
 10
5.552219236893193
 20
-1.574443087714028
 30
0.0
 10
5.560246309373827
 20
-1.565589192316935
 30
0.0
 10
5.568721244267541
 20
-1.559215765669223
 30
0.0
 10
5.580985784195029
 20
-1.549914007859049
 30
0.0
 10
5.594525009452063
 20
-1.54484971749573
 30
0.0
 10
5.613989798943723
 20
-1.54484971749573
 30
0.0
 10
5.641068249457787
 20
-1.54484971749573
 30
0.0
 10
5.681272513770651
 20
-1.56262641019962
 30
0.0
 10
5.681272513770651
 20
-1.633698730060324
 30
0.0
 10
5.681272513770651
 20
-1.633698730060324
 30
0.0
 10
5.681272513770651
 20
-1.754277072044069
 30
0.0
 10
5.681272513770651
 20
-1.754277072044069
 30
0.0
 10
5.681272513770651
 20
-1.754277072044069
 30
0.0
 10
5.644892305446415
 20
-1.754277072044069
 30
0.0
 10
5.644892305446415
 20
-1.754277072044069
 30
0.0
 10
5.644892305446415
 20
-1.754277072044069
 30
0.0
 10
5.644892305446415
 20
-1.638349608965411
 30
0.0
 10
5.644892305446415
 20
-1.638349608965411
 30
0.0
 10
5.644892305446415
 20
-1.599006618523859
 30
0.0
 10
5.630491806318071
 20
-1.57530436158534
 30
0.0
 10
5.600450573686691
 20
-1.57530436158534
 30
0.0
 10
5.579297687407257
 20
-1.57530436158534
 30
0.0
 10
5.562795680032912
 20
-1.590945095088374
 30
0.0
 10
5.55645670434005
 20
-1.609169650205346
 30
0.0
 10
5.554768607552277
 20
-1.614233940568663
 30
0.0
 10
5.553493922222735
 20
-1.620986327719753
 30
0.0
 10
5.553493922222735
 20
-1.627773165825695
 30
0.0
 10
5.553493922222735
 20
-1.627773165825695
 30
0.0
 10
5.553493922222735
 20
-1.754277072044069
 30
0.0
 10
5.553493922222735
 20
-1.754277072044069
 30
0.0
 10
5.553493922222735
 20
-1.754277072044069
 30
0.0
 10
5.517113713898497
 20
-1.754277072044069
 30
0.0
 10
5.517113713898497
 20
-1.754277072044069
 30
0.0
 10
5.517113713898497
 20
-1.754277072044069
 30
0.0
 10
5.517113713898497
 20
-1.63156277085947
 30
0.0
 10
5.517113713898497
 20
-1.63156277085947
 30
0.0
 10
5.517113713898497
 20
-1.599006618523859
 30
0.0
 10
5.502713214770153
 20
-1.57530436158534
 30
0.0
 10
5.474360078926547
 20
-1.57530436158534
 30
0.0
 10
5.451105684401111
 20
-1.57530436158534
 30
0.0
 10
5.434190265568535
 20
-1.593907877205688
 30
0.0
 10
5.428264701333906
 20
-1.612545843780891
 30
0.0
 10
5.42612874213305
 20
-1.618023545602438
 30
0.0
 10
5.42530191921659
 20
-1.624396972250149
 30
0.0
 10
5.42530191921659
 20
-1.63073594794301
 30
0.0
 10
5.42530191921659
 20
-1.63073594794301
 30
0.0
 10
5.42530191921659
 20
-1.754277072044069
 30
0.0
 10
5.42530191921659
 20
-1.754277072044069
 30
0.0
 10
5.42530191921659
 20
-1.754277072044069
 30
0.0
 10
5.388921710892351
 20
-1.754277072044069
 30
0.0
 10
5.388921710892351
 20
-1.754277072044069
 30
0.0
 10
5.388921710892351
 20
-1.754277072044069
 30
0.0
 10
5.388921710892351
 20
-1.604932182758489
 30
0.0
 10
5.388921710892351
 20
-1.604932182758489
 30
0.0
  0
HATCH
  5
D0
330
C3
100
AcDbEntity
  8
Livello 2
 62
   250
420
  1907995
440
 33554687
100
AcDbHatch
 10
0.0
 20
0.0
 30
0.0
210
0.0
220
0.0
230
1.0
  2
SOLID
 70
     1
 71
     1
 91
        1
 92
        1
 93
        1
 72
     4
 94
        3
 73
     0
 74
     0
 95
       80
 96
       76
 40
0.0
 40
0.0
 40
0.0
 40
0.0
 40
1.0
 40
1.0
 40
1.0
 40
2.0
 40
2.0
 40
2.0
 40
3.0
 40
3.0
 40
3.0
 40
4.0
 40
4.0
 40
4.0
 40
5.0
 40
5.0
 40
5.0
 40
6.0
 40
6.0
 40
6.0
 40
7.0
 40
7.0
 40
7.0
 40
8.0
 40
8.0
 40
8.0
 40
9.0
 40
9.0
 40
9.0
 40
10.0
 40
10.0
 40
10.0
 40
11.0
 40
11.0
 40
11.0
 40
12.0
 40
12.0
 40
12.0
 40
13.0
 40
13.0
 40
13.0
 40
14.0
 40
14.0
 40
14.0
 40
15.0
 40
15.0
 40
15.0
 40
16.0
 40
16.0
 40
16.0
 40
17.0
 40
17.0
 40
17.0
 40
18.0
 40
18.0
 40
18.0
 40
19.0
 40
19.0
 40
19.0
 40
20.0
 40
20.0
 40
20.0
 40
21.0
 40
21.0
 40
21.0
 40
22.0
 40
22.0
 40
22.0
 40
23.0
 40
23.0
 40
23.0
 40
24.0
 40
24.0
 40
24.0
 40
25.0
 40
25.0
 40
25.0
 40
25.0
 10
5.388921710892351
 20
-1.604932182758489
 10
5.388921710892351
 20
-1.583779296479054
 10
5.388473848479269
 20
-1.566416015233395
 10
5.387199163149726
 20
-1.549500596400819
 10
5.387199163149726
 20
-1.549500596400819
 10
5.419789766440191
 20
-1.549500596400819
 10
5.419789766440191
 20
-1.549500596400819
 10
5.419789766440191
 20
-1.549500596400819
 10
5.421477863227963
 20
-1.582504611149512
 10
5.421477863227963
 20
-1.582504611149512
 10
5.421477863227963
 20
-1.582504611149512
 10
5.422752548557505
 20
-1.582504611149512
 10
5.422752548557505
 20
-1.582504611149512
 10
5.434190265568535
 20
-1.56303982165785
 10
5.453207192647114
 20
-1.54484971749573
 10
5.487072481267119
 20
-1.54484971749573
 10
5.514977754697643
 20
-1.54484971749573
 10
5.536130640977077
 20
-1.561765136328308
 10
5.545018987329021
 20
-1.585880804725056
 10
5.545018987329021
 20
-1.585880804725056
 10
5.545880261200334
 20
-1.585880804725056
 10
5.545880261200334
 20
-1.585880804725056
 10
5.552219236893193
 20
-1.574443087714028
 10
5.560246309373827
 20
-1.565589192316935
 10
5.568721244267541
 20
-1.559215765669223
 10
5.580985784195029
 20
-1.549914007859049
 10
5.594525009452063
 20
-1.54484971749573
 10
5.613989798943723
 20
-1.54484971749573
 10
5.641068249457787
 20
-1.54484971749573
 10
5.681272513770651
 20
-1.56262641019962
 10
5.681272513770651
 20
-1.633698730060324
 10
5.681272513770651
 20
-1.633698730060324
 10
5.681272513770651
 20
-1.754277072044069
 10
5.681272513770651
 20
-1.754277072044069
 10
5.681272513770651
 20
-1.754277072044069
 10
5.644892305446415
 20
-1.754277072044069
 10
5.644892305446415
 20
-1.754277072044069
 10
5.644892305446415
 20
-1.754277072044069
 10
5.644892305446415
 20
-1.638349608965411
 10
5.644892305446415
 20
-1.638349608965411
 10
5.644892305446415
 20
-1.599006618523859
 10
5.630491806318071
 20
-1.57530436158534
 10
5.600450573686691
 20
-1.57530436158534
 10
5.579297687407257
 20
-1.57530436158534
 10
5.562795680032912
 20
-1.590945095088374
 10
5.55645670434005
 20
-1.609169650205346
 10
5.554768607552277
 20
-1.614233940568663
 10
5.553493922222735
 20
-1.620986327719753
 10
5.553493922222735
 20
-1.627773165825695
 10
5.553493922222735
 20
-1.627773165825695
 10
5.553493922222735
 20
-1.754277072044069
 10
5.553493922222735
 20
-1.754277072044069
 10
5.553493922222735
 20
-1.754277072044069
 10
5.517113713898497
 20
-1.754277072044069
 10
5.517113713898497
 20
-1.754277072044069
 10
5.517113713898497
 20
-1.754277072044069
 10
5.517113713898497
 20
-1.63156277085947
 10
5.517113713898497
 20
-1.63156277085947
 10
5.517113713898497
 20
-1.599006618523859
 10
5.502713214770153
 20
-1.57530436158534
 10
5.474360078926547
 20
-1.57530436158534
 10
5.451105684401111
 20
-1.57530436158534
 10
5.434190265568535
 20
-1.593907877205688
 10
5.428264701333906
 20
-1.612545843780891
 10
5.42612874213305
 20
-1.618023545602438
 10
5.42530191921659
 20
-1.624396972250149
 10
5.42530191921659
 20
-1.63073594794301
 10
5.42530191921659
 20
-1.63073594794301
 10
5.42530191921659
 20
-1.754277072044069
 10
5.42530191921659
 20
-1.754277072044069
 10
5.42530191921659
 20
-1.754277072044069
 10
5.388921710892351
 20
-1.754277072044069
 10
5.388921710892351
 20
-1.754277072044069
 10
5.388921710892351
 20
-1.754277072044069
 10
5.388921710892351
 20
-1.604932182758489
 10
5.388921710892351
 20
-1.604932182758489
 97
        1
330
CF
 75
     2
 76
     1
 98
        1
 10
0.0
 20
0.0
450
        0
451
        0
460
0.0
461
0.0
452
        0
462
0.0
453
        0
470

  0
ENDBLK
  5
C6
330
C3
100
AcDbEntity
  8
0
100
AcDbBlockEnd
  0
ENDSEC
  0
SECTION
  2
ENTITIES
  0
LWPOLYLINE
  5
79
330
70
100
AcDbEntity
  8
0
100
AcDbPolyline
 90
        4
 70
     1
 43
0.0
 10
4.884977169645816
 20
-6.462792424599577
 10
4.814421614107898
 20
-6.462792424599577
 10
4.814421614107898
 20
-2.471304795389118
 10
4.884977169645816
 20
-2.471304795389118
  0
LWPOLYLINE
  5
7A
330
70
100
AcDbEntity
  8
0
100
AcDbPolyline
 90
        4
 70
     1
 43
0.0
 10
5.218516882847342
 20
-2.471304795389118
 10
4.480881900906402
 20
-2.471304795389118
 10
4.480881900906402
 20
-2.237619047059615
 10
5.218516882847342
 20
-2.237619047059615
  0
LWPOLYLINE
  5
7B
330
70
100
AcDbEntity
  8
0
100
AcDbPolyline
 90
        9
 70
     1
 43
0.0
 10
6.020176123758748
 20
-8.128211305334067
 10
6.020176123779926
 20
-7.658748894164128
 10
4.911442551245844
 20
-6.839113700843761
 10
4.911442551262754
 20
-6.462004550887598
 10
4.863071227537928
 20
-6.462004550886762
 10
4.788838823538331
 20
-6.462004550885477
 10
4.788838823538331
 20
-6.839113700841709
 10
3.608667104435938
 20
-7.658748894130567
 10
3.608667104435938
 20
-8.12821130530057
  0
LINE
  5
7C
330
70
100
AcDbEntity
  8
0
100
AcDbLine
 10
3.608667104435938
 20
-7.658748894130567
 30
0.0
 11
6.020176123763817
 21
-7.658748894130567
 31
0.0
  0
LINE
  5
7E
330
70
100
AcDbEntity
  8
0
100
AcDbLine
 10
3.608667104435938
 20
-8.506988387181019
 30
0.0
 11
6.020176123779926
 21
-8.506988387181019
 31
0.0
  0
LINE
  5
7F
330
70
100
AcDbEntity
  8
0
100
AcDbLine
 10
6.727494437473012
 20
-2.237619047059615
 30
0.0
 11
6.727494437473012
 21
-8.128211305334067
 31
0.0
  0
LINE
  5
80
330
70
100
AcDbEntity
  8
0
100
AcDbLine
 10
4.480881900906402
 20
-1.947433232248784
 30
0.0
 11
5.218516882847342
 21
-1.947433232248784
 31
0.0
  0
LINE
  5
81
330
70
100
AcDbEntity
  8
0
100
AcDbLine
 10
3.158532170380861
 20
-6.462004550885477
 30
0.0
 11
3.158532170380861
 21
-8.128211305334067
 31
0.0
  0
MTEXT
  5
11B
330
70
100
AcDbEntity
  8
0
100
AcDbMText
 10
7.059699081023019
 20
-5.267402017504195
 30
0.0
 40
0.4
 41
9.94674818082484
 46
0.0
 71
     1
 72
     5
  1
2300 mm
 73
     1
 44
1.0
1001
ACAD
1000
ACAD_MTEXT_COLUMN_INFO_BEGIN
1070
    75
1070
     2
1070
    79
1070
     0
1070
    76
1070
     1
1070
    78
1070
     0
1070
    48
1040
9.94674818082484
1070
    49
1040
2.0
1070
    50
1070
     1
1040
0.0
1000
ACAD_MTEXT_COLUMN_INFO_END
  0
MTEXT
  5
123
330
70
100
AcDbEntity
  8
0
100
AcDbMText
 10
3.970156242981225
 20
-9.119378736076114
 30
0.0
 40
0.4
 41
9.94674818082484
 46
0.0
 71
     1
 72
     5
  1
300 mm
 73
     1
 44
1.0
1001
ACAD
1000
ACAD_MTEXT_COLUMN_INFO_BEGIN
1070
    75
1070
     2
1070
    79
1070
     0
1070
    76
1070
     1
1070
    78
1070
     0
1070
    48
1040
9.94674818082484
1070
    49
1040
2.0
1070
    50
1070
     1
1040
0.0
1000
ACAD_MTEXT_COLUMN_INFO_END
  0
MTEXT
  5
129
330
70
100
AcDbEntity
  8
0
100
AcDbMText
 10
0.1697452044266114
 20
-7.603175125569386
 30
0.0
 40
0.4
 41
9.94674818082484
 46
0.0
 71
     1
 72
     5
  1
150 mm
 73
     1
 44
1.0
1001
ACAD
1000
ACAD_MTEXT_COLUMN_INFO_BEGIN
1070
    75
1070
     2
1070
    79
1070
     0
1070
    76
1070
     1
1070
    78
1070
     0
1070
    48
1040
9.94674818082484
1070
    49
1040
2.0
1070
    50
1070
     1
1040
0.0
1000
ACAD_MTEXT_COLUMN_INFO_END
  0
MTEXT
  5
12F
330
70
100
AcDbEntity
  8
0
100
AcDbMText
 10
4.556240368902569
 20
-1.081494094296768
 30
0.0
 40
0.4
 41
9.94674818082484
 46
0.0
 71
     1
 72
     5
  1
90 mm
 73
     1
 44
1.0
1001
ACAD
1000
ACAD_MTEXT_COLUMN_INFO_BEGIN
1070
    75
1070
     2
1070
    79
1070
     0
1070
    76
1070
     1
1070
    78
1070
     0
1070
    48
1040
9.94674818082484
1070
    49
1040
2.0
1070
    50
1070
     1
1040
0.0
1000
ACAD_MTEXT_COLUMN_INFO_END
  0
ENDSEC
  0
SECTION
  2
OBJECTS
  0
DICTIONARY
  5
C
330
0
100
AcDbDictionary
281
     1
  3
ACAD_CIP_PREVIOUS_PRODUCT_INFO
350
114
  3
ACAD_COLOR
350
63
  3
ACAD_DETAILVIEWSTYLE
350
6A
  3
ACAD_GROUP
350
D
  3
ACAD_LAYOUT
350
62
  3
ACAD_MATERIAL
350
10
  3
ACAD_MLEADERSTYLE
350
66
  3
ACAD_MLINESTYLE
350
5F
  3
ACAD_PLOTSETTINGS
350
61
  3
ACAD_PLOTSTYLENAME
350
E
  3
ACAD_SCALELIST
350
42
  3
ACAD_SECTIONVIEWSTYLE
350
68
  3
ACAD_TABLESTYLE
350
64
  3
ACAD_VISUALSTYLE
350
29
  3
ACDB_RECOMPOSE_DATA
350
16B
  3
AcDbVariableDictionary
350
D1
  0
XRECORD
  5
114
102
{ACAD_REACTORS
330
C
102
}
330
C
100
AcDbXrecord
280
     1
300
ACD
300
2019
300
ACD_F_S
  0
DICTIONARY
  5
63
102
{ACAD_REACTORS
330
C
102
}
330
C
100
AcDbDictionary
281
     1
  0
DICTIONARY
  5
6A
102
{ACAD_REACTORS
330
C
102
}
330
C
100
AcDbDictionary
281
     1
  3
Imperial24
350
6B
  0
DICTIONARY
  5
D
102
{ACAD_REACTORS
330
C
102
}
330
C
100
AcDbDictionary
281
     1
  0
DICTIONARY
  5
62
102
{ACAD_REACTORS
330
C
102
}
330
C
100
AcDbDictionary
281
     1
  3
Layout1
350
6F
  3
Layout2
350
77
  3
Model
350
73
  0
DICTIONARY
  5
10
102
{ACAD_REACTORS
330
C
102
}
330
C
100
AcDbDictionary
281
     1
  3
ByBlock
350
19
  3
ByLayer
350
11
  3
Global
350
21
  0
DICTIONARY
  5
66
102
{ACAD_REACTORS
330
C
102
}
330
C
100
AcDbDictionary
281
     1
  3
Standard
350
67
  0
DICTIONARY
  5
5F
102
{ACAD_REACTORS
330
C
102
}
330
C
100
AcDbDictionary
281
     1
  3
Standard
350
60
  0
DICTIONARY
  5
61
102
{ACAD_REACTORS
330
C
102
}
330
C
100
AcDbDictionary
281
     1
  0
ACDBDICTIONARYWDFLT
  5
E
102
{ACAD_REACTORS
330
C
102
}
330
C
100
AcDbDictionary
281
     1
  3
Normal
350
F
100
AcDbDictionaryWithDefault
340
F
  0
DICTIONARY
  5
42
102
{ACAD_REACTORS
330
C
102
}
330
C
100
AcDbDictionary
281
     1
  3
A0
350
43
  3
A1
350
44
  3
A2
350
45
  3
A3
350
46
  3
A4
350
47
  3
A5
350
48
  3
A6
350
49
  3
A7
350
4A
  3
A8
350
4B
  3
A9
350
4C
  3
B0
350
4D
  3
B1
350
4E
  3
B2
350
4F
  3
B3
350
50
  3
B4
350
51
  3
B5
350
52
  3
B6
350
53
  0
DICTIONARY
  5
68
102
{ACAD_REACTORS
330
C
102
}
330
C
100
AcDbDictionary
281
     1
  3
Imperial24
350
69
  0
DICTIONARY
  5
64
102
{ACAD_REACTORS
330
C
102
}
330
C
100
AcDbDictionary
281
     1
  3
Standard
350
65
  0
DICTIONARY
  5
29
102
{ACAD_REACTORS
330
C
102
}
330
C
100
AcDbDictionary
281
     1
  3
2dWireframe
350
2F
  3
Basic
350
2E
  3
Brighten
350
35
  3
ColorChange
350
39
  3
Conceptual
350
32
  3
Dim
350
34
  3
EdgeColorOff
350
41
  3
Facepattern
350
38
  3
Flat
350
2A
  3
FlatWithEdges
350
2B
  3
Gouraud
350
2C
  3
GouraudWithEdges
350
2D
  3
Hidden
350
31
  3
JitterOff
350
3F
  3
Linepattern
350
37
  3
OverhangOff
350
40
  3
Realistic
350
33
  3
Shaded
350
3E
  3
Shaded with edges
350
3D
  3
Shades of Gray
350
3A
  3
Sketchy
350
3B
  3
Thicken
350
36
  3
Wireframe
350
30
  3
X-Ray
350
3C
  0
XRECORD
  5
16B
102
{ACAD_REACTORS
330
C
102
}
330
C
100
AcDbXrecord
280
     1
 90
        1
330
65
330
11B
330
123
330
129
330
12F
  0
DICTIONARY
  5
D1
102
{ACAD_REACTORS
330
C
102
}
330
C
100
AcDbDictionary
281
     1
  3
CANNOSCALE
350
D6
  3
CMLEADERSTYLE
350
D3
  3
CTABLESTYLE
350
D2
  3
CVIEWDETAILSTYLE
350
D4
  3
CVIEWSECTIONSTYLE
350
D5
  3
XCLIPFRAME
350
130
  0
ACDBDETAILVIEWSTYLE
  5
6B
102
{ACAD_XDICTIONARY
360
1A1
102
}
102
{ACAD_REACTORS
330
6A
102
}
330
6A
100
AcDbModelDocViewStyle
 70
     0
  3
Imperial24
290
     0
100
AcDbDetailViewStyle
 70
     0
 71
     0
 90
        3
 71
     1
340
55
 62
   256
 40
0.24
340
0
 62
   256
 40
0.24
300

 40
0.36
280
     3
 71
     2
340
5D
 90
       25
 62
   256
 71
     3
340
55
 62
   256
 40
0.24
 90
        1
 40
0.75
 90
        1
300
%<\AcVar ViewType \f "%tc1">% %<\AcVar ViewDetailId>%\PSCALE %<\AcVar ViewScale \f "%sn">%
 71
     4
340
5D
 90
       25
 62
   256
340
5D
 90
       25
 62
   256
280
     0
  0
LAYOUT
  5
6F
102
{ACAD_REACTORS
330
62
102
}
330
62
100
AcDbPlotSettings
  1

  2

  4

  6

 40
0.0
 41
0.0
 42
0.0
 43
0.0
 44
0.0
 45
0.0
 46
0.0
 47
0.0
 48
0.0
 49
0.0
140
0.0
141
0.0
142
1.0
143
1.0
 70
   688
 72
     0
 73
     0
 74
     5
  7

 75
    16
147
1.0
 76
     0
 77
     2
 78
   300
148
0.0
149
0.0
100
AcDbLayout
  1
Layout1
 70
     1
 71
     1
 10
0.0
 20
0.0
 11
12.0
 21
9.0
 12
0.0
 22
0.0
 32
0.0
 14
1.000000000000000E+20
 24
1.000000000000000E+20
 34
1.000000000000000E+20
 15
-1.000000000000000E+20
 25
-1.000000000000000E+20
 35
-1.000000000000000E+20
146
0.0
 13
0.0
 23
0.0
 33
0.0
 16
1.0
 26
0.0
 36
0.0
 17
0.0
 27
1.0
 37
0.0
 76
     0
330
6C
  0
LAYOUT
  5
77
102
{ACAD_REACTORS
330
62
102
}
330
62
100
AcDbPlotSettings
  1

  2

  4

  6

 40
0.0
 41
0.0
 42
0.0
 43
0.0
 44
0.0
 45
0.0
 46
0.0
 47
0.0
 48
0.0
 49
0.0
140
0.0
141
0.0
142
1.0
143
1.0
 70
   688
 72
     0
 73
     0
 74
     5
  7

 75
    16
147
1.0
 76
     0
 77
     2
 78
   300
148
0.0
149
0.0
100
AcDbLayout
  1
Layout2
 70
     1
 71
     2
 10
0.0
 20
0.0
 11
12.0
 21
9.0
 12
0.0
 22
0.0
 32
0.0
 14
0.0
 24
0.0
 34
0.0
 15
0.0
 25
0.0
 35
0.0
146
0.0
 13
0.0
 23
0.0
 33
0.0
 16
1.0
 26
0.0
 36
0.0
 17
0.0
 27
1.0
 37
0.0
 76
     0
330
74
  0
LAYOUT
  5
73
102
{ACAD_REACTORS
330
62
102
}
330
62
100
AcDbPlotSettings
  1

  2

  4

  6

 40
0.0
 41
0.0
 42
0.0
 43
0.0
 44
0.0
 45
0.0
 46
0.0
 47
0.0
 48
0.0
 49
0.0
140
0.0
141
0.0
142
1.0
143
1.0
 70
  1712
 72
     0
 73
     0
 74
     0
  7

 75
     0
147
1.0
 76
     0
 77
     2
 78
   300
148
0.0
149
0.0
100
AcDbLayout
  1
Model
 70
     1
 71
     0
 10
0.0
 20
0.0
 11
12.0
 21
9.0
 12
0.0
 22
0.0
 32
0.0
 14
0.0
 24
0.0
 34
0.0
 15
0.0
 25
0.0
 35
0.0
146
0.0
 13
0.0
 23
0.0
 33
0.0
 16
1.0
 26
0.0
 36
0.0
 17
0.0
 27
1.0
 37
0.0
 76
     0
330
70
331
57
  0
MATERIAL
  5
19
102
{ACAD_XDICTIONARY
360
1A
102
}
102
{ACAD_REACTORS
330
10
102
}
330
10
100
AcDbMaterial
  1
ByBlock
 72
     0
 43
0.0208333333333333
 43
0.0
 43
0.0
 43
0.0
 43
0.0
 43
0.0208333333333333
 43
0.0
 43
0.0
 43
0.0
 43
0.0
 43
1.0
 43
0.0
 43
0.0
 43
0.0
 43
0.0
 43
1.0
 77
     0
 47
0.0208333333333333
 47
0.0
 47
0.0
 47
0.0
 47
0.0
 47
0.0208333333333333
 47
0.0
 47
0.0
 47
0.0
 47
0.0
 47
1.0
 47
0.0
 47
0.0
 47
0.0
 47
0.0
 47
1.0
171
     0
 49
0.0208333333333333
 49
0.0
 49
0.0
 49
0.0
 49
0.0
 49
0.0208333333333333
 49
0.0
 49
0.0
 49
0.0
 49
0.0
 49
1.0
 49
0.0
 49
0.0
 49
0.0
 49
0.0
 49
1.0
175
     0
142
0.0208333333333333
142
0.0
142
0.0
142
0.0
142
0.0
142
0.0208333333333333
142
0.0
142
0.0
142
0.0
142
0.0
142
1.0
142
0.0
142
0.0
142
0.0
142
0.0
142
1.0
179
     0
144
0.0208333333333333
144
0.0
144
0.0
144
0.0
144
0.0
144
0.0208333333333333
144
0.0
144
0.0
144
0.0
144
0.0
144
1.0
144
0.0
144
0.0
144
0.0
144
0.0
144
1.0
147
0.0208333333333333
147
0.0
147
0.0
147
0.0
147
0.0
147
0.0208333333333333
147
0.0
147
0.0
147
0.0
147
0.0
147
1.0
147
0.0
147
0.0
147
0.0
147
0.0
147
1.0
  0
MATERIAL
  5
11
102
{ACAD_XDICTIONARY
360
12
102
}
102
{ACAD_REACTORS
330
10
102
}
330
10
100
AcDbMaterial
  1
ByLayer
 72
     0
 43
0.0208333333333333
 43
0.0
 43
0.0
 43
0.0
 43
0.0
 43
0.0208333333333333
 43
0.0
 43
0.0
 43
0.0
 43
0.0
 43
1.0
 43
0.0
 43
0.0
 43
0.0
 43
0.0
 43
1.0
 77
     0
 47
0.0208333333333333
 47
0.0
 47
0.0
 47
0.0
 47
0.0
 47
0.0208333333333333
 47
0.0
 47
0.0
 47
0.0
 47
0.0
 47
1.0
 47
0.0
 47
0.0
 47
0.0
 47
0.0
 47
1.0
171
     0
 49
0.0208333333333333
 49
0.0
 49
0.0
 49
0.0
 49
0.0
 49
0.0208333333333333
 49
0.0
 49
0.0
 49
0.0
 49
0.0
 49
1.0
 49
0.0
 49
0.0
 49
0.0
 49
0.0
 49
1.0
175
     0
142
0.0208333333333333
142
0.0
142
0.0
142
0.0
142
0.0
142
0.0208333333333333
142
0.0
142
0.0
142
0.0
142
0.0
142
1.0
142
0.0
142
0.0
142
0.0
142
0.0
142
1.0
179
     0
144
0.0208333333333333
144
0.0
144
0.0
144
0.0
144
0.0
144
0.0208333333333333
144
0.0
144
0.0
144
0.0
144
0.0
144
1.0
144
0.0
144
0.0
144
0.0
144
0.0
144
1.0
147
0.0208333333333333
147
0.0
147
0.0
147
0.0
147
0.0
147
0.0208333333333333
147
0.0
147
0.0
147
0.0
147
0.0
147
1.0
147
0.0
147
0.0
147
0.0
147
0.0
147
1.0
  0
MATERIAL
  5
21
102
{ACAD_XDICTIONARY
360
22
102
}
102
{ACAD_REACTORS
330
10
102
}
330
10
100
AcDbMaterial
  1
Global
 72
     0
 43
0.0208333333333333
 43
0.0
 43
0.0
 43
0.0
 43
0.0
 43
0.0208333333333333
 43
0.0
 43
0.0
 43
0.0
 43
0.0
 43
1.0
 43
0.0
 43
0.0
 43
0.0
 43
0.0
 43
1.0
 77
     0
 47
0.0208333333333333
 47
0.0
 47
0.0
 47
0.0
 47
0.0
 47
0.0208333333333333
 47
0.0
 47
0.0
 47
0.0
 47
0.0
 47
1.0
 47
0.0
 47
0.0
 47
0.0
 47
0.0
 47
1.0
171
     0
 49
0.0208333333333333
 49
0.0
 49
0.0
 49
0.0
 49
0.0
 49
0.0208333333333333
 49
0.0
 49
0.0
 49
0.0
 49
0.0
 49
1.0
 49
0.0
 49
0.0
 49
0.0
 49
0.0
 49
1.0
175
     0
142
0.0208333333333333
142
0.0
142
0.0
142
0.0
142
0.0
142
0.0208333333333333
142
0.0
142
0.0
142
0.0
142
0.0
142
1.0
142
0.0
142
0.0
142
0.0
142
0.0
142
1.0
179
     0
144
0.0208333333333333
144
0.0
144
0.0
144
0.0
144
0.0
144
0.0208333333333333
144
0.0
144
0.0
144
0.0
144
0.0
144
1.0
144
0.0
144
0.0
144
0.0
144
0.0
144
1.0
147
0.0208333333333333
147
0.0
147
0.0
147
0.0
147
0.0
147
0.0208333333333333
147
0.0
147
0.0
147
0.0
147
0.0
147
1.0
147
0.0
147
0.0
147
0.0
147
0.0
147
1.0
  0
MLEADERSTYLE
  5
67
102
{ACAD_XDICTIONARY
360
19D
102
}
102
{ACAD_REACTORS
330
66
102
}
330
66
100
AcDbMLeaderStyle
170
     2
171
     1
172
     0
 90
        2
 40
0.0
 41
0.0
173
     1
 91
-1056964608
340
5B
 92
       -2
290
     1
 42
0.09
291
     1
 43
0.36
  3
Standard
 44
0.18
300

342
55
174
     1
178
     6
175
     1
176
     0
 93
-1056964608
 45
0.18
292
     0
297
     0
 46
0.18
 94
-1056964608
 47
1.0
 49
1.0
140
1.0
293
     1
141
0.0
294
     1
177
     0
142
1.0
295
     0
296
     0
143
0.125
1001
ACAD_MLEADERVER
1070
     2
  0
MLINESTYLE
  5
60
102
{ACAD_REACTORS
330
5F
102
}
330
5F
100
AcDbMlineStyle
  2
STANDARD
 70
     0
  3

 62
   256
 51
90.0
 52
90.0
 71
     2
 49
0.5
 62
   256
  6
BYLAYER
 49
-0.5
 62
   256
  6
BYLAYER
  0
ACDBPLACEHOLDER
  5
F
102
{ACAD_REACTORS
330
E
102
}
330
E
  0
SCALE
  5
43
102
{ACAD_REACTORS
330
42
102
}
330
42
100
AcDbScale
 70
     0
300
1:1
140
1.0
141
1.0
290
     1
  0
SCALE
  5
44
102
{ACAD_REACTORS
330
42
102
}
330
42
100
AcDbScale
 70
     0
300
1/128" = 1'-0"
140
0.0078125
141
12.0
290
     0
  0
SCALE
  5
45
102
{ACAD_REACTORS
330
42
102
}
330
42
100
AcDbScale
 70
     0
300
1/64" = 1'-0"
140
0.015625
141
12.0
290
     0
  0
SCALE
  5
46
102
{ACAD_REACTORS
330
42
102
}
330
42
100
AcDbScale
 70
     0
300
1/32" = 1'-0"
140
0.03125
141
12.0
290
     0
  0
SCALE
  5
47
102
{ACAD_REACTORS
330
42
102
}
330
42
100
AcDbScale
 70
     0
300
1/16" = 1'-0"
140
0.0625
141
12.0
290
     0
  0
SCALE
  5
48
102
{ACAD_REACTORS
330
42
102
}
330
42
100
AcDbScale
 70
     0
300
3/32" = 1'-0"
140
0.09375
141
12.0
290
     0
  0
SCALE
  5
49
102
{ACAD_REACTORS
330
42
102
}
330
42
100
AcDbScale
 70
     0
300
1/8" = 1'-0"
140
0.125
141
12.0
290
     0
  0
SCALE
  5
4A
102
{ACAD_REACTORS
330
42
102
}
330
42
100
AcDbScale
 70
     0
300
3/16" = 1'-0"
140
0.1875
141
12.0
290
     0
  0
SCALE
  5
4B
102
{ACAD_REACTORS
330
42
102
}
330
42
100
AcDbScale
 70
     0
300
1/4" = 1'-0"
140
0.25
141
12.0
290
     0
  0
SCALE
  5
4C
102
{ACAD_REACTORS
330
42
102
}
330
42
100
AcDbScale
 70
     0
300
3/8" = 1'-0"
140
0.375
141
12.0
290
     0
  0
SCALE
  5
4D
102
{ACAD_REACTORS
330
42
102
}
330
42
100
AcDbScale
 70
     0
300
1/2" = 1'-0"
140
0.5
141
12.0
290
     0
  0
SCALE
  5
4E
102
{ACAD_REACTORS
330
42
102
}
330
42
100
AcDbScale
 70
     0
300
3/4" = 1'-0"
140
0.75
141
12.0
290
     0
  0
SCALE
  5
4F
102
{ACAD_REACTORS
330
42
102
}
330
42
100
AcDbScale
 70
     0
300
1" = 1'-0"
140
1.0
141
12.0
290
     0
  0
SCALE
  5
50
102
{ACAD_REACTORS
330
42
102
}
330
42
100
AcDbScale
 70
     0
300
1-1/2" = 1'-0"
140
1.5
141
12.0
290
     0
  0
SCALE
  5
51
102
{ACAD_REACTORS
330
42
102
}
330
42
100
AcDbScale
 70
     0
300
3" = 1'-0"
140
3.0
141
12.0
290
     0
  0
SCALE
  5
52
102
{ACAD_REACTORS
330
42
102
}
330
42
100
AcDbScale
 70
     0
300
6" = 1'-0"
140
6.0
141
12.0
290
     0
  0
SCALE
  5
53
102
{ACAD_REACTORS
330
42
102
}
330
42
100
AcDbScale
 70
     0
300
1'-0" = 1'-0"
140
12.0
141
12.0
290
     0
  0
ACDBSECTIONVIEWSTYLE
  5
69
102
{ACAD_XDICTIONARY
360
19F
102
}
102
{ACAD_REACTORS
330
68
102
}
330
68
100
AcDbModelDocViewStyle
 70
     0
  3
Imperial24
290
     0
100
AcDbSectionViewStyle
 70
     0
 71
     0
 90
       78
 71
     1
340
55
 62
   256
 40
0.24
340
0
340
0
 62
   256
 40
0.24
300
I, O, Q, S, X, Z
 40
0.48
 90
        3
 40
0.18
 90
        1
 71
     2
340
5D
 90
       25
 62
   256
340
5D
 90
       50
 62
   256
 40
0.24
 40
0.0
 40
0.24
 71
     3
340
55
 62
   256
 40
0.24
 90
        1
 40
0.75
 90
        1
300
%<\AcVar ViewType \f "%tc1">% %<\AcVar ViewSectionStartId>%-%<\AcVar ViewSectionEndId>%\PSCALE %<\AcVar ViewScale \f "%sn">%
 71
     4
 62
   256
 62
   257
300
ANSI31
 40
1.0
 90
        0
290
     0
290
     0
 90
        6
 40
0.0
 40
1.570796326794896
 40
0.2617993877991494
 40
1.308996938995747
 40
-0.2617993877991494
 40
1.832595714594045
  0
TABLESTYLE
  5
65
102
{ACAD_XDICTIONARY
360
D7
102
}
102
{ACAD_REACTORS
330
64
102
}
330
64
100
AcDbTableStyle
  3
Standard
 70
     0
 71
     0
 40
0.06
 41
0.06
280
     0
281
     0
  7
Standard
140
0.18
170
     2
 62
     0
 63
     7
283
     0
 90
      512
 91
        0
  1

274
    -2
284
     1
 64
     0
275
    -2
285
     1
 65
     0
276
    -2
286
     1
 66
     0
277
    -2
287
     1
 67
     0
278
    -2
288
     1
 68
     0
279
    -2
289
     1
 69
     0
  7
Standard
140
0.25
170
     5
 62
     0
 63
     7
283
     0
 90
      512
 91
        0
  1

274
    -2
284
     1
 64
     0
275
    -2
285
     1
 65
     0
276
    -2
286
     1
 66
     0
277
    -2
287
     1
 67
     0
278
    -2
288
     1
 68
     0
279
    -2
289
     1
 69
     0
  7
Standard
140
0.18
170
     5
 62
     0
 63
     7
283
     0
 90
      512
 91
        0
  1

274
    -2
284
     1
 64
     0
275
    -2
285
     1
 65
     0
276
    -2
286
     1
 66
     0
277
    -2
287
     1
 67
     0
278
    -2
288
     1
 68
     0
279
    -2
289
     1
 69
     0
  0
VISUALSTYLE
  5
2F
102
{ACAD_XDICTIONARY
360
176
102
}
102
{ACAD_REACTORS
330
29
102
}
330
29
100
AcDbVisualStyle
  2
2dWireframe
 70
     4
 71
     0
 72
     2
 73
     0
 90
        0
 40
-0.6
 41
-30.0
 62
     5
 63
     7
421
 16777215
 74
     1
 91
        4
 64
     7
 65
   257
 75
     1
175
     1
 42
1.0
 92
        0
 66
   257
 43
1.0
 76
     1
 77
     6
 78
     2
 67
     7
 79
     5
170
     0
171
     0
290
     0
174
     0
 93
        1
 44
0.0
173
     0
291
     0
 45
0.0
1001
ACAD
1000
AcDbSavedByObjectVersion
1070
     0
  0
VISUALSTYLE
  5
2E
102
{ACAD_XDICTIONARY
360
174
102
}
102
{ACAD_REACTORS
330
29
102
}
330
29
100
AcDbVisualStyle
  2
Basic
 70
     7
 71
     1
 72
     0
 73
     1
 90
        0
 40
-0.6
 41
-30.0
 62
     5
 63
     7
421
 16777215
 74
     0
 91
        4
 64
     7
 65
   257
 75
     1
175
     1
 42
1.0
 92
        8
 66
     7
 43
1.0
 76
     1
 77
     6
 78
     2
 67
     7
 79
     5
170
     0
171
     0
290
     0
174
     0
 93
        1
 44
0.0
173
     0
291
     1
 45
0.0
1001
ACAD
1000
AcDbSavedByObjectVersion
1070
     0
  0
VISUALSTYLE
  5
35
102
{ACAD_XDICTIONARY
360
182
102
}
102
{ACAD_REACTORS
330
29
102
}
330
29
100
AcDbVisualStyle
  2
Brighten
 70
    12
 71
     2
 72
     2
 73
     0
 90
        0
 40
-0.6
 41
-30.0
 62
     5
 63
     7
421
 16777215
 74
     1
 91
        4
 64
     7
 65
   257
 75
     1
175
     1
 42
1.0
 92
        8
 66
     7
 43
1.0
 76
     1
 77
     6
 78
     2
 67
     7
 79
     5
170
     0
171
     0
290
     0
174
     0
 93
        1
 44
50.0
173
     0
291
     1
 45
0.0
1001
ACAD
1000
AcDbSavedByObjectVersion
1070
     0
  0
VISUALSTYLE
  5
39
102
{ACAD_XDICTIONARY
360
18A
102
}
102
{ACAD_REACTORS
330
29
102
}
330
29
100
AcDbVisualStyle
  2
ColorChange
 70
    16
 71
     2
 72
     2
 73
     3
 90
        0
 40
-0.6
 41
-30.0
 62
     5
 63
     8
421
  8421504
 74
     1
 91
        4
 64
     7
 65
   257
 75
     1
175
     1
 42
1.0
 92
        8
 66
     8
424
  8421504
 43
1.0
 76
     1
 77
     6
 78
     2
 67
     7
 79
     5
170
     0
171
     0
290
     0
174
     0
 93
        1
 44
0.0
173
     0
291
     1
 45
0.0
1001
ACAD
1000
AcDbSavedByObjectVersion
1070
     0
  0
VISUALSTYLE
  5
32
102
{ACAD_XDICTIONARY
360
17C
102
}
102
{ACAD_REACTORS
330
29
102
}
330
29
100
AcDbVisualStyle
  2
Conceptual
 70
     9
 71
     3
 72
     2
 73
     0
 90
        0
 40
-0.6
 41
-30.0
 62
     5
 63
     7
421
 16777215
 74
     2
 91
        2
 64
     7
 65
   257
 75
     1
175
     1
 42
179.0
 92
        8
 66
     7
 43
1.0
 76
     1
 77
     6
 78
     2
 67
     7
 79
     3
170
     0
171
     0
290
     0
174
     0
 93
        1
 44
0.0
173
     0
291
     0
 45
0.0
1001
ACAD
1000
AcDbSavedByObjectVersion
1070
     0
  0
VISUALSTYLE
  5
34
102
{ACAD_XDICTIONARY
360
180
102
}
102
{ACAD_REACTORS
330
29
102
}
330
29
100
AcDbVisualStyle
  2
Dim
 70
    11
 71
     2
 72
     2
 73
     0
 90
        0
 40
-0.6
 41
-30.0
 62
     5
 63
     7
421
 16777215
 74
     1
 91
        4
 64
     7
 65
   257
 75
     1
175
     1
 42
1.0
 92
        8
 66
     7
 43
1.0
 76
     1
 77
     6
 78
     2
 67
     7
 79
     5
170
     0
171
     0
290
     0
174
     0
 93
        1
 44
-50.0
173
     0
291
     1
 45
0.0
1001
ACAD
1000
AcDbSavedByObjectVersion
1070
     0
  0
VISUALSTYLE
  5
41
102
{ACAD_XDICTIONARY
360
19A
102
}
102
{ACAD_REACTORS
330
29
102
}
330
29
100
AcDbVisualStyle
  2
EdgeColorOff
 70
    22
 71
     2
 72
     2
 73
     0
 90
        0
 40
-0.6
 41
-30.0
 62
     5
 63
     7
421
 16777215
 74
     1
 91
        4
 64
     7
 65
   257
 75
     1
175
     1
 42
1.0
 92
        8
 66
     7
 43
1.0
 76
     1
 77
     6
 78
     2
 67
     7
 79
     5
170
     0
171
     0
290
     0
174
     0
 93
        1
 44
0.0
173
     0
291
     1
 45
0.0
1001
ACAD
1000
AcDbSavedByObjectVersion
1070
     0
  0
VISUALSTYLE
  5
38
102
{ACAD_XDICTIONARY
360
188
102
}
102
{ACAD_REACTORS
330
29
102
}
330
29
100
AcDbVisualStyle
  2
Facepattern
 70
    15
 71
     2
 72
     2
 73
     0
 90
        0
 40
-0.6
 41
-30.0
 62
     5
 63
     7
421
 16777215
 74
     1
 91
        4
 64
     7
 65
   257
 75
     1
175
     1
 42
1.0
 92
        8
 66
     7
 43
1.0
 76
     1
 77
     6
 78
     2
 67
     7
 79
     5
170
     0
171
     0
290
     0
174
     0
 93
        1
 44
0.0
173
     0
291
     1
 45
0.0
1001
ACAD
1000
AcDbSavedByObjectVersion
1070
     0
  0
VISUALSTYLE
  5
2A
102
{ACAD_XDICTIONARY
360
16C
102
}
102
{ACAD_REACTORS
330
29
102
}
330
29
100
AcDbVisualStyle
  2
Flat
 70
     0
 71
     2
 72
     1
 73
     1
 90
        2
 40
-0.6
 41
30.0
 62
     5
 63
     7
421
 16777215
 74
     0
 91
        0
 64
     7
 65
   257
 75
     1
175
     1
 42
1.0
 92
        8
 66
     7
 43
1.0
 76
     1
 77
     6
 78
     2
 67
     7
 79
     5
170
     0
171
     0
290
     0
174
     0
 93
       13
 44
0.0
173
     0
291
     1
 45
0.0
1001
ACAD
1000
AcDbSavedByObjectVersion
1070
     0
  0
VISUALSTYLE
  5
2B
102
{ACAD_XDICTIONARY
360
16E
102
}
102
{ACAD_REACTORS
330
29
102
}
330
29
100
AcDbVisualStyle
  2
FlatWithEdges
 70
     1
 71
     2
 72
     1
 73
     1
 90
        2
 40
-0.6
 41
30.0
 62
     5
 63
     7
421
 16777215
 74
     1
 91
        0
 64
     7
 65
   257
 75
     1
175
     1
 42
1.0
 92
        0
 66
   257
 43
1.0
 76
     1
 77
     6
 78
     2
 67
     7
 79
     5
170
     0
171
     0
290
     0
174
     0
 93
       13
 44
0.0
173
     0
291
     1
 45
0.0
1001
ACAD
1000
AcDbSavedByObjectVersion
1070
     0
  0
VISUALSTYLE
  5
2C
102
{ACAD_XDICTIONARY
360
170
102
}
102
{ACAD_REACTORS
330
29
102
}
330
29
100
AcDbVisualStyle
  2
Gouraud
 70
     2
 71
     2
 72
     2
 73
     1
 90
        2
 40
-0.6
 41
30.0
 62
     5
 63
     7
421
 16777215
 74
     0
 91
        0
 64
     7
 65
   257
 75
     1
175
     1
 42
1.0
 92
        0
 66
     7
 43
1.0
 76
     1
 77
     6
 78
     2
 67
     7
 79
     5
170
     0
171
     0
290
     0
174
     0
 93
       13
 44
0.0
173
     0
291
     1
 45
0.0
1001
ACAD
1000
AcDbSavedByObjectVersion
1070
     0
  0
VISUALSTYLE
  5
2D
102
{ACAD_XDICTIONARY
360
172
102
}
102
{ACAD_REACTORS
330
29
102
}
330
29
100
AcDbVisualStyle
  2
GouraudWithEdges
 70
     3
 71
     2
 72
     2
 73
     1
 90
        2
 40
-0.6
 41
30.0
 62
     5
 63
     7
421
 16777215
 74
     1
 91
        0
 64
     7
 65
   257
 75
     1
175
     1
 42
1.0
 92
        0
 66
   257
 43
1.0
 76
     1
 77
     6
 78
     2
 67
     7
 79
     5
170
     0
171
     0
290
     0
174
     0
 93
       13
 44
0.0
173
     0
291
     1
 45
0.0
1001
ACAD
1000
AcDbSavedByObjectVersion
1070
     0
  0
VISUALSTYLE
  5
31
102
{ACAD_XDICTIONARY
360
17A
102
}
102
{ACAD_REACTORS
330
29
102
}
330
29
100
AcDbVisualStyle
  2
Hidden
 70
     6
 71
     1
 72
     2
 73
     2
 90
        0
 40
-0.6
 41
-30.0
 62
     5
 63
     7
421
 16777215
 74
     2
 91
        2
 64
     7
 65
   257
 75
     2
175
     1
 42
40.0
 92
        0
 66
   257
 43
1.0
 76
     1
 77
     6
 78
     2
 67
     7
 79
     3
170
     0
171
     0
290
     0
174
     0
 93
        1
 44
0.0
173
     0
291
     0
 45
0.0
1001
ACAD
1000
AcDbSavedByObjectVersion
1070
     0
  0
VISUALSTYLE
  5
3F
102
{ACAD_XDICTIONARY
360
196
102
}
102
{ACAD_REACTORS
330
29
102
}
330
29
100
AcDbVisualStyle
  2
JitterOff
 70
    20
 71
     2
 72
     2
 73
     0
 90
        0
 40
-0.6
 41
-30.0
 62
     5
 63
     7
421
 16777215
 74
     1
 91
        4
 64
     7
 65
   257
 75
     1
175
     1
 42
1.0
 92
       10
 66
     7
 43
1.0
 76
     1
 77
     6
 78
     2
 67
     7
 79
     5
170
     0
171
     0
290
     0
174
     0
 93
        1
 44
0.0
173
     0
291
     1
 45
0.0
1001
ACAD
1000
AcDbSavedByObjectVersion
1070
     0
  0
VISUALSTYLE
  5
37
102
{ACAD_XDICTIONARY
360
186
102
}
102
{ACAD_REACTORS
330
29
102
}
330
29
100
AcDbVisualStyle
  2
Linepattern
 70
    14
 71
     2
 72
     2
 73
     0
 90
        0
 40
-0.6
 41
-30.0
 62
     5
 63
     7
421
 16777215
 74
     1
 91
        4
 64
     7
 65
   257
 75
     7
175
     7
 42
1.0
 92
        8
 66
     7
 43
1.0
 76
     1
 77
     6
 78
     2
 67
     7
 79
     5
170
     0
171
     0
290
     0
174
     0
 93
        1
 44
0.0
173
     0
291
     1
 45
0.0
1001
ACAD
1000
AcDbSavedByObjectVersion
1070
     0
  0
VISUALSTYLE
  5
40
102
{ACAD_XDICTIONARY
360
198
102
}
102
{ACAD_REACTORS
330
29
102
}
330
29
100
AcDbVisualStyle
  2
OverhangOff
 70
    21
 71
     2
 72
     2
 73
     0
 90
        0
 40
-0.6
 41
-30.0
 62
     5
 63
     7
421
 16777215
 74
     1
 91
        4
 64
     7
 65
   257
 75
     1
175
     1
 42
1.0
 92
        9
 66
     7
 43
1.0
 76
     1
 77
     6
 78
     2
 67
     7
 79
     5
170
     0
171
     0
290
     0
174
     0
 93
        1
 44
0.0
173
     0
291
     1
 45
0.0
1001
ACAD
1000
AcDbSavedByObjectVersion
1070
     0
  0
VISUALSTYLE
  5
33
102
{ACAD_XDICTIONARY
360
17E
102
}
102
{ACAD_REACTORS
330
29
102
}
330
29
100
AcDbVisualStyle
  2
Realistic
 70
     8
 71
     2
 72
     3
 73
     0
 90
        2
 40
-0.6
 41
30.0
 62
     5
 63
     7
421
 16777215
 74
     0
 91
        0
 64
     7
 65
   257
 75
     1
175
     1
 42
1.0
 92
        8
 66
   257
 43
1.0
 76
     1
 77
     6
 78
     2
 67
     7
 79
     3
170
     0
171
     0
290
     0
174
     0
 93
       13
 44
0.0
173
     0
291
     0
 45
0.0
1001
ACAD
1000
AcDbSavedByObjectVersion
1070
     0
  0
VISUALSTYLE
  5
3E
102
{ACAD_XDICTIONARY
360
194
102
}
102
{ACAD_REACTORS
330
29
102
}
330
29
100
AcDbVisualStyle
  2
Shaded
 70
    27
 71
     2
 72
     2
 73
     1
 90
        2
 40
-0.6
 41
30.0
 62
     5
 63
     7
421
 16777215
 74
     0
 91
        4
 64
     7
 65
   257
 75
     1
175
     1
 42
1.0
 92
        8
 66
   257
 43
1.0
 76
     1
 77
     6
 78
     2
 67
     8
425
  7895160
 79
     3
170
     0
171
     0
290
     0
174
     0
 93
        5
 44
0.0
173
     0
291
     0
 45
0.0
1001
ACAD
1000
AcDbSavedByObjectVersion
1070
     0
  0
VISUALSTYLE
  5
3D
102
{ACAD_XDICTIONARY
360
192
102
}
102
{ACAD_REACTORS
330
29
102
}
330
29
100
AcDbVisualStyle
  2
Shaded with edges
 70
    26
 71
     2
 72
     2
 73
     1
 90
        2
 40
-0.6
 41
30.0
 62
     5
 63
     7
421
 16777215
 74
     1
 91
        2
 64
     7
 65
   257
 75
     2
175
     1
 42
1.0
 92
        8
 66
   257
 43
1.0
 76
     1
 77
     6
 78
     2
 67
     7
 79
     3
170
     0
171
     0
290
     0
174
     0
 93
        5
 44
0.0
173
     0
291
     0
 45
0.0
1001
ACAD
1000
AcDbSavedByObjectVersion
1070
     0
  0
VISUALSTYLE
  5
3A
102
{ACAD_XDICTIONARY
360
18C
102
}
102
{ACAD_REACTORS
330
29
102
}
330
29
100
AcDbVisualStyle
  2
Shades of Gray
 70
    23
 71
     2
 72
     2
 73
     3
 90
        0
 40
-0.6
 41
-30.0
 62
     5
 63
     7
421
 16777215
 74
     2
 91
        2
 64
     7
 65
     7
 75
     1
175
     1
 42
40.0
 92
        8
 66
     7
 43
1.0
 76
     1
 77
     6
 78
     2
 67
     7
 79
     3
170
     0
171
     0
290
     0
174
     0
 93
        1
 44
0.0
173
     0
291
     0
 45
0.0
1001
ACAD
1000
AcDbSavedByObjectVersion
1070
     0
  0
VISUALSTYLE
  5
3B
102
{ACAD_XDICTIONARY
360
18E
102
}
102
{ACAD_REACTORS
330
29
102
}
330
29
100
AcDbVisualStyle
  2
Sketchy
 70
    24
 71
     1
 72
     2
 73
     2
 90
        0
 40
-0.6
 41
-30.0
 62
     5
 63
     7
421
 16777215
 74
     2
 91
        2
 64
     7
 65
     7
 75
     1
175
     1
 42
40.0
 92
       11
 66
     7
 43
1.0
 76
     1
 77
     6
 78
     2
 67
     7
 79
     6
170
     0
171
     0
290
     0
174
     0
 93
        1
 44
0.0
173
     0
291
     0
 45
0.0
1001
ACAD
1000
AcDbSavedByObjectVersion
1070
     0
  0
VISUALSTYLE
  5
36
102
{ACAD_XDICTIONARY
360
184
102
}
102
{ACAD_REACTORS
330
29
102
}
330
29
100
AcDbVisualStyle
  2
Thicken
 70
    13
 71
     2
 72
     2
 73
     0
 90
        0
 40
-0.6
 41
-30.0
 62
     5
 63
     7
421
 16777215
 74
     1
 91
        4
 64
     7
 65
   257
 75
     1
175
     1
 42
1.0
 92
       12
 66
     7
 43
1.0
 76
     1
 77
     6
 78
     2
 67
     7
 79
     5
170
     0
171
     0
290
     0
174
     0
 93
        1
 44
0.0
173
     0
291
     1
 45
0.0
1001
ACAD
1000
AcDbSavedByObjectVersion
1070
     0
  0
VISUALSTYLE
  5
30
102
{ACAD_XDICTIONARY
360
178
102
}
102
{ACAD_REACTORS
330
29
102
}
330
29
100
AcDbVisualStyle
  2
Wireframe
 70
     5
 71
     0
 72
     2
 73
     0
 90
        0
 40
-0.6
 41
-30.0
 62
     5
 63
     7
421
 16777215
 74
     1
 91
        4
 64
     7
 65
   257
 75
     1
175
     1
 42
1.0
 92
        0
 66
   257
 43
1.0
 76
     1
 77
     6
 78
     2
 67
     7
 79
     3
170
     0
171
     0
290
     0
174
     0
 93
        1
 44
0.0
173
     0
291
     0
 45
0.0
1001
ACAD
1000
AcDbSavedByObjectVersion
1070
     0
  0
VISUALSTYLE
  5
3C
102
{ACAD_XDICTIONARY
360
190
102
}
102
{ACAD_REACTORS
330
29
102
}
330
29
100
AcDbVisualStyle
  2
X-Ray
 70
    25
 71
     2
 72
     2
 73
     1
 90
        1
 40
0.5
 41
-30.0
 62
     5
 63
     7
421
 16777215
 74
     1
 91
        0
 64
     7
 65
   257
 75
     1
175
     1
 42
1.0
 92
        8
 66
     7
 43
1.0
 76
     1
 77
     6
 78
     2
 67
     7
 79
     3
170
     0
171
     0
290
     0
174
     0
 93
       13
 44
0.0
173
     0
291
     0
 45
0.0
1001
ACAD
1000
AcDbSavedByObjectVersion
1070
     0
  0
DICTIONARYVAR
  5
D6
102
{ACAD_REACTORS
330
D1
102
}
330
D1
100
DictionaryVariables
280
     0
  1
1:1
  0
DICTIONARYVAR
  5
D3
102
{ACAD_REACTORS
330
D1
102
}
330
D1
100
DictionaryVariables
280
     0
  1
STANDARD
  0
DICTIONARYVAR
  5
D2
102
{ACAD_REACTORS
330
D1
102
}
330
D1
100
DictionaryVariables
280
     0
  1
STANDARD
  0
DICTIONARYVAR
  5
D4
102
{ACAD_REACTORS
330
D1
102
}
330
D1
100
DictionaryVariables
280
     0
  1
Imperial24
  0
DICTIONARYVAR
  5
D5
102
{ACAD_REACTORS
330
D1
102
}
330
D1
100
DictionaryVariables
280
     0
  1
Imperial24
  0
DICTIONARYVAR
  5
130
102
{ACAD_REACTORS
330
D1
102
}
330
D1
100
DictionaryVariables
280
     0
  1
2
  0
DICTIONARY
  5
1A1
330
6B
100
AcDbDictionary
280
     1
281
     1
  3
ACAD_XREC_ROUNDTRIP
360
1A2
  0
DICTIONARY
  5
1A
330
19
100
AcDbDictionary
280
     1
281
     1
  3
BUMPTILE
360
1C
  3
DIFFUSETILE
360
1B
  3
OPACITYTILE
360
1F
  3
REFLECTIONTILE
360
1E
  3
REFRACTIONTILE
360
20
  3
SPECULARTILE
360
1D
  0
DICTIONARY
  5
12
330
11
100
AcDbDictionary
280
     1
281
     1
  3
BUMPTILE
360
14
  3
DIFFUSETILE
360
13
  3
OPACITYTILE
360
17
  3
REFLECTIONTILE
360
16
  3
REFRACTIONTILE
360
18
  3
SPECULARTILE
360
15
  0
DICTIONARY
  5
22
330
21
100
AcDbDictionary
280
     1
281
     1
  3
BUMPTILE
360
24
  3
DIFFUSETILE
360
23
  3
OPACITYTILE
360
27
  3
REFLECTIONTILE
360
26
  3
REFRACTIONTILE
360
28
  3
SPECULARTILE
360
25
  0
DICTIONARY
  5
19D
330
67
100
AcDbDictionary
280
     1
281
     1
  3
ACAD_XREC_ROUNDTRIP
360
19E
  0
DICTIONARY
  5
19F
330
69
100
AcDbDictionary
280
     1
281
     1
  3
ACAD_XREC_ROUNDTRIP
360
1A0
  0
DICTIONARY
  5
D7
330
65
100
AcDbDictionary
280
     1
281
     1
  3
ACAD_ROUNDTRIP_2008_TABLESTYLE_CELLSTYLEMAP
360
16A
  0
DICTIONARY
  5
176
330
2F
100
AcDbDictionary
280
     1
281
     1
  3
ACAD_XREC_ROUNDTRIP
360
177
  0
DICTIONARY
  5
174
330
2E
100
AcDbDictionary
280
     1
281
     1
  3
ACAD_XREC_ROUNDTRIP
360
175
  0
DICTIONARY
  5
182
330
35
100
AcDbDictionary
280
     1
281
     1
  3
ACAD_XREC_ROUNDTRIP
360
183
  0
DICTIONARY
  5
18A
330
39
100
AcDbDictionary
280
     1
281
     1
  3
ACAD_XREC_ROUNDTRIP
360
18B
  0
DICTIONARY
  5
17C
330
32
100
AcDbDictionary
280
     1
281
     1
  3
ACAD_XREC_ROUNDTRIP
360
17D
  0
DICTIONARY
  5
180
330
34
100
AcDbDictionary
280
     1
281
     1
  3
ACAD_XREC_ROUNDTRIP
360
181
  0
DICTIONARY
  5
19A
330
41
100
AcDbDictionary
280
     1
281
     1
  3
ACAD_XREC_ROUNDTRIP
360
19B
  0
DICTIONARY
  5
188
330
38
100
AcDbDictionary
280
     1
281
     1
  3
ACAD_XREC_ROUNDTRIP
360
189
  0
DICTIONARY
  5
16C
330
2A
100
AcDbDictionary
280
     1
281
     1
  3
ACAD_XREC_ROUNDTRIP
360
16D
  0
DICTIONARY
  5
16E
330
2B
100
AcDbDictionary
280
     1
281
     1
  3
ACAD_XREC_ROUNDTRIP
360
16F
  0
DICTIONARY
  5
170
330
2C
100
AcDbDictionary
280
     1
281
     1
  3
ACAD_XREC_ROUNDTRIP
360
171
  0
DICTIONARY
  5
172
330
2D
100
AcDbDictionary
280
     1
281
     1
  3
ACAD_XREC_ROUNDTRIP
360
173
  0
DICTIONARY
  5
17A
330
31
100
AcDbDictionary
280
     1
281
     1
  3
ACAD_XREC_ROUNDTRIP
360
17B
  0
DICTIONARY
  5
196
330
3F
100
AcDbDictionary
280
     1
281
     1
  3
ACAD_XREC_ROUNDTRIP
360
197
  0
DICTIONARY
  5
186
330
37
100
AcDbDictionary
280
     1
281
     1
  3
ACAD_XREC_ROUNDTRIP
360
187
  0
DICTIONARY
  5
198
330
40
100
AcDbDictionary
280
     1
281
     1
  3
ACAD_XREC_ROUNDTRIP
360
199
  0
DICTIONARY
  5
17E
330
33
100
AcDbDictionary
280
     1
281
     1
  3
ACAD_XREC_ROUNDTRIP
360
17F
  0
DICTIONARY
  5
194
330
3E
100
AcDbDictionary
280
     1
281
     1
  3
ACAD_XREC_ROUNDTRIP
360
195
  0
DICTIONARY
  5
192
330
3D
100
AcDbDictionary
280
     1
281
     1
  3
ACAD_XREC_ROUNDTRIP
360
193
  0
DICTIONARY
  5
18C
330
3A
100
AcDbDictionary
280
     1
281
     1
  3
ACAD_XREC_ROUNDTRIP
360
18D
  0
DICTIONARY
  5
18E
330
3B
100
AcDbDictionary
280
     1
281
     1
  3
ACAD_XREC_ROUNDTRIP
360
18F
  0
DICTIONARY
  5
184
330
36
100
AcDbDictionary
280
     1
281
     1
  3
ACAD_XREC_ROUNDTRIP
360
185
  0
DICTIONARY
  5
178
330
30
100
AcDbDictionary
280
     1
281
     1
  3
ACAD_XREC_ROUNDTRIP
360
179
  0
DICTIONARY
  5
190
330
3C
100
AcDbDictionary
280
     1
281
     1
  3
ACAD_XREC_ROUNDTRIP
360
191
  0
XRECORD
  5
1A2
102
{ACAD_REACTORS
330
1A1
102
}
330
1A1
100
AcDbXrecord
280
     1
102
DISPLAYNAME
  1
Imperial24
102
FLAGS
 90
        0
  0
XRECORD
  5
1C
102
{ACAD_REACTORS
330
1A
102
}
330
1A
100
AcDbXrecord
280
     1
270
     1
271
     1
  0
XRECORD
  5
1B
102
{ACAD_REACTORS
330
1A
102
}
330
1A
100
AcDbXrecord
280
     1
270
     1
271
     1
  0
XRECORD
  5
1F
102
{ACAD_REACTORS
330
1A
102
}
330
1A
100
AcDbXrecord
280
     1
270
     1
271
     1
  0
XRECORD
  5
1E
102
{ACAD_REACTORS
330
1A
102
}
330
1A
100
AcDbXrecord
280
     1
270
     1
271
     1
  0
XRECORD
  5
20
102
{ACAD_REACTORS
330
1A
102
}
330
1A
100
AcDbXrecord
280
     1
270
     1
271
     1
  0
XRECORD
  5
1D
102
{ACAD_REACTORS
330
1A
102
}
330
1A
100
AcDbXrecord
280
     1
270
     1
271
     1
  0
XRECORD
  5
14
102
{ACAD_REACTORS
330
12
102
}
330
12
100
AcDbXrecord
280
     1
270
     1
271
     1
  0
XRECORD
  5
13
102
{ACAD_REACTORS
330
12
102
}
330
12
100
AcDbXrecord
280
     1
270
     1
271
     1
  0
XRECORD
  5
17
102
{ACAD_REACTORS
330
12
102
}
330
12
100
AcDbXrecord
280
     1
270
     1
271
     1
  0
XRECORD
  5
16
102
{ACAD_REACTORS
330
12
102
}
330
12
100
AcDbXrecord
280
     1
270
     1
271
     1
  0
XRECORD
  5
18
102
{ACAD_REACTORS
330
12
102
}
330
12
100
AcDbXrecord
280
     1
270
     1
271
     1
  0
XRECORD
  5
15
102
{ACAD_REACTORS
330
12
102
}
330
12
100
AcDbXrecord
280
     1
270
     1
271
     1
  0
XRECORD
  5
24
102
{ACAD_REACTORS
330
22
102
}
330
22
100
AcDbXrecord
280
     1
270
     1
271
     1
  0
XRECORD
  5
23
102
{ACAD_REACTORS
330
22
102
}
330
22
100
AcDbXrecord
280
     1
270
     1
271
     1
  0
XRECORD
  5
27
102
{ACAD_REACTORS
330
22
102
}
330
22
100
AcDbXrecord
280
     1
270
     1
271
     1
  0
XRECORD
  5
26
102
{ACAD_REACTORS
330
22
102
}
330
22
100
AcDbXrecord
280
     1
270
     1
271
     1
  0
XRECORD
  5
28
102
{ACAD_REACTORS
330
22
102
}
330
22
100
AcDbXrecord
280
     1
270
     1
271
     1
  0
XRECORD
  5
25
102
{ACAD_REACTORS
330
22
102
}
330
22
100
AcDbXrecord
280
     1
270
     1
271
     1
  0
XRECORD
  5
19E
102
{ACAD_REACTORS
330
19D
102
}
330
19D
100
AcDbXrecord
280
     1
102
ACAD_ROUNDTRIP_2012_MLEADER_STYLE
298
     1
  0
XRECORD
  5
1A0
102
{ACAD_REACTORS
330
19F
102
}
330
19F
100
AcDbXrecord
280
     1
102
DISPLAYNAME
  1
Imperial24
102
FLAGS
 90
        0
  0
CELLSTYLEMAP
  5
16A
102
{ACAD_REACTORS
330
D7
102
}
330
D7
100
AcDbCellStyleMap
 90
        3
300
CELLSTYLE
  1
TABLEFORMAT_BEGIN
 90
        5
170
     1
 91
        0
 92
    32768
 62
   257
 93
        1
300
CONTENTFORMAT
  1
CONTENTFORMAT_BEGIN
 90
        0
 91
        0
 92
      512
 93
        0
300

 40
0.0
140
1.0
 94
        5
 62
     0
340
55
144
0.25
309
CONTENTFORMAT_END
171
     1
301
MARGIN
  1
CELLMARGIN_BEGIN
 40
0.06
 40
0.06
 40
0.06
 40
0.06
 40
0.18
 40
0.18
309
CELLMARGIN_END
 94
        6
 95
        1
302
GRIDFORMAT
  1
GRIDFORMAT_BEGIN
 90
        0
 91
        1
 62
     0
 92
       -2
340
0
 93
        0
 40
0.045
309
GRIDFORMAT_END
 95
        2
302
GRIDFORMAT
  1
GRIDFORMAT_BEGIN
 90
        0
 91
        1
 62
     0
 92
       -2
340
0
 93
        0
 40
0.045
309
GRIDFORMAT_END
 95
        4
302
GRIDFORMAT
  1
GRIDFORMAT_BEGIN
 90
        0
 91
        1
 62
     0
 92
       -2
340
0
 93
        0
 40
0.045
309
GRIDFORMAT_END
 95
        8
302
GRIDFORMAT
  1
GRIDFORMAT_BEGIN
 90
        0
 91
        1
 62
     0
 92
       -2
340
0
 93
        0
 40
0.045
309
GRIDFORMAT_END
 95
       16
302
GRIDFORMAT
  1
GRIDFORMAT_BEGIN
 90
        0
 91
        1
 62
     0
 92
       -2
340
0
 93
        0
 40
0.045
309
GRIDFORMAT_END
 95
       32
302
GRIDFORMAT
  1
GRIDFORMAT_BEGIN
 90
        0
 91
        1
 62
     0
 92
       -2
340
0
 93
        0
 40
0.045
309
GRIDFORMAT_END
309
TABLEFORMAT_END
  1
CELLSTYLE_BEGIN
 90
        1
 91
        1
300
_TITLE
309
CELLSTYLE_END
300
CELLSTYLE
  1
TABLEFORMAT_BEGIN
 90
        5
170
     1
 91
        0
 92
        0
 62
   257
 93
        1
300
CONTENTFORMAT
  1
CONTENTFORMAT_BEGIN
 90
        0
 91
        0
 92
      512
 93
        0
300

 40
0.0
140
1.0
 94
        5
 62
     0
340
55
144
0.18
309
CONTENTFORMAT_END
171
     1
301
MARGIN
  1
CELLMARGIN_BEGIN
 40
0.06
 40
0.06
 40
0.06
 40
0.06
 40
0.18
 40
0.18
309
CELLMARGIN_END
 94
        6
 95
        1
302
GRIDFORMAT
  1
GRIDFORMAT_BEGIN
 90
        0
 91
        1
 62
     0
 92
       -2
340
0
 93
        0
 40
0.045
309
GRIDFORMAT_END
 95
        2
302
GRIDFORMAT
  1
GRIDFORMAT_BEGIN
 90
        0
 91
        1
 62
     0
 92
       -2
340
0
 93
        0
 40
0.045
309
GRIDFORMAT_END
 95
        4
302
GRIDFORMAT
  1
GRIDFORMAT_BEGIN
 90
        0
 91
        1
 62
     0
 92
       -2
340
0
 93
        0
 40
0.045
309
GRIDFORMAT_END
 95
        8
302
GRIDFORMAT
  1
GRIDFORMAT_BEGIN
 90
        0
 91
        1
 62
     0
 92
       -2
340
0
 93
        0
 40
0.045
309
GRIDFORMAT_END
 95
       16
302
GRIDFORMAT
  1
GRIDFORMAT_BEGIN
 90
        0
 91
        1
 62
     0
 92
       -2
340
0
 93
        0
 40
0.045
309
GRIDFORMAT_END
 95
       32
302
GRIDFORMAT
  1
GRIDFORMAT_BEGIN
 90
        0
 91
        1
 62
     0
 92
       -2
340
0
 93
        0
 40
0.045
309
GRIDFORMAT_END
309
TABLEFORMAT_END
  1
CELLSTYLE_BEGIN
 90
        2
 91
        1
300
_HEADER
309
CELLSTYLE_END
300
CELLSTYLE
  1
TABLEFORMAT_BEGIN
 90
        5
170
     1
 91
        0
 92
        0
 62
   257
 93
        1
300
CONTENTFORMAT
  1
CONTENTFORMAT_BEGIN
 90
        0
 91
        0
 92
      512
 93
        0
300

 40
0.0
140
1.0
 94
        2
 62
     0
340
55
144
0.18
309
CONTENTFORMAT_END
171
     1
301
MARGIN
  1
CELLMARGIN_BEGIN
 40
0.06
 40
0.06
 40
0.06
 40
0.06
 40
0.18
 40
0.18
309
CELLMARGIN_END
 94
        6
 95
        1
302
GRIDFORMAT
  1
GRIDFORMAT_BEGIN
 90
        0
 91
        1
 62
     0
 92
       -2
340
0
 93
        0
 40
0.045
309
GRIDFORMAT_END
 95
        2
302
GRIDFORMAT
  1
GRIDFORMAT_BEGIN
 90
        0
 91
        1
 62
     0
 92
       -2
340
0
 93
        0
 40
0.045
309
GRIDFORMAT_END
 95
        4
302
GRIDFORMAT
  1
GRIDFORMAT_BEGIN
 90
        0
 91
        1
 62
     0
 92
       -2
340
0
 93
        0
 40
0.045
309
GRIDFORMAT_END
 95
        8
302
GRIDFORMAT
  1
GRIDFORMAT_BEGIN
 90
        0
 91
        1
 62
     0
 92
       -2
340
0
 93
        0
 40
0.045
309
GRIDFORMAT_END
 95
       16
302
GRIDFORMAT
  1
GRIDFORMAT_BEGIN
 90
        0
 91
        1
 62
     0
 92
       -2
340
0
 93
        0
 40
0.045
309
GRIDFORMAT_END
 95
       32
302
GRIDFORMAT
  1
GRIDFORMAT_BEGIN
 90
        0
 91
        1
 62
     0
 92
       -2
340
0
 93
        0
 40
0.045
309
GRIDFORMAT_END
309
TABLEFORMAT_END
  1
CELLSTYLE_BEGIN
 90
        3
 91
        2
300
_DATA
309
CELLSTYLE_END
  0
XRECORD
  5
177
102
{ACAD_REACTORS
330
176
102
}
330
176
100
AcDbXrecord
280
     1
102
RTVSPost2010Prop28
280
     1
102
RTVSPost2010PropOp28
 70
     1
102
RTVSPost2010Prop29
280
     1
102
RTVSPost2010PropOp29
 70
     1
102
RTVSPost2010Prop30
280
     0
102
RTVSPost2010PropOp30
 70
     1
102
RTVSPost2010Prop31
280
     0
102
RTVSPost2010PropOp31
 70
     1
102
RTVSPost2010Prop32
280
     0
102
RTVSPost2010PropOp32
 70
     1
102
RTVSPost2010Prop33
280
     0
102
RTVSPost2010PropOp33
 70
     1
102
RTVSPost2010Prop34
280
     0
102
RTVSPost2010PropOp34
 70
     1
102
RTVSPost2010Prop35
280
     0
102
RTVSPost2010PropOp35
 70
     1
102
RTVSPost2010Prop36
280
     0
102
RTVSPost2010PropOp36
 70
     1
102
RTVSPost2010Prop37
 90
       50
102
RTVSPost2010PropOp37
 70
     1
102
RTVSPost2010Prop38
140
0.0
102
RTVSPost2010PropOp38
 70
     1
102
RTVSPost2010Prop39
140
1.0
102
RTVSPost2010PropOp39
 70
     1
102
RTVSPost2010Prop40
 90
        0
102
RTVSPost2010PropOp40
 70
     1
102
RTVSPost2010Prop41ColorIndex
 90
       18
102
RTVSPost2010Prop41ColorRGB
 90
        0
102
RTVSPost2010PropOp41
 70
     1
102
RTVSPost2010Prop42
 90
       50
102
RTVSPost2010PropOp42
 70
     1
102
RTVSPost2010Prop43
 90
        3
102
RTVSPost2010PropOp43
 70
     1
102
RTVSPost2010Prop44ColorIndex
 90
        5
102
RTVSPost2010Prop44ColorRGB
 90
      255
102
RTVSPost2010PropOp44
 70
     1
102
RTVSPost2010Prop45
280
     0
102
RTVSPost2010PropOp45
 70
     1
102
RTVSPost2010Prop46
 90
       50
102
RTVSPost2010PropOp46
 70
     1
102
RTVSPost2010Prop47
 90
       50
102
RTVSPost2010PropOp47
 70
     1
102
RTVSPost2010Prop48
 90
       50
102
RTVSPost2010PropOp48
 70
     1
102
RTVSPost2010Prop49
280
     0
102
RTVSPost2010PropOp49
 70
     1
102
RTVSPost2010Prop50
 90
       50
102
RTVSPost2010PropOp50
 70
     1
102
RTVSPost2010Prop51ColorIndex
 90
      256
102
RTVSPost2010Prop51ColorRGB
 90
-16777216
102
RTVSPost2010PropOp51
 70
     0
102
RTVSPost2010Prop52
140
1.0
102
RTVSPost2010PropOp52
 70
     0
102
RTVSPost2010Prop53
 90
        2
102
RTVSPost2010PropOp53
 70
     1
102
RTVSPost2010Prop54
  1
strokes_ogs.tif
102
RTVSPost2010PropOp54
 70
     1
102
RTVSPost2010Prop55
280
     0
102
RTVSPost2010PropOp55
 70
     1
102
RTVSPost2010Prop56
140
1.0
102
RTVSPost2010PropOp56
 70
     1
102
RTVSPost2010Prop57
140
1.0
102
RTVSPost2010PropOp57
 70
     1
102
RTVSPropertyOp0
 70
     1
102
RTVSPropertyOp1
 70
     1
102
RTVSPropertyOp2
 70
     1
102
RTVSPropertyOp3
 70
     1
102
RTVSPropertyOp4
 70
     1
102
RTVSPropertyOp5
 70
     1
102
RTVSPropertyOp6
 70
     1
102
RTVSPropertyOp7
 70
     1
102
RTVSPropertyOp8
 70
     1
102
RTVSPropertyOp9
 70
     1
102
RTVSPropertyOp10
 70
     1
102
RTVSPropertyOp11
 70
     1
102
RTVSPropertyOp12
 70
     1
102
RTVSPropertyOp13
 70
     1
102
RTVSPropertyOp14
 70
     1
102
RTVSPropertyOp15
 70
     1
102
RTVSPropertyOp16
 70
     1
102
RTVSPropertyOp17
 70
     1
102
RTVSPropertyOp18
 70
     1
102
RTVSPropertyOp19
 70
     1
102
RTVSPropertyOp20
 70
     1
102
RTVSPropertyOp21
 70
     1
102
RTVSPropertyOp22
 70
     1
102
RTVSPropertyOp23
 70
     1
102
RTVSPropertyOp24
 70
     1
102
RTVSPropertyOp25
 70
     1
102
RTVSPropertyOp26
 70
     1
102
RTVSPropertyOp27
 70
     1
102
RTVSPropertyOp28
 70
     1
102
RTVSPropertyOp29
 70
     1
102
RTVSPropertyOp30
 70
     1
102
RTVSPropertyOp31
 70
     1
102
RTVSPropertyOp32
 70
     1
102
RTVSPropertyOp33
 70
     1
102
RTVSPropertyOp34
 70
     1
102
RTVSPropertyOp35
 70
     1
102
RTVSPropertyOp36
 70
     1
102
RTVSPropertyOp37
 70
     1
102
RTVSPropertyOp38
 70
     1
102
RTVSPropertyOp39
 70
     1
102
RTVSPropertyOp40
 70
     1
102
RTVSPropertyOp41
 70
     1
102
RTVSPropertyOp42
 70
     1
102
RTVSPropertyOp43
 70
     1
102
RTVSPropertyOp44
 70
     1
102
RTVSPropertyOp45
 70
     1
102
RTVSPropertyOp46
 70
     1
102
RTVSPropertyOp47
 70
     1
102
RTVSPropertyOp48
 70
     1
102
RTVSPropertyOp49
 70
     1
102
RTVSPropertyOp50
 70
     1
102
RTVSPropertyOp51
 70
     0
102
RTVSPropertyOp52
 70
     0
102
RTVSPropertyOp53
 70
     1
102
RTVSPropertyOp54
 70
     1
102
RTVSPropertyOp55
 70
     1
102
RTVSPropertyOp56
 70
     1
102
RTVSPropertyOp57
 70
     1
102
RTVSPropertyOp58
 70
     1
102
RTVSPropertyOp59
 70
     1
102
RTVSPropertyOp60
 70
     1
102
RTVSPropertyOp61
 70
     1
102
RTVSPropertyOp62
 70
     1
  0
XRECORD
  5
175
102
{ACAD_REACTORS
330
174
102
}
330
174
100
AcDbXrecord
280
     1
102
RTVSPost2010Prop28
280
     0
102
RTVSPost2010PropOp28
 70
     1
102
RTVSPost2010Prop29
280
     1
102
RTVSPost2010PropOp29
 70
     1
102
RTVSPost2010Prop30
280
     1
102
RTVSPost2010PropOp30
 70
     1
102
RTVSPost2010Prop31
280
     0
102
RTVSPost2010PropOp31
 70
     1
102
RTVSPost2010Prop32
280
     0
102
RTVSPost2010PropOp32
 70
     1
102
RTVSPost2010Prop33
280
     0
102
RTVSPost2010PropOp33
 70
     1
102
RTVSPost2010Prop34
280
     0
102
RTVSPost2010PropOp34
 70
     1
102
RTVSPost2010Prop35
280
     0
102
RTVSPost2010PropOp35
 70
     1
102
RTVSPost2010Prop36
280
     0
102
RTVSPost2010PropOp36
 70
     1
102
RTVSPost2010Prop37
 90
       50
102
RTVSPost2010PropOp37
 70
     1
102
RTVSPost2010Prop38
140
0.0
102
RTVSPost2010PropOp38
 70
     1
102
RTVSPost2010Prop39
140
1.0
102
RTVSPost2010PropOp39
 70
     1
102
RTVSPost2010Prop40
 90
        0
102
RTVSPost2010PropOp40
 70
     1
102
RTVSPost2010Prop41ColorIndex
 90
       18
102
RTVSPost2010Prop41ColorRGB
 90
        0
102
RTVSPost2010PropOp41
 70
     1
102
RTVSPost2010Prop42
 90
       50
102
RTVSPost2010PropOp42
 70
     1
102
RTVSPost2010Prop43
 90
        3
102
RTVSPost2010PropOp43
 70
     1
102
RTVSPost2010Prop44ColorIndex
 90
        5
102
RTVSPost2010Prop44ColorRGB
 90
      255
102
RTVSPost2010PropOp44
 70
     1
102
RTVSPost2010Prop45
280
     0
102
RTVSPost2010PropOp45
 70
     1
102
RTVSPost2010Prop46
 90
       50
102
RTVSPost2010PropOp46
 70
     1
102
RTVSPost2010Prop47
 90
       50
102
RTVSPost2010PropOp47
 70
     1
102
RTVSPost2010Prop48
 90
       50
102
RTVSPost2010PropOp48
 70
     1
102
RTVSPost2010Prop49
280
     0
102
RTVSPost2010PropOp49
 70
     1
102
RTVSPost2010Prop50
 90
       50
102
RTVSPost2010PropOp50
 70
     1
102
RTVSPost2010Prop51ColorIndex
 90
      256
102
RTVSPost2010Prop51ColorRGB
 90
-16777216
102
RTVSPost2010PropOp51
 70
     0
102
RTVSPost2010Prop52
140
1.0
102
RTVSPost2010PropOp52
 70
     0
102
RTVSPost2010Prop53
 90
        2
102
RTVSPost2010PropOp53
 70
     1
102
RTVSPost2010Prop54
  1
strokes_ogs.tif
102
RTVSPost2010PropOp54
 70
     1
102
RTVSPost2010Prop55
280
     0
102
RTVSPost2010PropOp55
 70
     1
102
RTVSPost2010Prop56
140
1.0
102
RTVSPost2010PropOp56
 70
     1
102
RTVSPost2010Prop57
140
1.0
102
RTVSPost2010PropOp57
 70
     1
102
RTVSPropertyOp0
 70
     1
102
RTVSPropertyOp1
 70
     1
102
RTVSPropertyOp2
 70
     1
102
RTVSPropertyOp3
 70
     1
102
RTVSPropertyOp4
 70
     1
102
RTVSPropertyOp5
 70
     1
102
RTVSPropertyOp6
 70
     1
102
RTVSPropertyOp7
 70
     1
102
RTVSPropertyOp8
 70
     1
102
RTVSPropertyOp9
 70
     1
102
RTVSPropertyOp10
 70
     1
102
RTVSPropertyOp11
 70
     1
102
RTVSPropertyOp12
 70
     1
102
RTVSPropertyOp13
 70
     1
102
RTVSPropertyOp14
 70
     1
102
RTVSPropertyOp15
 70
     1
102
RTVSPropertyOp16
 70
     1
102
RTVSPropertyOp17
 70
     1
102
RTVSPropertyOp18
 70
     1
102
RTVSPropertyOp19
 70
     1
102
RTVSPropertyOp20
 70
     1
102
RTVSPropertyOp21
 70
     1
102
RTVSPropertyOp22
 70
     1
102
RTVSPropertyOp23
 70
     1
102
RTVSPropertyOp24
 70
     1
102
RTVSPropertyOp25
 70
     1
102
RTVSPropertyOp26
 70
     1
102
RTVSPropertyOp27
 70
     1
102
RTVSPropertyOp28
 70
     1
102
RTVSPropertyOp29
 70
     1
102
RTVSPropertyOp30
 70
     1
102
RTVSPropertyOp31
 70
     1
102
RTVSPropertyOp32
 70
     1
102
RTVSPropertyOp33
 70
     1
102
RTVSPropertyOp34
 70
     1
102
RTVSPropertyOp35
 70
     1
102
RTVSPropertyOp36
 70
     1
102
RTVSPropertyOp37
 70
     1
102
RTVSPropertyOp38
 70
     1
102
RTVSPropertyOp39
 70
     1
102
RTVSPropertyOp40
 70
     1
102
RTVSPropertyOp41
 70
     1
102
RTVSPropertyOp42
 70
     1
102
RTVSPropertyOp43
 70
     1
102
RTVSPropertyOp44
 70
     1
102
RTVSPropertyOp45
 70
     1
102
RTVSPropertyOp46
 70
     1
102
RTVSPropertyOp47
 70
     1
102
RTVSPropertyOp48
 70
     1
102
RTVSPropertyOp49
 70
     1
102
RTVSPropertyOp50
 70
     1
102
RTVSPropertyOp51
 70
     0
102
RTVSPropertyOp52
 70
     0
102
RTVSPropertyOp53
 70
     1
102
RTVSPropertyOp54
 70
     1
102
RTVSPropertyOp55
 70
     1
102
RTVSPropertyOp56
 70
     1
102
RTVSPropertyOp57
 70
     1
102
RTVSPropertyOp58
 70
     1
102
RTVSPropertyOp59
 70
     1
102
RTVSPropertyOp60
 70
     1
102
RTVSPropertyOp61
 70
     1
102
RTVSPropertyOp62
 70
     1
  0
XRECORD
  5
183
102
{ACAD_REACTORS
330
182
102
}
330
182
100
AcDbXrecord
280
     1
102
RTVSPost2010Prop28
280
     0
102
RTVSPost2010PropOp28
 70
     1
102
RTVSPost2010Prop29
280
     1
102
RTVSPost2010PropOp29
 70
     1
102
RTVSPost2010Prop30
280
     1
102
RTVSPost2010PropOp30
 70
     1
102
RTVSPost2010Prop31
280
     0
102
RTVSPost2010PropOp31
 70
     1
102
RTVSPost2010Prop32
280
     0
102
RTVSPost2010PropOp32
 70
     1
102
RTVSPost2010Prop33
280
     0
102
RTVSPost2010PropOp33
 70
     1
102
RTVSPost2010Prop34
280
     0
102
RTVSPost2010PropOp34
 70
     1
102
RTVSPost2010Prop35
280
     0
102
RTVSPost2010PropOp35
 70
     1
102
RTVSPost2010Prop36
280
     0
102
RTVSPost2010PropOp36
 70
     1
102
RTVSPost2010Prop37
 90
       50
102
RTVSPost2010PropOp37
 70
     1
102
RTVSPost2010Prop38
140
0.0
102
RTVSPost2010PropOp38
 70
     1
102
RTVSPost2010Prop39
140
1.0
102
RTVSPost2010PropOp39
 70
     1
102
RTVSPost2010Prop40
 90
        0
102
RTVSPost2010PropOp40
 70
     1
102
RTVSPost2010Prop41ColorIndex
 90
       18
102
RTVSPost2010Prop41ColorRGB
 90
        0
102
RTVSPost2010PropOp41
 70
     1
102
RTVSPost2010Prop42
 90
       50
102
RTVSPost2010PropOp42
 70
     1
102
RTVSPost2010Prop43
 90
        3
102
RTVSPost2010PropOp43
 70
     1
102
RTVSPost2010Prop44ColorIndex
 90
        5
102
RTVSPost2010Prop44ColorRGB
 90
      255
102
RTVSPost2010PropOp44
 70
     1
102
RTVSPost2010Prop45
280
     0
102
RTVSPost2010PropOp45
 70
     1
102
RTVSPost2010Prop46
 90
       50
102
RTVSPost2010PropOp46
 70
     1
102
RTVSPost2010Prop47
 90
       50
102
RTVSPost2010PropOp47
 70
     1
102
RTVSPost2010Prop48
 90
       50
102
RTVSPost2010PropOp48
 70
     1
102
RTVSPost2010Prop49
280
     0
102
RTVSPost2010PropOp49
 70
     1
102
RTVSPost2010Prop50
 90
       50
102
RTVSPost2010PropOp50
 70
     1
102
RTVSPost2010Prop51ColorIndex
 90
      256
102
RTVSPost2010Prop51ColorRGB
 90
-16777216
102
RTVSPost2010PropOp51
 70
     0
102
RTVSPost2010Prop52
140
1.0
102
RTVSPost2010PropOp52
 70
     0
102
RTVSPost2010Prop53
 90
        2
102
RTVSPost2010PropOp53
 70
     1
102
RTVSPost2010Prop54
  1
strokes_ogs.tif
102
RTVSPost2010PropOp54
 70
     1
102
RTVSPost2010Prop55
280
     0
102
RTVSPost2010PropOp55
 70
     1
102
RTVSPost2010Prop56
140
1.0
102
RTVSPost2010PropOp56
 70
     1
102
RTVSPost2010Prop57
140
1.0
102
RTVSPost2010PropOp57
 70
     1
102
RTVSPropertyOp0
 70
     1
102
RTVSPropertyOp1
 70
     1
102
RTVSPropertyOp2
 70
     1
102
RTVSPropertyOp3
 70
     1
102
RTVSPropertyOp4
 70
     1
102
RTVSPropertyOp5
 70
     1
102
RTVSPropertyOp6
 70
     1
102
RTVSPropertyOp7
 70
     1
102
RTVSPropertyOp8
 70
     1
102
RTVSPropertyOp9
 70
     1
102
RTVSPropertyOp10
 70
     1
102
RTVSPropertyOp11
 70
     1
102
RTVSPropertyOp12
 70
     1
102
RTVSPropertyOp13
 70
     1
102
RTVSPropertyOp14
 70
     1
102
RTVSPropertyOp15
 70
     1
102
RTVSPropertyOp16
 70
     1
102
RTVSPropertyOp17
 70
     1
102
RTVSPropertyOp18
 70
     1
102
RTVSPropertyOp19
 70
     1
102
RTVSPropertyOp20
 70
     1
102
RTVSPropertyOp21
 70
     1
102
RTVSPropertyOp22
 70
     1
102
RTVSPropertyOp23
 70
     1
102
RTVSPropertyOp24
 70
     1
102
RTVSPropertyOp25
 70
     1
102
RTVSPropertyOp26
 70
     1
102
RTVSPropertyOp27
 70
     1
102
RTVSPropertyOp28
 70
     1
102
RTVSPropertyOp29
 70
     1
102
RTVSPropertyOp30
 70
     1
102
RTVSPropertyOp31
 70
     1
102
RTVSPropertyOp32
 70
     1
102
RTVSPropertyOp33
 70
     1
102
RTVSPropertyOp34
 70
     1
102
RTVSPropertyOp35
 70
     1
102
RTVSPropertyOp36
 70
     1
102
RTVSPropertyOp37
 70
     1
102
RTVSPropertyOp38
 70
     1
102
RTVSPropertyOp39
 70
     1
102
RTVSPropertyOp40
 70
     1
102
RTVSPropertyOp41
 70
     1
102
RTVSPropertyOp42
 70
     1
102
RTVSPropertyOp43
 70
     1
102
RTVSPropertyOp44
 70
     1
102
RTVSPropertyOp45
 70
     1
102
RTVSPropertyOp46
 70
     1
102
RTVSPropertyOp47
 70
     1
102
RTVSPropertyOp48
 70
     1
102
RTVSPropertyOp49
 70
     1
102
RTVSPropertyOp50
 70
     1
102
RTVSPropertyOp51
 70
     0
102
RTVSPropertyOp52
 70
     0
102
RTVSPropertyOp53
 70
     1
102
RTVSPropertyOp54
 70
     1
102
RTVSPropertyOp55
 70
     1
102
RTVSPropertyOp56
 70
     1
102
RTVSPropertyOp57
 70
     1
102
RTVSPropertyOp58
 70
     1
102
RTVSPropertyOp59
 70
     1
102
RTVSPropertyOp60
 70
     1
102
RTVSPropertyOp61
 70
     1
102
RTVSPropertyOp62
 70
     1
  0
XRECORD
  5
18B
102
{ACAD_REACTORS
330
18A
102
}
330
18A
100
AcDbXrecord
280
     1
102
RTVSPost2010Prop28
280
     0
102
RTVSPost2010PropOp28
 70
     1
102
RTVSPost2010Prop29
280
     1
102
RTVSPost2010PropOp29
 70
     1
102
RTVSPost2010Prop30
280
     1
102
RTVSPost2010PropOp30
 70
     1
102
RTVSPost2010Prop31
280
     0
102
RTVSPost2010PropOp31
 70
     1
102
RTVSPost2010Prop32
280
     0
102
RTVSPost2010PropOp32
 70
     1
102
RTVSPost2010Prop33
280
     0
102
RTVSPost2010PropOp33
 70
     1
102
RTVSPost2010Prop34
280
     0
102
RTVSPost2010PropOp34
 70
     1
102
RTVSPost2010Prop35
280
     0
102
RTVSPost2010PropOp35
 70
     1
102
RTVSPost2010Prop36
280
     0
102
RTVSPost2010PropOp36
 70
     1
102
RTVSPost2010Prop37
 90
       50
102
RTVSPost2010PropOp37
 70
     1
102
RTVSPost2010Prop38
140
0.0
102
RTVSPost2010PropOp38
 70
     1
102
RTVSPost2010Prop39
140
1.0
102
RTVSPost2010PropOp39
 70
     1
102
RTVSPost2010Prop40
 90
        0
102
RTVSPost2010PropOp40
 70
     1
102
RTVSPost2010Prop41ColorIndex
 90
       18
102
RTVSPost2010Prop41ColorRGB
 90
        0
102
RTVSPost2010PropOp41
 70
     1
102
RTVSPost2010Prop42
 90
       50
102
RTVSPost2010PropOp42
 70
     1
102
RTVSPost2010Prop43
 90
        3
102
RTVSPost2010PropOp43
 70
     1
102
RTVSPost2010Prop44ColorIndex
 90
        5
102
RTVSPost2010Prop44ColorRGB
 90
      255
102
RTVSPost2010PropOp44
 70
     1
102
RTVSPost2010Prop45
280
     0
102
RTVSPost2010PropOp45
 70
     1
102
RTVSPost2010Prop46
 90
       50
102
RTVSPost2010PropOp46
 70
     1
102
RTVSPost2010Prop47
 90
       50
102
RTVSPost2010PropOp47
 70
     1
102
RTVSPost2010Prop48
 90
       50
102
RTVSPost2010PropOp48
 70
     1
102
RTVSPost2010Prop49
280
     0
102
RTVSPost2010PropOp49
 70
     1
102
RTVSPost2010Prop50
 90
       50
102
RTVSPost2010PropOp50
 70
     1
102
RTVSPost2010Prop51ColorIndex
 90
      256
102
RTVSPost2010Prop51ColorRGB
 90
-16777216
102
RTVSPost2010PropOp51
 70
     0
102
RTVSPost2010Prop52
140
1.0
102
RTVSPost2010PropOp52
 70
     0
102
RTVSPost2010Prop53
 90
        2
102
RTVSPost2010PropOp53
 70
     1
102
RTVSPost2010Prop54
  1
strokes_ogs.tif
102
RTVSPost2010PropOp54
 70
     1
102
RTVSPost2010Prop55
280
     0
102
RTVSPost2010PropOp55
 70
     1
102
RTVSPost2010Prop56
140
1.0
102
RTVSPost2010PropOp56
 70
     1
102
RTVSPost2010Prop57
140
1.0
102
RTVSPost2010PropOp57
 70
     1
102
RTVSPropertyOp0
 70
     1
102
RTVSPropertyOp1
 70
     1
102
RTVSPropertyOp2
 70
     1
102
RTVSPropertyOp3
 70
     1
102
RTVSPropertyOp4
 70
     1
102
RTVSPropertyOp5
 70
     1
102
RTVSPropertyOp6
 70
     1
102
RTVSPropertyOp7
 70
     1
102
RTVSPropertyOp8
 70
     1
102
RTVSPropertyOp9
 70
     1
102
RTVSPropertyOp10
 70
     1
102
RTVSPropertyOp11
 70
     1
102
RTVSPropertyOp12
 70
     1
102
RTVSPropertyOp13
 70
     1
102
RTVSPropertyOp14
 70
     1
102
RTVSPropertyOp15
 70
     1
102
RTVSPropertyOp16
 70
     1
102
RTVSPropertyOp17
 70
     1
102
RTVSPropertyOp18
 70
     1
102
RTVSPropertyOp19
 70
     1
102
RTVSPropertyOp20
 70
     1
102
RTVSPropertyOp21
 70
     1
102
RTVSPropertyOp22
 70
     1
102
RTVSPropertyOp23
 70
     1
102
RTVSPropertyOp24
 70
     1
102
RTVSPropertyOp25
 70
     1
102
RTVSPropertyOp26
 70
     1
102
RTVSPropertyOp27
 70
     1
102
RTVSPropertyOp28
 70
     1
102
RTVSPropertyOp29
 70
     1
102
RTVSPropertyOp30
 70
     1
102
RTVSPropertyOp31
 70
     1
102
RTVSPropertyOp32
 70
     1
102
RTVSPropertyOp33
 70
     1
102
RTVSPropertyOp34
 70
     1
102
RTVSPropertyOp35
 70
     1
102
RTVSPropertyOp36
 70
     1
102
RTVSPropertyOp37
 70
     1
102
RTVSPropertyOp38
 70
     1
102
RTVSPropertyOp39
 70
     1
102
RTVSPropertyOp40
 70
     1
102
RTVSPropertyOp41
 70
     1
102
RTVSPropertyOp42
 70
     1
102
RTVSPropertyOp43
 70
     1
102
RTVSPropertyOp44
 70
     1
102
RTVSPropertyOp45
 70
     1
102
RTVSPropertyOp46
 70
     1
102
RTVSPropertyOp47
 70
     1
102
RTVSPropertyOp48
 70
     1
102
RTVSPropertyOp49
 70
     1
102
RTVSPropertyOp50
 70
     1
102
RTVSPropertyOp51
 70
     0
102
RTVSPropertyOp52
 70
     0
102
RTVSPropertyOp53
 70
     1
102
RTVSPropertyOp54
 70
     1
102
RTVSPropertyOp55
 70
     1
102
RTVSPropertyOp56
 70
     1
102
RTVSPropertyOp57
 70
     1
102
RTVSPropertyOp58
 70
     1
102
RTVSPropertyOp59
 70
     1
102
RTVSPropertyOp60
 70
     1
102
RTVSPropertyOp61
 70
     1
102
RTVSPropertyOp62
 70
     1
  0
XRECORD
  5
17D
102
{ACAD_REACTORS
330
17C
102
}
330
17C
100
AcDbXrecord
280
     1
102
RTVSPost2010Prop28
280
     0
102
RTVSPost2010PropOp28
 70
     1
102
RTVSPost2010Prop29
280
     1
102
RTVSPost2010PropOp29
 70
     1
102
RTVSPost2010Prop30
280
     1
102
RTVSPost2010PropOp30
 70
     1
102
RTVSPost2010Prop31
280
     0
102
RTVSPost2010PropOp31
 70
     1
102
RTVSPost2010Prop32
280
     0
102
RTVSPost2010PropOp32
 70
     1
102
RTVSPost2010Prop33
280
     0
102
RTVSPost2010PropOp33
 70
     1
102
RTVSPost2010Prop34
280
     0
102
RTVSPost2010PropOp34
 70
     1
102
RTVSPost2010Prop35
280
     0
102
RTVSPost2010PropOp35
 70
     1
102
RTVSPost2010Prop36
280
     0
102
RTVSPost2010PropOp36
 70
     1
102
RTVSPost2010Prop37
 90
       50
102
RTVSPost2010PropOp37
 70
     1
102
RTVSPost2010Prop38
140
0.0
102
RTVSPost2010PropOp38
 70
     1
102
RTVSPost2010Prop39
140
1.0
102
RTVSPost2010PropOp39
 70
     1
102
RTVSPost2010Prop40
 90
        0
102
RTVSPost2010PropOp40
 70
     1
102
RTVSPost2010Prop41ColorIndex
 90
       18
102
RTVSPost2010Prop41ColorRGB
 90
        0
102
RTVSPost2010PropOp41
 70
     1
102
RTVSPost2010Prop42
 90
       50
102
RTVSPost2010PropOp42
 70
     1
102
RTVSPost2010Prop43
 90
        3
102
RTVSPost2010PropOp43
 70
     1
102
RTVSPost2010Prop44ColorIndex
 90
        5
102
RTVSPost2010Prop44ColorRGB
 90
      255
102
RTVSPost2010PropOp44
 70
     1
102
RTVSPost2010Prop45
280
     0
102
RTVSPost2010PropOp45
 70
     1
102
RTVSPost2010Prop46
 90
       50
102
RTVSPost2010PropOp46
 70
     1
102
RTVSPost2010Prop47
 90
       50
102
RTVSPost2010PropOp47
 70
     1
102
RTVSPost2010Prop48
 90
       50
102
RTVSPost2010PropOp48
 70
     1
102
RTVSPost2010Prop49
280
     0
102
RTVSPost2010PropOp49
 70
     1
102
RTVSPost2010Prop50
 90
       50
102
RTVSPost2010PropOp50
 70
     1
102
RTVSPost2010Prop51ColorIndex
 90
      256
102
RTVSPost2010Prop51ColorRGB
 90
-16777216
102
RTVSPost2010PropOp51
 70
     0
102
RTVSPost2010Prop52
140
1.0
102
RTVSPost2010PropOp52
 70
     0
102
RTVSPost2010Prop53
 90
        2
102
RTVSPost2010PropOp53
 70
     1
102
RTVSPost2010Prop54
  1
strokes_ogs.tif
102
RTVSPost2010PropOp54
 70
     1
102
RTVSPost2010Prop55
280
     0
102
RTVSPost2010PropOp55
 70
     1
102
RTVSPost2010Prop56
140
1.0
102
RTVSPost2010PropOp56
 70
     1
102
RTVSPost2010Prop57
140
1.0
102
RTVSPost2010PropOp57
 70
     1
102
RTVSPropertyOp0
 70
     1
102
RTVSPropertyOp1
 70
     1
102
RTVSPropertyOp2
 70
     1
102
RTVSPropertyOp3
 70
     1
102
RTVSPropertyOp4
 70
     1
102
RTVSPropertyOp5
 70
     1
102
RTVSPropertyOp6
 70
     1
102
RTVSPropertyOp7
 70
     1
102
RTVSPropertyOp8
 70
     1
102
RTVSPropertyOp9
 70
     1
102
RTVSPropertyOp10
 70
     1
102
RTVSPropertyOp11
 70
     1
102
RTVSPropertyOp12
 70
     1
102
RTVSPropertyOp13
 70
     1
102
RTVSPropertyOp14
 70
     1
102
RTVSPropertyOp15
 70
     1
102
RTVSPropertyOp16
 70
     1
102
RTVSPropertyOp17
 70
     1
102
RTVSPropertyOp18
 70
     1
102
RTVSPropertyOp19
 70
     1
102
RTVSPropertyOp20
 70
     1
102
RTVSPropertyOp21
 70
     1
102
RTVSPropertyOp22
 70
     1
102
RTVSPropertyOp23
 70
     1
102
RTVSPropertyOp24
 70
     1
102
RTVSPropertyOp25
 70
     1
102
RTVSPropertyOp26
 70
     1
102
RTVSPropertyOp27
 70
     1
102
RTVSPropertyOp28
 70
     1
102
RTVSPropertyOp29
 70
     1
102
RTVSPropertyOp30
 70
     1
102
RTVSPropertyOp31
 70
     1
102
RTVSPropertyOp32
 70
     1
102
RTVSPropertyOp33
 70
     1
102
RTVSPropertyOp34
 70
     1
102
RTVSPropertyOp35
 70
     1
102
RTVSPropertyOp36
 70
     1
102
RTVSPropertyOp37
 70
     1
102
RTVSPropertyOp38
 70
     1
102
RTVSPropertyOp39
 70
     1
102
RTVSPropertyOp40
 70
     1
102
RTVSPropertyOp41
 70
     1
102
RTVSPropertyOp42
 70
     1
102
RTVSPropertyOp43
 70
     1
102
RTVSPropertyOp44
 70
     1
102
RTVSPropertyOp45
 70
     1
102
RTVSPropertyOp46
 70
     1
102
RTVSPropertyOp47
 70
     1
102
RTVSPropertyOp48
 70
     1
102
RTVSPropertyOp49
 70
     1
102
RTVSPropertyOp50
 70
     1
102
RTVSPropertyOp51
 70
     0
102
RTVSPropertyOp52
 70
     0
102
RTVSPropertyOp53
 70
     1
102
RTVSPropertyOp54
 70
     1
102
RTVSPropertyOp55
 70
     1
102
RTVSPropertyOp56
 70
     1
102
RTVSPropertyOp57
 70
     1
102
RTVSPropertyOp58
 70
     1
102
RTVSPropertyOp59
 70
     1
102
RTVSPropertyOp60
 70
     1
102
RTVSPropertyOp61
 70
     1
102
RTVSPropertyOp62
 70
     1
  0
XRECORD
  5
181
102
{ACAD_REACTORS
330
180
102
}
330
180
100
AcDbXrecord
280
     1
102
RTVSPost2010Prop28
280
     0
102
RTVSPost2010PropOp28
 70
     1
102
RTVSPost2010Prop29
280
     1
102
RTVSPost2010PropOp29
 70
     1
102
RTVSPost2010Prop30
280
     1
102
RTVSPost2010PropOp30
 70
     1
102
RTVSPost2010Prop31
280
     0
102
RTVSPost2010PropOp31
 70
     1
102
RTVSPost2010Prop32
280
     0
102
RTVSPost2010PropOp32
 70
     1
102
RTVSPost2010Prop33
280
     0
102
RTVSPost2010PropOp33
 70
     1
102
RTVSPost2010Prop34
280
     0
102
RTVSPost2010PropOp34
 70
     1
102
RTVSPost2010Prop35
280
     0
102
RTVSPost2010PropOp35
 70
     1
102
RTVSPost2010Prop36
280
     0
102
RTVSPost2010PropOp36
 70
     1
102
RTVSPost2010Prop37
 90
       50
102
RTVSPost2010PropOp37
 70
     1
102
RTVSPost2010Prop38
140
0.0
102
RTVSPost2010PropOp38
 70
     1
102
RTVSPost2010Prop39
140
1.0
102
RTVSPost2010PropOp39
 70
     1
102
RTVSPost2010Prop40
 90
        0
102
RTVSPost2010PropOp40
 70
     1
102
RTVSPost2010Prop41ColorIndex
 90
       18
102
RTVSPost2010Prop41ColorRGB
 90
        0
102
RTVSPost2010PropOp41
 70
     1
102
RTVSPost2010Prop42
 90
       50
102
RTVSPost2010PropOp42
 70
     1
102
RTVSPost2010Prop43
 90
        3
102
RTVSPost2010PropOp43
 70
     1
102
RTVSPost2010Prop44ColorIndex
 90
        5
102
RTVSPost2010Prop44ColorRGB
 90
      255
102
RTVSPost2010PropOp44
 70
     1
102
RTVSPost2010Prop45
280
     0
102
RTVSPost2010PropOp45
 70
     1
102
RTVSPost2010Prop46
 90
       50
102
RTVSPost2010PropOp46
 70
     1
102
RTVSPost2010Prop47
 90
       50
102
RTVSPost2010PropOp47
 70
     1
102
RTVSPost2010Prop48
 90
       50
102
RTVSPost2010PropOp48
 70
     1
102
RTVSPost2010Prop49
280
     0
102
RTVSPost2010PropOp49
 70
     1
102
RTVSPost2010Prop50
 90
       50
102
RTVSPost2010PropOp50
 70
     1
102
RTVSPost2010Prop51ColorIndex
 90
      256
102
RTVSPost2010Prop51ColorRGB
 90
-16777216
102
RTVSPost2010PropOp51
 70
     0
102
RTVSPost2010Prop52
140
1.0
102
RTVSPost2010PropOp52
 70
     0
102
RTVSPost2010Prop53
 90
        2
102
RTVSPost2010PropOp53
 70
     1
102
RTVSPost2010Prop54
  1
strokes_ogs.tif
102
RTVSPost2010PropOp54
 70
     1
102
RTVSPost2010Prop55
280
     0
102
RTVSPost2010PropOp55
 70
     1
102
RTVSPost2010Prop56
140
1.0
102
RTVSPost2010PropOp56
 70
     1
102
RTVSPost2010Prop57
140
1.0
102
RTVSPost2010PropOp57
 70
     1
102
RTVSPropertyOp0
 70
     1
102
RTVSPropertyOp1
 70
     1
102
RTVSPropertyOp2
 70
     1
102
RTVSPropertyOp3
 70
     1
102
RTVSPropertyOp4
 70
     1
102
RTVSPropertyOp5
 70
     1
102
RTVSPropertyOp6
 70
     1
102
RTVSPropertyOp7
 70
     1
102
RTVSPropertyOp8
 70
     1
102
RTVSPropertyOp9
 70
     1
102
RTVSPropertyOp10
 70
     1
102
RTVSPropertyOp11
 70
     1
102
RTVSPropertyOp12
 70
     1
102
RTVSPropertyOp13
 70
     1
102
RTVSPropertyOp14
 70
     1
102
RTVSPropertyOp15
 70
     1
102
RTVSPropertyOp16
 70
     1
102
RTVSPropertyOp17
 70
     1
102
RTVSPropertyOp18
 70
     1
102
RTVSPropertyOp19
 70
     1
102
RTVSPropertyOp20
 70
     1
102
RTVSPropertyOp21
 70
     1
102
RTVSPropertyOp22
 70
     1
102
RTVSPropertyOp23
 70
     1
102
RTVSPropertyOp24
 70
     1
102
RTVSPropertyOp25
 70
     1
102
RTVSPropertyOp26
 70
     1
102
RTVSPropertyOp27
 70
     1
102
RTVSPropertyOp28
 70
     1
102
RTVSPropertyOp29
 70
     1
102
RTVSPropertyOp30
 70
     1
102
RTVSPropertyOp31
 70
     1
102
RTVSPropertyOp32
 70
     1
102
RTVSPropertyOp33
 70
     1
102
RTVSPropertyOp34
 70
     1
102
RTVSPropertyOp35
 70
     1
102
RTVSPropertyOp36
 70
     1
102
RTVSPropertyOp37
 70
     1
102
RTVSPropertyOp38
 70
     1
102
RTVSPropertyOp39
 70
     1
102
RTVSPropertyOp40
 70
     1
102
RTVSPropertyOp41
 70
     1
102
RTVSPropertyOp42
 70
     1
102
RTVSPropertyOp43
 70
     1
102
RTVSPropertyOp44
 70
     1
102
RTVSPropertyOp45
 70
     1
102
RTVSPropertyOp46
 70
     1
102
RTVSPropertyOp47
 70
     1
102
RTVSPropertyOp48
 70
     1
102
RTVSPropertyOp49
 70
     1
102
RTVSPropertyOp50
 70
     1
102
RTVSPropertyOp51
 70
     0
102
RTVSPropertyOp52
 70
     0
102
RTVSPropertyOp53
 70
     1
102
RTVSPropertyOp54
 70
     1
102
RTVSPropertyOp55
 70
     1
102
RTVSPropertyOp56
 70
     1
102
RTVSPropertyOp57
 70
     1
102
RTVSPropertyOp58
 70
     1
102
RTVSPropertyOp59
 70
     1
102
RTVSPropertyOp60
 70
     1
102
RTVSPropertyOp61
 70
     1
102
RTVSPropertyOp62
 70
     1
  0
XRECORD
  5
19B
102
{ACAD_REACTORS
330
19A
102
}
330
19A
100
AcDbXrecord
280
     1
102
RTVSPost2010Prop28
280
     0
102
RTVSPost2010PropOp28
 70
     0
102
RTVSPost2010Prop29
280
     1
102
RTVSPost2010PropOp29
 70
     0
102
RTVSPost2010Prop30
280
     1
102
RTVSPost2010PropOp30
 70
     0
102
RTVSPost2010Prop31
280
     0
102
RTVSPost2010PropOp31
 70
     0
102
RTVSPost2010Prop32
280
     0
102
RTVSPost2010PropOp32
 70
     0
102
RTVSPost2010Prop33
280
     0
102
RTVSPost2010PropOp33
 70
     0
102
RTVSPost2010Prop34
280
     0
102
RTVSPost2010PropOp34
 70
     0
102
RTVSPost2010Prop35
280
     0
102
RTVSPost2010PropOp35
 70
     0
102
RTVSPost2010Prop36
280
     0
102
RTVSPost2010PropOp36
 70
     0
102
RTVSPost2010Prop37
 90
       50
102
RTVSPost2010PropOp37
 70
     0
102
RTVSPost2010Prop38
140
0.0
102
RTVSPost2010PropOp38
 70
     0
102
RTVSPost2010Prop39
140
1.0
102
RTVSPost2010PropOp39
 70
     0
102
RTVSPost2010Prop40
 90
        0
102
RTVSPost2010PropOp40
 70
     0
102
RTVSPost2010Prop41ColorIndex
 90
       18
102
RTVSPost2010Prop41ColorRGB
 90
        0
102
RTVSPost2010PropOp41
 70
     0
102
RTVSPost2010Prop42
 90
       50
102
RTVSPost2010PropOp42
 70
     0
102
RTVSPost2010Prop43
 90
        3
102
RTVSPost2010PropOp43
 70
     0
102
RTVSPost2010Prop44ColorIndex
 90
        5
102
RTVSPost2010Prop44ColorRGB
 90
      255
102
RTVSPost2010PropOp44
 70
     0
102
RTVSPost2010Prop45
280
     0
102
RTVSPost2010PropOp45
 70
     0
102
RTVSPost2010Prop46
 90
       50
102
RTVSPost2010PropOp46
 70
     0
102
RTVSPost2010Prop47
 90
       50
102
RTVSPost2010PropOp47
 70
     0
102
RTVSPost2010Prop48
 90
       50
102
RTVSPost2010PropOp48
 70
     0
102
RTVSPost2010Prop49
280
     0
102
RTVSPost2010PropOp49
 70
     0
102
RTVSPost2010Prop50
 90
       50
102
RTVSPost2010PropOp50
 70
     0
102
RTVSPost2010Prop51ColorIndex
 90
      256
102
RTVSPost2010Prop51ColorRGB
 90
-16777216
102
RTVSPost2010PropOp51
 70
     0
102
RTVSPost2010Prop52
140
1.0
102
RTVSPost2010PropOp52
 70
     0
102
RTVSPost2010Prop53
 90
        2
102
RTVSPost2010PropOp53
 70
     0
102
RTVSPost2010Prop54
  1
strokes_ogs.tif
102
RTVSPost2010PropOp54
 70
     0
102
RTVSPost2010Prop55
280
     0
102
RTVSPost2010PropOp55
 70
     0
102
RTVSPost2010Prop56
140
1.0
102
RTVSPost2010PropOp56
 70
     0
102
RTVSPost2010Prop57
140
1.0
102
RTVSPost2010PropOp57
 70
     0
102
RTVSPropertyOp0
 70
     0
102
RTVSPropertyOp1
 70
     0
102
RTVSPropertyOp2
 70
     0
102
RTVSPropertyOp3
 70
     0
102
RTVSPropertyOp4
 70
     0
102
RTVSPropertyOp5
 70
     0
102
RTVSPropertyOp6
 70
     0
102
RTVSPropertyOp7
 70
     0
102
RTVSPropertyOp8
 70
     0
102
RTVSPropertyOp9
 70
     0
102
RTVSPropertyOp10
 70
     0
102
RTVSPropertyOp11
 70
     0
102
RTVSPropertyOp12
 70
     0
102
RTVSPropertyOp13
 70
     0
102
RTVSPropertyOp14
 70
     2
102
RTVSPropertyOp15
 70
     0
102
RTVSPropertyOp16
 70
     0
102
RTVSPropertyOp17
 70
     0
102
RTVSPropertyOp18
 70
     0
102
RTVSPropertyOp19
 70
     0
102
RTVSPropertyOp20
 70
     0
102
RTVSPropertyOp21
 70
     0
102
RTVSPropertyOp22
 70
     0
102
RTVSPropertyOp23
 70
     0
102
RTVSPropertyOp24
 70
     0
102
RTVSPropertyOp25
 70
     0
102
RTVSPropertyOp26
 70
     0
102
RTVSPropertyOp27
 70
     0
102
RTVSPropertyOp28
 70
     0
102
RTVSPropertyOp29
 70
     0
102
RTVSPropertyOp30
 70
     0
102
RTVSPropertyOp31
 70
     0
102
RTVSPropertyOp32
 70
     0
102
RTVSPropertyOp33
 70
     0
102
RTVSPropertyOp34
 70
     0
102
RTVSPropertyOp35
 70
     0
102
RTVSPropertyOp36
 70
     0
102
RTVSPropertyOp37
 70
     0
102
RTVSPropertyOp38
 70
     0
102
RTVSPropertyOp39
 70
     0
102
RTVSPropertyOp40
 70
     0
102
RTVSPropertyOp41
 70
     0
102
RTVSPropertyOp42
 70
     0
102
RTVSPropertyOp43
 70
     0
102
RTVSPropertyOp44
 70
     0
102
RTVSPropertyOp45
 70
     0
102
RTVSPropertyOp46
 70
     0
102
RTVSPropertyOp47
 70
     0
102
RTVSPropertyOp48
 70
     0
102
RTVSPropertyOp49
 70
     0
102
RTVSPropertyOp50
 70
     0
102
RTVSPropertyOp51
 70
     0
102
RTVSPropertyOp52
 70
     0
102
RTVSPropertyOp53
 70
     0
102
RTVSPropertyOp54
 70
     0
102
RTVSPropertyOp55
 70
     0
102
RTVSPropertyOp56
 70
     0
102
RTVSPropertyOp57
 70
     0
102
RTVSPropertyOp58
 70
     1
102
RTVSPropertyOp59
 70
     1
102
RTVSPropertyOp60
 70
     1
102
RTVSPropertyOp61
 70
     1
102
RTVSPropertyOp62
 70
     1
  0
XRECORD
  5
189
102
{ACAD_REACTORS
330
188
102
}
330
188
100
AcDbXrecord
280
     1
102
RTVSPost2010Prop28
280
     0
102
RTVSPost2010PropOp28
 70
     1
102
RTVSPost2010Prop29
280
     1
102
RTVSPost2010PropOp29
 70
     1
102
RTVSPost2010Prop30
280
     1
102
RTVSPost2010PropOp30
 70
     1
102
RTVSPost2010Prop31
280
     0
102
RTVSPost2010PropOp31
 70
     1
102
RTVSPost2010Prop32
280
     0
102
RTVSPost2010PropOp32
 70
     1
102
RTVSPost2010Prop33
280
     0
102
RTVSPost2010PropOp33
 70
     1
102
RTVSPost2010Prop34
280
     0
102
RTVSPost2010PropOp34
 70
     1
102
RTVSPost2010Prop35
280
     0
102
RTVSPost2010PropOp35
 70
     1
102
RTVSPost2010Prop36
280
     0
102
RTVSPost2010PropOp36
 70
     1
102
RTVSPost2010Prop37
 90
       50
102
RTVSPost2010PropOp37
 70
     1
102
RTVSPost2010Prop38
140
0.0
102
RTVSPost2010PropOp38
 70
     1
102
RTVSPost2010Prop39
140
1.0
102
RTVSPost2010PropOp39
 70
     1
102
RTVSPost2010Prop40
 90
        0
102
RTVSPost2010PropOp40
 70
     1
102
RTVSPost2010Prop41ColorIndex
 90
       18
102
RTVSPost2010Prop41ColorRGB
 90
        0
102
RTVSPost2010PropOp41
 70
     1
102
RTVSPost2010Prop42
 90
       50
102
RTVSPost2010PropOp42
 70
     1
102
RTVSPost2010Prop43
 90
        3
102
RTVSPost2010PropOp43
 70
     1
102
RTVSPost2010Prop44ColorIndex
 90
        5
102
RTVSPost2010Prop44ColorRGB
 90
      255
102
RTVSPost2010PropOp44
 70
     1
102
RTVSPost2010Prop45
280
     0
102
RTVSPost2010PropOp45
 70
     1
102
RTVSPost2010Prop46
 90
       50
102
RTVSPost2010PropOp46
 70
     1
102
RTVSPost2010Prop47
 90
       50
102
RTVSPost2010PropOp47
 70
     1
102
RTVSPost2010Prop48
 90
       50
102
RTVSPost2010PropOp48
 70
     1
102
RTVSPost2010Prop49
280
     0
102
RTVSPost2010PropOp49
 70
     1
102
RTVSPost2010Prop50
 90
       50
102
RTVSPost2010PropOp50
 70
     1
102
RTVSPost2010Prop51ColorIndex
 90
      256
102
RTVSPost2010Prop51ColorRGB
 90
-16777216
102
RTVSPost2010PropOp51
 70
     0
102
RTVSPost2010Prop52
140
1.0
102
RTVSPost2010PropOp52
 70
     0
102
RTVSPost2010Prop53
 90
        2
102
RTVSPost2010PropOp53
 70
     1
102
RTVSPost2010Prop54
  1
strokes_ogs.tif
102
RTVSPost2010PropOp54
 70
     1
102
RTVSPost2010Prop55
280
     0
102
RTVSPost2010PropOp55
 70
     1
102
RTVSPost2010Prop56
140
1.0
102
RTVSPost2010PropOp56
 70
     1
102
RTVSPost2010Prop57
140
1.0
102
RTVSPost2010PropOp57
 70
     1
102
RTVSPropertyOp0
 70
     1
102
RTVSPropertyOp1
 70
     1
102
RTVSPropertyOp2
 70
     1
102
RTVSPropertyOp3
 70
     1
102
RTVSPropertyOp4
 70
     1
102
RTVSPropertyOp5
 70
     1
102
RTVSPropertyOp6
 70
     1
102
RTVSPropertyOp7
 70
     1
102
RTVSPropertyOp8
 70
     1
102
RTVSPropertyOp9
 70
     1
102
RTVSPropertyOp10
 70
     1
102
RTVSPropertyOp11
 70
     1
102
RTVSPropertyOp12
 70
     1
102
RTVSPropertyOp13
 70
     1
102
RTVSPropertyOp14
 70
     1
102
RTVSPropertyOp15
 70
     1
102
RTVSPropertyOp16
 70
     1
102
RTVSPropertyOp17
 70
     1
102
RTVSPropertyOp18
 70
     1
102
RTVSPropertyOp19
 70
     1
102
RTVSPropertyOp20
 70
     1
102
RTVSPropertyOp21
 70
     1
102
RTVSPropertyOp22
 70
     1
102
RTVSPropertyOp23
 70
     1
102
RTVSPropertyOp24
 70
     1
102
RTVSPropertyOp25
 70
     1
102
RTVSPropertyOp26
 70
     1
102
RTVSPropertyOp27
 70
     1
102
RTVSPropertyOp28
 70
     1
102
RTVSPropertyOp29
 70
     1
102
RTVSPropertyOp30
 70
     1
102
RTVSPropertyOp31
 70
     1
102
RTVSPropertyOp32
 70
     1
102
RTVSPropertyOp33
 70
     1
102
RTVSPropertyOp34
 70
     1
102
RTVSPropertyOp35
 70
     1
102
RTVSPropertyOp36
 70
     1
102
RTVSPropertyOp37
 70
     1
102
RTVSPropertyOp38
 70
     1
102
RTVSPropertyOp39
 70
     1
102
RTVSPropertyOp40
 70
     1
102
RTVSPropertyOp41
 70
     1
102
RTVSPropertyOp42
 70
     1
102
RTVSPropertyOp43
 70
     1
102
RTVSPropertyOp44
 70
     1
102
RTVSPropertyOp45
 70
     1
102
RTVSPropertyOp46
 70
     1
102
RTVSPropertyOp47
 70
     1
102
RTVSPropertyOp48
 70
     1
102
RTVSPropertyOp49
 70
     1
102
RTVSPropertyOp50
 70
     1
102
RTVSPropertyOp51
 70
     0
102
RTVSPropertyOp52
 70
     0
102
RTVSPropertyOp53
 70
     1
102
RTVSPropertyOp54
 70
     1
102
RTVSPropertyOp55
 70
     1
102
RTVSPropertyOp56
 70
     1
102
RTVSPropertyOp57
 70
     1
102
RTVSPropertyOp58
 70
     1
102
RTVSPropertyOp59
 70
     1
102
RTVSPropertyOp60
 70
     1
102
RTVSPropertyOp61
 70
     1
102
RTVSPropertyOp62
 70
     1
  0
XRECORD
  5
16D
102
{ACAD_REACTORS
330
16C
102
}
330
16C
100
AcDbXrecord
280
     1
102
RTVSPost2010Prop28
280
     0
102
RTVSPost2010PropOp28
 70
     1
102
RTVSPost2010Prop29
280
     1
102
RTVSPost2010PropOp29
 70
     1
102
RTVSPost2010Prop30
280
     1
102
RTVSPost2010PropOp30
 70
     1
102
RTVSPost2010Prop31
280
     0
102
RTVSPost2010PropOp31
 70
     1
102
RTVSPost2010Prop32
280
     0
102
RTVSPost2010PropOp32
 70
     1
102
RTVSPost2010Prop33
280
     0
102
RTVSPost2010PropOp33
 70
     1
102
RTVSPost2010Prop34
280
     0
102
RTVSPost2010PropOp34
 70
     1
102
RTVSPost2010Prop35
280
     0
102
RTVSPost2010PropOp35
 70
     1
102
RTVSPost2010Prop36
280
     0
102
RTVSPost2010PropOp36
 70
     1
102
RTVSPost2010Prop37
 90
       50
102
RTVSPost2010PropOp37
 70
     1
102
RTVSPost2010Prop38
140
0.0
102
RTVSPost2010PropOp38
 70
     1
102
RTVSPost2010Prop39
140
1.0
102
RTVSPost2010PropOp39
 70
     1
102
RTVSPost2010Prop40
 90
        0
102
RTVSPost2010PropOp40
 70
     1
102
RTVSPost2010Prop41ColorIndex
 90
       18
102
RTVSPost2010Prop41ColorRGB
 90
        0
102
RTVSPost2010PropOp41
 70
     1
102
RTVSPost2010Prop42
 90
       50
102
RTVSPost2010PropOp42
 70
     1
102
RTVSPost2010Prop43
 90
        3
102
RTVSPost2010PropOp43
 70
     1
102
RTVSPost2010Prop44ColorIndex
 90
        5
102
RTVSPost2010Prop44ColorRGB
 90
      255
102
RTVSPost2010PropOp44
 70
     1
102
RTVSPost2010Prop45
280
     0
102
RTVSPost2010PropOp45
 70
     1
102
RTVSPost2010Prop46
 90
       50
102
RTVSPost2010PropOp46
 70
     1
102
RTVSPost2010Prop47
 90
       50
102
RTVSPost2010PropOp47
 70
     1
102
RTVSPost2010Prop48
 90
       50
102
RTVSPost2010PropOp48
 70
     1
102
RTVSPost2010Prop49
280
     0
102
RTVSPost2010PropOp49
 70
     1
102
RTVSPost2010Prop50
 90
       50
102
RTVSPost2010PropOp50
 70
     1
102
RTVSPost2010Prop51ColorIndex
 90
      256
102
RTVSPost2010Prop51ColorRGB
 90
-16777216
102
RTVSPost2010PropOp51
 70
     0
102
RTVSPost2010Prop52
140
1.0
102
RTVSPost2010PropOp52
 70
     0
102
RTVSPost2010Prop53
 90
        2
102
RTVSPost2010PropOp53
 70
     1
102
RTVSPost2010Prop54
  1
strokes_ogs.tif
102
RTVSPost2010PropOp54
 70
     1
102
RTVSPost2010Prop55
280
     0
102
RTVSPost2010PropOp55
 70
     1
102
RTVSPost2010Prop56
140
1.0
102
RTVSPost2010PropOp56
 70
     1
102
RTVSPost2010Prop57
140
1.0
102
RTVSPost2010PropOp57
 70
     1
102
RTVSPropertyOp0
 70
     1
102
RTVSPropertyOp1
 70
     1
102
RTVSPropertyOp2
 70
     1
102
RTVSPropertyOp3
 70
     1
102
RTVSPropertyOp4
 70
     1
102
RTVSPropertyOp5
 70
     1
102
RTVSPropertyOp6
 70
     1
102
RTVSPropertyOp7
 70
     1
102
RTVSPropertyOp8
 70
     1
102
RTVSPropertyOp9
 70
     1
102
RTVSPropertyOp10
 70
     1
102
RTVSPropertyOp11
 70
     1
102
RTVSPropertyOp12
 70
     1
102
RTVSPropertyOp13
 70
     1
102
RTVSPropertyOp14
 70
     1
102
RTVSPropertyOp15
 70
     1
102
RTVSPropertyOp16
 70
     1
102
RTVSPropertyOp17
 70
     1
102
RTVSPropertyOp18
 70
     1
102
RTVSPropertyOp19
 70
     1
102
RTVSPropertyOp20
 70
     1
102
RTVSPropertyOp21
 70
     1
102
RTVSPropertyOp22
 70
     1
102
RTVSPropertyOp23
 70
     1
102
RTVSPropertyOp24
 70
     1
102
RTVSPropertyOp25
 70
     1
102
RTVSPropertyOp26
 70
     1
102
RTVSPropertyOp27
 70
     1
102
RTVSPropertyOp28
 70
     1
102
RTVSPropertyOp29
 70
     1
102
RTVSPropertyOp30
 70
     1
102
RTVSPropertyOp31
 70
     1
102
RTVSPropertyOp32
 70
     1
102
RTVSPropertyOp33
 70
     1
102
RTVSPropertyOp34
 70
     1
102
RTVSPropertyOp35
 70
     1
102
RTVSPropertyOp36
 70
     1
102
RTVSPropertyOp37
 70
     1
102
RTVSPropertyOp38
 70
     1
102
RTVSPropertyOp39
 70
     1
102
RTVSPropertyOp40
 70
     1
102
RTVSPropertyOp41
 70
     1
102
RTVSPropertyOp42
 70
     1
102
RTVSPropertyOp43
 70
     1
102
RTVSPropertyOp44
 70
     1
102
RTVSPropertyOp45
 70
     1
102
RTVSPropertyOp46
 70
     1
102
RTVSPropertyOp47
 70
     1
102
RTVSPropertyOp48
 70
     1
102
RTVSPropertyOp49
 70
     1
102
RTVSPropertyOp50
 70
     1
102
RTVSPropertyOp51
 70
     0
102
RTVSPropertyOp52
 70
     0
102
RTVSPropertyOp53
 70
     1
102
RTVSPropertyOp54
 70
     1
102
RTVSPropertyOp55
 70
     1
102
RTVSPropertyOp56
 70
     1
102
RTVSPropertyOp57
 70
     1
102
RTVSPropertyOp58
 70
     1
102
RTVSPropertyOp59
 70
     1
102
RTVSPropertyOp60
 70
     1
102
RTVSPropertyOp61
 70
     1
102
RTVSPropertyOp62
 70
     1
  0
XRECORD
  5
16F
102
{ACAD_REACTORS
330
16E
102
}
330
16E
100
AcDbXrecord
280
     1
102
RTVSPost2010Prop28
280
     0
102
RTVSPost2010PropOp28
 70
     1
102
RTVSPost2010Prop29
280
     1
102
RTVSPost2010PropOp29
 70
     1
102
RTVSPost2010Prop30
280
     1
102
RTVSPost2010PropOp30
 70
     1
102
RTVSPost2010Prop31
280
     0
102
RTVSPost2010PropOp31
 70
     1
102
RTVSPost2010Prop32
280
     0
102
RTVSPost2010PropOp32
 70
     1
102
RTVSPost2010Prop33
280
     0
102
RTVSPost2010PropOp33
 70
     1
102
RTVSPost2010Prop34
280
     0
102
RTVSPost2010PropOp34
 70
     1
102
RTVSPost2010Prop35
280
     0
102
RTVSPost2010PropOp35
 70
     1
102
RTVSPost2010Prop36
280
     0
102
RTVSPost2010PropOp36
 70
     1
102
RTVSPost2010Prop37
 90
       50
102
RTVSPost2010PropOp37
 70
     1
102
RTVSPost2010Prop38
140
0.0
102
RTVSPost2010PropOp38
 70
     1
102
RTVSPost2010Prop39
140
1.0
102
RTVSPost2010PropOp39
 70
     1
102
RTVSPost2010Prop40
 90
        0
102
RTVSPost2010PropOp40
 70
     1
102
RTVSPost2010Prop41ColorIndex
 90
       18
102
RTVSPost2010Prop41ColorRGB
 90
        0
102
RTVSPost2010PropOp41
 70
     1
102
RTVSPost2010Prop42
 90
       50
102
RTVSPost2010PropOp42
 70
     1
102
RTVSPost2010Prop43
 90
        3
102
RTVSPost2010PropOp43
 70
     1
102
RTVSPost2010Prop44ColorIndex
 90
        5
102
RTVSPost2010Prop44ColorRGB
 90
      255
102
RTVSPost2010PropOp44
 70
     1
102
RTVSPost2010Prop45
280
     0
102
RTVSPost2010PropOp45
 70
     1
102
RTVSPost2010Prop46
 90
       50
102
RTVSPost2010PropOp46
 70
     1
102
RTVSPost2010Prop47
 90
       50
102
RTVSPost2010PropOp47
 70
     1
102
RTVSPost2010Prop48
 90
       50
102
RTVSPost2010PropOp48
 70
     1
102
RTVSPost2010Prop49
280
     0
102
RTVSPost2010PropOp49
 70
     1
102
RTVSPost2010Prop50
 90
       50
102
RTVSPost2010PropOp50
 70
     1
102
RTVSPost2010Prop51ColorIndex
 90
      256
102
RTVSPost2010Prop51ColorRGB
 90
-16777216
102
RTVSPost2010PropOp51
 70
     0
102
RTVSPost2010Prop52
140
1.0
102
RTVSPost2010PropOp52
 70
     0
102
RTVSPost2010Prop53
 90
        2
102
RTVSPost2010PropOp53
 70
     1
102
RTVSPost2010Prop54
  1
strokes_ogs.tif
102
RTVSPost2010PropOp54
 70
     1
102
RTVSPost2010Prop55
280
     0
102
RTVSPost2010PropOp55
 70
     1
102
RTVSPost2010Prop56
140
1.0
102
RTVSPost2010PropOp56
 70
     1
102
RTVSPost2010Prop57
140
1.0
102
RTVSPost2010PropOp57
 70
     1
102
RTVSPropertyOp0
 70
     1
102
RTVSPropertyOp1
 70
     1
102
RTVSPropertyOp2
 70
     1
102
RTVSPropertyOp3
 70
     1
102
RTVSPropertyOp4
 70
     1
102
RTVSPropertyOp5
 70
     1
102
RTVSPropertyOp6
 70
     1
102
RTVSPropertyOp7
 70
     1
102
RTVSPropertyOp8
 70
     1
102
RTVSPropertyOp9
 70
     1
102
RTVSPropertyOp10
 70
     1
102
RTVSPropertyOp11
 70
     1
102
RTVSPropertyOp12
 70
     1
102
RTVSPropertyOp13
 70
     1
102
RTVSPropertyOp14
 70
     1
102
RTVSPropertyOp15
 70
     1
102
RTVSPropertyOp16
 70
     1
102
RTVSPropertyOp17
 70
     1
102
RTVSPropertyOp18
 70
     1
102
RTVSPropertyOp19
 70
     1
102
RTVSPropertyOp20
 70
     1
102
RTVSPropertyOp21
 70
     1
102
RTVSPropertyOp22
 70
     1
102
RTVSPropertyOp23
 70
     1
102
RTVSPropertyOp24
 70
     1
102
RTVSPropertyOp25
 70
     1
102
RTVSPropertyOp26
 70
     1
102
RTVSPropertyOp27
 70
     1
102
RTVSPropertyOp28
 70
     1
102
RTVSPropertyOp29
 70
     1
102
RTVSPropertyOp30
 70
     1
102
RTVSPropertyOp31
 70
     1
102
RTVSPropertyOp32
 70
     1
102
RTVSPropertyOp33
 70
     1
102
RTVSPropertyOp34
 70
     1
102
RTVSPropertyOp35
 70
     1
102
RTVSPropertyOp36
 70
     1
102
RTVSPropertyOp37
 70
     1
102
RTVSPropertyOp38
 70
     1
102
RTVSPropertyOp39
 70
     1
102
RTVSPropertyOp40
 70
     1
102
RTVSPropertyOp41
 70
     1
102
RTVSPropertyOp42
 70
     1
102
RTVSPropertyOp43
 70
     1
102
RTVSPropertyOp44
 70
     1
102
RTVSPropertyOp45
 70
     1
102
RTVSPropertyOp46
 70
     1
102
RTVSPropertyOp47
 70
     1
102
RTVSPropertyOp48
 70
     1
102
RTVSPropertyOp49
 70
     1
102
RTVSPropertyOp50
 70
     1
102
RTVSPropertyOp51
 70
     0
102
RTVSPropertyOp52
 70
     0
102
RTVSPropertyOp53
 70
     1
102
RTVSPropertyOp54
 70
     1
102
RTVSPropertyOp55
 70
     1
102
RTVSPropertyOp56
 70
     1
102
RTVSPropertyOp57
 70
     1
102
RTVSPropertyOp58
 70
     1
102
RTVSPropertyOp59
 70
     1
102
RTVSPropertyOp60
 70
     1
102
RTVSPropertyOp61
 70
     1
102
RTVSPropertyOp62
 70
     1
  0
XRECORD
  5
171
102
{ACAD_REACTORS
330
170
102
}
330
170
100
AcDbXrecord
280
     1
102
RTVSPost2010Prop28
280
     0
102
RTVSPost2010PropOp28
 70
     1
102
RTVSPost2010Prop29
280
     1
102
RTVSPost2010PropOp29
 70
     1
102
RTVSPost2010Prop30
280
     1
102
RTVSPost2010PropOp30
 70
     1
102
RTVSPost2010Prop31
280
     0
102
RTVSPost2010PropOp31
 70
     1
102
RTVSPost2010Prop32
280
     0
102
RTVSPost2010PropOp32
 70
     1
102
RTVSPost2010Prop33
280
     0
102
RTVSPost2010PropOp33
 70
     1
102
RTVSPost2010Prop34
280
     0
102
RTVSPost2010PropOp34
 70
     1
102
RTVSPost2010Prop35
280
     0
102
RTVSPost2010PropOp35
 70
     1
102
RTVSPost2010Prop36
280
     0
102
RTVSPost2010PropOp36
 70
     1
102
RTVSPost2010Prop37
 90
       50
102
RTVSPost2010PropOp37
 70
     1
102
RTVSPost2010Prop38
140
0.0
102
RTVSPost2010PropOp38
 70
     1
102
RTVSPost2010Prop39
140
1.0
102
RTVSPost2010PropOp39
 70
     1
102
RTVSPost2010Prop40
 90
        0
102
RTVSPost2010PropOp40
 70
     1
102
RTVSPost2010Prop41ColorIndex
 90
       18
102
RTVSPost2010Prop41ColorRGB
 90
        0
102
RTVSPost2010PropOp41
 70
     1
102
RTVSPost2010Prop42
 90
       50
102
RTVSPost2010PropOp42
 70
     1
102
RTVSPost2010Prop43
 90
        3
102
RTVSPost2010PropOp43
 70
     1
102
RTVSPost2010Prop44ColorIndex
 90
        5
102
RTVSPost2010Prop44ColorRGB
 90
      255
102
RTVSPost2010PropOp44
 70
     1
102
RTVSPost2010Prop45
280
     0
102
RTVSPost2010PropOp45
 70
     1
102
RTVSPost2010Prop46
 90
       50
102
RTVSPost2010PropOp46
 70
     1
102
RTVSPost2010Prop47
 90
       50
102
RTVSPost2010PropOp47
 70
     1
102
RTVSPost2010Prop48
 90
       50
102
RTVSPost2010PropOp48
 70
     1
102
RTVSPost2010Prop49
280
     0
102
RTVSPost2010PropOp49
 70
     1
102
RTVSPost2010Prop50
 90
       50
102
RTVSPost2010PropOp50
 70
     1
102
RTVSPost2010Prop51ColorIndex
 90
      256
102
RTVSPost2010Prop51ColorRGB
 90
-16777216
102
RTVSPost2010PropOp51
 70
     0
102
RTVSPost2010Prop52
140
1.0
102
RTVSPost2010PropOp52
 70
     0
102
RTVSPost2010Prop53
 90
        2
102
RTVSPost2010PropOp53
 70
     1
102
RTVSPost2010Prop54
  1
strokes_ogs.tif
102
RTVSPost2010PropOp54
 70
     1
102
RTVSPost2010Prop55
280
     0
102
RTVSPost2010PropOp55
 70
     1
102
RTVSPost2010Prop56
140
1.0
102
RTVSPost2010PropOp56
 70
     1
102
RTVSPost2010Prop57
140
1.0
102
RTVSPost2010PropOp57
 70
     1
102
RTVSPropertyOp0
 70
     1
102
RTVSPropertyOp1
 70
     1
102
RTVSPropertyOp2
 70
     1
102
RTVSPropertyOp3
 70
     1
102
RTVSPropertyOp4
 70
     1
102
RTVSPropertyOp5
 70
     1
102
RTVSPropertyOp6
 70
     1
102
RTVSPropertyOp7
 70
     1
102
RTVSPropertyOp8
 70
     1
102
RTVSPropertyOp9
 70
     1
102
RTVSPropertyOp10
 70
     1
102
RTVSPropertyOp11
 70
     1
102
RTVSPropertyOp12
 70
     1
102
RTVSPropertyOp13
 70
     1
102
RTVSPropertyOp14
 70
     1
102
RTVSPropertyOp15
 70
     1
102
RTVSPropertyOp16
 70
     1
102
RTVSPropertyOp17
 70
     1
102
RTVSPropertyOp18
 70
     1
102
RTVSPropertyOp19
 70
     1
102
RTVSPropertyOp20
 70
     1
102
RTVSPropertyOp21
 70
     1
102
RTVSPropertyOp22
 70
     1
102
RTVSPropertyOp23
 70
     1
102
RTVSPropertyOp24
 70
     1
102
RTVSPropertyOp25
 70
     1
102
RTVSPropertyOp26
 70
     1
102
RTVSPropertyOp27
 70
     1
102
RTVSPropertyOp28
 70
     1
102
RTVSPropertyOp29
 70
     1
102
RTVSPropertyOp30
 70
     1
102
RTVSPropertyOp31
 70
     1
102
RTVSPropertyOp32
 70
     1
102
RTVSPropertyOp33
 70
     1
102
RTVSPropertyOp34
 70
     1
102
RTVSPropertyOp35
 70
     1
102
RTVSPropertyOp36
 70
     1
102
RTVSPropertyOp37
 70
     1
102
RTVSPropertyOp38
 70
     1
102
RTVSPropertyOp39
 70
     1
102
RTVSPropertyOp40
 70
     1
102
RTVSPropertyOp41
 70
     1
102
RTVSPropertyOp42
 70
     1
102
RTVSPropertyOp43
 70
     1
102
RTVSPropertyOp44
 70
     1
102
RTVSPropertyOp45
 70
     1
102
RTVSPropertyOp46
 70
     1
102
RTVSPropertyOp47
 70
     1
102
RTVSPropertyOp48
 70
     1
102
RTVSPropertyOp49
 70
     1
102
RTVSPropertyOp50
 70
     1
102
RTVSPropertyOp51
 70
     0
102
RTVSPropertyOp52
 70
     0
102
RTVSPropertyOp53
 70
     1
102
RTVSPropertyOp54
 70
     1
102
RTVSPropertyOp55
 70
     1
102
RTVSPropertyOp56
 70
     1
102
RTVSPropertyOp57
 70
     1
102
RTVSPropertyOp58
 70
     1
102
RTVSPropertyOp59
 70
     1
102
RTVSPropertyOp60
 70
     1
102
RTVSPropertyOp61
 70
     1
102
RTVSPropertyOp62
 70
     1
  0
XRECORD
  5
173
102
{ACAD_REACTORS
330
172
102
}
330
172
100
AcDbXrecord
280
     1
102
RTVSPost2010Prop28
280
     0
102
RTVSPost2010PropOp28
 70
     1
102
RTVSPost2010Prop29
280
     1
102
RTVSPost2010PropOp29
 70
     1
102
RTVSPost2010Prop30
280
     1
102
RTVSPost2010PropOp30
 70
     1
102
RTVSPost2010Prop31
280
     0
102
RTVSPost2010PropOp31
 70
     1
102
RTVSPost2010Prop32
280
     0
102
RTVSPost2010PropOp32
 70
     1
102
RTVSPost2010Prop33
280
     0
102
RTVSPost2010PropOp33
 70
     1
102
RTVSPost2010Prop34
280
     0
102
RTVSPost2010PropOp34
 70
     1
102
RTVSPost2010Prop35
280
     0
102
RTVSPost2010PropOp35
 70
     1
102
RTVSPost2010Prop36
280
     0
102
RTVSPost2010PropOp36
 70
     1
102
RTVSPost2010Prop37
 90
       50
102
RTVSPost2010PropOp37
 70
     1
102
RTVSPost2010Prop38
140
0.0
102
RTVSPost2010PropOp38
 70
     1
102
RTVSPost2010Prop39
140
1.0
102
RTVSPost2010PropOp39
 70
     1
102
RTVSPost2010Prop40
 90
        0
102
RTVSPost2010PropOp40
 70
     1
102
RTVSPost2010Prop41ColorIndex
 90
       18
102
RTVSPost2010Prop41ColorRGB
 90
        0
102
RTVSPost2010PropOp41
 70
     1
102
RTVSPost2010Prop42
 90
       50
102
RTVSPost2010PropOp42
 70
     1
102
RTVSPost2010Prop43
 90
        3
102
RTVSPost2010PropOp43
 70
     1
102
RTVSPost2010Prop44ColorIndex
 90
        5
102
RTVSPost2010Prop44ColorRGB
 90
      255
102
RTVSPost2010PropOp44
 70
     1
102
RTVSPost2010Prop45
280
     0
102
RTVSPost2010PropOp45
 70
     1
102
RTVSPost2010Prop46
 90
       50
102
RTVSPost2010PropOp46
 70
     1
102
RTVSPost2010Prop47
 90
       50
102
RTVSPost2010PropOp47
 70
     1
102
RTVSPost2010Prop48
 90
       50
102
RTVSPost2010PropOp48
 70
     1
102
RTVSPost2010Prop49
280
     0
102
RTVSPost2010PropOp49
 70
     1
102
RTVSPost2010Prop50
 90
       50
102
RTVSPost2010PropOp50
 70
     1
102
RTVSPost2010Prop51ColorIndex
 90
      256
102
RTVSPost2010Prop51ColorRGB
 90
-16777216
102
RTVSPost2010PropOp51
 70
     0
102
RTVSPost2010Prop52
140
1.0
102
RTVSPost2010PropOp52
 70
     0
102
RTVSPost2010Prop53
 90
        2
102
RTVSPost2010PropOp53
 70
     1
102
RTVSPost2010Prop54
  1
strokes_ogs.tif
102
RTVSPost2010PropOp54
 70
     1
102
RTVSPost2010Prop55
280
     0
102
RTVSPost2010PropOp55
 70
     1
102
RTVSPost2010Prop56
140
1.0
102
RTVSPost2010PropOp56
 70
     1
102
RTVSPost2010Prop57
140
1.0
102
RTVSPost2010PropOp57
 70
     1
102
RTVSPropertyOp0
 70
     1
102
RTVSPropertyOp1
 70
     1
102
RTVSPropertyOp2
 70
     1
102
RTVSPropertyOp3
 70
     1
102
RTVSPropertyOp4
 70
     1
102
RTVSPropertyOp5
 70
     1
102
RTVSPropertyOp6
 70
     1
102
RTVSPropertyOp7
 70
     1
102
RTVSPropertyOp8
 70
     1
102
RTVSPropertyOp9
 70
     1
102
RTVSPropertyOp10
 70
     1
102
RTVSPropertyOp11
 70
     1
102
RTVSPropertyOp12
 70
     1
102
RTVSPropertyOp13
 70
     1
102
RTVSPropertyOp14
 70
     1
102
RTVSPropertyOp15
 70
     1
102
RTVSPropertyOp16
 70
     1
102
RTVSPropertyOp17
 70
     1
102
RTVSPropertyOp18
 70
     1
102
RTVSPropertyOp19
 70
     1
102
RTVSPropertyOp20
 70
     1
102
RTVSPropertyOp21
 70
     1
102
RTVSPropertyOp22
 70
     1
102
RTVSPropertyOp23
 70
     1
102
RTVSPropertyOp24
 70
     1
102
RTVSPropertyOp25
 70
     1
102
RTVSPropertyOp26
 70
     1
102
RTVSPropertyOp27
 70
     1
102
RTVSPropertyOp28
 70
     1
102
RTVSPropertyOp29
 70
     1
102
RTVSPropertyOp30
 70
     1
102
RTVSPropertyOp31
 70
     1
102
RTVSPropertyOp32
 70
     1
102
RTVSPropertyOp33
 70
     1
102
RTVSPropertyOp34
 70
     1
102
RTVSPropertyOp35
 70
     1
102
RTVSPropertyOp36
 70
     1
102
RTVSPropertyOp37
 70
     1
102
RTVSPropertyOp38
 70
     1
102
RTVSPropertyOp39
 70
     1
102
RTVSPropertyOp40
 70
     1
102
RTVSPropertyOp41
 70
     1
102
RTVSPropertyOp42
 70
     1
102
RTVSPropertyOp43
 70
     1
102
RTVSPropertyOp44
 70
     1
102
RTVSPropertyOp45
 70
     1
102
RTVSPropertyOp46
 70
     1
102
RTVSPropertyOp47
 70
     1
102
RTVSPropertyOp48
 70
     1
102
RTVSPropertyOp49
 70
     1
102
RTVSPropertyOp50
 70
     1
102
RTVSPropertyOp51
 70
     0
102
RTVSPropertyOp52
 70
     0
102
RTVSPropertyOp53
 70
     1
102
RTVSPropertyOp54
 70
     1
102
RTVSPropertyOp55
 70
     1
102
RTVSPropertyOp56
 70
     1
102
RTVSPropertyOp57
 70
     1
102
RTVSPropertyOp58
 70
     1
102
RTVSPropertyOp59
 70
     1
102
RTVSPropertyOp60
 70
     1
102
RTVSPropertyOp61
 70
     1
102
RTVSPropertyOp62
 70
     1
  0
XRECORD
  5
17B
102
{ACAD_REACTORS
330
17A
102
}
330
17A
100
AcDbXrecord
280
     1
102
RTVSPost2010Prop28
280
     0
102
RTVSPost2010PropOp28
 70
     1
102
RTVSPost2010Prop29
280
     1
102
RTVSPost2010PropOp29
 70
     1
102
RTVSPost2010Prop30
280
     1
102
RTVSPost2010PropOp30
 70
     1
102
RTVSPost2010Prop31
280
     0
102
RTVSPost2010PropOp31
 70
     1
102
RTVSPost2010Prop32
280
     0
102
RTVSPost2010PropOp32
 70
     1
102
RTVSPost2010Prop33
280
     0
102
RTVSPost2010PropOp33
 70
     1
102
RTVSPost2010Prop34
280
     0
102
RTVSPost2010PropOp34
 70
     1
102
RTVSPost2010Prop35
280
     0
102
RTVSPost2010PropOp35
 70
     1
102
RTVSPost2010Prop36
280
     0
102
RTVSPost2010PropOp36
 70
     1
102
RTVSPost2010Prop37
 90
       50
102
RTVSPost2010PropOp37
 70
     1
102
RTVSPost2010Prop38
140
0.0
102
RTVSPost2010PropOp38
 70
     1
102
RTVSPost2010Prop39
140
1.0
102
RTVSPost2010PropOp39
 70
     1
102
RTVSPost2010Prop40
 90
        0
102
RTVSPost2010PropOp40
 70
     1
102
RTVSPost2010Prop41ColorIndex
 90
       18
102
RTVSPost2010Prop41ColorRGB
 90
        0
102
RTVSPost2010PropOp41
 70
     1
102
RTVSPost2010Prop42
 90
       50
102
RTVSPost2010PropOp42
 70
     1
102
RTVSPost2010Prop43
 90
        3
102
RTVSPost2010PropOp43
 70
     1
102
RTVSPost2010Prop44ColorIndex
 90
        5
102
RTVSPost2010Prop44ColorRGB
 90
      255
102
RTVSPost2010PropOp44
 70
     1
102
RTVSPost2010Prop45
280
     0
102
RTVSPost2010PropOp45
 70
     1
102
RTVSPost2010Prop46
 90
       50
102
RTVSPost2010PropOp46
 70
     1
102
RTVSPost2010Prop47
 90
       50
102
RTVSPost2010PropOp47
 70
     1
102
RTVSPost2010Prop48
 90
       50
102
RTVSPost2010PropOp48
 70
     1
102
RTVSPost2010Prop49
280
     0
102
RTVSPost2010PropOp49
 70
     1
102
RTVSPost2010Prop50
 90
       50
102
RTVSPost2010PropOp50
 70
     1
102
RTVSPost2010Prop51ColorIndex
 90
      256
102
RTVSPost2010Prop51ColorRGB
 90
-16777216
102
RTVSPost2010PropOp51
 70
     0
102
RTVSPost2010Prop52
140
1.0
102
RTVSPost2010PropOp52
 70
     0
102
RTVSPost2010Prop53
 90
        2
102
RTVSPost2010PropOp53
 70
     1
102
RTVSPost2010Prop54
  1
strokes_ogs.tif
102
RTVSPost2010PropOp54
 70
     1
102
RTVSPost2010Prop55
280
     0
102
RTVSPost2010PropOp55
 70
     1
102
RTVSPost2010Prop56
140
1.0
102
RTVSPost2010PropOp56
 70
     1
102
RTVSPost2010Prop57
140
1.0
102
RTVSPost2010PropOp57
 70
     1
102
RTVSPropertyOp0
 70
     1
102
RTVSPropertyOp1
 70
     1
102
RTVSPropertyOp2
 70
     1
102
RTVSPropertyOp3
 70
     1
102
RTVSPropertyOp4
 70
     1
102
RTVSPropertyOp5
 70
     1
102
RTVSPropertyOp6
 70
     1
102
RTVSPropertyOp7
 70
     1
102
RTVSPropertyOp8
 70
     1
102
RTVSPropertyOp9
 70
     1
102
RTVSPropertyOp10
 70
     1
102
RTVSPropertyOp11
 70
     1
102
RTVSPropertyOp12
 70
     1
102
RTVSPropertyOp13
 70
     1
102
RTVSPropertyOp14
 70
     1
102
RTVSPropertyOp15
 70
     1
102
RTVSPropertyOp16
 70
     1
102
RTVSPropertyOp17
 70
     1
102
RTVSPropertyOp18
 70
     1
102
RTVSPropertyOp19
 70
     1
102
RTVSPropertyOp20
 70
     1
102
RTVSPropertyOp21
 70
     1
102
RTVSPropertyOp22
 70
     1
102
RTVSPropertyOp23
 70
     1
102
RTVSPropertyOp24
 70
     1
102
RTVSPropertyOp25
 70
     1
102
RTVSPropertyOp26
 70
     1
102
RTVSPropertyOp27
 70
     1
102
RTVSPropertyOp28
 70
     1
102
RTVSPropertyOp29
 70
     1
102
RTVSPropertyOp30
 70
     1
102
RTVSPropertyOp31
 70
     1
102
RTVSPropertyOp32
 70
     1
102
RTVSPropertyOp33
 70
     1
102
RTVSPropertyOp34
 70
     1
102
RTVSPropertyOp35
 70
     1
102
RTVSPropertyOp36
 70
     1
102
RTVSPropertyOp37
 70
     1
102
RTVSPropertyOp38
 70
     1
102
RTVSPropertyOp39
 70
     1
102
RTVSPropertyOp40
 70
     1
102
RTVSPropertyOp41
 70
     1
102
RTVSPropertyOp42
 70
     1
102
RTVSPropertyOp43
 70
     1
102
RTVSPropertyOp44
 70
     1
102
RTVSPropertyOp45
 70
     1
102
RTVSPropertyOp46
 70
     1
102
RTVSPropertyOp47
 70
     1
102
RTVSPropertyOp48
 70
     1
102
RTVSPropertyOp49
 70
     1
102
RTVSPropertyOp50
 70
     1
102
RTVSPropertyOp51
 70
     0
102
RTVSPropertyOp52
 70
     0
102
RTVSPropertyOp53
 70
     1
102
RTVSPropertyOp54
 70
     1
102
RTVSPropertyOp55
 70
     1
102
RTVSPropertyOp56
 70
     1
102
RTVSPropertyOp57
 70
     1
102
RTVSPropertyOp58
 70
     1
102
RTVSPropertyOp59
 70
     1
102
RTVSPropertyOp60
 70
     1
102
RTVSPropertyOp61
 70
     1
102
RTVSPropertyOp62
 70
     1
  0
XRECORD
  5
197
102
{ACAD_REACTORS
330
196
102
}
330
196
100
AcDbXrecord
280
     1
102
RTVSPost2010Prop28
280
     0
102
RTVSPost2010PropOp28
 70
     0
102
RTVSPost2010Prop29
280
     1
102
RTVSPost2010PropOp29
 70
     0
102
RTVSPost2010Prop30
280
     1
102
RTVSPost2010PropOp30
 70
     0
102
RTVSPost2010Prop31
280
     0
102
RTVSPost2010PropOp31
 70
     0
102
RTVSPost2010Prop32
280
     0
102
RTVSPost2010PropOp32
 70
     0
102
RTVSPost2010Prop33
280
     0
102
RTVSPost2010PropOp33
 70
     0
102
RTVSPost2010Prop34
280
     0
102
RTVSPost2010PropOp34
 70
     0
102
RTVSPost2010Prop35
280
     0
102
RTVSPost2010PropOp35
 70
     0
102
RTVSPost2010Prop36
280
     0
102
RTVSPost2010PropOp36
 70
     0
102
RTVSPost2010Prop37
 90
       50
102
RTVSPost2010PropOp37
 70
     0
102
RTVSPost2010Prop38
140
0.0
102
RTVSPost2010PropOp38
 70
     0
102
RTVSPost2010Prop39
140
1.0
102
RTVSPost2010PropOp39
 70
     0
102
RTVSPost2010Prop40
 90
        0
102
RTVSPost2010PropOp40
 70
     0
102
RTVSPost2010Prop41ColorIndex
 90
       18
102
RTVSPost2010Prop41ColorRGB
 90
        0
102
RTVSPost2010PropOp41
 70
     0
102
RTVSPost2010Prop42
 90
       50
102
RTVSPost2010PropOp42
 70
     0
102
RTVSPost2010Prop43
 90
        3
102
RTVSPost2010PropOp43
 70
     0
102
RTVSPost2010Prop44ColorIndex
 90
        5
102
RTVSPost2010Prop44ColorRGB
 90
      255
102
RTVSPost2010PropOp44
 70
     0
102
RTVSPost2010Prop45
280
     0
102
RTVSPost2010PropOp45
 70
     0
102
RTVSPost2010Prop46
 90
       50
102
RTVSPost2010PropOp46
 70
     0
102
RTVSPost2010Prop47
 90
       50
102
RTVSPost2010PropOp47
 70
     0
102
RTVSPost2010Prop48
 90
       50
102
RTVSPost2010PropOp48
 70
     0
102
RTVSPost2010Prop49
280
     0
102
RTVSPost2010PropOp49
 70
     0
102
RTVSPost2010Prop50
 90
       50
102
RTVSPost2010PropOp50
 70
     0
102
RTVSPost2010Prop51ColorIndex
 90
      256
102
RTVSPost2010Prop51ColorRGB
 90
-16777216
102
RTVSPost2010PropOp51
 70
     0
102
RTVSPost2010Prop52
140
1.0
102
RTVSPost2010PropOp52
 70
     0
102
RTVSPost2010Prop53
 90
        2
102
RTVSPost2010PropOp53
 70
     0
102
RTVSPost2010Prop54
  1
strokes_ogs.tif
102
RTVSPost2010PropOp54
 70
     0
102
RTVSPost2010Prop55
280
     0
102
RTVSPost2010PropOp55
 70
     0
102
RTVSPost2010Prop56
140
1.0
102
RTVSPost2010PropOp56
 70
     0
102
RTVSPost2010Prop57
140
1.0
102
RTVSPost2010PropOp57
 70
     0
102
RTVSPropertyOp0
 70
     0
102
RTVSPropertyOp1
 70
     0
102
RTVSPropertyOp2
 70
     0
102
RTVSPropertyOp3
 70
     0
102
RTVSPropertyOp4
 70
     0
102
RTVSPropertyOp5
 70
     0
102
RTVSPropertyOp6
 70
     0
102
RTVSPropertyOp7
 70
     0
102
RTVSPropertyOp8
 70
     0
102
RTVSPropertyOp9
 70
     0
102
RTVSPropertyOp10
 70
     0
102
RTVSPropertyOp11
 70
     0
102
RTVSPropertyOp12
 70
     0
102
RTVSPropertyOp13
 70
     0
102
RTVSPropertyOp14
 70
     2
102
RTVSPropertyOp15
 70
     0
102
RTVSPropertyOp16
 70
     0
102
RTVSPropertyOp17
 70
     0
102
RTVSPropertyOp18
 70
     0
102
RTVSPropertyOp19
 70
     0
102
RTVSPropertyOp20
 70
     0
102
RTVSPropertyOp21
 70
     0
102
RTVSPropertyOp22
 70
     0
102
RTVSPropertyOp23
 70
     0
102
RTVSPropertyOp24
 70
     0
102
RTVSPropertyOp25
 70
     0
102
RTVSPropertyOp26
 70
     0
102
RTVSPropertyOp27
 70
     0
102
RTVSPropertyOp28
 70
     0
102
RTVSPropertyOp29
 70
     0
102
RTVSPropertyOp30
 70
     0
102
RTVSPropertyOp31
 70
     0
102
RTVSPropertyOp32
 70
     0
102
RTVSPropertyOp33
 70
     0
102
RTVSPropertyOp34
 70
     0
102
RTVSPropertyOp35
 70
     0
102
RTVSPropertyOp36
 70
     0
102
RTVSPropertyOp37
 70
     0
102
RTVSPropertyOp38
 70
     0
102
RTVSPropertyOp39
 70
     0
102
RTVSPropertyOp40
 70
     0
102
RTVSPropertyOp41
 70
     0
102
RTVSPropertyOp42
 70
     0
102
RTVSPropertyOp43
 70
     0
102
RTVSPropertyOp44
 70
     0
102
RTVSPropertyOp45
 70
     0
102
RTVSPropertyOp46
 70
     0
102
RTVSPropertyOp47
 70
     0
102
RTVSPropertyOp48
 70
     0
102
RTVSPropertyOp49
 70
     0
102
RTVSPropertyOp50
 70
     0
102
RTVSPropertyOp51
 70
     0
102
RTVSPropertyOp52
 70
     0
102
RTVSPropertyOp53
 70
     0
102
RTVSPropertyOp54
 70
     0
102
RTVSPropertyOp55
 70
     0
102
RTVSPropertyOp56
 70
     0
102
RTVSPropertyOp57
 70
     0
102
RTVSPropertyOp58
 70
     1
102
RTVSPropertyOp59
 70
     1
102
RTVSPropertyOp60
 70
     1
102
RTVSPropertyOp61
 70
     1
102
RTVSPropertyOp62
 70
     1
  0
XRECORD
  5
187
102
{ACAD_REACTORS
330
186
102
}
330
186
100
AcDbXrecord
280
     1
102
RTVSPost2010Prop28
280
     0
102
RTVSPost2010PropOp28
 70
     1
102
RTVSPost2010Prop29
280
     1
102
RTVSPost2010PropOp29
 70
     1
102
RTVSPost2010Prop30
280
     1
102
RTVSPost2010PropOp30
 70
     1
102
RTVSPost2010Prop31
280
     0
102
RTVSPost2010PropOp31
 70
     1
102
RTVSPost2010Prop32
280
     0
102
RTVSPost2010PropOp32
 70
     1
102
RTVSPost2010Prop33
280
     0
102
RTVSPost2010PropOp33
 70
     1
102
RTVSPost2010Prop34
280
     0
102
RTVSPost2010PropOp34
 70
     1
102
RTVSPost2010Prop35
280
     0
102
RTVSPost2010PropOp35
 70
     1
102
RTVSPost2010Prop36
280
     0
102
RTVSPost2010PropOp36
 70
     1
102
RTVSPost2010Prop37
 90
       50
102
RTVSPost2010PropOp37
 70
     1
102
RTVSPost2010Prop38
140
0.0
102
RTVSPost2010PropOp38
 70
     1
102
RTVSPost2010Prop39
140
1.0
102
RTVSPost2010PropOp39
 70
     1
102
RTVSPost2010Prop40
 90
        0
102
RTVSPost2010PropOp40
 70
     1
102
RTVSPost2010Prop41ColorIndex
 90
       18
102
RTVSPost2010Prop41ColorRGB
 90
        0
102
RTVSPost2010PropOp41
 70
     1
102
RTVSPost2010Prop42
 90
       50
102
RTVSPost2010PropOp42
 70
     1
102
RTVSPost2010Prop43
 90
        3
102
RTVSPost2010PropOp43
 70
     1
102
RTVSPost2010Prop44ColorIndex
 90
        5
102
RTVSPost2010Prop44ColorRGB
 90
      255
102
RTVSPost2010PropOp44
 70
     1
102
RTVSPost2010Prop45
280
     0
102
RTVSPost2010PropOp45
 70
     1
102
RTVSPost2010Prop46
 90
       50
102
RTVSPost2010PropOp46
 70
     1
102
RTVSPost2010Prop47
 90
       50
102
RTVSPost2010PropOp47
 70
     1
102
RTVSPost2010Prop48
 90
       50
102
RTVSPost2010PropOp48
 70
     1
102
RTVSPost2010Prop49
280
     0
102
RTVSPost2010PropOp49
 70
     1
102
RTVSPost2010Prop50
 90
       50
102
RTVSPost2010PropOp50
 70
     1
102
RTVSPost2010Prop51ColorIndex
 90
      256
102
RTVSPost2010Prop51ColorRGB
 90
-16777216
102
RTVSPost2010PropOp51
 70
     0
102
RTVSPost2010Prop52
140
1.0
102
RTVSPost2010PropOp52
 70
     0
102
RTVSPost2010Prop53
 90
        2
102
RTVSPost2010PropOp53
 70
     1
102
RTVSPost2010Prop54
  1
strokes_ogs.tif
102
RTVSPost2010PropOp54
 70
     1
102
RTVSPost2010Prop55
280
     0
102
RTVSPost2010PropOp55
 70
     1
102
RTVSPost2010Prop56
140
1.0
102
RTVSPost2010PropOp56
 70
     1
102
RTVSPost2010Prop57
140
1.0
102
RTVSPost2010PropOp57
 70
     1
102
RTVSPropertyOp0
 70
     1
102
RTVSPropertyOp1
 70
     1
102
RTVSPropertyOp2
 70
     1
102
RTVSPropertyOp3
 70
     1
102
RTVSPropertyOp4
 70
     1
102
RTVSPropertyOp5
 70
     1
102
RTVSPropertyOp6
 70
     1
102
RTVSPropertyOp7
 70
     1
102
RTVSPropertyOp8
 70
     1
102
RTVSPropertyOp9
 70
     1
102
RTVSPropertyOp10
 70
     1
102
RTVSPropertyOp11
 70
     1
102
RTVSPropertyOp12
 70
     1
102
RTVSPropertyOp13
 70
     1
102
RTVSPropertyOp14
 70
     1
102
RTVSPropertyOp15
 70
     1
102
RTVSPropertyOp16
 70
     1
102
RTVSPropertyOp17
 70
     1
102
RTVSPropertyOp18
 70
     1
102
RTVSPropertyOp19
 70
     1
102
RTVSPropertyOp20
 70
     1
102
RTVSPropertyOp21
 70
     1
102
RTVSPropertyOp22
 70
     1
102
RTVSPropertyOp23
 70
     1
102
RTVSPropertyOp24
 70
     1
102
RTVSPropertyOp25
 70
     1
102
RTVSPropertyOp26
 70
     1
102
RTVSPropertyOp27
 70
     1
102
RTVSPropertyOp28
 70
     1
102
RTVSPropertyOp29
 70
     1
102
RTVSPropertyOp30
 70
     1
102
RTVSPropertyOp31
 70
     1
102
RTVSPropertyOp32
 70
     1
102
RTVSPropertyOp33
 70
     1
102
RTVSPropertyOp34
 70
     1
102
RTVSPropertyOp35
 70
     1
102
RTVSPropertyOp36
 70
     1
102
RTVSPropertyOp37
 70
     1
102
RTVSPropertyOp38
 70
     1
102
RTVSPropertyOp39
 70
     1
102
RTVSPropertyOp40
 70
     1
102
RTVSPropertyOp41
 70
     1
102
RTVSPropertyOp42
 70
     1
102
RTVSPropertyOp43
 70
     1
102
RTVSPropertyOp44
 70
     1
102
RTVSPropertyOp45
 70
     1
102
RTVSPropertyOp46
 70
     1
102
RTVSPropertyOp47
 70
     1
102
RTVSPropertyOp48
 70
     1
102
RTVSPropertyOp49
 70
     1
102
RTVSPropertyOp50
 70
     1
102
RTVSPropertyOp51
 70
     0
102
RTVSPropertyOp52
 70
     0
102
RTVSPropertyOp53
 70
     1
102
RTVSPropertyOp54
 70
     1
102
RTVSPropertyOp55
 70
     1
102
RTVSPropertyOp56
 70
     1
102
RTVSPropertyOp57
 70
     1
102
RTVSPropertyOp58
 70
     1
102
RTVSPropertyOp59
 70
     1
102
RTVSPropertyOp60
 70
     1
102
RTVSPropertyOp61
 70
     1
102
RTVSPropertyOp62
 70
     1
  0
XRECORD
  5
199
102
{ACAD_REACTORS
330
198
102
}
330
198
100
AcDbXrecord
280
     1
102
RTVSPost2010Prop28
280
     0
102
RTVSPost2010PropOp28
 70
     0
102
RTVSPost2010Prop29
280
     1
102
RTVSPost2010PropOp29
 70
     0
102
RTVSPost2010Prop30
280
     1
102
RTVSPost2010PropOp30
 70
     0
102
RTVSPost2010Prop31
280
     0
102
RTVSPost2010PropOp31
 70
     0
102
RTVSPost2010Prop32
280
     0
102
RTVSPost2010PropOp32
 70
     0
102
RTVSPost2010Prop33
280
     0
102
RTVSPost2010PropOp33
 70
     0
102
RTVSPost2010Prop34
280
     0
102
RTVSPost2010PropOp34
 70
     0
102
RTVSPost2010Prop35
280
     0
102
RTVSPost2010PropOp35
 70
     0
102
RTVSPost2010Prop36
280
     0
102
RTVSPost2010PropOp36
 70
     0
102
RTVSPost2010Prop37
 90
       50
102
RTVSPost2010PropOp37
 70
     0
102
RTVSPost2010Prop38
140
0.0
102
RTVSPost2010PropOp38
 70
     0
102
RTVSPost2010Prop39
140
1.0
102
RTVSPost2010PropOp39
 70
     0
102
RTVSPost2010Prop40
 90
        0
102
RTVSPost2010PropOp40
 70
     0
102
RTVSPost2010Prop41ColorIndex
 90
       18
102
RTVSPost2010Prop41ColorRGB
 90
        0
102
RTVSPost2010PropOp41
 70
     0
102
RTVSPost2010Prop42
 90
       50
102
RTVSPost2010PropOp42
 70
     0
102
RTVSPost2010Prop43
 90
        3
102
RTVSPost2010PropOp43
 70
     0
102
RTVSPost2010Prop44ColorIndex
 90
        5
102
RTVSPost2010Prop44ColorRGB
 90
      255
102
RTVSPost2010PropOp44
 70
     0
102
RTVSPost2010Prop45
280
     0
102
RTVSPost2010PropOp45
 70
     0
102
RTVSPost2010Prop46
 90
       50
102
RTVSPost2010PropOp46
 70
     0
102
RTVSPost2010Prop47
 90
       50
102
RTVSPost2010PropOp47
 70
     0
102
RTVSPost2010Prop48
 90
       50
102
RTVSPost2010PropOp48
 70
     0
102
RTVSPost2010Prop49
280
     0
102
RTVSPost2010PropOp49
 70
     0
102
RTVSPost2010Prop50
 90
       50
102
RTVSPost2010PropOp50
 70
     0
102
RTVSPost2010Prop51ColorIndex
 90
      256
102
RTVSPost2010Prop51ColorRGB
 90
-16777216
102
RTVSPost2010PropOp51
 70
     0
102
RTVSPost2010Prop52
140
1.0
102
RTVSPost2010PropOp52
 70
     0
102
RTVSPost2010Prop53
 90
        2
102
RTVSPost2010PropOp53
 70
     0
102
RTVSPost2010Prop54
  1
strokes_ogs.tif
102
RTVSPost2010PropOp54
 70
     0
102
RTVSPost2010Prop55
280
     0
102
RTVSPost2010PropOp55
 70
     0
102
RTVSPost2010Prop56
140
1.0
102
RTVSPost2010PropOp56
 70
     0
102
RTVSPost2010Prop57
140
1.0
102
RTVSPost2010PropOp57
 70
     0
102
RTVSPropertyOp0
 70
     0
102
RTVSPropertyOp1
 70
     0
102
RTVSPropertyOp2
 70
     0
102
RTVSPropertyOp3
 70
     0
102
RTVSPropertyOp4
 70
     0
102
RTVSPropertyOp5
 70
     0
102
RTVSPropertyOp6
 70
     0
102
RTVSPropertyOp7
 70
     0
102
RTVSPropertyOp8
 70
     0
102
RTVSPropertyOp9
 70
     0
102
RTVSPropertyOp10
 70
     0
102
RTVSPropertyOp11
 70
     0
102
RTVSPropertyOp12
 70
     0
102
RTVSPropertyOp13
 70
     0
102
RTVSPropertyOp14
 70
     2
102
RTVSPropertyOp15
 70
     0
102
RTVSPropertyOp16
 70
     0
102
RTVSPropertyOp17
 70
     0
102
RTVSPropertyOp18
 70
     0
102
RTVSPropertyOp19
 70
     0
102
RTVSPropertyOp20
 70
     0
102
RTVSPropertyOp21
 70
     0
102
RTVSPropertyOp22
 70
     0
102
RTVSPropertyOp23
 70
     0
102
RTVSPropertyOp24
 70
     0
102
RTVSPropertyOp25
 70
     0
102
RTVSPropertyOp26
 70
     0
102
RTVSPropertyOp27
 70
     0
102
RTVSPropertyOp28
 70
     0
102
RTVSPropertyOp29
 70
     0
102
RTVSPropertyOp30
 70
     0
102
RTVSPropertyOp31
 70
     0
102
RTVSPropertyOp32
 70
     0
102
RTVSPropertyOp33
 70
     0
102
RTVSPropertyOp34
 70
     0
102
RTVSPropertyOp35
 70
     0
102
RTVSPropertyOp36
 70
     0
102
RTVSPropertyOp37
 70
     0
102
RTVSPropertyOp38
 70
     0
102
RTVSPropertyOp39
 70
     0
102
RTVSPropertyOp40
 70
     0
102
RTVSPropertyOp41
 70
     0
102
RTVSPropertyOp42
 70
     0
102
RTVSPropertyOp43
 70
     0
102
RTVSPropertyOp44
 70
     0
102
RTVSPropertyOp45
 70
     0
102
RTVSPropertyOp46
 70
     0
102
RTVSPropertyOp47
 70
     0
102
RTVSPropertyOp48
 70
     0
102
RTVSPropertyOp49
 70
     0
102
RTVSPropertyOp50
 70
     0
102
RTVSPropertyOp51
 70
     0
102
RTVSPropertyOp52
 70
     0
102
RTVSPropertyOp53
 70
     0
102
RTVSPropertyOp54
 70
     0
102
RTVSPropertyOp55
 70
     0
102
RTVSPropertyOp56
 70
     0
102
RTVSPropertyOp57
 70
     0
102
RTVSPropertyOp58
 70
     1
102
RTVSPropertyOp59
 70
     1
102
RTVSPropertyOp60
 70
     1
102
RTVSPropertyOp61
 70
     1
102
RTVSPropertyOp62
 70
     1
  0
XRECORD
  5
17F
102
{ACAD_REACTORS
330
17E
102
}
330
17E
100
AcDbXrecord
280
     1
102
RTVSPost2010Prop28
280
     0
102
RTVSPost2010PropOp28
 70
     1
102
RTVSPost2010Prop29
280
     1
102
RTVSPost2010PropOp29
 70
     1
102
RTVSPost2010Prop30
280
     1
102
RTVSPost2010PropOp30
 70
     1
102
RTVSPost2010Prop31
280
     0
102
RTVSPost2010PropOp31
 70
     1
102
RTVSPost2010Prop32
280
     0
102
RTVSPost2010PropOp32
 70
     1
102
RTVSPost2010Prop33
280
     0
102
RTVSPost2010PropOp33
 70
     1
102
RTVSPost2010Prop34
280
     0
102
RTVSPost2010PropOp34
 70
     1
102
RTVSPost2010Prop35
280
     0
102
RTVSPost2010PropOp35
 70
     1
102
RTVSPost2010Prop36
280
     0
102
RTVSPost2010PropOp36
 70
     1
102
RTVSPost2010Prop37
 90
       50
102
RTVSPost2010PropOp37
 70
     1
102
RTVSPost2010Prop38
140
0.0
102
RTVSPost2010PropOp38
 70
     1
102
RTVSPost2010Prop39
140
1.0
102
RTVSPost2010PropOp39
 70
     1
102
RTVSPost2010Prop40
 90
        0
102
RTVSPost2010PropOp40
 70
     1
102
RTVSPost2010Prop41ColorIndex
 90
       18
102
RTVSPost2010Prop41ColorRGB
 90
        0
102
RTVSPost2010PropOp41
 70
     1
102
RTVSPost2010Prop42
 90
       50
102
RTVSPost2010PropOp42
 70
     1
102
RTVSPost2010Prop43
 90
        3
102
RTVSPost2010PropOp43
 70
     1
102
RTVSPost2010Prop44ColorIndex
 90
        5
102
RTVSPost2010Prop44ColorRGB
 90
      255
102
RTVSPost2010PropOp44
 70
     1
102
RTVSPost2010Prop45
280
     0
102
RTVSPost2010PropOp45
 70
     1
102
RTVSPost2010Prop46
 90
       50
102
RTVSPost2010PropOp46
 70
     1
102
RTVSPost2010Prop47
 90
       50
102
RTVSPost2010PropOp47
 70
     1
102
RTVSPost2010Prop48
 90
       50
102
RTVSPost2010PropOp48
 70
     1
102
RTVSPost2010Prop49
280
     0
102
RTVSPost2010PropOp49
 70
     1
102
RTVSPost2010Prop50
 90
       50
102
RTVSPost2010PropOp50
 70
     1
102
RTVSPost2010Prop51ColorIndex
 90
      256
102
RTVSPost2010Prop51ColorRGB
 90
-16777216
102
RTVSPost2010PropOp51
 70
     0
102
RTVSPost2010Prop52
140
1.0
102
RTVSPost2010PropOp52
 70
     0
102
RTVSPost2010Prop53
 90
        2
102
RTVSPost2010PropOp53
 70
     1
102
RTVSPost2010Prop54
  1
strokes_ogs.tif
102
RTVSPost2010PropOp54
 70
     1
102
RTVSPost2010Prop55
280
     0
102
RTVSPost2010PropOp55
 70
     1
102
RTVSPost2010Prop56
140
1.0
102
RTVSPost2010PropOp56
 70
     1
102
RTVSPost2010Prop57
140
1.0
102
RTVSPost2010PropOp57
 70
     1
102
RTVSPropertyOp0
 70
     1
102
RTVSPropertyOp1
 70
     1
102
RTVSPropertyOp2
 70
     1
102
RTVSPropertyOp3
 70
     1
102
RTVSPropertyOp4
 70
     1
102
RTVSPropertyOp5
 70
     1
102
RTVSPropertyOp6
 70
     1
102
RTVSPropertyOp7
 70
     1
102
RTVSPropertyOp8
 70
     1
102
RTVSPropertyOp9
 70
     1
102
RTVSPropertyOp10
 70
     1
102
RTVSPropertyOp11
 70
     1
102
RTVSPropertyOp12
 70
     1
102
RTVSPropertyOp13
 70
     1
102
RTVSPropertyOp14
 70
     1
102
RTVSPropertyOp15
 70
     1
102
RTVSPropertyOp16
 70
     1
102
RTVSPropertyOp17
 70
     1
102
RTVSPropertyOp18
 70
     1
102
RTVSPropertyOp19
 70
     1
102
RTVSPropertyOp20
 70
     1
102
RTVSPropertyOp21
 70
     1
102
RTVSPropertyOp22
 70
     1
102
RTVSPropertyOp23
 70
     1
102
RTVSPropertyOp24
 70
     1
102
RTVSPropertyOp25
 70
     1
102
RTVSPropertyOp26
 70
     1
102
RTVSPropertyOp27
 70
     1
102
RTVSPropertyOp28
 70
     1
102
RTVSPropertyOp29
 70
     1
102
RTVSPropertyOp30
 70
     1
102
RTVSPropertyOp31
 70
     1
102
RTVSPropertyOp32
 70
     1
102
RTVSPropertyOp33
 70
     1
102
RTVSPropertyOp34
 70
     1
102
RTVSPropertyOp35
 70
     1
102
RTVSPropertyOp36
 70
     1
102
RTVSPropertyOp37
 70
     1
102
RTVSPropertyOp38
 70
     1
102
RTVSPropertyOp39
 70
     1
102
RTVSPropertyOp40
 70
     1
102
RTVSPropertyOp41
 70
     1
102
RTVSPropertyOp42
 70
     1
102
RTVSPropertyOp43
 70
     1
102
RTVSPropertyOp44
 70
     1
102
RTVSPropertyOp45
 70
     1
102
RTVSPropertyOp46
 70
     1
102
RTVSPropertyOp47
 70
     1
102
RTVSPropertyOp48
 70
     1
102
RTVSPropertyOp49
 70
     1
102
RTVSPropertyOp50
 70
     1
102
RTVSPropertyOp51
 70
     0
102
RTVSPropertyOp52
 70
     0
102
RTVSPropertyOp53
 70
     1
102
RTVSPropertyOp54
 70
     1
102
RTVSPropertyOp55
 70
     1
102
RTVSPropertyOp56
 70
     1
102
RTVSPropertyOp57
 70
     1
102
RTVSPropertyOp58
 70
     1
102
RTVSPropertyOp59
 70
     1
102
RTVSPropertyOp60
 70
     1
102
RTVSPropertyOp61
 70
     1
102
RTVSPropertyOp62
 70
     1
  0
XRECORD
  5
195
102
{ACAD_REACTORS
330
194
102
}
330
194
100
AcDbXrecord
280
     1
102
RTVSPost2010Prop28
280
     0
102
RTVSPost2010PropOp28
 70
     1
102
RTVSPost2010Prop29
280
     1
102
RTVSPost2010PropOp29
 70
     1
102
RTVSPost2010Prop30
280
     1
102
RTVSPost2010PropOp30
 70
     1
102
RTVSPost2010Prop31
280
     0
102
RTVSPost2010PropOp31
 70
     1
102
RTVSPost2010Prop32
280
     0
102
RTVSPost2010PropOp32
 70
     1
102
RTVSPost2010Prop33
280
     0
102
RTVSPost2010PropOp33
 70
     1
102
RTVSPost2010Prop34
280
     0
102
RTVSPost2010PropOp34
 70
     1
102
RTVSPost2010Prop35
280
     0
102
RTVSPost2010PropOp35
 70
     1
102
RTVSPost2010Prop36
280
     0
102
RTVSPost2010PropOp36
 70
     1
102
RTVSPost2010Prop37
 90
       50
102
RTVSPost2010PropOp37
 70
     1
102
RTVSPost2010Prop38
140
0.0
102
RTVSPost2010PropOp38
 70
     1
102
RTVSPost2010Prop39
140
1.0
102
RTVSPost2010PropOp39
 70
     1
102
RTVSPost2010Prop40
 90
        0
102
RTVSPost2010PropOp40
 70
     1
102
RTVSPost2010Prop41ColorIndex
 90
       18
102
RTVSPost2010Prop41ColorRGB
 90
        0
102
RTVSPost2010PropOp41
 70
     1
102
RTVSPost2010Prop42
 90
       50
102
RTVSPost2010PropOp42
 70
     1
102
RTVSPost2010Prop43
 90
        3
102
RTVSPost2010PropOp43
 70
     1
102
RTVSPost2010Prop44ColorIndex
 90
        5
102
RTVSPost2010Prop44ColorRGB
 90
      255
102
RTVSPost2010PropOp44
 70
     1
102
RTVSPost2010Prop45
280
     0
102
RTVSPost2010PropOp45
 70
     1
102
RTVSPost2010Prop46
 90
       50
102
RTVSPost2010PropOp46
 70
     1
102
RTVSPost2010Prop47
 90
       50
102
RTVSPost2010PropOp47
 70
     1
102
RTVSPost2010Prop48
 90
       50
102
RTVSPost2010PropOp48
 70
     1
102
RTVSPost2010Prop49
280
     0
102
RTVSPost2010PropOp49
 70
     1
102
RTVSPost2010Prop50
 90
       50
102
RTVSPost2010PropOp50
 70
     1
102
RTVSPost2010Prop51ColorIndex
 90
      256
102
RTVSPost2010Prop51ColorRGB
 90
-16777216
102
RTVSPost2010PropOp51
 70
     0
102
RTVSPost2010Prop52
140
1.0
102
RTVSPost2010PropOp52
 70
     0
102
RTVSPost2010Prop53
 90
        2
102
RTVSPost2010PropOp53
 70
     1
102
RTVSPost2010Prop54
  1
strokes_ogs.tif
102
RTVSPost2010PropOp54
 70
     1
102
RTVSPost2010Prop55
280
     0
102
RTVSPost2010PropOp55
 70
     1
102
RTVSPost2010Prop56
140
1.0
102
RTVSPost2010PropOp56
 70
     1
102
RTVSPost2010Prop57
140
1.0
102
RTVSPost2010PropOp57
 70
     1
102
RTVSPropertyOp0
 70
     1
102
RTVSPropertyOp1
 70
     1
102
RTVSPropertyOp2
 70
     1
102
RTVSPropertyOp3
 70
     1
102
RTVSPropertyOp4
 70
     1
102
RTVSPropertyOp5
 70
     1
102
RTVSPropertyOp6
 70
     1
102
RTVSPropertyOp7
 70
     1
102
RTVSPropertyOp8
 70
     1
102
RTVSPropertyOp9
 70
     1
102
RTVSPropertyOp10
 70
     1
102
RTVSPropertyOp11
 70
     1
102
RTVSPropertyOp12
 70
     1
102
RTVSPropertyOp13
 70
     1
102
RTVSPropertyOp14
 70
     1
102
RTVSPropertyOp15
 70
     1
102
RTVSPropertyOp16
 70
     1
102
RTVSPropertyOp17
 70
     1
102
RTVSPropertyOp18
 70
     1
102
RTVSPropertyOp19
 70
     1
102
RTVSPropertyOp20
 70
     1
102
RTVSPropertyOp21
 70
     1
102
RTVSPropertyOp22
 70
     1
102
RTVSPropertyOp23
 70
     1
102
RTVSPropertyOp24
 70
     1
102
RTVSPropertyOp25
 70
     1
102
RTVSPropertyOp26
 70
     1
102
RTVSPropertyOp27
 70
     1
102
RTVSPropertyOp28
 70
     1
102
RTVSPropertyOp29
 70
     1
102
RTVSPropertyOp30
 70
     1
102
RTVSPropertyOp31
 70
     1
102
RTVSPropertyOp32
 70
     1
102
RTVSPropertyOp33
 70
     1
102
RTVSPropertyOp34
 70
     1
102
RTVSPropertyOp35
 70
     1
102
RTVSPropertyOp36
 70
     1
102
RTVSPropertyOp37
 70
     1
102
RTVSPropertyOp38
 70
     1
102
RTVSPropertyOp39
 70
     1
102
RTVSPropertyOp40
 70
     1
102
RTVSPropertyOp41
 70
     1
102
RTVSPropertyOp42
 70
     1
102
RTVSPropertyOp43
 70
     1
102
RTVSPropertyOp44
 70
     1
102
RTVSPropertyOp45
 70
     1
102
RTVSPropertyOp46
 70
     1
102
RTVSPropertyOp47
 70
     1
102
RTVSPropertyOp48
 70
     1
102
RTVSPropertyOp49
 70
     1
102
RTVSPropertyOp50
 70
     1
102
RTVSPropertyOp51
 70
     0
102
RTVSPropertyOp52
 70
     0
102
RTVSPropertyOp53
 70
     1
102
RTVSPropertyOp54
 70
     1
102
RTVSPropertyOp55
 70
     1
102
RTVSPropertyOp56
 70
     1
102
RTVSPropertyOp57
 70
     1
102
RTVSPropertyOp58
 70
     1
102
RTVSPropertyOp59
 70
     1
102
RTVSPropertyOp60
 70
     1
102
RTVSPropertyOp61
 70
     1
102
RTVSPropertyOp62
 70
     1
  0
XRECORD
  5
193
102
{ACAD_REACTORS
330
192
102
}
330
192
100
AcDbXrecord
280
     1
102
RTVSPost2010Prop28
280
     0
102
RTVSPost2010PropOp28
 70
     1
102
RTVSPost2010Prop29
280
     1
102
RTVSPost2010PropOp29
 70
     1
102
RTVSPost2010Prop30
280
     1
102
RTVSPost2010PropOp30
 70
     1
102
RTVSPost2010Prop31
280
     0
102
RTVSPost2010PropOp31
 70
     1
102
RTVSPost2010Prop32
280
     0
102
RTVSPost2010PropOp32
 70
     1
102
RTVSPost2010Prop33
280
     0
102
RTVSPost2010PropOp33
 70
     1
102
RTVSPost2010Prop34
280
     0
102
RTVSPost2010PropOp34
 70
     1
102
RTVSPost2010Prop35
280
     0
102
RTVSPost2010PropOp35
 70
     1
102
RTVSPost2010Prop36
280
     0
102
RTVSPost2010PropOp36
 70
     1
102
RTVSPost2010Prop37
 90
       50
102
RTVSPost2010PropOp37
 70
     1
102
RTVSPost2010Prop38
140
0.0
102
RTVSPost2010PropOp38
 70
     1
102
RTVSPost2010Prop39
140
1.0
102
RTVSPost2010PropOp39
 70
     1
102
RTVSPost2010Prop40
 90
        0
102
RTVSPost2010PropOp40
 70
     1
102
RTVSPost2010Prop41ColorIndex
 90
       18
102
RTVSPost2010Prop41ColorRGB
 90
        0
102
RTVSPost2010PropOp41
 70
     1
102
RTVSPost2010Prop42
 90
       50
102
RTVSPost2010PropOp42
 70
     1
102
RTVSPost2010Prop43
 90
        3
102
RTVSPost2010PropOp43
 70
     1
102
RTVSPost2010Prop44ColorIndex
 90
        5
102
RTVSPost2010Prop44ColorRGB
 90
      255
102
RTVSPost2010PropOp44
 70
     1
102
RTVSPost2010Prop45
280
     0
102
RTVSPost2010PropOp45
 70
     1
102
RTVSPost2010Prop46
 90
       50
102
RTVSPost2010PropOp46
 70
     1
102
RTVSPost2010Prop47
 90
       50
102
RTVSPost2010PropOp47
 70
     1
102
RTVSPost2010Prop48
 90
       50
102
RTVSPost2010PropOp48
 70
     1
102
RTVSPost2010Prop49
280
     0
102
RTVSPost2010PropOp49
 70
     1
102
RTVSPost2010Prop50
 90
       50
102
RTVSPost2010PropOp50
 70
     1
102
RTVSPost2010Prop51ColorIndex
 90
      256
102
RTVSPost2010Prop51ColorRGB
 90
-16777216
102
RTVSPost2010PropOp51
 70
     0
102
RTVSPost2010Prop52
140
1.0
102
RTVSPost2010PropOp52
 70
     0
102
RTVSPost2010Prop53
 90
        2
102
RTVSPost2010PropOp53
 70
     1
102
RTVSPost2010Prop54
  1
strokes_ogs.tif
102
RTVSPost2010PropOp54
 70
     1
102
RTVSPost2010Prop55
280
     0
102
RTVSPost2010PropOp55
 70
     1
102
RTVSPost2010Prop56
140
1.0
102
RTVSPost2010PropOp56
 70
     1
102
RTVSPost2010Prop57
140
1.0
102
RTVSPost2010PropOp57
 70
     1
102
RTVSPropertyOp0
 70
     1
102
RTVSPropertyOp1
 70
     1
102
RTVSPropertyOp2
 70
     1
102
RTVSPropertyOp3
 70
     1
102
RTVSPropertyOp4
 70
     1
102
RTVSPropertyOp5
 70
     1
102
RTVSPropertyOp6
 70
     1
102
RTVSPropertyOp7
 70
     1
102
RTVSPropertyOp8
 70
     1
102
RTVSPropertyOp9
 70
     1
102
RTVSPropertyOp10
 70
     1
102
RTVSPropertyOp11
 70
     1
102
RTVSPropertyOp12
 70
     1
102
RTVSPropertyOp13
 70
     1
102
RTVSPropertyOp14
 70
     1
102
RTVSPropertyOp15
 70
     1
102
RTVSPropertyOp16
 70
     1
102
RTVSPropertyOp17
 70
     1
102
RTVSPropertyOp18
 70
     1
102
RTVSPropertyOp19
 70
     1
102
RTVSPropertyOp20
 70
     1
102
RTVSPropertyOp21
 70
     1
102
RTVSPropertyOp22
 70
     1
102
RTVSPropertyOp23
 70
     1
102
RTVSPropertyOp24
 70
     1
102
RTVSPropertyOp25
 70
     1
102
RTVSPropertyOp26
 70
     1
102
RTVSPropertyOp27
 70
     1
102
RTVSPropertyOp28
 70
     1
102
RTVSPropertyOp29
 70
     1
102
RTVSPropertyOp30
 70
     1
102
RTVSPropertyOp31
 70
     1
102
RTVSPropertyOp32
 70
     1
102
RTVSPropertyOp33
 70
     1
102
RTVSPropertyOp34
 70
     1
102
RTVSPropertyOp35
 70
     1
102
RTVSPropertyOp36
 70
     1
102
RTVSPropertyOp37
 70
     1
102
RTVSPropertyOp38
 70
     1
102
RTVSPropertyOp39
 70
     1
102
RTVSPropertyOp40
 70
     1
102
RTVSPropertyOp41
 70
     1
102
RTVSPropertyOp42
 70
     1
102
RTVSPropertyOp43
 70
     1
102
RTVSPropertyOp44
 70
     1
102
RTVSPropertyOp45
 70
     1
102
RTVSPropertyOp46
 70
     1
102
RTVSPropertyOp47
 70
     1
102
RTVSPropertyOp48
 70
     1
102
RTVSPropertyOp49
 70
     1
102
RTVSPropertyOp50
 70
     1
102
RTVSPropertyOp51
 70
     0
102
RTVSPropertyOp52
 70
     0
102
RTVSPropertyOp53
 70
     1
102
RTVSPropertyOp54
 70
     1
102
RTVSPropertyOp55
 70
     1
102
RTVSPropertyOp56
 70
     1
102
RTVSPropertyOp57
 70
     1
102
RTVSPropertyOp58
 70
     1
102
RTVSPropertyOp59
 70
     1
102
RTVSPropertyOp60
 70
     1
102
RTVSPropertyOp61
 70
     1
102
RTVSPropertyOp62
 70
     1
  0
XRECORD
  5
18D
102
{ACAD_REACTORS
330
18C
102
}
330
18C
100
AcDbXrecord
280
     1
102
RTVSPost2010Prop28
280
     0
102
RTVSPost2010PropOp28
 70
     1
102
RTVSPost2010Prop29
280
     1
102
RTVSPost2010PropOp29
 70
     1
102
RTVSPost2010Prop30
280
     1
102
RTVSPost2010PropOp30
 70
     1
102
RTVSPost2010Prop31
280
     0
102
RTVSPost2010PropOp31
 70
     1
102
RTVSPost2010Prop32
280
     0
102
RTVSPost2010PropOp32
 70
     1
102
RTVSPost2010Prop33
280
     0
102
RTVSPost2010PropOp33
 70
     1
102
RTVSPost2010Prop34
280
     0
102
RTVSPost2010PropOp34
 70
     1
102
RTVSPost2010Prop35
280
     0
102
RTVSPost2010PropOp35
 70
     1
102
RTVSPost2010Prop36
280
     0
102
RTVSPost2010PropOp36
 70
     1
102
RTVSPost2010Prop37
 90
       50
102
RTVSPost2010PropOp37
 70
     1
102
RTVSPost2010Prop38
140
0.0
102
RTVSPost2010PropOp38
 70
     1
102
RTVSPost2010Prop39
140
1.0
102
RTVSPost2010PropOp39
 70
     1
102
RTVSPost2010Prop40
 90
        0
102
RTVSPost2010PropOp40
 70
     1
102
RTVSPost2010Prop41ColorIndex
 90
       18
102
RTVSPost2010Prop41ColorRGB
 90
        0
102
RTVSPost2010PropOp41
 70
     1
102
RTVSPost2010Prop42
 90
       50
102
RTVSPost2010PropOp42
 70
     1
102
RTVSPost2010Prop43
 90
        3
102
RTVSPost2010PropOp43
 70
     1
102
RTVSPost2010Prop44ColorIndex
 90
        5
102
RTVSPost2010Prop44ColorRGB
 90
      255
102
RTVSPost2010PropOp44
 70
     1
102
RTVSPost2010Prop45
280
     0
102
RTVSPost2010PropOp45
 70
     1
102
RTVSPost2010Prop46
 90
       50
102
RTVSPost2010PropOp46
 70
     1
102
RTVSPost2010Prop47
 90
       50
102
RTVSPost2010PropOp47
 70
     1
102
RTVSPost2010Prop48
 90
       50
102
RTVSPost2010PropOp48
 70
     1
102
RTVSPost2010Prop49
280
     0
102
RTVSPost2010PropOp49
 70
     1
102
RTVSPost2010Prop50
 90
       50
102
RTVSPost2010PropOp50
 70
     1
102
RTVSPost2010Prop51ColorIndex
 90
      256
102
RTVSPost2010Prop51ColorRGB
 90
-16777216
102
RTVSPost2010PropOp51
 70
     0
102
RTVSPost2010Prop52
140
1.0
102
RTVSPost2010PropOp52
 70
     0
102
RTVSPost2010Prop53
 90
        2
102
RTVSPost2010PropOp53
 70
     1
102
RTVSPost2010Prop54
  1
strokes_ogs.tif
102
RTVSPost2010PropOp54
 70
     1
102
RTVSPost2010Prop55
280
     0
102
RTVSPost2010PropOp55
 70
     1
102
RTVSPost2010Prop56
140
1.0
102
RTVSPost2010PropOp56
 70
     1
102
RTVSPost2010Prop57
140
1.0
102
RTVSPost2010PropOp57
 70
     1
102
RTVSPropertyOp0
 70
     1
102
RTVSPropertyOp1
 70
     1
102
RTVSPropertyOp2
 70
     1
102
RTVSPropertyOp3
 70
     1
102
RTVSPropertyOp4
 70
     1
102
RTVSPropertyOp5
 70
     1
102
RTVSPropertyOp6
 70
     1
102
RTVSPropertyOp7
 70
     1
102
RTVSPropertyOp8
 70
     1
102
RTVSPropertyOp9
 70
     1
102
RTVSPropertyOp10
 70
     1
102
RTVSPropertyOp11
 70
     1
102
RTVSPropertyOp12
 70
     1
102
RTVSPropertyOp13
 70
     1
102
RTVSPropertyOp14
 70
     1
102
RTVSPropertyOp15
 70
     1
102
RTVSPropertyOp16
 70
     1
102
RTVSPropertyOp17
 70
     1
102
RTVSPropertyOp18
 70
     1
102
RTVSPropertyOp19
 70
     1
102
RTVSPropertyOp20
 70
     1
102
RTVSPropertyOp21
 70
     1
102
RTVSPropertyOp22
 70
     1
102
RTVSPropertyOp23
 70
     1
102
RTVSPropertyOp24
 70
     1
102
RTVSPropertyOp25
 70
     1
102
RTVSPropertyOp26
 70
     1
102
RTVSPropertyOp27
 70
     1
102
RTVSPropertyOp28
 70
     1
102
RTVSPropertyOp29
 70
     1
102
RTVSPropertyOp30
 70
     1
102
RTVSPropertyOp31
 70
     1
102
RTVSPropertyOp32
 70
     1
102
RTVSPropertyOp33
 70
     1
102
RTVSPropertyOp34
 70
     1
102
RTVSPropertyOp35
 70
     1
102
RTVSPropertyOp36
 70
     1
102
RTVSPropertyOp37
 70
     1
102
RTVSPropertyOp38
 70
     1
102
RTVSPropertyOp39
 70
     1
102
RTVSPropertyOp40
 70
     1
102
RTVSPropertyOp41
 70
     1
102
RTVSPropertyOp42
 70
     1
102
RTVSPropertyOp43
 70
     1
102
RTVSPropertyOp44
 70
     1
102
RTVSPropertyOp45
 70
     1
102
RTVSPropertyOp46
 70
     1
102
RTVSPropertyOp47
 70
     1
102
RTVSPropertyOp48
 70
     1
102
RTVSPropertyOp49
 70
     1
102
RTVSPropertyOp50
 70
     1
102
RTVSPropertyOp51
 70
     0
102
RTVSPropertyOp52
 70
     0
102
RTVSPropertyOp53
 70
     1
102
RTVSPropertyOp54
 70
     1
102
RTVSPropertyOp55
 70
     1
102
RTVSPropertyOp56
 70
     1
102
RTVSPropertyOp57
 70
     1
102
RTVSPropertyOp58
 70
     1
102
RTVSPropertyOp59
 70
     1
102
RTVSPropertyOp60
 70
     1
102
RTVSPropertyOp61
 70
     1
102
RTVSPropertyOp62
 70
     1
  0
XRECORD
  5
18F
102
{ACAD_REACTORS
330
18E
102
}
330
18E
100
AcDbXrecord
280
     1
102
RTVSPost2010Prop28
280
     0
102
RTVSPost2010PropOp28
 70
     1
102
RTVSPost2010Prop29
280
     1
102
RTVSPost2010PropOp29
 70
     1
102
RTVSPost2010Prop30
280
     1
102
RTVSPost2010PropOp30
 70
     1
102
RTVSPost2010Prop31
280
     0
102
RTVSPost2010PropOp31
 70
     1
102
RTVSPost2010Prop32
280
     0
102
RTVSPost2010PropOp32
 70
     1
102
RTVSPost2010Prop33
280
     0
102
RTVSPost2010PropOp33
 70
     1
102
RTVSPost2010Prop34
280
     0
102
RTVSPost2010PropOp34
 70
     1
102
RTVSPost2010Prop35
280
     0
102
RTVSPost2010PropOp35
 70
     1
102
RTVSPost2010Prop36
280
     0
102
RTVSPost2010PropOp36
 70
     1
102
RTVSPost2010Prop37
 90
       50
102
RTVSPost2010PropOp37
 70
     1
102
RTVSPost2010Prop38
140
0.0
102
RTVSPost2010PropOp38
 70
     1
102
RTVSPost2010Prop39
140
1.0
102
RTVSPost2010PropOp39
 70
     1
102
RTVSPost2010Prop40
 90
        0
102
RTVSPost2010PropOp40
 70
     1
102
RTVSPost2010Prop41ColorIndex
 90
       18
102
RTVSPost2010Prop41ColorRGB
 90
        0
102
RTVSPost2010PropOp41
 70
     1
102
RTVSPost2010Prop42
 90
       50
102
RTVSPost2010PropOp42
 70
     1
102
RTVSPost2010Prop43
 90
        3
102
RTVSPost2010PropOp43
 70
     1
102
RTVSPost2010Prop44ColorIndex
 90
        5
102
RTVSPost2010Prop44ColorRGB
 90
      255
102
RTVSPost2010PropOp44
 70
     1
102
RTVSPost2010Prop45
280
     0
102
RTVSPost2010PropOp45
 70
     1
102
RTVSPost2010Prop46
 90
       50
102
RTVSPost2010PropOp46
 70
     1
102
RTVSPost2010Prop47
 90
       50
102
RTVSPost2010PropOp47
 70
     1
102
RTVSPost2010Prop48
 90
       50
102
RTVSPost2010PropOp48
 70
     1
102
RTVSPost2010Prop49
280
     0
102
RTVSPost2010PropOp49
 70
     1
102
RTVSPost2010Prop50
 90
       50
102
RTVSPost2010PropOp50
 70
     1
102
RTVSPost2010Prop51ColorIndex
 90
      256
102
RTVSPost2010Prop51ColorRGB
 90
-16777216
102
RTVSPost2010PropOp51
 70
     0
102
RTVSPost2010Prop52
140
1.0
102
RTVSPost2010PropOp52
 70
     0
102
RTVSPost2010Prop53
 90
        2
102
RTVSPost2010PropOp53
 70
     1
102
RTVSPost2010Prop54
  1
strokes_ogs.tif
102
RTVSPost2010PropOp54
 70
     1
102
RTVSPost2010Prop55
280
     0
102
RTVSPost2010PropOp55
 70
     1
102
RTVSPost2010Prop56
140
1.0
102
RTVSPost2010PropOp56
 70
     1
102
RTVSPost2010Prop57
140
1.0
102
RTVSPost2010PropOp57
 70
     1
102
RTVSPropertyOp0
 70
     1
102
RTVSPropertyOp1
 70
     1
102
RTVSPropertyOp2
 70
     1
102
RTVSPropertyOp3
 70
     1
102
RTVSPropertyOp4
 70
     1
102
RTVSPropertyOp5
 70
     1
102
RTVSPropertyOp6
 70
     1
102
RTVSPropertyOp7
 70
     1
102
RTVSPropertyOp8
 70
     1
102
RTVSPropertyOp9
 70
     1
102
RTVSPropertyOp10
 70
     1
102
RTVSPropertyOp11
 70
     1
102
RTVSPropertyOp12
 70
     1
102
RTVSPropertyOp13
 70
     1
102
RTVSPropertyOp14
 70
     1
102
RTVSPropertyOp15
 70
     1
102
RTVSPropertyOp16
 70
     1
102
RTVSPropertyOp17
 70
     1
102
RTVSPropertyOp18
 70
     1
102
RTVSPropertyOp19
 70
     1
102
RTVSPropertyOp20
 70
     1
102
RTVSPropertyOp21
 70
     1
102
RTVSPropertyOp22
 70
     1
102
RTVSPropertyOp23
 70
     1
102
RTVSPropertyOp24
 70
     1
102
RTVSPropertyOp25
 70
     1
102
RTVSPropertyOp26
 70
     1
102
RTVSPropertyOp27
 70
     1
102
RTVSPropertyOp28
 70
     1
102
RTVSPropertyOp29
 70
     1
102
RTVSPropertyOp30
 70
     1
102
RTVSPropertyOp31
 70
     1
102
RTVSPropertyOp32
 70
     1
102
RTVSPropertyOp33
 70
     1
102
RTVSPropertyOp34
 70
     1
102
RTVSPropertyOp35
 70
     1
102
RTVSPropertyOp36
 70
     1
102
RTVSPropertyOp37
 70
     1
102
RTVSPropertyOp38
 70
     1
102
RTVSPropertyOp39
 70
     1
102
RTVSPropertyOp40
 70
     1
102
RTVSPropertyOp41
 70
     1
102
RTVSPropertyOp42
 70
     1
102
RTVSPropertyOp43
 70
     1
102
RTVSPropertyOp44
 70
     1
102
RTVSPropertyOp45
 70
     1
102
RTVSPropertyOp46
 70
     1
102
RTVSPropertyOp47
 70
     1
102
RTVSPropertyOp48
 70
     1
102
RTVSPropertyOp49
 70
     1
102
RTVSPropertyOp50
 70
     1
102
RTVSPropertyOp51
 70
     0
102
RTVSPropertyOp52
 70
     0
102
RTVSPropertyOp53
 70
     1
102
RTVSPropertyOp54
 70
     1
102
RTVSPropertyOp55
 70
     1
102
RTVSPropertyOp56
 70
     1
102
RTVSPropertyOp57
 70
     1
102
RTVSPropertyOp58
 70
     1
102
RTVSPropertyOp59
 70
     1
102
RTVSPropertyOp60
 70
     1
102
RTVSPropertyOp61
 70
     1
102
RTVSPropertyOp62
 70
     1
  0
XRECORD
  5
185
102
{ACAD_REACTORS
330
184
102
}
330
184
100
AcDbXrecord
280
     1
102
RTVSPost2010Prop28
280
     0
102
RTVSPost2010PropOp28
 70
     1
102
RTVSPost2010Prop29
280
     1
102
RTVSPost2010PropOp29
 70
     1
102
RTVSPost2010Prop30
280
     1
102
RTVSPost2010PropOp30
 70
     1
102
RTVSPost2010Prop31
280
     0
102
RTVSPost2010PropOp31
 70
     1
102
RTVSPost2010Prop32
280
     0
102
RTVSPost2010PropOp32
 70
     1
102
RTVSPost2010Prop33
280
     0
102
RTVSPost2010PropOp33
 70
     1
102
RTVSPost2010Prop34
280
     0
102
RTVSPost2010PropOp34
 70
     1
102
RTVSPost2010Prop35
280
     0
102
RTVSPost2010PropOp35
 70
     1
102
RTVSPost2010Prop36
280
     0
102
RTVSPost2010PropOp36
 70
     1
102
RTVSPost2010Prop37
 90
       50
102
RTVSPost2010PropOp37
 70
     1
102
RTVSPost2010Prop38
140
0.0
102
RTVSPost2010PropOp38
 70
     1
102
RTVSPost2010Prop39
140
1.0
102
RTVSPost2010PropOp39
 70
     1
102
RTVSPost2010Prop40
 90
        0
102
RTVSPost2010PropOp40
 70
     1
102
RTVSPost2010Prop41ColorIndex
 90
       18
102
RTVSPost2010Prop41ColorRGB
 90
        0
102
RTVSPost2010PropOp41
 70
     1
102
RTVSPost2010Prop42
 90
       50
102
RTVSPost2010PropOp42
 70
     1
102
RTVSPost2010Prop43
 90
        3
102
RTVSPost2010PropOp43
 70
     1
102
RTVSPost2010Prop44ColorIndex
 90
        5
102
RTVSPost2010Prop44ColorRGB
 90
      255
102
RTVSPost2010PropOp44
 70
     1
102
RTVSPost2010Prop45
280
     0
102
RTVSPost2010PropOp45
 70
     1
102
RTVSPost2010Prop46
 90
       50
102
RTVSPost2010PropOp46
 70
     1
102
RTVSPost2010Prop47
 90
       50
102
RTVSPost2010PropOp47
 70
     1
102
RTVSPost2010Prop48
 90
       50
102
RTVSPost2010PropOp48
 70
     1
102
RTVSPost2010Prop49
280
     0
102
RTVSPost2010PropOp49
 70
     1
102
RTVSPost2010Prop50
 90
       50
102
RTVSPost2010PropOp50
 70
     1
102
RTVSPost2010Prop51ColorIndex
 90
      256
102
RTVSPost2010Prop51ColorRGB
 90
-16777216
102
RTVSPost2010PropOp51
 70
     0
102
RTVSPost2010Prop52
140
1.0
102
RTVSPost2010PropOp52
 70
     0
102
RTVSPost2010Prop53
 90
        2
102
RTVSPost2010PropOp53
 70
     1
102
RTVSPost2010Prop54
  1
strokes_ogs.tif
102
RTVSPost2010PropOp54
 70
     1
102
RTVSPost2010Prop55
280
     0
102
RTVSPost2010PropOp55
 70
     1
102
RTVSPost2010Prop56
140
1.0
102
RTVSPost2010PropOp56
 70
     1
102
RTVSPost2010Prop57
140
1.0
102
RTVSPost2010PropOp57
 70
     1
102
RTVSPropertyOp0
 70
     1
102
RTVSPropertyOp1
 70
     1
102
RTVSPropertyOp2
 70
     1
102
RTVSPropertyOp3
 70
     1
102
RTVSPropertyOp4
 70
     1
102
RTVSPropertyOp5
 70
     1
102
RTVSPropertyOp6
 70
     1
102
RTVSPropertyOp7
 70
     1
102
RTVSPropertyOp8
 70
     1
102
RTVSPropertyOp9
 70
     1
102
RTVSPropertyOp10
 70
     1
102
RTVSPropertyOp11
 70
     1
102
RTVSPropertyOp12
 70
     1
102
RTVSPropertyOp13
 70
     1
102
RTVSPropertyOp14
 70
     1
102
RTVSPropertyOp15
 70
     1
102
RTVSPropertyOp16
 70
     1
102
RTVSPropertyOp17
 70
     1
102
RTVSPropertyOp18
 70
     1
102
RTVSPropertyOp19
 70
     1
102
RTVSPropertyOp20
 70
     1
102
RTVSPropertyOp21
 70
     1
102
RTVSPropertyOp22
 70
     1
102
RTVSPropertyOp23
 70
     1
102
RTVSPropertyOp24
 70
     1
102
RTVSPropertyOp25
 70
     1
102
RTVSPropertyOp26
 70
     1
102
RTVSPropertyOp27
 70
     1
102
RTVSPropertyOp28
 70
     1
102
RTVSPropertyOp29
 70
     1
102
RTVSPropertyOp30
 70
     1
102
RTVSPropertyOp31
 70
     1
102
RTVSPropertyOp32
 70
     1
102
RTVSPropertyOp33
 70
     1
102
RTVSPropertyOp34
 70
     1
102
RTVSPropertyOp35
 70
     1
102
RTVSPropertyOp36
 70
     1
102
RTVSPropertyOp37
 70
     1
102
RTVSPropertyOp38
 70
     1
102
RTVSPropertyOp39
 70
     1
102
RTVSPropertyOp40
 70
     1
102
RTVSPropertyOp41
 70
     1
102
RTVSPropertyOp42
 70
     1
102
RTVSPropertyOp43
 70
     1
102
RTVSPropertyOp44
 70
     1
102
RTVSPropertyOp45
 70
     1
102
RTVSPropertyOp46
 70
     1
102
RTVSPropertyOp47
 70
     1
102
RTVSPropertyOp48
 70
     1
102
RTVSPropertyOp49
 70
     1
102
RTVSPropertyOp50
 70
     1
102
RTVSPropertyOp51
 70
     0
102
RTVSPropertyOp52
 70
     0
102
RTVSPropertyOp53
 70
     1
102
RTVSPropertyOp54
 70
     1
102
RTVSPropertyOp55
 70
     1
102
RTVSPropertyOp56
 70
     1
102
RTVSPropertyOp57
 70
     1
102
RTVSPropertyOp58
 70
     1
102
RTVSPropertyOp59
 70
     1
102
RTVSPropertyOp60
 70
     1
102
RTVSPropertyOp61
 70
     1
102
RTVSPropertyOp62
 70
     1
  0
XRECORD
  5
179
102
{ACAD_REACTORS
330
178
102
}
330
178
100
AcDbXrecord
280
     1
102
RTVSPost2010Prop28
280
     0
102
RTVSPost2010PropOp28
 70
     1
102
RTVSPost2010Prop29
280
     1
102
RTVSPost2010PropOp29
 70
     1
102
RTVSPost2010Prop30
280
     1
102
RTVSPost2010PropOp30
 70
     1
102
RTVSPost2010Prop31
280
     0
102
RTVSPost2010PropOp31
 70
     1
102
RTVSPost2010Prop32
280
     0
102
RTVSPost2010PropOp32
 70
     1
102
RTVSPost2010Prop33
280
     0
102
RTVSPost2010PropOp33
 70
     1
102
RTVSPost2010Prop34
280
     0
102
RTVSPost2010PropOp34
 70
     1
102
RTVSPost2010Prop35
280
     0
102
RTVSPost2010PropOp35
 70
     1
102
RTVSPost2010Prop36
280
     0
102
RTVSPost2010PropOp36
 70
     1
102
RTVSPost2010Prop37
 90
       50
102
RTVSPost2010PropOp37
 70
     1
102
RTVSPost2010Prop38
140
0.0
102
RTVSPost2010PropOp38
 70
     1
102
RTVSPost2010Prop39
140
1.0
102
RTVSPost2010PropOp39
 70
     1
102
RTVSPost2010Prop40
 90
        0
102
RTVSPost2010PropOp40
 70
     1
102
RTVSPost2010Prop41ColorIndex
 90
       18
102
RTVSPost2010Prop41ColorRGB
 90
        0
102
RTVSPost2010PropOp41
 70
     1
102
RTVSPost2010Prop42
 90
       50
102
RTVSPost2010PropOp42
 70
     1
102
RTVSPost2010Prop43
 90
        3
102
RTVSPost2010PropOp43
 70
     1
102
RTVSPost2010Prop44ColorIndex
 90
        5
102
RTVSPost2010Prop44ColorRGB
 90
      255
102
RTVSPost2010PropOp44
 70
     1
102
RTVSPost2010Prop45
280
     0
102
RTVSPost2010PropOp45
 70
     1
102
RTVSPost2010Prop46
 90
       50
102
RTVSPost2010PropOp46
 70
     1
102
RTVSPost2010Prop47
 90
       50
102
RTVSPost2010PropOp47
 70
     1
102
RTVSPost2010Prop48
 90
       50
102
RTVSPost2010PropOp48
 70
     1
102
RTVSPost2010Prop49
280
     0
102
RTVSPost2010PropOp49
 70
     1
102
RTVSPost2010Prop50
 90
       50
102
RTVSPost2010PropOp50
 70
     1
102
RTVSPost2010Prop51ColorIndex
 90
      256
102
RTVSPost2010Prop51ColorRGB
 90
-16777216
102
RTVSPost2010PropOp51
 70
     0
102
RTVSPost2010Prop52
140
1.0
102
RTVSPost2010PropOp52
 70
     0
102
RTVSPost2010Prop53
 90
        2
102
RTVSPost2010PropOp53
 70
     1
102
RTVSPost2010Prop54
  1
strokes_ogs.tif
102
RTVSPost2010PropOp54
 70
     1
102
RTVSPost2010Prop55
280
     0
102
RTVSPost2010PropOp55
 70
     1
102
RTVSPost2010Prop56
140
1.0
102
RTVSPost2010PropOp56
 70
     1
102
RTVSPost2010Prop57
140
1.0
102
RTVSPost2010PropOp57
 70
     1
102
RTVSPropertyOp0
 70
     1
102
RTVSPropertyOp1
 70
     1
102
RTVSPropertyOp2
 70
     1
102
RTVSPropertyOp3
 70
     1
102
RTVSPropertyOp4
 70
     1
102
RTVSPropertyOp5
 70
     1
102
RTVSPropertyOp6
 70
     1
102
RTVSPropertyOp7
 70
     1
102
RTVSPropertyOp8
 70
     1
102
RTVSPropertyOp9
 70
     1
102
RTVSPropertyOp10
 70
     1
102
RTVSPropertyOp11
 70
     1
102
RTVSPropertyOp12
 70
     1
102
RTVSPropertyOp13
 70
     1
102
RTVSPropertyOp14
 70
     1
102
RTVSPropertyOp15
 70
     1
102
RTVSPropertyOp16
 70
     1
102
RTVSPropertyOp17
 70
     1
102
RTVSPropertyOp18
 70
     1
102
RTVSPropertyOp19
 70
     1
102
RTVSPropertyOp20
 70
     1
102
RTVSPropertyOp21
 70
     1
102
RTVSPropertyOp22
 70
     1
102
RTVSPropertyOp23
 70
     1
102
RTVSPropertyOp24
 70
     1
102
RTVSPropertyOp25
 70
     1
102
RTVSPropertyOp26
 70
     1
102
RTVSPropertyOp27
 70
     1
102
RTVSPropertyOp28
 70
     1
102
RTVSPropertyOp29
 70
     1
102
RTVSPropertyOp30
 70
     1
102
RTVSPropertyOp31
 70
     1
102
RTVSPropertyOp32
 70
     1
102
RTVSPropertyOp33
 70
     1
102
RTVSPropertyOp34
 70
     1
102
RTVSPropertyOp35
 70
     1
102
RTVSPropertyOp36
 70
     1
102
RTVSPropertyOp37
 70
     1
102
RTVSPropertyOp38
 70
     1
102
RTVSPropertyOp39
 70
     1
102
RTVSPropertyOp40
 70
     1
102
RTVSPropertyOp41
 70
     1
102
RTVSPropertyOp42
 70
     1
102
RTVSPropertyOp43
 70
     1
102
RTVSPropertyOp44
 70
     1
102
RTVSPropertyOp45
 70
     1
102
RTVSPropertyOp46
 70
     1
102
RTVSPropertyOp47
 70
     1
102
RTVSPropertyOp48
 70
     1
102
RTVSPropertyOp49
 70
     1
102
RTVSPropertyOp50
 70
     1
102
RTVSPropertyOp51
 70
     0
102
RTVSPropertyOp52
 70
     0
102
RTVSPropertyOp53
 70
     1
102
RTVSPropertyOp54
 70
     1
102
RTVSPropertyOp55
 70
     1
102
RTVSPropertyOp56
 70
     1
102
RTVSPropertyOp57
 70
     1
102
RTVSPropertyOp58
 70
     1
102
RTVSPropertyOp59
 70
     1
102
RTVSPropertyOp60
 70
     1
102
RTVSPropertyOp61
 70
     1
102
RTVSPropertyOp62
 70
     1
  0
XRECORD
  5
191
102
{ACAD_REACTORS
330
190
102
}
330
190
100
AcDbXrecord
280
     1
102
RTVSPost2010Prop28
280
     0
102
RTVSPost2010PropOp28
 70
     1
102
RTVSPost2010Prop29
280
     1
102
RTVSPost2010PropOp29
 70
     1
102
RTVSPost2010Prop30
280
     1
102
RTVSPost2010PropOp30
 70
     1
102
RTVSPost2010Prop31
280
     0
102
RTVSPost2010PropOp31
 70
     1
102
RTVSPost2010Prop32
280
     0
102
RTVSPost2010PropOp32
 70
     1
102
RTVSPost2010Prop33
280
     0
102
RTVSPost2010PropOp33
 70
     1
102
RTVSPost2010Prop34
280
     0
102
RTVSPost2010PropOp34
 70
     1
102
RTVSPost2010Prop35
280
     0
102
RTVSPost2010PropOp35
 70
     1
102
RTVSPost2010Prop36
280
     0
102
RTVSPost2010PropOp36
 70
     1
102
RTVSPost2010Prop37
 90
       50
102
RTVSPost2010PropOp37
 70
     1
102
RTVSPost2010Prop38
140
0.0
102
RTVSPost2010PropOp38
 70
     1
102
RTVSPost2010Prop39
140
1.0
102
RTVSPost2010PropOp39
 70
     1
102
RTVSPost2010Prop40
 90
        0
102
RTVSPost2010PropOp40
 70
     1
102
RTVSPost2010Prop41ColorIndex
 90
       18
102
RTVSPost2010Prop41ColorRGB
 90
        0
102
RTVSPost2010PropOp41
 70
     1
102
RTVSPost2010Prop42
 90
       50
102
RTVSPost2010PropOp42
 70
     1
102
RTVSPost2010Prop43
 90
        3
102
RTVSPost2010PropOp43
 70
     1
102
RTVSPost2010Prop44ColorIndex
 90
        5
102
RTVSPost2010Prop44ColorRGB
 90
      255
102
RTVSPost2010PropOp44
 70
     1
102
RTVSPost2010Prop45
280
     0
102
RTVSPost2010PropOp45
 70
     1
102
RTVSPost2010Prop46
 90
       50
102
RTVSPost2010PropOp46
 70
     1
102
RTVSPost2010Prop47
 90
       50
102
RTVSPost2010PropOp47
 70
     1
102
RTVSPost2010Prop48
 90
       50
102
RTVSPost2010PropOp48
 70
     1
102
RTVSPost2010Prop49
280
     0
102
RTVSPost2010PropOp49
 70
     1
102
RTVSPost2010Prop50
 90
       50
102
RTVSPost2010PropOp50
 70
     1
102
RTVSPost2010Prop51ColorIndex
 90
      256
102
RTVSPost2010Prop51ColorRGB
 90
-16777216
102
RTVSPost2010PropOp51
 70
     0
102
RTVSPost2010Prop52
140
1.0
102
RTVSPost2010PropOp52
 70
     0
102
RTVSPost2010Prop53
 90
        2
102
RTVSPost2010PropOp53
 70
     1
102
RTVSPost2010Prop54
  1
strokes_ogs.tif
102
RTVSPost2010PropOp54
 70
     1
102
RTVSPost2010Prop55
280
     0
102
RTVSPost2010PropOp55
 70
     1
102
RTVSPost2010Prop56
140
1.0
102
RTVSPost2010PropOp56
 70
     1
102
RTVSPost2010Prop57
140
1.0
102
RTVSPost2010PropOp57
 70
     1
102
RTVSPropertyOp0
 70
     1
102
RTVSPropertyOp1
 70
     1
102
RTVSPropertyOp2
 70
     1
102
RTVSPropertyOp3
 70
     1
102
RTVSPropertyOp4
 70
     1
102
RTVSPropertyOp5
 70
     1
102
RTVSPropertyOp6
 70
     1
102
RTVSPropertyOp7
 70
     1
102
RTVSPropertyOp8
 70
     1
102
RTVSPropertyOp9
 70
     1
102
RTVSPropertyOp10
 70
     1
102
RTVSPropertyOp11
 70
     1
102
RTVSPropertyOp12
 70
     1
102
RTVSPropertyOp13
 70
     1
102
RTVSPropertyOp14
 70
     1
102
RTVSPropertyOp15
 70
     1
102
RTVSPropertyOp16
 70
     1
102
RTVSPropertyOp17
 70
     1
102
RTVSPropertyOp18
 70
     1
102
RTVSPropertyOp19
 70
     1
102
RTVSPropertyOp20
 70
     1
102
RTVSPropertyOp21
 70
     1
102
RTVSPropertyOp22
 70
     1
102
RTVSPropertyOp23
 70
     1
102
RTVSPropertyOp24
 70
     1
102
RTVSPropertyOp25
 70
     1
102
RTVSPropertyOp26
 70
     1
102
RTVSPropertyOp27
 70
     1
102
RTVSPropertyOp28
 70
     1
102
RTVSPropertyOp29
 70
     1
102
RTVSPropertyOp30
 70
     1
102
RTVSPropertyOp31
 70
     1
102
RTVSPropertyOp32
 70
     1
102
RTVSPropertyOp33
 70
     1
102
RTVSPropertyOp34
 70
     1
102
RTVSPropertyOp35
 70
     1
102
RTVSPropertyOp36
 70
     1
102
RTVSPropertyOp37
 70
     1
102
RTVSPropertyOp38
 70
     1
102
RTVSPropertyOp39
 70
     1
102
RTVSPropertyOp40
 70
     1
102
RTVSPropertyOp41
 70
     1
102
RTVSPropertyOp42
 70
     1
102
RTVSPropertyOp43
 70
     1
102
RTVSPropertyOp44
 70
     1
102
RTVSPropertyOp45
 70
     1
102
RTVSPropertyOp46
 70
     1
102
RTVSPropertyOp47
 70
     1
102
RTVSPropertyOp48
 70
     1
102
RTVSPropertyOp49
 70
     1
102
RTVSPropertyOp50
 70
     1
102
RTVSPropertyOp51
 70
     0
102
RTVSPropertyOp52
 70
     0
102
RTVSPropertyOp53
 70
     1
102
RTVSPropertyOp54
 70
     1
102
RTVSPropertyOp55
 70
     1
102
RTVSPropertyOp56
 70
     1
102
RTVSPropertyOp57
 70
     1
102
RTVSPropertyOp58
 70
     1
102
RTVSPropertyOp59
 70
     1
102
RTVSPropertyOp60
 70
     1
102
RTVSPropertyOp61
 70
     1
102
RTVSPropertyOp62
 70
     1
  0
ENDSEC
  0
EOF
