  0
SECTION
  2
HEADER
  9
$ACADVER
  1
AC1021
  9
$ACADMAINTVER
 70
    50
  9
$DWGCODEPAGE
  3
ANSI_1252
  9
$LASTSAVEDBY
  1
ufficio.tecnico
  9
$INSBASE
 10
0.0
 20
0.0
 30
0.0
  9
$EXTMIN
 10
-0.0360153494122457
 20
-9.789418593657085
 30
0.0
  9
$EXTMAX
 10
10.19323686915191
 20
-0.8305888510863388
 30
0.0
  9
$LIMMIN
 10
0.0
 20
0.0
  9
$LIMMAX
 10
12.0
 20
9.0
  9
$ORTHOMODE
 70
     0
  9
$REGENMODE
 70
     1
  9
$FILLMODE
 70
     1
  9
$QTEXTMODE
 70
     0
  9
$MIRRTEXT
 70
     0
  9
$LTSCALE
 40
1.0
  9
$ATTMODE
 70
     1
  9
$TEXTSIZE
 40
0.2
  9
$TRACEWID
 40
0.05
  9
$TEXTSTYLE
  7
Standard
  9
$CLAYER
  8
0
  9
$CELTYPE
  6
ByLayer
  9
$CECOLOR
 62
   256
  9
$CELTSCALE
 40
1.0
  9
$DISPSILH
 70
     0
  9
$DIMSCALE
 40
1.0
  9
$DIMASZ
 40
0.18
  9
$DIMEXO
 40
0.0625
  9
$DIMDLI
 40
0.38
  9
$DIMRND
 40
0.0
  9
$DIMDLE
 40
0.0
  9
$DIMEXE
 40
0.18
  9
$DIMTP
 40
0.0
  9
$DIMTM
 40
0.0
  9
$DIMTXT
 40
0.18
  9
$DIMCEN
 40
0.09
  9
$DIMTSZ
 40
0.0
  9
$DIMTOL
 70
     0
  9
$DIMLIM
 70
     0
  9
$DIMTIH
 70
     1
  9
$DIMTOH
 70
     1
  9
$DIMSE1
 70
     0
  9
$DIMSE2
 70
     0
  9
$DIMTAD
 70
     0
  9
$DIMZIN
 70
     0
  9
$DIMBLK
  1

  9
$DIMASO
 70
     1
  9
$DIMSHO
 70
     1
  9
$DIMPOST
  1

  9
$DIMAPOST
  1

  9
$DIMALT
 70
     0
  9
$DIMALTD
 70
     2
  9
$DIMALTF
 40
25.4
  9
$DIMLFAC
 40
1.0
  9
$DIMTOFL
 70
     0
  9
$DIMTVP
 40
0.0
  9
$DIMTIX
 70
     0
  9
$DIMSOXD
 70
     0
  9
$DIMSAH
 70
     0
  9
$DIMBLK1
  1

  9
$DIMBLK2
  1

  9
$DIMSTYLE
  2
Standard
  9
$DIMCLRD
 70
     0
  9
$DIMCLRE
 70
     0
  9
$DIMCLRT
 70
     0
  9
$DIMTFAC
 40
1.0
  9
$DIMGAP
 40
0.09
  9
$DIMJUST
 70
     0
  9
$DIMSD1
 70
     0
  9
$DIMSD2
 70
     0
  9
$DIMTOLJ
 70
     1
  9
$DIMTZIN
 70
     0
  9
$DIMALTZ
 70
     0
  9
$DIMALTTZ
 70
     0
  9
$DIMUPT
 70
     0
  9
$DIMDEC
 70
     4
  9
$DIMTDEC
 70
     4
  9
$DIMALTU
 70
     2
  9
$DIMALTTD
 70
     2
  9
$DIMTXSTY
  7
Standard
  9
$DIMAUNIT
 70
     0
  9
$DIMADEC
 70
     0
  9
$DIMALTRND
 40
0.0
  9
$DIMAZIN
 70
     0
  9
$DIMDSEP
 70
    46
  9
$DIMATFIT
 70
     3
  9
$DIMFRAC
 70
     0
  9
$DIMLDRBLK
  1

  9
$DIMLUNIT
 70
     2
  9
$DIMLWD
 70
    -2
  9
$DIMLWE
 70
    -2
  9
$DIMTMOVE
 70
     0
  9
$DIMFXL
 40
1.0
  9
$DIMFXLON
 70
     0
  9
$DIMJOGANG
 40
0.7853981633974483
  9
$DIMTFILL
 70
     0
  9
$DIMTFILLCLR
 70
     0
  9
$DIMARCSYM
 70
     0
  9
$DIMLTYPE
  6

  9
$DIMLTEX1
  6

  9
$DIMLTEX2
  6

  9
$LUNITS
 70
     2
  9
$LUPREC
 70
     4
  9
$SKETCHINC
 40
0.1
  9
$FILLETRAD
 40
0.0
  9
$AUNITS
 70
     0
  9
$AUPREC
 70
     0
  9
$MENU
  1
.
  9
$ELEVATION
 40
0.0
  9
$PELEVATION
 40
0.0
  9
$THICKNESS
 40
0.0
  9
$LIMCHECK
 70
     0
  9
$CHAMFERA
 40
0.0
  9
$CHAMFERB
 40
0.0
  9
$CHAMFERC
 40
0.0
  9
$CHAMFERD
 40
0.0
  9
$SKPOLY
 70
     0
  9
$TDCREATE
 40
2459457.585682870
  9
$TDUCREATE
 40
2459457.502349537
  9
$TDUPDATE
 40
2459457.731724537
  9
$TDUUPDATE
 40
2459457.648391204
  9
$TDINDWG
 40
0.0010763889
  9
$TDUSRTIMER
 40
0.0010763889
  9
$USRTIMER
 70
     1
  9
$ANGBASE
 50
0.0
  9
$ANGDIR
 70
     0
  9
$PDMODE
 70
     0
  9
$PDSIZE
 40
0.0
  9
$PLINEWID
 40
0.0
  9
$SPLFRAME
 70
     0
  9
$SPLINETYPE
 70
     6
  9
$SPLINESEGS
 70
     8
  9
$HANDSEED
  5
16A
  9
$SURFTAB1
 70
     6
  9
$SURFTAB2
 70
     6
  9
$SURFTYPE
 70
     6
  9
$SURFU
 70
     6
  9
$SURFV
 70
     6
  9
$UCSBASE
  2

  9
$UCSNAME
  2

  9
$UCSORG
 10
0.0
 20
0.0
 30
0.0
  9
$UCSXDIR
 10
1.0
 20
0.0
 30
0.0
  9
$UCSYDIR
 10
0.0
 20
1.0
 30
0.0
  9
$UCSORTHOREF
  2

  9
$UCSORTHOVIEW
 70
     0
  9
$UCSORGTOP
 10
0.0
 20
0.0
 30
0.0
  9
$UCSORGBOTTOM
 10
0.0
 20
0.0
 30
0.0
  9
$UCSORGLEFT
 10
0.0
 20
0.0
 30
0.0
  9
$UCSORGRIGHT
 10
0.0
 20
0.0
 30
0.0
  9
$UCSORGFRONT
 10
0.0
 20
0.0
 30
0.0
  9
$UCSORGBACK
 10
0.0
 20
0.0
 30
0.0
  9
$PUCSBASE
  2

  9
$PUCSNAME
  2

  9
$PUCSORG
 10
0.0
 20
0.0
 30
0.0
  9
$PUCSXDIR
 10
1.0
 20
0.0
 30
0.0
  9
$PUCSYDIR
 10
0.0
 20
1.0
 30
0.0
  9
$PUCSORTHOREF
  2

  9
$PUCSORTHOVIEW
 70
     0
  9
$PUCSORGTOP
 10
0.0
 20
0.0
 30
0.0
  9
$PUCSORGBOTTOM
 10
0.0
 20
0.0
 30
0.0
  9
$PUCSORGLEFT
 10
0.0
 20
0.0
 30
0.0
  9
$PUCSORGRIGHT
 10
0.0
 20
0.0
 30
0.0
  9
$PUCSORGFRONT
 10
0.0
 20
0.0
 30
0.0
  9
$PUCSORGBACK
 10
0.0
 20
0.0
 30
0.0
  9
$USERI1
 70
     0
  9
$USERI2
 70
     0
  9
$USERI3
 70
     0
  9
$USERI4
 70
     0
  9
$USERI5
 70
     0
  9
$USERR1
 40
0.0
  9
$USERR2
 40
0.0
  9
$USERR3
 40
0.0
  9
$USERR4
 40
0.0
  9
$USERR5
 40
0.0
  9
$WORLDVIEW
 70
     1
  9
$SHADEDGE
 70
     3
  9
$SHADEDIF
 70
    70
  9
$TILEMODE
 70
     1
  9
$MAXACTVP
 70
    64
  9
$PINSBASE
 10
0.0
 20
0.0
 30
0.0
  9
$PLIMCHECK
 70
     0
  9
$PEXTMIN
 10
1.000000000000000E+20
 20
1.000000000000000E+20
 30
1.000000000000000E+20
  9
$PEXTMAX
 10
-1.000000000000000E+20
 20
-1.000000000000000E+20
 30
-1.000000000000000E+20
  9
$PLIMMIN
 10
0.0
 20
0.0
  9
$PLIMMAX
 10
12.0
 20
9.0
  9
$UNITMODE
 70
     0
  9
$VISRETAIN
 70
     1
  9
$PLINEGEN
 70
     0
  9
$PSLTSCALE
 70
     1
  9
$TREEDEPTH
 70
  3020
  9
$CMLSTYLE
  2
Standard
  9
$CMLJUST
 70
     0
  9
$CMLSCALE
 40
1.0
  9
$PROXYGRAPHICS
 70
     1
  9
$MEASUREMENT
 70
     0
  9
$CELWEIGHT
370
    -1
  9
$ENDCAPS
280
     0
  9
$JOINSTYLE
280
     0
  9
$LWDISPLAY
290
     1
  9
$INSUNITS
 70
     5
  9
$HYPERLINKBASE
  1

  9
$STYLESHEET
  1

  9
$XEDIT
290
     1
  9
$CEPSNTYPE
380
     0
  9
$PSTYLEMODE
290
     1
  9
$FINGERPRINTGUID
  2
{C601AACF-5434-0944-AD2A-EBDF9BA56517}
  9
$VERSIONGUID
  2
{A14B91EC-0802-374A-8EBF-2C7D1BD5B519}
  9
$EXTNAMES
290
     1
  9
$PSVPSCALE
 40
0.0
  9
$OLESTARTUP
290
     0
  9
$SORTENTS
280
   127
  9
$INDEXCTL
280
     0
  9
$HIDETEXT
280
     1
  9
$XCLIPFRAME
290
     0
  9
$HALOGAP
280
     0
  9
$OBSCOLOR
 70
   257
  9
$OBSLTYPE
280
     0
  9
$INTERSECTIONDISPLAY
280
     0
  9
$INTERSECTIONCOLOR
 70
   257
  9
$DIMASSOC
280
     2
  9
$PROJECTNAME
  1

  9
$CAMERADISPLAY
290
     0
  9
$LENSLENGTH
 40
50.0
  9
$CAMERAHEIGHT
 40
0.0
  9
$STEPSPERSEC
 40
2.0
  9
$STEPSIZE
 40
6.0
  9
$3DDWFPREC
 40
2.0
  9
$PSOLWIDTH
 40
0.25
  9
$PSOLHEIGHT
 40
4.0
  9
$LOFTANG1
 40
1.570796326794896
  9
$LOFTANG2
 40
1.570796326794896
  9
$LOFTMAG1
 40
0.0
  9
$LOFTMAG2
 40
0.0
  9
$LOFTPARAM
 70
     7
  9
$LOFTNORMALS
280
     1
  9
$LATITUDE
 40
37.795
  9
$LONGITUDE
 40
-122.394
  9
$NORTHDIRECTION
 40
0.0
  9
$TIMEZONE
 70
 -8000
  9
$LIGHTGLYPHDISPLAY
280
     1
  9
$TILEMODELIGHTSYNCH
280
     1
  9
$CMATERIAL
347
11
  9
$SOLIDHIST
280
     0
  9
$SHOWHIST
280
     1
  9
$DWFFRAME
280
     2
  9
$DGNFRAME
280
     0
  9
$REALWORLDSCALE
290
     1
  9
$INTERFERECOLOR
 62
     1
  9
$INTERFEREOBJVS
345
33
  9
$INTERFEREVPVS
346
30
  9
$CSHADOW
280
     0
  9
$SHADOWPLANELOCATION
 40
0.0
  0
ENDSEC
  0
SECTION
  2
CLASSES
  0
CLASS
  1
ACDBDICTIONARYWDFLT
  2
AcDbDictionaryWithDefault
  3
ObjectDBX Classes
 90
        0
 91
        1
280
     0
281
     0
  0
CLASS
  1
MATERIAL
  2
AcDbMaterial
  3
ObjectDBX Classes
 90
     1153
 91
        3
280
     0
281
     0
  0
CLASS
  1
VISUALSTYLE
  2
AcDbVisualStyle
  3
ObjectDBX Classes
 90
     4095
 91
       24
280
     0
281
     0
  0
CLASS
  1
SCALE
  2
AcDbScale
  3
ObjectDBX Classes
 90
     1153
 91
       17
280
     0
281
     0
  0
CLASS
  1
TABLESTYLE
  2
AcDbTableStyle
  3
ObjectDBX Classes
 90
     4095
 91
        1
280
     0
281
     0
  0
CLASS
  1
MLEADERSTYLE
  2
AcDbMLeaderStyle
  3
ACDB_MLEADERSTYLE_CLASS
 90
     4095
 91
        1
280
     0
281
     0
  0
CLASS
  1
ACDBSECTIONVIEWSTYLE
  2
AcDbSectionViewStyle
  3
ObjectDBX Classes
 90
     1025
 91
        1
280
     0
281
     0
  0
CLASS
  1
ACDBDETAILVIEWSTYLE
  2
AcDbDetailViewStyle
  3
ObjectDBX Classes
 90
     1025
 91
        1
280
     0
281
     0
  0
CLASS
  1
DICTIONARYVAR
  2
AcDbDictionaryVar
  3
ObjectDBX Classes
 90
        0
 91
        6
280
     0
281
     0
  0
CLASS
  1
CELLSTYLEMAP
  2
AcDbCellStyleMap
  3
ObjectDBX Classes
 90
     1152
 91
        2
280
     0
281
     0
  0
ENDSEC
  0
SECTION
  2
TABLES
  0
TABLE
  2
VPORT
  5
8
330
0
100
AcDbSymbolTable
 70
     1
  0
VPORT
  5
57
330
8
100
AcDbSymbolTableRecord
100
AcDbViewportTableRecord
  2
*Active
 70
     0
 10
0.0
 20
0.0
 11
1.0
 21
1.0
 12
9.462501453702593
 22
-5.656160052965883
 13
0.0
 23
0.0
 14
1.0
 24
1.0
 15
0.0
 25
0.0
 16
0.0
 26
0.0
 36
1.0
 17
4.999999998749408
 27
-4.999999998749408
 37
0.0
 40
26.61568051258653
 41
2.545333333333333
 42
50.0
 43
0.0
 44
0.0
 50
0.0
 51
0.0
 71
     0
 72
   100
 73
     1
 74
     0
 75
     1
 76
     0
 77
     0
 78
     0
281
     0
 65
     1
110
0.0
120
0.0
130
0.0
111
1.0
121
0.0
131
0.0
112
0.0
122
1.0
132
0.0
 79
     0
146
0.0
348
2F
 60
     3
 61
     5
292
     1
282
     1
141
0.0
142
0.0
 63
   250
421
  3355443
1001
ACAD_NAV_VCDISPLAY
1070
     3
  0
ENDTAB
  0
TABLE
  2
LTYPE
  5
5
330
0
100
AcDbSymbolTable
 70
     2
  0
LTYPE
  5
5B
330
5
100
AcDbSymbolTableRecord
100
AcDbLinetypeTableRecord
  2
ByBlock
 70
     0
  3

 72
    65
 73
     0
 40
0.0
  0
LTYPE
  5
5C
330
5
100
AcDbSymbolTableRecord
100
AcDbLinetypeTableRecord
  2
ByLayer
 70
     0
  3

 72
    65
 73
     0
 40
0.0
  0
LTYPE
  5
5D
330
5
100
AcDbSymbolTableRecord
100
AcDbLinetypeTableRecord
  2
Continuous
 70
     0
  3
Solid line
 72
    65
 73
     0
 40
0.0
  0
ENDTAB
  0
TABLE
  2
LAYER
  5
2
330
0
100
AcDbSymbolTable
 70
     3
  0
LAYER
  5
54
330
2
100
AcDbSymbolTableRecord
100
AcDbLayerTableRecord
  2
0
 70
     0
 62
     7
  6
Continuous
370
    -3
390
F
347
21
  0
LAYER
  5
78
330
2
100
AcDbSymbolTableRecord
100
AcDbLayerTableRecord
  2
Livello 1
 70
     0
 62
     7
  6
Continuous
370
     0
390
F
347
21
  0
LAYER
  5
7D
330
2
100
AcDbSymbolTableRecord
100
AcDbLayerTableRecord
  2
Livello 2
 70
     0
 62
     7
  6
Continuous
370
     0
390
F
347
21
  0
ENDTAB
  0
TABLE
  2
STYLE
  5
3
330
0
100
AcDbSymbolTable
 70
     2
  0
STYLE
  5
55
330
3
100
AcDbSymbolTableRecord
100
AcDbTextStyleTableRecord
  2
Standard
 70
     0
 40
0.0
 41
1.0
 50
0.0
 71
     0
 42
0.2
  3
txt
  4

  0
STYLE
  5
5A
330
3
100
AcDbSymbolTableRecord
100
AcDbTextStyleTableRecord
  2
Annotative
 70
     0
 40
0.0
 41
1.0
 50
0.0
 71
     0
 42
0.2
  3
txt
  4

1001
AcadAnnotative
1000
AnnotativeData
1002
{
1070
     1
1070
     1
1002
}
  0
ENDTAB
  0
TABLE
  2
VIEW
  5
6
330
0
100
AcDbSymbolTable
 70
     0
  0
ENDTAB
  0
TABLE
  2
UCS
  5
7
330
0
100
AcDbSymbolTable
 70
     0
  0
ENDTAB
  0
TABLE
  2
APPID
  5
9
330
0
100
AcDbSymbolTable
 70
     5
  0
APPID
  5
56
330
9
100
AcDbSymbolTableRecord
100
AcDbRegAppTableRecord
  2
ACAD
 70
     0
  0
APPID
  5
5E
330
9
100
AcDbSymbolTableRecord
100
AcDbRegAppTableRecord
  2
AcadAnnotative
 70
     0
  0
APPID
  5
115
330
9
100
AcDbSymbolTableRecord
100
AcDbRegAppTableRecord
  2
ACAD_NAV_VCDISPLAY
 70
     0
  0
APPID
  5
122
330
9
100
AcDbSymbolTableRecord
100
AcDbRegAppTableRecord
  2
ACAD_EXEMPT_FROM_CAD_STANDARDS
 70
     0
  0
APPID
  5
163
330
9
100
AcDbSymbolTableRecord
100
AcDbRegAppTableRecord
  2
ACAD_MLEADERVER
 70
     0
  0
ENDTAB
  0
TABLE
  2
DIMSTYLE
  5
A
330
0
100
AcDbSymbolTable
 70
     2
100
AcDbDimStyleTable
 71
     0
  0
DIMSTYLE
105
58
330
A
100
AcDbSymbolTableRecord
100
AcDbDimStyleTableRecord
  2
Standard
 70
     0
340
55
  0
DIMSTYLE
105
59
330
A
100
AcDbSymbolTableRecord
100
AcDbDimStyleTableRecord
  2
Annotative
 70
     0
340
55
1001
AcadAnnotative
1000
AnnotativeData
1002
{
1070
     1
1070
     1
1002
}
  0
ENDTAB
  0
TABLE
  2
BLOCK_RECORD
  5
1
330
0
100
AcDbSymbolTable
 70
    13
  0
BLOCK_RECORD
  5
70
330
1
100
AcDbSymbolTableRecord
100
AcDbBlockTableRecord
  2
*Model_Space
340
73
 70
     0
280
     1
281
     0
  0
BLOCK_RECORD
  5
6C
330
1
100
AcDbSymbolTableRecord
100
AcDbBlockTableRecord
  2
*Paper_Space
340
6F
 70
     0
280
     1
281
     0
  0
BLOCK_RECORD
  5
74
330
1
100
AcDbSymbolTableRecord
100
AcDbBlockTableRecord
  2
*Paper_Space0
340
77
 70
     0
280
     1
281
     0
  0
BLOCK_RECORD
  5
83
330
1
100
AcDbSymbolTableRecord
100
AcDbBlockTableRecord
  2
Block_0
340
0
 70
     0
280
     1
281
     0
  0
BLOCK_RECORD
  5
87
330
1
100
AcDbSymbolTableRecord
100
AcDbBlockTableRecord
  2
Block_1
340
0
102
{BLKREFS
331
88
102
}
 70
     0
280
     1
281
     0
  0
BLOCK_RECORD
  5
97
330
1
100
AcDbSymbolTableRecord
100
AcDbBlockTableRecord
  2
Block_2
340
0
 70
     0
280
     1
281
     0
  0
BLOCK_RECORD
  5
9B
330
1
100
AcDbSymbolTableRecord
100
AcDbBlockTableRecord
  2
Block_3
340
0
102
{BLKREFS
331
9C
102
}
 70
     0
280
     1
281
     0
  0
BLOCK_RECORD
  5
AC
330
1
100
AcDbSymbolTableRecord
100
AcDbBlockTableRecord
  2
Block_4
340
0
 70
     0
280
     1
281
     0
  0
BLOCK_RECORD
  5
B0
330
1
100
AcDbSymbolTableRecord
100
AcDbBlockTableRecord
  2
Block_5
340
0
102
{BLKREFS
331
B1
102
}
 70
     0
280
     1
281
     0
  0
BLOCK_RECORD
  5
BE
330
1
100
AcDbSymbolTableRecord
100
AcDbBlockTableRecord
  2
Block_6
340
0
 70
     0
280
     1
281
     0
  0
BLOCK_RECORD
  5
C2
330
1
100
AcDbSymbolTableRecord
100
AcDbBlockTableRecord
  2
Block_7
340
0
102
{BLKREFS
331
C3
102
}
 70
     0
280
     1
281
     0
  0
ENDTAB
  0
ENDSEC
  0
SECTION
  2
BLOCKS
  0
BLOCK
  5
71
330
70
100
AcDbEntity
  8
0
100
AcDbBlockBegin
  2
*Model_Space
 70
     0
 10
0.0
 20
0.0
 30
0.0
  3
*Model_Space
  1

  0
ENDBLK
  5
72
330
70
100
AcDbEntity
  8
0
100
AcDbBlockEnd
  0
BLOCK
  5
6D
330
6C
100
AcDbEntity
 67
     1
  8
0
100
AcDbBlockBegin
  2
*Paper_Space
 70
     0
 10
0.0
 20
0.0
 30
0.0
  3
*Paper_Space
  1

  0
ENDBLK
  5
6E
330
6C
100
AcDbEntity
 67
     1
  8
0
100
AcDbBlockEnd
  0
BLOCK
  5
75
330
74
100
AcDbEntity
 67
     1
  8
0
100
AcDbBlockBegin
  2
*Paper_Space0
 70
     0
 10
0.0
 20
0.0
 30
0.0
  3
*Paper_Space0
  1

  0
ENDBLK
  5
76
330
74
100
AcDbEntity
 67
     1
  8
0
100
AcDbBlockEnd
  0
BLOCK
  5
85
330
83
100
AcDbEntity
  8
0
100
AcDbBlockBegin
  2
Block_0
 70
     0
 10
0.0
 20
0.0
 30
0.0
  3
Block_0
  1

  0
INSERT
  5
88
330
83
100
AcDbEntity
  8
Livello 2
100
AcDbBlockReference
  2
Block_1
 10
0.0
 20
0.0
 30
0.0
  0
ENDBLK
  5
86
330
83
100
AcDbEntity
  8
0
100
AcDbBlockEnd
  0
BLOCK
  5
89
330
87
100
AcDbEntity
  8
0
100
AcDbBlockBegin
  2
Block_1
 70
     0
 10
0.0
 20
0.0
 30
0.0
  3
Block_1
  1

  0
SPLINE
  5
8B
330
87
100
AcDbEntity
  8
Livello 2
100
AcDbSpline
210
0.0
220
0.0
230
1.0
 70
    11
 71
     3
 72
    50
 73
    46
 74
     0
 42
0.000000001
 43
0.0000000001
 40
0.0
 40
0.0
 40
0.0
 40
0.0
 40
1.0
 40
1.0
 40
1.0
 40
2.0
 40
2.0
 40
2.0
 40
3.0
 40
3.0
 40
3.0
 40
4.0
 40
4.0
 40
4.0
 40
5.0
 40
5.0
 40
5.0
 40
6.0
 40
6.0
 40
6.0
 40
7.0
 40
7.0
 40
7.0
 40
8.0
 40
8.0
 40
8.0
 40
9.0
 40
9.0
 40
9.0
 40
10.0
 40
10.0
 40
10.0
 40
11.0
 40
11.0
 40
11.0
 40
12.0
 40
12.0
 40
12.0
 40
13.0
 40
13.0
 40
13.0
 40
14.0
 40
14.0
 40
14.0
 40
15.0
 40
15.0
 40
15.0
 40
15.0
 10
4.597221542904512
 20
-9.053263072823488
 30
0.0
 10
4.597221542904512
 20
-9.053263072823488
 30
0.0
 10
4.492283934423802
 20
-9.053263072823488
 30
0.0
 10
4.492283934423802
 20
-9.053263072823488
 30
0.0
 10
4.492283934423802
 20
-9.053263072823488
 30
0.0
 10
4.481707491284086
 20
-9.123921981225961
 30
0.0
 10
4.481707491284086
 20
-9.123921981225961
 30
0.0
 10
4.488046466976945
 20
-9.12306070735465
 30
0.0
 10
4.493972031211574
 20
-9.122233884438193
 30
0.0
 10
4.504135062893061
 20
-9.122233884438193
 30
0.0
 10
4.525287949172496
 20
-9.122233884438193
 30
0.0
 10
4.546440835451931
 20
-9.126884763343277
 30
0.0
 10
4.563373479761933
 20
-9.137047795024763
 30
0.0
 10
4.584939777499597
 20
-9.149312334952254
 30
0.0
 10
4.602716470203485
 20
-9.173014591890773
 30
0.0
 10
4.602716470203485
 20
-9.207706703427239
 30
0.0
 10
4.602716470203485
 20
-9.261415742042283
 30
0.0
 10
4.559980060708961
 20
-9.301620006355149
 30
0.0
 10
4.50032823238186
 20
-9.301620006355149
 30
0.0
 10
4.470286999750483
 20
-9.301620006355149
 30
0.0
 10
4.444896646024191
 20
-9.293145071461433
 30
0.0
 10
4.431788057702815
 20
-9.284704587522572
 30
0.0
 10
4.431788057702815
 20
-9.284704587522572
 30
0.0
 10
4.441089815512991
 20
-9.256351451678966
 30
0.0
 10
4.441089815512991
 20
-9.256351451678966
 30
0.0
 10
4.452510307046593
 20
-9.263103838830057
 30
0.0
 10
4.474937878655571
 20
-9.271578773723774
 30
0.0
 10
4.499897595446205
 20
-9.271578773723774
 30
0.0
 10
4.535020343918326
 20
-9.271578773723774
 30
0.0
 10
4.565061576549705
 20
-9.248737790656564
 30
0.0
 10
4.565061576549705
 20
-9.211909719919244
 30
0.0
 10
4.564630939614048
 20
-9.17639078546632
 30
0.0
 10
4.540945908152957
 20
-9.151000431740024
 30
0.0
 10
4.485944958730943
 20
-9.151000431740024
 30
0.0
 10
4.470286999750483
 20
-9.151000431740024
 30
0.0
 10
4.458022459822993
 20
-9.152688528527797
 30
0.0
 10
4.447859428141506
 20
-9.153963213857339
 30
0.0
 10
4.447859428141506
 20
-9.153963213857339
 30
0.0
 10
4.465636120845394
 20
-9.021947154862568
 30
0.0
 10
4.465636120845394
 20
-9.021947154862568
 30
0.0
 10
4.465636120845394
 20
-9.021947154862568
 30
0.0
 10
4.597221542904512
 20
-9.021947154862568
 30
0.0
 10
4.597221542904512
 20
-9.021947154862568
 30
0.0
 10
4.597221542904512
 20
-9.021947154862568
 30
0.0
 10
4.597221542904512
 20
-9.053263072823488
 30
0.0
 10
4.597221542904512
 20
-9.053263072823488
 30
0.0
  0
HATCH
  5
8C
330
87
100
AcDbEntity
  8
Livello 2
 62
   250
420
  1907995
440
 33554687
100
AcDbHatch
 10
0.0
 20
0.0
 30
0.0
210
0.0
220
0.0
230
1.0
  2
SOLID
 70
     1
 71
     1
 91
        1
 92
        1
 93
        1
 72
     4
 94
        3
 73
     0
 74
     0
 95
       50
 96
       46
 40
0.0
 40
0.0
 40
0.0
 40
0.0
 40
1.0
 40
1.0
 40
1.0
 40
2.0
 40
2.0
 40
2.0
 40
3.0
 40
3.0
 40
3.0
 40
4.0
 40
4.0
 40
4.0
 40
5.0
 40
5.0
 40
5.0
 40
6.0
 40
6.0
 40
6.0
 40
7.0
 40
7.0
 40
7.0
 40
8.0
 40
8.0
 40
8.0
 40
9.0
 40
9.0
 40
9.0
 40
10.0
 40
10.0
 40
10.0
 40
11.0
 40
11.0
 40
11.0
 40
12.0
 40
12.0
 40
12.0
 40
13.0
 40
13.0
 40
13.0
 40
14.0
 40
14.0
 40
14.0
 40
15.0
 40
15.0
 40
15.0
 40
15.0
 10
4.597221542904512
 20
-9.053263072823488
 10
4.597221542904512
 20
-9.053263072823488
 10
4.492283934423802
 20
-9.053263072823488
 10
4.492283934423802
 20
-9.053263072823488
 10
4.492283934423802
 20
-9.053263072823488
 10
4.481707491284086
 20
-9.123921981225961
 10
4.481707491284086
 20
-9.123921981225961
 10
4.488046466976945
 20
-9.12306070735465
 10
4.493972031211574
 20
-9.122233884438193
 10
4.504135062893061
 20
-9.122233884438193
 10
4.525287949172496
 20
-9.122233884438193
 10
4.546440835451931
 20
-9.126884763343277
 10
4.563373479761933
 20
-9.137047795024763
 10
4.584939777499597
 20
-9.149312334952254
 10
4.602716470203485
 20
-9.173014591890773
 10
4.602716470203485
 20
-9.207706703427239
 10
4.602716470203485
 20
-9.261415742042283
 10
4.559980060708961
 20
-9.301620006355149
 10
4.50032823238186
 20
-9.301620006355149
 10
4.470286999750483
 20
-9.301620006355149
 10
4.444896646024191
 20
-9.293145071461433
 10
4.431788057702815
 20
-9.284704587522572
 10
4.431788057702815
 20
-9.284704587522572
 10
4.441089815512991
 20
-9.256351451678966
 10
4.441089815512991
 20
-9.256351451678966
 10
4.452510307046593
 20
-9.263103838830057
 10
4.474937878655571
 20
-9.271578773723774
 10
4.499897595446205
 20
-9.271578773723774
 10
4.535020343918326
 20
-9.271578773723774
 10
4.565061576549705
 20
-9.248737790656564
 10
4.565061576549705
 20
-9.211909719919244
 10
4.564630939614048
 20
-9.17639078546632
 10
4.540945908152957
 20
-9.151000431740024
 10
4.485944958730943
 20
-9.151000431740024
 10
4.470286999750483
 20
-9.151000431740024
 10
4.458022459822993
 20
-9.152688528527797
 10
4.447859428141506
 20
-9.153963213857339
 10
4.447859428141506
 20
-9.153963213857339
 10
4.465636120845394
 20
-9.021947154862568
 10
4.465636120845394
 20
-9.021947154862568
 10
4.465636120845394
 20
-9.021947154862568
 10
4.597221542904512
 20
-9.021947154862568
 10
4.597221542904512
 20
-9.021947154862568
 10
4.597221542904512
 20
-9.021947154862568
 10
4.597221542904512
 20
-9.053263072823488
 10
4.597221542904512
 20
-9.053263072823488
 97
        1
330
8B
 75
     2
 76
     1
 98
        1
 10
0.0
 20
0.0
450
        0
451
        0
460
0.0
461
0.0
452
        0
462
0.0
453
        0
470

  0
SPLINE
  5
8D
330
87
100
AcDbEntity
  8
Livello 2
100
AcDbSpline
210
0.0
220
0.0
230
1.0
 70
     9
 71
     3
 72
    17
 73
    13
 74
     0
 42
0.000000001
 43
0.0000000001
 40
0.0
 40
0.0
 40
0.0
 40
0.0
 40
1.0
 40
1.0
 40
1.0
 40
2.0
 40
2.0
 40
2.0
 40
3.0
 40
3.0
 40
3.0
 40
4.0
 40
4.0
 40
4.0
 40
4.0
 10
4.683641763152005
 20
-9.160715601008432
 30
0.0
 10
4.683641763152005
 20
-9.232235783282217
 30
0.0
 10
4.705638697825325
 20
-9.272853459053314
 30
0.0
 10
4.739486760967905
 20
-9.272853459053314
 30
0.0
 10
4.777572291557341
 20
-9.272853459053314
 30
0.0
 10
4.79576239571946
 20
-9.22841172729359
 30
0.0
 10
4.79576239571946
 20
-9.158200681304199
 30
0.0
 10
4.79576239571946
 20
-9.090504555019039
 30
0.0
 10
4.778416339951228
 20
-9.046062823259315
 30
0.0
 10
4.739917397903561
 20
-9.046062823259315
 30
0.0
 10
4.707326794613098
 20
-9.046062823259315
 30
0.0
 10
4.683641763152005
 20
-9.085853676113954
 30
0.0
 10
4.683641763152005
 20
-9.160715601008432
 30
0.0
  0
SPLINE
  5
8E
330
87
100
AcDbEntity
  8
Livello 2
100
AcDbSpline
210
0.0
220
0.0
230
1.0
 70
     9
 71
     3
 72
    17
 73
    13
 74
     0
 42
0.000000001
 43
0.0000000001
 40
0.0
 40
0.0
 40
0.0
 40
0.0
 40
1.0
 40
1.0
 40
1.0
 40
2.0
 40
2.0
 40
2.0
 40
3.0
 40
3.0
 40
3.0
 40
4.0
 40
4.0
 40
4.0
 40
4.0
 10
4.832986652437586
 20
-9.156512584516427
 30
0.0
 10
4.832986652437586
 20
-9.250012475986107
 30
0.0
 10
4.79829454090112
 20
-9.301620006355149
 30
0.0
 10
4.737368027244476
 20
-9.301620006355149
 30
0.0
 10
4.683641763152005
 20
-9.301620006355149
 30
0.0
 10
4.647244329350341
 20
-9.25128716131565
 30
0.0
 10
4.646400280956455
 20
-9.160302189550199
 30
0.0
 10
4.646400280956455
 20
-9.068076983410064
 30
0.0
 10
4.686173908333663
 20
-9.01729627595748
 30
0.0
 10
4.742018906149563
 20
-9.01729627595748
 30
0.0
 10
4.799982637688891
 20
-9.01729627595748
 30
0.0
 10
4.832986652437586
 20
-9.068903806326524
 30
0.0
 10
4.832986652437586
 20
-9.156512584516427
 30
0.0
  0
HATCH
  5
8F
330
87
100
AcDbEntity
  8
Livello 2
 62
   250
420
  1907995
440
 33554687
100
AcDbHatch
 10
0.0
 20
0.0
 30
0.0
210
0.0
220
0.0
230
1.0
  2
SOLID
 70
     1
 71
     1
 91
        2
 92
        1
 93
        1
 72
     4
 94
        3
 73
     0
 74
     0
 95
       17
 96
       13
 40
0.0
 40
0.0
 40
0.0
 40
0.0
 40
1.0
 40
1.0
 40
1.0
 40
2.0
 40
2.0
 40
2.0
 40
3.0
 40
3.0
 40
3.0
 40
4.0
 40
4.0
 40
4.0
 40
4.0
 10
4.683641763152005
 20
-9.160715601008432
 10
4.683641763152005
 20
-9.232235783282217
 10
4.705638697825325
 20
-9.272853459053314
 10
4.739486760967905
 20
-9.272853459053314
 10
4.777572291557341
 20
-9.272853459053314
 10
4.79576239571946
 20
-9.22841172729359
 10
4.79576239571946
 20
-9.158200681304199
 10
4.79576239571946
 20
-9.090504555019039
 10
4.778416339951228
 20
-9.046062823259315
 10
4.739917397903561
 20
-9.046062823259315
 10
4.707326794613098
 20
-9.046062823259315
 10
4.683641763152005
 20
-9.085853676113954
 10
4.683641763152005
 20
-9.160715601008432
 97
        1
330
8D
 92
        1
 93
        1
 72
     4
 94
        3
 73
     0
 74
     0
 95
       17
 96
       13
 40
0.0
 40
0.0
 40
0.0
 40
0.0
 40
1.0
 40
1.0
 40
1.0
 40
2.0
 40
2.0
 40
2.0
 40
3.0
 40
3.0
 40
3.0
 40
4.0
 40
4.0
 40
4.0
 40
4.0
 10
4.832986652437586
 20
-9.156512584516427
 10
4.832986652437586
 20
-9.250012475986107
 10
4.79829454090112
 20
-9.301620006355149
 10
4.737368027244476
 20
-9.301620006355149
 10
4.683641763152005
 20
-9.301620006355149
 10
4.647244329350341
 20
-9.25128716131565
 10
4.646400280956455
 20
-9.160302189550199
 10
4.646400280956455
 20
-9.068076983410064
 10
4.686173908333663
 20
-9.01729627595748
 10
4.742018906149563
 20
-9.01729627595748
 10
4.799982637688891
 20
-9.01729627595748
 10
4.832986652437586
 20
-9.068903806326524
 10
4.832986652437586
 20
-9.156512584516427
 97
        1
330
8E
 75
     2
 76
     1
 98
        1
 10
0.0
 20
0.0
450
        0
451
        0
460
0.0
461
0.0
452
        0
462
0.0
453
        0
470

  0
SPLINE
  5
90
330
87
100
AcDbEntity
  8
Livello 2
100
AcDbSpline
210
0.0
220
0.0
230
1.0
 70
     9
 71
     3
 72
    17
 73
    13
 74
     0
 42
0.000000001
 43
0.0000000001
 40
0.0
 40
0.0
 40
0.0
 40
0.0
 40
1.0
 40
1.0
 40
1.0
 40
2.0
 40
2.0
 40
2.0
 40
3.0
 40
3.0
 40
3.0
 40
4.0
 40
4.0
 40
4.0
 40
4.0
 10
4.900803357064728
 20
-9.160715601008432
 30
0.0
 10
4.900803357064728
 20
-9.232235783282217
 30
0.0
 10
4.922800291738048
 20
-9.272853459053314
 30
0.0
 10
4.956648354880629
 20
-9.272853459053314
 30
0.0
 10
4.994733885470066
 20
-9.272853459053314
 30
0.0
 10
5.012923989632183
 20
-9.22841172729359
 30
0.0
 10
5.012923989632183
 20
-9.158200681304199
 30
0.0
 10
5.012923989632183
 20
-9.090504555019039
 30
0.0
 10
4.995577933863952
 20
-9.046062823259315
 30
0.0
 10
4.957078991816285
 20
-9.046062823259315
 30
0.0
 10
4.924488388525822
 20
-9.046062823259315
 30
0.0
 10
4.900803357064728
 20
-9.085853676113954
 30
0.0
 10
4.900803357064728
 20
-9.160715601008432
 30
0.0
  0
SPLINE
  5
91
330
87
100
AcDbEntity
  8
Livello 2
100
AcDbSpline
210
0.0
220
0.0
230
1.0
 70
     9
 71
     3
 72
    17
 73
    13
 74
     0
 42
0.000000001
 43
0.0000000001
 40
0.0
 40
0.0
 40
0.0
 40
0.0
 40
1.0
 40
1.0
 40
1.0
 40
2.0
 40
2.0
 40
2.0
 40
3.0
 40
3.0
 40
3.0
 40
4.0
 40
4.0
 40
4.0
 40
4.0
 10
5.050165471827734
 20
-9.156512584516427
 30
0.0
 10
5.050165471827734
 20
-9.250012475986107
 30
0.0
 10
5.015456134813844
 20
-9.301620006355149
 30
0.0
 10
4.9545296211572
 20
-9.301620006355149
 30
0.0
 10
4.900803357064728
 20
-9.301620006355149
 30
0.0
 10
4.864405923263063
 20
-9.25128716131565
 30
0.0
 10
4.863561874869177
 20
-9.160302189550199
 30
0.0
 10
4.863561874869177
 20
-9.068076983410064
 30
0.0
 10
4.903335502246386
 20
-9.01729627595748
 30
0.0
 10
4.959180500062286
 20
-9.01729627595748
 30
0.0
 10
5.017144231601616
 20
-9.01729627595748
 30
0.0
 10
5.050165471827734
 20
-9.068903806326524
 30
0.0
 10
5.050165471827734
 20
-9.156512584516427
 30
0.0
  0
HATCH
  5
92
330
87
100
AcDbEntity
  8
Livello 2
 62
   250
420
  1907995
440
 33554687
100
AcDbHatch
 10
0.0
 20
0.0
 30
0.0
210
0.0
220
0.0
230
1.0
  2
SOLID
 70
     1
 71
     1
 91
        2
 92
        1
 93
        1
 72
     4
 94
        3
 73
     0
 74
     0
 95
       17
 96
       13
 40
0.0
 40
0.0
 40
0.0
 40
0.0
 40
1.0
 40
1.0
 40
1.0
 40
2.0
 40
2.0
 40
2.0
 40
3.0
 40
3.0
 40
3.0
 40
4.0
 40
4.0
 40
4.0
 40
4.0
 10
4.900803357064728
 20
-9.160715601008432
 10
4.900803357064728
 20
-9.232235783282217
 10
4.922800291738048
 20
-9.272853459053314
 10
4.956648354880629
 20
-9.272853459053314
 10
4.994733885470066
 20
-9.272853459053314
 10
5.012923989632183
 20
-9.22841172729359
 10
5.012923989632183
 20
-9.158200681304199
 10
5.012923989632183
 20
-9.090504555019039
 10
4.995577933863952
 20
-9.046062823259315
 10
4.957078991816285
 20
-9.046062823259315
 10
4.924488388525822
 20
-9.046062823259315
 10
4.900803357064728
 20
-9.085853676113954
 10
4.900803357064728
 20
-9.160715601008432
 97
        1
330
90
 92
        1
 93
        1
 72
     4
 94
        3
 73
     0
 74
     0
 95
       17
 96
       13
 40
0.0
 40
0.0
 40
0.0
 40
0.0
 40
1.0
 40
1.0
 40
1.0
 40
2.0
 40
2.0
 40
2.0
 40
3.0
 40
3.0
 40
3.0
 40
4.0
 40
4.0
 40
4.0
 40
4.0
 10
5.050165471827734
 20
-9.156512584516427
 10
5.050165471827734
 20
-9.250012475986107
 10
5.015456134813844
 20
-9.301620006355149
 10
4.9545296211572
 20
-9.301620006355149
 10
4.900803357064728
 20
-9.301620006355149
 10
4.864405923263063
 20
-9.25128716131565
 10
4.863561874869177
 20
-9.160302189550199
 10
4.863561874869177
 20
-9.068076983410064
 10
4.903335502246386
 20
-9.01729627595748
 10
4.959180500062286
 20
-9.01729627595748
 10
5.017144231601616
 20
-9.01729627595748
 10
5.050165471827734
 20
-9.068903806326524
 10
5.050165471827734
 20
-9.156512584516427
 97
        1
330
91
 75
     2
 76
     1
 98
        1
 10
0.0
 20
0.0
450
        0
451
        0
460
0.0
461
0.0
452
        0
462
0.0
453
        0
470

  0
SPLINE
  5
93
330
87
100
AcDbEntity
  8
Livello 2
100
AcDbSpline
210
0.0
220
0.0
230
1.0
 70
     9
 71
     3
 72
    80
 73
    76
 74
     0
 42
0.000000001
 43
0.0000000001
 40
0.0
 40
0.0
 40
0.0
 40
0.0
 40
1.0
 40
1.0
 40
1.0
 40
2.0
 40
2.0
 40
2.0
 40
3.0
 40
3.0
 40
3.0
 40
4.0
 40
4.0
 40
4.0
 40
5.0
 40
5.0
 40
5.0
 40
6.0
 40
6.0
 40
6.0
 40
7.0
 40
7.0
 40
7.0
 40
8.0
 40
8.0
 40
8.0
 40
9.0
 40
9.0
 40
9.0
 40
10.0
 40
10.0
 40
10.0
 40
11.0
 40
11.0
 40
11.0
 40
12.0
 40
12.0
 40
12.0
 40
13.0
 40
13.0
 40
13.0
 40
14.0
 40
14.0
 40
14.0
 40
15.0
 40
15.0
 40
15.0
 40
16.0
 40
16.0
 40
16.0
 40
17.0
 40
17.0
 40
17.0
 40
18.0
 40
18.0
 40
18.0
 40
19.0
 40
19.0
 40
19.0
 40
20.0
 40
20.0
 40
20.0
 40
21.0
 40
21.0
 40
21.0
 40
22.0
 40
22.0
 40
22.0
 40
23.0
 40
23.0
 40
23.0
 40
24.0
 40
24.0
 40
24.0
 40
25.0
 40
25.0
 40
25.0
 40
25.0
 10
5.186143390630545
 20
-9.147624238164482
 30
0.0
 10
5.186143390630545
 20
-9.126471351885047
 30
0.0
 10
5.185695528217464
 20
-9.109108070639386
 30
0.0
 10
5.184420842887921
 20
-9.092192651806811
 30
0.0
 10
5.184420842887921
 20
-9.092192651806811
 30
0.0
 10
5.217011446178386
 20
-9.092192651806811
 30
0.0
 10
5.217011446178386
 20
-9.092192651806811
 30
0.0
 10
5.217011446178386
 20
-9.092192651806811
 30
0.0
 10
5.218699542966158
 20
-9.125196666555503
 30
0.0
 10
5.218699542966158
 20
-9.125196666555503
 30
0.0
 10
5.218699542966158
 20
-9.125196666555503
 30
0.0
 10
5.2199742282957
 20
-9.125196666555503
 30
0.0
 10
5.2199742282957
 20
-9.125196666555503
 30
0.0
 10
5.23141194530673
 20
-9.105731877063844
 30
0.0
 10
5.250428872385308
 20
-9.087541772901724
 30
0.0
 10
5.284294161005313
 20
-9.087541772901724
 30
0.0
 10
5.312199434435838
 20
-9.087541772901724
 30
0.0
 10
5.33335232071527
 20
-9.104457191734301
 30
0.0
 10
5.342240667067216
 20
-9.12857286013105
 30
0.0
 10
5.342240667067216
 20
-9.12857286013105
 30
0.0
 10
5.343101940938527
 20
-9.12857286013105
 30
0.0
 10
5.343101940938527
 20
-9.12857286013105
 30
0.0
 10
5.349440916631387
 20
-9.11713514312002
 30
0.0
 10
5.357467989112021
 20
-9.108281247722926
 30
0.0
 10
5.365942924005736
 20
-9.101907821075217
 30
0.0
 10
5.378207463933224
 20
-9.092606063265042
 30
0.0
 10
5.391746689190256
 20
-9.087541772901724
 30
0.0
 10
5.411211478681918
 20
-9.087541772901724
 30
0.0
 10
5.43828992919598
 20
-9.087541772901724
 30
0.0
 10
5.478494193508847
 20
-9.105318465605613
 30
0.0
 10
5.478494193508847
 20
-9.17639078546632
 30
0.0
 10
5.478494193508847
 20
-9.17639078546632
 30
0.0
 10
5.478494193508847
 20
-9.29696912745006
 30
0.0
 10
5.478494193508847
 20
-9.29696912745006
 30
0.0
 10
5.478494193508847
 20
-9.29696912745006
 30
0.0
 10
5.44211398518461
 20
-9.29696912745006
 30
0.0
 10
5.44211398518461
 20
-9.29696912745006
 30
0.0
 10
5.44211398518461
 20
-9.29696912745006
 30
0.0
 10
5.44211398518461
 20
-9.181041664371406
 30
0.0
 10
5.44211398518461
 20
-9.181041664371406
 30
0.0
 10
5.44211398518461
 20
-9.14169867392985
 30
0.0
 10
5.427713486056264
 20
-9.117996416991331
 30
0.0
 10
5.397672253424886
 20
-9.117996416991331
 30
0.0
 10
5.376519367145452
 20
-9.117996416991331
 30
0.0
 10
5.360017359771106
 20
-9.133637150494367
 30
0.0
 10
5.353678384078246
 20
-9.15186170561134
 30
0.0
 10
5.351990287290472
 20
-9.156925995974656
 30
0.0
 10
5.35071560196093
 20
-9.163678383125748
 30
0.0
 10
5.35071560196093
 20
-9.170465221231687
 30
0.0
 10
5.35071560196093
 20
-9.170465221231687
 30
0.0
 10
5.35071560196093
 20
-9.29696912745006
 30
0.0
 10
5.35071560196093
 20
-9.29696912745006
 30
0.0
 10
5.35071560196093
 20
-9.29696912745006
 30
0.0
 10
5.314335393636693
 20
-9.29696912745006
 30
0.0
 10
5.314335393636693
 20
-9.29696912745006
 30
0.0
 10
5.314335393636693
 20
-9.29696912745006
 30
0.0
 10
5.314335393636693
 20
-9.174254826265462
 30
0.0
 10
5.314335393636693
 20
-9.174254826265462
 30
0.0
 10
5.314335393636693
 20
-9.14169867392985
 30
0.0
 10
5.299934894508348
 20
-9.117996416991331
 30
0.0
 10
5.271581758664741
 20
-9.117996416991331
 30
0.0
 10
5.248327364139306
 20
-9.117996416991331
 30
0.0
 10
5.23141194530673
 20
-9.13659993261168
 30
0.0
 10
5.2254863810721
 20
-9.155237899186882
 30
0.0
 10
5.223350421871244
 20
-9.160715601008432
 30
0.0
 10
5.222523598954785
 20
-9.167089027656142
 30
0.0
 10
5.222523598954785
 20
-9.173428003349004
 30
0.0
 10
5.222523598954785
 20
-9.173428003349004
 30
0.0
 10
5.222523598954785
 20
-9.29696912745006
 30
0.0
 10
5.222523598954785
 20
-9.29696912745006
 30
0.0
 10
5.222523598954785
 20
-9.29696912745006
 30
0.0
 10
5.186143390630545
 20
-9.29696912745006
 30
0.0
 10
5.186143390630545
 20
-9.29696912745006
 30
0.0
 10
5.186143390630545
 20
-9.29696912745006
 30
0.0
 10
5.186143390630545
 20
-9.147624238164482
 30
0.0
 10
5.186143390630545
 20
-9.147624238164482
 30
0.0
  0
HATCH
  5
94
330
87
100
AcDbEntity
  8
Livello 2
 62
   250
420
  1907995
440
 33554687
100
AcDbHatch
 10
0.0
 20
0.0
 30
0.0
210
0.0
220
0.0
230
1.0
  2
SOLID
 70
     1
 71
     1
 91
        1
 92
        1
 93
        1
 72
     4
 94
        3
 73
     0
 74
     0
 95
       80
 96
       76
 40
0.0
 40
0.0
 40
0.0
 40
0.0
 40
1.0
 40
1.0
 40
1.0
 40
2.0
 40
2.0
 40
2.0
 40
3.0
 40
3.0
 40
3.0
 40
4.0
 40
4.0
 40
4.0
 40
5.0
 40
5.0
 40
5.0
 40
6.0
 40
6.0
 40
6.0
 40
7.0
 40
7.0
 40
7.0
 40
8.0
 40
8.0
 40
8.0
 40
9.0
 40
9.0
 40
9.0
 40
10.0
 40
10.0
 40
10.0
 40
11.0
 40
11.0
 40
11.0
 40
12.0
 40
12.0
 40
12.0
 40
13.0
 40
13.0
 40
13.0
 40
14.0
 40
14.0
 40
14.0
 40
15.0
 40
15.0
 40
15.0
 40
16.0
 40
16.0
 40
16.0
 40
17.0
 40
17.0
 40
17.0
 40
18.0
 40
18.0
 40
18.0
 40
19.0
 40
19.0
 40
19.0
 40
20.0
 40
20.0
 40
20.0
 40
21.0
 40
21.0
 40
21.0
 40
22.0
 40
22.0
 40
22.0
 40
23.0
 40
23.0
 40
23.0
 40
24.0
 40
24.0
 40
24.0
 40
25.0
 40
25.0
 40
25.0
 40
25.0
 10
5.186143390630545
 20
-9.147624238164482
 10
5.186143390630545
 20
-9.126471351885047
 10
5.185695528217464
 20
-9.109108070639386
 10
5.184420842887921
 20
-9.092192651806811
 10
5.184420842887921
 20
-9.092192651806811
 10
5.217011446178386
 20
-9.092192651806811
 10
5.217011446178386
 20
-9.092192651806811
 10
5.217011446178386
 20
-9.092192651806811
 10
5.218699542966158
 20
-9.125196666555503
 10
5.218699542966158
 20
-9.125196666555503
 10
5.218699542966158
 20
-9.125196666555503
 10
5.2199742282957
 20
-9.125196666555503
 10
5.2199742282957
 20
-9.125196666555503
 10
5.23141194530673
 20
-9.105731877063844
 10
5.250428872385308
 20
-9.087541772901724
 10
5.284294161005313
 20
-9.087541772901724
 10
5.312199434435838
 20
-9.087541772901724
 10
5.33335232071527
 20
-9.104457191734301
 10
5.342240667067216
 20
-9.12857286013105
 10
5.342240667067216
 20
-9.12857286013105
 10
5.343101940938527
 20
-9.12857286013105
 10
5.343101940938527
 20
-9.12857286013105
 10
5.349440916631387
 20
-9.11713514312002
 10
5.357467989112021
 20
-9.108281247722926
 10
5.365942924005736
 20
-9.101907821075217
 10
5.378207463933224
 20
-9.092606063265042
 10
5.391746689190256
 20
-9.087541772901724
 10
5.411211478681918
 20
-9.087541772901724
 10
5.43828992919598
 20
-9.087541772901724
 10
5.478494193508847
 20
-9.105318465605613
 10
5.478494193508847
 20
-9.17639078546632
 10
5.478494193508847
 20
-9.17639078546632
 10
5.478494193508847
 20
-9.29696912745006
 10
5.478494193508847
 20
-9.29696912745006
 10
5.478494193508847
 20
-9.29696912745006
 10
5.44211398518461
 20
-9.29696912745006
 10
5.44211398518461
 20
-9.29696912745006
 10
5.44211398518461
 20
-9.29696912745006
 10
5.44211398518461
 20
-9.181041664371406
 10
5.44211398518461
 20
-9.181041664371406
 10
5.44211398518461
 20
-9.14169867392985
 10
5.427713486056264
 20
-9.117996416991331
 10
5.397672253424886
 20
-9.117996416991331
 10
5.376519367145452
 20
-9.117996416991331
 10
5.360017359771106
 20
-9.133637150494367
 10
5.353678384078246
 20
-9.15186170561134
 10
5.351990287290472
 20
-9.156925995974656
 10
5.35071560196093
 20
-9.163678383125748
 10
5.35071560196093
 20
-9.170465221231687
 10
5.35071560196093
 20
-9.170465221231687
 10
5.35071560196093
 20
-9.29696912745006
 10
5.35071560196093
 20
-9.29696912745006
 10
5.35071560196093
 20
-9.29696912745006
 10
5.314335393636693
 20
-9.29696912745006
 10
5.314335393636693
 20
-9.29696912745006
 10
5.314335393636693
 20
-9.29696912745006
 10
5.314335393636693
 20
-9.174254826265462
 10
5.314335393636693
 20
-9.174254826265462
 10
5.314335393636693
 20
-9.14169867392985
 10
5.299934894508348
 20
-9.117996416991331
 10
5.271581758664741
 20
-9.117996416991331
 10
5.248327364139306
 20
-9.117996416991331
 10
5.23141194530673
 20
-9.13659993261168
 10
5.2254863810721
 20
-9.155237899186882
 10
5.223350421871244
 20
-9.160715601008432
 10
5.222523598954785
 20
-9.167089027656142
 10
5.222523598954785
 20
-9.173428003349004
 10
5.222523598954785
 20
-9.173428003349004
 10
5.222523598954785
 20
-9.29696912745006
 10
5.222523598954785
 20
-9.29696912745006
 10
5.222523598954785
 20
-9.29696912745006
 10
5.186143390630545
 20
-9.29696912745006
 10
5.186143390630545
 20
-9.29696912745006
 10
5.186143390630545
 20
-9.29696912745006
 10
5.186143390630545
 20
-9.147624238164482
 10
5.186143390630545
 20
-9.147624238164482
 97
        1
330
93
 75
     2
 76
     1
 98
        1
 10
0.0
 20
0.0
450
        0
451
        0
460
0.0
461
0.0
452
        0
462
0.0
453
        0
470

  0
SPLINE
  5
95
330
87
100
AcDbEntity
  8
Livello 2
100
AcDbSpline
210
0.0
220
0.0
230
1.0
 70
     9
 71
     3
 72
    80
 73
    76
 74
     0
 42
0.000000001
 43
0.0000000001
 40
0.0
 40
0.0
 40
0.0
 40
0.0
 40
1.0
 40
1.0
 40
1.0
 40
2.0
 40
2.0
 40
2.0
 40
3.0
 40
3.0
 40
3.0
 40
4.0
 40
4.0
 40
4.0
 40
5.0
 40
5.0
 40
5.0
 40
6.0
 40
6.0
 40
6.0
 40
7.0
 40
7.0
 40
7.0
 40
8.0
 40
8.0
 40
8.0
 40
9.0
 40
9.0
 40
9.0
 40
10.0
 40
10.0
 40
10.0
 40
11.0
 40
11.0
 40
11.0
 40
12.0
 40
12.0
 40
12.0
 40
13.0
 40
13.0
 40
13.0
 40
14.0
 40
14.0
 40
14.0
 40
15.0
 40
15.0
 40
15.0
 40
16.0
 40
16.0
 40
16.0
 40
17.0
 40
17.0
 40
17.0
 40
18.0
 40
18.0
 40
18.0
 40
19.0
 40
19.0
 40
19.0
 40
20.0
 40
20.0
 40
20.0
 40
21.0
 40
21.0
 40
21.0
 40
22.0
 40
22.0
 40
22.0
 40
23.0
 40
23.0
 40
23.0
 40
24.0
 40
24.0
 40
24.0
 40
25.0
 40
25.0
 40
25.0
 40
25.0
 10
5.539196775958949
 20
-9.147624238164482
 30
0.0
 10
5.539196775958949
 20
-9.126471351885047
 30
0.0
 10
5.538748913545868
 20
-9.109108070639386
 30
0.0
 10
5.537474228216325
 20
-9.092192651806811
 30
0.0
 10
5.537474228216325
 20
-9.092192651806811
 30
0.0
 10
5.570064831506789
 20
-9.092192651806811
 30
0.0
 10
5.570064831506789
 20
-9.092192651806811
 30
0.0
 10
5.570064831506789
 20
-9.092192651806811
 30
0.0
 10
5.571752928294562
 20
-9.125196666555503
 30
0.0
 10
5.571752928294562
 20
-9.125196666555503
 30
0.0
 10
5.571752928294562
 20
-9.125196666555503
 30
0.0
 10
5.573027613624103
 20
-9.125196666555503
 30
0.0
 10
5.573027613624103
 20
-9.125196666555503
 30
0.0
 10
5.584465330635132
 20
-9.105731877063844
 30
0.0
 10
5.603482257713712
 20
-9.087541772901724
 30
0.0
 10
5.637347546333717
 20
-9.087541772901724
 30
0.0
 10
5.665252819764241
 20
-9.087541772901724
 30
0.0
 10
5.686405706043674
 20
-9.104457191734301
 30
0.0
 10
5.695294052395619
 20
-9.12857286013105
 30
0.0
 10
5.695294052395619
 20
-9.12857286013105
 30
0.0
 10
5.696155326266932
 20
-9.12857286013105
 30
0.0
 10
5.696155326266932
 20
-9.12857286013105
 30
0.0
 10
5.702494301959792
 20
-9.11713514312002
 30
0.0
 10
5.710521374440423
 20
-9.108281247722926
 30
0.0
 10
5.718996309334138
 20
-9.101907821075217
 30
0.0
 10
5.731260849261628
 20
-9.092606063265042
 30
0.0
 10
5.74480007451866
 20
-9.087541772901724
 30
0.0
 10
5.764264864010321
 20
-9.087541772901724
 30
0.0
 10
5.791343314524384
 20
-9.087541772901724
 30
0.0
 10
5.83154757883725
 20
-9.105318465605613
 30
0.0
 10
5.83154757883725
 20
-9.17639078546632
 30
0.0
 10
5.83154757883725
 20
-9.17639078546632
 30
0.0
 10
5.83154757883725
 20
-9.29696912745006
 30
0.0
 10
5.83154757883725
 20
-9.29696912745006
 30
0.0
 10
5.83154757883725
 20
-9.29696912745006
 30
0.0
 10
5.795167370513012
 20
-9.29696912745006
 30
0.0
 10
5.795167370513012
 20
-9.29696912745006
 30
0.0
 10
5.795167370513012
 20
-9.29696912745006
 30
0.0
 10
5.795167370513012
 20
-9.181041664371406
 30
0.0
 10
5.795167370513012
 20
-9.181041664371406
 30
0.0
 10
5.795167370513012
 20
-9.14169867392985
 30
0.0
 10
5.780766871384668
 20
-9.117996416991331
 30
0.0
 10
5.75072563875329
 20
-9.117996416991331
 30
0.0
 10
5.729572752473855
 20
-9.117996416991331
 30
0.0
 10
5.713070745099508
 20
-9.133637150494367
 30
0.0
 10
5.706731769406649
 20
-9.15186170561134
 30
0.0
 10
5.705043672618877
 20
-9.156925995974656
 30
0.0
 10
5.703768987289334
 20
-9.163678383125748
 30
0.0
 10
5.703768987289334
 20
-9.170465221231687
 30
0.0
 10
5.703768987289334
 20
-9.170465221231687
 30
0.0
 10
5.703768987289334
 20
-9.29696912745006
 30
0.0
 10
5.703768987289334
 20
-9.29696912745006
 30
0.0
 10
5.703768987289334
 20
-9.29696912745006
 30
0.0
 10
5.667388778965096
 20
-9.29696912745006
 30
0.0
 10
5.667388778965096
 20
-9.29696912745006
 30
0.0
 10
5.667388778965096
 20
-9.29696912745006
 30
0.0
 10
5.667388778965096
 20
-9.174254826265462
 30
0.0
 10
5.667388778965096
 20
-9.174254826265462
 30
0.0
 10
5.667388778965096
 20
-9.14169867392985
 30
0.0
 10
5.652988279836752
 20
-9.117996416991331
 30
0.0
 10
5.624635143993146
 20
-9.117996416991331
 30
0.0
 10
5.601380749467709
 20
-9.117996416991331
 30
0.0
 10
5.584465330635132
 20
-9.13659993261168
 30
0.0
 10
5.578539766400503
 20
-9.155237899186882
 30
0.0
 10
5.576403807199648
 20
-9.160715601008432
 30
0.0
 10
5.575576984283188
 20
-9.167089027656142
 30
0.0
 10
5.575576984283188
 20
-9.173428003349004
 30
0.0
 10
5.575576984283188
 20
-9.173428003349004
 30
0.0
 10
5.575576984283188
 20
-9.29696912745006
 30
0.0
 10
5.575576984283188
 20
-9.29696912745006
 30
0.0
 10
5.575576984283188
 20
-9.29696912745006
 30
0.0
 10
5.539196775958949
 20
-9.29696912745006
 30
0.0
 10
5.539196775958949
 20
-9.29696912745006
 30
0.0
 10
5.539196775958949
 20
-9.29696912745006
 30
0.0
 10
5.539196775958949
 20
-9.147624238164482
 30
0.0
 10
5.539196775958949
 20
-9.147624238164482
 30
0.0
  0
HATCH
  5
96
330
87
100
AcDbEntity
  8
Livello 2
 62
   250
420
  1907995
440
 33554687
100
AcDbHatch
 10
0.0
 20
0.0
 30
0.0
210
0.0
220
0.0
230
1.0
  2
SOLID
 70
     1
 71
     1
 91
        1
 92
        1
 93
        1
 72
     4
 94
        3
 73
     0
 74
     0
 95
       80
 96
       76
 40
0.0
 40
0.0
 40
0.0
 40
0.0
 40
1.0
 40
1.0
 40
1.0
 40
2.0
 40
2.0
 40
2.0
 40
3.0
 40
3.0
 40
3.0
 40
4.0
 40
4.0
 40
4.0
 40
5.0
 40
5.0
 40
5.0
 40
6.0
 40
6.0
 40
6.0
 40
7.0
 40
7.0
 40
7.0
 40
8.0
 40
8.0
 40
8.0
 40
9.0
 40
9.0
 40
9.0
 40
10.0
 40
10.0
 40
10.0
 40
11.0
 40
11.0
 40
11.0
 40
12.0
 40
12.0
 40
12.0
 40
13.0
 40
13.0
 40
13.0
 40
14.0
 40
14.0
 40
14.0
 40
15.0
 40
15.0
 40
15.0
 40
16.0
 40
16.0
 40
16.0
 40
17.0
 40
17.0
 40
17.0
 40
18.0
 40
18.0
 40
18.0
 40
19.0
 40
19.0
 40
19.0
 40
20.0
 40
20.0
 40
20.0
 40
21.0
 40
21.0
 40
21.0
 40
22.0
 40
22.0
 40
22.0
 40
23.0
 40
23.0
 40
23.0
 40
24.0
 40
24.0
 40
24.0
 40
25.0
 40
25.0
 40
25.0
 40
25.0
 10
5.539196775958949
 20
-9.147624238164482
 10
5.539196775958949
 20
-9.126471351885047
 10
5.538748913545868
 20
-9.109108070639386
 10
5.537474228216325
 20
-9.092192651806811
 10
5.537474228216325
 20
-9.092192651806811
 10
5.570064831506789
 20
-9.092192651806811
 10
5.570064831506789
 20
-9.092192651806811
 10
5.570064831506789
 20
-9.092192651806811
 10
5.571752928294562
 20
-9.125196666555503
 10
5.571752928294562
 20
-9.125196666555503
 10
5.571752928294562
 20
-9.125196666555503
 10
5.573027613624103
 20
-9.125196666555503
 10
5.573027613624103
 20
-9.125196666555503
 10
5.584465330635132
 20
-9.105731877063844
 10
5.603482257713712
 20
-9.087541772901724
 10
5.637347546333717
 20
-9.087541772901724
 10
5.665252819764241
 20
-9.087541772901724
 10
5.686405706043674
 20
-9.104457191734301
 10
5.695294052395619
 20
-9.12857286013105
 10
5.695294052395619
 20
-9.12857286013105
 10
5.696155326266932
 20
-9.12857286013105
 10
5.696155326266932
 20
-9.12857286013105
 10
5.702494301959792
 20
-9.11713514312002
 10
5.710521374440423
 20
-9.108281247722926
 10
5.718996309334138
 20
-9.101907821075217
 10
5.731260849261628
 20
-9.092606063265042
 10
5.74480007451866
 20
-9.087541772901724
 10
5.764264864010321
 20
-9.087541772901724
 10
5.791343314524384
 20
-9.087541772901724
 10
5.83154757883725
 20
-9.105318465605613
 10
5.83154757883725
 20
-9.17639078546632
 10
5.83154757883725
 20
-9.17639078546632
 10
5.83154757883725
 20
-9.29696912745006
 10
5.83154757883725
 20
-9.29696912745006
 10
5.83154757883725
 20
-9.29696912745006
 10
5.795167370513012
 20
-9.29696912745006
 10
5.795167370513012
 20
-9.29696912745006
 10
5.795167370513012
 20
-9.29696912745006
 10
5.795167370513012
 20
-9.181041664371406
 10
5.795167370513012
 20
-9.181041664371406
 10
5.795167370513012
 20
-9.14169867392985
 10
5.780766871384668
 20
-9.117996416991331
 10
5.75072563875329
 20
-9.117996416991331
 10
5.729572752473855
 20
-9.117996416991331
 10
5.713070745099508
 20
-9.133637150494367
 10
5.706731769406649
 20
-9.15186170561134
 10
5.705043672618877
 20
-9.156925995974656
 10
5.703768987289334
 20
-9.163678383125748
 10
5.703768987289334
 20
-9.170465221231687
 10
5.703768987289334
 20
-9.170465221231687
 10
5.703768987289334
 20
-9.29696912745006
 10
5.703768987289334
 20
-9.29696912745006
 10
5.703768987289334
 20
-9.29696912745006
 10
5.667388778965096
 20
-9.29696912745006
 10
5.667388778965096
 20
-9.29696912745006
 10
5.667388778965096
 20
-9.29696912745006
 10
5.667388778965096
 20
-9.174254826265462
 10
5.667388778965096
 20
-9.174254826265462
 10
5.667388778965096
 20
-9.14169867392985
 10
5.652988279836752
 20
-9.117996416991331
 10
5.624635143993146
 20
-9.117996416991331
 10
5.601380749467709
 20
-9.117996416991331
 10
5.584465330635132
 20
-9.13659993261168
 10
5.578539766400503
 20
-9.155237899186882
 10
5.576403807199648
 20
-9.160715601008432
 10
5.575576984283188
 20
-9.167089027656142
 10
5.575576984283188
 20
-9.173428003349004
 10
5.575576984283188
 20
-9.173428003349004
 10
5.575576984283188
 20
-9.29696912745006
 10
5.575576984283188
 20
-9.29696912745006
 10
5.575576984283188
 20
-9.29696912745006
 10
5.539196775958949
 20
-9.29696912745006
 10
5.539196775958949
 20
-9.29696912745006
 10
5.539196775958949
 20
-9.29696912745006
 10
5.539196775958949
 20
-9.147624238164482
 10
5.539196775958949
 20
-9.147624238164482
 97
        1
330
95
 75
     2
 76
     1
 98
        1
 10
0.0
 20
0.0
450
        0
451
        0
460
0.0
461
0.0
452
        0
462
0.0
453
        0
470

  0
ENDBLK
  5
8A
330
87
100
AcDbEntity
  8
0
100
AcDbBlockEnd
  0
BLOCK
  5
99
330
97
100
AcDbEntity
  8
0
100
AcDbBlockBegin
  2
Block_2
 70
     0
 10
0.0
 20
0.0
 30
0.0
  3
Block_2
  1

  0
INSERT
  5
9C
330
97
100
AcDbEntity
  8
Livello 2
100
AcDbBlockReference
  2
Block_3
 10
0.0
 20
0.0
 30
0.0
  0
ENDBLK
  5
9A
330
97
100
AcDbEntity
  8
0
100
AcDbBlockEnd
  0
BLOCK
  5
9D
330
9B
100
AcDbEntity
  8
0
100
AcDbBlockBegin
  2
Block_3
 70
     0
 10
0.0
 20
0.0
 30
0.0
  3
Block_3
  1

  0
SPLINE
  5
9F
330
9B
100
AcDbEntity
  8
Livello 2
100
AcDbSpline
210
0.0
220
0.0
230
1.0
 70
    11
 71
     3
 72
    47
 73
    43
 74
     0
 42
0.000000001
 43
0.0000000001
 40
0.0
 40
0.0
 40
0.0
 40
0.0
 40
1.0
 40
1.0
 40
1.0
 40
2.0
 40
2.0
 40
2.0
 40
3.0
 40
3.0
 40
3.0
 40
4.0
 40
4.0
 40
4.0
 40
5.0
 40
5.0
 40
5.0
 40
6.0
 40
6.0
 40
6.0
 40
7.0
 40
7.0
 40
7.0
 40
8.0
 40
8.0
 40
8.0
 40
9.0
 40
9.0
 40
9.0
 40
10.0
 40
10.0
 40
10.0
 40
11.0
 40
11.0
 40
11.0
 40
12.0
 40
12.0
 40
12.0
 40
13.0
 40
13.0
 40
13.0
 40
14.0
 40
14.0
 40
14.0
 40
14.0
 10
7.489740937797702
 20
-5.000004881562498
 30
0.0
 10
7.489740937797702
 20
-5.000004881562498
 30
0.0
 10
7.489740937797702
 20
-4.977163898495292
 30
0.0
 10
7.489740937797702
 20
-4.977163898495292
 30
0.0
 10
7.489740937797702
 20
-4.977163898495292
 30
0.0
 10
7.518920896557767
 20
-4.948810762651683
 30
0.0
 10
7.518920896557767
 20
-4.948810762651683
 30
0.0
 10
7.589166393502012
 20
-4.881975910237837
 30
0.0
 10
7.620895722921163
 20
-4.846422524830058
 30
0.0
 10
7.621309134379393
 20
-4.804943575187651
 30
0.0
 10
7.621309134379393
 20
-4.777038301757127
 30
0.0
 10
7.607769909122362
 20
-4.751234536572606
 30
0.0
 10
7.566738821893037
 20
-4.751234536572606
 30
0.0
 10
7.541796330579827
 20
-4.751234536572606
 30
0.0
 10
7.521056855758621
 20
-4.763912487958326
 30
0.0
 10
7.508344453418052
 20
-4.774488931098042
 30
0.0
 10
7.508344453418052
 20
-4.774488931098042
 30
0.0
 10
7.496493324948792
 20
-4.748271754455291
 30
0.0
 10
7.496493324948792
 20
-4.748271754455291
 30
0.0
 10
7.515544702982224
 20
-4.732183158539175
 30
0.0
 10
7.542623153496286
 20
-4.720332030069916
 30
0.0
 10
7.574352482915438
 20
-4.720332030069916
 30
0.0
 10
7.633608125261735
 20
-4.720332030069916
 30
0.0
 10
7.658550616574943
 20
-4.760949705841012
 30
0.0
 10
7.658550616574943
 20
-4.800292696282565
 30
0.0
 10
7.658550616574943
 20
-4.851073403735146
 30
0.0
 10
7.621756996792476
 20
-4.892104490964473
 30
0.0
 10
7.563776039775722
 20
-4.947949488780372
 30
0.0
 10
7.563776039775722
 20
-4.947949488780372
 30
0.0
 10
7.541796330579827
 20
-4.968275552143346
 30
0.0
 10
7.541796330579827
 20
-4.968275552143346
 30
0.0
 10
7.541796330579827
 20
-4.968275552143346
 30
0.0
 10
7.541796330579827
 20
-4.969102375059806
 30
0.0
 10
7.541796330579827
 20
-4.969102375059806
 30
0.0
 10
7.541796330579827
 20
-4.969102375059806
 30
0.0
 10
7.665337454680887
 20
-4.969102375059806
 30
0.0
 10
7.665337454680887
 20
-4.969102375059806
 30
0.0
 10
7.665337454680887
 20
-4.969102375059806
 30
0.0
 10
7.665337454680887
 20
-5.000004881562498
 30
0.0
 10
7.665337454680887
 20
-5.000004881562498
 30
0.0
 10
7.665337454680887
 20
-5.000004881562498
 30
0.0
 10
7.489740937797702
 20
-5.000004881562498
 30
0.0
 10
7.489740937797702
 20
-5.000004881562498
 30
0.0
  0
HATCH
  5
A0
330
9B
100
AcDbEntity
  8
Livello 2
 62
   250
420
  1907995
440
 33554687
100
AcDbHatch
 10
0.0
 20
0.0
 30
0.0
210
0.0
220
0.0
230
1.0
  2
SOLID
 70
     1
 71
     1
 91
        1
 92
        1
 93
        1
 72
     4
 94
        3
 73
     0
 74
     0
 95
       47
 96
       43
 40
0.0
 40
0.0
 40
0.0
 40
0.0
 40
1.0
 40
1.0
 40
1.0
 40
2.0
 40
2.0
 40
2.0
 40
3.0
 40
3.0
 40
3.0
 40
4.0
 40
4.0
 40
4.0
 40
5.0
 40
5.0
 40
5.0
 40
6.0
 40
6.0
 40
6.0
 40
7.0
 40
7.0
 40
7.0
 40
8.0
 40
8.0
 40
8.0
 40
9.0
 40
9.0
 40
9.0
 40
10.0
 40
10.0
 40
10.0
 40
11.0
 40
11.0
 40
11.0
 40
12.0
 40
12.0
 40
12.0
 40
13.0
 40
13.0
 40
13.0
 40
14.0
 40
14.0
 40
14.0
 40
14.0
 10
7.489740937797702
 20
-5.000004881562498
 10
7.489740937797702
 20
-5.000004881562498
 10
7.489740937797702
 20
-4.977163898495292
 10
7.489740937797702
 20
-4.977163898495292
 10
7.489740937797702
 20
-4.977163898495292
 10
7.518920896557767
 20
-4.948810762651683
 10
7.518920896557767
 20
-4.948810762651683
 10
7.589166393502012
 20
-4.881975910237837
 10
7.620895722921163
 20
-4.846422524830058
 10
7.621309134379393
 20
-4.804943575187651
 10
7.621309134379393
 20
-4.777038301757127
 10
7.607769909122362
 20
-4.751234536572606
 10
7.566738821893037
 20
-4.751234536572606
 10
7.541796330579827
 20
-4.751234536572606
 10
7.521056855758621
 20
-4.763912487958326
 10
7.508344453418052
 20
-4.774488931098042
 10
7.508344453418052
 20
-4.774488931098042
 10
7.496493324948792
 20
-4.748271754455291
 10
7.496493324948792
 20
-4.748271754455291
 10
7.515544702982224
 20
-4.732183158539175
 10
7.542623153496286
 20
-4.720332030069916
 10
7.574352482915438
 20
-4.720332030069916
 10
7.633608125261735
 20
-4.720332030069916
 10
7.658550616574943
 20
-4.760949705841012
 10
7.658550616574943
 20
-4.800292696282565
 10
7.658550616574943
 20
-4.851073403735146
 10
7.621756996792476
 20
-4.892104490964473
 10
7.563776039775722
 20
-4.947949488780372
 10
7.563776039775722
 20
-4.947949488780372
 10
7.541796330579827
 20
-4.968275552143346
 10
7.541796330579827
 20
-4.968275552143346
 10
7.541796330579827
 20
-4.968275552143346
 10
7.541796330579827
 20
-4.969102375059806
 10
7.541796330579827
 20
-4.969102375059806
 10
7.541796330579827
 20
-4.969102375059806
 10
7.665337454680887
 20
-4.969102375059806
 10
7.665337454680887
 20
-4.969102375059806
 10
7.665337454680887
 20
-4.969102375059806
 10
7.665337454680887
 20
-5.000004881562498
 10
7.665337454680887
 20
-5.000004881562498
 10
7.665337454680887
 20
-5.000004881562498
 10
7.489740937797702
 20
-5.000004881562498
 10
7.489740937797702
 20
-5.000004881562498
 97
        1
330
9F
 75
     2
 76
     1
 98
        1
 10
0.0
 20
0.0
450
        0
451
        0
460
0.0
461
0.0
452
        0
462
0.0
453
        0
470

  0
SPLINE
  5
A1
330
9B
100
AcDbEntity
  8
Livello 2
100
AcDbSpline
210
0.0
220
0.0
230
1.0
 70
     9
 71
     3
 72
    59
 73
    55
 74
     0
 42
0.000000001
 43
0.0000000001
 40
0.0
 40
0.0
 40
0.0
 40
0.0
 40
1.0
 40
1.0
 40
1.0
 40
2.0
 40
2.0
 40
2.0
 40
3.0
 40
3.0
 40
3.0
 40
4.0
 40
4.0
 40
4.0
 40
5.0
 40
5.0
 40
5.0
 40
6.0
 40
6.0
 40
6.0
 40
7.0
 40
7.0
 40
7.0
 40
8.0
 40
8.0
 40
8.0
 40
9.0
 40
9.0
 40
9.0
 40
10.0
 40
10.0
 40
10.0
 40
11.0
 40
11.0
 40
11.0
 40
12.0
 40
12.0
 40
12.0
 40
13.0
 40
13.0
 40
13.0
 40
14.0
 40
14.0
 40
14.0
 40
15.0
 40
15.0
 40
15.0
 40
16.0
 40
16.0
 40
16.0
 40
17.0
 40
17.0
 40
17.0
 40
18.0
 40
18.0
 40
18.0
 40
18.0
 10
7.715773652584943
 20
-4.957285697545399
 30
0.0
 10
7.726350095724662
 20
-4.96403808469649
 30
0.0
 10
7.750913626534491
 20
-4.974614527836207
 30
0.0
 10
7.776717391719013
 20
-4.974614527836207
 30
0.0
 10
7.824535317054282
 20
-4.974614527836207
 30
0.0
 10
7.839314776686004
 20
-4.944159883746597
 30
0.0
 10
7.838901365227773
 20
-4.921318900679391
 30
0.0
 10
7.838487953769543
 20
-4.882802733154298
 30
0.0
 10
7.803795842233077
 20
-4.866300725779952
 30
0.0
 10
7.767829045367068
 20
-4.866300725779952
 30
0.0
 10
7.767829045367068
 20
-4.866300725779952
 30
0.0
 10
7.747089570545865
 20
-4.866300725779952
 30
0.0
 10
7.747089570545865
 20
-4.866300725779952
 30
0.0
 10
7.747089570545865
 20
-4.866300725779952
 30
0.0
 10
7.747089570545865
 20
-4.838395452349428
 30
0.0
 10
7.747089570545865
 20
-4.838395452349428
 30
0.0
 10
7.747089570545865
 20
-4.838395452349428
 30
0.0
 10
7.767829045367068
 20
-4.838395452349428
 30
0.0
 10
7.767829045367068
 20
-4.838395452349428
 30
0.0
 10
7.794907495881132
 20
-4.838395452349428
 30
0.0
 10
7.829186195959368
 20
-4.824408364679313
 30
0.0
 10
7.829186195959368
 20
-4.791852212343703
 30
0.0
 10
7.829186195959368
 20
-4.769838052192956
 30
0.0
 10
7.815199108289254
 20
-4.750373262701295
 30
0.0
 10
7.780954859165872
 20
-4.750373262701295
 30
0.0
 10
7.758940699015124
 20
-4.750373262701295
 30
0.0
 10
7.737787812735691
 20
-4.760122882924552
 30
0.0
 10
7.72593668426643
 20
-4.768563366863413
 30
0.0
 10
7.72593668426643
 20
-4.768563366863413
 30
0.0
 10
7.716221514998027
 20
-4.741484916349349
 30
0.0
 10
7.716221514998027
 20
-4.741484916349349
 30
0.0
 10
7.730587563171519
 20
-4.730908473209632
 30
0.0
 10
7.758527287556894
 20
-4.720332030069916
 30
0.0
 10
7.78812065777519
 20
-4.720332030069916
 30
0.0
 10
7.842277558803318
 20
-4.720332030069916
 30
0.0
 10
7.86684108961315
 20
-4.752474770947296
 30
0.0
 10
7.86684108961315
 20
-4.785926648109072
 30
0.0
 10
7.86684108961315
 20
-4.814279783952678
 30
0.0
 10
7.849891219825719
 20
-4.838395452349428
 30
0.0
 10
7.816060382160567
 20
-4.850659992276916
 30
0.0
 10
7.816060382160567
 20
-4.850659992276916
 30
0.0
 10
7.816060382160567
 20
-4.851486815193378
 30
0.0
 10
7.816060382160567
 20
-4.851486815193378
 30
0.0
 10
7.849891219825719
 20
-4.85827365329932
 30
0.0
 10
7.877417532752867
 20
-4.883664007025611
 30
0.0
 10
7.877417532752867
 20
-4.922145723595851
 30
0.0
 10
7.877417532752867
 20
-4.966139592942492
 30
0.0
 10
7.843138832674631
 20
-5.004655760467584
 30
0.0
 10
7.777130803177244
 20
-5.004655760467584
 30
0.0
 10
7.746262747629406
 20
-5.004655760467584
 30
0.0
 10
7.719184297115342
 20
-4.994940591199179
 30
0.0
 10
7.705645071858309
 20
-4.986052244847236
 30
0.0
 10
7.705645071858309
 20
-4.986052244847236
 30
0.0
 10
7.715773652584943
 20
-4.957285697545399
 30
0.0
 10
7.715773652584943
 20
-4.957285697545399
 30
0.0
  0
HATCH
  5
A2
330
9B
100
AcDbEntity
  8
Livello 2
 62
   250
420
  1907995
440
 33554687
100
AcDbHatch
 10
0.0
 20
0.0
 30
0.0
210
0.0
220
0.0
230
1.0
  2
SOLID
 70
     1
 71
     1
 91
        1
 92
        1
 93
        1
 72
     4
 94
        3
 73
     0
 74
     0
 95
       59
 96
       55
 40
0.0
 40
0.0
 40
0.0
 40
0.0
 40
1.0
 40
1.0
 40
1.0
 40
2.0
 40
2.0
 40
2.0
 40
3.0
 40
3.0
 40
3.0
 40
4.0
 40
4.0
 40
4.0
 40
5.0
 40
5.0
 40
5.0
 40
6.0
 40
6.0
 40
6.0
 40
7.0
 40
7.0
 40
7.0
 40
8.0
 40
8.0
 40
8.0
 40
9.0
 40
9.0
 40
9.0
 40
10.0
 40
10.0
 40
10.0
 40
11.0
 40
11.0
 40
11.0
 40
12.0
 40
12.0
 40
12.0
 40
13.0
 40
13.0
 40
13.0
 40
14.0
 40
14.0
 40
14.0
 40
15.0
 40
15.0
 40
15.0
 40
16.0
 40
16.0
 40
16.0
 40
17.0
 40
17.0
 40
17.0
 40
18.0
 40
18.0
 40
18.0
 40
18.0
 10
7.715773652584943
 20
-4.957285697545399
 10
7.726350095724662
 20
-4.96403808469649
 10
7.750913626534491
 20
-4.974614527836207
 10
7.776717391719013
 20
-4.974614527836207
 10
7.824535317054282
 20
-4.974614527836207
 10
7.839314776686004
 20
-4.944159883746597
 10
7.838901365227773
 20
-4.921318900679391
 10
7.838487953769543
 20
-4.882802733154298
 10
7.803795842233077
 20
-4.866300725779952
 10
7.767829045367068
 20
-4.866300725779952
 10
7.767829045367068
 20
-4.866300725779952
 10
7.747089570545865
 20
-4.866300725779952
 10
7.747089570545865
 20
-4.866300725779952
 10
7.747089570545865
 20
-4.866300725779952
 10
7.747089570545865
 20
-4.838395452349428
 10
7.747089570545865
 20
-4.838395452349428
 10
7.747089570545865
 20
-4.838395452349428
 10
7.767829045367068
 20
-4.838395452349428
 10
7.767829045367068
 20
-4.838395452349428
 10
7.794907495881132
 20
-4.838395452349428
 10
7.829186195959368
 20
-4.824408364679313
 10
7.829186195959368
 20
-4.791852212343703
 10
7.829186195959368
 20
-4.769838052192956
 10
7.815199108289254
 20
-4.750373262701295
 10
7.780954859165872
 20
-4.750373262701295
 10
7.758940699015124
 20
-4.750373262701295
 10
7.737787812735691
 20
-4.760122882924552
 10
7.72593668426643
 20
-4.768563366863413
 10
7.72593668426643
 20
-4.768563366863413
 10
7.716221514998027
 20
-4.741484916349349
 10
7.716221514998027
 20
-4.741484916349349
 10
7.730587563171519
 20
-4.730908473209632
 10
7.758527287556894
 20
-4.720332030069916
 10
7.78812065777519
 20
-4.720332030069916
 10
7.842277558803318
 20
-4.720332030069916
 10
7.86684108961315
 20
-4.752474770947296
 10
7.86684108961315
 20
-4.785926648109072
 10
7.86684108961315
 20
-4.814279783952678
 10
7.849891219825719
 20
-4.838395452349428
 10
7.816060382160567
 20
-4.850659992276916
 10
7.816060382160567
 20
-4.850659992276916
 10
7.816060382160567
 20
-4.851486815193378
 10
7.816060382160567
 20
-4.851486815193378
 10
7.849891219825719
 20
-4.85827365329932
 10
7.877417532752867
 20
-4.883664007025611
 10
7.877417532752867
 20
-4.922145723595851
 10
7.877417532752867
 20
-4.966139592942492
 10
7.843138832674631
 20
-5.004655760467584
 10
7.777130803177244
 20
-5.004655760467584
 10
7.746262747629406
 20
-5.004655760467584
 10
7.719184297115342
 20
-4.994940591199179
 10
7.705645071858309
 20
-4.986052244847236
 10
7.705645071858309
 20
-4.986052244847236
 10
7.715773652584943
 20
-4.957285697545399
 10
7.715773652584943
 20
-4.957285697545399
 97
        1
330
A1
 75
     2
 76
     1
 98
        1
 10
0.0
 20
0.0
450
        0
451
        0
460
0.0
461
0.0
452
        0
462
0.0
453
        0
470

  0
SPLINE
  5
A3
330
9B
100
AcDbEntity
  8
Livello 2
100
AcDbSpline
210
0.0
220
0.0
230
1.0
 70
    11
 71
     3
 72
    47
 73
    43
 74
     0
 42
0.000000001
 43
0.0000000001
 40
0.0
 40
0.0
 40
0.0
 40
0.0
 40
1.0
 40
1.0
 40
1.0
 40
2.0
 40
2.0
 40
2.0
 40
3.0
 40
3.0
 40
3.0
 40
4.0
 40
4.0
 40
4.0
 40
5.0
 40
5.0
 40
5.0
 40
6.0
 40
6.0
 40
6.0
 40
7.0
 40
7.0
 40
7.0
 40
8.0
 40
8.0
 40
8.0
 40
9.0
 40
9.0
 40
9.0
 40
10.0
 40
10.0
 40
10.0
 40
11.0
 40
11.0
 40
11.0
 40
12.0
 40
12.0
 40
12.0
 40
13.0
 40
13.0
 40
13.0
 40
14.0
 40
14.0
 40
14.0
 40
14.0
 10
7.924064125623148
 20
-5.000004881562498
 30
0.0
 10
7.924064125623148
 20
-5.000004881562498
 30
0.0
 10
7.924064125623148
 20
-4.977163898495292
 30
0.0
 10
7.924064125623148
 20
-4.977163898495292
 30
0.0
 10
7.924064125623148
 20
-4.977163898495292
 30
0.0
 10
7.953244084383215
 20
-4.948810762651683
 30
0.0
 10
7.953244084383215
 20
-4.948810762651683
 30
0.0
 10
8.02348958132746
 20
-4.881975910237837
 30
0.0
 10
8.05521891074661
 20
-4.846422524830058
 30
0.0
 10
8.055632322204841
 20
-4.804943575187651
 30
0.0
 10
8.055632322204841
 20
-4.777038301757127
 30
0.0
 10
8.042093096947807
 20
-4.751234536572606
 30
0.0
 10
8.001062009718483
 20
-4.751234536572606
 30
0.0
 10
7.976119518405273
 20
-4.751234536572606
 30
0.0
 10
7.955380043584071
 20
-4.763912487958326
 30
0.0
 10
7.942667641243499
 20
-4.774488931098042
 30
0.0
 10
7.942667641243499
 20
-4.774488931098042
 30
0.0
 10
7.93081651277424
 20
-4.748271754455291
 30
0.0
 10
7.93081651277424
 20
-4.748271754455291
 30
0.0
 10
7.94986789080767
 20
-4.732183158539175
 30
0.0
 10
7.976946341321735
 20
-4.720332030069916
 30
0.0
 10
8.008675670740885
 20
-4.720332030069916
 30
0.0
 10
8.067931313087182
 20
-4.720332030069916
 30
0.0
 10
8.092873804400392
 20
-4.760949705841012
 30
0.0
 10
8.092873804400392
 20
-4.800292696282565
 30
0.0
 10
8.092873804400392
 20
-4.851073403735146
 30
0.0
 10
8.056080184617924
 20
-4.892104490964473
 30
0.0
 10
7.998099227601167
 20
-4.947949488780372
 30
0.0
 10
7.998099227601167
 20
-4.947949488780372
 30
0.0
 10
7.976119518405273
 20
-4.968275552143346
 30
0.0
 10
7.976119518405273
 20
-4.968275552143346
 30
0.0
 10
7.976119518405273
 20
-4.968275552143346
 30
0.0
 10
7.976119518405273
 20
-4.969102375059806
 30
0.0
 10
7.976119518405273
 20
-4.969102375059806
 30
0.0
 10
7.976119518405273
 20
-4.969102375059806
 30
0.0
 10
8.099660642506334
 20
-4.969102375059806
 30
0.0
 10
8.099660642506334
 20
-4.969102375059806
 30
0.0
 10
8.099660642506334
 20
-4.969102375059806
 30
0.0
 10
8.099660642506334
 20
-5.000004881562498
 30
0.0
 10
8.099660642506334
 20
-5.000004881562498
 30
0.0
 10
8.099660642506334
 20
-5.000004881562498
 30
0.0
 10
7.924064125623148
 20
-5.000004881562498
 30
0.0
 10
7.924064125623148
 20
-5.000004881562498
 30
0.0
  0
HATCH
  5
A4
330
9B
100
AcDbEntity
  8
Livello 2
 62
   250
420
  1907995
440
 33554687
100
AcDbHatch
 10
0.0
 20
0.0
 30
0.0
210
0.0
220
0.0
230
1.0
  2
SOLID
 70
     1
 71
     1
 91
        1
 92
        1
 93
        1
 72
     4
 94
        3
 73
     0
 74
     0
 95
       47
 96
       43
 40
0.0
 40
0.0
 40
0.0
 40
0.0
 40
1.0
 40
1.0
 40
1.0
 40
2.0
 40
2.0
 40
2.0
 40
3.0
 40
3.0
 40
3.0
 40
4.0
 40
4.0
 40
4.0
 40
5.0
 40
5.0
 40
5.0
 40
6.0
 40
6.0
 40
6.0
 40
7.0
 40
7.0
 40
7.0
 40
8.0
 40
8.0
 40
8.0
 40
9.0
 40
9.0
 40
9.0
 40
10.0
 40
10.0
 40
10.0
 40
11.0
 40
11.0
 40
11.0
 40
12.0
 40
12.0
 40
12.0
 40
13.0
 40
13.0
 40
13.0
 40
14.0
 40
14.0
 40
14.0
 40
14.0
 10
7.924064125623148
 20
-5.000004881562498
 10
7.924064125623148
 20
-5.000004881562498
 10
7.924064125623148
 20
-4.977163898495292
 10
7.924064125623148
 20
-4.977163898495292
 10
7.924064125623148
 20
-4.977163898495292
 10
7.953244084383215
 20
-4.948810762651683
 10
7.953244084383215
 20
-4.948810762651683
 10
8.02348958132746
 20
-4.881975910237837
 10
8.05521891074661
 20
-4.846422524830058
 10
8.055632322204841
 20
-4.804943575187651
 10
8.055632322204841
 20
-4.777038301757127
 10
8.042093096947807
 20
-4.751234536572606
 10
8.001062009718483
 20
-4.751234536572606
 10
7.976119518405273
 20
-4.751234536572606
 10
7.955380043584071
 20
-4.763912487958326
 10
7.942667641243499
 20
-4.774488931098042
 10
7.942667641243499
 20
-4.774488931098042
 10
7.93081651277424
 20
-4.748271754455291
 10
7.93081651277424
 20
-4.748271754455291
 10
7.94986789080767
 20
-4.732183158539175
 10
7.976946341321735
 20
-4.720332030069916
 10
8.008675670740885
 20
-4.720332030069916
 10
8.067931313087182
 20
-4.720332030069916
 10
8.092873804400392
 20
-4.760949705841012
 10
8.092873804400392
 20
-4.800292696282565
 10
8.092873804400392
 20
-4.851073403735146
 10
8.056080184617924
 20
-4.892104490964473
 10
7.998099227601167
 20
-4.947949488780372
 10
7.998099227601167
 20
-4.947949488780372
 10
7.976119518405273
 20
-4.968275552143346
 10
7.976119518405273
 20
-4.968275552143346
 10
7.976119518405273
 20
-4.968275552143346
 10
7.976119518405273
 20
-4.969102375059806
 10
7.976119518405273
 20
-4.969102375059806
 10
7.976119518405273
 20
-4.969102375059806
 10
8.099660642506334
 20
-4.969102375059806
 10
8.099660642506334
 20
-4.969102375059806
 10
8.099660642506334
 20
-4.969102375059806
 10
8.099660642506334
 20
-5.000004881562498
 10
8.099660642506334
 20
-5.000004881562498
 10
8.099660642506334
 20
-5.000004881562498
 10
7.924064125623148
 20
-5.000004881562498
 10
7.924064125623148
 20
-5.000004881562498
 97
        1
330
A3
 75
     2
 76
     1
 98
        1
 10
0.0
 20
0.0
450
        0
451
        0
460
0.0
461
0.0
452
        0
462
0.0
453
        0
470

  0
SPLINE
  5
A5
330
9B
100
AcDbEntity
  8
Livello 2
100
AcDbSpline
210
0.0
220
0.0
230
1.0
 70
     9
 71
     3
 72
    17
 73
    13
 74
     0
 42
0.000000001
 43
0.0000000001
 40
0.0
 40
0.0
 40
0.0
 40
0.0
 40
1.0
 40
1.0
 40
1.0
 40
2.0
 40
2.0
 40
2.0
 40
3.0
 40
3.0
 40
3.0
 40
4.0
 40
4.0
 40
4.0
 40
4.0
 10
8.174660371220221
 20
-4.863751355120866
 30
0.0
 10
8.174660371220221
 20
-4.935271537394653
 30
0.0
 10
8.196640080416116
 20
-4.975889213165749
 30
0.0
 10
8.230505369036123
 20
-4.975889213165749
 30
0.0
 10
8.268573674148134
 20
-4.975889213165749
 30
0.0
 10
8.286763778310252
 20
-4.931447481406026
 30
0.0
 10
8.286763778310252
 20
-4.861236435416635
 30
0.0
 10
8.286763778310252
 20
-4.793540309131476
 30
0.0
 10
8.269434948019446
 20
-4.749098577371753
 30
0.0
 10
8.230918780494352
 20
-4.749098577371753
 30
0.0
 10
8.198362628158742
 20
-4.749098577371753
 30
0.0
 10
8.174660371220221
 20
-4.788889430226388
 30
0.0
 10
8.174660371220221
 20
-4.863751355120866
 30
0.0
  0
SPLINE
  5
A6
330
9B
100
AcDbEntity
  8
Livello 2
100
AcDbSpline
210
0.0
220
0.0
230
1.0
 70
     9
 71
     3
 72
    17
 73
    13
 74
     0
 42
0.000000001
 43
0.0000000001
 40
0.0
 40
0.0
 40
0.0
 40
0.0
 40
1.0
 40
1.0
 40
1.0
 40
2.0
 40
2.0
 40
2.0
 40
3.0
 40
3.0
 40
3.0
 40
4.0
 40
4.0
 40
4.0
 40
4.0
 10
8.324005260505803
 20
-4.859548338628862
 30
0.0
 10
8.324005260505803
 20
-4.953048230098541
 30
0.0
 10
8.289313148969338
 20
-5.004655760467584
 30
0.0
 10
8.22840386079012
 20
-5.004655760467584
 30
0.0
 10
8.174660371220221
 20
-5.004655760467584
 30
0.0
 10
8.138280162895982
 20
-4.954322915428084
 30
0.0
 10
8.137418889024672
 20
-4.863337943662636
 30
0.0
 10
8.137418889024672
 20
-4.771112737522498
 30
0.0
 10
8.177209741879307
 20
-4.720332030069916
 30
0.0
 10
8.233054739695207
 20
-4.720332030069916
 30
0.0
 10
8.29100124575711
 20
-4.720332030069916
 30
0.0
 10
8.324005260505803
 20
-4.771939560438958
 30
0.0
 10
8.324005260505803
 20
-4.859548338628862
 30
0.0
  0
HATCH
  5
A7
330
9B
100
AcDbEntity
  8
Livello 2
 62
   250
420
  1907995
440
 33554687
100
AcDbHatch
 10
0.0
 20
0.0
 30
0.0
210
0.0
220
0.0
230
1.0
  2
SOLID
 70
     1
 71
     1
 91
        2
 92
        1
 93
        1
 72
     4
 94
        3
 73
     0
 74
     0
 95
       17
 96
       13
 40
0.0
 40
0.0
 40
0.0
 40
0.0
 40
1.0
 40
1.0
 40
1.0
 40
2.0
 40
2.0
 40
2.0
 40
3.0
 40
3.0
 40
3.0
 40
4.0
 40
4.0
 40
4.0
 40
4.0
 10
8.174660371220221
 20
-4.863751355120866
 10
8.174660371220221
 20
-4.935271537394653
 10
8.196640080416116
 20
-4.975889213165749
 10
8.230505369036123
 20
-4.975889213165749
 10
8.268573674148134
 20
-4.975889213165749
 10
8.286763778310252
 20
-4.931447481406026
 10
8.286763778310252
 20
-4.861236435416635
 10
8.286763778310252
 20
-4.793540309131476
 10
8.269434948019446
 20
-4.749098577371753
 10
8.230918780494352
 20
-4.749098577371753
 10
8.198362628158742
 20
-4.749098577371753
 10
8.174660371220221
 20
-4.788889430226388
 10
8.174660371220221
 20
-4.863751355120866
 97
        1
330
A5
 92
        1
 93
        1
 72
     4
 94
        3
 73
     0
 74
     0
 95
       17
 96
       13
 40
0.0
 40
0.0
 40
0.0
 40
0.0
 40
1.0
 40
1.0
 40
1.0
 40
2.0
 40
2.0
 40
2.0
 40
3.0
 40
3.0
 40
3.0
 40
4.0
 40
4.0
 40
4.0
 40
4.0
 10
8.324005260505803
 20
-4.859548338628862
 10
8.324005260505803
 20
-4.953048230098541
 10
8.289313148969338
 20
-5.004655760467584
 10
8.22840386079012
 20
-5.004655760467584
 10
8.174660371220221
 20
-5.004655760467584
 10
8.138280162895982
 20
-4.954322915428084
 10
8.137418889024672
 20
-4.863337943662636
 10
8.137418889024672
 20
-4.771112737522498
 10
8.177209741879307
 20
-4.720332030069916
 10
8.233054739695207
 20
-4.720332030069916
 10
8.29100124575711
 20
-4.720332030069916
 10
8.324005260505803
 20
-4.771939560438958
 10
8.324005260505803
 20
-4.859548338628862
 97
        1
330
A6
 75
     2
 76
     1
 98
        1
 10
0.0
 20
0.0
450
        0
451
        0
460
0.0
461
0.0
452
        0
462
0.0
453
        0
470

  0
SPLINE
  5
A8
330
9B
100
AcDbEntity
  8
Livello 2
100
AcDbSpline
210
0.0
220
0.0
230
1.0
 70
     9
 71
     3
 72
    80
 73
    76
 74
     0
 42
0.000000001
 43
0.0000000001
 40
0.0
 40
0.0
 40
0.0
 40
0.0
 40
1.0
 40
1.0
 40
1.0
 40
2.0
 40
2.0
 40
2.0
 40
3.0
 40
3.0
 40
3.0
 40
4.0
 40
4.0
 40
4.0
 40
5.0
 40
5.0
 40
5.0
 40
6.0
 40
6.0
 40
6.0
 40
7.0
 40
7.0
 40
7.0
 40
8.0
 40
8.0
 40
8.0
 40
9.0
 40
9.0
 40
9.0
 40
10.0
 40
10.0
 40
10.0
 40
11.0
 40
11.0
 40
11.0
 40
12.0
 40
12.0
 40
12.0
 40
13.0
 40
13.0
 40
13.0
 40
14.0
 40
14.0
 40
14.0
 40
15.0
 40
15.0
 40
15.0
 40
16.0
 40
16.0
 40
16.0
 40
17.0
 40
17.0
 40
17.0
 40
18.0
 40
18.0
 40
18.0
 40
19.0
 40
19.0
 40
19.0
 40
20.0
 40
20.0
 40
20.0
 40
21.0
 40
21.0
 40
21.0
 40
22.0
 40
22.0
 40
22.0
 40
23.0
 40
23.0
 40
23.0
 40
24.0
 40
24.0
 40
24.0
 40
25.0
 40
25.0
 40
25.0
 40
25.0
 10
8.460017630263465
 20
-4.850659992276916
 30
0.0
 10
8.460017630263465
 20
-4.829507105997483
 30
0.0
 10
8.459569767850384
 20
-4.812143824751824
 30
0.0
 10
8.458295082520843
 20
-4.795228405919248
 30
0.0
 10
8.458295082520843
 20
-4.795228405919248
 30
0.0
 10
8.490885685811305
 20
-4.795228405919248
 30
0.0
 10
8.490885685811305
 20
-4.795228405919248
 30
0.0
 10
8.490885685811305
 20
-4.795228405919248
 30
0.0
 10
8.492573782599079
 20
-4.828232420667941
 30
0.0
 10
8.492573782599079
 20
-4.828232420667941
 30
0.0
 10
8.492573782599079
 20
-4.828232420667941
 30
0.0
 10
8.49384846792862
 20
-4.828232420667941
 30
0.0
 10
8.49384846792862
 20
-4.828232420667941
 30
0.0
 10
8.505286184939647
 20
-4.808767631176278
 30
0.0
 10
8.524303112018229
 20
-4.790577527014161
 30
0.0
 10
8.558168400638235
 20
-4.790577527014161
 30
0.0
 10
8.586073674068757
 20
-4.790577527014161
 30
0.0
 10
8.607226560348191
 20
-4.807492945846736
 30
0.0
 10
8.616114906700136
 20
-4.831608614243486
 30
0.0
 10
8.616114906700136
 20
-4.831608614243486
 30
0.0
 10
8.61697618057145
 20
-4.831608614243486
 30
0.0
 10
8.61697618057145
 20
-4.831608614243486
 30
0.0
 10
8.623315156264308
 20
-4.820170897232456
 30
0.0
 10
8.631342228744941
 20
-4.811317001835363
 30
0.0
 10
8.639817163638655
 20
-4.804943575187651
 30
0.0
 10
8.652081703566143
 20
-4.795641817377478
 30
0.0
 10
8.665620928823177
 20
-4.790577527014161
 30
0.0
 10
8.685085718314837
 20
-4.790577527014161
 30
0.0
 10
8.712164168828902
 20
-4.790577527014161
 30
0.0
 10
8.752368433141768
 20
-4.808354219718048
 30
0.0
 10
8.752368433141768
 20
-4.879426539578752
 30
0.0
 10
8.752368433141768
 20
-4.879426539578752
 30
0.0
 10
8.752368433141768
 20
-5.000004881562498
 30
0.0
 10
8.752368433141768
 20
-5.000004881562498
 30
0.0
 10
8.752368433141768
 20
-5.000004881562498
 30
0.0
 10
8.715988224817529
 20
-5.000004881562498
 30
0.0
 10
8.715988224817529
 20
-5.000004881562498
 30
0.0
 10
8.715988224817529
 20
-5.000004881562498
 30
0.0
 10
8.715988224817529
 20
-4.88407741848384
 30
0.0
 10
8.715988224817529
 20
-4.88407741848384
 30
0.0
 10
8.715988224817529
 20
-4.844734428042287
 30
0.0
 10
8.701587725689185
 20
-4.821032171103768
 30
0.0
 10
8.671546493057807
 20
-4.821032171103768
 30
0.0
 10
8.650393606778372
 20
-4.821032171103768
 30
0.0
 10
8.633891599404027
 20
-4.836672904606802
 30
0.0
 10
8.627552623711165
 20
-4.854897459723773
 30
0.0
 10
8.625864526923393
 20
-4.859961750087092
 30
0.0
 10
8.624589841593852
 20
-4.866714137238181
 30
0.0
 10
8.624589841593852
 20
-4.873500975344123
 30
0.0
 10
8.624589841593852
 20
-4.873500975344123
 30
0.0
 10
8.624589841593852
 20
-5.000004881562498
 30
0.0
 10
8.624589841593852
 20
-5.000004881562498
 30
0.0
 10
8.624589841593852
 20
-5.000004881562498
 30
0.0
 10
8.588209633269613
 20
-5.000004881562498
 30
0.0
 10
8.588209633269613
 20
-5.000004881562498
 30
0.0
 10
8.588209633269613
 20
-5.000004881562498
 30
0.0
 10
8.588209633269613
 20
-4.877290580377898
 30
0.0
 10
8.588209633269613
 20
-4.877290580377898
 30
0.0
 10
8.588209633269613
 20
-4.844734428042287
 30
0.0
 10
8.573809134141269
 20
-4.821032171103768
 30
0.0
 10
8.545455998297661
 20
-4.821032171103768
 30
0.0
 10
8.522201603772224
 20
-4.821032171103768
 30
0.0
 10
8.505286184939647
 20
-4.839635686724117
 30
0.0
 10
8.499360620705019
 20
-4.85827365329932
 30
0.0
 10
8.497224661504166
 20
-4.863751355120866
 30
0.0
 10
8.496397838587704
 20
-4.870124781768579
 30
0.0
 10
8.496397838587704
 20
-4.876463757461437
 30
0.0
 10
8.496397838587704
 20
-4.876463757461437
 30
0.0
 10
8.496397838587704
 20
-5.000004881562498
 30
0.0
 10
8.496397838587704
 20
-5.000004881562498
 30
0.0
 10
8.496397838587704
 20
-5.000004881562498
 30
0.0
 10
8.460017630263465
 20
-5.000004881562498
 30
0.0
 10
8.460017630263465
 20
-5.000004881562498
 30
0.0
 10
8.460017630263465
 20
-5.000004881562498
 30
0.0
 10
8.460017630263465
 20
-4.850659992276916
 30
0.0
 10
8.460017630263465
 20
-4.850659992276916
 30
0.0
  0
HATCH
  5
A9
330
9B
100
AcDbEntity
  8
Livello 2
 62
   250
420
  1907995
440
 33554687
100
AcDbHatch
 10
0.0
 20
0.0
 30
0.0
210
0.0
220
0.0
230
1.0
  2
SOLID
 70
     1
 71
     1
 91
        1
 92
        1
 93
        1
 72
     4
 94
        3
 73
     0
 74
     0
 95
       80
 96
       76
 40
0.0
 40
0.0
 40
0.0
 40
0.0
 40
1.0
 40
1.0
 40
1.0
 40
2.0
 40
2.0
 40
2.0
 40
3.0
 40
3.0
 40
3.0
 40
4.0
 40
4.0
 40
4.0
 40
5.0
 40
5.0
 40
5.0
 40
6.0
 40
6.0
 40
6.0
 40
7.0
 40
7.0
 40
7.0
 40
8.0
 40
8.0
 40
8.0
 40
9.0
 40
9.0
 40
9.0
 40
10.0
 40
10.0
 40
10.0
 40
11.0
 40
11.0
 40
11.0
 40
12.0
 40
12.0
 40
12.0
 40
13.0
 40
13.0
 40
13.0
 40
14.0
 40
14.0
 40
14.0
 40
15.0
 40
15.0
 40
15.0
 40
16.0
 40
16.0
 40
16.0
 40
17.0
 40
17.0
 40
17.0
 40
18.0
 40
18.0
 40
18.0
 40
19.0
 40
19.0
 40
19.0
 40
20.0
 40
20.0
 40
20.0
 40
21.0
 40
21.0
 40
21.0
 40
22.0
 40
22.0
 40
22.0
 40
23.0
 40
23.0
 40
23.0
 40
24.0
 40
24.0
 40
24.0
 40
25.0
 40
25.0
 40
25.0
 40
25.0
 10
8.460017630263465
 20
-4.850659992276916
 10
8.460017630263465
 20
-4.829507105997483
 10
8.459569767850384
 20
-4.812143824751824
 10
8.458295082520843
 20
-4.795228405919248
 10
8.458295082520843
 20
-4.795228405919248
 10
8.490885685811305
 20
-4.795228405919248
 10
8.490885685811305
 20
-4.795228405919248
 10
8.490885685811305
 20
-4.795228405919248
 10
8.492573782599079
 20
-4.828232420667941
 10
8.492573782599079
 20
-4.828232420667941
 10
8.492573782599079
 20
-4.828232420667941
 10
8.49384846792862
 20
-4.828232420667941
 10
8.49384846792862
 20
-4.828232420667941
 10
8.505286184939647
 20
-4.808767631176278
 10
8.524303112018229
 20
-4.790577527014161
 10
8.558168400638235
 20
-4.790577527014161
 10
8.586073674068757
 20
-4.790577527014161
 10
8.607226560348191
 20
-4.807492945846736
 10
8.616114906700136
 20
-4.831608614243486
 10
8.616114906700136
 20
-4.831608614243486
 10
8.61697618057145
 20
-4.831608614243486
 10
8.61697618057145
 20
-4.831608614243486
 10
8.623315156264308
 20
-4.820170897232456
 10
8.631342228744941
 20
-4.811317001835363
 10
8.639817163638655
 20
-4.804943575187651
 10
8.652081703566143
 20
-4.795641817377478
 10
8.665620928823177
 20
-4.790577527014161
 10
8.685085718314837
 20
-4.790577527014161
 10
8.712164168828902
 20
-4.790577527014161
 10
8.752368433141768
 20
-4.808354219718048
 10
8.752368433141768
 20
-4.879426539578752
 10
8.752368433141768
 20
-4.879426539578752
 10
8.752368433141768
 20
-5.000004881562498
 10
8.752368433141768
 20
-5.000004881562498
 10
8.752368433141768
 20
-5.000004881562498
 10
8.715988224817529
 20
-5.000004881562498
 10
8.715988224817529
 20
-5.000004881562498
 10
8.715988224817529
 20
-5.000004881562498
 10
8.715988224817529
 20
-4.88407741848384
 10
8.715988224817529
 20
-4.88407741848384
 10
8.715988224817529
 20
-4.844734428042287
 10
8.701587725689185
 20
-4.821032171103768
 10
8.671546493057807
 20
-4.821032171103768
 10
8.650393606778372
 20
-4.821032171103768
 10
8.633891599404027
 20
-4.836672904606802
 10
8.627552623711165
 20
-4.854897459723773
 10
8.625864526923393
 20
-4.859961750087092
 10
8.624589841593852
 20
-4.866714137238181
 10
8.624589841593852
 20
-4.873500975344123
 10
8.624589841593852
 20
-4.873500975344123
 10
8.624589841593852
 20
-5.000004881562498
 10
8.624589841593852
 20
-5.000004881562498
 10
8.624589841593852
 20
-5.000004881562498
 10
8.588209633269613
 20
-5.000004881562498
 10
8.588209633269613
 20
-5.000004881562498
 10
8.588209633269613
 20
-5.000004881562498
 10
8.588209633269613
 20
-4.877290580377898
 10
8.588209633269613
 20
-4.877290580377898
 10
8.588209633269613
 20
-4.844734428042287
 10
8.573809134141269
 20
-4.821032171103768
 10
8.545455998297661
 20
-4.821032171103768
 10
8.522201603772224
 20
-4.821032171103768
 10
8.505286184939647
 20
-4.839635686724117
 10
8.499360620705019
 20
-4.85827365329932
 10
8.497224661504166
 20
-4.863751355120866
 10
8.496397838587704
 20
-4.870124781768579
 10
8.496397838587704
 20
-4.876463757461437
 10
8.496397838587704
 20
-4.876463757461437
 10
8.496397838587704
 20
-5.000004881562498
 10
8.496397838587704
 20
-5.000004881562498
 10
8.496397838587704
 20
-5.000004881562498
 10
8.460017630263465
 20
-5.000004881562498
 10
8.460017630263465
 20
-5.000004881562498
 10
8.460017630263465
 20
-5.000004881562498
 10
8.460017630263465
 20
-4.850659992276916
 10
8.460017630263465
 20
-4.850659992276916
 97
        1
330
A8
 75
     2
 76
     1
 98
        1
 10
0.0
 20
0.0
450
        0
451
        0
460
0.0
461
0.0
452
        0
462
0.0
453
        0
470

  0
SPLINE
  5
AA
330
9B
100
AcDbEntity
  8
Livello 2
100
AcDbSpline
210
0.0
220
0.0
230
1.0
 70
     9
 71
     3
 72
    80
 73
    76
 74
     0
 42
0.000000001
 43
0.0000000001
 40
0.0
 40
0.0
 40
0.0
 40
0.0
 40
1.0
 40
1.0
 40
1.0
 40
2.0
 40
2.0
 40
2.0
 40
3.0
 40
3.0
 40
3.0
 40
4.0
 40
4.0
 40
4.0
 40
5.0
 40
5.0
 40
5.0
 40
6.0
 40
6.0
 40
6.0
 40
7.0
 40
7.0
 40
7.0
 40
8.0
 40
8.0
 40
8.0
 40
9.0
 40
9.0
 40
9.0
 40
10.0
 40
10.0
 40
10.0
 40
11.0
 40
11.0
 40
11.0
 40
12.0
 40
12.0
 40
12.0
 40
13.0
 40
13.0
 40
13.0
 40
14.0
 40
14.0
 40
14.0
 40
15.0
 40
15.0
 40
15.0
 40
16.0
 40
16.0
 40
16.0
 40
17.0
 40
17.0
 40
17.0
 40
18.0
 40
18.0
 40
18.0
 40
19.0
 40
19.0
 40
19.0
 40
20.0
 40
20.0
 40
20.0
 40
21.0
 40
21.0
 40
21.0
 40
22.0
 40
22.0
 40
22.0
 40
23.0
 40
23.0
 40
23.0
 40
24.0
 40
24.0
 40
24.0
 40
25.0
 40
25.0
 40
25.0
 40
25.0
 10
8.813071015591869
 20
-4.850659992276916
 30
0.0
 10
8.813071015591869
 20
-4.829507105997483
 30
0.0
 10
8.812623153178787
 20
-4.812143824751824
 30
0.0
 10
8.811348467849246
 20
-4.795228405919248
 30
0.0
 10
8.811348467849246
 20
-4.795228405919248
 30
0.0
 10
8.843939071139708
 20
-4.795228405919248
 30
0.0
 10
8.843939071139708
 20
-4.795228405919248
 30
0.0
 10
8.843939071139708
 20
-4.795228405919248
 30
0.0
 10
8.845627167927482
 20
-4.828232420667941
 30
0.0
 10
8.845627167927482
 20
-4.828232420667941
 30
0.0
 10
8.845627167927482
 20
-4.828232420667941
 30
0.0
 10
8.846901853257023
 20
-4.828232420667941
 30
0.0
 10
8.846901853257023
 20
-4.828232420667941
 30
0.0
 10
8.858339570268055
 20
-4.808767631176278
 30
0.0
 10
8.877356497346632
 20
-4.790577527014161
 30
0.0
 10
8.911221785966636
 20
-4.790577527014161
 30
0.0
 10
8.939127059397161
 20
-4.790577527014161
 30
0.0
 10
8.960279945676596
 20
-4.807492945846736
 30
0.0
 10
8.969168292028539
 20
-4.831608614243486
 30
0.0
 10
8.969168292028539
 20
-4.831608614243486
 30
0.0
 10
8.970029565899851
 20
-4.831608614243486
 30
0.0
 10
8.970029565899851
 20
-4.831608614243486
 30
0.0
 10
8.976368541592712
 20
-4.820170897232456
 30
0.0
 10
8.984395614073342
 20
-4.811317001835363
 30
0.0
 10
8.99287054896706
 20
-4.804943575187651
 30
0.0
 10
9.005135088894547
 20
-4.795641817377478
 30
0.0
 10
9.01867431415158
 20
-4.790577527014161
 30
0.0
 10
9.038139103643242
 20
-4.790577527014161
 30
0.0
 10
9.065217554157305
 20
-4.790577527014161
 30
0.0
 10
9.105421818470171
 20
-4.808354219718048
 30
0.0
 10
9.105421818470171
 20
-4.879426539578752
 30
0.0
 10
9.105421818470171
 20
-4.879426539578752
 30
0.0
 10
9.105421818470171
 20
-5.000004881562498
 30
0.0
 10
9.105421818470171
 20
-5.000004881562498
 30
0.0
 10
9.105421818470171
 20
-5.000004881562498
 30
0.0
 10
9.069041610145934
 20
-5.000004881562498
 30
0.0
 10
9.069041610145934
 20
-5.000004881562498
 30
0.0
 10
9.069041610145934
 20
-5.000004881562498
 30
0.0
 10
9.069041610145934
 20
-4.88407741848384
 30
0.0
 10
9.069041610145934
 20
-4.88407741848384
 30
0.0
 10
9.069041610145934
 20
-4.844734428042287
 30
0.0
 10
9.054641111017588
 20
-4.821032171103768
 30
0.0
 10
9.024599878386212
 20
-4.821032171103768
 30
0.0
 10
9.003446992106775
 20
-4.821032171103768
 30
0.0
 10
8.98694498473243
 20
-4.836672904606802
 30
0.0
 10
8.98060600903957
 20
-4.854897459723773
 30
0.0
 10
8.978917912251796
 20
-4.859961750087092
 30
0.0
 10
8.977643226922255
 20
-4.866714137238181
 30
0.0
 10
8.977643226922255
 20
-4.873500975344123
 30
0.0
 10
8.977643226922255
 20
-4.873500975344123
 30
0.0
 10
8.977643226922255
 20
-5.000004881562498
 30
0.0
 10
8.977643226922255
 20
-5.000004881562498
 30
0.0
 10
8.977643226922255
 20
-5.000004881562498
 30
0.0
 10
8.941263018598014
 20
-5.000004881562498
 30
0.0
 10
8.941263018598014
 20
-5.000004881562498
 30
0.0
 10
8.941263018598014
 20
-5.000004881562498
 30
0.0
 10
8.941263018598014
 20
-4.877290580377898
 30
0.0
 10
8.941263018598014
 20
-4.877290580377898
 30
0.0
 10
8.941263018598014
 20
-4.844734428042287
 30
0.0
 10
8.926862519469672
 20
-4.821032171103768
 30
0.0
 10
8.898509383626066
 20
-4.821032171103768
 30
0.0
 10
8.87525498910063
 20
-4.821032171103768
 30
0.0
 10
8.858339570268055
 20
-4.839635686724117
 30
0.0
 10
8.852414006033422
 20
-4.85827365329932
 30
0.0
 10
8.850278046832569
 20
-4.863751355120866
 30
0.0
 10
8.849451223916107
 20
-4.870124781768579
 30
0.0
 10
8.849451223916107
 20
-4.876463757461437
 30
0.0
 10
8.849451223916107
 20
-4.876463757461437
 30
0.0
 10
8.849451223916107
 20
-5.000004881562498
 30
0.0
 10
8.849451223916107
 20
-5.000004881562498
 30
0.0
 10
8.849451223916107
 20
-5.000004881562498
 30
0.0
 10
8.813071015591869
 20
-5.000004881562498
 30
0.0
 10
8.813071015591869
 20
-5.000004881562498
 30
0.0
 10
8.813071015591869
 20
-5.000004881562498
 30
0.0
 10
8.813071015591869
 20
-4.850659992276916
 30
0.0
 10
8.813071015591869
 20
-4.850659992276916
 30
0.0
  0
HATCH
  5
AB
330
9B
100
AcDbEntity
  8
Livello 2
 62
   250
420
  1907995
440
 33554687
100
AcDbHatch
 10
0.0
 20
0.0
 30
0.0
210
0.0
220
0.0
230
1.0
  2
SOLID
 70
     1
 71
     1
 91
        1
 92
        1
 93
        1
 72
     4
 94
        3
 73
     0
 74
     0
 95
       80
 96
       76
 40
0.0
 40
0.0
 40
0.0
 40
0.0
 40
1.0
 40
1.0
 40
1.0
 40
2.0
 40
2.0
 40
2.0
 40
3.0
 40
3.0
 40
3.0
 40
4.0
 40
4.0
 40
4.0
 40
5.0
 40
5.0
 40
5.0
 40
6.0
 40
6.0
 40
6.0
 40
7.0
 40
7.0
 40
7.0
 40
8.0
 40
8.0
 40
8.0
 40
9.0
 40
9.0
 40
9.0
 40
10.0
 40
10.0
 40
10.0
 40
11.0
 40
11.0
 40
11.0
 40
12.0
 40
12.0
 40
12.0
 40
13.0
 40
13.0
 40
13.0
 40
14.0
 40
14.0
 40
14.0
 40
15.0
 40
15.0
 40
15.0
 40
16.0
 40
16.0
 40
16.0
 40
17.0
 40
17.0
 40
17.0
 40
18.0
 40
18.0
 40
18.0
 40
19.0
 40
19.0
 40
19.0
 40
20.0
 40
20.0
 40
20.0
 40
21.0
 40
21.0
 40
21.0
 40
22.0
 40
22.0
 40
22.0
 40
23.0
 40
23.0
 40
23.0
 40
24.0
 40
24.0
 40
24.0
 40
25.0
 40
25.0
 40
25.0
 40
25.0
 10
8.813071015591869
 20
-4.850659992276916
 10
8.813071015591869
 20
-4.829507105997483
 10
8.812623153178787
 20
-4.812143824751824
 10
8.811348467849246
 20
-4.795228405919248
 10
8.811348467849246
 20
-4.795228405919248
 10
8.843939071139708
 20
-4.795228405919248
 10
8.843939071139708
 20
-4.795228405919248
 10
8.843939071139708
 20
-4.795228405919248
 10
8.845627167927482
 20
-4.828232420667941
 10
8.845627167927482
 20
-4.828232420667941
 10
8.845627167927482
 20
-4.828232420667941
 10
8.846901853257023
 20
-4.828232420667941
 10
8.846901853257023
 20
-4.828232420667941
 10
8.858339570268055
 20
-4.808767631176278
 10
8.877356497346632
 20
-4.790577527014161
 10
8.911221785966636
 20
-4.790577527014161
 10
8.939127059397161
 20
-4.790577527014161
 10
8.960279945676596
 20
-4.807492945846736
 10
8.969168292028539
 20
-4.831608614243486
 10
8.969168292028539
 20
-4.831608614243486
 10
8.970029565899851
 20
-4.831608614243486
 10
8.970029565899851
 20
-4.831608614243486
 10
8.976368541592712
 20
-4.820170897232456
 10
8.984395614073342
 20
-4.811317001835363
 10
8.99287054896706
 20
-4.804943575187651
 10
9.005135088894547
 20
-4.795641817377478
 10
9.01867431415158
 20
-4.790577527014161
 10
9.038139103643242
 20
-4.790577527014161
 10
9.065217554157305
 20
-4.790577527014161
 10
9.105421818470171
 20
-4.808354219718048
 10
9.105421818470171
 20
-4.879426539578752
 10
9.105421818470171
 20
-4.879426539578752
 10
9.105421818470171
 20
-5.000004881562498
 10
9.105421818470171
 20
-5.000004881562498
 10
9.105421818470171
 20
-5.000004881562498
 10
9.069041610145934
 20
-5.000004881562498
 10
9.069041610145934
 20
-5.000004881562498
 10
9.069041610145934
 20
-5.000004881562498
 10
9.069041610145934
 20
-4.88407741848384
 10
9.069041610145934
 20
-4.88407741848384
 10
9.069041610145934
 20
-4.844734428042287
 10
9.054641111017588
 20
-4.821032171103768
 10
9.024599878386212
 20
-4.821032171103768
 10
9.003446992106775
 20
-4.821032171103768
 10
8.98694498473243
 20
-4.836672904606802
 10
8.98060600903957
 20
-4.854897459723773
 10
8.978917912251796
 20
-4.859961750087092
 10
8.977643226922255
 20
-4.866714137238181
 10
8.977643226922255
 20
-4.873500975344123
 10
8.977643226922255
 20
-4.873500975344123
 10
8.977643226922255
 20
-5.000004881562498
 10
8.977643226922255
 20
-5.000004881562498
 10
8.977643226922255
 20
-5.000004881562498
 10
8.941263018598014
 20
-5.000004881562498
 10
8.941263018598014
 20
-5.000004881562498
 10
8.941263018598014
 20
-5.000004881562498
 10
8.941263018598014
 20
-4.877290580377898
 10
8.941263018598014
 20
-4.877290580377898
 10
8.941263018598014
 20
-4.844734428042287
 10
8.926862519469672
 20
-4.821032171103768
 10
8.898509383626066
 20
-4.821032171103768
 10
8.87525498910063
 20
-4.821032171103768
 10
8.858339570268055
 20
-4.839635686724117
 10
8.852414006033422
 20
-4.85827365329932
 10
8.850278046832569
 20
-4.863751355120866
 10
8.849451223916107
 20
-4.870124781768579
 10
8.849451223916107
 20
-4.876463757461437
 10
8.849451223916107
 20
-4.876463757461437
 10
8.849451223916107
 20
-5.000004881562498
 10
8.849451223916107
 20
-5.000004881562498
 10
8.849451223916107
 20
-5.000004881562498
 10
8.813071015591869
 20
-5.000004881562498
 10
8.813071015591869
 20
-5.000004881562498
 10
8.813071015591869
 20
-5.000004881562498
 10
8.813071015591869
 20
-4.850659992276916
 10
8.813071015591869
 20
-4.850659992276916
 97
        1
330
AA
 75
     2
 76
     1
 98
        1
 10
0.0
 20
0.0
450
        0
451
        0
460
0.0
461
0.0
452
        0
462
0.0
453
        0
470

  0
ENDBLK
  5
9E
330
9B
100
AcDbEntity
  8
0
100
AcDbBlockEnd
  0
BLOCK
  5
AE
330
AC
100
AcDbEntity
  8
0
100
AcDbBlockBegin
  2
Block_4
 70
     0
 10
0.0
 20
0.0
 30
0.0
  3
Block_4
  1

  0
INSERT
  5
B1
330
AC
100
AcDbEntity
  8
Livello 2
100
AcDbBlockReference
  2
Block_5
 10
0.0
 20
0.0
 30
0.0
  0
ENDBLK
  5
AF
330
AC
100
AcDbEntity
  8
0
100
AcDbBlockEnd
  0
BLOCK
  5
B2
330
B0
100
AcDbEntity
  8
0
100
AcDbBlockBegin
  2
Block_5
 70
     0
 10
0.0
 20
0.0
 30
0.0
  3
Block_5
  1

  0
SPLINE
  5
B4
330
B0
100
AcDbEntity
  8
Livello 2
100
AcDbSpline
210
0.0
220
0.0
230
1.0
 70
     9
 71
     3
 72
    20
 73
    16
 74
     0
 42
0.000000001
 43
0.0000000001
 40
0.0
 40
0.0
 40
0.0
 40
0.0
 40
1.0
 40
1.0
 40
1.0
 40
2.0
 40
2.0
 40
2.0
 40
3.0
 40
3.0
 40
3.0
 40
4.0
 40
4.0
 40
4.0
 40
5.0
 40
5.0
 40
5.0
 40
5.0
 10
4.535037569395753
 20
-1.495171440598428
 30
0.0
 10
4.535037569395753
 20
-1.529450140676664
 30
0.0
 10
4.555777044216958
 20
-1.553565809073413
 30
0.0
 10
4.587919785094338
 20
-1.553565809073413
 30
0.0
 10
4.612879501884972
 20
-1.553565809073413
 30
0.0
 10
4.632344291376634
 20
-1.541301269145924
 30
0.0
 10
4.642076686122465
 20
-1.524799261771577
 30
0.0
 10
4.644195419845894
 20
-1.521423068196033
 30
0.0
 10
4.645470105175436
 20
-1.517185600749174
 30
0.0
 10
4.645470105175436
 20
-1.511260036514545
 30
0.0
 10
4.645470105175436
 20
-1.464303385050589
 30
0.0
 10
4.628124049407205
 20
-1.428336588184581
 30
0.0
 10
4.589194470423881
 20
-1.428336588184581
 30
0.0
 10
4.55746514100473
 20
-1.428336588184581
 30
0.0
 10
4.535037569395753
 20
-1.456241861615105
 30
0.0
 10
4.535037569395753
 20
-1.495171440598428
 30
0.0
  0
SPLINE
  5
B5
330
B0
100
AcDbEntity
  8
Livello 2
100
AcDbSpline
210
0.0
220
0.0
230
1.0
 70
     9
 71
     3
 72
    41
 73
    37
 74
     0
 42
0.000000001
 43
0.0000000001
 40
0.0
 40
0.0
 40
0.0
 40
0.0
 40
1.0
 40
1.0
 40
1.0
 40
2.0
 40
2.0
 40
2.0
 40
3.0
 40
3.0
 40
3.0
 40
4.0
 40
4.0
 40
4.0
 40
5.0
 40
5.0
 40
5.0
 40
6.0
 40
6.0
 40
6.0
 40
7.0
 40
7.0
 40
7.0
 40
8.0
 40
8.0
 40
8.0
 40
9.0
 40
9.0
 40
9.0
 40
10.0
 40
10.0
 40
10.0
 40
11.0
 40
11.0
 40
11.0
 40
12.0
 40
12.0
 40
12.0
 40
12.0
 10
4.521498344138722
 20
-1.653439127190805
 30
0.0
 10
4.52954264209678
 20
-1.654265950107266
 30
0.0
 10
4.538844399906955
 20
-1.653439127190805
 30
0.0
 10
4.551539576770101
 20
-1.652164441861264
 30
0.0
 10
4.573123099985191
 20
-1.649201659743948
 30
0.0
 10
4.593431937870738
 20
-1.640313313392003
 30
0.0
 10
4.609072671373771
 20
-1.625499402805429
 30
0.0
 10
4.627280001013318
 20
-1.608997395431083
 30
0.0
 10
4.640388589334693
 20
-1.584881727034334
 30
0.0
 10
4.645470105175436
 20
-1.55229112374387
 30
0.0
 10
4.645470105175436
 20
-1.55229112374387
 30
0.0
 10
4.644195419845894
 20
-1.55229112374387
 30
0.0
 10
4.644195419845894
 20
-1.55229112374387
 30
0.0
 10
4.628968097801091
 20
-1.570929090319073
 30
0.0
 10
4.606971163127769
 20
-1.581918944917019
 30
0.0
 10
4.579462075678049
 20
-1.581918944917019
 30
0.0
 10
4.529956053555009
 20
-1.581918944917019
 30
0.0
 10
4.498226724135858
 20
-1.544677462721469
 30
0.0
 10
4.498226724135858
 20
-1.497720811257513
 30
0.0
 10
4.498226724135858
 20
-1.445665418475388
 30
0.0
 10
4.535881617789639
 20
-1.399983452340975
 30
0.0
 10
4.592157252541196
 20
-1.399983452340975
 30
0.0
 10
4.648432887292751
 20
-1.399983452340975
 30
0.0
 10
4.683124998829217
 20
-1.445665418475388
 30
0.0
 10
4.683124998829217
 20
-1.515910915419633
 30
0.0
 10
4.683124998829217
 20
-1.57640679214062
 30
0.0
 10
4.662816160943669
 20
-1.618712564699487
 30
0.0
 10
4.635737710429606
 20
-1.644964192297091
 30
0.0
 10
4.614584824150171
 20
-1.665703667118296
 30
0.0
 10
4.58538763991268
 20
-1.678381618504015
 30
0.0
 10
4.555777044216958
 20
-1.68175781207956
 30
0.0
 10
4.542237818959925
 20
-1.683893771280414
 30
0.0
 10
4.530386690490666
 20
-1.684307182738645
 30
0.0
 10
4.521498344138722
 20
-1.683893771280414
 30
0.0
 10
4.521498344138722
 20
-1.683893771280414
 30
0.0
 10
4.521498344138722
 20
-1.653439127190805
 30
0.0
 10
4.521498344138722
 20
-1.653439127190805
 30
0.0
  0
HATCH
  5
B6
330
B0
100
AcDbEntity
  8
Livello 2
 62
   250
420
  1907995
440
 33554687
100
AcDbHatch
 10
0.0
 20
0.0
 30
0.0
210
0.0
220
0.0
230
1.0
  2
SOLID
 70
     1
 71
     1
 91
        2
 92
        1
 93
        1
 72
     4
 94
        3
 73
     0
 74
     0
 95
       20
 96
       16
 40
0.0
 40
0.0
 40
0.0
 40
0.0
 40
1.0
 40
1.0
 40
1.0
 40
2.0
 40
2.0
 40
2.0
 40
3.0
 40
3.0
 40
3.0
 40
4.0
 40
4.0
 40
4.0
 40
5.0
 40
5.0
 40
5.0
 40
5.0
 10
4.535037569395753
 20
-1.495171440598428
 10
4.535037569395753
 20
-1.529450140676664
 10
4.555777044216958
 20
-1.553565809073413
 10
4.587919785094338
 20
-1.553565809073413
 10
4.612879501884972
 20
-1.553565809073413
 10
4.632344291376634
 20
-1.541301269145924
 10
4.642076686122465
 20
-1.524799261771577
 10
4.644195419845894
 20
-1.521423068196033
 10
4.645470105175436
 20
-1.517185600749174
 10
4.645470105175436
 20
-1.511260036514545
 10
4.645470105175436
 20
-1.464303385050589
 10
4.628124049407205
 20
-1.428336588184581
 10
4.589194470423881
 20
-1.428336588184581
 10
4.55746514100473
 20
-1.428336588184581
 10
4.535037569395753
 20
-1.456241861615105
 10
4.535037569395753
 20
-1.495171440598428
 97
        1
330
B4
 92
        1
 93
        1
 72
     4
 94
        3
 73
     0
 74
     0
 95
       41
 96
       37
 40
0.0
 40
0.0
 40
0.0
 40
0.0
 40
1.0
 40
1.0
 40
1.0
 40
2.0
 40
2.0
 40
2.0
 40
3.0
 40
3.0
 40
3.0
 40
4.0
 40
4.0
 40
4.0
 40
5.0
 40
5.0
 40
5.0
 40
6.0
 40
6.0
 40
6.0
 40
7.0
 40
7.0
 40
7.0
 40
8.0
 40
8.0
 40
8.0
 40
9.0
 40
9.0
 40
9.0
 40
10.0
 40
10.0
 40
10.0
 40
11.0
 40
11.0
 40
11.0
 40
12.0
 40
12.0
 40
12.0
 40
12.0
 10
4.521498344138722
 20
-1.653439127190805
 10
4.52954264209678
 20
-1.654265950107266
 10
4.538844399906955
 20
-1.653439127190805
 10
4.551539576770101
 20
-1.652164441861264
 10
4.573123099985191
 20
-1.649201659743948
 10
4.593431937870738
 20
-1.640313313392003
 10
4.609072671373771
 20
-1.625499402805429
 10
4.627280001013318
 20
-1.608997395431083
 10
4.640388589334693
 20
-1.584881727034334
 10
4.645470105175436
 20
-1.55229112374387
 10
4.645470105175436
 20
-1.55229112374387
 10
4.644195419845894
 20
-1.55229112374387
 10
4.644195419845894
 20
-1.55229112374387
 10
4.628968097801091
 20
-1.570929090319073
 10
4.606971163127769
 20
-1.581918944917019
 10
4.579462075678049
 20
-1.581918944917019
 10
4.529956053555009
 20
-1.581918944917019
 10
4.498226724135858
 20
-1.544677462721469
 10
4.498226724135858
 20
-1.497720811257513
 10
4.498226724135858
 20
-1.445665418475388
 10
4.535881617789639
 20
-1.399983452340975
 10
4.592157252541196
 20
-1.399983452340975
 10
4.648432887292751
 20
-1.399983452340975
 10
4.683124998829217
 20
-1.445665418475388
 10
4.683124998829217
 20
-1.515910915419633
 10
4.683124998829217
 20
-1.57640679214062
 10
4.662816160943669
 20
-1.618712564699487
 10
4.635737710429606
 20
-1.644964192297091
 10
4.614584824150171
 20
-1.665703667118296
 10
4.58538763991268
 20
-1.678381618504015
 10
4.555777044216958
 20
-1.68175781207956
 10
4.542237818959925
 20
-1.683893771280414
 10
4.530386690490666
 20
-1.684307182738645
 10
4.521498344138722
 20
-1.683893771280414
 10
4.521498344138722
 20
-1.683893771280414
 10
4.521498344138722
 20
-1.653439127190805
 10
4.521498344138722
 20
-1.653439127190805
 97
        1
330
B5
 75
     2
 76
     1
 98
        1
 10
0.0
 20
0.0
450
        0
451
        0
460
0.0
461
0.0
452
        0
462
0.0
453
        0
470

  0
SPLINE
  5
B7
330
B0
100
AcDbEntity
  8
Livello 2
100
AcDbSpline
210
0.0
220
0.0
230
1.0
 70
     9
 71
     3
 72
    17
 73
    13
 74
     0
 42
0.000000001
 43
0.0000000001
 40
0.0
 40
0.0
 40
0.0
 40
0.0
 40
1.0
 40
1.0
 40
1.0
 40
2.0
 40
2.0
 40
2.0
 40
3.0
 40
3.0
 40
3.0
 40
4.0
 40
4.0
 40
4.0
 40
4.0
 10
4.750511066520703
 20
-1.543402777391926
 30
0.0
 10
4.750511066520703
 20
-1.614922959665713
 30
0.0
 10
4.772508001194025
 20
-1.655540635436809
 30
0.0
 10
4.806356064336605
 20
-1.655540635436809
 30
0.0
 10
4.844441594926041
 20
-1.655540635436809
 30
0.0
 10
4.862631699088161
 20
-1.611098903677086
 30
0.0
 10
4.862631699088161
 20
-1.540887857687694
 30
0.0
 10
4.862631699088161
 20
-1.473191731402534
 30
0.0
 10
4.845285643319927
 20
-1.428749999642811
 30
0.0
 10
4.806786701272261
 20
-1.428749999642811
 30
0.0
 10
4.774196097981796
 20
-1.428749999642811
 30
0.0
 10
4.750511066520703
 20
-1.468540852497446
 30
0.0
 10
4.750511066520703
 20
-1.543402777391926
 30
0.0
  0
SPLINE
  5
B8
330
B0
100
AcDbEntity
  8
Livello 2
100
AcDbSpline
210
0.0
220
0.0
230
1.0
 70
     9
 71
     3
 72
    17
 73
    13
 74
     0
 42
0.000000001
 43
0.0000000001
 40
0.0
 40
0.0
 40
0.0
 40
0.0
 40
1.0
 40
1.0
 40
1.0
 40
2.0
 40
2.0
 40
2.0
 40
3.0
 40
3.0
 40
3.0
 40
4.0
 40
4.0
 40
4.0
 40
4.0
 10
4.899855955806285
 20
-1.539199760899921
 30
0.0
 10
4.899855955806285
 20
-1.632699652369601
 30
0.0
 10
4.86516384426982
 20
-1.684307182738645
 30
0.0
 10
4.804237330613175
 20
-1.684307182738645
 30
0.0
 10
4.750511066520703
 20
-1.684307182738645
 30
0.0
 10
4.71411363271904
 20
-1.633974337699145
 30
0.0
 10
4.713269584325153
 20
-1.542989365933696
 30
0.0
 10
4.713269584325153
 20
-1.450764159793558
 30
0.0
 10
4.753043211702363
 20
-1.399983452340975
 30
0.0
 10
4.808888209518262
 20
-1.399983452340975
 30
0.0
 10
4.866851941057592
 20
-1.399983452340975
 30
0.0
 10
4.899855955806285
 20
-1.451590982710018
 30
0.0
 10
4.899855955806285
 20
-1.539199760899921
 30
0.0
  0
HATCH
  5
B9
330
B0
100
AcDbEntity
  8
Livello 2
 62
   250
420
  1907995
440
 33554687
100
AcDbHatch
 10
0.0
 20
0.0
 30
0.0
210
0.0
220
0.0
230
1.0
  2
SOLID
 70
     1
 71
     1
 91
        2
 92
        1
 93
        1
 72
     4
 94
        3
 73
     0
 74
     0
 95
       17
 96
       13
 40
0.0
 40
0.0
 40
0.0
 40
0.0
 40
1.0
 40
1.0
 40
1.0
 40
2.0
 40
2.0
 40
2.0
 40
3.0
 40
3.0
 40
3.0
 40
4.0
 40
4.0
 40
4.0
 40
4.0
 10
4.750511066520703
 20
-1.543402777391926
 10
4.750511066520703
 20
-1.614922959665713
 10
4.772508001194025
 20
-1.655540635436809
 10
4.806356064336605
 20
-1.655540635436809
 10
4.844441594926041
 20
-1.655540635436809
 10
4.862631699088161
 20
-1.611098903677086
 10
4.862631699088161
 20
-1.540887857687694
 10
4.862631699088161
 20
-1.473191731402534
 10
4.845285643319927
 20
-1.428749999642811
 10
4.806786701272261
 20
-1.428749999642811
 10
4.774196097981796
 20
-1.428749999642811
 10
4.750511066520703
 20
-1.468540852497446
 10
4.750511066520703
 20
-1.543402777391926
 97
        1
330
B7
 92
        1
 93
        1
 72
     4
 94
        3
 73
     0
 74
     0
 95
       17
 96
       13
 40
0.0
 40
0.0
 40
0.0
 40
0.0
 40
1.0
 40
1.0
 40
1.0
 40
2.0
 40
2.0
 40
2.0
 40
3.0
 40
3.0
 40
3.0
 40
4.0
 40
4.0
 40
4.0
 40
4.0
 10
4.899855955806285
 20
-1.539199760899921
 10
4.899855955806285
 20
-1.632699652369601
 10
4.86516384426982
 20
-1.684307182738645
 10
4.804237330613175
 20
-1.684307182738645
 10
4.750511066520703
 20
-1.684307182738645
 10
4.71411363271904
 20
-1.633974337699145
 10
4.713269584325153
 20
-1.542989365933696
 10
4.713269584325153
 20
-1.450764159793558
 10
4.753043211702363
 20
-1.399983452340975
 10
4.808888209518262
 20
-1.399983452340975
 10
4.866851941057592
 20
-1.399983452340975
 10
4.899855955806285
 20
-1.451590982710018
 10
4.899855955806285
 20
-1.539199760899921
 97
        1
330
B8
 75
     2
 76
     1
 98
        1
 10
0.0
 20
0.0
450
        0
451
        0
460
0.0
461
0.0
452
        0
462
0.0
453
        0
470

  0
SPLINE
  5
BA
330
B0
100
AcDbEntity
  8
Livello 2
100
AcDbSpline
210
0.0
220
0.0
230
1.0
 70
     9
 71
     3
 72
    80
 73
    76
 74
     0
 42
0.000000001
 43
0.0000000001
 40
0.0
 40
0.0
 40
0.0
 40
0.0
 40
1.0
 40
1.0
 40
1.0
 40
2.0
 40
2.0
 40
2.0
 40
3.0
 40
3.0
 40
3.0
 40
4.0
 40
4.0
 40
4.0
 40
5.0
 40
5.0
 40
5.0
 40
6.0
 40
6.0
 40
6.0
 40
7.0
 40
7.0
 40
7.0
 40
8.0
 40
8.0
 40
8.0
 40
9.0
 40
9.0
 40
9.0
 40
10.0
 40
10.0
 40
10.0
 40
11.0
 40
11.0
 40
11.0
 40
12.0
 40
12.0
 40
12.0
 40
13.0
 40
13.0
 40
13.0
 40
14.0
 40
14.0
 40
14.0
 40
15.0
 40
15.0
 40
15.0
 40
16.0
 40
16.0
 40
16.0
 40
17.0
 40
17.0
 40
17.0
 40
18.0
 40
18.0
 40
18.0
 40
19.0
 40
19.0
 40
19.0
 40
20.0
 40
20.0
 40
20.0
 40
21.0
 40
21.0
 40
21.0
 40
22.0
 40
22.0
 40
22.0
 40
23.0
 40
23.0
 40
23.0
 40
24.0
 40
24.0
 40
24.0
 40
25.0
 40
25.0
 40
25.0
 40
25.0
 10
5.035833874609096
 20
-1.530311414547976
 30
0.0
 10
5.035833874609096
 20
-1.509158528268543
 30
0.0
 10
5.035420463150866
 20
-1.491795247022883
 30
0.0
 10
5.034145777821324
 20
-1.474879828190307
 30
0.0
 10
5.034145777821324
 20
-1.474879828190307
 30
0.0
 10
5.066736381111788
 20
-1.474879828190307
 30
0.0
 10
5.066736381111788
 20
-1.474879828190307
 30
0.0
 10
5.066736381111788
 20
-1.474879828190307
 30
0.0
 10
5.068424477899559
 20
-1.507883842939001
 30
0.0
 10
5.068424477899559
 20
-1.507883842939001
 30
0.0
 10
5.068424477899559
 20
-1.507883842939001
 30
0.0
 10
5.069699163229101
 20
-1.507883842939001
 30
0.0
 10
5.069699163229101
 20
-1.507883842939001
 30
0.0
 10
5.081102429285277
 20
-1.488419053447339
 30
0.0
 10
5.10015380731871
 20
-1.470228949285219
 30
0.0
 10
5.133984644983863
 20
-1.470228949285219
 30
0.0
 10
5.16192436936924
 20
-1.470228949285219
 30
0.0
 10
5.183077255648673
 20
-1.487144368117796
 30
0.0
 10
5.191965602000618
 20
-1.511260036514545
 30
0.0
 10
5.191965602000618
 20
-1.511260036514545
 30
0.0
 10
5.192792424917079
 20
-1.511260036514545
 30
0.0
 10
5.192792424917079
 20
-1.511260036514545
 30
0.0
 10
5.19916585156479
 20
-1.499822319503515
 30
0.0
 10
5.207192924045422
 20
-1.490968424106424
 30
0.0
 10
5.215667858939137
 20
-1.484594997458711
 30
0.0
 10
5.227932398866626
 20
-1.475293239648536
 30
0.0
 10
5.241471624123659
 20
-1.470228949285219
 30
0.0
 10
5.26093641361532
 20
-1.470228949285219
 30
0.0
 10
5.288014864129383
 20
-1.470228949285219
 30
0.0
 10
5.328184677487396
 20
-1.488005641989109
 30
0.0
 10
5.328184677487396
 20
-1.559077961849813
 30
0.0
 10
5.328184677487396
 20
-1.559077961849813
 30
0.0
 10
5.328184677487396
 20
-1.679656303833557
 30
0.0
 10
5.328184677487396
 20
-1.679656303833557
 30
0.0
 10
5.328184677487396
 20
-1.679656303833557
 30
0.0
 10
5.291804469163158
 20
-1.679656303833557
 30
0.0
 10
5.291804469163158
 20
-1.679656303833557
 30
0.0
 10
5.291804469163158
 20
-1.679656303833557
 30
0.0
 10
5.291804469163158
 20
-1.5637288407549
 30
0.0
 10
5.291804469163158
 20
-1.5637288407549
 30
0.0
 10
5.291804469163158
 20
-1.524385850313346
 30
0.0
 10
5.277438420989668
 20
-1.500683593374828
 30
0.0
 10
5.247397188358289
 20
-1.500683593374828
 30
0.0
 10
5.226244302078855
 20
-1.500683593374828
 30
0.0
 10
5.209742294704507
 20
-1.516324326877863
 30
0.0
 10
5.203368868056796
 20
-1.534548881994833
 30
0.0
 10
5.201680771269023
 20
-1.539613172358151
 30
0.0
 10
5.200406085939481
 20
-1.54636555950924
 30
0.0
 10
5.200406085939481
 20
-1.553152397615184
 30
0.0
 10
5.200406085939481
 20
-1.553152397615184
 30
0.0
 10
5.200406085939481
 20
-1.679656303833557
 30
0.0
 10
5.200406085939481
 20
-1.679656303833557
 30
0.0
 10
5.200406085939481
 20
-1.679656303833557
 30
0.0
 10
5.164025877615243
 20
-1.679656303833557
 30
0.0
 10
5.164025877615243
 20
-1.679656303833557
 30
0.0
 10
5.164025877615243
 20
-1.679656303833557
 30
0.0
 10
5.164025877615243
 20
-1.556942002648957
 30
0.0
 10
5.164025877615243
 20
-1.556942002648957
 30
0.0
 10
5.164025877615243
 20
-1.524385850313346
 30
0.0
 10
5.149659829441751
 20
-1.500683593374828
 30
0.0
 10
5.121306693598143
 20
-1.500683593374828
 30
0.0
 10
5.098052299072707
 20
-1.500683593374828
 30
0.0
 10
5.081102429285277
 20
-1.519287108995178
 30
0.0
 10
5.075176865050648
 20
-1.537925075570379
 30
0.0
 10
5.073075356804646
 20
-1.543402777391926
 30
0.0
 10
5.072214082933333
 20
-1.549776204039639
 30
0.0
 10
5.072214082933333
 20
-1.556115179732497
 30
0.0
 10
5.072214082933333
 20
-1.556115179732497
 30
0.0
 10
5.072214082933333
 20
-1.679656303833557
 30
0.0
 10
5.072214082933333
 20
-1.679656303833557
 30
0.0
 10
5.072214082933333
 20
-1.679656303833557
 30
0.0
 10
5.035833874609096
 20
-1.679656303833557
 30
0.0
 10
5.035833874609096
 20
-1.679656303833557
 30
0.0
 10
5.035833874609096
 20
-1.679656303833557
 30
0.0
 10
5.035833874609096
 20
-1.530311414547976
 30
0.0
 10
5.035833874609096
 20
-1.530311414547976
 30
0.0
  0
HATCH
  5
BB
330
B0
100
AcDbEntity
  8
Livello 2
 62
   250
420
  1907995
440
 33554687
100
AcDbHatch
 10
0.0
 20
0.0
 30
0.0
210
0.0
220
0.0
230
1.0
  2
SOLID
 70
     1
 71
     1
 91
        1
 92
        1
 93
        1
 72
     4
 94
        3
 73
     0
 74
     0
 95
       80
 96
       76
 40
0.0
 40
0.0
 40
0.0
 40
0.0
 40
1.0
 40
1.0
 40
1.0
 40
2.0
 40
2.0
 40
2.0
 40
3.0
 40
3.0
 40
3.0
 40
4.0
 40
4.0
 40
4.0
 40
5.0
 40
5.0
 40
5.0
 40
6.0
 40
6.0
 40
6.0
 40
7.0
 40
7.0
 40
7.0
 40
8.0
 40
8.0
 40
8.0
 40
9.0
 40
9.0
 40
9.0
 40
10.0
 40
10.0
 40
10.0
 40
11.0
 40
11.0
 40
11.0
 40
12.0
 40
12.0
 40
12.0
 40
13.0
 40
13.0
 40
13.0
 40
14.0
 40
14.0
 40
14.0
 40
15.0
 40
15.0
 40
15.0
 40
16.0
 40
16.0
 40
16.0
 40
17.0
 40
17.0
 40
17.0
 40
18.0
 40
18.0
 40
18.0
 40
19.0
 40
19.0
 40
19.0
 40
20.0
 40
20.0
 40
20.0
 40
21.0
 40
21.0
 40
21.0
 40
22.0
 40
22.0
 40
22.0
 40
23.0
 40
23.0
 40
23.0
 40
24.0
 40
24.0
 40
24.0
 40
25.0
 40
25.0
 40
25.0
 40
25.0
 10
5.035833874609096
 20
-1.530311414547976
 10
5.035833874609096
 20
-1.509158528268543
 10
5.035420463150866
 20
-1.491795247022883
 10
5.034145777821324
 20
-1.474879828190307
 10
5.034145777821324
 20
-1.474879828190307
 10
5.066736381111788
 20
-1.474879828190307
 10
5.066736381111788
 20
-1.474879828190307
 10
5.066736381111788
 20
-1.474879828190307
 10
5.068424477899559
 20
-1.507883842939001
 10
5.068424477899559
 20
-1.507883842939001
 10
5.068424477899559
 20
-1.507883842939001
 10
5.069699163229101
 20
-1.507883842939001
 10
5.069699163229101
 20
-1.507883842939001
 10
5.081102429285277
 20
-1.488419053447339
 10
5.10015380731871
 20
-1.470228949285219
 10
5.133984644983863
 20
-1.470228949285219
 10
5.16192436936924
 20
-1.470228949285219
 10
5.183077255648673
 20
-1.487144368117796
 10
5.191965602000618
 20
-1.511260036514545
 10
5.191965602000618
 20
-1.511260036514545
 10
5.192792424917079
 20
-1.511260036514545
 10
5.192792424917079
 20
-1.511260036514545
 10
5.19916585156479
 20
-1.499822319503515
 10
5.207192924045422
 20
-1.490968424106424
 10
5.215667858939137
 20
-1.484594997458711
 10
5.227932398866626
 20
-1.475293239648536
 10
5.241471624123659
 20
-1.470228949285219
 10
5.26093641361532
 20
-1.470228949285219
 10
5.288014864129383
 20
-1.470228949285219
 10
5.328184677487396
 20
-1.488005641989109
 10
5.328184677487396
 20
-1.559077961849813
 10
5.328184677487396
 20
-1.559077961849813
 10
5.328184677487396
 20
-1.679656303833557
 10
5.328184677487396
 20
-1.679656303833557
 10
5.328184677487396
 20
-1.679656303833557
 10
5.291804469163158
 20
-1.679656303833557
 10
5.291804469163158
 20
-1.679656303833557
 10
5.291804469163158
 20
-1.679656303833557
 10
5.291804469163158
 20
-1.5637288407549
 10
5.291804469163158
 20
-1.5637288407549
 10
5.291804469163158
 20
-1.524385850313346
 10
5.277438420989668
 20
-1.500683593374828
 10
5.247397188358289
 20
-1.500683593374828
 10
5.226244302078855
 20
-1.500683593374828
 10
5.209742294704507
 20
-1.516324326877863
 10
5.203368868056796
 20
-1.534548881994833
 10
5.201680771269023
 20
-1.539613172358151
 10
5.200406085939481
 20
-1.54636555950924
 10
5.200406085939481
 20
-1.553152397615184
 10
5.200406085939481
 20
-1.553152397615184
 10
5.200406085939481
 20
-1.679656303833557
 10
5.200406085939481
 20
-1.679656303833557
 10
5.200406085939481
 20
-1.679656303833557
 10
5.164025877615243
 20
-1.679656303833557
 10
5.164025877615243
 20
-1.679656303833557
 10
5.164025877615243
 20
-1.679656303833557
 10
5.164025877615243
 20
-1.556942002648957
 10
5.164025877615243
 20
-1.556942002648957
 10
5.164025877615243
 20
-1.524385850313346
 10
5.149659829441751
 20
-1.500683593374828
 10
5.121306693598143
 20
-1.500683593374828
 10
5.098052299072707
 20
-1.500683593374828
 10
5.081102429285277
 20
-1.519287108995178
 10
5.075176865050648
 20
-1.537925075570379
 10
5.073075356804646
 20
-1.543402777391926
 10
5.072214082933333
 20
-1.549776204039639
 10
5.072214082933333
 20
-1.556115179732497
 10
5.072214082933333
 20
-1.556115179732497
 10
5.072214082933333
 20
-1.679656303833557
 10
5.072214082933333
 20
-1.679656303833557
 10
5.072214082933333
 20
-1.679656303833557
 10
5.035833874609096
 20
-1.679656303833557
 10
5.035833874609096
 20
-1.679656303833557
 10
5.035833874609096
 20
-1.679656303833557
 10
5.035833874609096
 20
-1.530311414547976
 10
5.035833874609096
 20
-1.530311414547976
 97
        1
330
BA
 75
     2
 76
     1
 98
        1
 10
0.0
 20
0.0
450
        0
451
        0
460
0.0
461
0.0
452
        0
462
0.0
453
        0
470

  0
SPLINE
  5
BC
330
B0
100
AcDbEntity
  8
Livello 2
100
AcDbSpline
210
0.0
220
0.0
230
1.0
 70
     9
 71
     3
 72
    80
 73
    76
 74
     0
 42
0.000000001
 43
0.0000000001
 40
0.0
 40
0.0
 40
0.0
 40
0.0
 40
1.0
 40
1.0
 40
1.0
 40
2.0
 40
2.0
 40
2.0
 40
3.0
 40
3.0
 40
3.0
 40
4.0
 40
4.0
 40
4.0
 40
5.0
 40
5.0
 40
5.0
 40
6.0
 40
6.0
 40
6.0
 40
7.0
 40
7.0
 40
7.0
 40
8.0
 40
8.0
 40
8.0
 40
9.0
 40
9.0
 40
9.0
 40
10.0
 40
10.0
 40
10.0
 40
11.0
 40
11.0
 40
11.0
 40
12.0
 40
12.0
 40
12.0
 40
13.0
 40
13.0
 40
13.0
 40
14.0
 40
14.0
 40
14.0
 40
15.0
 40
15.0
 40
15.0
 40
16.0
 40
16.0
 40
16.0
 40
17.0
 40
17.0
 40
17.0
 40
18.0
 40
18.0
 40
18.0
 40
19.0
 40
19.0
 40
19.0
 40
20.0
 40
20.0
 40
20.0
 40
21.0
 40
21.0
 40
21.0
 40
22.0
 40
22.0
 40
22.0
 40
23.0
 40
23.0
 40
23.0
 40
24.0
 40
24.0
 40
24.0
 40
25.0
 40
25.0
 40
25.0
 40
25.0
 10
5.388921710892351
 20
-1.530311414547976
 30
0.0
 10
5.388921710892351
 20
-1.509158528268543
 30
0.0
 10
5.388473848479269
 20
-1.491795247022883
 30
0.0
 10
5.387199163149726
 20
-1.474879828190307
 30
0.0
 10
5.387199163149726
 20
-1.474879828190307
 30
0.0
 10
5.419789766440191
 20
-1.474879828190307
 30
0.0
 10
5.419789766440191
 20
-1.474879828190307
 30
0.0
 10
5.419789766440191
 20
-1.474879828190307
 30
0.0
 10
5.421477863227963
 20
-1.507883842939001
 30
0.0
 10
5.421477863227963
 20
-1.507883842939001
 30
0.0
 10
5.421477863227963
 20
-1.507883842939001
 30
0.0
 10
5.422752548557505
 20
-1.507883842939001
 30
0.0
 10
5.422752548557505
 20
-1.507883842939001
 30
0.0
 10
5.434190265568535
 20
-1.488419053447339
 30
0.0
 10
5.453207192647114
 20
-1.470228949285219
 30
0.0
 10
5.487072481267119
 20
-1.470228949285219
 30
0.0
 10
5.514977754697643
 20
-1.470228949285219
 30
0.0
 10
5.536130640977077
 20
-1.487144368117796
 30
0.0
 10
5.545018987329021
 20
-1.511260036514545
 30
0.0
 10
5.545018987329021
 20
-1.511260036514545
 30
0.0
 10
5.545880261200334
 20
-1.511260036514545
 30
0.0
 10
5.545880261200334
 20
-1.511260036514545
 30
0.0
 10
5.552219236893193
 20
-1.499822319503515
 30
0.0
 10
5.560246309373827
 20
-1.490968424106424
 30
0.0
 10
5.568721244267541
 20
-1.484594997458711
 30
0.0
 10
5.580985784195029
 20
-1.475293239648536
 30
0.0
 10
5.594525009452063
 20
-1.470228949285219
 30
0.0
 10
5.613989798943723
 20
-1.470228949285219
 30
0.0
 10
5.641068249457787
 20
-1.470228949285219
 30
0.0
 10
5.681272513770651
 20
-1.488005641989109
 30
0.0
 10
5.681272513770651
 20
-1.559077961849813
 30
0.0
 10
5.681272513770651
 20
-1.559077961849813
 30
0.0
 10
5.681272513770651
 20
-1.679656303833557
 30
0.0
 10
5.681272513770651
 20
-1.679656303833557
 30
0.0
 10
5.681272513770651
 20
-1.679656303833557
 30
0.0
 10
5.644892305446415
 20
-1.679656303833557
 30
0.0
 10
5.644892305446415
 20
-1.679656303833557
 30
0.0
 10
5.644892305446415
 20
-1.679656303833557
 30
0.0
 10
5.644892305446415
 20
-1.5637288407549
 30
0.0
 10
5.644892305446415
 20
-1.5637288407549
 30
0.0
 10
5.644892305446415
 20
-1.524385850313346
 30
0.0
 10
5.630491806318071
 20
-1.500683593374828
 30
0.0
 10
5.600450573686691
 20
-1.500683593374828
 30
0.0
 10
5.579297687407257
 20
-1.500683593374828
 30
0.0
 10
5.562795680032912
 20
-1.516324326877863
 30
0.0
 10
5.55645670434005
 20
-1.534548881994833
 30
0.0
 10
5.554768607552277
 20
-1.539613172358151
 30
0.0
 10
5.553493922222735
 20
-1.54636555950924
 30
0.0
 10
5.553493922222735
 20
-1.553152397615184
 30
0.0
 10
5.553493922222735
 20
-1.553152397615184
 30
0.0
 10
5.553493922222735
 20
-1.679656303833557
 30
0.0
 10
5.553493922222735
 20
-1.679656303833557
 30
0.0
 10
5.553493922222735
 20
-1.679656303833557
 30
0.0
 10
5.517113713898497
 20
-1.679656303833557
 30
0.0
 10
5.517113713898497
 20
-1.679656303833557
 30
0.0
 10
5.517113713898497
 20
-1.679656303833557
 30
0.0
 10
5.517113713898497
 20
-1.556942002648957
 30
0.0
 10
5.517113713898497
 20
-1.556942002648957
 30
0.0
 10
5.517113713898497
 20
-1.524385850313346
 30
0.0
 10
5.502713214770153
 20
-1.500683593374828
 30
0.0
 10
5.474360078926547
 20
-1.500683593374828
 30
0.0
 10
5.451105684401111
 20
-1.500683593374828
 30
0.0
 10
5.434190265568535
 20
-1.519287108995178
 30
0.0
 10
5.428264701333906
 20
-1.537925075570379
 30
0.0
 10
5.42612874213305
 20
-1.543402777391926
 30
0.0
 10
5.42530191921659
 20
-1.549776204039639
 30
0.0
 10
5.42530191921659
 20
-1.556115179732497
 30
0.0
 10
5.42530191921659
 20
-1.556115179732497
 30
0.0
 10
5.42530191921659
 20
-1.679656303833557
 30
0.0
 10
5.42530191921659
 20
-1.679656303833557
 30
0.0
 10
5.42530191921659
 20
-1.679656303833557
 30
0.0
 10
5.388921710892351
 20
-1.679656303833557
 30
0.0
 10
5.388921710892351
 20
-1.679656303833557
 30
0.0
 10
5.388921710892351
 20
-1.679656303833557
 30
0.0
 10
5.388921710892351
 20
-1.530311414547976
 30
0.0
 10
5.388921710892351
 20
-1.530311414547976
 30
0.0
  0
HATCH
  5
BD
330
B0
100
AcDbEntity
  8
Livello 2
 62
   250
420
  1907995
440
 33554687
100
AcDbHatch
 10
0.0
 20
0.0
 30
0.0
210
0.0
220
0.0
230
1.0
  2
SOLID
 70
     1
 71
     1
 91
        1
 92
        1
 93
        1
 72
     4
 94
        3
 73
     0
 74
     0
 95
       80
 96
       76
 40
0.0
 40
0.0
 40
0.0
 40
0.0
 40
1.0
 40
1.0
 40
1.0
 40
2.0
 40
2.0
 40
2.0
 40
3.0
 40
3.0
 40
3.0
 40
4.0
 40
4.0
 40
4.0
 40
5.0
 40
5.0
 40
5.0
 40
6.0
 40
6.0
 40
6.0
 40
7.0
 40
7.0
 40
7.0
 40
8.0
 40
8.0
 40
8.0
 40
9.0
 40
9.0
 40
9.0
 40
10.0
 40
10.0
 40
10.0
 40
11.0
 40
11.0
 40
11.0
 40
12.0
 40
12.0
 40
12.0
 40
13.0
 40
13.0
 40
13.0
 40
14.0
 40
14.0
 40
14.0
 40
15.0
 40
15.0
 40
15.0
 40
16.0
 40
16.0
 40
16.0
 40
17.0
 40
17.0
 40
17.0
 40
18.0
 40
18.0
 40
18.0
 40
19.0
 40
19.0
 40
19.0
 40
20.0
 40
20.0
 40
20.0
 40
21.0
 40
21.0
 40
21.0
 40
22.0
 40
22.0
 40
22.0
 40
23.0
 40
23.0
 40
23.0
 40
24.0
 40
24.0
 40
24.0
 40
25.0
 40
25.0
 40
25.0
 40
25.0
 10
5.388921710892351
 20
-1.530311414547976
 10
5.388921710892351
 20
-1.509158528268543
 10
5.388473848479269
 20
-1.491795247022883
 10
5.387199163149726
 20
-1.474879828190307
 10
5.387199163149726
 20
-1.474879828190307
 10
5.419789766440191
 20
-1.474879828190307
 10
5.419789766440191
 20
-1.474879828190307
 10
5.419789766440191
 20
-1.474879828190307
 10
5.421477863227963
 20
-1.507883842939001
 10
5.421477863227963
 20
-1.507883842939001
 10
5.421477863227963
 20
-1.507883842939001
 10
5.422752548557505
 20
-1.507883842939001
 10
5.422752548557505
 20
-1.507883842939001
 10
5.434190265568535
 20
-1.488419053447339
 10
5.453207192647114
 20
-1.470228949285219
 10
5.487072481267119
 20
-1.470228949285219
 10
5.514977754697643
 20
-1.470228949285219
 10
5.536130640977077
 20
-1.487144368117796
 10
5.545018987329021
 20
-1.511260036514545
 10
5.545018987329021
 20
-1.511260036514545
 10
5.545880261200334
 20
-1.511260036514545
 10
5.545880261200334
 20
-1.511260036514545
 10
5.552219236893193
 20
-1.499822319503515
 10
5.560246309373827
 20
-1.490968424106424
 10
5.568721244267541
 20
-1.484594997458711
 10
5.580985784195029
 20
-1.475293239648536
 10
5.594525009452063
 20
-1.470228949285219
 10
5.613989798943723
 20
-1.470228949285219
 10
5.641068249457787
 20
-1.470228949285219
 10
5.681272513770651
 20
-1.488005641989109
 10
5.681272513770651
 20
-1.559077961849813
 10
5.681272513770651
 20
-1.559077961849813
 10
5.681272513770651
 20
-1.679656303833557
 10
5.681272513770651
 20
-1.679656303833557
 10
5.681272513770651
 20
-1.679656303833557
 10
5.644892305446415
 20
-1.679656303833557
 10
5.644892305446415
 20
-1.679656303833557
 10
5.644892305446415
 20
-1.679656303833557
 10
5.644892305446415
 20
-1.5637288407549
 10
5.644892305446415
 20
-1.5637288407549
 10
5.644892305446415
 20
-1.524385850313346
 10
5.630491806318071
 20
-1.500683593374828
 10
5.600450573686691
 20
-1.500683593374828
 10
5.579297687407257
 20
-1.500683593374828
 10
5.562795680032912
 20
-1.516324326877863
 10
5.55645670434005
 20
-1.534548881994833
 10
5.554768607552277
 20
-1.539613172358151
 10
5.553493922222735
 20
-1.54636555950924
 10
5.553493922222735
 20
-1.553152397615184
 10
5.553493922222735
 20
-1.553152397615184
 10
5.553493922222735
 20
-1.679656303833557
 10
5.553493922222735
 20
-1.679656303833557
 10
5.553493922222735
 20
-1.679656303833557
 10
5.517113713898497
 20
-1.679656303833557
 10
5.517113713898497
 20
-1.679656303833557
 10
5.517113713898497
 20
-1.679656303833557
 10
5.517113713898497
 20
-1.556942002648957
 10
5.517113713898497
 20
-1.556942002648957
 10
5.517113713898497
 20
-1.524385850313346
 10
5.502713214770153
 20
-1.500683593374828
 10
5.474360078926547
 20
-1.500683593374828
 10
5.451105684401111
 20
-1.500683593374828
 10
5.434190265568535
 20
-1.519287108995178
 10
5.428264701333906
 20
-1.537925075570379
 10
5.42612874213305
 20
-1.543402777391926
 10
5.42530191921659
 20
-1.549776204039639
 10
5.42530191921659
 20
-1.556115179732497
 10
5.42530191921659
 20
-1.556115179732497
 10
5.42530191921659
 20
-1.679656303833557
 10
5.42530191921659
 20
-1.679656303833557
 10
5.42530191921659
 20
-1.679656303833557
 10
5.388921710892351
 20
-1.679656303833557
 10
5.388921710892351
 20
-1.679656303833557
 10
5.388921710892351
 20
-1.679656303833557
 10
5.388921710892351
 20
-1.530311414547976
 10
5.388921710892351
 20
-1.530311414547976
 97
        1
330
BC
 75
     2
 76
     1
 98
        1
 10
0.0
 20
0.0
450
        0
451
        0
460
0.0
461
0.0
452
        0
462
0.0
453
        0
470

  0
ENDBLK
  5
B3
330
B0
100
AcDbEntity
  8
0
100
AcDbBlockEnd
  0
BLOCK
  5
C0
330
BE
100
AcDbEntity
  8
0
100
AcDbBlockBegin
  2
Block_6
 70
     0
 10
0.0
 20
0.0
 30
0.0
  3
Block_6
  1

  0
INSERT
  5
C3
330
BE
100
AcDbEntity
  8
Livello 2
100
AcDbBlockReference
  2
Block_7
 10
0.0
 20
0.0
 30
0.0
  0
ENDBLK
  5
C1
330
BE
100
AcDbEntity
  8
0
100
AcDbBlockEnd
  0
BLOCK
  5
C4
330
C2
100
AcDbEntity
  8
0
100
AcDbBlockBegin
  2
Block_7
 70
     0
 10
0.0
 20
0.0
 30
0.0
  3
Block_7
  1

  0
SPLINE
  5
C6
330
C2
100
AcDbEntity
  8
Livello 2
100
AcDbSpline
210
0.0
220
0.0
230
1.0
 70
    11
 71
     3
 72
    29
 73
    25
 74
     0
 42
0.000000001
 43
0.0000000001
 40
0.0
 40
0.0
 40
0.0
 40
0.0
 40
1.0
 40
1.0
 40
1.0
 40
2.0
 40
2.0
 40
2.0
 40
3.0
 40
3.0
 40
3.0
 40
4.0
 40
4.0
 40
4.0
 40
5.0
 40
5.0
 40
5.0
 40
6.0
 40
6.0
 40
6.0
 40
7.0
 40
7.0
 40
7.0
 40
8.0
 40
8.0
 40
8.0
 40
8.0
 10
0.6823528372860089
 20
-7.156290145780371
 30
0.0
 10
0.6823528372860089
 20
-7.156290145780371
 30
0.0
 10
0.6815087888921229
 20
-7.156290145780371
 30
0.0
 10
0.6815087888921229
 20
-7.156290145780371
 30
0.0
 10
0.6815087888921229
 20
-7.156290145780371
 30
0.0
 10
0.633690863556855
 20
-7.182093910964892
 30
0.0
 10
0.633690863556855
 20
-7.182093910964892
 30
0.0
 10
0.633690863556855
 20
-7.182093910964892
 30
0.0
 10
0.6265078394701093
 20
-7.153775226076137
 30
0.0
 10
0.6265078394701093
 20
-7.153775226076137
 30
0.0
 10
0.6265078394701093
 20
-7.153775226076137
 30
0.0
 10
0.68657307925544
 20
-7.121598034243905
 30
0.0
 10
0.68657307925544
 20
-7.121598034243905
 30
0.0
 10
0.68657307925544
 20
-7.121598034243905
 30
0.0
 10
0.7183196341520173
 20
-7.121598034243905
 30
0.0
 10
0.7183196341520173
 20
-7.121598034243905
 30
0.0
 10
0.7183196341520173
 20
-7.121598034243905
 30
0.0
 10
0.7183196341520173
 20
-7.396620006831398
 30
0.0
 10
0.7183196341520173
 20
-7.396620006831398
 30
0.0
 10
0.7183196341520173
 20
-7.396620006831398
 30
0.0
 10
0.6823528372860089
 20
-7.396620006831398
 30
0.0
 10
0.6823528372860089
 20
-7.396620006831398
 30
0.0
 10
0.6823528372860089
 20
-7.396620006831398
 30
0.0
 10
0.6823528372860089
 20
-7.156290145780371
 30
0.0
 10
0.6823528372860089
 20
-7.156290145780371
 30
0.0
  0
HATCH
  5
C7
330
C2
100
AcDbEntity
  8
Livello 2
 62
   250
420
  1907995
440
 33554687
100
AcDbHatch
 10
0.0
 20
0.0
 30
0.0
210
0.0
220
0.0
230
1.0
  2
SOLID
 70
     1
 71
     1
 91
        1
 92
        1
 93
        1
 72
     4
 94
        3
 73
     0
 74
     0
 95
       29
 96
       25
 40
0.0
 40
0.0
 40
0.0
 40
0.0
 40
1.0
 40
1.0
 40
1.0
 40
2.0
 40
2.0
 40
2.0
 40
3.0
 40
3.0
 40
3.0
 40
4.0
 40
4.0
 40
4.0
 40
5.0
 40
5.0
 40
5.0
 40
6.0
 40
6.0
 40
6.0
 40
7.0
 40
7.0
 40
7.0
 40
8.0
 40
8.0
 40
8.0
 40
8.0
 10
0.6823528372860089
 20
-7.156290145780371
 10
0.6823528372860089
 20
-7.156290145780371
 10
0.6815087888921229
 20
-7.156290145780371
 10
0.6815087888921229
 20
-7.156290145780371
 10
0.6815087888921229
 20
-7.156290145780371
 10
0.633690863556855
 20
-7.182093910964892
 10
0.633690863556855
 20
-7.182093910964892
 10
0.633690863556855
 20
-7.182093910964892
 10
0.6265078394701093
 20
-7.153775226076137
 10
0.6265078394701093
 20
-7.153775226076137
 10
0.6265078394701093
 20
-7.153775226076137
 10
0.68657307925544
 20
-7.121598034243905
 10
0.68657307925544
 20
-7.121598034243905
 10
0.68657307925544
 20
-7.121598034243905
 10
0.7183196341520173
 20
-7.121598034243905
 10
0.7183196341520173
 20
-7.121598034243905
 10
0.7183196341520173
 20
-7.121598034243905
 10
0.7183196341520173
 20
-7.396620006831398
 10
0.7183196341520173
 20
-7.396620006831398
 10
0.7183196341520173
 20
-7.396620006831398
 10
0.6823528372860089
 20
-7.396620006831398
 10
0.6823528372860089
 20
-7.396620006831398
 10
0.6823528372860089
 20
-7.396620006831398
 10
0.6823528372860089
 20
-7.156290145780371
 10
0.6823528372860089
 20
-7.156290145780371
 97
        1
330
C6
 75
     2
 76
     1
 98
        1
 10
0.0
 20
0.0
450
        0
451
        0
460
0.0
461
0.0
452
        0
462
0.0
453
        0
470

  0
SPLINE
  5
C8
330
C2
100
AcDbEntity
  8
Livello 2
100
AcDbSpline
210
0.0
220
0.0
230
1.0
 70
    11
 71
     3
 72
    29
 73
    25
 74
     0
 42
0.000000001
 43
0.0000000001
 40
0.0
 40
0.0
 40
0.0
 40
0.0
 40
1.0
 40
1.0
 40
1.0
 40
2.0
 40
2.0
 40
2.0
 40
3.0
 40
3.0
 40
3.0
 40
4.0
 40
4.0
 40
4.0
 40
5.0
 40
5.0
 40
5.0
 40
6.0
 40
6.0
 40
6.0
 40
7.0
 40
7.0
 40
7.0
 40
8.0
 40
8.0
 40
8.0
 40
8.0
 10
0.9972517901152702
 20
-7.121598034243905
 30
0.0
 10
0.9972517901152702
 20
-7.121598034243905
 30
0.0
 10
0.9972517901152702
 20
-7.146127114098884
 30
0.0
 10
0.9972517901152702
 20
-7.146127114098884
 30
0.0
 10
0.9972517901152702
 20
-7.146127114098884
 30
0.0
 10
0.8775174965254121
 20
-7.396620006831398
 30
0.0
 10
0.8775174965254121
 20
-7.396620006831398
 30
0.0
 10
0.8775174965254121
 20
-7.396620006831398
 30
0.0
 10
0.839001329000319
 20
-7.396620006831398
 30
0.0
 10
0.839001329000319
 20
-7.396620006831398
 30
0.0
 10
0.839001329000319
 20
-7.396620006831398
 30
0.0
 10
0.9583222111319471
 20
-7.153327363663056
 30
0.0
 10
0.9583222111319471
 20
-7.153327363663056
 30
0.0
 10
0.9583222111319471
 20
-7.153327363663056
 30
0.0
 10
0.9583222111319471
 20
-7.152500540746596
 30
0.0
 10
0.9583222111319471
 20
-7.152500540746596
 30
0.0
 10
0.9583222111319471
 20
-7.152500540746596
 30
0.0
 10
0.8237740069555147
 20
-7.152500540746596
 30
0.0
 10
0.8237740069555147
 20
-7.152500540746596
 30
0.0
 10
0.8237740069555147
 20
-7.152500540746596
 30
0.0
 10
0.8237740069555147
 20
-7.121598034243905
 30
0.0
 10
0.8237740069555147
 20
-7.121598034243905
 30
0.0
 10
0.8237740069555147
 20
-7.121598034243905
 30
0.0
 10
0.9972517901152702
 20
-7.121598034243905
 30
0.0
 10
0.9972517901152702
 20
-7.121598034243905
 30
0.0
  0
HATCH
  5
C9
330
C2
100
AcDbEntity
  8
Livello 2
 62
   250
420
  1907995
440
 33554687
100
AcDbHatch
 10
0.0
 20
0.0
 30
0.0
210
0.0
220
0.0
230
1.0
  2
SOLID
 70
     1
 71
     1
 91
        1
 92
        1
 93
        1
 72
     4
 94
        3
 73
     0
 74
     0
 95
       29
 96
       25
 40
0.0
 40
0.0
 40
0.0
 40
0.0
 40
1.0
 40
1.0
 40
1.0
 40
2.0
 40
2.0
 40
2.0
 40
3.0
 40
3.0
 40
3.0
 40
4.0
 40
4.0
 40
4.0
 40
5.0
 40
5.0
 40
5.0
 40
6.0
 40
6.0
 40
6.0
 40
7.0
 40
7.0
 40
7.0
 40
8.0
 40
8.0
 40
8.0
 40
8.0
 10
0.9972517901152702
 20
-7.121598034243905
 10
0.9972517901152702
 20
-7.121598034243905
 10
0.9972517901152702
 20
-7.146127114098884
 10
0.9972517901152702
 20
-7.146127114098884
 10
0.9972517901152702
 20
-7.146127114098884
 10
0.8775174965254121
 20
-7.396620006831398
 10
0.8775174965254121
 20
-7.396620006831398
 10
0.8775174965254121
 20
-7.396620006831398
 10
0.839001329000319
 20
-7.396620006831398
 10
0.839001329000319
 20
-7.396620006831398
 10
0.839001329000319
 20
-7.396620006831398
 10
0.9583222111319471
 20
-7.153327363663056
 10
0.9583222111319471
 20
-7.153327363663056
 10
0.9583222111319471
 20
-7.153327363663056
 10
0.9583222111319471
 20
-7.152500540746596
 10
0.9583222111319471
 20
-7.152500540746596
 10
0.9583222111319471
 20
-7.152500540746596
 10
0.8237740069555147
 20
-7.152500540746596
 10
0.8237740069555147
 20
-7.152500540746596
 10
0.8237740069555147
 20
-7.152500540746596
 10
0.8237740069555147
 20
-7.121598034243905
 10
0.8237740069555147
 20
-7.121598034243905
 10
0.8237740069555147
 20
-7.121598034243905
 10
0.9972517901152702
 20
-7.121598034243905
 10
0.9972517901152702
 20
-7.121598034243905
 97
        1
330
C8
 75
     2
 76
     1
 98
        1
 10
0.0
 20
0.0
450
        0
451
        0
460
0.0
461
0.0
452
        0
462
0.0
453
        0
470

  0
SPLINE
  5
CA
330
C2
100
AcDbEntity
  8
Livello 2
100
AcDbSpline
210
0.0
220
0.0
230
1.0
 70
     9
 71
     3
 72
    17
 73
    13
 74
     0
 42
0.000000001
 43
0.0000000001
 40
0.0
 40
0.0
 40
0.0
 40
0.0
 40
1.0
 40
1.0
 40
1.0
 40
2.0
 40
2.0
 40
2.0
 40
3.0
 40
3.0
 40
3.0
 40
4.0
 40
4.0
 40
4.0
 40
4.0
 10
1.069288736711843
 20
-7.260366480389769
 30
0.0
 10
1.069288736711843
 20
-7.331886662663555
 30
0.0
 10
1.091285671385164
 20
-7.372504338434651
 30
0.0
 10
1.125133734527744
 20
-7.372504338434651
 30
0.0
 10
1.16321926511718
 20
-7.372504338434651
 30
0.0
 10
1.181409369279299
 20
-7.328062606674927
 30
0.0
 10
1.181409369279299
 20
-7.257851560685535
 30
0.0
 10
1.181409369279299
 20
-7.190155434400375
 30
0.0
 10
1.164063313511067
 20
-7.145713702640653
 30
0.0
 10
1.1255643714634
 20
-7.145713702640653
 30
0.0
 10
1.092973768172937
 20
-7.145713702640653
 30
0.0
 10
1.069288736711843
 20
-7.185504555495289
 30
0.0
 10
1.069288736711843
 20
-7.260366480389769
 30
0.0
  0
SPLINE
  5
CB
330
C2
100
AcDbEntity
  8
Livello 2
100
AcDbSpline
210
0.0
220
0.0
230
1.0
 70
     9
 71
     3
 72
    17
 73
    13
 74
     0
 42
0.000000001
 43
0.0000000001
 40
0.0
 40
0.0
 40
0.0
 40
0.0
 40
1.0
 40
1.0
 40
1.0
 40
2.0
 40
2.0
 40
2.0
 40
3.0
 40
3.0
 40
3.0
 40
4.0
 40
4.0
 40
4.0
 40
4.0
 10
1.21865085147485
 20
-7.256163463897763
 30
0.0
 10
1.21865085147485
 20
-7.349663355367443
 30
0.0
 10
1.183941514460959
 20
-7.401270885736487
 30
0.0
 10
1.123015000804314
 20
-7.401270885736487
 30
0.0
 10
1.069288736711843
 20
-7.401270885736487
 30
0.0
 10
1.032891302910178
 20
-7.350938040696987
 30
0.0
 10
1.032047254516292
 20
-7.259953068931539
 30
0.0
 10
1.032047254516292
 20
-7.167727862791401
 30
0.0
 10
1.071820881893502
 20
-7.116947155338817
 30
0.0
 10
1.127665879709402
 20
-7.116947155338817
 30
0.0
 10
1.185629611248731
 20
-7.116947155338817
 30
0.0
 10
1.21865085147485
 20
-7.168554685707859
 30
0.0
 10
1.21865085147485
 20
-7.256163463897763
 30
0.0
  0
HATCH
  5
CC
330
C2
100
AcDbEntity
  8
Livello 2
 62
   250
420
  1907995
440
 33554687
100
AcDbHatch
 10
0.0
 20
0.0
 30
0.0
210
0.0
220
0.0
230
1.0
  2
SOLID
 70
     1
 71
     1
 91
        2
 92
        1
 93
        1
 72
     4
 94
        3
 73
     0
 74
     0
 95
       17
 96
       13
 40
0.0
 40
0.0
 40
0.0
 40
0.0
 40
1.0
 40
1.0
 40
1.0
 40
2.0
 40
2.0
 40
2.0
 40
3.0
 40
3.0
 40
3.0
 40
4.0
 40
4.0
 40
4.0
 40
4.0
 10
1.069288736711843
 20
-7.260366480389769
 10
1.069288736711843
 20
-7.331886662663555
 10
1.091285671385164
 20
-7.372504338434651
 10
1.125133734527744
 20
-7.372504338434651
 10
1.16321926511718
 20
-7.372504338434651
 10
1.181409369279299
 20
-7.328062606674927
 10
1.181409369279299
 20
-7.257851560685535
 10
1.181409369279299
 20
-7.190155434400375
 10
1.164063313511067
 20
-7.145713702640653
 10
1.1255643714634
 20
-7.145713702640653
 10
1.092973768172937
 20
-7.145713702640653
 10
1.069288736711843
 20
-7.185504555495289
 10
1.069288736711843
 20
-7.260366480389769
 97
        1
330
CA
 92
        1
 93
        1
 72
     4
 94
        3
 73
     0
 74
     0
 95
       17
 96
       13
 40
0.0
 40
0.0
 40
0.0
 40
0.0
 40
1.0
 40
1.0
 40
1.0
 40
2.0
 40
2.0
 40
2.0
 40
3.0
 40
3.0
 40
3.0
 40
4.0
 40
4.0
 40
4.0
 40
4.0
 10
1.21865085147485
 20
-7.256163463897763
 10
1.21865085147485
 20
-7.349663355367443
 10
1.183941514460959
 20
-7.401270885736487
 10
1.123015000804314
 20
-7.401270885736487
 10
1.069288736711843
 20
-7.401270885736487
 10
1.032891302910178
 20
-7.350938040696987
 10
1.032047254516292
 20
-7.259953068931539
 10
1.032047254516292
 20
-7.167727862791401
 10
1.071820881893502
 20
-7.116947155338817
 10
1.127665879709402
 20
-7.116947155338817
 10
1.185629611248731
 20
-7.116947155338817
 10
1.21865085147485
 20
-7.168554685707859
 10
1.21865085147485
 20
-7.256163463897763
 97
        1
330
CB
 75
     2
 76
     1
 98
        1
 10
0.0
 20
0.0
450
        0
451
        0
460
0.0
461
0.0
452
        0
462
0.0
453
        0
470

  0
SPLINE
  5
CD
330
C2
100
AcDbEntity
  8
Livello 2
100
AcDbSpline
210
0.0
220
0.0
230
1.0
 70
     9
 71
     3
 72
    80
 73
    76
 74
     0
 42
0.000000001
 43
0.0000000001
 40
0.0
 40
0.0
 40
0.0
 40
0.0
 40
1.0
 40
1.0
 40
1.0
 40
2.0
 40
2.0
 40
2.0
 40
3.0
 40
3.0
 40
3.0
 40
4.0
 40
4.0
 40
4.0
 40
5.0
 40
5.0
 40
5.0
 40
6.0
 40
6.0
 40
6.0
 40
7.0
 40
7.0
 40
7.0
 40
8.0
 40
8.0
 40
8.0
 40
9.0
 40
9.0
 40
9.0
 40
10.0
 40
10.0
 40
10.0
 40
11.0
 40
11.0
 40
11.0
 40
12.0
 40
12.0
 40
12.0
 40
13.0
 40
13.0
 40
13.0
 40
14.0
 40
14.0
 40
14.0
 40
15.0
 40
15.0
 40
15.0
 40
16.0
 40
16.0
 40
16.0
 40
17.0
 40
17.0
 40
17.0
 40
18.0
 40
18.0
 40
18.0
 40
19.0
 40
19.0
 40
19.0
 40
20.0
 40
20.0
 40
20.0
 40
21.0
 40
21.0
 40
21.0
 40
22.0
 40
22.0
 40
22.0
 40
23.0
 40
23.0
 40
23.0
 40
24.0
 40
24.0
 40
24.0
 40
25.0
 40
25.0
 40
25.0
 40
25.0
 10
1.354628770277662
 20
-7.247275117545817
 30
0.0
 10
1.354628770277662
 20
-7.226122231266385
 30
0.0
 10
1.354180907864579
 20
-7.208758950020726
 30
0.0
 10
1.352906222535037
 20
-7.191843531188148
 30
0.0
 10
1.352906222535037
 20
-7.191843531188148
 30
0.0
 10
1.385496825825499
 20
-7.191843531188148
 30
0.0
 10
1.385496825825499
 20
-7.191843531188148
 30
0.0
 10
1.385496825825499
 20
-7.191843531188148
 30
0.0
 10
1.387184922613272
 20
-7.224847545936842
 30
0.0
 10
1.387184922613272
 20
-7.224847545936842
 30
0.0
 10
1.387184922613272
 20
-7.224847545936842
 30
0.0
 10
1.388459607942814
 20
-7.224847545936842
 30
0.0
 10
1.388459607942814
 20
-7.224847545936842
 30
0.0
 10
1.399897324953844
 20
-7.205382756445181
 30
0.0
 10
1.418914252032424
 20
-7.187192652283062
 30
0.0
 10
1.452779540652428
 20
-7.187192652283062
 30
0.0
 10
1.480684814082952
 20
-7.187192652283062
 30
0.0
 10
1.501837700362387
 20
-7.204108071115639
 30
0.0
 10
1.510726046714331
 20
-7.228223739512387
 30
0.0
 10
1.510726046714331
 20
-7.228223739512387
 30
0.0
 10
1.511587320585644
 20
-7.228223739512387
 30
0.0
 10
1.511587320585644
 20
-7.228223739512387
 30
0.0
 10
1.517926296278504
 20
-7.216786022501358
 30
0.0
 10
1.525953368759136
 20
-7.207932127104267
 30
0.0
 10
1.53442830365285
 20
-7.201558700456553
 30
0.0
 10
1.54669284358034
 20
-7.192256942646379
 30
0.0
 10
1.560232068837371
 20
-7.187192652283062
 30
0.0
 10
1.579696858329034
 20
-7.187192652283062
 30
0.0
 10
1.606775308843096
 20
-7.187192652283062
 30
0.0
 10
1.646979573155963
 20
-7.204969344986951
 30
0.0
 10
1.646979573155963
 20
-7.276041664847655
 30
0.0
 10
1.646979573155963
 20
-7.276041664847655
 30
0.0
 10
1.646979573155963
 20
-7.396620006831398
 30
0.0
 10
1.646979573155963
 20
-7.396620006831398
 30
0.0
 10
1.646979573155963
 20
-7.396620006831398
 30
0.0
 10
1.610599364831724
 20
-7.396620006831398
 30
0.0
 10
1.610599364831724
 20
-7.396620006831398
 30
0.0
 10
1.610599364831724
 20
-7.396620006831398
 30
0.0
 10
1.610599364831724
 20
-7.280692543752741
 30
0.0
 10
1.610599364831724
 20
-7.280692543752741
 30
0.0
 10
1.610599364831724
 20
-7.24134955331119
 30
0.0
 10
1.596198865703379
 20
-7.217647296372669
 30
0.0
 10
1.566157633072001
 20
-7.217647296372669
 30
0.0
 10
1.545004746792568
 20
-7.217647296372669
 30
0.0
 10
1.52850273941822
 20
-7.233288029875705
 30
0.0
 10
1.52216376372536
 20
-7.251512584992675
 30
0.0
 10
1.520475666937588
 20
-7.256576875355992
 30
0.0
 10
1.519200981608046
 20
-7.263329262507083
 30
0.0
 10
1.519200981608046
 20
-7.270116100613027
 30
0.0
 10
1.519200981608046
 20
-7.270116100613027
 30
0.0
 10
1.519200981608046
 20
-7.396620006831398
 30
0.0
 10
1.519200981608046
 20
-7.396620006831398
 30
0.0
 10
1.519200981608046
 20
-7.396620006831398
 30
0.0
 10
1.482820773283808
 20
-7.396620006831398
 30
0.0
 10
1.482820773283808
 20
-7.396620006831398
 30
0.0
 10
1.482820773283808
 20
-7.396620006831398
 30
0.0
 10
1.482820773283808
 20
-7.273905705646799
 30
0.0
 10
1.482820773283808
 20
-7.273905705646799
 30
0.0
 10
1.482820773283808
 20
-7.24134955331119
 30
0.0
 10
1.468420274155464
 20
-7.217647296372669
 30
0.0
 10
1.440067138311858
 20
-7.217647296372669
 30
0.0
 10
1.41681274378642
 20
-7.217647296372669
 30
0.0
 10
1.399897324953844
 20
-7.236250811993019
 30
0.0
 10
1.393971760719215
 20
-7.254888778568221
 30
0.0
 10
1.39183580151836
 20
-7.260366480389769
 30
0.0
 10
1.391008978601899
 20
-7.26673990703748
 30
0.0
 10
1.391008978601899
 20
-7.273078882730341
 30
0.0
 10
1.391008978601899
 20
-7.273078882730341
 30
0.0
 10
1.391008978601899
 20
-7.396620006831398
 30
0.0
 10
1.391008978601899
 20
-7.396620006831398
 30
0.0
 10
1.391008978601899
 20
-7.396620006831398
 30
0.0
 10
1.354628770277662
 20
-7.396620006831398
 30
0.0
 10
1.354628770277662
 20
-7.396620006831398
 30
0.0
 10
1.354628770277662
 20
-7.396620006831398
 30
0.0
 10
1.354628770277662
 20
-7.247275117545817
 30
0.0
 10
1.354628770277662
 20
-7.247275117545817
 30
0.0
  0
HATCH
  5
CE
330
C2
100
AcDbEntity
  8
Livello 2
 62
   250
420
  1907995
440
 33554687
100
AcDbHatch
 10
0.0
 20
0.0
 30
0.0
210
0.0
220
0.0
230
1.0
  2
SOLID
 70
     1
 71
     1
 91
        1
 92
        1
 93
        1
 72
     4
 94
        3
 73
     0
 74
     0
 95
       80
 96
       76
 40
0.0
 40
0.0
 40
0.0
 40
0.0
 40
1.0
 40
1.0
 40
1.0
 40
2.0
 40
2.0
 40
2.0
 40
3.0
 40
3.0
 40
3.0
 40
4.0
 40
4.0
 40
4.0
 40
5.0
 40
5.0
 40
5.0
 40
6.0
 40
6.0
 40
6.0
 40
7.0
 40
7.0
 40
7.0
 40
8.0
 40
8.0
 40
8.0
 40
9.0
 40
9.0
 40
9.0
 40
10.0
 40
10.0
 40
10.0
 40
11.0
 40
11.0
 40
11.0
 40
12.0
 40
12.0
 40
12.0
 40
13.0
 40
13.0
 40
13.0
 40
14.0
 40
14.0
 40
14.0
 40
15.0
 40
15.0
 40
15.0
 40
16.0
 40
16.0
 40
16.0
 40
17.0
 40
17.0
 40
17.0
 40
18.0
 40
18.0
 40
18.0
 40
19.0
 40
19.0
 40
19.0
 40
20.0
 40
20.0
 40
20.0
 40
21.0
 40
21.0
 40
21.0
 40
22.0
 40
22.0
 40
22.0
 40
23.0
 40
23.0
 40
23.0
 40
24.0
 40
24.0
 40
24.0
 40
25.0
 40
25.0
 40
25.0
 40
25.0
 10
1.354628770277662
 20
-7.247275117545817
 10
1.354628770277662
 20
-7.226122231266385
 10
1.354180907864579
 20
-7.208758950020726
 10
1.352906222535037
 20
-7.191843531188148
 10
1.352906222535037
 20
-7.191843531188148
 10
1.385496825825499
 20
-7.191843531188148
 10
1.385496825825499
 20
-7.191843531188148
 10
1.385496825825499
 20
-7.191843531188148
 10
1.387184922613272
 20
-7.224847545936842
 10
1.387184922613272
 20
-7.224847545936842
 10
1.387184922613272
 20
-7.224847545936842
 10
1.388459607942814
 20
-7.224847545936842
 10
1.388459607942814
 20
-7.224847545936842
 10
1.399897324953844
 20
-7.205382756445181
 10
1.418914252032424
 20
-7.187192652283062
 10
1.452779540652428
 20
-7.187192652283062
 10
1.480684814082952
 20
-7.187192652283062
 10
1.501837700362387
 20
-7.204108071115639
 10
1.510726046714331
 20
-7.228223739512387
 10
1.510726046714331
 20
-7.228223739512387
 10
1.511587320585644
 20
-7.228223739512387
 10
1.511587320585644
 20
-7.228223739512387
 10
1.517926296278504
 20
-7.216786022501358
 10
1.525953368759136
 20
-7.207932127104267
 10
1.53442830365285
 20
-7.201558700456553
 10
1.54669284358034
 20
-7.192256942646379
 10
1.560232068837371
 20
-7.187192652283062
 10
1.579696858329034
 20
-7.187192652283062
 10
1.606775308843096
 20
-7.187192652283062
 10
1.646979573155963
 20
-7.204969344986951
 10
1.646979573155963
 20
-7.276041664847655
 10
1.646979573155963
 20
-7.276041664847655
 10
1.646979573155963
 20
-7.396620006831398
 10
1.646979573155963
 20
-7.396620006831398
 10
1.646979573155963
 20
-7.396620006831398
 10
1.610599364831724
 20
-7.396620006831398
 10
1.610599364831724
 20
-7.396620006831398
 10
1.610599364831724
 20
-7.396620006831398
 10
1.610599364831724
 20
-7.280692543752741
 10
1.610599364831724
 20
-7.280692543752741
 10
1.610599364831724
 20
-7.24134955331119
 10
1.596198865703379
 20
-7.217647296372669
 10
1.566157633072001
 20
-7.217647296372669
 10
1.545004746792568
 20
-7.217647296372669
 10
1.52850273941822
 20
-7.233288029875705
 10
1.52216376372536
 20
-7.251512584992675
 10
1.520475666937588
 20
-7.256576875355992
 10
1.519200981608046
 20
-7.263329262507083
 10
1.519200981608046
 20
-7.270116100613027
 10
1.519200981608046
 20
-7.270116100613027
 10
1.519200981608046
 20
-7.396620006831398
 10
1.519200981608046
 20
-7.396620006831398
 10
1.519200981608046
 20
-7.396620006831398
 10
1.482820773283808
 20
-7.396620006831398
 10
1.482820773283808
 20
-7.396620006831398
 10
1.482820773283808
 20
-7.396620006831398
 10
1.482820773283808
 20
-7.273905705646799
 10
1.482820773283808
 20
-7.273905705646799
 10
1.482820773283808
 20
-7.24134955331119
 10
1.468420274155464
 20
-7.217647296372669
 10
1.440067138311858
 20
-7.217647296372669
 10
1.41681274378642
 20
-7.217647296372669
 10
1.399897324953844
 20
-7.236250811993019
 10
1.393971760719215
 20
-7.254888778568221
 10
1.39183580151836
 20
-7.260366480389769
 10
1.391008978601899
 20
-7.26673990703748
 10
1.391008978601899
 20
-7.273078882730341
 10
1.391008978601899
 20
-7.273078882730341
 10
1.391008978601899
 20
-7.396620006831398
 10
1.391008978601899
 20
-7.396620006831398
 10
1.391008978601899
 20
-7.396620006831398
 10
1.354628770277662
 20
-7.396620006831398
 10
1.354628770277662
 20
-7.396620006831398
 10
1.354628770277662
 20
-7.396620006831398
 10
1.354628770277662
 20
-7.247275117545817
 10
1.354628770277662
 20
-7.247275117545817
 97
        1
330
CD
 75
     2
 76
     1
 98
        1
 10
0.0
 20
0.0
450
        0
451
        0
460
0.0
461
0.0
452
        0
462
0.0
453
        0
470

  0
SPLINE
  5
CF
330
C2
100
AcDbEntity
  8
Livello 2
100
AcDbSpline
210
0.0
220
0.0
230
1.0
 70
     9
 71
     3
 72
    80
 73
    76
 74
     0
 42
0.000000001
 43
0.0000000001
 40
0.0
 40
0.0
 40
0.0
 40
0.0
 40
1.0
 40
1.0
 40
1.0
 40
2.0
 40
2.0
 40
2.0
 40
3.0
 40
3.0
 40
3.0
 40
4.0
 40
4.0
 40
4.0
 40
5.0
 40
5.0
 40
5.0
 40
6.0
 40
6.0
 40
6.0
 40
7.0
 40
7.0
 40
7.0
 40
8.0
 40
8.0
 40
8.0
 40
9.0
 40
9.0
 40
9.0
 40
10.0
 40
10.0
 40
10.0
 40
11.0
 40
11.0
 40
11.0
 40
12.0
 40
12.0
 40
12.0
 40
13.0
 40
13.0
 40
13.0
 40
14.0
 40
14.0
 40
14.0
 40
15.0
 40
15.0
 40
15.0
 40
16.0
 40
16.0
 40
16.0
 40
17.0
 40
17.0
 40
17.0
 40
18.0
 40
18.0
 40
18.0
 40
19.0
 40
19.0
 40
19.0
 40
20.0
 40
20.0
 40
20.0
 40
21.0
 40
21.0
 40
21.0
 40
22.0
 40
22.0
 40
22.0
 40
23.0
 40
23.0
 40
23.0
 40
24.0
 40
24.0
 40
24.0
 40
25.0
 40
25.0
 40
25.0
 40
25.0
 10
1.707682155606064
 20
-7.247275117545817
 30
0.0
 10
1.707682155606064
 20
-7.226122231266385
 30
0.0
 10
1.707234293192982
 20
-7.208758950020726
 30
0.0
 10
1.705959607863439
 20
-7.191843531188148
 30
0.0
 10
1.705959607863439
 20
-7.191843531188148
 30
0.0
 10
1.738550211153904
 20
-7.191843531188148
 30
0.0
 10
1.738550211153904
 20
-7.191843531188148
 30
0.0
 10
1.738550211153904
 20
-7.191843531188148
 30
0.0
 10
1.740238307941676
 20
-7.224847545936842
 30
0.0
 10
1.740238307941676
 20
-7.224847545936842
 30
0.0
 10
1.740238307941676
 20
-7.224847545936842
 30
0.0
 10
1.741512993271217
 20
-7.224847545936842
 30
0.0
 10
1.741512993271217
 20
-7.224847545936842
 30
0.0
 10
1.752950710282247
 20
-7.205382756445181
 30
0.0
 10
1.771967637360827
 20
-7.187192652283062
 30
0.0
 10
1.805832925980832
 20
-7.187192652283062
 30
0.0
 10
1.833738199411357
 20
-7.187192652283062
 30
0.0
 10
1.85489108569079
 20
-7.204108071115639
 30
0.0
 10
1.863779432042735
 20
-7.228223739512387
 30
0.0
 10
1.863779432042735
 20
-7.228223739512387
 30
0.0
 10
1.864640705914046
 20
-7.228223739512387
 30
0.0
 10
1.864640705914046
 20
-7.228223739512387
 30
0.0
 10
1.870979681606906
 20
-7.216786022501358
 30
0.0
 10
1.879006754087539
 20
-7.207932127104267
 30
0.0
 10
1.887481688981253
 20
-7.201558700456553
 30
0.0
 10
1.899746228908743
 20
-7.192256942646379
 30
0.0
 10
1.913285454165774
 20
-7.187192652283062
 30
0.0
 10
1.932750243657436
 20
-7.187192652283062
 30
0.0
 10
1.959828694171499
 20
-7.187192652283062
 30
0.0
 10
2.000032958484366
 20
-7.204969344986951
 30
0.0
 10
2.000032958484366
 20
-7.276041664847655
 30
0.0
 10
2.000032958484366
 20
-7.276041664847655
 30
0.0
 10
2.000032958484366
 20
-7.396620006831398
 30
0.0
 10
2.000032958484366
 20
-7.396620006831398
 30
0.0
 10
2.000032958484366
 20
-7.396620006831398
 30
0.0
 10
1.963652750160128
 20
-7.396620006831398
 30
0.0
 10
1.963652750160128
 20
-7.396620006831398
 30
0.0
 10
1.963652750160128
 20
-7.396620006831398
 30
0.0
 10
1.963652750160128
 20
-7.280692543752741
 30
0.0
 10
1.963652750160128
 20
-7.280692543752741
 30
0.0
 10
1.963652750160128
 20
-7.24134955331119
 30
0.0
 10
1.949252251031784
 20
-7.217647296372669
 30
0.0
 10
1.919211018400405
 20
-7.217647296372669
 30
0.0
 10
1.898058132120971
 20
-7.217647296372669
 30
0.0
 10
1.881556124746623
 20
-7.233288029875705
 30
0.0
 10
1.875217149053765
 20
-7.251512584992675
 30
0.0
 10
1.873529052265991
 20
-7.256576875355992
 30
0.0
 10
1.872254366936449
 20
-7.263329262507083
 30
0.0
 10
1.872254366936449
 20
-7.270116100613027
 30
0.0
 10
1.872254366936449
 20
-7.270116100613027
 30
0.0
 10
1.872254366936449
 20
-7.396620006831398
 30
0.0
 10
1.872254366936449
 20
-7.396620006831398
 30
0.0
 10
1.872254366936449
 20
-7.396620006831398
 30
0.0
 10
1.835874158612211
 20
-7.396620006831398
 30
0.0
 10
1.835874158612211
 20
-7.396620006831398
 30
0.0
 10
1.835874158612211
 20
-7.396620006831398
 30
0.0
 10
1.835874158612211
 20
-7.273905705646799
 30
0.0
 10
1.835874158612211
 20
-7.273905705646799
 30
0.0
 10
1.835874158612211
 20
-7.24134955331119
 30
0.0
 10
1.821473659483866
 20
-7.217647296372669
 30
0.0
 10
1.79312052364026
 20
-7.217647296372669
 30
0.0
 10
1.769866129114823
 20
-7.217647296372669
 30
0.0
 10
1.752950710282247
 20
-7.236250811993019
 30
0.0
 10
1.747025146047618
 20
-7.254888778568221
 30
0.0
 10
1.744889186846763
 20
-7.260366480389769
 30
0.0
 10
1.744062363930303
 20
-7.26673990703748
 30
0.0
 10
1.744062363930303
 20
-7.273078882730341
 30
0.0
 10
1.744062363930303
 20
-7.273078882730341
 30
0.0
 10
1.744062363930303
 20
-7.396620006831398
 30
0.0
 10
1.744062363930303
 20
-7.396620006831398
 30
0.0
 10
1.744062363930303
 20
-7.396620006831398
 30
0.0
 10
1.707682155606064
 20
-7.396620006831398
 30
0.0
 10
1.707682155606064
 20
-7.396620006831398
 30
0.0
 10
1.707682155606064
 20
-7.396620006831398
 30
0.0
 10
1.707682155606064
 20
-7.247275117545817
 30
0.0
 10
1.707682155606064
 20
-7.247275117545817
 30
0.0
  0
HATCH
  5
D0
330
C2
100
AcDbEntity
  8
Livello 2
 62
   250
420
  1907995
440
 33554687
100
AcDbHatch
 10
0.0
 20
0.0
 30
0.0
210
0.0
220
0.0
230
1.0
  2
SOLID
 70
     1
 71
     1
 91
        1
 92
        1
 93
        1
 72
     4
 94
        3
 73
     0
 74
     0
 95
       80
 96
       76
 40
0.0
 40
0.0
 40
0.0
 40
0.0
 40
1.0
 40
1.0
 40
1.0
 40
2.0
 40
2.0
 40
2.0
 40
3.0
 40
3.0
 40
3.0
 40
4.0
 40
4.0
 40
4.0
 40
5.0
 40
5.0
 40
5.0
 40
6.0
 40
6.0
 40
6.0
 40
7.0
 40
7.0
 40
7.0
 40
8.0
 40
8.0
 40
8.0
 40
9.0
 40
9.0
 40
9.0
 40
10.0
 40
10.0
 40
10.0
 40
11.0
 40
11.0
 40
11.0
 40
12.0
 40
12.0
 40
12.0
 40
13.0
 40
13.0
 40
13.0
 40
14.0
 40
14.0
 40
14.0
 40
15.0
 40
15.0
 40
15.0
 40
16.0
 40
16.0
 40
16.0
 40
17.0
 40
17.0
 40
17.0
 40
18.0
 40
18.0
 40
18.0
 40
19.0
 40
19.0
 40
19.0
 40
20.0
 40
20.0
 40
20.0
 40
21.0
 40
21.0
 40
21.0
 40
22.0
 40
22.0
 40
22.0
 40
23.0
 40
23.0
 40
23.0
 40
24.0
 40
24.0
 40
24.0
 40
25.0
 40
25.0
 40
25.0
 40
25.0
 10
1.707682155606064
 20
-7.247275117545817
 10
1.707682155606064
 20
-7.226122231266385
 10
1.707234293192982
 20
-7.208758950020726
 10
1.705959607863439
 20
-7.191843531188148
 10
1.705959607863439
 20
-7.191843531188148
 10
1.738550211153904
 20
-7.191843531188148
 10
1.738550211153904
 20
-7.191843531188148
 10
1.738550211153904
 20
-7.191843531188148
 10
1.740238307941676
 20
-7.224847545936842
 10
1.740238307941676
 20
-7.224847545936842
 10
1.740238307941676
 20
-7.224847545936842
 10
1.741512993271217
 20
-7.224847545936842
 10
1.741512993271217
 20
-7.224847545936842
 10
1.752950710282247
 20
-7.205382756445181
 10
1.771967637360827
 20
-7.187192652283062
 10
1.805832925980832
 20
-7.187192652283062
 10
1.833738199411357
 20
-7.187192652283062
 10
1.85489108569079
 20
-7.204108071115639
 10
1.863779432042735
 20
-7.228223739512387
 10
1.863779432042735
 20
-7.228223739512387
 10
1.864640705914046
 20
-7.228223739512387
 10
1.864640705914046
 20
-7.228223739512387
 10
1.870979681606906
 20
-7.216786022501358
 10
1.879006754087539
 20
-7.207932127104267
 10
1.887481688981253
 20
-7.201558700456553
 10
1.899746228908743
 20
-7.192256942646379
 10
1.913285454165774
 20
-7.187192652283062
 10
1.932750243657436
 20
-7.187192652283062
 10
1.959828694171499
 20
-7.187192652283062
 10
2.000032958484366
 20
-7.204969344986951
 10
2.000032958484366
 20
-7.276041664847655
 10
2.000032958484366
 20
-7.276041664847655
 10
2.000032958484366
 20
-7.396620006831398
 10
2.000032958484366
 20
-7.396620006831398
 10
2.000032958484366
 20
-7.396620006831398
 10
1.963652750160128
 20
-7.396620006831398
 10
1.963652750160128
 20
-7.396620006831398
 10
1.963652750160128
 20
-7.396620006831398
 10
1.963652750160128
 20
-7.280692543752741
 10
1.963652750160128
 20
-7.280692543752741
 10
1.963652750160128
 20
-7.24134955331119
 10
1.949252251031784
 20
-7.217647296372669
 10
1.919211018400405
 20
-7.217647296372669
 10
1.898058132120971
 20
-7.217647296372669
 10
1.881556124746623
 20
-7.233288029875705
 10
1.875217149053765
 20
-7.251512584992675
 10
1.873529052265991
 20
-7.256576875355992
 10
1.872254366936449
 20
-7.263329262507083
 10
1.872254366936449
 20
-7.270116100613027
 10
1.872254366936449
 20
-7.270116100613027
 10
1.872254366936449
 20
-7.396620006831398
 10
1.872254366936449
 20
-7.396620006831398
 10
1.872254366936449
 20
-7.396620006831398
 10
1.835874158612211
 20
-7.396620006831398
 10
1.835874158612211
 20
-7.396620006831398
 10
1.835874158612211
 20
-7.396620006831398
 10
1.835874158612211
 20
-7.273905705646799
 10
1.835874158612211
 20
-7.273905705646799
 10
1.835874158612211
 20
-7.24134955331119
 10
1.821473659483866
 20
-7.217647296372669
 10
1.79312052364026
 20
-7.217647296372669
 10
1.769866129114823
 20
-7.217647296372669
 10
1.752950710282247
 20
-7.236250811993019
 10
1.747025146047618
 20
-7.254888778568221
 10
1.744889186846763
 20
-7.260366480389769
 10
1.744062363930303
 20
-7.26673990703748
 10
1.744062363930303
 20
-7.273078882730341
 10
1.744062363930303
 20
-7.273078882730341
 10
1.744062363930303
 20
-7.396620006831398
 10
1.744062363930303
 20
-7.396620006831398
 10
1.744062363930303
 20
-7.396620006831398
 10
1.707682155606064
 20
-7.396620006831398
 10
1.707682155606064
 20
-7.396620006831398
 10
1.707682155606064
 20
-7.396620006831398
 10
1.707682155606064
 20
-7.247275117545817
 10
1.707682155606064
 20
-7.247275117545817
 97
        1
330
CF
 75
     2
 76
     1
 98
        1
 10
0.0
 20
0.0
450
        0
451
        0
460
0.0
461
0.0
452
        0
462
0.0
453
        0
470

  0
ENDBLK
  5
C5
330
C2
100
AcDbEntity
  8
0
100
AcDbBlockEnd
  0
ENDSEC
  0
SECTION
  2
ENTITIES
  0
LWPOLYLINE
  5
79
330
70
100
AcDbEntity
  8
0
100
AcDbPolyline
 90
        4
 70
     1
 43
0.0
 10
4.884977169645816
 20
-6.462792424599577
 10
4.814421614107898
 20
-6.462792424599577
 10
4.814421614107898
 20
-2.471304795389118
 10
4.884977169645816
 20
-2.471304795389118
  0
LWPOLYLINE
  5
7A
330
70
100
AcDbEntity
  8
0
100
AcDbPolyline
 90
        4
 70
     1
 43
0.0
 10
5.218516882847342
 20
-2.471304795389118
 10
4.480881900906402
 20
-2.471304795389118
 10
4.480881900906402
 20
-2.237619047059615
 10
5.218516882847342
 20
-2.237619047059615
  0
LWPOLYLINE
  5
7B
330
70
100
AcDbEntity
  8
0
100
AcDbPolyline
 90
        9
 70
     1
 43
0.0
 10
6.948052909688842
 20
-8.075484454466351
 10
6.948052909712327
 20
-7.828370740780215
 10
4.916313789254552
 20
-6.82778969693919
 10
4.916313789273355
 20
-6.462792424601566
 10
4.862599078892646
 20
-6.462792424600797
 10
4.780166518138671
 20
-6.462792424599577
 10
4.780166518138671
 20
-6.827789696937137
 10
2.751345874041451
 20
-7.828370740747681
 10
2.751345874041451
 20
-8.075484454434008
  0
LINE
  5
7C
330
70
100
AcDbEntity
  8
0
100
AcDbLine
 10
2.751345874041451
 20
-7.828370740747681
 30
0.0
 11
6.948052909694488
 21
-7.828370740747681
 31
0.0
  0
LINE
  5
7E
330
70
100
AcDbEntity
  8
0
100
AcDbLine
 10
2.751345874041451
 20
-8.563414668083652
 30
0.0
 11
6.948052909712327
 21
-8.563414668083652
 31
0.0
  0
LWPOLYLINE
  5
7F
330
70
100
AcDbEntity
  8
0
100
AcDbPolyline
 90
        2
 70
     0
 43
0.0
 10
6.840346999278343
 20
-2.237619047059615
 10
6.840346999278343
 20
-2.237619047059615
  0
LINE
  5
80
330
70
100
AcDbEntity
  8
0
100
AcDbLine
 10
7.319970386950822
 20
-2.237619047059615
 30
0.0
 11
7.319970386950822
 21
-8.075484454466351
 31
0.0
  0
LINE
  5
81
330
70
100
AcDbEntity
  8
0
100
AcDbLine
 10
4.480881900906402
 20
-1.947433232248753
 30
0.0
 11
5.161665142424666
 21
-1.947433232248753
 31
0.0
  0
LINE
  5
82
330
70
100
AcDbEntity
  8
0
100
AcDbLine
 10
2.22749853548725
 20
-6.462792424599577
 30
0.0
 11
2.22749853548725
 21
-8.075484454466351
 31
0.0
  0
MTEXT
  5
11B
330
70
100
AcDbEntity
  8
0
100
AcDbMText
 10
4.440065507761055
 20
-1.364189369992657
 30
0.0
 40
0.4
 41
9.94674818082484
 46
0.0
 71
     1
 72
     5
  1
90 mm
 73
     1
 44
1.0
1001
ACAD
1000
ACAD_MTEXT_COLUMN_INFO_BEGIN
1070
    75
1070
     2
1070
    79
1070
     0
1070
    76
1070
     1
1070
    78
1070
     0
1070
    48
1040
9.94674818082484
1070
    49
1040
2.0
1070
    50
1070
     1
1040
0.0
1000
ACAD_MTEXT_COLUMN_INFO_END
  0
MTEXT
  5
121
330
70
100
AcDbEntity
  8
0
100
AcDbMText
 10
7.593236869151915
 20
-4.008369169138375
 30
0.0
 40
0.4
 41
9.94674818082484
 46
0.0
 71
     1
 72
     5
  1
2320 mm
 73
     1
 44
1.0
1001
ACAD
1000
ACAD_MTEXT_COLUMN_INFO_BEGIN
1070
    75
1070
     2
1070
    79
1070
     0
1070
    76
1070
     1
1070
    78
1070
     0
1070
    48
1040
9.94674818082484
1070
    49
1040
2.0
1070
    50
1070
     1
1040
0.0
1000
ACAD_MTEXT_COLUMN_INFO_END
  0
MTEXT
  5
129
330
70
100
AcDbEntity
  8
0
100
AcDbMText
 10
4.380290061719925
 20
-9.389418593657083
 30
0.0
 40
0.4
 41
9.94674818082484
 46
0.0
 71
     1
 72
     5
  1
500 mm
 73
     1
 44
1.0
1001
ACAD
1000
ACAD_MTEXT_COLUMN_INFO_BEGIN
1070
    75
1070
     2
1070
    79
1070
     0
1070
    76
1070
     1
1070
    78
1070
     0
1070
    48
1040
9.94674818082484
1070
    49
1040
2.0
1070
    50
1070
     1
1040
0.0
1000
ACAD_MTEXT_COLUMN_INFO_END
  0
MTEXT
  5
12F
330
70
100
AcDbEntity
  8
0
100
AcDbMText
 10
-0.0360153494122457
 20
-7.563757539481371
 30
0.0
 40
0.4
 41
9.94674818082484
 46
0.0
 71
     1
 72
     5
  1
170 mm
 73
     1
 44
1.0
1001
ACAD
1000
ACAD_MTEXT_COLUMN_INFO_BEGIN
1070
    75
1070
     2
1070
    79
1070
     0
1070
    76
1070
     1
1070
    78
1070
     0
1070
    48
1040
9.94674818082484
1070
    49
1040
2.0
1070
    50
1070
     1
1040
0.0
1000
ACAD_MTEXT_COLUMN_INFO_END
  0
ENDSEC
  0
SECTION
  2
OBJECTS
  0
DICTIONARY
  5
C
330
0
100
AcDbDictionary
281
     1
  3
ACAD_CIP_PREVIOUS_PRODUCT_INFO
350
114
  3
ACAD_COLOR
350
63
  3
ACAD_DETAILVIEWSTYLE
350
6A
  3
ACAD_GROUP
350
D
  3
ACAD_LAYOUT
350
62
  3
ACAD_MATERIAL
350
10
  3
ACAD_MLEADERSTYLE
350
66
  3
ACAD_MLINESTYLE
350
5F
  3
ACAD_PLOTSETTINGS
350
61
  3
ACAD_PLOTSTYLENAME
350
E
  3
ACAD_SCALELIST
350
42
  3
ACAD_SECTIONVIEWSTYLE
350
68
  3
ACAD_TABLESTYLE
350
64
  3
ACAD_VISUALSTYLE
350
29
  3
ACDB_RECOMPOSE_DATA
350
132
  3
AcDbVariableDictionary
350
D1
  0
XRECORD
  5
114
102
{ACAD_REACTORS
330
C
102
}
330
C
100
AcDbXrecord
280
     1
300
ACD
300
2019
300
ACD_F_S
  0
DICTIONARY
  5
63
102
{ACAD_REACTORS
330
C
102
}
330
C
100
AcDbDictionary
281
     1
  0
DICTIONARY
  5
6A
102
{ACAD_REACTORS
330
C
102
}
330
C
100
AcDbDictionary
281
     1
  3
Imperial24
350
6B
  0
DICTIONARY
  5
D
102
{ACAD_REACTORS
330
C
102
}
330
C
100
AcDbDictionary
281
     1
  0
DICTIONARY
  5
62
102
{ACAD_REACTORS
330
C
102
}
330
C
100
AcDbDictionary
281
     1
  3
Layout1
350
6F
  3
Layout2
350
77
  3
Model
350
73
  0
DICTIONARY
  5
10
102
{ACAD_REACTORS
330
C
102
}
330
C
100
AcDbDictionary
281
     1
  3
ByBlock
350
19
  3
ByLayer
350
11
  3
Global
350
21
  0
DICTIONARY
  5
66
102
{ACAD_REACTORS
330
C
102
}
330
C
100
AcDbDictionary
281
     1
  3
Standard
350
67
  0
DICTIONARY
  5
5F
102
{ACAD_REACTORS
330
C
102
}
330
C
100
AcDbDictionary
281
     1
  3
Standard
350
60
  0
DICTIONARY
  5
61
102
{ACAD_REACTORS
330
C
102
}
330
C
100
AcDbDictionary
281
     1
  0
ACDBDICTIONARYWDFLT
  5
E
102
{ACAD_REACTORS
330
C
102
}
330
C
100
AcDbDictionary
281
     1
  3
Normal
350
F
100
AcDbDictionaryWithDefault
340
F
  0
DICTIONARY
  5
42
102
{ACAD_REACTORS
330
C
102
}
330
C
100
AcDbDictionary
281
     1
  3
A0
350
43
  3
A1
350
44
  3
A2
350
45
  3
A3
350
46
  3
A4
350
47
  3
A5
350
48
  3
A6
350
49
  3
A7
350
4A
  3
A8
350
4B
  3
A9
350
4C
  3
B0
350
4D
  3
B1
350
4E
  3
B2
350
4F
  3
B3
350
50
  3
B4
350
51
  3
B5
350
52
  3
B6
350
53
  0
DICTIONARY
  5
68
102
{ACAD_REACTORS
330
C
102
}
330
C
100
AcDbDictionary
281
     1
  3
Imperial24
350
69
  0
DICTIONARY
  5
64
102
{ACAD_REACTORS
330
C
102
}
330
C
100
AcDbDictionary
281
     1
  3
Standard
350
65
  0
DICTIONARY
  5
29
102
{ACAD_REACTORS
330
C
102
}
330
C
100
AcDbDictionary
281
     1
  3
2dWireframe
350
2F
  3
Basic
350
2E
  3
Brighten
350
35
  3
ColorChange
350
39
  3
Conceptual
350
32
  3
Dim
350
34
  3
EdgeColorOff
350
41
  3
Facepattern
350
38
  3
Flat
350
2A
  3
FlatWithEdges
350
2B
  3
Gouraud
350
2C
  3
GouraudWithEdges
350
2D
  3
Hidden
350
31
  3
JitterOff
350
3F
  3
Linepattern
350
37
  3
OverhangOff
350
40
  3
Realistic
350
33
  3
Shaded
350
3E
  3
Shaded with edges
350
3D
  3
Shades of Gray
350
3A
  3
Sketchy
350
3B
  3
Thicken
350
36
  3
Wireframe
350
30
  3
X-Ray
350
3C
  0
XRECORD
  5
132
102
{ACAD_REACTORS
330
C
102
}
330
C
100
AcDbXrecord
280
     1
 90
        1
330
65
330
11B
330
121
330
129
330
12F
  0
DICTIONARY
  5
D1
102
{ACAD_REACTORS
330
C
102
}
330
C
100
AcDbDictionary
281
     1
  3
CANNOSCALE
350
D6
  3
CMLEADERSTYLE
350
D3
  3
CTABLESTYLE
350
D2
  3
CVIEWDETAILSTYLE
350
D4
  3
CVIEWSECTIONSTYLE
350
D5
  3
XCLIPFRAME
350
130
  0
ACDBDETAILVIEWSTYLE
  5
6B
102
{ACAD_XDICTIONARY
360
168
102
}
102
{ACAD_REACTORS
330
6A
102
}
330
6A
100
AcDbModelDocViewStyle
 70
     0
  3
Imperial24
290
     0
100
AcDbDetailViewStyle
 70
     0
 71
     0
 90
        3
 71
     1
340
55
 62
   256
 40
0.24
340
0
 62
   256
 40
0.24
300

 40
0.36
280
     3
 71
     2
340
5D
 90
       25
 62
   256
 71
     3
340
55
 62
   256
 40
0.24
 90
        1
 40
0.75
 90
        1
300
%<\AcVar ViewType \f "%tc1">% %<\AcVar ViewDetailId>%\PSCALE %<\AcVar ViewScale \f "%sn">%
 71
     4
340
5D
 90
       25
 62
   256
340
5D
 90
       25
 62
   256
280
     0
  0
LAYOUT
  5
6F
102
{ACAD_REACTORS
330
62
102
}
330
62
100
AcDbPlotSettings
  1

  2

  4

  6

 40
0.0
 41
0.0
 42
0.0
 43
0.0
 44
0.0
 45
0.0
 46
0.0
 47
0.0
 48
0.0
 49
0.0
140
0.0
141
0.0
142
1.0
143
1.0
 70
   688
 72
     0
 73
     0
 74
     5
  7

 75
    16
147
1.0
 76
     0
 77
     2
 78
   300
148
0.0
149
0.0
100
AcDbLayout
  1
Layout1
 70
     1
 71
     1
 10
0.0
 20
0.0
 11
12.0
 21
9.0
 12
0.0
 22
0.0
 32
0.0
 14
1.000000000000000E+20
 24
1.000000000000000E+20
 34
1.000000000000000E+20
 15
-1.000000000000000E+20
 25
-1.000000000000000E+20
 35
-1.000000000000000E+20
146
0.0
 13
0.0
 23
0.0
 33
0.0
 16
1.0
 26
0.0
 36
0.0
 17
0.0
 27
1.0
 37
0.0
 76
     0
330
6C
  0
LAYOUT
  5
77
102
{ACAD_REACTORS
330
62
102
}
330
62
100
AcDbPlotSettings
  1

  2

  4

  6

 40
0.0
 41
0.0
 42
0.0
 43
0.0
 44
0.0
 45
0.0
 46
0.0
 47
0.0
 48
0.0
 49
0.0
140
0.0
141
0.0
142
1.0
143
1.0
 70
   688
 72
     0
 73
     0
 74
     5
  7

 75
    16
147
1.0
 76
     0
 77
     2
 78
   300
148
0.0
149
0.0
100
AcDbLayout
  1
Layout2
 70
     1
 71
     2
 10
0.0
 20
0.0
 11
12.0
 21
9.0
 12
0.0
 22
0.0
 32
0.0
 14
0.0
 24
0.0
 34
0.0
 15
0.0
 25
0.0
 35
0.0
146
0.0
 13
0.0
 23
0.0
 33
0.0
 16
1.0
 26
0.0
 36
0.0
 17
0.0
 27
1.0
 37
0.0
 76
     0
330
74
  0
LAYOUT
  5
73
102
{ACAD_REACTORS
330
62
102
}
330
62
100
AcDbPlotSettings
  1

  2

  4

  6

 40
0.0
 41
0.0
 42
0.0
 43
0.0
 44
0.0
 45
0.0
 46
0.0
 47
0.0
 48
0.0
 49
0.0
140
0.0
141
0.0
142
1.0
143
1.0
 70
  1712
 72
     0
 73
     0
 74
     0
  7

 75
     0
147
1.0
 76
     0
 77
     2
 78
   300
148
0.0
149
0.0
100
AcDbLayout
  1
Model
 70
     1
 71
     0
 10
0.0
 20
0.0
 11
12.0
 21
9.0
 12
0.0
 22
0.0
 32
0.0
 14
0.0
 24
0.0
 34
0.0
 15
0.0
 25
0.0
 35
0.0
146
0.0
 13
0.0
 23
0.0
 33
0.0
 16
1.0
 26
0.0
 36
0.0
 17
0.0
 27
1.0
 37
0.0
 76
     0
330
70
331
57
  0
MATERIAL
  5
19
102
{ACAD_XDICTIONARY
360
1A
102
}
102
{ACAD_REACTORS
330
10
102
}
330
10
100
AcDbMaterial
  1
ByBlock
 72
     0
 43
0.0208333333333333
 43
0.0
 43
0.0
 43
0.0
 43
0.0
 43
0.0208333333333333
 43
0.0
 43
0.0
 43
0.0
 43
0.0
 43
1.0
 43
0.0
 43
0.0
 43
0.0
 43
0.0
 43
1.0
 77
     0
 47
0.0208333333333333
 47
0.0
 47
0.0
 47
0.0
 47
0.0
 47
0.0208333333333333
 47
0.0
 47
0.0
 47
0.0
 47
0.0
 47
1.0
 47
0.0
 47
0.0
 47
0.0
 47
0.0
 47
1.0
171
     0
 49
0.0208333333333333
 49
0.0
 49
0.0
 49
0.0
 49
0.0
 49
0.0208333333333333
 49
0.0
 49
0.0
 49
0.0
 49
0.0
 49
1.0
 49
0.0
 49
0.0
 49
0.0
 49
0.0
 49
1.0
175
     0
142
0.0208333333333333
142
0.0
142
0.0
142
0.0
142
0.0
142
0.0208333333333333
142
0.0
142
0.0
142
0.0
142
0.0
142
1.0
142
0.0
142
0.0
142
0.0
142
0.0
142
1.0
179
     0
144
0.0208333333333333
144
0.0
144
0.0
144
0.0
144
0.0
144
0.0208333333333333
144
0.0
144
0.0
144
0.0
144
0.0
144
1.0
144
0.0
144
0.0
144
0.0
144
0.0
144
1.0
147
0.0208333333333333
147
0.0
147
0.0
147
0.0
147
0.0
147
0.0208333333333333
147
0.0
147
0.0
147
0.0
147
0.0
147
1.0
147
0.0
147
0.0
147
0.0
147
0.0
147
1.0
  0
MATERIAL
  5
11
102
{ACAD_XDICTIONARY
360
12
102
}
102
{ACAD_REACTORS
330
10
102
}
330
10
100
AcDbMaterial
  1
ByLayer
 72
     0
 43
0.0208333333333333
 43
0.0
 43
0.0
 43
0.0
 43
0.0
 43
0.0208333333333333
 43
0.0
 43
0.0
 43
0.0
 43
0.0
 43
1.0
 43
0.0
 43
0.0
 43
0.0
 43
0.0
 43
1.0
 77
     0
 47
0.0208333333333333
 47
0.0
 47
0.0
 47
0.0
 47
0.0
 47
0.0208333333333333
 47
0.0
 47
0.0
 47
0.0
 47
0.0
 47
1.0
 47
0.0
 47
0.0
 47
0.0
 47
0.0
 47
1.0
171
     0
 49
0.0208333333333333
 49
0.0
 49
0.0
 49
0.0
 49
0.0
 49
0.0208333333333333
 49
0.0
 49
0.0
 49
0.0
 49
0.0
 49
1.0
 49
0.0
 49
0.0
 49
0.0
 49
0.0
 49
1.0
175
     0
142
0.0208333333333333
142
0.0
142
0.0
142
0.0
142
0.0
142
0.0208333333333333
142
0.0
142
0.0
142
0.0
142
0.0
142
1.0
142
0.0
142
0.0
142
0.0
142
0.0
142
1.0
179
     0
144
0.0208333333333333
144
0.0
144
0.0
144
0.0
144
0.0
144
0.0208333333333333
144
0.0
144
0.0
144
0.0
144
0.0
144
1.0
144
0.0
144
0.0
144
0.0
144
0.0
144
1.0
147
0.0208333333333333
147
0.0
147
0.0
147
0.0
147
0.0
147
0.0208333333333333
147
0.0
147
0.0
147
0.0
147
0.0
147
1.0
147
0.0
147
0.0
147
0.0
147
0.0
147
1.0
  0
MATERIAL
  5
21
102
{ACAD_XDICTIONARY
360
22
102
}
102
{ACAD_REACTORS
330
10
102
}
330
10
100
AcDbMaterial
  1
Global
 72
     0
 43
0.0208333333333333
 43
0.0
 43
0.0
 43
0.0
 43
0.0
 43
0.0208333333333333
 43
0.0
 43
0.0
 43
0.0
 43
0.0
 43
1.0
 43
0.0
 43
0.0
 43
0.0
 43
0.0
 43
1.0
 77
     0
 47
0.0208333333333333
 47
0.0
 47
0.0
 47
0.0
 47
0.0
 47
0.0208333333333333
 47
0.0
 47
0.0
 47
0.0
 47
0.0
 47
1.0
 47
0.0
 47
0.0
 47
0.0
 47
0.0
 47
1.0
171
     0
 49
0.0208333333333333
 49
0.0
 49
0.0
 49
0.0
 49
0.0
 49
0.0208333333333333
 49
0.0
 49
0.0
 49
0.0
 49
0.0
 49
1.0
 49
0.0
 49
0.0
 49
0.0
 49
0.0
 49
1.0
175
     0
142
0.0208333333333333
142
0.0
142
0.0
142
0.0
142
0.0
142
0.0208333333333333
142
0.0
142
0.0
142
0.0
142
0.0
142
1.0
142
0.0
142
0.0
142
0.0
142
0.0
142
1.0
179
     0
144
0.0208333333333333
144
0.0
144
0.0
144
0.0
144
0.0
144
0.0208333333333333
144
0.0
144
0.0
144
0.0
144
0.0
144
1.0
144
0.0
144
0.0
144
0.0
144
0.0
144
1.0
147
0.0208333333333333
147
0.0
147
0.0
147
0.0
147
0.0
147
0.0208333333333333
147
0.0
147
0.0
147
0.0
147
0.0
147
1.0
147
0.0
147
0.0
147
0.0
147
0.0
147
1.0
  0
MLEADERSTYLE
  5
67
102
{ACAD_XDICTIONARY
360
164
102
}
102
{ACAD_REACTORS
330
66
102
}
330
66
100
AcDbMLeaderStyle
170
     2
171
     1
172
     0
 90
        2
 40
0.0
 41
0.0
173
     1
 91
-1056964608
340
5B
 92
       -2
290
     1
 42
0.09
291
     1
 43
0.36
  3
Standard
 44
0.18
300

342
55
174
     1
178
     6
175
     1
176
     0
 93
-1056964608
 45
0.18
292
     0
297
     0
 46
0.18
 94
-1056964608
 47
1.0
 49
1.0
140
1.0
293
     1
141
0.0
294
     1
177
     0
142
1.0
295
     0
296
     0
143
0.125
1001
ACAD_MLEADERVER
1070
     2
  0
MLINESTYLE
  5
60
102
{ACAD_REACTORS
330
5F
102
}
330
5F
100
AcDbMlineStyle
  2
STANDARD
 70
     0
  3

 62
   256
 51
90.0
 52
90.0
 71
     2
 49
0.5
 62
   256
  6
BYLAYER
 49
-0.5
 62
   256
  6
BYLAYER
  0
ACDBPLACEHOLDER
  5
F
102
{ACAD_REACTORS
330
E
102
}
330
E
  0
SCALE
  5
43
102
{ACAD_REACTORS
330
42
102
}
330
42
100
AcDbScale
 70
     0
300
1:1
140
1.0
141
1.0
290
     1
  0
SCALE
  5
44
102
{ACAD_REACTORS
330
42
102
}
330
42
100
AcDbScale
 70
     0
300
1/128" = 1'-0"
140
0.0078125
141
12.0
290
     0
  0
SCALE
  5
45
102
{ACAD_REACTORS
330
42
102
}
330
42
100
AcDbScale
 70
     0
300
1/64" = 1'-0"
140
0.015625
141
12.0
290
     0
  0
SCALE
  5
46
102
{ACAD_REACTORS
330
42
102
}
330
42
100
AcDbScale
 70
     0
300
1/32" = 1'-0"
140
0.03125
141
12.0
290
     0
  0
SCALE
  5
47
102
{ACAD_REACTORS
330
42
102
}
330
42
100
AcDbScale
 70
     0
300
1/16" = 1'-0"
140
0.0625
141
12.0
290
     0
  0
SCALE
  5
48
102
{ACAD_REACTORS
330
42
102
}
330
42
100
AcDbScale
 70
     0
300
3/32" = 1'-0"
140
0.09375
141
12.0
290
     0
  0
SCALE
  5
49
102
{ACAD_REACTORS
330
42
102
}
330
42
100
AcDbScale
 70
     0
300
1/8" = 1'-0"
140
0.125
141
12.0
290
     0
  0
SCALE
  5
4A
102
{ACAD_REACTORS
330
42
102
}
330
42
100
AcDbScale
 70
     0
300
3/16" = 1'-0"
140
0.1875
141
12.0
290
     0
  0
SCALE
  5
4B
102
{ACAD_REACTORS
330
42
102
}
330
42
100
AcDbScale
 70
     0
300
1/4" = 1'-0"
140
0.25
141
12.0
290
     0
  0
SCALE
  5
4C
102
{ACAD_REACTORS
330
42
102
}
330
42
100
AcDbScale
 70
     0
300
3/8" = 1'-0"
140
0.375
141
12.0
290
     0
  0
SCALE
  5
4D
102
{ACAD_REACTORS
330
42
102
}
330
42
100
AcDbScale
 70
     0
300
1/2" = 1'-0"
140
0.5
141
12.0
290
     0
  0
SCALE
  5
4E
102
{ACAD_REACTORS
330
42
102
}
330
42
100
AcDbScale
 70
     0
300
3/4" = 1'-0"
140
0.75
141
12.0
290
     0
  0
SCALE
  5
4F
102
{ACAD_REACTORS
330
42
102
}
330
42
100
AcDbScale
 70
     0
300
1" = 1'-0"
140
1.0
141
12.0
290
     0
  0
SCALE
  5
50
102
{ACAD_REACTORS
330
42
102
}
330
42
100
AcDbScale
 70
     0
300
1-1/2" = 1'-0"
140
1.5
141
12.0
290
     0
  0
SCALE
  5
51
102
{ACAD_REACTORS
330
42
102
}
330
42
100
AcDbScale
 70
     0
300
3" = 1'-0"
140
3.0
141
12.0
290
     0
  0
SCALE
  5
52
102
{ACAD_REACTORS
330
42
102
}
330
42
100
AcDbScale
 70
     0
300
6" = 1'-0"
140
6.0
141
12.0
290
     0
  0
SCALE
  5
53
102
{ACAD_REACTORS
330
42
102
}
330
42
100
AcDbScale
 70
     0
300
1'-0" = 1'-0"
140
12.0
141
12.0
290
     0
  0
ACDBSECTIONVIEWSTYLE
  5
69
102
{ACAD_XDICTIONARY
360
166
102
}
102
{ACAD_REACTORS
330
68
102
}
330
68
100
AcDbModelDocViewStyle
 70
     0
  3
Imperial24
290
     0
100
AcDbSectionViewStyle
 70
     0
 71
     0
 90
       78
 71
     1
340
55
 62
   256
 40
0.24
340
0
340
0
 62
   256
 40
0.24
300
I, O, Q, S, X, Z
 40
0.48
 90
        3
 40
0.18
 90
        1
 71
     2
340
5D
 90
       25
 62
   256
340
5D
 90
       50
 62
   256
 40
0.24
 40
0.0
 40
0.24
 71
     3
340
55
 62
   256
 40
0.24
 90
        1
 40
0.75
 90
        1
300
%<\AcVar ViewType \f "%tc1">% %<\AcVar ViewSectionStartId>%-%<\AcVar ViewSectionEndId>%\PSCALE %<\AcVar ViewScale \f "%sn">%
 71
     4
 62
   256
 62
   257
300
ANSI31
 40
1.0
 90
        0
290
     0
290
     0
 90
        6
 40
0.0
 40
1.570796326794896
 40
0.2617993877991494
 40
1.308996938995747
 40
-0.2617993877991494
 40
1.832595714594045
  0
TABLESTYLE
  5
65
102
{ACAD_XDICTIONARY
360
D7
102
}
102
{ACAD_REACTORS
330
64
102
}
330
64
100
AcDbTableStyle
  3
Standard
 70
     0
 71
     0
 40
0.06
 41
0.06
280
     0
281
     0
  7
Standard
140
0.18
170
     2
 62
     0
 63
     7
283
     0
 90
      512
 91
        0
  1

274
    -2
284
     1
 64
     0
275
    -2
285
     1
 65
     0
276
    -2
286
     1
 66
     0
277
    -2
287
     1
 67
     0
278
    -2
288
     1
 68
     0
279
    -2
289
     1
 69
     0
  7
Standard
140
0.25
170
     5
 62
     0
 63
     7
283
     0
 90
      512
 91
        0
  1

274
    -2
284
     1
 64
     0
275
    -2
285
     1
 65
     0
276
    -2
286
     1
 66
     0
277
    -2
287
     1
 67
     0
278
    -2
288
     1
 68
     0
279
    -2
289
     1
 69
     0
  7
Standard
140
0.18
170
     5
 62
     0
 63
     7
283
     0
 90
      512
 91
        0
  1

274
    -2
284
     1
 64
     0
275
    -2
285
     1
 65
     0
276
    -2
286
     1
 66
     0
277
    -2
287
     1
 67
     0
278
    -2
288
     1
 68
     0
279
    -2
289
     1
 69
     0
  0
VISUALSTYLE
  5
2F
102
{ACAD_XDICTIONARY
360
13D
102
}
102
{ACAD_REACTORS
330
29
102
}
330
29
100
AcDbVisualStyle
  2
2dWireframe
 70
     4
 71
     0
 72
     2
 73
     0
 90
        0
 40
-0.6
 41
-30.0
 62
     5
 63
     7
421
 16777215
 74
     1
 91
        4
 64
     7
 65
   257
 75
     1
175
     1
 42
1.0
 92
        0
 66
   257
 43
1.0
 76
     1
 77
     6
 78
     2
 67
     7
 79
     5
170
     0
171
     0
290
     0
174
     0
 93
        1
 44
0.0
173
     0
291
     0
 45
0.0
1001
ACAD
1000
AcDbSavedByObjectVersion
1070
     0
  0
VISUALSTYLE
  5
2E
102
{ACAD_XDICTIONARY
360
13B
102
}
102
{ACAD_REACTORS
330
29
102
}
330
29
100
AcDbVisualStyle
  2
Basic
 70
     7
 71
     1
 72
     0
 73
     1
 90
        0
 40
-0.6
 41
-30.0
 62
     5
 63
     7
421
 16777215
 74
     0
 91
        4
 64
     7
 65
   257
 75
     1
175
     1
 42
1.0
 92
        8
 66
     7
 43
1.0
 76
     1
 77
     6
 78
     2
 67
     7
 79
     5
170
     0
171
     0
290
     0
174
     0
 93
        1
 44
0.0
173
     0
291
     1
 45
0.0
1001
ACAD
1000
AcDbSavedByObjectVersion
1070
     0
  0
VISUALSTYLE
  5
35
102
{ACAD_XDICTIONARY
360
149
102
}
102
{ACAD_REACTORS
330
29
102
}
330
29
100
AcDbVisualStyle
  2
Brighten
 70
    12
 71
     2
 72
     2
 73
     0
 90
        0
 40
-0.6
 41
-30.0
 62
     5
 63
     7
421
 16777215
 74
     1
 91
        4
 64
     7
 65
   257
 75
     1
175
     1
 42
1.0
 92
        8
 66
     7
 43
1.0
 76
     1
 77
     6
 78
     2
 67
     7
 79
     5
170
     0
171
     0
290
     0
174
     0
 93
        1
 44
50.0
173
     0
291
     1
 45
0.0
1001
ACAD
1000
AcDbSavedByObjectVersion
1070
     0
  0
VISUALSTYLE
  5
39
102
{ACAD_XDICTIONARY
360
151
102
}
102
{ACAD_REACTORS
330
29
102
}
330
29
100
AcDbVisualStyle
  2
ColorChange
 70
    16
 71
     2
 72
     2
 73
     3
 90
        0
 40
-0.6
 41
-30.0
 62
     5
 63
     8
421
  8421504
 74
     1
 91
        4
 64
     7
 65
   257
 75
     1
175
     1
 42
1.0
 92
        8
 66
     8
424
  8421504
 43
1.0
 76
     1
 77
     6
 78
     2
 67
     7
 79
     5
170
     0
171
     0
290
     0
174
     0
 93
        1
 44
0.0
173
     0
291
     1
 45
0.0
1001
ACAD
1000
AcDbSavedByObjectVersion
1070
     0
  0
VISUALSTYLE
  5
32
102
{ACAD_XDICTIONARY
360
143
102
}
102
{ACAD_REACTORS
330
29
102
}
330
29
100
AcDbVisualStyle
  2
Conceptual
 70
     9
 71
     3
 72
     2
 73
     0
 90
        0
 40
-0.6
 41
-30.0
 62
     5
 63
     7
421
 16777215
 74
     2
 91
        2
 64
     7
 65
   257
 75
     1
175
     1
 42
179.0
 92
        8
 66
     7
 43
1.0
 76
     1
 77
     6
 78
     2
 67
     7
 79
     3
170
     0
171
     0
290
     0
174
     0
 93
        1
 44
0.0
173
     0
291
     0
 45
0.0
1001
ACAD
1000
AcDbSavedByObjectVersion
1070
     0
  0
VISUALSTYLE
  5
34
102
{ACAD_XDICTIONARY
360
147
102
}
102
{ACAD_REACTORS
330
29
102
}
330
29
100
AcDbVisualStyle
  2
Dim
 70
    11
 71
     2
 72
     2
 73
     0
 90
        0
 40
-0.6
 41
-30.0
 62
     5
 63
     7
421
 16777215
 74
     1
 91
        4
 64
     7
 65
   257
 75
     1
175
     1
 42
1.0
 92
        8
 66
     7
 43
1.0
 76
     1
 77
     6
 78
     2
 67
     7
 79
     5
170
     0
171
     0
290
     0
174
     0
 93
        1
 44
-50.0
173
     0
291
     1
 45
0.0
1001
ACAD
1000
AcDbSavedByObjectVersion
1070
     0
  0
VISUALSTYLE
  5
41
102
{ACAD_XDICTIONARY
360
161
102
}
102
{ACAD_REACTORS
330
29
102
}
330
29
100
AcDbVisualStyle
  2
EdgeColorOff
 70
    22
 71
     2
 72
     2
 73
     0
 90
        0
 40
-0.6
 41
-30.0
 62
     5
 63
     7
421
 16777215
 74
     1
 91
        4
 64
     7
 65
   257
 75
     1
175
     1
 42
1.0
 92
        8
 66
     7
 43
1.0
 76
     1
 77
     6
 78
     2
 67
     7
 79
     5
170
     0
171
     0
290
     0
174
     0
 93
        1
 44
0.0
173
     0
291
     1
 45
0.0
1001
ACAD
1000
AcDbSavedByObjectVersion
1070
     0
  0
VISUALSTYLE
  5
38
102
{ACAD_XDICTIONARY
360
14F
102
}
102
{ACAD_REACTORS
330
29
102
}
330
29
100
AcDbVisualStyle
  2
Facepattern
 70
    15
 71
     2
 72
     2
 73
     0
 90
        0
 40
-0.6
 41
-30.0
 62
     5
 63
     7
421
 16777215
 74
     1
 91
        4
 64
     7
 65
   257
 75
     1
175
     1
 42
1.0
 92
        8
 66
     7
 43
1.0
 76
     1
 77
     6
 78
     2
 67
     7
 79
     5
170
     0
171
     0
290
     0
174
     0
 93
        1
 44
0.0
173
     0
291
     1
 45
0.0
1001
ACAD
1000
AcDbSavedByObjectVersion
1070
     0
  0
VISUALSTYLE
  5
2A
102
{ACAD_XDICTIONARY
360
133
102
}
102
{ACAD_REACTORS
330
29
102
}
330
29
100
AcDbVisualStyle
  2
Flat
 70
     0
 71
     2
 72
     1
 73
     1
 90
        2
 40
-0.6
 41
30.0
 62
     5
 63
     7
421
 16777215
 74
     0
 91
        0
 64
     7
 65
   257
 75
     1
175
     1
 42
1.0
 92
        8
 66
     7
 43
1.0
 76
     1
 77
     6
 78
     2
 67
     7
 79
     5
170
     0
171
     0
290
     0
174
     0
 93
       13
 44
0.0
173
     0
291
     1
 45
0.0
1001
ACAD
1000
AcDbSavedByObjectVersion
1070
     0
  0
VISUALSTYLE
  5
2B
102
{ACAD_XDICTIONARY
360
135
102
}
102
{ACAD_REACTORS
330
29
102
}
330
29
100
AcDbVisualStyle
  2
FlatWithEdges
 70
     1
 71
     2
 72
     1
 73
     1
 90
        2
 40
-0.6
 41
30.0
 62
     5
 63
     7
421
 16777215
 74
     1
 91
        0
 64
     7
 65
   257
 75
     1
175
     1
 42
1.0
 92
        0
 66
   257
 43
1.0
 76
     1
 77
     6
 78
     2
 67
     7
 79
     5
170
     0
171
     0
290
     0
174
     0
 93
       13
 44
0.0
173
     0
291
     1
 45
0.0
1001
ACAD
1000
AcDbSavedByObjectVersion
1070
     0
  0
VISUALSTYLE
  5
2C
102
{ACAD_XDICTIONARY
360
137
102
}
102
{ACAD_REACTORS
330
29
102
}
330
29
100
AcDbVisualStyle
  2
Gouraud
 70
     2
 71
     2
 72
     2
 73
     1
 90
        2
 40
-0.6
 41
30.0
 62
     5
 63
     7
421
 16777215
 74
     0
 91
        0
 64
     7
 65
   257
 75
     1
175
     1
 42
1.0
 92
        0
 66
     7
 43
1.0
 76
     1
 77
     6
 78
     2
 67
     7
 79
     5
170
     0
171
     0
290
     0
174
     0
 93
       13
 44
0.0
173
     0
291
     1
 45
0.0
1001
ACAD
1000
AcDbSavedByObjectVersion
1070
     0
  0
VISUALSTYLE
  5
2D
102
{ACAD_XDICTIONARY
360
139
102
}
102
{ACAD_REACTORS
330
29
102
}
330
29
100
AcDbVisualStyle
  2
GouraudWithEdges
 70
     3
 71
     2
 72
     2
 73
     1
 90
        2
 40
-0.6
 41
30.0
 62
     5
 63
     7
421
 16777215
 74
     1
 91
        0
 64
     7
 65
   257
 75
     1
175
     1
 42
1.0
 92
        0
 66
   257
 43
1.0
 76
     1
 77
     6
 78
     2
 67
     7
 79
     5
170
     0
171
     0
290
     0
174
     0
 93
       13
 44
0.0
173
     0
291
     1
 45
0.0
1001
ACAD
1000
AcDbSavedByObjectVersion
1070
     0
  0
VISUALSTYLE
  5
31
102
{ACAD_XDICTIONARY
360
141
102
}
102
{ACAD_REACTORS
330
29
102
}
330
29
100
AcDbVisualStyle
  2
Hidden
 70
     6
 71
     1
 72
     2
 73
     2
 90
        0
 40
-0.6
 41
-30.0
 62
     5
 63
     7
421
 16777215
 74
     2
 91
        2
 64
     7
 65
   257
 75
     2
175
     1
 42
40.0
 92
        0
 66
   257
 43
1.0
 76
     1
 77
     6
 78
     2
 67
     7
 79
     3
170
     0
171
     0
290
     0
174
     0
 93
        1
 44
0.0
173
     0
291
     0
 45
0.0
1001
ACAD
1000
AcDbSavedByObjectVersion
1070
     0
  0
VISUALSTYLE
  5
3F
102
{ACAD_XDICTIONARY
360
15D
102
}
102
{ACAD_REACTORS
330
29
102
}
330
29
100
AcDbVisualStyle
  2
JitterOff
 70
    20
 71
     2
 72
     2
 73
     0
 90
        0
 40
-0.6
 41
-30.0
 62
     5
 63
     7
421
 16777215
 74
     1
 91
        4
 64
     7
 65
   257
 75
     1
175
     1
 42
1.0
 92
       10
 66
     7
 43
1.0
 76
     1
 77
     6
 78
     2
 67
     7
 79
     5
170
     0
171
     0
290
     0
174
     0
 93
        1
 44
0.0
173
     0
291
     1
 45
0.0
1001
ACAD
1000
AcDbSavedByObjectVersion
1070
     0
  0
VISUALSTYLE
  5
37
102
{ACAD_XDICTIONARY
360
14D
102
}
102
{ACAD_REACTORS
330
29
102
}
330
29
100
AcDbVisualStyle
  2
Linepattern
 70
    14
 71
     2
 72
     2
 73
     0
 90
        0
 40
-0.6
 41
-30.0
 62
     5
 63
     7
421
 16777215
 74
     1
 91
        4
 64
     7
 65
   257
 75
     7
175
     7
 42
1.0
 92
        8
 66
     7
 43
1.0
 76
     1
 77
     6
 78
     2
 67
     7
 79
     5
170
     0
171
     0
290
     0
174
     0
 93
        1
 44
0.0
173
     0
291
     1
 45
0.0
1001
ACAD
1000
AcDbSavedByObjectVersion
1070
     0
  0
VISUALSTYLE
  5
40
102
{ACAD_XDICTIONARY
360
15F
102
}
102
{ACAD_REACTORS
330
29
102
}
330
29
100
AcDbVisualStyle
  2
OverhangOff
 70
    21
 71
     2
 72
     2
 73
     0
 90
        0
 40
-0.6
 41
-30.0
 62
     5
 63
     7
421
 16777215
 74
     1
 91
        4
 64
     7
 65
   257
 75
     1
175
     1
 42
1.0
 92
        9
 66
     7
 43
1.0
 76
     1
 77
     6
 78
     2
 67
     7
 79
     5
170
     0
171
     0
290
     0
174
     0
 93
        1
 44
0.0
173
     0
291
     1
 45
0.0
1001
ACAD
1000
AcDbSavedByObjectVersion
1070
     0
  0
VISUALSTYLE
  5
33
102
{ACAD_XDICTIONARY
360
145
102
}
102
{ACAD_REACTORS
330
29
102
}
330
29
100
AcDbVisualStyle
  2
Realistic
 70
     8
 71
     2
 72
     3
 73
     0
 90
        2
 40
-0.6
 41
30.0
 62
     5
 63
     7
421
 16777215
 74
     0
 91
        0
 64
     7
 65
   257
 75
     1
175
     1
 42
1.0
 92
        8
 66
   257
 43
1.0
 76
     1
 77
     6
 78
     2
 67
     7
 79
     3
170
     0
171
     0
290
     0
174
     0
 93
       13
 44
0.0
173
     0
291
     0
 45
0.0
1001
ACAD
1000
AcDbSavedByObjectVersion
1070
     0
  0
VISUALSTYLE
  5
3E
102
{ACAD_XDICTIONARY
360
15B
102
}
102
{ACAD_REACTORS
330
29
102
}
330
29
100
AcDbVisualStyle
  2
Shaded
 70
    27
 71
     2
 72
     2
 73
     1
 90
        2
 40
-0.6
 41
30.0
 62
     5
 63
     7
421
 16777215
 74
     0
 91
        4
 64
     7
 65
   257
 75
     1
175
     1
 42
1.0
 92
        8
 66
   257
 43
1.0
 76
     1
 77
     6
 78
     2
 67
     8
425
  7895160
 79
     3
170
     0
171
     0
290
     0
174
     0
 93
        5
 44
0.0
173
     0
291
     0
 45
0.0
1001
ACAD
1000
AcDbSavedByObjectVersion
1070
     0
  0
VISUALSTYLE
  5
3D
102
{ACAD_XDICTIONARY
360
159
102
}
102
{ACAD_REACTORS
330
29
102
}
330
29
100
AcDbVisualStyle
  2
Shaded with edges
 70
    26
 71
     2
 72
     2
 73
     1
 90
        2
 40
-0.6
 41
30.0
 62
     5
 63
     7
421
 16777215
 74
     1
 91
        2
 64
     7
 65
   257
 75
     2
175
     1
 42
1.0
 92
        8
 66
   257
 43
1.0
 76
     1
 77
     6
 78
     2
 67
     7
 79
     3
170
     0
171
     0
290
     0
174
     0
 93
        5
 44
0.0
173
     0
291
     0
 45
0.0
1001
ACAD
1000
AcDbSavedByObjectVersion
1070
     0
  0
VISUALSTYLE
  5
3A
102
{ACAD_XDICTIONARY
360
153
102
}
102
{ACAD_REACTORS
330
29
102
}
330
29
100
AcDbVisualStyle
  2
Shades of Gray
 70
    23
 71
     2
 72
     2
 73
     3
 90
        0
 40
-0.6
 41
-30.0
 62
     5
 63
     7
421
 16777215
 74
     2
 91
        2
 64
     7
 65
     7
 75
     1
175
     1
 42
40.0
 92
        8
 66
     7
 43
1.0
 76
     1
 77
     6
 78
     2
 67
     7
 79
     3
170
     0
171
     0
290
     0
174
     0
 93
        1
 44
0.0
173
     0
291
     0
 45
0.0
1001
ACAD
1000
AcDbSavedByObjectVersion
1070
     0
  0
VISUALSTYLE
  5
3B
102
{ACAD_XDICTIONARY
360
155
102
}
102
{ACAD_REACTORS
330
29
102
}
330
29
100
AcDbVisualStyle
  2
Sketchy
 70
    24
 71
     1
 72
     2
 73
     2
 90
        0
 40
-0.6
 41
-30.0
 62
     5
 63
     7
421
 16777215
 74
     2
 91
        2
 64
     7
 65
     7
 75
     1
175
     1
 42
40.0
 92
       11
 66
     7
 43
1.0
 76
     1
 77
     6
 78
     2
 67
     7
 79
     6
170
     0
171
     0
290
     0
174
     0
 93
        1
 44
0.0
173
     0
291
     0
 45
0.0
1001
ACAD
1000
AcDbSavedByObjectVersion
1070
     0
  0
VISUALSTYLE
  5
36
102
{ACAD_XDICTIONARY
360
14B
102
}
102
{ACAD_REACTORS
330
29
102
}
330
29
100
AcDbVisualStyle
  2
Thicken
 70
    13
 71
     2
 72
     2
 73
     0
 90
        0
 40
-0.6
 41
-30.0
 62
     5
 63
     7
421
 16777215
 74
     1
 91
        4
 64
     7
 65
   257
 75
     1
175
     1
 42
1.0
 92
       12
 66
     7
 43
1.0
 76
     1
 77
     6
 78
     2
 67
     7
 79
     5
170
     0
171
     0
290
     0
174
     0
 93
        1
 44
0.0
173
     0
291
     1
 45
0.0
1001
ACAD
1000
AcDbSavedByObjectVersion
1070
     0
  0
VISUALSTYLE
  5
30
102
{ACAD_XDICTIONARY
360
13F
102
}
102
{ACAD_REACTORS
330
29
102
}
330
29
100
AcDbVisualStyle
  2
Wireframe
 70
     5
 71
     0
 72
     2
 73
     0
 90
        0
 40
-0.6
 41
-30.0
 62
     5
 63
     7
421
 16777215
 74
     1
 91
        4
 64
     7
 65
   257
 75
     1
175
     1
 42
1.0
 92
        0
 66
   257
 43
1.0
 76
     1
 77
     6
 78
     2
 67
     7
 79
     3
170
     0
171
     0
290
     0
174
     0
 93
        1
 44
0.0
173
     0
291
     0
 45
0.0
1001
ACAD
1000
AcDbSavedByObjectVersion
1070
     0
  0
VISUALSTYLE
  5
3C
102
{ACAD_XDICTIONARY
360
157
102
}
102
{ACAD_REACTORS
330
29
102
}
330
29
100
AcDbVisualStyle
  2
X-Ray
 70
    25
 71
     2
 72
     2
 73
     1
 90
        1
 40
0.5
 41
-30.0
 62
     5
 63
     7
421
 16777215
 74
     1
 91
        0
 64
     7
 65
   257
 75
     1
175
     1
 42
1.0
 92
        8
 66
     7
 43
1.0
 76
     1
 77
     6
 78
     2
 67
     7
 79
     3
170
     0
171
     0
290
     0
174
     0
 93
       13
 44
0.0
173
     0
291
     0
 45
0.0
1001
ACAD
1000
AcDbSavedByObjectVersion
1070
     0
  0
DICTIONARYVAR
  5
D6
102
{ACAD_REACTORS
330
D1
102
}
330
D1
100
DictionaryVariables
280
     0
  1
1:1
  0
DICTIONARYVAR
  5
D3
102
{ACAD_REACTORS
330
D1
102
}
330
D1
100
DictionaryVariables
280
     0
  1
STANDARD
  0
DICTIONARYVAR
  5
D2
102
{ACAD_REACTORS
330
D1
102
}
330
D1
100
DictionaryVariables
280
     0
  1
STANDARD
  0
DICTIONARYVAR
  5
D4
102
{ACAD_REACTORS
330
D1
102
}
330
D1
100
DictionaryVariables
280
     0
  1
Imperial24
  0
DICTIONARYVAR
  5
D5
102
{ACAD_REACTORS
330
D1
102
}
330
D1
100
DictionaryVariables
280
     0
  1
Imperial24
  0
DICTIONARYVAR
  5
130
102
{ACAD_REACTORS
330
D1
102
}
330
D1
100
DictionaryVariables
280
     0
  1
2
  0
DICTIONARY
  5
168
330
6B
100
AcDbDictionary
280
     1
281
     1
  3
ACAD_XREC_ROUNDTRIP
360
169
  0
DICTIONARY
  5
1A
330
19
100
AcDbDictionary
280
     1
281
     1
  3
BUMPTILE
360
1C
  3
DIFFUSETILE
360
1B
  3
OPACITYTILE
360
1F
  3
REFLECTIONTILE
360
1E
  3
REFRACTIONTILE
360
20
  3
SPECULARTILE
360
1D
  0
DICTIONARY
  5
12
330
11
100
AcDbDictionary
280
     1
281
     1
  3
BUMPTILE
360
14
  3
DIFFUSETILE
360
13
  3
OPACITYTILE
360
17
  3
REFLECTIONTILE
360
16
  3
REFRACTIONTILE
360
18
  3
SPECULARTILE
360
15
  0
DICTIONARY
  5
22
330
21
100
AcDbDictionary
280
     1
281
     1
  3
BUMPTILE
360
24
  3
DIFFUSETILE
360
23
  3
OPACITYTILE
360
27
  3
REFLECTIONTILE
360
26
  3
REFRACTIONTILE
360
28
  3
SPECULARTILE
360
25
  0
DICTIONARY
  5
164
330
67
100
AcDbDictionary
280
     1
281
     1
  3
ACAD_XREC_ROUNDTRIP
360
165
  0
DICTIONARY
  5
166
330
69
100
AcDbDictionary
280
     1
281
     1
  3
ACAD_XREC_ROUNDTRIP
360
167
  0
DICTIONARY
  5
D7
330
65
100
AcDbDictionary
280
     1
281
     1
  3
ACAD_ROUNDTRIP_2008_TABLESTYLE_CELLSTYLEMAP
360
131
  0
DICTIONARY
  5
13D
330
2F
100
AcDbDictionary
280
     1
281
     1
  3
ACAD_XREC_ROUNDTRIP
360
13E
  0
DICTIONARY
  5
13B
330
2E
100
AcDbDictionary
280
     1
281
     1
  3
ACAD_XREC_ROUNDTRIP
360
13C
  0
DICTIONARY
  5
149
330
35
100
AcDbDictionary
280
     1
281
     1
  3
ACAD_XREC_ROUNDTRIP
360
14A
  0
DICTIONARY
  5
151
330
39
100
AcDbDictionary
280
     1
281
     1
  3
ACAD_XREC_ROUNDTRIP
360
152
  0
DICTIONARY
  5
143
330
32
100
AcDbDictionary
280
     1
281
     1
  3
ACAD_XREC_ROUNDTRIP
360
144
  0
DICTIONARY
  5
147
330
34
100
AcDbDictionary
280
     1
281
     1
  3
ACAD_XREC_ROUNDTRIP
360
148
  0
DICTIONARY
  5
161
330
41
100
AcDbDictionary
280
     1
281
     1
  3
ACAD_XREC_ROUNDTRIP
360
162
  0
DICTIONARY
  5
14F
330
38
100
AcDbDictionary
280
     1
281
     1
  3
ACAD_XREC_ROUNDTRIP
360
150
  0
DICTIONARY
  5
133
330
2A
100
AcDbDictionary
280
     1
281
     1
  3
ACAD_XREC_ROUNDTRIP
360
134
  0
DICTIONARY
  5
135
330
2B
100
AcDbDictionary
280
     1
281
     1
  3
ACAD_XREC_ROUNDTRIP
360
136
  0
DICTIONARY
  5
137
330
2C
100
AcDbDictionary
280
     1
281
     1
  3
ACAD_XREC_ROUNDTRIP
360
138
  0
DICTIONARY
  5
139
330
2D
100
AcDbDictionary
280
     1
281
     1
  3
ACAD_XREC_ROUNDTRIP
360
13A
  0
DICTIONARY
  5
141
330
31
100
AcDbDictionary
280
     1
281
     1
  3
ACAD_XREC_ROUNDTRIP
360
142
  0
DICTIONARY
  5
15D
330
3F
100
AcDbDictionary
280
     1
281
     1
  3
ACAD_XREC_ROUNDTRIP
360
15E
  0
DICTIONARY
  5
14D
330
37
100
AcDbDictionary
280
     1
281
     1
  3
ACAD_XREC_ROUNDTRIP
360
14E
  0
DICTIONARY
  5
15F
330
40
100
AcDbDictionary
280
     1
281
     1
  3
ACAD_XREC_ROUNDTRIP
360
160
  0
DICTIONARY
  5
145
330
33
100
AcDbDictionary
280
     1
281
     1
  3
ACAD_XREC_ROUNDTRIP
360
146
  0
DICTIONARY
  5
15B
330
3E
100
AcDbDictionary
280
     1
281
     1
  3
ACAD_XREC_ROUNDTRIP
360
15C
  0
DICTIONARY
  5
159
330
3D
100
AcDbDictionary
280
     1
281
     1
  3
ACAD_XREC_ROUNDTRIP
360
15A
  0
DICTIONARY
  5
153
330
3A
100
AcDbDictionary
280
     1
281
     1
  3
ACAD_XREC_ROUNDTRIP
360
154
  0
DICTIONARY
  5
155
330
3B
100
AcDbDictionary
280
     1
281
     1
  3
ACAD_XREC_ROUNDTRIP
360
156
  0
DICTIONARY
  5
14B
330
36
100
AcDbDictionary
280
     1
281
     1
  3
ACAD_XREC_ROUNDTRIP
360
14C
  0
DICTIONARY
  5
13F
330
30
100
AcDbDictionary
280
     1
281
     1
  3
ACAD_XREC_ROUNDTRIP
360
140
  0
DICTIONARY
  5
157
330
3C
100
AcDbDictionary
280
     1
281
     1
  3
ACAD_XREC_ROUNDTRIP
360
158
  0
XRECORD
  5
169
102
{ACAD_REACTORS
330
168
102
}
330
168
100
AcDbXrecord
280
     1
102
DISPLAYNAME
  1
Imperial24
102
FLAGS
 90
        0
  0
XRECORD
  5
1C
102
{ACAD_REACTORS
330
1A
102
}
330
1A
100
AcDbXrecord
280
     1
270
     1
271
     1
  0
XRECORD
  5
1B
102
{ACAD_REACTORS
330
1A
102
}
330
1A
100
AcDbXrecord
280
     1
270
     1
271
     1
  0
XRECORD
  5
1F
102
{ACAD_REACTORS
330
1A
102
}
330
1A
100
AcDbXrecord
280
     1
270
     1
271
     1
  0
XRECORD
  5
1E
102
{ACAD_REACTORS
330
1A
102
}
330
1A
100
AcDbXrecord
280
     1
270
     1
271
     1
  0
XRECORD
  5
20
102
{ACAD_REACTORS
330
1A
102
}
330
1A
100
AcDbXrecord
280
     1
270
     1
271
     1
  0
XRECORD
  5
1D
102
{ACAD_REACTORS
330
1A
102
}
330
1A
100
AcDbXrecord
280
     1
270
     1
271
     1
  0
XRECORD
  5
14
102
{ACAD_REACTORS
330
12
102
}
330
12
100
AcDbXrecord
280
     1
270
     1
271
     1
  0
XRECORD
  5
13
102
{ACAD_REACTORS
330
12
102
}
330
12
100
AcDbXrecord
280
     1
270
     1
271
     1
  0
XRECORD
  5
17
102
{ACAD_REACTORS
330
12
102
}
330
12
100
AcDbXrecord
280
     1
270
     1
271
     1
  0
XRECORD
  5
16
102
{ACAD_REACTORS
330
12
102
}
330
12
100
AcDbXrecord
280
     1
270
     1
271
     1
  0
XRECORD
  5
18
102
{ACAD_REACTORS
330
12
102
}
330
12
100
AcDbXrecord
280
     1
270
     1
271
     1
  0
XRECORD
  5
15
102
{ACAD_REACTORS
330
12
102
}
330
12
100
AcDbXrecord
280
     1
270
     1
271
     1
  0
XRECORD
  5
24
102
{ACAD_REACTORS
330
22
102
}
330
22
100
AcDbXrecord
280
     1
270
     1
271
     1
  0
XRECORD
  5
23
102
{ACAD_REACTORS
330
22
102
}
330
22
100
AcDbXrecord
280
     1
270
     1
271
     1
  0
XRECORD
  5
27
102
{ACAD_REACTORS
330
22
102
}
330
22
100
AcDbXrecord
280
     1
270
     1
271
     1
  0
XRECORD
  5
26
102
{ACAD_REACTORS
330
22
102
}
330
22
100
AcDbXrecord
280
     1
270
     1
271
     1
  0
XRECORD
  5
28
102
{ACAD_REACTORS
330
22
102
}
330
22
100
AcDbXrecord
280
     1
270
     1
271
     1
  0
XRECORD
  5
25
102
{ACAD_REACTORS
330
22
102
}
330
22
100
AcDbXrecord
280
     1
270
     1
271
     1
  0
XRECORD
  5
165
102
{ACAD_REACTORS
330
164
102
}
330
164
100
AcDbXrecord
280
     1
102
ACAD_ROUNDTRIP_2012_MLEADER_STYLE
298
     1
  0
XRECORD
  5
167
102
{ACAD_REACTORS
330
166
102
}
330
166
100
AcDbXrecord
280
     1
102
DISPLAYNAME
  1
Imperial24
102
FLAGS
 90
        0
  0
CELLSTYLEMAP
  5
131
102
{ACAD_REACTORS
330
D7
102
}
330
D7
100
AcDbCellStyleMap
 90
        3
300
CELLSTYLE
  1
TABLEFORMAT_BEGIN
 90
        5
170
     1
 91
        0
 92
    32768
 62
   257
 93
        1
300
CONTENTFORMAT
  1
CONTENTFORMAT_BEGIN
 90
        0
 91
        0
 92
      512
 93
        0
300

 40
0.0
140
1.0
 94
        5
 62
     0
340
55
144
0.25
309
CONTENTFORMAT_END
171
     1
301
MARGIN
  1
CELLMARGIN_BEGIN
 40
0.06
 40
0.06
 40
0.06
 40
0.06
 40
0.18
 40
0.18
309
CELLMARGIN_END
 94
        6
 95
        1
302
GRIDFORMAT
  1
GRIDFORMAT_BEGIN
 90
        0
 91
        1
 62
     0
 92
       -2
340
0
 93
        0
 40
0.045
309
GRIDFORMAT_END
 95
        2
302
GRIDFORMAT
  1
GRIDFORMAT_BEGIN
 90
        0
 91
        1
 62
     0
 92
       -2
340
0
 93
        0
 40
0.045
309
GRIDFORMAT_END
 95
        4
302
GRIDFORMAT
  1
GRIDFORMAT_BEGIN
 90
        0
 91
        1
 62
     0
 92
       -2
340
0
 93
        0
 40
0.045
309
GRIDFORMAT_END
 95
        8
302
GRIDFORMAT
  1
GRIDFORMAT_BEGIN
 90
        0
 91
        1
 62
     0
 92
       -2
340
0
 93
        0
 40
0.045
309
GRIDFORMAT_END
 95
       16
302
GRIDFORMAT
  1
GRIDFORMAT_BEGIN
 90
        0
 91
        1
 62
     0
 92
       -2
340
0
 93
        0
 40
0.045
309
GRIDFORMAT_END
 95
       32
302
GRIDFORMAT
  1
GRIDFORMAT_BEGIN
 90
        0
 91
        1
 62
     0
 92
       -2
340
0
 93
        0
 40
0.045
309
GRIDFORMAT_END
309
TABLEFORMAT_END
  1
CELLSTYLE_BEGIN
 90
        1
 91
        1
300
_TITLE
309
CELLSTYLE_END
300
CELLSTYLE
  1
TABLEFORMAT_BEGIN
 90
        5
170
     1
 91
        0
 92
        0
 62
   257
 93
        1
300
CONTENTFORMAT
  1
CONTENTFORMAT_BEGIN
 90
        0
 91
        0
 92
      512
 93
        0
300

 40
0.0
140
1.0
 94
        5
 62
     0
340
55
144
0.18
309
CONTENTFORMAT_END
171
     1
301
MARGIN
  1
CELLMARGIN_BEGIN
 40
0.06
 40
0.06
 40
0.06
 40
0.06
 40
0.18
 40
0.18
309
CELLMARGIN_END
 94
        6
 95
        1
302
GRIDFORMAT
  1
GRIDFORMAT_BEGIN
 90
        0
 91
        1
 62
     0
 92
       -2
340
0
 93
        0
 40
0.045
309
GRIDFORMAT_END
 95
        2
302
GRIDFORMAT
  1
GRIDFORMAT_BEGIN
 90
        0
 91
        1
 62
     0
 92
       -2
340
0
 93
        0
 40
0.045
309
GRIDFORMAT_END
 95
        4
302
GRIDFORMAT
  1
GRIDFORMAT_BEGIN
 90
        0
 91
        1
 62
     0
 92
       -2
340
0
 93
        0
 40
0.045
309
GRIDFORMAT_END
 95
        8
302
GRIDFORMAT
  1
GRIDFORMAT_BEGIN
 90
        0
 91
        1
 62
     0
 92
       -2
340
0
 93
        0
 40
0.045
309
GRIDFORMAT_END
 95
       16
302
GRIDFORMAT
  1
GRIDFORMAT_BEGIN
 90
        0
 91
        1
 62
     0
 92
       -2
340
0
 93
        0
 40
0.045
309
GRIDFORMAT_END
 95
       32
302
GRIDFORMAT
  1
GRIDFORMAT_BEGIN
 90
        0
 91
        1
 62
     0
 92
       -2
340
0
 93
        0
 40
0.045
309
GRIDFORMAT_END
309
TABLEFORMAT_END
  1
CELLSTYLE_BEGIN
 90
        2
 91
        1
300
_HEADER
309
CELLSTYLE_END
300
CELLSTYLE
  1
TABLEFORMAT_BEGIN
 90
        5
170
     1
 91
        0
 92
        0
 62
   257
 93
        1
300
CONTENTFORMAT
  1
CONTENTFORMAT_BEGIN
 90
        0
 91
        0
 92
      512
 93
        0
300

 40
0.0
140
1.0
 94
        2
 62
     0
340
55
144
0.18
309
CONTENTFORMAT_END
171
     1
301
MARGIN
  1
CELLMARGIN_BEGIN
 40
0.06
 40
0.06
 40
0.06
 40
0.06
 40
0.18
 40
0.18
309
CELLMARGIN_END
 94
        6
 95
        1
302
GRIDFORMAT
  1
GRIDFORMAT_BEGIN
 90
        0
 91
        1
 62
     0
 92
       -2
340
0
 93
        0
 40
0.045
309
GRIDFORMAT_END
 95
        2
302
GRIDFORMAT
  1
GRIDFORMAT_BEGIN
 90
        0
 91
        1
 62
     0
 92
       -2
340
0
 93
        0
 40
0.045
309
GRIDFORMAT_END
 95
        4
302
GRIDFORMAT
  1
GRIDFORMAT_BEGIN
 90
        0
 91
        1
 62
     0
 92
       -2
340
0
 93
        0
 40
0.045
309
GRIDFORMAT_END
 95
        8
302
GRIDFORMAT
  1
GRIDFORMAT_BEGIN
 90
        0
 91
        1
 62
     0
 92
       -2
340
0
 93
        0
 40
0.045
309
GRIDFORMAT_END
 95
       16
302
GRIDFORMAT
  1
GRIDFORMAT_BEGIN
 90
        0
 91
        1
 62
     0
 92
       -2
340
0
 93
        0
 40
0.045
309
GRIDFORMAT_END
 95
       32
302
GRIDFORMAT
  1
GRIDFORMAT_BEGIN
 90
        0
 91
        1
 62
     0
 92
       -2
340
0
 93
        0
 40
0.045
309
GRIDFORMAT_END
309
TABLEFORMAT_END
  1
CELLSTYLE_BEGIN
 90
        3
 91
        2
300
_DATA
309
CELLSTYLE_END
  0
XRECORD
  5
13E
102
{ACAD_REACTORS
330
13D
102
}
330
13D
100
AcDbXrecord
280
     1
102
RTVSPost2010Prop28
280
     1
102
RTVSPost2010PropOp28
 70
     1
102
RTVSPost2010Prop29
280
     1
102
RTVSPost2010PropOp29
 70
     1
102
RTVSPost2010Prop30
280
     0
102
RTVSPost2010PropOp30
 70
     1
102
RTVSPost2010Prop31
280
     0
102
RTVSPost2010PropOp31
 70
     1
102
RTVSPost2010Prop32
280
     0
102
RTVSPost2010PropOp32
 70
     1
102
RTVSPost2010Prop33
280
     0
102
RTVSPost2010PropOp33
 70
     1
102
RTVSPost2010Prop34
280
     0
102
RTVSPost2010PropOp34
 70
     1
102
RTVSPost2010Prop35
280
     0
102
RTVSPost2010PropOp35
 70
     1
102
RTVSPost2010Prop36
280
     0
102
RTVSPost2010PropOp36
 70
     1
102
RTVSPost2010Prop37
 90
       50
102
RTVSPost2010PropOp37
 70
     1
102
RTVSPost2010Prop38
140
0.0
102
RTVSPost2010PropOp38
 70
     1
102
RTVSPost2010Prop39
140
1.0
102
RTVSPost2010PropOp39
 70
     1
102
RTVSPost2010Prop40
 90
        0
102
RTVSPost2010PropOp40
 70
     1
102
RTVSPost2010Prop41ColorIndex
 90
       18
102
RTVSPost2010Prop41ColorRGB
 90
        0
102
RTVSPost2010PropOp41
 70
     1
102
RTVSPost2010Prop42
 90
       50
102
RTVSPost2010PropOp42
 70
     1
102
RTVSPost2010Prop43
 90
        3
102
RTVSPost2010PropOp43
 70
     1
102
RTVSPost2010Prop44ColorIndex
 90
        5
102
RTVSPost2010Prop44ColorRGB
 90
      255
102
RTVSPost2010PropOp44
 70
     1
102
RTVSPost2010Prop45
280
     0
102
RTVSPost2010PropOp45
 70
     1
102
RTVSPost2010Prop46
 90
       50
102
RTVSPost2010PropOp46
 70
     1
102
RTVSPost2010Prop47
 90
       50
102
RTVSPost2010PropOp47
 70
     1
102
RTVSPost2010Prop48
 90
       50
102
RTVSPost2010PropOp48
 70
     1
102
RTVSPost2010Prop49
280
     0
102
RTVSPost2010PropOp49
 70
     1
102
RTVSPost2010Prop50
 90
       50
102
RTVSPost2010PropOp50
 70
     1
102
RTVSPost2010Prop51ColorIndex
 90
      256
102
RTVSPost2010Prop51ColorRGB
 90
-16777216
102
RTVSPost2010PropOp51
 70
     0
102
RTVSPost2010Prop52
140
1.0
102
RTVSPost2010PropOp52
 70
     0
102
RTVSPost2010Prop53
 90
        2
102
RTVSPost2010PropOp53
 70
     1
102
RTVSPost2010Prop54
  1
strokes_ogs.tif
102
RTVSPost2010PropOp54
 70
     1
102
RTVSPost2010Prop55
280
     0
102
RTVSPost2010PropOp55
 70
     1
102
RTVSPost2010Prop56
140
1.0
102
RTVSPost2010PropOp56
 70
     1
102
RTVSPost2010Prop57
140
1.0
102
RTVSPost2010PropOp57
 70
     1
102
RTVSPropertyOp0
 70
     1
102
RTVSPropertyOp1
 70
     1
102
RTVSPropertyOp2
 70
     1
102
RTVSPropertyOp3
 70
     1
102
RTVSPropertyOp4
 70
     1
102
RTVSPropertyOp5
 70
     1
102
RTVSPropertyOp6
 70
     1
102
RTVSPropertyOp7
 70
     1
102
RTVSPropertyOp8
 70
     1
102
RTVSPropertyOp9
 70
     1
102
RTVSPropertyOp10
 70
     1
102
RTVSPropertyOp11
 70
     1
102
RTVSPropertyOp12
 70
     1
102
RTVSPropertyOp13
 70
     1
102
RTVSPropertyOp14
 70
     1
102
RTVSPropertyOp15
 70
     1
102
RTVSPropertyOp16
 70
     1
102
RTVSPropertyOp17
 70
     1
102
RTVSPropertyOp18
 70
     1
102
RTVSPropertyOp19
 70
     1
102
RTVSPropertyOp20
 70
     1
102
RTVSPropertyOp21
 70
     1
102
RTVSPropertyOp22
 70
     1
102
RTVSPropertyOp23
 70
     1
102
RTVSPropertyOp24
 70
     1
102
RTVSPropertyOp25
 70
     1
102
RTVSPropertyOp26
 70
     1
102
RTVSPropertyOp27
 70
     1
102
RTVSPropertyOp28
 70
     1
102
RTVSPropertyOp29
 70
     1
102
RTVSPropertyOp30
 70
     1
102
RTVSPropertyOp31
 70
     1
102
RTVSPropertyOp32
 70
     1
102
RTVSPropertyOp33
 70
     1
102
RTVSPropertyOp34
 70
     1
102
RTVSPropertyOp35
 70
     1
102
RTVSPropertyOp36
 70
     1
102
RTVSPropertyOp37
 70
     1
102
RTVSPropertyOp38
 70
     1
102
RTVSPropertyOp39
 70
     1
102
RTVSPropertyOp40
 70
     1
102
RTVSPropertyOp41
 70
     1
102
RTVSPropertyOp42
 70
     1
102
RTVSPropertyOp43
 70
     1
102
RTVSPropertyOp44
 70
     1
102
RTVSPropertyOp45
 70
     1
102
RTVSPropertyOp46
 70
     1
102
RTVSPropertyOp47
 70
     1
102
RTVSPropertyOp48
 70
     1
102
RTVSPropertyOp49
 70
     1
102
RTVSPropertyOp50
 70
     1
102
RTVSPropertyOp51
 70
     0
102
RTVSPropertyOp52
 70
     0
102
RTVSPropertyOp53
 70
     1
102
RTVSPropertyOp54
 70
     1
102
RTVSPropertyOp55
 70
     1
102
RTVSPropertyOp56
 70
     1
102
RTVSPropertyOp57
 70
     1
102
RTVSPropertyOp58
 70
     1
102
RTVSPropertyOp59
 70
     1
102
RTVSPropertyOp60
 70
     1
102
RTVSPropertyOp61
 70
     1
102
RTVSPropertyOp62
 70
     1
  0
XRECORD
  5
13C
102
{ACAD_REACTORS
330
13B
102
}
330
13B
100
AcDbXrecord
280
     1
102
RTVSPost2010Prop28
280
     0
102
RTVSPost2010PropOp28
 70
     1
102
RTVSPost2010Prop29
280
     1
102
RTVSPost2010PropOp29
 70
     1
102
RTVSPost2010Prop30
280
     1
102
RTVSPost2010PropOp30
 70
     1
102
RTVSPost2010Prop31
280
     0
102
RTVSPost2010PropOp31
 70
     1
102
RTVSPost2010Prop32
280
     0
102
RTVSPost2010PropOp32
 70
     1
102
RTVSPost2010Prop33
280
     0
102
RTVSPost2010PropOp33
 70
     1
102
RTVSPost2010Prop34
280
     0
102
RTVSPost2010PropOp34
 70
     1
102
RTVSPost2010Prop35
280
     0
102
RTVSPost2010PropOp35
 70
     1
102
RTVSPost2010Prop36
280
     0
102
RTVSPost2010PropOp36
 70
     1
102
RTVSPost2010Prop37
 90
       50
102
RTVSPost2010PropOp37
 70
     1
102
RTVSPost2010Prop38
140
0.0
102
RTVSPost2010PropOp38
 70
     1
102
RTVSPost2010Prop39
140
1.0
102
RTVSPost2010PropOp39
 70
     1
102
RTVSPost2010Prop40
 90
        0
102
RTVSPost2010PropOp40
 70
     1
102
RTVSPost2010Prop41ColorIndex
 90
       18
102
RTVSPost2010Prop41ColorRGB
 90
        0
102
RTVSPost2010PropOp41
 70
     1
102
RTVSPost2010Prop42
 90
       50
102
RTVSPost2010PropOp42
 70
     1
102
RTVSPost2010Prop43
 90
        3
102
RTVSPost2010PropOp43
 70
     1
102
RTVSPost2010Prop44ColorIndex
 90
        5
102
RTVSPost2010Prop44ColorRGB
 90
      255
102
RTVSPost2010PropOp44
 70
     1
102
RTVSPost2010Prop45
280
     0
102
RTVSPost2010PropOp45
 70
     1
102
RTVSPost2010Prop46
 90
       50
102
RTVSPost2010PropOp46
 70
     1
102
RTVSPost2010Prop47
 90
       50
102
RTVSPost2010PropOp47
 70
     1
102
RTVSPost2010Prop48
 90
       50
102
RTVSPost2010PropOp48
 70
     1
102
RTVSPost2010Prop49
280
     0
102
RTVSPost2010PropOp49
 70
     1
102
RTVSPost2010Prop50
 90
       50
102
RTVSPost2010PropOp50
 70
     1
102
RTVSPost2010Prop51ColorIndex
 90
      256
102
RTVSPost2010Prop51ColorRGB
 90
-16777216
102
RTVSPost2010PropOp51
 70
     0
102
RTVSPost2010Prop52
140
1.0
102
RTVSPost2010PropOp52
 70
     0
102
RTVSPost2010Prop53
 90
        2
102
RTVSPost2010PropOp53
 70
     1
102
RTVSPost2010Prop54
  1
strokes_ogs.tif
102
RTVSPost2010PropOp54
 70
     1
102
RTVSPost2010Prop55
280
     0
102
RTVSPost2010PropOp55
 70
     1
102
RTVSPost2010Prop56
140
1.0
102
RTVSPost2010PropOp56
 70
     1
102
RTVSPost2010Prop57
140
1.0
102
RTVSPost2010PropOp57
 70
     1
102
RTVSPropertyOp0
 70
     1
102
RTVSPropertyOp1
 70
     1
102
RTVSPropertyOp2
 70
     1
102
RTVSPropertyOp3
 70
     1
102
RTVSPropertyOp4
 70
     1
102
RTVSPropertyOp5
 70
     1
102
RTVSPropertyOp6
 70
     1
102
RTVSPropertyOp7
 70
     1
102
RTVSPropertyOp8
 70
     1
102
RTVSPropertyOp9
 70
     1
102
RTVSPropertyOp10
 70
     1
102
RTVSPropertyOp11
 70
     1
102
RTVSPropertyOp12
 70
     1
102
RTVSPropertyOp13
 70
     1
102
RTVSPropertyOp14
 70
     1
102
RTVSPropertyOp15
 70
     1
102
RTVSPropertyOp16
 70
     1
102
RTVSPropertyOp17
 70
     1
102
RTVSPropertyOp18
 70
     1
102
RTVSPropertyOp19
 70
     1
102
RTVSPropertyOp20
 70
     1
102
RTVSPropertyOp21
 70
     1
102
RTVSPropertyOp22
 70
     1
102
RTVSPropertyOp23
 70
     1
102
RTVSPropertyOp24
 70
     1
102
RTVSPropertyOp25
 70
     1
102
RTVSPropertyOp26
 70
     1
102
RTVSPropertyOp27
 70
     1
102
RTVSPropertyOp28
 70
     1
102
RTVSPropertyOp29
 70
     1
102
RTVSPropertyOp30
 70
     1
102
RTVSPropertyOp31
 70
     1
102
RTVSPropertyOp32
 70
     1
102
RTVSPropertyOp33
 70
     1
102
RTVSPropertyOp34
 70
     1
102
RTVSPropertyOp35
 70
     1
102
RTVSPropertyOp36
 70
     1
102
RTVSPropertyOp37
 70
     1
102
RTVSPropertyOp38
 70
     1
102
RTVSPropertyOp39
 70
     1
102
RTVSPropertyOp40
 70
     1
102
RTVSPropertyOp41
 70
     1
102
RTVSPropertyOp42
 70
     1
102
RTVSPropertyOp43
 70
     1
102
RTVSPropertyOp44
 70
     1
102
RTVSPropertyOp45
 70
     1
102
RTVSPropertyOp46
 70
     1
102
RTVSPropertyOp47
 70
     1
102
RTVSPropertyOp48
 70
     1
102
RTVSPropertyOp49
 70
     1
102
RTVSPropertyOp50
 70
     1
102
RTVSPropertyOp51
 70
     0
102
RTVSPropertyOp52
 70
     0
102
RTVSPropertyOp53
 70
     1
102
RTVSPropertyOp54
 70
     1
102
RTVSPropertyOp55
 70
     1
102
RTVSPropertyOp56
 70
     1
102
RTVSPropertyOp57
 70
     1
102
RTVSPropertyOp58
 70
     1
102
RTVSPropertyOp59
 70
     1
102
RTVSPropertyOp60
 70
     1
102
RTVSPropertyOp61
 70
     1
102
RTVSPropertyOp62
 70
     1
  0
XRECORD
  5
14A
102
{ACAD_REACTORS
330
149
102
}
330
149
100
AcDbXrecord
280
     1
102
RTVSPost2010Prop28
280
     0
102
RTVSPost2010PropOp28
 70
     1
102
RTVSPost2010Prop29
280
     1
102
RTVSPost2010PropOp29
 70
     1
102
RTVSPost2010Prop30
280
     1
102
RTVSPost2010PropOp30
 70
     1
102
RTVSPost2010Prop31
280
     0
102
RTVSPost2010PropOp31
 70
     1
102
RTVSPost2010Prop32
280
     0
102
RTVSPost2010PropOp32
 70
     1
102
RTVSPost2010Prop33
280
     0
102
RTVSPost2010PropOp33
 70
     1
102
RTVSPost2010Prop34
280
     0
102
RTVSPost2010PropOp34
 70
     1
102
RTVSPost2010Prop35
280
     0
102
RTVSPost2010PropOp35
 70
     1
102
RTVSPost2010Prop36
280
     0
102
RTVSPost2010PropOp36
 70
     1
102
RTVSPost2010Prop37
 90
       50
102
RTVSPost2010PropOp37
 70
     1
102
RTVSPost2010Prop38
140
0.0
102
RTVSPost2010PropOp38
 70
     1
102
RTVSPost2010Prop39
140
1.0
102
RTVSPost2010PropOp39
 70
     1
102
RTVSPost2010Prop40
 90
        0
102
RTVSPost2010PropOp40
 70
     1
102
RTVSPost2010Prop41ColorIndex
 90
       18
102
RTVSPost2010Prop41ColorRGB
 90
        0
102
RTVSPost2010PropOp41
 70
     1
102
RTVSPost2010Prop42
 90
       50
102
RTVSPost2010PropOp42
 70
     1
102
RTVSPost2010Prop43
 90
        3
102
RTVSPost2010PropOp43
 70
     1
102
RTVSPost2010Prop44ColorIndex
 90
        5
102
RTVSPost2010Prop44ColorRGB
 90
      255
102
RTVSPost2010PropOp44
 70
     1
102
RTVSPost2010Prop45
280
     0
102
RTVSPost2010PropOp45
 70
     1
102
RTVSPost2010Prop46
 90
       50
102
RTVSPost2010PropOp46
 70
     1
102
RTVSPost2010Prop47
 90
       50
102
RTVSPost2010PropOp47
 70
     1
102
RTVSPost2010Prop48
 90
       50
102
RTVSPost2010PropOp48
 70
     1
102
RTVSPost2010Prop49
280
     0
102
RTVSPost2010PropOp49
 70
     1
102
RTVSPost2010Prop50
 90
       50
102
RTVSPost2010PropOp50
 70
     1
102
RTVSPost2010Prop51ColorIndex
 90
      256
102
RTVSPost2010Prop51ColorRGB
 90
-16777216
102
RTVSPost2010PropOp51
 70
     0
102
RTVSPost2010Prop52
140
1.0
102
RTVSPost2010PropOp52
 70
     0
102
RTVSPost2010Prop53
 90
        2
102
RTVSPost2010PropOp53
 70
     1
102
RTVSPost2010Prop54
  1
strokes_ogs.tif
102
RTVSPost2010PropOp54
 70
     1
102
RTVSPost2010Prop55
280
     0
102
RTVSPost2010PropOp55
 70
     1
102
RTVSPost2010Prop56
140
1.0
102
RTVSPost2010PropOp56
 70
     1
102
RTVSPost2010Prop57
140
1.0
102
RTVSPost2010PropOp57
 70
     1
102
RTVSPropertyOp0
 70
     1
102
RTVSPropertyOp1
 70
     1
102
RTVSPropertyOp2
 70
     1
102
RTVSPropertyOp3
 70
     1
102
RTVSPropertyOp4
 70
     1
102
RTVSPropertyOp5
 70
     1
102
RTVSPropertyOp6
 70
     1
102
RTVSPropertyOp7
 70
     1
102
RTVSPropertyOp8
 70
     1
102
RTVSPropertyOp9
 70
     1
102
RTVSPropertyOp10
 70
     1
102
RTVSPropertyOp11
 70
     1
102
RTVSPropertyOp12
 70
     1
102
RTVSPropertyOp13
 70
     1
102
RTVSPropertyOp14
 70
     1
102
RTVSPropertyOp15
 70
     1
102
RTVSPropertyOp16
 70
     1
102
RTVSPropertyOp17
 70
     1
102
RTVSPropertyOp18
 70
     1
102
RTVSPropertyOp19
 70
     1
102
RTVSPropertyOp20
 70
     1
102
RTVSPropertyOp21
 70
     1
102
RTVSPropertyOp22
 70
     1
102
RTVSPropertyOp23
 70
     1
102
RTVSPropertyOp24
 70
     1
102
RTVSPropertyOp25
 70
     1
102
RTVSPropertyOp26
 70
     1
102
RTVSPropertyOp27
 70
     1
102
RTVSPropertyOp28
 70
     1
102
RTVSPropertyOp29
 70
     1
102
RTVSPropertyOp30
 70
     1
102
RTVSPropertyOp31
 70
     1
102
RTVSPropertyOp32
 70
     1
102
RTVSPropertyOp33
 70
     1
102
RTVSPropertyOp34
 70
     1
102
RTVSPropertyOp35
 70
     1
102
RTVSPropertyOp36
 70
     1
102
RTVSPropertyOp37
 70
     1
102
RTVSPropertyOp38
 70
     1
102
RTVSPropertyOp39
 70
     1
102
RTVSPropertyOp40
 70
     1
102
RTVSPropertyOp41
 70
     1
102
RTVSPropertyOp42
 70
     1
102
RTVSPropertyOp43
 70
     1
102
RTVSPropertyOp44
 70
     1
102
RTVSPropertyOp45
 70
     1
102
RTVSPropertyOp46
 70
     1
102
RTVSPropertyOp47
 70
     1
102
RTVSPropertyOp48
 70
     1
102
RTVSPropertyOp49
 70
     1
102
RTVSPropertyOp50
 70
     1
102
RTVSPropertyOp51
 70
     0
102
RTVSPropertyOp52
 70
     0
102
RTVSPropertyOp53
 70
     1
102
RTVSPropertyOp54
 70
     1
102
RTVSPropertyOp55
 70
     1
102
RTVSPropertyOp56
 70
     1
102
RTVSPropertyOp57
 70
     1
102
RTVSPropertyOp58
 70
     1
102
RTVSPropertyOp59
 70
     1
102
RTVSPropertyOp60
 70
     1
102
RTVSPropertyOp61
 70
     1
102
RTVSPropertyOp62
 70
     1
  0
XRECORD
  5
152
102
{ACAD_REACTORS
330
151
102
}
330
151
100
AcDbXrecord
280
     1
102
RTVSPost2010Prop28
280
     0
102
RTVSPost2010PropOp28
 70
     1
102
RTVSPost2010Prop29
280
     1
102
RTVSPost2010PropOp29
 70
     1
102
RTVSPost2010Prop30
280
     1
102
RTVSPost2010PropOp30
 70
     1
102
RTVSPost2010Prop31
280
     0
102
RTVSPost2010PropOp31
 70
     1
102
RTVSPost2010Prop32
280
     0
102
RTVSPost2010PropOp32
 70
     1
102
RTVSPost2010Prop33
280
     0
102
RTVSPost2010PropOp33
 70
     1
102
RTVSPost2010Prop34
280
     0
102
RTVSPost2010PropOp34
 70
     1
102
RTVSPost2010Prop35
280
     0
102
RTVSPost2010PropOp35
 70
     1
102
RTVSPost2010Prop36
280
     0
102
RTVSPost2010PropOp36
 70
     1
102
RTVSPost2010Prop37
 90
       50
102
RTVSPost2010PropOp37
 70
     1
102
RTVSPost2010Prop38
140
0.0
102
RTVSPost2010PropOp38
 70
     1
102
RTVSPost2010Prop39
140
1.0
102
RTVSPost2010PropOp39
 70
     1
102
RTVSPost2010Prop40
 90
        0
102
RTVSPost2010PropOp40
 70
     1
102
RTVSPost2010Prop41ColorIndex
 90
       18
102
RTVSPost2010Prop41ColorRGB
 90
        0
102
RTVSPost2010PropOp41
 70
     1
102
RTVSPost2010Prop42
 90
       50
102
RTVSPost2010PropOp42
 70
     1
102
RTVSPost2010Prop43
 90
        3
102
RTVSPost2010PropOp43
 70
     1
102
RTVSPost2010Prop44ColorIndex
 90
        5
102
RTVSPost2010Prop44ColorRGB
 90
      255
102
RTVSPost2010PropOp44
 70
     1
102
RTVSPost2010Prop45
280
     0
102
RTVSPost2010PropOp45
 70
     1
102
RTVSPost2010Prop46
 90
       50
102
RTVSPost2010PropOp46
 70
     1
102
RTVSPost2010Prop47
 90
       50
102
RTVSPost2010PropOp47
 70
     1
102
RTVSPost2010Prop48
 90
       50
102
RTVSPost2010PropOp48
 70
     1
102
RTVSPost2010Prop49
280
     0
102
RTVSPost2010PropOp49
 70
     1
102
RTVSPost2010Prop50
 90
       50
102
RTVSPost2010PropOp50
 70
     1
102
RTVSPost2010Prop51ColorIndex
 90
      256
102
RTVSPost2010Prop51ColorRGB
 90
-16777216
102
RTVSPost2010PropOp51
 70
     0
102
RTVSPost2010Prop52
140
1.0
102
RTVSPost2010PropOp52
 70
     0
102
RTVSPost2010Prop53
 90
        2
102
RTVSPost2010PropOp53
 70
     1
102
RTVSPost2010Prop54
  1
strokes_ogs.tif
102
RTVSPost2010PropOp54
 70
     1
102
RTVSPost2010Prop55
280
     0
102
RTVSPost2010PropOp55
 70
     1
102
RTVSPost2010Prop56
140
1.0
102
RTVSPost2010PropOp56
 70
     1
102
RTVSPost2010Prop57
140
1.0
102
RTVSPost2010PropOp57
 70
     1
102
RTVSPropertyOp0
 70
     1
102
RTVSPropertyOp1
 70
     1
102
RTVSPropertyOp2
 70
     1
102
RTVSPropertyOp3
 70
     1
102
RTVSPropertyOp4
 70
     1
102
RTVSPropertyOp5
 70
     1
102
RTVSPropertyOp6
 70
     1
102
RTVSPropertyOp7
 70
     1
102
RTVSPropertyOp8
 70
     1
102
RTVSPropertyOp9
 70
     1
102
RTVSPropertyOp10
 70
     1
102
RTVSPropertyOp11
 70
     1
102
RTVSPropertyOp12
 70
     1
102
RTVSPropertyOp13
 70
     1
102
RTVSPropertyOp14
 70
     1
102
RTVSPropertyOp15
 70
     1
102
RTVSPropertyOp16
 70
     1
102
RTVSPropertyOp17
 70
     1
102
RTVSPropertyOp18
 70
     1
102
RTVSPropertyOp19
 70
     1
102
RTVSPropertyOp20
 70
     1
102
RTVSPropertyOp21
 70
     1
102
RTVSPropertyOp22
 70
     1
102
RTVSPropertyOp23
 70
     1
102
RTVSPropertyOp24
 70
     1
102
RTVSPropertyOp25
 70
     1
102
RTVSPropertyOp26
 70
     1
102
RTVSPropertyOp27
 70
     1
102
RTVSPropertyOp28
 70
     1
102
RTVSPropertyOp29
 70
     1
102
RTVSPropertyOp30
 70
     1
102
RTVSPropertyOp31
 70
     1
102
RTVSPropertyOp32
 70
     1
102
RTVSPropertyOp33
 70
     1
102
RTVSPropertyOp34
 70
     1
102
RTVSPropertyOp35
 70
     1
102
RTVSPropertyOp36
 70
     1
102
RTVSPropertyOp37
 70
     1
102
RTVSPropertyOp38
 70
     1
102
RTVSPropertyOp39
 70
     1
102
RTVSPropertyOp40
 70
     1
102
RTVSPropertyOp41
 70
     1
102
RTVSPropertyOp42
 70
     1
102
RTVSPropertyOp43
 70
     1
102
RTVSPropertyOp44
 70
     1
102
RTVSPropertyOp45
 70
     1
102
RTVSPropertyOp46
 70
     1
102
RTVSPropertyOp47
 70
     1
102
RTVSPropertyOp48
 70
     1
102
RTVSPropertyOp49
 70
     1
102
RTVSPropertyOp50
 70
     1
102
RTVSPropertyOp51
 70
     0
102
RTVSPropertyOp52
 70
     0
102
RTVSPropertyOp53
 70
     1
102
RTVSPropertyOp54
 70
     1
102
RTVSPropertyOp55
 70
     1
102
RTVSPropertyOp56
 70
     1
102
RTVSPropertyOp57
 70
     1
102
RTVSPropertyOp58
 70
     1
102
RTVSPropertyOp59
 70
     1
102
RTVSPropertyOp60
 70
     1
102
RTVSPropertyOp61
 70
     1
102
RTVSPropertyOp62
 70
     1
  0
XRECORD
  5
144
102
{ACAD_REACTORS
330
143
102
}
330
143
100
AcDbXrecord
280
     1
102
RTVSPost2010Prop28
280
     0
102
RTVSPost2010PropOp28
 70
     1
102
RTVSPost2010Prop29
280
     1
102
RTVSPost2010PropOp29
 70
     1
102
RTVSPost2010Prop30
280
     1
102
RTVSPost2010PropOp30
 70
     1
102
RTVSPost2010Prop31
280
     0
102
RTVSPost2010PropOp31
 70
     1
102
RTVSPost2010Prop32
280
     0
102
RTVSPost2010PropOp32
 70
     1
102
RTVSPost2010Prop33
280
     0
102
RTVSPost2010PropOp33
 70
     1
102
RTVSPost2010Prop34
280
     0
102
RTVSPost2010PropOp34
 70
     1
102
RTVSPost2010Prop35
280
     0
102
RTVSPost2010PropOp35
 70
     1
102
RTVSPost2010Prop36
280
     0
102
RTVSPost2010PropOp36
 70
     1
102
RTVSPost2010Prop37
 90
       50
102
RTVSPost2010PropOp37
 70
     1
102
RTVSPost2010Prop38
140
0.0
102
RTVSPost2010PropOp38
 70
     1
102
RTVSPost2010Prop39
140
1.0
102
RTVSPost2010PropOp39
 70
     1
102
RTVSPost2010Prop40
 90
        0
102
RTVSPost2010PropOp40
 70
     1
102
RTVSPost2010Prop41ColorIndex
 90
       18
102
RTVSPost2010Prop41ColorRGB
 90
        0
102
RTVSPost2010PropOp41
 70
     1
102
RTVSPost2010Prop42
 90
       50
102
RTVSPost2010PropOp42
 70
     1
102
RTVSPost2010Prop43
 90
        3
102
RTVSPost2010PropOp43
 70
     1
102
RTVSPost2010Prop44ColorIndex
 90
        5
102
RTVSPost2010Prop44ColorRGB
 90
      255
102
RTVSPost2010PropOp44
 70
     1
102
RTVSPost2010Prop45
280
     0
102
RTVSPost2010PropOp45
 70
     1
102
RTVSPost2010Prop46
 90
       50
102
RTVSPost2010PropOp46
 70
     1
102
RTVSPost2010Prop47
 90
       50
102
RTVSPost2010PropOp47
 70
     1
102
RTVSPost2010Prop48
 90
       50
102
RTVSPost2010PropOp48
 70
     1
102
RTVSPost2010Prop49
280
     0
102
RTVSPost2010PropOp49
 70
     1
102
RTVSPost2010Prop50
 90
       50
102
RTVSPost2010PropOp50
 70
     1
102
RTVSPost2010Prop51ColorIndex
 90
      256
102
RTVSPost2010Prop51ColorRGB
 90
-16777216
102
RTVSPost2010PropOp51
 70
     0
102
RTVSPost2010Prop52
140
1.0
102
RTVSPost2010PropOp52
 70
     0
102
RTVSPost2010Prop53
 90
        2
102
RTVSPost2010PropOp53
 70
     1
102
RTVSPost2010Prop54
  1
strokes_ogs.tif
102
RTVSPost2010PropOp54
 70
     1
102
RTVSPost2010Prop55
280
     0
102
RTVSPost2010PropOp55
 70
     1
102
RTVSPost2010Prop56
140
1.0
102
RTVSPost2010PropOp56
 70
     1
102
RTVSPost2010Prop57
140
1.0
102
RTVSPost2010PropOp57
 70
     1
102
RTVSPropertyOp0
 70
     1
102
RTVSPropertyOp1
 70
     1
102
RTVSPropertyOp2
 70
     1
102
RTVSPropertyOp3
 70
     1
102
RTVSPropertyOp4
 70
     1
102
RTVSPropertyOp5
 70
     1
102
RTVSPropertyOp6
 70
     1
102
RTVSPropertyOp7
 70
     1
102
RTVSPropertyOp8
 70
     1
102
RTVSPropertyOp9
 70
     1
102
RTVSPropertyOp10
 70
     1
102
RTVSPropertyOp11
 70
     1
102
RTVSPropertyOp12
 70
     1
102
RTVSPropertyOp13
 70
     1
102
RTVSPropertyOp14
 70
     1
102
RTVSPropertyOp15
 70
     1
102
RTVSPropertyOp16
 70
     1
102
RTVSPropertyOp17
 70
     1
102
RTVSPropertyOp18
 70
     1
102
RTVSPropertyOp19
 70
     1
102
RTVSPropertyOp20
 70
     1
102
RTVSPropertyOp21
 70
     1
102
RTVSPropertyOp22
 70
     1
102
RTVSPropertyOp23
 70
     1
102
RTVSPropertyOp24
 70
     1
102
RTVSPropertyOp25
 70
     1
102
RTVSPropertyOp26
 70
     1
102
RTVSPropertyOp27
 70
     1
102
RTVSPropertyOp28
 70
     1
102
RTVSPropertyOp29
 70
     1
102
RTVSPropertyOp30
 70
     1
102
RTVSPropertyOp31
 70
     1
102
RTVSPropertyOp32
 70
     1
102
RTVSPropertyOp33
 70
     1
102
RTVSPropertyOp34
 70
     1
102
RTVSPropertyOp35
 70
     1
102
RTVSPropertyOp36
 70
     1
102
RTVSPropertyOp37
 70
     1
102
RTVSPropertyOp38
 70
     1
102
RTVSPropertyOp39
 70
     1
102
RTVSPropertyOp40
 70
     1
102
RTVSPropertyOp41
 70
     1
102
RTVSPropertyOp42
 70
     1
102
RTVSPropertyOp43
 70
     1
102
RTVSPropertyOp44
 70
     1
102
RTVSPropertyOp45
 70
     1
102
RTVSPropertyOp46
 70
     1
102
RTVSPropertyOp47
 70
     1
102
RTVSPropertyOp48
 70
     1
102
RTVSPropertyOp49
 70
     1
102
RTVSPropertyOp50
 70
     1
102
RTVSPropertyOp51
 70
     0
102
RTVSPropertyOp52
 70
     0
102
RTVSPropertyOp53
 70
     1
102
RTVSPropertyOp54
 70
     1
102
RTVSPropertyOp55
 70
     1
102
RTVSPropertyOp56
 70
     1
102
RTVSPropertyOp57
 70
     1
102
RTVSPropertyOp58
 70
     1
102
RTVSPropertyOp59
 70
     1
102
RTVSPropertyOp60
 70
     1
102
RTVSPropertyOp61
 70
     1
102
RTVSPropertyOp62
 70
     1
  0
XRECORD
  5
148
102
{ACAD_REACTORS
330
147
102
}
330
147
100
AcDbXrecord
280
     1
102
RTVSPost2010Prop28
280
     0
102
RTVSPost2010PropOp28
 70
     1
102
RTVSPost2010Prop29
280
     1
102
RTVSPost2010PropOp29
 70
     1
102
RTVSPost2010Prop30
280
     1
102
RTVSPost2010PropOp30
 70
     1
102
RTVSPost2010Prop31
280
     0
102
RTVSPost2010PropOp31
 70
     1
102
RTVSPost2010Prop32
280
     0
102
RTVSPost2010PropOp32
 70
     1
102
RTVSPost2010Prop33
280
     0
102
RTVSPost2010PropOp33
 70
     1
102
RTVSPost2010Prop34
280
     0
102
RTVSPost2010PropOp34
 70
     1
102
RTVSPost2010Prop35
280
     0
102
RTVSPost2010PropOp35
 70
     1
102
RTVSPost2010Prop36
280
     0
102
RTVSPost2010PropOp36
 70
     1
102
RTVSPost2010Prop37
 90
       50
102
RTVSPost2010PropOp37
 70
     1
102
RTVSPost2010Prop38
140
0.0
102
RTVSPost2010PropOp38
 70
     1
102
RTVSPost2010Prop39
140
1.0
102
RTVSPost2010PropOp39
 70
     1
102
RTVSPost2010Prop40
 90
        0
102
RTVSPost2010PropOp40
 70
     1
102
RTVSPost2010Prop41ColorIndex
 90
       18
102
RTVSPost2010Prop41ColorRGB
 90
        0
102
RTVSPost2010PropOp41
 70
     1
102
RTVSPost2010Prop42
 90
       50
102
RTVSPost2010PropOp42
 70
     1
102
RTVSPost2010Prop43
 90
        3
102
RTVSPost2010PropOp43
 70
     1
102
RTVSPost2010Prop44ColorIndex
 90
        5
102
RTVSPost2010Prop44ColorRGB
 90
      255
102
RTVSPost2010PropOp44
 70
     1
102
RTVSPost2010Prop45
280
     0
102
RTVSPost2010PropOp45
 70
     1
102
RTVSPost2010Prop46
 90
       50
102
RTVSPost2010PropOp46
 70
     1
102
RTVSPost2010Prop47
 90
       50
102
RTVSPost2010PropOp47
 70
     1
102
RTVSPost2010Prop48
 90
       50
102
RTVSPost2010PropOp48
 70
     1
102
RTVSPost2010Prop49
280
     0
102
RTVSPost2010PropOp49
 70
     1
102
RTVSPost2010Prop50
 90
       50
102
RTVSPost2010PropOp50
 70
     1
102
RTVSPost2010Prop51ColorIndex
 90
      256
102
RTVSPost2010Prop51ColorRGB
 90
-16777216
102
RTVSPost2010PropOp51
 70
     0
102
RTVSPost2010Prop52
140
1.0
102
RTVSPost2010PropOp52
 70
     0
102
RTVSPost2010Prop53
 90
        2
102
RTVSPost2010PropOp53
 70
     1
102
RTVSPost2010Prop54
  1
strokes_ogs.tif
102
RTVSPost2010PropOp54
 70
     1
102
RTVSPost2010Prop55
280
     0
102
RTVSPost2010PropOp55
 70
     1
102
RTVSPost2010Prop56
140
1.0
102
RTVSPost2010PropOp56
 70
     1
102
RTVSPost2010Prop57
140
1.0
102
RTVSPost2010PropOp57
 70
     1
102
RTVSPropertyOp0
 70
     1
102
RTVSPropertyOp1
 70
     1
102
RTVSPropertyOp2
 70
     1
102
RTVSPropertyOp3
 70
     1
102
RTVSPropertyOp4
 70
     1
102
RTVSPropertyOp5
 70
     1
102
RTVSPropertyOp6
 70
     1
102
RTVSPropertyOp7
 70
     1
102
RTVSPropertyOp8
 70
     1
102
RTVSPropertyOp9
 70
     1
102
RTVSPropertyOp10
 70
     1
102
RTVSPropertyOp11
 70
     1
102
RTVSPropertyOp12
 70
     1
102
RTVSPropertyOp13
 70
     1
102
RTVSPropertyOp14
 70
     1
102
RTVSPropertyOp15
 70
     1
102
RTVSPropertyOp16
 70
     1
102
RTVSPropertyOp17
 70
     1
102
RTVSPropertyOp18
 70
     1
102
RTVSPropertyOp19
 70
     1
102
RTVSPropertyOp20
 70
     1
102
RTVSPropertyOp21
 70
     1
102
RTVSPropertyOp22
 70
     1
102
RTVSPropertyOp23
 70
     1
102
RTVSPropertyOp24
 70
     1
102
RTVSPropertyOp25
 70
     1
102
RTVSPropertyOp26
 70
     1
102
RTVSPropertyOp27
 70
     1
102
RTVSPropertyOp28
 70
     1
102
RTVSPropertyOp29
 70
     1
102
RTVSPropertyOp30
 70
     1
102
RTVSPropertyOp31
 70
     1
102
RTVSPropertyOp32
 70
     1
102
RTVSPropertyOp33
 70
     1
102
RTVSPropertyOp34
 70
     1
102
RTVSPropertyOp35
 70
     1
102
RTVSPropertyOp36
 70
     1
102
RTVSPropertyOp37
 70
     1
102
RTVSPropertyOp38
 70
     1
102
RTVSPropertyOp39
 70
     1
102
RTVSPropertyOp40
 70
     1
102
RTVSPropertyOp41
 70
     1
102
RTVSPropertyOp42
 70
     1
102
RTVSPropertyOp43
 70
     1
102
RTVSPropertyOp44
 70
     1
102
RTVSPropertyOp45
 70
     1
102
RTVSPropertyOp46
 70
     1
102
RTVSPropertyOp47
 70
     1
102
RTVSPropertyOp48
 70
     1
102
RTVSPropertyOp49
 70
     1
102
RTVSPropertyOp50
 70
     1
102
RTVSPropertyOp51
 70
     0
102
RTVSPropertyOp52
 70
     0
102
RTVSPropertyOp53
 70
     1
102
RTVSPropertyOp54
 70
     1
102
RTVSPropertyOp55
 70
     1
102
RTVSPropertyOp56
 70
     1
102
RTVSPropertyOp57
 70
     1
102
RTVSPropertyOp58
 70
     1
102
RTVSPropertyOp59
 70
     1
102
RTVSPropertyOp60
 70
     1
102
RTVSPropertyOp61
 70
     1
102
RTVSPropertyOp62
 70
     1
  0
XRECORD
  5
162
102
{ACAD_REACTORS
330
161
102
}
330
161
100
AcDbXrecord
280
     1
102
RTVSPost2010Prop28
280
     0
102
RTVSPost2010PropOp28
 70
     0
102
RTVSPost2010Prop29
280
     1
102
RTVSPost2010PropOp29
 70
     0
102
RTVSPost2010Prop30
280
     1
102
RTVSPost2010PropOp30
 70
     0
102
RTVSPost2010Prop31
280
     0
102
RTVSPost2010PropOp31
 70
     0
102
RTVSPost2010Prop32
280
     0
102
RTVSPost2010PropOp32
 70
     0
102
RTVSPost2010Prop33
280
     0
102
RTVSPost2010PropOp33
 70
     0
102
RTVSPost2010Prop34
280
     0
102
RTVSPost2010PropOp34
 70
     0
102
RTVSPost2010Prop35
280
     0
102
RTVSPost2010PropOp35
 70
     0
102
RTVSPost2010Prop36
280
     0
102
RTVSPost2010PropOp36
 70
     0
102
RTVSPost2010Prop37
 90
       50
102
RTVSPost2010PropOp37
 70
     0
102
RTVSPost2010Prop38
140
0.0
102
RTVSPost2010PropOp38
 70
     0
102
RTVSPost2010Prop39
140
1.0
102
RTVSPost2010PropOp39
 70
     0
102
RTVSPost2010Prop40
 90
        0
102
RTVSPost2010PropOp40
 70
     0
102
RTVSPost2010Prop41ColorIndex
 90
       18
102
RTVSPost2010Prop41ColorRGB
 90
        0
102
RTVSPost2010PropOp41
 70
     0
102
RTVSPost2010Prop42
 90
       50
102
RTVSPost2010PropOp42
 70
     0
102
RTVSPost2010Prop43
 90
        3
102
RTVSPost2010PropOp43
 70
     0
102
RTVSPost2010Prop44ColorIndex
 90
        5
102
RTVSPost2010Prop44ColorRGB
 90
      255
102
RTVSPost2010PropOp44
 70
     0
102
RTVSPost2010Prop45
280
     0
102
RTVSPost2010PropOp45
 70
     0
102
RTVSPost2010Prop46
 90
       50
102
RTVSPost2010PropOp46
 70
     0
102
RTVSPost2010Prop47
 90
       50
102
RTVSPost2010PropOp47
 70
     0
102
RTVSPost2010Prop48
 90
       50
102
RTVSPost2010PropOp48
 70
     0
102
RTVSPost2010Prop49
280
     0
102
RTVSPost2010PropOp49
 70
     0
102
RTVSPost2010Prop50
 90
       50
102
RTVSPost2010PropOp50
 70
     0
102
RTVSPost2010Prop51ColorIndex
 90
      256
102
RTVSPost2010Prop51ColorRGB
 90
-16777216
102
RTVSPost2010PropOp51
 70
     0
102
RTVSPost2010Prop52
140
1.0
102
RTVSPost2010PropOp52
 70
     0
102
RTVSPost2010Prop53
 90
        2
102
RTVSPost2010PropOp53
 70
     0
102
RTVSPost2010Prop54
  1
strokes_ogs.tif
102
RTVSPost2010PropOp54
 70
     0
102
RTVSPost2010Prop55
280
     0
102
RTVSPost2010PropOp55
 70
     0
102
RTVSPost2010Prop56
140
1.0
102
RTVSPost2010PropOp56
 70
     0
102
RTVSPost2010Prop57
140
1.0
102
RTVSPost2010PropOp57
 70
     0
102
RTVSPropertyOp0
 70
     0
102
RTVSPropertyOp1
 70
     0
102
RTVSPropertyOp2
 70
     0
102
RTVSPropertyOp3
 70
     0
102
RTVSPropertyOp4
 70
     0
102
RTVSPropertyOp5
 70
     0
102
RTVSPropertyOp6
 70
     0
102
RTVSPropertyOp7
 70
     0
102
RTVSPropertyOp8
 70
     0
102
RTVSPropertyOp9
 70
     0
102
RTVSPropertyOp10
 70
     0
102
RTVSPropertyOp11
 70
     0
102
RTVSPropertyOp12
 70
     0
102
RTVSPropertyOp13
 70
     0
102
RTVSPropertyOp14
 70
     2
102
RTVSPropertyOp15
 70
     0
102
RTVSPropertyOp16
 70
     0
102
RTVSPropertyOp17
 70
     0
102
RTVSPropertyOp18
 70
     0
102
RTVSPropertyOp19
 70
     0
102
RTVSPropertyOp20
 70
     0
102
RTVSPropertyOp21
 70
     0
102
RTVSPropertyOp22
 70
     0
102
RTVSPropertyOp23
 70
     0
102
RTVSPropertyOp24
 70
     0
102
RTVSPropertyOp25
 70
     0
102
RTVSPropertyOp26
 70
     0
102
RTVSPropertyOp27
 70
     0
102
RTVSPropertyOp28
 70
     0
102
RTVSPropertyOp29
 70
     0
102
RTVSPropertyOp30
 70
     0
102
RTVSPropertyOp31
 70
     0
102
RTVSPropertyOp32
 70
     0
102
RTVSPropertyOp33
 70
     0
102
RTVSPropertyOp34
 70
     0
102
RTVSPropertyOp35
 70
     0
102
RTVSPropertyOp36
 70
     0
102
RTVSPropertyOp37
 70
     0
102
RTVSPropertyOp38
 70
     0
102
RTVSPropertyOp39
 70
     0
102
RTVSPropertyOp40
 70
     0
102
RTVSPropertyOp41
 70
     0
102
RTVSPropertyOp42
 70
     0
102
RTVSPropertyOp43
 70
     0
102
RTVSPropertyOp44
 70
     0
102
RTVSPropertyOp45
 70
     0
102
RTVSPropertyOp46
 70
     0
102
RTVSPropertyOp47
 70
     0
102
RTVSPropertyOp48
 70
     0
102
RTVSPropertyOp49
 70
     0
102
RTVSPropertyOp50
 70
     0
102
RTVSPropertyOp51
 70
     0
102
RTVSPropertyOp52
 70
     0
102
RTVSPropertyOp53
 70
     0
102
RTVSPropertyOp54
 70
     0
102
RTVSPropertyOp55
 70
     0
102
RTVSPropertyOp56
 70
     0
102
RTVSPropertyOp57
 70
     0
102
RTVSPropertyOp58
 70
     1
102
RTVSPropertyOp59
 70
     1
102
RTVSPropertyOp60
 70
     1
102
RTVSPropertyOp61
 70
     1
102
RTVSPropertyOp62
 70
     1
  0
XRECORD
  5
150
102
{ACAD_REACTORS
330
14F
102
}
330
14F
100
AcDbXrecord
280
     1
102
RTVSPost2010Prop28
280
     0
102
RTVSPost2010PropOp28
 70
     1
102
RTVSPost2010Prop29
280
     1
102
RTVSPost2010PropOp29
 70
     1
102
RTVSPost2010Prop30
280
     1
102
RTVSPost2010PropOp30
 70
     1
102
RTVSPost2010Prop31
280
     0
102
RTVSPost2010PropOp31
 70
     1
102
RTVSPost2010Prop32
280
     0
102
RTVSPost2010PropOp32
 70
     1
102
RTVSPost2010Prop33
280
     0
102
RTVSPost2010PropOp33
 70
     1
102
RTVSPost2010Prop34
280
     0
102
RTVSPost2010PropOp34
 70
     1
102
RTVSPost2010Prop35
280
     0
102
RTVSPost2010PropOp35
 70
     1
102
RTVSPost2010Prop36
280
     0
102
RTVSPost2010PropOp36
 70
     1
102
RTVSPost2010Prop37
 90
       50
102
RTVSPost2010PropOp37
 70
     1
102
RTVSPost2010Prop38
140
0.0
102
RTVSPost2010PropOp38
 70
     1
102
RTVSPost2010Prop39
140
1.0
102
RTVSPost2010PropOp39
 70
     1
102
RTVSPost2010Prop40
 90
        0
102
RTVSPost2010PropOp40
 70
     1
102
RTVSPost2010Prop41ColorIndex
 90
       18
102
RTVSPost2010Prop41ColorRGB
 90
        0
102
RTVSPost2010PropOp41
 70
     1
102
RTVSPost2010Prop42
 90
       50
102
RTVSPost2010PropOp42
 70
     1
102
RTVSPost2010Prop43
 90
        3
102
RTVSPost2010PropOp43
 70
     1
102
RTVSPost2010Prop44ColorIndex
 90
        5
102
RTVSPost2010Prop44ColorRGB
 90
      255
102
RTVSPost2010PropOp44
 70
     1
102
RTVSPost2010Prop45
280
     0
102
RTVSPost2010PropOp45
 70
     1
102
RTVSPost2010Prop46
 90
       50
102
RTVSPost2010PropOp46
 70
     1
102
RTVSPost2010Prop47
 90
       50
102
RTVSPost2010PropOp47
 70
     1
102
RTVSPost2010Prop48
 90
       50
102
RTVSPost2010PropOp48
 70
     1
102
RTVSPost2010Prop49
280
     0
102
RTVSPost2010PropOp49
 70
     1
102
RTVSPost2010Prop50
 90
       50
102
RTVSPost2010PropOp50
 70
     1
102
RTVSPost2010Prop51ColorIndex
 90
      256
102
RTVSPost2010Prop51ColorRGB
 90
-16777216
102
RTVSPost2010PropOp51
 70
     0
102
RTVSPost2010Prop52
140
1.0
102
RTVSPost2010PropOp52
 70
     0
102
RTVSPost2010Prop53
 90
        2
102
RTVSPost2010PropOp53
 70
     1
102
RTVSPost2010Prop54
  1
strokes_ogs.tif
102
RTVSPost2010PropOp54
 70
     1
102
RTVSPost2010Prop55
280
     0
102
RTVSPost2010PropOp55
 70
     1
102
RTVSPost2010Prop56
140
1.0
102
RTVSPost2010PropOp56
 70
     1
102
RTVSPost2010Prop57
140
1.0
102
RTVSPost2010PropOp57
 70
     1
102
RTVSPropertyOp0
 70
     1
102
RTVSPropertyOp1
 70
     1
102
RTVSPropertyOp2
 70
     1
102
RTVSPropertyOp3
 70
     1
102
RTVSPropertyOp4
 70
     1
102
RTVSPropertyOp5
 70
     1
102
RTVSPropertyOp6
 70
     1
102
RTVSPropertyOp7
 70
     1
102
RTVSPropertyOp8
 70
     1
102
RTVSPropertyOp9
 70
     1
102
RTVSPropertyOp10
 70
     1
102
RTVSPropertyOp11
 70
     1
102
RTVSPropertyOp12
 70
     1
102
RTVSPropertyOp13
 70
     1
102
RTVSPropertyOp14
 70
     1
102
RTVSPropertyOp15
 70
     1
102
RTVSPropertyOp16
 70
     1
102
RTVSPropertyOp17
 70
     1
102
RTVSPropertyOp18
 70
     1
102
RTVSPropertyOp19
 70
     1
102
RTVSPropertyOp20
 70
     1
102
RTVSPropertyOp21
 70
     1
102
RTVSPropertyOp22
 70
     1
102
RTVSPropertyOp23
 70
     1
102
RTVSPropertyOp24
 70
     1
102
RTVSPropertyOp25
 70
     1
102
RTVSPropertyOp26
 70
     1
102
RTVSPropertyOp27
 70
     1
102
RTVSPropertyOp28
 70
     1
102
RTVSPropertyOp29
 70
     1
102
RTVSPropertyOp30
 70
     1
102
RTVSPropertyOp31
 70
     1
102
RTVSPropertyOp32
 70
     1
102
RTVSPropertyOp33
 70
     1
102
RTVSPropertyOp34
 70
     1
102
RTVSPropertyOp35
 70
     1
102
RTVSPropertyOp36
 70
     1
102
RTVSPropertyOp37
 70
     1
102
RTVSPropertyOp38
 70
     1
102
RTVSPropertyOp39
 70
     1
102
RTVSPropertyOp40
 70
     1
102
RTVSPropertyOp41
 70
     1
102
RTVSPropertyOp42
 70
     1
102
RTVSPropertyOp43
 70
     1
102
RTVSPropertyOp44
 70
     1
102
RTVSPropertyOp45
 70
     1
102
RTVSPropertyOp46
 70
     1
102
RTVSPropertyOp47
 70
     1
102
RTVSPropertyOp48
 70
     1
102
RTVSPropertyOp49
 70
     1
102
RTVSPropertyOp50
 70
     1
102
RTVSPropertyOp51
 70
     0
102
RTVSPropertyOp52
 70
     0
102
RTVSPropertyOp53
 70
     1
102
RTVSPropertyOp54
 70
     1
102
RTVSPropertyOp55
 70
     1
102
RTVSPropertyOp56
 70
     1
102
RTVSPropertyOp57
 70
     1
102
RTVSPropertyOp58
 70
     1
102
RTVSPropertyOp59
 70
     1
102
RTVSPropertyOp60
 70
     1
102
RTVSPropertyOp61
 70
     1
102
RTVSPropertyOp62
 70
     1
  0
XRECORD
  5
134
102
{ACAD_REACTORS
330
133
102
}
330
133
100
AcDbXrecord
280
     1
102
RTVSPost2010Prop28
280
     0
102
RTVSPost2010PropOp28
 70
     1
102
RTVSPost2010Prop29
280
     1
102
RTVSPost2010PropOp29
 70
     1
102
RTVSPost2010Prop30
280
     1
102
RTVSPost2010PropOp30
 70
     1
102
RTVSPost2010Prop31
280
     0
102
RTVSPost2010PropOp31
 70
     1
102
RTVSPost2010Prop32
280
     0
102
RTVSPost2010PropOp32
 70
     1
102
RTVSPost2010Prop33
280
     0
102
RTVSPost2010PropOp33
 70
     1
102
RTVSPost2010Prop34
280
     0
102
RTVSPost2010PropOp34
 70
     1
102
RTVSPost2010Prop35
280
     0
102
RTVSPost2010PropOp35
 70
     1
102
RTVSPost2010Prop36
280
     0
102
RTVSPost2010PropOp36
 70
     1
102
RTVSPost2010Prop37
 90
       50
102
RTVSPost2010PropOp37
 70
     1
102
RTVSPost2010Prop38
140
0.0
102
RTVSPost2010PropOp38
 70
     1
102
RTVSPost2010Prop39
140
1.0
102
RTVSPost2010PropOp39
 70
     1
102
RTVSPost2010Prop40
 90
        0
102
RTVSPost2010PropOp40
 70
     1
102
RTVSPost2010Prop41ColorIndex
 90
       18
102
RTVSPost2010Prop41ColorRGB
 90
        0
102
RTVSPost2010PropOp41
 70
     1
102
RTVSPost2010Prop42
 90
       50
102
RTVSPost2010PropOp42
 70
     1
102
RTVSPost2010Prop43
 90
        3
102
RTVSPost2010PropOp43
 70
     1
102
RTVSPost2010Prop44ColorIndex
 90
        5
102
RTVSPost2010Prop44ColorRGB
 90
      255
102
RTVSPost2010PropOp44
 70
     1
102
RTVSPost2010Prop45
280
     0
102
RTVSPost2010PropOp45
 70
     1
102
RTVSPost2010Prop46
 90
       50
102
RTVSPost2010PropOp46
 70
     1
102
RTVSPost2010Prop47
 90
       50
102
RTVSPost2010PropOp47
 70
     1
102
RTVSPost2010Prop48
 90
       50
102
RTVSPost2010PropOp48
 70
     1
102
RTVSPost2010Prop49
280
     0
102
RTVSPost2010PropOp49
 70
     1
102
RTVSPost2010Prop50
 90
       50
102
RTVSPost2010PropOp50
 70
     1
102
RTVSPost2010Prop51ColorIndex
 90
      256
102
RTVSPost2010Prop51ColorRGB
 90
-16777216
102
RTVSPost2010PropOp51
 70
     0
102
RTVSPost2010Prop52
140
1.0
102
RTVSPost2010PropOp52
 70
     0
102
RTVSPost2010Prop53
 90
        2
102
RTVSPost2010PropOp53
 70
     1
102
RTVSPost2010Prop54
  1
strokes_ogs.tif
102
RTVSPost2010PropOp54
 70
     1
102
RTVSPost2010Prop55
280
     0
102
RTVSPost2010PropOp55
 70
     1
102
RTVSPost2010Prop56
140
1.0
102
RTVSPost2010PropOp56
 70
     1
102
RTVSPost2010Prop57
140
1.0
102
RTVSPost2010PropOp57
 70
     1
102
RTVSPropertyOp0
 70
     1
102
RTVSPropertyOp1
 70
     1
102
RTVSPropertyOp2
 70
     1
102
RTVSPropertyOp3
 70
     1
102
RTVSPropertyOp4
 70
     1
102
RTVSPropertyOp5
 70
     1
102
RTVSPropertyOp6
 70
     1
102
RTVSPropertyOp7
 70
     1
102
RTVSPropertyOp8
 70
     1
102
RTVSPropertyOp9
 70
     1
102
RTVSPropertyOp10
 70
     1
102
RTVSPropertyOp11
 70
     1
102
RTVSPropertyOp12
 70
     1
102
RTVSPropertyOp13
 70
     1
102
RTVSPropertyOp14
 70
     1
102
RTVSPropertyOp15
 70
     1
102
RTVSPropertyOp16
 70
     1
102
RTVSPropertyOp17
 70
     1
102
RTVSPropertyOp18
 70
     1
102
RTVSPropertyOp19
 70
     1
102
RTVSPropertyOp20
 70
     1
102
RTVSPropertyOp21
 70
     1
102
RTVSPropertyOp22
 70
     1
102
RTVSPropertyOp23
 70
     1
102
RTVSPropertyOp24
 70
     1
102
RTVSPropertyOp25
 70
     1
102
RTVSPropertyOp26
 70
     1
102
RTVSPropertyOp27
 70
     1
102
RTVSPropertyOp28
 70
     1
102
RTVSPropertyOp29
 70
     1
102
RTVSPropertyOp30
 70
     1
102
RTVSPropertyOp31
 70
     1
102
RTVSPropertyOp32
 70
     1
102
RTVSPropertyOp33
 70
     1
102
RTVSPropertyOp34
 70
     1
102
RTVSPropertyOp35
 70
     1
102
RTVSPropertyOp36
 70
     1
102
RTVSPropertyOp37
 70
     1
102
RTVSPropertyOp38
 70
     1
102
RTVSPropertyOp39
 70
     1
102
RTVSPropertyOp40
 70
     1
102
RTVSPropertyOp41
 70
     1
102
RTVSPropertyOp42
 70
     1
102
RTVSPropertyOp43
 70
     1
102
RTVSPropertyOp44
 70
     1
102
RTVSPropertyOp45
 70
     1
102
RTVSPropertyOp46
 70
     1
102
RTVSPropertyOp47
 70
     1
102
RTVSPropertyOp48
 70
     1
102
RTVSPropertyOp49
 70
     1
102
RTVSPropertyOp50
 70
     1
102
RTVSPropertyOp51
 70
     0
102
RTVSPropertyOp52
 70
     0
102
RTVSPropertyOp53
 70
     1
102
RTVSPropertyOp54
 70
     1
102
RTVSPropertyOp55
 70
     1
102
RTVSPropertyOp56
 70
     1
102
RTVSPropertyOp57
 70
     1
102
RTVSPropertyOp58
 70
     1
102
RTVSPropertyOp59
 70
     1
102
RTVSPropertyOp60
 70
     1
102
RTVSPropertyOp61
 70
     1
102
RTVSPropertyOp62
 70
     1
  0
XRECORD
  5
136
102
{ACAD_REACTORS
330
135
102
}
330
135
100
AcDbXrecord
280
     1
102
RTVSPost2010Prop28
280
     0
102
RTVSPost2010PropOp28
 70
     1
102
RTVSPost2010Prop29
280
     1
102
RTVSPost2010PropOp29
 70
     1
102
RTVSPost2010Prop30
280
     1
102
RTVSPost2010PropOp30
 70
     1
102
RTVSPost2010Prop31
280
     0
102
RTVSPost2010PropOp31
 70
     1
102
RTVSPost2010Prop32
280
     0
102
RTVSPost2010PropOp32
 70
     1
102
RTVSPost2010Prop33
280
     0
102
RTVSPost2010PropOp33
 70
     1
102
RTVSPost2010Prop34
280
     0
102
RTVSPost2010PropOp34
 70
     1
102
RTVSPost2010Prop35
280
     0
102
RTVSPost2010PropOp35
 70
     1
102
RTVSPost2010Prop36
280
     0
102
RTVSPost2010PropOp36
 70
     1
102
RTVSPost2010Prop37
 90
       50
102
RTVSPost2010PropOp37
 70
     1
102
RTVSPost2010Prop38
140
0.0
102
RTVSPost2010PropOp38
 70
     1
102
RTVSPost2010Prop39
140
1.0
102
RTVSPost2010PropOp39
 70
     1
102
RTVSPost2010Prop40
 90
        0
102
RTVSPost2010PropOp40
 70
     1
102
RTVSPost2010Prop41ColorIndex
 90
       18
102
RTVSPost2010Prop41ColorRGB
 90
        0
102
RTVSPost2010PropOp41
 70
     1
102
RTVSPost2010Prop42
 90
       50
102
RTVSPost2010PropOp42
 70
     1
102
RTVSPost2010Prop43
 90
        3
102
RTVSPost2010PropOp43
 70
     1
102
RTVSPost2010Prop44ColorIndex
 90
        5
102
RTVSPost2010Prop44ColorRGB
 90
      255
102
RTVSPost2010PropOp44
 70
     1
102
RTVSPost2010Prop45
280
     0
102
RTVSPost2010PropOp45
 70
     1
102
RTVSPost2010Prop46
 90
       50
102
RTVSPost2010PropOp46
 70
     1
102
RTVSPost2010Prop47
 90
       50
102
RTVSPost2010PropOp47
 70
     1
102
RTVSPost2010Prop48
 90
       50
102
RTVSPost2010PropOp48
 70
     1
102
RTVSPost2010Prop49
280
     0
102
RTVSPost2010PropOp49
 70
     1
102
RTVSPost2010Prop50
 90
       50
102
RTVSPost2010PropOp50
 70
     1
102
RTVSPost2010Prop51ColorIndex
 90
      256
102
RTVSPost2010Prop51ColorRGB
 90
-16777216
102
RTVSPost2010PropOp51
 70
     0
102
RTVSPost2010Prop52
140
1.0
102
RTVSPost2010PropOp52
 70
     0
102
RTVSPost2010Prop53
 90
        2
102
RTVSPost2010PropOp53
 70
     1
102
RTVSPost2010Prop54
  1
strokes_ogs.tif
102
RTVSPost2010PropOp54
 70
     1
102
RTVSPost2010Prop55
280
     0
102
RTVSPost2010PropOp55
 70
     1
102
RTVSPost2010Prop56
140
1.0
102
RTVSPost2010PropOp56
 70
     1
102
RTVSPost2010Prop57
140
1.0
102
RTVSPost2010PropOp57
 70
     1
102
RTVSPropertyOp0
 70
     1
102
RTVSPropertyOp1
 70
     1
102
RTVSPropertyOp2
 70
     1
102
RTVSPropertyOp3
 70
     1
102
RTVSPropertyOp4
 70
     1
102
RTVSPropertyOp5
 70
     1
102
RTVSPropertyOp6
 70
     1
102
RTVSPropertyOp7
 70
     1
102
RTVSPropertyOp8
 70
     1
102
RTVSPropertyOp9
 70
     1
102
RTVSPropertyOp10
 70
     1
102
RTVSPropertyOp11
 70
     1
102
RTVSPropertyOp12
 70
     1
102
RTVSPropertyOp13
 70
     1
102
RTVSPropertyOp14
 70
     1
102
RTVSPropertyOp15
 70
     1
102
RTVSPropertyOp16
 70
     1
102
RTVSPropertyOp17
 70
     1
102
RTVSPropertyOp18
 70
     1
102
RTVSPropertyOp19
 70
     1
102
RTVSPropertyOp20
 70
     1
102
RTVSPropertyOp21
 70
     1
102
RTVSPropertyOp22
 70
     1
102
RTVSPropertyOp23
 70
     1
102
RTVSPropertyOp24
 70
     1
102
RTVSPropertyOp25
 70
     1
102
RTVSPropertyOp26
 70
     1
102
RTVSPropertyOp27
 70
     1
102
RTVSPropertyOp28
 70
     1
102
RTVSPropertyOp29
 70
     1
102
RTVSPropertyOp30
 70
     1
102
RTVSPropertyOp31
 70
     1
102
RTVSPropertyOp32
 70
     1
102
RTVSPropertyOp33
 70
     1
102
RTVSPropertyOp34
 70
     1
102
RTVSPropertyOp35
 70
     1
102
RTVSPropertyOp36
 70
     1
102
RTVSPropertyOp37
 70
     1
102
RTVSPropertyOp38
 70
     1
102
RTVSPropertyOp39
 70
     1
102
RTVSPropertyOp40
 70
     1
102
RTVSPropertyOp41
 70
     1
102
RTVSPropertyOp42
 70
     1
102
RTVSPropertyOp43
 70
     1
102
RTVSPropertyOp44
 70
     1
102
RTVSPropertyOp45
 70
     1
102
RTVSPropertyOp46
 70
     1
102
RTVSPropertyOp47
 70
     1
102
RTVSPropertyOp48
 70
     1
102
RTVSPropertyOp49
 70
     1
102
RTVSPropertyOp50
 70
     1
102
RTVSPropertyOp51
 70
     0
102
RTVSPropertyOp52
 70
     0
102
RTVSPropertyOp53
 70
     1
102
RTVSPropertyOp54
 70
     1
102
RTVSPropertyOp55
 70
     1
102
RTVSPropertyOp56
 70
     1
102
RTVSPropertyOp57
 70
     1
102
RTVSPropertyOp58
 70
     1
102
RTVSPropertyOp59
 70
     1
102
RTVSPropertyOp60
 70
     1
102
RTVSPropertyOp61
 70
     1
102
RTVSPropertyOp62
 70
     1
  0
XRECORD
  5
138
102
{ACAD_REACTORS
330
137
102
}
330
137
100
AcDbXrecord
280
     1
102
RTVSPost2010Prop28
280
     0
102
RTVSPost2010PropOp28
 70
     1
102
RTVSPost2010Prop29
280
     1
102
RTVSPost2010PropOp29
 70
     1
102
RTVSPost2010Prop30
280
     1
102
RTVSPost2010PropOp30
 70
     1
102
RTVSPost2010Prop31
280
     0
102
RTVSPost2010PropOp31
 70
     1
102
RTVSPost2010Prop32
280
     0
102
RTVSPost2010PropOp32
 70
     1
102
RTVSPost2010Prop33
280
     0
102
RTVSPost2010PropOp33
 70
     1
102
RTVSPost2010Prop34
280
     0
102
RTVSPost2010PropOp34
 70
     1
102
RTVSPost2010Prop35
280
     0
102
RTVSPost2010PropOp35
 70
     1
102
RTVSPost2010Prop36
280
     0
102
RTVSPost2010PropOp36
 70
     1
102
RTVSPost2010Prop37
 90
       50
102
RTVSPost2010PropOp37
 70
     1
102
RTVSPost2010Prop38
140
0.0
102
RTVSPost2010PropOp38
 70
     1
102
RTVSPost2010Prop39
140
1.0
102
RTVSPost2010PropOp39
 70
     1
102
RTVSPost2010Prop40
 90
        0
102
RTVSPost2010PropOp40
 70
     1
102
RTVSPost2010Prop41ColorIndex
 90
       18
102
RTVSPost2010Prop41ColorRGB
 90
        0
102
RTVSPost2010PropOp41
 70
     1
102
RTVSPost2010Prop42
 90
       50
102
RTVSPost2010PropOp42
 70
     1
102
RTVSPost2010Prop43
 90
        3
102
RTVSPost2010PropOp43
 70
     1
102
RTVSPost2010Prop44ColorIndex
 90
        5
102
RTVSPost2010Prop44ColorRGB
 90
      255
102
RTVSPost2010PropOp44
 70
     1
102
RTVSPost2010Prop45
280
     0
102
RTVSPost2010PropOp45
 70
     1
102
RTVSPost2010Prop46
 90
       50
102
RTVSPost2010PropOp46
 70
     1
102
RTVSPost2010Prop47
 90
       50
102
RTVSPost2010PropOp47
 70
     1
102
RTVSPost2010Prop48
 90
       50
102
RTVSPost2010PropOp48
 70
     1
102
RTVSPost2010Prop49
280
     0
102
RTVSPost2010PropOp49
 70
     1
102
RTVSPost2010Prop50
 90
       50
102
RTVSPost2010PropOp50
 70
     1
102
RTVSPost2010Prop51ColorIndex
 90
      256
102
RTVSPost2010Prop51ColorRGB
 90
-16777216
102
RTVSPost2010PropOp51
 70
     0
102
RTVSPost2010Prop52
140
1.0
102
RTVSPost2010PropOp52
 70
     0
102
RTVSPost2010Prop53
 90
        2
102
RTVSPost2010PropOp53
 70
     1
102
RTVSPost2010Prop54
  1
strokes_ogs.tif
102
RTVSPost2010PropOp54
 70
     1
102
RTVSPost2010Prop55
280
     0
102
RTVSPost2010PropOp55
 70
     1
102
RTVSPost2010Prop56
140
1.0
102
RTVSPost2010PropOp56
 70
     1
102
RTVSPost2010Prop57
140
1.0
102
RTVSPost2010PropOp57
 70
     1
102
RTVSPropertyOp0
 70
     1
102
RTVSPropertyOp1
 70
     1
102
RTVSPropertyOp2
 70
     1
102
RTVSPropertyOp3
 70
     1
102
RTVSPropertyOp4
 70
     1
102
RTVSPropertyOp5
 70
     1
102
RTVSPropertyOp6
 70
     1
102
RTVSPropertyOp7
 70
     1
102
RTVSPropertyOp8
 70
     1
102
RTVSPropertyOp9
 70
     1
102
RTVSPropertyOp10
 70
     1
102
RTVSPropertyOp11
 70
     1
102
RTVSPropertyOp12
 70
     1
102
RTVSPropertyOp13
 70
     1
102
RTVSPropertyOp14
 70
     1
102
RTVSPropertyOp15
 70
     1
102
RTVSPropertyOp16
 70
     1
102
RTVSPropertyOp17
 70
     1
102
RTVSPropertyOp18
 70
     1
102
RTVSPropertyOp19
 70
     1
102
RTVSPropertyOp20
 70
     1
102
RTVSPropertyOp21
 70
     1
102
RTVSPropertyOp22
 70
     1
102
RTVSPropertyOp23
 70
     1
102
RTVSPropertyOp24
 70
     1
102
RTVSPropertyOp25
 70
     1
102
RTVSPropertyOp26
 70
     1
102
RTVSPropertyOp27
 70
     1
102
RTVSPropertyOp28
 70
     1
102
RTVSPropertyOp29
 70
     1
102
RTVSPropertyOp30
 70
     1
102
RTVSPropertyOp31
 70
     1
102
RTVSPropertyOp32
 70
     1
102
RTVSPropertyOp33
 70
     1
102
RTVSPropertyOp34
 70
     1
102
RTVSPropertyOp35
 70
     1
102
RTVSPropertyOp36
 70
     1
102
RTVSPropertyOp37
 70
     1
102
RTVSPropertyOp38
 70
     1
102
RTVSPropertyOp39
 70
     1
102
RTVSPropertyOp40
 70
     1
102
RTVSPropertyOp41
 70
     1
102
RTVSPropertyOp42
 70
     1
102
RTVSPropertyOp43
 70
     1
102
RTVSPropertyOp44
 70
     1
102
RTVSPropertyOp45
 70
     1
102
RTVSPropertyOp46
 70
     1
102
RTVSPropertyOp47
 70
     1
102
RTVSPropertyOp48
 70
     1
102
RTVSPropertyOp49
 70
     1
102
RTVSPropertyOp50
 70
     1
102
RTVSPropertyOp51
 70
     0
102
RTVSPropertyOp52
 70
     0
102
RTVSPropertyOp53
 70
     1
102
RTVSPropertyOp54
 70
     1
102
RTVSPropertyOp55
 70
     1
102
RTVSPropertyOp56
 70
     1
102
RTVSPropertyOp57
 70
     1
102
RTVSPropertyOp58
 70
     1
102
RTVSPropertyOp59
 70
     1
102
RTVSPropertyOp60
 70
     1
102
RTVSPropertyOp61
 70
     1
102
RTVSPropertyOp62
 70
     1
  0
XRECORD
  5
13A
102
{ACAD_REACTORS
330
139
102
}
330
139
100
AcDbXrecord
280
     1
102
RTVSPost2010Prop28
280
     0
102
RTVSPost2010PropOp28
 70
     1
102
RTVSPost2010Prop29
280
     1
102
RTVSPost2010PropOp29
 70
     1
102
RTVSPost2010Prop30
280
     1
102
RTVSPost2010PropOp30
 70
     1
102
RTVSPost2010Prop31
280
     0
102
RTVSPost2010PropOp31
 70
     1
102
RTVSPost2010Prop32
280
     0
102
RTVSPost2010PropOp32
 70
     1
102
RTVSPost2010Prop33
280
     0
102
RTVSPost2010PropOp33
 70
     1
102
RTVSPost2010Prop34
280
     0
102
RTVSPost2010PropOp34
 70
     1
102
RTVSPost2010Prop35
280
     0
102
RTVSPost2010PropOp35
 70
     1
102
RTVSPost2010Prop36
280
     0
102
RTVSPost2010PropOp36
 70
     1
102
RTVSPost2010Prop37
 90
       50
102
RTVSPost2010PropOp37
 70
     1
102
RTVSPost2010Prop38
140
0.0
102
RTVSPost2010PropOp38
 70
     1
102
RTVSPost2010Prop39
140
1.0
102
RTVSPost2010PropOp39
 70
     1
102
RTVSPost2010Prop40
 90
        0
102
RTVSPost2010PropOp40
 70
     1
102
RTVSPost2010Prop41ColorIndex
 90
       18
102
RTVSPost2010Prop41ColorRGB
 90
        0
102
RTVSPost2010PropOp41
 70
     1
102
RTVSPost2010Prop42
 90
       50
102
RTVSPost2010PropOp42
 70
     1
102
RTVSPost2010Prop43
 90
        3
102
RTVSPost2010PropOp43
 70
     1
102
RTVSPost2010Prop44ColorIndex
 90
        5
102
RTVSPost2010Prop44ColorRGB
 90
      255
102
RTVSPost2010PropOp44
 70
     1
102
RTVSPost2010Prop45
280
     0
102
RTVSPost2010PropOp45
 70
     1
102
RTVSPost2010Prop46
 90
       50
102
RTVSPost2010PropOp46
 70
     1
102
RTVSPost2010Prop47
 90
       50
102
RTVSPost2010PropOp47
 70
     1
102
RTVSPost2010Prop48
 90
       50
102
RTVSPost2010PropOp48
 70
     1
102
RTVSPost2010Prop49
280
     0
102
RTVSPost2010PropOp49
 70
     1
102
RTVSPost2010Prop50
 90
       50
102
RTVSPost2010PropOp50
 70
     1
102
RTVSPost2010Prop51ColorIndex
 90
      256
102
RTVSPost2010Prop51ColorRGB
 90
-16777216
102
RTVSPost2010PropOp51
 70
     0
102
RTVSPost2010Prop52
140
1.0
102
RTVSPost2010PropOp52
 70
     0
102
RTVSPost2010Prop53
 90
        2
102
RTVSPost2010PropOp53
 70
     1
102
RTVSPost2010Prop54
  1
strokes_ogs.tif
102
RTVSPost2010PropOp54
 70
     1
102
RTVSPost2010Prop55
280
     0
102
RTVSPost2010PropOp55
 70
     1
102
RTVSPost2010Prop56
140
1.0
102
RTVSPost2010PropOp56
 70
     1
102
RTVSPost2010Prop57
140
1.0
102
RTVSPost2010PropOp57
 70
     1
102
RTVSPropertyOp0
 70
     1
102
RTVSPropertyOp1
 70
     1
102
RTVSPropertyOp2
 70
     1
102
RTVSPropertyOp3
 70
     1
102
RTVSPropertyOp4
 70
     1
102
RTVSPropertyOp5
 70
     1
102
RTVSPropertyOp6
 70
     1
102
RTVSPropertyOp7
 70
     1
102
RTVSPropertyOp8
 70
     1
102
RTVSPropertyOp9
 70
     1
102
RTVSPropertyOp10
 70
     1
102
RTVSPropertyOp11
 70
     1
102
RTVSPropertyOp12
 70
     1
102
RTVSPropertyOp13
 70
     1
102
RTVSPropertyOp14
 70
     1
102
RTVSPropertyOp15
 70
     1
102
RTVSPropertyOp16
 70
     1
102
RTVSPropertyOp17
 70
     1
102
RTVSPropertyOp18
 70
     1
102
RTVSPropertyOp19
 70
     1
102
RTVSPropertyOp20
 70
     1
102
RTVSPropertyOp21
 70
     1
102
RTVSPropertyOp22
 70
     1
102
RTVSPropertyOp23
 70
     1
102
RTVSPropertyOp24
 70
     1
102
RTVSPropertyOp25
 70
     1
102
RTVSPropertyOp26
 70
     1
102
RTVSPropertyOp27
 70
     1
102
RTVSPropertyOp28
 70
     1
102
RTVSPropertyOp29
 70
     1
102
RTVSPropertyOp30
 70
     1
102
RTVSPropertyOp31
 70
     1
102
RTVSPropertyOp32
 70
     1
102
RTVSPropertyOp33
 70
     1
102
RTVSPropertyOp34
 70
     1
102
RTVSPropertyOp35
 70
     1
102
RTVSPropertyOp36
 70
     1
102
RTVSPropertyOp37
 70
     1
102
RTVSPropertyOp38
 70
     1
102
RTVSPropertyOp39
 70
     1
102
RTVSPropertyOp40
 70
     1
102
RTVSPropertyOp41
 70
     1
102
RTVSPropertyOp42
 70
     1
102
RTVSPropertyOp43
 70
     1
102
RTVSPropertyOp44
 70
     1
102
RTVSPropertyOp45
 70
     1
102
RTVSPropertyOp46
 70
     1
102
RTVSPropertyOp47
 70
     1
102
RTVSPropertyOp48
 70
     1
102
RTVSPropertyOp49
 70
     1
102
RTVSPropertyOp50
 70
     1
102
RTVSPropertyOp51
 70
     0
102
RTVSPropertyOp52
 70
     0
102
RTVSPropertyOp53
 70
     1
102
RTVSPropertyOp54
 70
     1
102
RTVSPropertyOp55
 70
     1
102
RTVSPropertyOp56
 70
     1
102
RTVSPropertyOp57
 70
     1
102
RTVSPropertyOp58
 70
     1
102
RTVSPropertyOp59
 70
     1
102
RTVSPropertyOp60
 70
     1
102
RTVSPropertyOp61
 70
     1
102
RTVSPropertyOp62
 70
     1
  0
XRECORD
  5
142
102
{ACAD_REACTORS
330
141
102
}
330
141
100
AcDbXrecord
280
     1
102
RTVSPost2010Prop28
280
     0
102
RTVSPost2010PropOp28
 70
     1
102
RTVSPost2010Prop29
280
     1
102
RTVSPost2010PropOp29
 70
     1
102
RTVSPost2010Prop30
280
     1
102
RTVSPost2010PropOp30
 70
     1
102
RTVSPost2010Prop31
280
     0
102
RTVSPost2010PropOp31
 70
     1
102
RTVSPost2010Prop32
280
     0
102
RTVSPost2010PropOp32
 70
     1
102
RTVSPost2010Prop33
280
     0
102
RTVSPost2010PropOp33
 70
     1
102
RTVSPost2010Prop34
280
     0
102
RTVSPost2010PropOp34
 70
     1
102
RTVSPost2010Prop35
280
     0
102
RTVSPost2010PropOp35
 70
     1
102
RTVSPost2010Prop36
280
     0
102
RTVSPost2010PropOp36
 70
     1
102
RTVSPost2010Prop37
 90
       50
102
RTVSPost2010PropOp37
 70
     1
102
RTVSPost2010Prop38
140
0.0
102
RTVSPost2010PropOp38
 70
     1
102
RTVSPost2010Prop39
140
1.0
102
RTVSPost2010PropOp39
 70
     1
102
RTVSPost2010Prop40
 90
        0
102
RTVSPost2010PropOp40
 70
     1
102
RTVSPost2010Prop41ColorIndex
 90
       18
102
RTVSPost2010Prop41ColorRGB
 90
        0
102
RTVSPost2010PropOp41
 70
     1
102
RTVSPost2010Prop42
 90
       50
102
RTVSPost2010PropOp42
 70
     1
102
RTVSPost2010Prop43
 90
        3
102
RTVSPost2010PropOp43
 70
     1
102
RTVSPost2010Prop44ColorIndex
 90
        5
102
RTVSPost2010Prop44ColorRGB
 90
      255
102
RTVSPost2010PropOp44
 70
     1
102
RTVSPost2010Prop45
280
     0
102
RTVSPost2010PropOp45
 70
     1
102
RTVSPost2010Prop46
 90
       50
102
RTVSPost2010PropOp46
 70
     1
102
RTVSPost2010Prop47
 90
       50
102
RTVSPost2010PropOp47
 70
     1
102
RTVSPost2010Prop48
 90
       50
102
RTVSPost2010PropOp48
 70
     1
102
RTVSPost2010Prop49
280
     0
102
RTVSPost2010PropOp49
 70
     1
102
RTVSPost2010Prop50
 90
       50
102
RTVSPost2010PropOp50
 70
     1
102
RTVSPost2010Prop51ColorIndex
 90
      256
102
RTVSPost2010Prop51ColorRGB
 90
-16777216
102
RTVSPost2010PropOp51
 70
     0
102
RTVSPost2010Prop52
140
1.0
102
RTVSPost2010PropOp52
 70
     0
102
RTVSPost2010Prop53
 90
        2
102
RTVSPost2010PropOp53
 70
     1
102
RTVSPost2010Prop54
  1
strokes_ogs.tif
102
RTVSPost2010PropOp54
 70
     1
102
RTVSPost2010Prop55
280
     0
102
RTVSPost2010PropOp55
 70
     1
102
RTVSPost2010Prop56
140
1.0
102
RTVSPost2010PropOp56
 70
     1
102
RTVSPost2010Prop57
140
1.0
102
RTVSPost2010PropOp57
 70
     1
102
RTVSPropertyOp0
 70
     1
102
RTVSPropertyOp1
 70
     1
102
RTVSPropertyOp2
 70
     1
102
RTVSPropertyOp3
 70
     1
102
RTVSPropertyOp4
 70
     1
102
RTVSPropertyOp5
 70
     1
102
RTVSPropertyOp6
 70
     1
102
RTVSPropertyOp7
 70
     1
102
RTVSPropertyOp8
 70
     1
102
RTVSPropertyOp9
 70
     1
102
RTVSPropertyOp10
 70
     1
102
RTVSPropertyOp11
 70
     1
102
RTVSPropertyOp12
 70
     1
102
RTVSPropertyOp13
 70
     1
102
RTVSPropertyOp14
 70
     1
102
RTVSPropertyOp15
 70
     1
102
RTVSPropertyOp16
 70
     1
102
RTVSPropertyOp17
 70
     1
102
RTVSPropertyOp18
 70
     1
102
RTVSPropertyOp19
 70
     1
102
RTVSPropertyOp20
 70
     1
102
RTVSPropertyOp21
 70
     1
102
RTVSPropertyOp22
 70
     1
102
RTVSPropertyOp23
 70
     1
102
RTVSPropertyOp24
 70
     1
102
RTVSPropertyOp25
 70
     1
102
RTVSPropertyOp26
 70
     1
102
RTVSPropertyOp27
 70
     1
102
RTVSPropertyOp28
 70
     1
102
RTVSPropertyOp29
 70
     1
102
RTVSPropertyOp30
 70
     1
102
RTVSPropertyOp31
 70
     1
102
RTVSPropertyOp32
 70
     1
102
RTVSPropertyOp33
 70
     1
102
RTVSPropertyOp34
 70
     1
102
RTVSPropertyOp35
 70
     1
102
RTVSPropertyOp36
 70
     1
102
RTVSPropertyOp37
 70
     1
102
RTVSPropertyOp38
 70
     1
102
RTVSPropertyOp39
 70
     1
102
RTVSPropertyOp40
 70
     1
102
RTVSPropertyOp41
 70
     1
102
RTVSPropertyOp42
 70
     1
102
RTVSPropertyOp43
 70
     1
102
RTVSPropertyOp44
 70
     1
102
RTVSPropertyOp45
 70
     1
102
RTVSPropertyOp46
 70
     1
102
RTVSPropertyOp47
 70
     1
102
RTVSPropertyOp48
 70
     1
102
RTVSPropertyOp49
 70
     1
102
RTVSPropertyOp50
 70
     1
102
RTVSPropertyOp51
 70
     0
102
RTVSPropertyOp52
 70
     0
102
RTVSPropertyOp53
 70
     1
102
RTVSPropertyOp54
 70
     1
102
RTVSPropertyOp55
 70
     1
102
RTVSPropertyOp56
 70
     1
102
RTVSPropertyOp57
 70
     1
102
RTVSPropertyOp58
 70
     1
102
RTVSPropertyOp59
 70
     1
102
RTVSPropertyOp60
 70
     1
102
RTVSPropertyOp61
 70
     1
102
RTVSPropertyOp62
 70
     1
  0
XRECORD
  5
15E
102
{ACAD_REACTORS
330
15D
102
}
330
15D
100
AcDbXrecord
280
     1
102
RTVSPost2010Prop28
280
     0
102
RTVSPost2010PropOp28
 70
     0
102
RTVSPost2010Prop29
280
     1
102
RTVSPost2010PropOp29
 70
     0
102
RTVSPost2010Prop30
280
     1
102
RTVSPost2010PropOp30
 70
     0
102
RTVSPost2010Prop31
280
     0
102
RTVSPost2010PropOp31
 70
     0
102
RTVSPost2010Prop32
280
     0
102
RTVSPost2010PropOp32
 70
     0
102
RTVSPost2010Prop33
280
     0
102
RTVSPost2010PropOp33
 70
     0
102
RTVSPost2010Prop34
280
     0
102
RTVSPost2010PropOp34
 70
     0
102
RTVSPost2010Prop35
280
     0
102
RTVSPost2010PropOp35
 70
     0
102
RTVSPost2010Prop36
280
     0
102
RTVSPost2010PropOp36
 70
     0
102
RTVSPost2010Prop37
 90
       50
102
RTVSPost2010PropOp37
 70
     0
102
RTVSPost2010Prop38
140
0.0
102
RTVSPost2010PropOp38
 70
     0
102
RTVSPost2010Prop39
140
1.0
102
RTVSPost2010PropOp39
 70
     0
102
RTVSPost2010Prop40
 90
        0
102
RTVSPost2010PropOp40
 70
     0
102
RTVSPost2010Prop41ColorIndex
 90
       18
102
RTVSPost2010Prop41ColorRGB
 90
        0
102
RTVSPost2010PropOp41
 70
     0
102
RTVSPost2010Prop42
 90
       50
102
RTVSPost2010PropOp42
 70
     0
102
RTVSPost2010Prop43
 90
        3
102
RTVSPost2010PropOp43
 70
     0
102
RTVSPost2010Prop44ColorIndex
 90
        5
102
RTVSPost2010Prop44ColorRGB
 90
      255
102
RTVSPost2010PropOp44
 70
     0
102
RTVSPost2010Prop45
280
     0
102
RTVSPost2010PropOp45
 70
     0
102
RTVSPost2010Prop46
 90
       50
102
RTVSPost2010PropOp46
 70
     0
102
RTVSPost2010Prop47
 90
       50
102
RTVSPost2010PropOp47
 70
     0
102
RTVSPost2010Prop48
 90
       50
102
RTVSPost2010PropOp48
 70
     0
102
RTVSPost2010Prop49
280
     0
102
RTVSPost2010PropOp49
 70
     0
102
RTVSPost2010Prop50
 90
       50
102
RTVSPost2010PropOp50
 70
     0
102
RTVSPost2010Prop51ColorIndex
 90
      256
102
RTVSPost2010Prop51ColorRGB
 90
-16777216
102
RTVSPost2010PropOp51
 70
     0
102
RTVSPost2010Prop52
140
1.0
102
RTVSPost2010PropOp52
 70
     0
102
RTVSPost2010Prop53
 90
        2
102
RTVSPost2010PropOp53
 70
     0
102
RTVSPost2010Prop54
  1
strokes_ogs.tif
102
RTVSPost2010PropOp54
 70
     0
102
RTVSPost2010Prop55
280
     0
102
RTVSPost2010PropOp55
 70
     0
102
RTVSPost2010Prop56
140
1.0
102
RTVSPost2010PropOp56
 70
     0
102
RTVSPost2010Prop57
140
1.0
102
RTVSPost2010PropOp57
 70
     0
102
RTVSPropertyOp0
 70
     0
102
RTVSPropertyOp1
 70
     0
102
RTVSPropertyOp2
 70
     0
102
RTVSPropertyOp3
 70
     0
102
RTVSPropertyOp4
 70
     0
102
RTVSPropertyOp5
 70
     0
102
RTVSPropertyOp6
 70
     0
102
RTVSPropertyOp7
 70
     0
102
RTVSPropertyOp8
 70
     0
102
RTVSPropertyOp9
 70
     0
102
RTVSPropertyOp10
 70
     0
102
RTVSPropertyOp11
 70
     0
102
RTVSPropertyOp12
 70
     0
102
RTVSPropertyOp13
 70
     0
102
RTVSPropertyOp14
 70
     2
102
RTVSPropertyOp15
 70
     0
102
RTVSPropertyOp16
 70
     0
102
RTVSPropertyOp17
 70
     0
102
RTVSPropertyOp18
 70
     0
102
RTVSPropertyOp19
 70
     0
102
RTVSPropertyOp20
 70
     0
102
RTVSPropertyOp21
 70
     0
102
RTVSPropertyOp22
 70
     0
102
RTVSPropertyOp23
 70
     0
102
RTVSPropertyOp24
 70
     0
102
RTVSPropertyOp25
 70
     0
102
RTVSPropertyOp26
 70
     0
102
RTVSPropertyOp27
 70
     0
102
RTVSPropertyOp28
 70
     0
102
RTVSPropertyOp29
 70
     0
102
RTVSPropertyOp30
 70
     0
102
RTVSPropertyOp31
 70
     0
102
RTVSPropertyOp32
 70
     0
102
RTVSPropertyOp33
 70
     0
102
RTVSPropertyOp34
 70
     0
102
RTVSPropertyOp35
 70
     0
102
RTVSPropertyOp36
 70
     0
102
RTVSPropertyOp37
 70
     0
102
RTVSPropertyOp38
 70
     0
102
RTVSPropertyOp39
 70
     0
102
RTVSPropertyOp40
 70
     0
102
RTVSPropertyOp41
 70
     0
102
RTVSPropertyOp42
 70
     0
102
RTVSPropertyOp43
 70
     0
102
RTVSPropertyOp44
 70
     0
102
RTVSPropertyOp45
 70
     0
102
RTVSPropertyOp46
 70
     0
102
RTVSPropertyOp47
 70
     0
102
RTVSPropertyOp48
 70
     0
102
RTVSPropertyOp49
 70
     0
102
RTVSPropertyOp50
 70
     0
102
RTVSPropertyOp51
 70
     0
102
RTVSPropertyOp52
 70
     0
102
RTVSPropertyOp53
 70
     0
102
RTVSPropertyOp54
 70
     0
102
RTVSPropertyOp55
 70
     0
102
RTVSPropertyOp56
 70
     0
102
RTVSPropertyOp57
 70
     0
102
RTVSPropertyOp58
 70
     1
102
RTVSPropertyOp59
 70
     1
102
RTVSPropertyOp60
 70
     1
102
RTVSPropertyOp61
 70
     1
102
RTVSPropertyOp62
 70
     1
  0
XRECORD
  5
14E
102
{ACAD_REACTORS
330
14D
102
}
330
14D
100
AcDbXrecord
280
     1
102
RTVSPost2010Prop28
280
     0
102
RTVSPost2010PropOp28
 70
     1
102
RTVSPost2010Prop29
280
     1
102
RTVSPost2010PropOp29
 70
     1
102
RTVSPost2010Prop30
280
     1
102
RTVSPost2010PropOp30
 70
     1
102
RTVSPost2010Prop31
280
     0
102
RTVSPost2010PropOp31
 70
     1
102
RTVSPost2010Prop32
280
     0
102
RTVSPost2010PropOp32
 70
     1
102
RTVSPost2010Prop33
280
     0
102
RTVSPost2010PropOp33
 70
     1
102
RTVSPost2010Prop34
280
     0
102
RTVSPost2010PropOp34
 70
     1
102
RTVSPost2010Prop35
280
     0
102
RTVSPost2010PropOp35
 70
     1
102
RTVSPost2010Prop36
280
     0
102
RTVSPost2010PropOp36
 70
     1
102
RTVSPost2010Prop37
 90
       50
102
RTVSPost2010PropOp37
 70
     1
102
RTVSPost2010Prop38
140
0.0
102
RTVSPost2010PropOp38
 70
     1
102
RTVSPost2010Prop39
140
1.0
102
RTVSPost2010PropOp39
 70
     1
102
RTVSPost2010Prop40
 90
        0
102
RTVSPost2010PropOp40
 70
     1
102
RTVSPost2010Prop41ColorIndex
 90
       18
102
RTVSPost2010Prop41ColorRGB
 90
        0
102
RTVSPost2010PropOp41
 70
     1
102
RTVSPost2010Prop42
 90
       50
102
RTVSPost2010PropOp42
 70
     1
102
RTVSPost2010Prop43
 90
        3
102
RTVSPost2010PropOp43
 70
     1
102
RTVSPost2010Prop44ColorIndex
 90
        5
102
RTVSPost2010Prop44ColorRGB
 90
      255
102
RTVSPost2010PropOp44
 70
     1
102
RTVSPost2010Prop45
280
     0
102
RTVSPost2010PropOp45
 70
     1
102
RTVSPost2010Prop46
 90
       50
102
RTVSPost2010PropOp46
 70
     1
102
RTVSPost2010Prop47
 90
       50
102
RTVSPost2010PropOp47
 70
     1
102
RTVSPost2010Prop48
 90
       50
102
RTVSPost2010PropOp48
 70
     1
102
RTVSPost2010Prop49
280
     0
102
RTVSPost2010PropOp49
 70
     1
102
RTVSPost2010Prop50
 90
       50
102
RTVSPost2010PropOp50
 70
     1
102
RTVSPost2010Prop51ColorIndex
 90
      256
102
RTVSPost2010Prop51ColorRGB
 90
-16777216
102
RTVSPost2010PropOp51
 70
     0
102
RTVSPost2010Prop52
140
1.0
102
RTVSPost2010PropOp52
 70
     0
102
RTVSPost2010Prop53
 90
        2
102
RTVSPost2010PropOp53
 70
     1
102
RTVSPost2010Prop54
  1
strokes_ogs.tif
102
RTVSPost2010PropOp54
 70
     1
102
RTVSPost2010Prop55
280
     0
102
RTVSPost2010PropOp55
 70
     1
102
RTVSPost2010Prop56
140
1.0
102
RTVSPost2010PropOp56
 70
     1
102
RTVSPost2010Prop57
140
1.0
102
RTVSPost2010PropOp57
 70
     1
102
RTVSPropertyOp0
 70
     1
102
RTVSPropertyOp1
 70
     1
102
RTVSPropertyOp2
 70
     1
102
RTVSPropertyOp3
 70
     1
102
RTVSPropertyOp4
 70
     1
102
RTVSPropertyOp5
 70
     1
102
RTVSPropertyOp6
 70
     1
102
RTVSPropertyOp7
 70
     1
102
RTVSPropertyOp8
 70
     1
102
RTVSPropertyOp9
 70
     1
102
RTVSPropertyOp10
 70
     1
102
RTVSPropertyOp11
 70
     1
102
RTVSPropertyOp12
 70
     1
102
RTVSPropertyOp13
 70
     1
102
RTVSPropertyOp14
 70
     1
102
RTVSPropertyOp15
 70
     1
102
RTVSPropertyOp16
 70
     1
102
RTVSPropertyOp17
 70
     1
102
RTVSPropertyOp18
 70
     1
102
RTVSPropertyOp19
 70
     1
102
RTVSPropertyOp20
 70
     1
102
RTVSPropertyOp21
 70
     1
102
RTVSPropertyOp22
 70
     1
102
RTVSPropertyOp23
 70
     1
102
RTVSPropertyOp24
 70
     1
102
RTVSPropertyOp25
 70
     1
102
RTVSPropertyOp26
 70
     1
102
RTVSPropertyOp27
 70
     1
102
RTVSPropertyOp28
 70
     1
102
RTVSPropertyOp29
 70
     1
102
RTVSPropertyOp30
 70
     1
102
RTVSPropertyOp31
 70
     1
102
RTVSPropertyOp32
 70
     1
102
RTVSPropertyOp33
 70
     1
102
RTVSPropertyOp34
 70
     1
102
RTVSPropertyOp35
 70
     1
102
RTVSPropertyOp36
 70
     1
102
RTVSPropertyOp37
 70
     1
102
RTVSPropertyOp38
 70
     1
102
RTVSPropertyOp39
 70
     1
102
RTVSPropertyOp40
 70
     1
102
RTVSPropertyOp41
 70
     1
102
RTVSPropertyOp42
 70
     1
102
RTVSPropertyOp43
 70
     1
102
RTVSPropertyOp44
 70
     1
102
RTVSPropertyOp45
 70
     1
102
RTVSPropertyOp46
 70
     1
102
RTVSPropertyOp47
 70
     1
102
RTVSPropertyOp48
 70
     1
102
RTVSPropertyOp49
 70
     1
102
RTVSPropertyOp50
 70
     1
102
RTVSPropertyOp51
 70
     0
102
RTVSPropertyOp52
 70
     0
102
RTVSPropertyOp53
 70
     1
102
RTVSPropertyOp54
 70
     1
102
RTVSPropertyOp55
 70
     1
102
RTVSPropertyOp56
 70
     1
102
RTVSPropertyOp57
 70
     1
102
RTVSPropertyOp58
 70
     1
102
RTVSPropertyOp59
 70
     1
102
RTVSPropertyOp60
 70
     1
102
RTVSPropertyOp61
 70
     1
102
RTVSPropertyOp62
 70
     1
  0
XRECORD
  5
160
102
{ACAD_REACTORS
330
15F
102
}
330
15F
100
AcDbXrecord
280
     1
102
RTVSPost2010Prop28
280
     0
102
RTVSPost2010PropOp28
 70
     0
102
RTVSPost2010Prop29
280
     1
102
RTVSPost2010PropOp29
 70
     0
102
RTVSPost2010Prop30
280
     1
102
RTVSPost2010PropOp30
 70
     0
102
RTVSPost2010Prop31
280
     0
102
RTVSPost2010PropOp31
 70
     0
102
RTVSPost2010Prop32
280
     0
102
RTVSPost2010PropOp32
 70
     0
102
RTVSPost2010Prop33
280
     0
102
RTVSPost2010PropOp33
 70
     0
102
RTVSPost2010Prop34
280
     0
102
RTVSPost2010PropOp34
 70
     0
102
RTVSPost2010Prop35
280
     0
102
RTVSPost2010PropOp35
 70
     0
102
RTVSPost2010Prop36
280
     0
102
RTVSPost2010PropOp36
 70
     0
102
RTVSPost2010Prop37
 90
       50
102
RTVSPost2010PropOp37
 70
     0
102
RTVSPost2010Prop38
140
0.0
102
RTVSPost2010PropOp38
 70
     0
102
RTVSPost2010Prop39
140
1.0
102
RTVSPost2010PropOp39
 70
     0
102
RTVSPost2010Prop40
 90
        0
102
RTVSPost2010PropOp40
 70
     0
102
RTVSPost2010Prop41ColorIndex
 90
       18
102
RTVSPost2010Prop41ColorRGB
 90
        0
102
RTVSPost2010PropOp41
 70
     0
102
RTVSPost2010Prop42
 90
       50
102
RTVSPost2010PropOp42
 70
     0
102
RTVSPost2010Prop43
 90
        3
102
RTVSPost2010PropOp43
 70
     0
102
RTVSPost2010Prop44ColorIndex
 90
        5
102
RTVSPost2010Prop44ColorRGB
 90
      255
102
RTVSPost2010PropOp44
 70
     0
102
RTVSPost2010Prop45
280
     0
102
RTVSPost2010PropOp45
 70
     0
102
RTVSPost2010Prop46
 90
       50
102
RTVSPost2010PropOp46
 70
     0
102
RTVSPost2010Prop47
 90
       50
102
RTVSPost2010PropOp47
 70
     0
102
RTVSPost2010Prop48
 90
       50
102
RTVSPost2010PropOp48
 70
     0
102
RTVSPost2010Prop49
280
     0
102
RTVSPost2010PropOp49
 70
     0
102
RTVSPost2010Prop50
 90
       50
102
RTVSPost2010PropOp50
 70
     0
102
RTVSPost2010Prop51ColorIndex
 90
      256
102
RTVSPost2010Prop51ColorRGB
 90
-16777216
102
RTVSPost2010PropOp51
 70
     0
102
RTVSPost2010Prop52
140
1.0
102
RTVSPost2010PropOp52
 70
     0
102
RTVSPost2010Prop53
 90
        2
102
RTVSPost2010PropOp53
 70
     0
102
RTVSPost2010Prop54
  1
strokes_ogs.tif
102
RTVSPost2010PropOp54
 70
     0
102
RTVSPost2010Prop55
280
     0
102
RTVSPost2010PropOp55
 70
     0
102
RTVSPost2010Prop56
140
1.0
102
RTVSPost2010PropOp56
 70
     0
102
RTVSPost2010Prop57
140
1.0
102
RTVSPost2010PropOp57
 70
     0
102
RTVSPropertyOp0
 70
     0
102
RTVSPropertyOp1
 70
     0
102
RTVSPropertyOp2
 70
     0
102
RTVSPropertyOp3
 70
     0
102
RTVSPropertyOp4
 70
     0
102
RTVSPropertyOp5
 70
     0
102
RTVSPropertyOp6
 70
     0
102
RTVSPropertyOp7
 70
     0
102
RTVSPropertyOp8
 70
     0
102
RTVSPropertyOp9
 70
     0
102
RTVSPropertyOp10
 70
     0
102
RTVSPropertyOp11
 70
     0
102
RTVSPropertyOp12
 70
     0
102
RTVSPropertyOp13
 70
     0
102
RTVSPropertyOp14
 70
     2
102
RTVSPropertyOp15
 70
     0
102
RTVSPropertyOp16
 70
     0
102
RTVSPropertyOp17
 70
     0
102
RTVSPropertyOp18
 70
     0
102
RTVSPropertyOp19
 70
     0
102
RTVSPropertyOp20
 70
     0
102
RTVSPropertyOp21
 70
     0
102
RTVSPropertyOp22
 70
     0
102
RTVSPropertyOp23
 70
     0
102
RTVSPropertyOp24
 70
     0
102
RTVSPropertyOp25
 70
     0
102
RTVSPropertyOp26
 70
     0
102
RTVSPropertyOp27
 70
     0
102
RTVSPropertyOp28
 70
     0
102
RTVSPropertyOp29
 70
     0
102
RTVSPropertyOp30
 70
     0
102
RTVSPropertyOp31
 70
     0
102
RTVSPropertyOp32
 70
     0
102
RTVSPropertyOp33
 70
     0
102
RTVSPropertyOp34
 70
     0
102
RTVSPropertyOp35
 70
     0
102
RTVSPropertyOp36
 70
     0
102
RTVSPropertyOp37
 70
     0
102
RTVSPropertyOp38
 70
     0
102
RTVSPropertyOp39
 70
     0
102
RTVSPropertyOp40
 70
     0
102
RTVSPropertyOp41
 70
     0
102
RTVSPropertyOp42
 70
     0
102
RTVSPropertyOp43
 70
     0
102
RTVSPropertyOp44
 70
     0
102
RTVSPropertyOp45
 70
     0
102
RTVSPropertyOp46
 70
     0
102
RTVSPropertyOp47
 70
     0
102
RTVSPropertyOp48
 70
     0
102
RTVSPropertyOp49
 70
     0
102
RTVSPropertyOp50
 70
     0
102
RTVSPropertyOp51
 70
     0
102
RTVSPropertyOp52
 70
     0
102
RTVSPropertyOp53
 70
     0
102
RTVSPropertyOp54
 70
     0
102
RTVSPropertyOp55
 70
     0
102
RTVSPropertyOp56
 70
     0
102
RTVSPropertyOp57
 70
     0
102
RTVSPropertyOp58
 70
     1
102
RTVSPropertyOp59
 70
     1
102
RTVSPropertyOp60
 70
     1
102
RTVSPropertyOp61
 70
     1
102
RTVSPropertyOp62
 70
     1
  0
XRECORD
  5
146
102
{ACAD_REACTORS
330
145
102
}
330
145
100
AcDbXrecord
280
     1
102
RTVSPost2010Prop28
280
     0
102
RTVSPost2010PropOp28
 70
     1
102
RTVSPost2010Prop29
280
     1
102
RTVSPost2010PropOp29
 70
     1
102
RTVSPost2010Prop30
280
     1
102
RTVSPost2010PropOp30
 70
     1
102
RTVSPost2010Prop31
280
     0
102
RTVSPost2010PropOp31
 70
     1
102
RTVSPost2010Prop32
280
     0
102
RTVSPost2010PropOp32
 70
     1
102
RTVSPost2010Prop33
280
     0
102
RTVSPost2010PropOp33
 70
     1
102
RTVSPost2010Prop34
280
     0
102
RTVSPost2010PropOp34
 70
     1
102
RTVSPost2010Prop35
280
     0
102
RTVSPost2010PropOp35
 70
     1
102
RTVSPost2010Prop36
280
     0
102
RTVSPost2010PropOp36
 70
     1
102
RTVSPost2010Prop37
 90
       50
102
RTVSPost2010PropOp37
 70
     1
102
RTVSPost2010Prop38
140
0.0
102
RTVSPost2010PropOp38
 70
     1
102
RTVSPost2010Prop39
140
1.0
102
RTVSPost2010PropOp39
 70
     1
102
RTVSPost2010Prop40
 90
        0
102
RTVSPost2010PropOp40
 70
     1
102
RTVSPost2010Prop41ColorIndex
 90
       18
102
RTVSPost2010Prop41ColorRGB
 90
        0
102
RTVSPost2010PropOp41
 70
     1
102
RTVSPost2010Prop42
 90
       50
102
RTVSPost2010PropOp42
 70
     1
102
RTVSPost2010Prop43
 90
        3
102
RTVSPost2010PropOp43
 70
     1
102
RTVSPost2010Prop44ColorIndex
 90
        5
102
RTVSPost2010Prop44ColorRGB
 90
      255
102
RTVSPost2010PropOp44
 70
     1
102
RTVSPost2010Prop45
280
     0
102
RTVSPost2010PropOp45
 70
     1
102
RTVSPost2010Prop46
 90
       50
102
RTVSPost2010PropOp46
 70
     1
102
RTVSPost2010Prop47
 90
       50
102
RTVSPost2010PropOp47
 70
     1
102
RTVSPost2010Prop48
 90
       50
102
RTVSPost2010PropOp48
 70
     1
102
RTVSPost2010Prop49
280
     0
102
RTVSPost2010PropOp49
 70
     1
102
RTVSPost2010Prop50
 90
       50
102
RTVSPost2010PropOp50
 70
     1
102
RTVSPost2010Prop51ColorIndex
 90
      256
102
RTVSPost2010Prop51ColorRGB
 90
-16777216
102
RTVSPost2010PropOp51
 70
     0
102
RTVSPost2010Prop52
140
1.0
102
RTVSPost2010PropOp52
 70
     0
102
RTVSPost2010Prop53
 90
        2
102
RTVSPost2010PropOp53
 70
     1
102
RTVSPost2010Prop54
  1
strokes_ogs.tif
102
RTVSPost2010PropOp54
 70
     1
102
RTVSPost2010Prop55
280
     0
102
RTVSPost2010PropOp55
 70
     1
102
RTVSPost2010Prop56
140
1.0
102
RTVSPost2010PropOp56
 70
     1
102
RTVSPost2010Prop57
140
1.0
102
RTVSPost2010PropOp57
 70
     1
102
RTVSPropertyOp0
 70
     1
102
RTVSPropertyOp1
 70
     1
102
RTVSPropertyOp2
 70
     1
102
RTVSPropertyOp3
 70
     1
102
RTVSPropertyOp4
 70
     1
102
RTVSPropertyOp5
 70
     1
102
RTVSPropertyOp6
 70
     1
102
RTVSPropertyOp7
 70
     1
102
RTVSPropertyOp8
 70
     1
102
RTVSPropertyOp9
 70
     1
102
RTVSPropertyOp10
 70
     1
102
RTVSPropertyOp11
 70
     1
102
RTVSPropertyOp12
 70
     1
102
RTVSPropertyOp13
 70
     1
102
RTVSPropertyOp14
 70
     1
102
RTVSPropertyOp15
 70
     1
102
RTVSPropertyOp16
 70
     1
102
RTVSPropertyOp17
 70
     1
102
RTVSPropertyOp18
 70
     1
102
RTVSPropertyOp19
 70
     1
102
RTVSPropertyOp20
 70
     1
102
RTVSPropertyOp21
 70
     1
102
RTVSPropertyOp22
 70
     1
102
RTVSPropertyOp23
 70
     1
102
RTVSPropertyOp24
 70
     1
102
RTVSPropertyOp25
 70
     1
102
RTVSPropertyOp26
 70
     1
102
RTVSPropertyOp27
 70
     1
102
RTVSPropertyOp28
 70
     1
102
RTVSPropertyOp29
 70
     1
102
RTVSPropertyOp30
 70
     1
102
RTVSPropertyOp31
 70
     1
102
RTVSPropertyOp32
 70
     1
102
RTVSPropertyOp33
 70
     1
102
RTVSPropertyOp34
 70
     1
102
RTVSPropertyOp35
 70
     1
102
RTVSPropertyOp36
 70
     1
102
RTVSPropertyOp37
 70
     1
102
RTVSPropertyOp38
 70
     1
102
RTVSPropertyOp39
 70
     1
102
RTVSPropertyOp40
 70
     1
102
RTVSPropertyOp41
 70
     1
102
RTVSPropertyOp42
 70
     1
102
RTVSPropertyOp43
 70
     1
102
RTVSPropertyOp44
 70
     1
102
RTVSPropertyOp45
 70
     1
102
RTVSPropertyOp46
 70
     1
102
RTVSPropertyOp47
 70
     1
102
RTVSPropertyOp48
 70
     1
102
RTVSPropertyOp49
 70
     1
102
RTVSPropertyOp50
 70
     1
102
RTVSPropertyOp51
 70
     0
102
RTVSPropertyOp52
 70
     0
102
RTVSPropertyOp53
 70
     1
102
RTVSPropertyOp54
 70
     1
102
RTVSPropertyOp55
 70
     1
102
RTVSPropertyOp56
 70
     1
102
RTVSPropertyOp57
 70
     1
102
RTVSPropertyOp58
 70
     1
102
RTVSPropertyOp59
 70
     1
102
RTVSPropertyOp60
 70
     1
102
RTVSPropertyOp61
 70
     1
102
RTVSPropertyOp62
 70
     1
  0
XRECORD
  5
15C
102
{ACAD_REACTORS
330
15B
102
}
330
15B
100
AcDbXrecord
280
     1
102
RTVSPost2010Prop28
280
     0
102
RTVSPost2010PropOp28
 70
     1
102
RTVSPost2010Prop29
280
     1
102
RTVSPost2010PropOp29
 70
     1
102
RTVSPost2010Prop30
280
     1
102
RTVSPost2010PropOp30
 70
     1
102
RTVSPost2010Prop31
280
     0
102
RTVSPost2010PropOp31
 70
     1
102
RTVSPost2010Prop32
280
     0
102
RTVSPost2010PropOp32
 70
     1
102
RTVSPost2010Prop33
280
     0
102
RTVSPost2010PropOp33
 70
     1
102
RTVSPost2010Prop34
280
     0
102
RTVSPost2010PropOp34
 70
     1
102
RTVSPost2010Prop35
280
     0
102
RTVSPost2010PropOp35
 70
     1
102
RTVSPost2010Prop36
280
     0
102
RTVSPost2010PropOp36
 70
     1
102
RTVSPost2010Prop37
 90
       50
102
RTVSPost2010PropOp37
 70
     1
102
RTVSPost2010Prop38
140
0.0
102
RTVSPost2010PropOp38
 70
     1
102
RTVSPost2010Prop39
140
1.0
102
RTVSPost2010PropOp39
 70
     1
102
RTVSPost2010Prop40
 90
        0
102
RTVSPost2010PropOp40
 70
     1
102
RTVSPost2010Prop41ColorIndex
 90
       18
102
RTVSPost2010Prop41ColorRGB
 90
        0
102
RTVSPost2010PropOp41
 70
     1
102
RTVSPost2010Prop42
 90
       50
102
RTVSPost2010PropOp42
 70
     1
102
RTVSPost2010Prop43
 90
        3
102
RTVSPost2010PropOp43
 70
     1
102
RTVSPost2010Prop44ColorIndex
 90
        5
102
RTVSPost2010Prop44ColorRGB
 90
      255
102
RTVSPost2010PropOp44
 70
     1
102
RTVSPost2010Prop45
280
     0
102
RTVSPost2010PropOp45
 70
     1
102
RTVSPost2010Prop46
 90
       50
102
RTVSPost2010PropOp46
 70
     1
102
RTVSPost2010Prop47
 90
       50
102
RTVSPost2010PropOp47
 70
     1
102
RTVSPost2010Prop48
 90
       50
102
RTVSPost2010PropOp48
 70
     1
102
RTVSPost2010Prop49
280
     0
102
RTVSPost2010PropOp49
 70
     1
102
RTVSPost2010Prop50
 90
       50
102
RTVSPost2010PropOp50
 70
     1
102
RTVSPost2010Prop51ColorIndex
 90
      256
102
RTVSPost2010Prop51ColorRGB
 90
-16777216
102
RTVSPost2010PropOp51
 70
     0
102
RTVSPost2010Prop52
140
1.0
102
RTVSPost2010PropOp52
 70
     0
102
RTVSPost2010Prop53
 90
        2
102
RTVSPost2010PropOp53
 70
     1
102
RTVSPost2010Prop54
  1
strokes_ogs.tif
102
RTVSPost2010PropOp54
 70
     1
102
RTVSPost2010Prop55
280
     0
102
RTVSPost2010PropOp55
 70
     1
102
RTVSPost2010Prop56
140
1.0
102
RTVSPost2010PropOp56
 70
     1
102
RTVSPost2010Prop57
140
1.0
102
RTVSPost2010PropOp57
 70
     1
102
RTVSPropertyOp0
 70
     1
102
RTVSPropertyOp1
 70
     1
102
RTVSPropertyOp2
 70
     1
102
RTVSPropertyOp3
 70
     1
102
RTVSPropertyOp4
 70
     1
102
RTVSPropertyOp5
 70
     1
102
RTVSPropertyOp6
 70
     1
102
RTVSPropertyOp7
 70
     1
102
RTVSPropertyOp8
 70
     1
102
RTVSPropertyOp9
 70
     1
102
RTVSPropertyOp10
 70
     1
102
RTVSPropertyOp11
 70
     1
102
RTVSPropertyOp12
 70
     1
102
RTVSPropertyOp13
 70
     1
102
RTVSPropertyOp14
 70
     1
102
RTVSPropertyOp15
 70
     1
102
RTVSPropertyOp16
 70
     1
102
RTVSPropertyOp17
 70
     1
102
RTVSPropertyOp18
 70
     1
102
RTVSPropertyOp19
 70
     1
102
RTVSPropertyOp20
 70
     1
102
RTVSPropertyOp21
 70
     1
102
RTVSPropertyOp22
 70
     1
102
RTVSPropertyOp23
 70
     1
102
RTVSPropertyOp24
 70
     1
102
RTVSPropertyOp25
 70
     1
102
RTVSPropertyOp26
 70
     1
102
RTVSPropertyOp27
 70
     1
102
RTVSPropertyOp28
 70
     1
102
RTVSPropertyOp29
 70
     1
102
RTVSPropertyOp30
 70
     1
102
RTVSPropertyOp31
 70
     1
102
RTVSPropertyOp32
 70
     1
102
RTVSPropertyOp33
 70
     1
102
RTVSPropertyOp34
 70
     1
102
RTVSPropertyOp35
 70
     1
102
RTVSPropertyOp36
 70
     1
102
RTVSPropertyOp37
 70
     1
102
RTVSPropertyOp38
 70
     1
102
RTVSPropertyOp39
 70
     1
102
RTVSPropertyOp40
 70
     1
102
RTVSPropertyOp41
 70
     1
102
RTVSPropertyOp42
 70
     1
102
RTVSPropertyOp43
 70
     1
102
RTVSPropertyOp44
 70
     1
102
RTVSPropertyOp45
 70
     1
102
RTVSPropertyOp46
 70
     1
102
RTVSPropertyOp47
 70
     1
102
RTVSPropertyOp48
 70
     1
102
RTVSPropertyOp49
 70
     1
102
RTVSPropertyOp50
 70
     1
102
RTVSPropertyOp51
 70
     0
102
RTVSPropertyOp52
 70
     0
102
RTVSPropertyOp53
 70
     1
102
RTVSPropertyOp54
 70
     1
102
RTVSPropertyOp55
 70
     1
102
RTVSPropertyOp56
 70
     1
102
RTVSPropertyOp57
 70
     1
102
RTVSPropertyOp58
 70
     1
102
RTVSPropertyOp59
 70
     1
102
RTVSPropertyOp60
 70
     1
102
RTVSPropertyOp61
 70
     1
102
RTVSPropertyOp62
 70
     1
  0
XRECORD
  5
15A
102
{ACAD_REACTORS
330
159
102
}
330
159
100
AcDbXrecord
280
     1
102
RTVSPost2010Prop28
280
     0
102
RTVSPost2010PropOp28
 70
     1
102
RTVSPost2010Prop29
280
     1
102
RTVSPost2010PropOp29
 70
     1
102
RTVSPost2010Prop30
280
     1
102
RTVSPost2010PropOp30
 70
     1
102
RTVSPost2010Prop31
280
     0
102
RTVSPost2010PropOp31
 70
     1
102
RTVSPost2010Prop32
280
     0
102
RTVSPost2010PropOp32
 70
     1
102
RTVSPost2010Prop33
280
     0
102
RTVSPost2010PropOp33
 70
     1
102
RTVSPost2010Prop34
280
     0
102
RTVSPost2010PropOp34
 70
     1
102
RTVSPost2010Prop35
280
     0
102
RTVSPost2010PropOp35
 70
     1
102
RTVSPost2010Prop36
280
     0
102
RTVSPost2010PropOp36
 70
     1
102
RTVSPost2010Prop37
 90
       50
102
RTVSPost2010PropOp37
 70
     1
102
RTVSPost2010Prop38
140
0.0
102
RTVSPost2010PropOp38
 70
     1
102
RTVSPost2010Prop39
140
1.0
102
RTVSPost2010PropOp39
 70
     1
102
RTVSPost2010Prop40
 90
        0
102
RTVSPost2010PropOp40
 70
     1
102
RTVSPost2010Prop41ColorIndex
 90
       18
102
RTVSPost2010Prop41ColorRGB
 90
        0
102
RTVSPost2010PropOp41
 70
     1
102
RTVSPost2010Prop42
 90
       50
102
RTVSPost2010PropOp42
 70
     1
102
RTVSPost2010Prop43
 90
        3
102
RTVSPost2010PropOp43
 70
     1
102
RTVSPost2010Prop44ColorIndex
 90
        5
102
RTVSPost2010Prop44ColorRGB
 90
      255
102
RTVSPost2010PropOp44
 70
     1
102
RTVSPost2010Prop45
280
     0
102
RTVSPost2010PropOp45
 70
     1
102
RTVSPost2010Prop46
 90
       50
102
RTVSPost2010PropOp46
 70
     1
102
RTVSPost2010Prop47
 90
       50
102
RTVSPost2010PropOp47
 70
     1
102
RTVSPost2010Prop48
 90
       50
102
RTVSPost2010PropOp48
 70
     1
102
RTVSPost2010Prop49
280
     0
102
RTVSPost2010PropOp49
 70
     1
102
RTVSPost2010Prop50
 90
       50
102
RTVSPost2010PropOp50
 70
     1
102
RTVSPost2010Prop51ColorIndex
 90
      256
102
RTVSPost2010Prop51ColorRGB
 90
-16777216
102
RTVSPost2010PropOp51
 70
     0
102
RTVSPost2010Prop52
140
1.0
102
RTVSPost2010PropOp52
 70
     0
102
RTVSPost2010Prop53
 90
        2
102
RTVSPost2010PropOp53
 70
     1
102
RTVSPost2010Prop54
  1
strokes_ogs.tif
102
RTVSPost2010PropOp54
 70
     1
102
RTVSPost2010Prop55
280
     0
102
RTVSPost2010PropOp55
 70
     1
102
RTVSPost2010Prop56
140
1.0
102
RTVSPost2010PropOp56
 70
     1
102
RTVSPost2010Prop57
140
1.0
102
RTVSPost2010PropOp57
 70
     1
102
RTVSPropertyOp0
 70
     1
102
RTVSPropertyOp1
 70
     1
102
RTVSPropertyOp2
 70
     1
102
RTVSPropertyOp3
 70
     1
102
RTVSPropertyOp4
 70
     1
102
RTVSPropertyOp5
 70
     1
102
RTVSPropertyOp6
 70
     1
102
RTVSPropertyOp7
 70
     1
102
RTVSPropertyOp8
 70
     1
102
RTVSPropertyOp9
 70
     1
102
RTVSPropertyOp10
 70
     1
102
RTVSPropertyOp11
 70
     1
102
RTVSPropertyOp12
 70
     1
102
RTVSPropertyOp13
 70
     1
102
RTVSPropertyOp14
 70
     1
102
RTVSPropertyOp15
 70
     1
102
RTVSPropertyOp16
 70
     1
102
RTVSPropertyOp17
 70
     1
102
RTVSPropertyOp18
 70
     1
102
RTVSPropertyOp19
 70
     1
102
RTVSPropertyOp20
 70
     1
102
RTVSPropertyOp21
 70
     1
102
RTVSPropertyOp22
 70
     1
102
RTVSPropertyOp23
 70
     1
102
RTVSPropertyOp24
 70
     1
102
RTVSPropertyOp25
 70
     1
102
RTVSPropertyOp26
 70
     1
102
RTVSPropertyOp27
 70
     1
102
RTVSPropertyOp28
 70
     1
102
RTVSPropertyOp29
 70
     1
102
RTVSPropertyOp30
 70
     1
102
RTVSPropertyOp31
 70
     1
102
RTVSPropertyOp32
 70
     1
102
RTVSPropertyOp33
 70
     1
102
RTVSPropertyOp34
 70
     1
102
RTVSPropertyOp35
 70
     1
102
RTVSPropertyOp36
 70
     1
102
RTVSPropertyOp37
 70
     1
102
RTVSPropertyOp38
 70
     1
102
RTVSPropertyOp39
 70
     1
102
RTVSPropertyOp40
 70
     1
102
RTVSPropertyOp41
 70
     1
102
RTVSPropertyOp42
 70
     1
102
RTVSPropertyOp43
 70
     1
102
RTVSPropertyOp44
 70
     1
102
RTVSPropertyOp45
 70
     1
102
RTVSPropertyOp46
 70
     1
102
RTVSPropertyOp47
 70
     1
102
RTVSPropertyOp48
 70
     1
102
RTVSPropertyOp49
 70
     1
102
RTVSPropertyOp50
 70
     1
102
RTVSPropertyOp51
 70
     0
102
RTVSPropertyOp52
 70
     0
102
RTVSPropertyOp53
 70
     1
102
RTVSPropertyOp54
 70
     1
102
RTVSPropertyOp55
 70
     1
102
RTVSPropertyOp56
 70
     1
102
RTVSPropertyOp57
 70
     1
102
RTVSPropertyOp58
 70
     1
102
RTVSPropertyOp59
 70
     1
102
RTVSPropertyOp60
 70
     1
102
RTVSPropertyOp61
 70
     1
102
RTVSPropertyOp62
 70
     1
  0
XRECORD
  5
154
102
{ACAD_REACTORS
330
153
102
}
330
153
100
AcDbXrecord
280
     1
102
RTVSPost2010Prop28
280
     0
102
RTVSPost2010PropOp28
 70
     1
102
RTVSPost2010Prop29
280
     1
102
RTVSPost2010PropOp29
 70
     1
102
RTVSPost2010Prop30
280
     1
102
RTVSPost2010PropOp30
 70
     1
102
RTVSPost2010Prop31
280
     0
102
RTVSPost2010PropOp31
 70
     1
102
RTVSPost2010Prop32
280
     0
102
RTVSPost2010PropOp32
 70
     1
102
RTVSPost2010Prop33
280
     0
102
RTVSPost2010PropOp33
 70
     1
102
RTVSPost2010Prop34
280
     0
102
RTVSPost2010PropOp34
 70
     1
102
RTVSPost2010Prop35
280
     0
102
RTVSPost2010PropOp35
 70
     1
102
RTVSPost2010Prop36
280
     0
102
RTVSPost2010PropOp36
 70
     1
102
RTVSPost2010Prop37
 90
       50
102
RTVSPost2010PropOp37
 70
     1
102
RTVSPost2010Prop38
140
0.0
102
RTVSPost2010PropOp38
 70
     1
102
RTVSPost2010Prop39
140
1.0
102
RTVSPost2010PropOp39
 70
     1
102
RTVSPost2010Prop40
 90
        0
102
RTVSPost2010PropOp40
 70
     1
102
RTVSPost2010Prop41ColorIndex
 90
       18
102
RTVSPost2010Prop41ColorRGB
 90
        0
102
RTVSPost2010PropOp41
 70
     1
102
RTVSPost2010Prop42
 90
       50
102
RTVSPost2010PropOp42
 70
     1
102
RTVSPost2010Prop43
 90
        3
102
RTVSPost2010PropOp43
 70
     1
102
RTVSPost2010Prop44ColorIndex
 90
        5
102
RTVSPost2010Prop44ColorRGB
 90
      255
102
RTVSPost2010PropOp44
 70
     1
102
RTVSPost2010Prop45
280
     0
102
RTVSPost2010PropOp45
 70
     1
102
RTVSPost2010Prop46
 90
       50
102
RTVSPost2010PropOp46
 70
     1
102
RTVSPost2010Prop47
 90
       50
102
RTVSPost2010PropOp47
 70
     1
102
RTVSPost2010Prop48
 90
       50
102
RTVSPost2010PropOp48
 70
     1
102
RTVSPost2010Prop49
280
     0
102
RTVSPost2010PropOp49
 70
     1
102
RTVSPost2010Prop50
 90
       50
102
RTVSPost2010PropOp50
 70
     1
102
RTVSPost2010Prop51ColorIndex
 90
      256
102
RTVSPost2010Prop51ColorRGB
 90
-16777216
102
RTVSPost2010PropOp51
 70
     0
102
RTVSPost2010Prop52
140
1.0
102
RTVSPost2010PropOp52
 70
     0
102
RTVSPost2010Prop53
 90
        2
102
RTVSPost2010PropOp53
 70
     1
102
RTVSPost2010Prop54
  1
strokes_ogs.tif
102
RTVSPost2010PropOp54
 70
     1
102
RTVSPost2010Prop55
280
     0
102
RTVSPost2010PropOp55
 70
     1
102
RTVSPost2010Prop56
140
1.0
102
RTVSPost2010PropOp56
 70
     1
102
RTVSPost2010Prop57
140
1.0
102
RTVSPost2010PropOp57
 70
     1
102
RTVSPropertyOp0
 70
     1
102
RTVSPropertyOp1
 70
     1
102
RTVSPropertyOp2
 70
     1
102
RTVSPropertyOp3
 70
     1
102
RTVSPropertyOp4
 70
     1
102
RTVSPropertyOp5
 70
     1
102
RTVSPropertyOp6
 70
     1
102
RTVSPropertyOp7
 70
     1
102
RTVSPropertyOp8
 70
     1
102
RTVSPropertyOp9
 70
     1
102
RTVSPropertyOp10
 70
     1
102
RTVSPropertyOp11
 70
     1
102
RTVSPropertyOp12
 70
     1
102
RTVSPropertyOp13
 70
     1
102
RTVSPropertyOp14
 70
     1
102
RTVSPropertyOp15
 70
     1
102
RTVSPropertyOp16
 70
     1
102
RTVSPropertyOp17
 70
     1
102
RTVSPropertyOp18
 70
     1
102
RTVSPropertyOp19
 70
     1
102
RTVSPropertyOp20
 70
     1
102
RTVSPropertyOp21
 70
     1
102
RTVSPropertyOp22
 70
     1
102
RTVSPropertyOp23
 70
     1
102
RTVSPropertyOp24
 70
     1
102
RTVSPropertyOp25
 70
     1
102
RTVSPropertyOp26
 70
     1
102
RTVSPropertyOp27
 70
     1
102
RTVSPropertyOp28
 70
     1
102
RTVSPropertyOp29
 70
     1
102
RTVSPropertyOp30
 70
     1
102
RTVSPropertyOp31
 70
     1
102
RTVSPropertyOp32
 70
     1
102
RTVSPropertyOp33
 70
     1
102
RTVSPropertyOp34
 70
     1
102
RTVSPropertyOp35
 70
     1
102
RTVSPropertyOp36
 70
     1
102
RTVSPropertyOp37
 70
     1
102
RTVSPropertyOp38
 70
     1
102
RTVSPropertyOp39
 70
     1
102
RTVSPropertyOp40
 70
     1
102
RTVSPropertyOp41
 70
     1
102
RTVSPropertyOp42
 70
     1
102
RTVSPropertyOp43
 70
     1
102
RTVSPropertyOp44
 70
     1
102
RTVSPropertyOp45
 70
     1
102
RTVSPropertyOp46
 70
     1
102
RTVSPropertyOp47
 70
     1
102
RTVSPropertyOp48
 70
     1
102
RTVSPropertyOp49
 70
     1
102
RTVSPropertyOp50
 70
     1
102
RTVSPropertyOp51
 70
     0
102
RTVSPropertyOp52
 70
     0
102
RTVSPropertyOp53
 70
     1
102
RTVSPropertyOp54
 70
     1
102
RTVSPropertyOp55
 70
     1
102
RTVSPropertyOp56
 70
     1
102
RTVSPropertyOp57
 70
     1
102
RTVSPropertyOp58
 70
     1
102
RTVSPropertyOp59
 70
     1
102
RTVSPropertyOp60
 70
     1
102
RTVSPropertyOp61
 70
     1
102
RTVSPropertyOp62
 70
     1
  0
XRECORD
  5
156
102
{ACAD_REACTORS
330
155
102
}
330
155
100
AcDbXrecord
280
     1
102
RTVSPost2010Prop28
280
     0
102
RTVSPost2010PropOp28
 70
     1
102
RTVSPost2010Prop29
280
     1
102
RTVSPost2010PropOp29
 70
     1
102
RTVSPost2010Prop30
280
     1
102
RTVSPost2010PropOp30
 70
     1
102
RTVSPost2010Prop31
280
     0
102
RTVSPost2010PropOp31
 70
     1
102
RTVSPost2010Prop32
280
     0
102
RTVSPost2010PropOp32
 70
     1
102
RTVSPost2010Prop33
280
     0
102
RTVSPost2010PropOp33
 70
     1
102
RTVSPost2010Prop34
280
     0
102
RTVSPost2010PropOp34
 70
     1
102
RTVSPost2010Prop35
280
     0
102
RTVSPost2010PropOp35
 70
     1
102
RTVSPost2010Prop36
280
     0
102
RTVSPost2010PropOp36
 70
     1
102
RTVSPost2010Prop37
 90
       50
102
RTVSPost2010PropOp37
 70
     1
102
RTVSPost2010Prop38
140
0.0
102
RTVSPost2010PropOp38
 70
     1
102
RTVSPost2010Prop39
140
1.0
102
RTVSPost2010PropOp39
 70
     1
102
RTVSPost2010Prop40
 90
        0
102
RTVSPost2010PropOp40
 70
     1
102
RTVSPost2010Prop41ColorIndex
 90
       18
102
RTVSPost2010Prop41ColorRGB
 90
        0
102
RTVSPost2010PropOp41
 70
     1
102
RTVSPost2010Prop42
 90
       50
102
RTVSPost2010PropOp42
 70
     1
102
RTVSPost2010Prop43
 90
        3
102
RTVSPost2010PropOp43
 70
     1
102
RTVSPost2010Prop44ColorIndex
 90
        5
102
RTVSPost2010Prop44ColorRGB
 90
      255
102
RTVSPost2010PropOp44
 70
     1
102
RTVSPost2010Prop45
280
     0
102
RTVSPost2010PropOp45
 70
     1
102
RTVSPost2010Prop46
 90
       50
102
RTVSPost2010PropOp46
 70
     1
102
RTVSPost2010Prop47
 90
       50
102
RTVSPost2010PropOp47
 70
     1
102
RTVSPost2010Prop48
 90
       50
102
RTVSPost2010PropOp48
 70
     1
102
RTVSPost2010Prop49
280
     0
102
RTVSPost2010PropOp49
 70
     1
102
RTVSPost2010Prop50
 90
       50
102
RTVSPost2010PropOp50
 70
     1
102
RTVSPost2010Prop51ColorIndex
 90
      256
102
RTVSPost2010Prop51ColorRGB
 90
-16777216
102
RTVSPost2010PropOp51
 70
     0
102
RTVSPost2010Prop52
140
1.0
102
RTVSPost2010PropOp52
 70
     0
102
RTVSPost2010Prop53
 90
        2
102
RTVSPost2010PropOp53
 70
     1
102
RTVSPost2010Prop54
  1
strokes_ogs.tif
102
RTVSPost2010PropOp54
 70
     1
102
RTVSPost2010Prop55
280
     0
102
RTVSPost2010PropOp55
 70
     1
102
RTVSPost2010Prop56
140
1.0
102
RTVSPost2010PropOp56
 70
     1
102
RTVSPost2010Prop57
140
1.0
102
RTVSPost2010PropOp57
 70
     1
102
RTVSPropertyOp0
 70
     1
102
RTVSPropertyOp1
 70
     1
102
RTVSPropertyOp2
 70
     1
102
RTVSPropertyOp3
 70
     1
102
RTVSPropertyOp4
 70
     1
102
RTVSPropertyOp5
 70
     1
102
RTVSPropertyOp6
 70
     1
102
RTVSPropertyOp7
 70
     1
102
RTVSPropertyOp8
 70
     1
102
RTVSPropertyOp9
 70
     1
102
RTVSPropertyOp10
 70
     1
102
RTVSPropertyOp11
 70
     1
102
RTVSPropertyOp12
 70
     1
102
RTVSPropertyOp13
 70
     1
102
RTVSPropertyOp14
 70
     1
102
RTVSPropertyOp15
 70
     1
102
RTVSPropertyOp16
 70
     1
102
RTVSPropertyOp17
 70
     1
102
RTVSPropertyOp18
 70
     1
102
RTVSPropertyOp19
 70
     1
102
RTVSPropertyOp20
 70
     1
102
RTVSPropertyOp21
 70
     1
102
RTVSPropertyOp22
 70
     1
102
RTVSPropertyOp23
 70
     1
102
RTVSPropertyOp24
 70
     1
102
RTVSPropertyOp25
 70
     1
102
RTVSPropertyOp26
 70
     1
102
RTVSPropertyOp27
 70
     1
102
RTVSPropertyOp28
 70
     1
102
RTVSPropertyOp29
 70
     1
102
RTVSPropertyOp30
 70
     1
102
RTVSPropertyOp31
 70
     1
102
RTVSPropertyOp32
 70
     1
102
RTVSPropertyOp33
 70
     1
102
RTVSPropertyOp34
 70
     1
102
RTVSPropertyOp35
 70
     1
102
RTVSPropertyOp36
 70
     1
102
RTVSPropertyOp37
 70
     1
102
RTVSPropertyOp38
 70
     1
102
RTVSPropertyOp39
 70
     1
102
RTVSPropertyOp40
 70
     1
102
RTVSPropertyOp41
 70
     1
102
RTVSPropertyOp42
 70
     1
102
RTVSPropertyOp43
 70
     1
102
RTVSPropertyOp44
 70
     1
102
RTVSPropertyOp45
 70
     1
102
RTVSPropertyOp46
 70
     1
102
RTVSPropertyOp47
 70
     1
102
RTVSPropertyOp48
 70
     1
102
RTVSPropertyOp49
 70
     1
102
RTVSPropertyOp50
 70
     1
102
RTVSPropertyOp51
 70
     0
102
RTVSPropertyOp52
 70
     0
102
RTVSPropertyOp53
 70
     1
102
RTVSPropertyOp54
 70
     1
102
RTVSPropertyOp55
 70
     1
102
RTVSPropertyOp56
 70
     1
102
RTVSPropertyOp57
 70
     1
102
RTVSPropertyOp58
 70
     1
102
RTVSPropertyOp59
 70
     1
102
RTVSPropertyOp60
 70
     1
102
RTVSPropertyOp61
 70
     1
102
RTVSPropertyOp62
 70
     1
  0
XRECORD
  5
14C
102
{ACAD_REACTORS
330
14B
102
}
330
14B
100
AcDbXrecord
280
     1
102
RTVSPost2010Prop28
280
     0
102
RTVSPost2010PropOp28
 70
     1
102
RTVSPost2010Prop29
280
     1
102
RTVSPost2010PropOp29
 70
     1
102
RTVSPost2010Prop30
280
     1
102
RTVSPost2010PropOp30
 70
     1
102
RTVSPost2010Prop31
280
     0
102
RTVSPost2010PropOp31
 70
     1
102
RTVSPost2010Prop32
280
     0
102
RTVSPost2010PropOp32
 70
     1
102
RTVSPost2010Prop33
280
     0
102
RTVSPost2010PropOp33
 70
     1
102
RTVSPost2010Prop34
280
     0
102
RTVSPost2010PropOp34
 70
     1
102
RTVSPost2010Prop35
280
     0
102
RTVSPost2010PropOp35
 70
     1
102
RTVSPost2010Prop36
280
     0
102
RTVSPost2010PropOp36
 70
     1
102
RTVSPost2010Prop37
 90
       50
102
RTVSPost2010PropOp37
 70
     1
102
RTVSPost2010Prop38
140
0.0
102
RTVSPost2010PropOp38
 70
     1
102
RTVSPost2010Prop39
140
1.0
102
RTVSPost2010PropOp39
 70
     1
102
RTVSPost2010Prop40
 90
        0
102
RTVSPost2010PropOp40
 70
     1
102
RTVSPost2010Prop41ColorIndex
 90
       18
102
RTVSPost2010Prop41ColorRGB
 90
        0
102
RTVSPost2010PropOp41
 70
     1
102
RTVSPost2010Prop42
 90
       50
102
RTVSPost2010PropOp42
 70
     1
102
RTVSPost2010Prop43
 90
        3
102
RTVSPost2010PropOp43
 70
     1
102
RTVSPost2010Prop44ColorIndex
 90
        5
102
RTVSPost2010Prop44ColorRGB
 90
      255
102
RTVSPost2010PropOp44
 70
     1
102
RTVSPost2010Prop45
280
     0
102
RTVSPost2010PropOp45
 70
     1
102
RTVSPost2010Prop46
 90
       50
102
RTVSPost2010PropOp46
 70
     1
102
RTVSPost2010Prop47
 90
       50
102
RTVSPost2010PropOp47
 70
     1
102
RTVSPost2010Prop48
 90
       50
102
RTVSPost2010PropOp48
 70
     1
102
RTVSPost2010Prop49
280
     0
102
RTVSPost2010PropOp49
 70
     1
102
RTVSPost2010Prop50
 90
       50
102
RTVSPost2010PropOp50
 70
     1
102
RTVSPost2010Prop51ColorIndex
 90
      256
102
RTVSPost2010Prop51ColorRGB
 90
-16777216
102
RTVSPost2010PropOp51
 70
     0
102
RTVSPost2010Prop52
140
1.0
102
RTVSPost2010PropOp52
 70
     0
102
RTVSPost2010Prop53
 90
        2
102
RTVSPost2010PropOp53
 70
     1
102
RTVSPost2010Prop54
  1
strokes_ogs.tif
102
RTVSPost2010PropOp54
 70
     1
102
RTVSPost2010Prop55
280
     0
102
RTVSPost2010PropOp55
 70
     1
102
RTVSPost2010Prop56
140
1.0
102
RTVSPost2010PropOp56
 70
     1
102
RTVSPost2010Prop57
140
1.0
102
RTVSPost2010PropOp57
 70
     1
102
RTVSPropertyOp0
 70
     1
102
RTVSPropertyOp1
 70
     1
102
RTVSPropertyOp2
 70
     1
102
RTVSPropertyOp3
 70
     1
102
RTVSPropertyOp4
 70
     1
102
RTVSPropertyOp5
 70
     1
102
RTVSPropertyOp6
 70
     1
102
RTVSPropertyOp7
 70
     1
102
RTVSPropertyOp8
 70
     1
102
RTVSPropertyOp9
 70
     1
102
RTVSPropertyOp10
 70
     1
102
RTVSPropertyOp11
 70
     1
102
RTVSPropertyOp12
 70
     1
102
RTVSPropertyOp13
 70
     1
102
RTVSPropertyOp14
 70
     1
102
RTVSPropertyOp15
 70
     1
102
RTVSPropertyOp16
 70
     1
102
RTVSPropertyOp17
 70
     1
102
RTVSPropertyOp18
 70
     1
102
RTVSPropertyOp19
 70
     1
102
RTVSPropertyOp20
 70
     1
102
RTVSPropertyOp21
 70
     1
102
RTVSPropertyOp22
 70
     1
102
RTVSPropertyOp23
 70
     1
102
RTVSPropertyOp24
 70
     1
102
RTVSPropertyOp25
 70
     1
102
RTVSPropertyOp26
 70
     1
102
RTVSPropertyOp27
 70
     1
102
RTVSPropertyOp28
 70
     1
102
RTVSPropertyOp29
 70
     1
102
RTVSPropertyOp30
 70
     1
102
RTVSPropertyOp31
 70
     1
102
RTVSPropertyOp32
 70
     1
102
RTVSPropertyOp33
 70
     1
102
RTVSPropertyOp34
 70
     1
102
RTVSPropertyOp35
 70
     1
102
RTVSPropertyOp36
 70
     1
102
RTVSPropertyOp37
 70
     1
102
RTVSPropertyOp38
 70
     1
102
RTVSPropertyOp39
 70
     1
102
RTVSPropertyOp40
 70
     1
102
RTVSPropertyOp41
 70
     1
102
RTVSPropertyOp42
 70
     1
102
RTVSPropertyOp43
 70
     1
102
RTVSPropertyOp44
 70
     1
102
RTVSPropertyOp45
 70
     1
102
RTVSPropertyOp46
 70
     1
102
RTVSPropertyOp47
 70
     1
102
RTVSPropertyOp48
 70
     1
102
RTVSPropertyOp49
 70
     1
102
RTVSPropertyOp50
 70
     1
102
RTVSPropertyOp51
 70
     0
102
RTVSPropertyOp52
 70
     0
102
RTVSPropertyOp53
 70
     1
102
RTVSPropertyOp54
 70
     1
102
RTVSPropertyOp55
 70
     1
102
RTVSPropertyOp56
 70
     1
102
RTVSPropertyOp57
 70
     1
102
RTVSPropertyOp58
 70
     1
102
RTVSPropertyOp59
 70
     1
102
RTVSPropertyOp60
 70
     1
102
RTVSPropertyOp61
 70
     1
102
RTVSPropertyOp62
 70
     1
  0
XRECORD
  5
140
102
{ACAD_REACTORS
330
13F
102
}
330
13F
100
AcDbXrecord
280
     1
102
RTVSPost2010Prop28
280
     0
102
RTVSPost2010PropOp28
 70
     1
102
RTVSPost2010Prop29
280
     1
102
RTVSPost2010PropOp29
 70
     1
102
RTVSPost2010Prop30
280
     1
102
RTVSPost2010PropOp30
 70
     1
102
RTVSPost2010Prop31
280
     0
102
RTVSPost2010PropOp31
 70
     1
102
RTVSPost2010Prop32
280
     0
102
RTVSPost2010PropOp32
 70
     1
102
RTVSPost2010Prop33
280
     0
102
RTVSPost2010PropOp33
 70
     1
102
RTVSPost2010Prop34
280
     0
102
RTVSPost2010PropOp34
 70
     1
102
RTVSPost2010Prop35
280
     0
102
RTVSPost2010PropOp35
 70
     1
102
RTVSPost2010Prop36
280
     0
102
RTVSPost2010PropOp36
 70
     1
102
RTVSPost2010Prop37
 90
       50
102
RTVSPost2010PropOp37
 70
     1
102
RTVSPost2010Prop38
140
0.0
102
RTVSPost2010PropOp38
 70
     1
102
RTVSPost2010Prop39
140
1.0
102
RTVSPost2010PropOp39
 70
     1
102
RTVSPost2010Prop40
 90
        0
102
RTVSPost2010PropOp40
 70
     1
102
RTVSPost2010Prop41ColorIndex
 90
       18
102
RTVSPost2010Prop41ColorRGB
 90
        0
102
RTVSPost2010PropOp41
 70
     1
102
RTVSPost2010Prop42
 90
       50
102
RTVSPost2010PropOp42
 70
     1
102
RTVSPost2010Prop43
 90
        3
102
RTVSPost2010PropOp43
 70
     1
102
RTVSPost2010Prop44ColorIndex
 90
        5
102
RTVSPost2010Prop44ColorRGB
 90
      255
102
RTVSPost2010PropOp44
 70
     1
102
RTVSPost2010Prop45
280
     0
102
RTVSPost2010PropOp45
 70
     1
102
RTVSPost2010Prop46
 90
       50
102
RTVSPost2010PropOp46
 70
     1
102
RTVSPost2010Prop47
 90
       50
102
RTVSPost2010PropOp47
 70
     1
102
RTVSPost2010Prop48
 90
       50
102
RTVSPost2010PropOp48
 70
     1
102
RTVSPost2010Prop49
280
     0
102
RTVSPost2010PropOp49
 70
     1
102
RTVSPost2010Prop50
 90
       50
102
RTVSPost2010PropOp50
 70
     1
102
RTVSPost2010Prop51ColorIndex
 90
      256
102
RTVSPost2010Prop51ColorRGB
 90
-16777216
102
RTVSPost2010PropOp51
 70
     0
102
RTVSPost2010Prop52
140
1.0
102
RTVSPost2010PropOp52
 70
     0
102
RTVSPost2010Prop53
 90
        2
102
RTVSPost2010PropOp53
 70
     1
102
RTVSPost2010Prop54
  1
strokes_ogs.tif
102
RTVSPost2010PropOp54
 70
     1
102
RTVSPost2010Prop55
280
     0
102
RTVSPost2010PropOp55
 70
     1
102
RTVSPost2010Prop56
140
1.0
102
RTVSPost2010PropOp56
 70
     1
102
RTVSPost2010Prop57
140
1.0
102
RTVSPost2010PropOp57
 70
     1
102
RTVSPropertyOp0
 70
     1
102
RTVSPropertyOp1
 70
     1
102
RTVSPropertyOp2
 70
     1
102
RTVSPropertyOp3
 70
     1
102
RTVSPropertyOp4
 70
     1
102
RTVSPropertyOp5
 70
     1
102
RTVSPropertyOp6
 70
     1
102
RTVSPropertyOp7
 70
     1
102
RTVSPropertyOp8
 70
     1
102
RTVSPropertyOp9
 70
     1
102
RTVSPropertyOp10
 70
     1
102
RTVSPropertyOp11
 70
     1
102
RTVSPropertyOp12
 70
     1
102
RTVSPropertyOp13
 70
     1
102
RTVSPropertyOp14
 70
     1
102
RTVSPropertyOp15
 70
     1
102
RTVSPropertyOp16
 70
     1
102
RTVSPropertyOp17
 70
     1
102
RTVSPropertyOp18
 70
     1
102
RTVSPropertyOp19
 70
     1
102
RTVSPropertyOp20
 70
     1
102
RTVSPropertyOp21
 70
     1
102
RTVSPropertyOp22
 70
     1
102
RTVSPropertyOp23
 70
     1
102
RTVSPropertyOp24
 70
     1
102
RTVSPropertyOp25
 70
     1
102
RTVSPropertyOp26
 70
     1
102
RTVSPropertyOp27
 70
     1
102
RTVSPropertyOp28
 70
     1
102
RTVSPropertyOp29
 70
     1
102
RTVSPropertyOp30
 70
     1
102
RTVSPropertyOp31
 70
     1
102
RTVSPropertyOp32
 70
     1
102
RTVSPropertyOp33
 70
     1
102
RTVSPropertyOp34
 70
     1
102
RTVSPropertyOp35
 70
     1
102
RTVSPropertyOp36
 70
     1
102
RTVSPropertyOp37
 70
     1
102
RTVSPropertyOp38
 70
     1
102
RTVSPropertyOp39
 70
     1
102
RTVSPropertyOp40
 70
     1
102
RTVSPropertyOp41
 70
     1
102
RTVSPropertyOp42
 70
     1
102
RTVSPropertyOp43
 70
     1
102
RTVSPropertyOp44
 70
     1
102
RTVSPropertyOp45
 70
     1
102
RTVSPropertyOp46
 70
     1
102
RTVSPropertyOp47
 70
     1
102
RTVSPropertyOp48
 70
     1
102
RTVSPropertyOp49
 70
     1
102
RTVSPropertyOp50
 70
     1
102
RTVSPropertyOp51
 70
     0
102
RTVSPropertyOp52
 70
     0
102
RTVSPropertyOp53
 70
     1
102
RTVSPropertyOp54
 70
     1
102
RTVSPropertyOp55
 70
     1
102
RTVSPropertyOp56
 70
     1
102
RTVSPropertyOp57
 70
     1
102
RTVSPropertyOp58
 70
     1
102
RTVSPropertyOp59
 70
     1
102
RTVSPropertyOp60
 70
     1
102
RTVSPropertyOp61
 70
     1
102
RTVSPropertyOp62
 70
     1
  0
XRECORD
  5
158
102
{ACAD_REACTORS
330
157
102
}
330
157
100
AcDbXrecord
280
     1
102
RTVSPost2010Prop28
280
     0
102
RTVSPost2010PropOp28
 70
     1
102
RTVSPost2010Prop29
280
     1
102
RTVSPost2010PropOp29
 70
     1
102
RTVSPost2010Prop30
280
     1
102
RTVSPost2010PropOp30
 70
     1
102
RTVSPost2010Prop31
280
     0
102
RTVSPost2010PropOp31
 70
     1
102
RTVSPost2010Prop32
280
     0
102
RTVSPost2010PropOp32
 70
     1
102
RTVSPost2010Prop33
280
     0
102
RTVSPost2010PropOp33
 70
     1
102
RTVSPost2010Prop34
280
     0
102
RTVSPost2010PropOp34
 70
     1
102
RTVSPost2010Prop35
280
     0
102
RTVSPost2010PropOp35
 70
     1
102
RTVSPost2010Prop36
280
     0
102
RTVSPost2010PropOp36
 70
     1
102
RTVSPost2010Prop37
 90
       50
102
RTVSPost2010PropOp37
 70
     1
102
RTVSPost2010Prop38
140
0.0
102
RTVSPost2010PropOp38
 70
     1
102
RTVSPost2010Prop39
140
1.0
102
RTVSPost2010PropOp39
 70
     1
102
RTVSPost2010Prop40
 90
        0
102
RTVSPost2010PropOp40
 70
     1
102
RTVSPost2010Prop41ColorIndex
 90
       18
102
RTVSPost2010Prop41ColorRGB
 90
        0
102
RTVSPost2010PropOp41
 70
     1
102
RTVSPost2010Prop42
 90
       50
102
RTVSPost2010PropOp42
 70
     1
102
RTVSPost2010Prop43
 90
        3
102
RTVSPost2010PropOp43
 70
     1
102
RTVSPost2010Prop44ColorIndex
 90
        5
102
RTVSPost2010Prop44ColorRGB
 90
      255
102
RTVSPost2010PropOp44
 70
     1
102
RTVSPost2010Prop45
280
     0
102
RTVSPost2010PropOp45
 70
     1
102
RTVSPost2010Prop46
 90
       50
102
RTVSPost2010PropOp46
 70
     1
102
RTVSPost2010Prop47
 90
       50
102
RTVSPost2010PropOp47
 70
     1
102
RTVSPost2010Prop48
 90
       50
102
RTVSPost2010PropOp48
 70
     1
102
RTVSPost2010Prop49
280
     0
102
RTVSPost2010PropOp49
 70
     1
102
RTVSPost2010Prop50
 90
       50
102
RTVSPost2010PropOp50
 70
     1
102
RTVSPost2010Prop51ColorIndex
 90
      256
102
RTVSPost2010Prop51ColorRGB
 90
-16777216
102
RTVSPost2010PropOp51
 70
     0
102
RTVSPost2010Prop52
140
1.0
102
RTVSPost2010PropOp52
 70
     0
102
RTVSPost2010Prop53
 90
        2
102
RTVSPost2010PropOp53
 70
     1
102
RTVSPost2010Prop54
  1
strokes_ogs.tif
102
RTVSPost2010PropOp54
 70
     1
102
RTVSPost2010Prop55
280
     0
102
RTVSPost2010PropOp55
 70
     1
102
RTVSPost2010Prop56
140
1.0
102
RTVSPost2010PropOp56
 70
     1
102
RTVSPost2010Prop57
140
1.0
102
RTVSPost2010PropOp57
 70
     1
102
RTVSPropertyOp0
 70
     1
102
RTVSPropertyOp1
 70
     1
102
RTVSPropertyOp2
 70
     1
102
RTVSPropertyOp3
 70
     1
102
RTVSPropertyOp4
 70
     1
102
RTVSPropertyOp5
 70
     1
102
RTVSPropertyOp6
 70
     1
102
RTVSPropertyOp7
 70
     1
102
RTVSPropertyOp8
 70
     1
102
RTVSPropertyOp9
 70
     1
102
RTVSPropertyOp10
 70
     1
102
RTVSPropertyOp11
 70
     1
102
RTVSPropertyOp12
 70
     1
102
RTVSPropertyOp13
 70
     1
102
RTVSPropertyOp14
 70
     1
102
RTVSPropertyOp15
 70
     1
102
RTVSPropertyOp16
 70
     1
102
RTVSPropertyOp17
 70
     1
102
RTVSPropertyOp18
 70
     1
102
RTVSPropertyOp19
 70
     1
102
RTVSPropertyOp20
 70
     1
102
RTVSPropertyOp21
 70
     1
102
RTVSPropertyOp22
 70
     1
102
RTVSPropertyOp23
 70
     1
102
RTVSPropertyOp24
 70
     1
102
RTVSPropertyOp25
 70
     1
102
RTVSPropertyOp26
 70
     1
102
RTVSPropertyOp27
 70
     1
102
RTVSPropertyOp28
 70
     1
102
RTVSPropertyOp29
 70
     1
102
RTVSPropertyOp30
 70
     1
102
RTVSPropertyOp31
 70
     1
102
RTVSPropertyOp32
 70
     1
102
RTVSPropertyOp33
 70
     1
102
RTVSPropertyOp34
 70
     1
102
RTVSPropertyOp35
 70
     1
102
RTVSPropertyOp36
 70
     1
102
RTVSPropertyOp37
 70
     1
102
RTVSPropertyOp38
 70
     1
102
RTVSPropertyOp39
 70
     1
102
RTVSPropertyOp40
 70
     1
102
RTVSPropertyOp41
 70
     1
102
RTVSPropertyOp42
 70
     1
102
RTVSPropertyOp43
 70
     1
102
RTVSPropertyOp44
 70
     1
102
RTVSPropertyOp45
 70
     1
102
RTVSPropertyOp46
 70
     1
102
RTVSPropertyOp47
 70
     1
102
RTVSPropertyOp48
 70
     1
102
RTVSPropertyOp49
 70
     1
102
RTVSPropertyOp50
 70
     1
102
RTVSPropertyOp51
 70
     0
102
RTVSPropertyOp52
 70
     0
102
RTVSPropertyOp53
 70
     1
102
RTVSPropertyOp54
 70
     1
102
RTVSPropertyOp55
 70
     1
102
RTVSPropertyOp56
 70
     1
102
RTVSPropertyOp57
 70
     1
102
RTVSPropertyOp58
 70
     1
102
RTVSPropertyOp59
 70
     1
102
RTVSPropertyOp60
 70
     1
102
RTVSPropertyOp61
 70
     1
102
RTVSPropertyOp62
 70
     1
  0
ENDSEC
  0
EOF
