  0
SECTION
  2
HEADER
  9
$ACADVER
  1
AC1024
  9
$ACADMAINTVER
 70
   226
  9
$DWGCODEPAGE
  3
ANSI_1252
  9
$LASTSAVEDBY
  1
ufficio.tecnico
  9
$INSBASE
 10
0.0
 20
0.0
 30
0.0
  9
$EXTMIN
 10
0.5781910471716683
 20
-6.656791513048402
 30
0.0
  9
$EXTMAX
 10
11.02487172530723
 20
-1.181901317332793
 30
0.0
  9
$LIMMIN
 10
0.0
 20
0.0
  9
$LIMMAX
 10
12.0
 20
9.0
  9
$ORTHOMODE
 70
     0
  9
$REGENMODE
 70
     1
  9
$FILLMODE
 70
     1
  9
$QTEXTMODE
 70
     0
  9
$MIRRTEXT
 70
     0
  9
$LTSCALE
 40
1.0
  9
$ATTMODE
 70
     1
  9
$TEXTSIZE
 40
0.2
  9
$TRACEWID
 40
0.05
  9
$TEXTSTYLE
  7
Standard
  9
$CLAYER
  8
0
  9
$CELTYPE
  6
ByLayer
  9
$CECOLOR
 62
   256
  9
$CELTSCALE
 40
1.0
  9
$DISPSILH
 70
     0
  9
$DIMSCALE
 40
1.0
  9
$DIMASZ
 40
0.18
  9
$DIMEXO
 40
0.0625
  9
$DIMDLI
 40
0.38
  9
$DIMRND
 40
0.0
  9
$DIMDLE
 40
0.0
  9
$DIMEXE
 40
0.18
  9
$DIMTP
 40
0.0
  9
$DIMTM
 40
0.0
  9
$DIMTXT
 40
0.18
  9
$DIMCEN
 40
0.09
  9
$DIMTSZ
 40
0.0
  9
$DIMTOL
 70
     0
  9
$DIMLIM
 70
     0
  9
$DIMTIH
 70
     1
  9
$DIMTOH
 70
     1
  9
$DIMSE1
 70
     0
  9
$DIMSE2
 70
     0
  9
$DIMTAD
 70
     0
  9
$DIMZIN
 70
     0
  9
$DIMBLK
  1

  9
$DIMASO
 70
     1
  9
$DIMSHO
 70
     1
  9
$DIMPOST
  1

  9
$DIMAPOST
  1

  9
$DIMALT
 70
     0
  9
$DIMALTD
 70
     2
  9
$DIMALTF
 40
25.4
  9
$DIMLFAC
 40
1.0
  9
$DIMTOFL
 70
     0
  9
$DIMTVP
 40
0.0
  9
$DIMTIX
 70
     0
  9
$DIMSOXD
 70
     0
  9
$DIMSAH
 70
     0
  9
$DIMBLK1
  1

  9
$DIMBLK2
  1

  9
$DIMSTYLE
  2
Standard
  9
$DIMCLRD
 70
     0
  9
$DIMCLRE
 70
     0
  9
$DIMCLRT
 70
     0
  9
$DIMTFAC
 40
1.0
  9
$DIMGAP
 40
0.09
  9
$DIMJUST
 70
     0
  9
$DIMSD1
 70
     0
  9
$DIMSD2
 70
     0
  9
$DIMTOLJ
 70
     1
  9
$DIMTZIN
 70
     0
  9
$DIMALTZ
 70
     0
  9
$DIMALTTZ
 70
     0
  9
$DIMUPT
 70
     0
  9
$DIMDEC
 70
     4
  9
$DIMTDEC
 70
     4
  9
$DIMALTU
 70
     2
  9
$DIMALTTD
 70
     2
  9
$DIMTXSTY
  7
Standard
  9
$DIMAUNIT
 70
     0
  9
$DIMADEC
 70
     0
  9
$DIMALTRND
 40
0.0
  9
$DIMAZIN
 70
     0
  9
$DIMDSEP
 70
    46
  9
$DIMATFIT
 70
     3
  9
$DIMFRAC
 70
     0
  9
$DIMLDRBLK
  1

  9
$DIMLUNIT
 70
     2
  9
$DIMLWD
 70
    -2
  9
$DIMLWE
 70
    -2
  9
$DIMTMOVE
 70
     0
  9
$DIMFXL
 40
1.0
  9
$DIMFXLON
 70
     0
  9
$DIMJOGANG
 40
0.7853981633974483
  9
$DIMTFILL
 70
     0
  9
$DIMTFILLCLR
 70
     0
  9
$DIMARCSYM
 70
     0
  9
$DIMLTYPE
  6

  9
$DIMLTEX1
  6

  9
$DIMLTEX2
  6

  9
$DIMTXTDIRECTION
 70
     0
  9
$LUNITS
 70
     2
  9
$LUPREC
 70
     4
  9
$SKETCHINC
 40
0.1
  9
$FILLETRAD
 40
0.0
  9
$AUNITS
 70
     0
  9
$AUPREC
 70
     0
  9
$MENU
  1
.
  9
$ELEVATION
 40
0.0
  9
$PELEVATION
 40
0.0
  9
$THICKNESS
 40
0.0
  9
$LIMCHECK
 70
     0
  9
$CHAMFERA
 40
0.0
  9
$CHAMFERB
 40
0.0
  9
$CHAMFERC
 40
0.0
  9
$CHAMFERD
 40
0.0
  9
$SKPOLY
 70
     0
  9
$TDCREATE
 40
2459424.362569444
  9
$TDUCREATE
 40
2459424.279236111
  9
$TDUPDATE
 40
2459444.459062500
  9
$TDUUPDATE
 40
2459444.375729166
  9
$TDINDWG
 40
0.0050231481
  9
$TDUSRTIMER
 40
0.0050231481
  9
$USRTIMER
 70
     1
  9
$ANGBASE
 50
0.0
  9
$ANGDIR
 70
     0
  9
$PDMODE
 70
     0
  9
$PDSIZE
 40
0.0
  9
$PLINEWID
 40
0.0
  9
$SPLFRAME
 70
     0
  9
$SPLINETYPE
 70
     6
  9
$SPLINESEGS
 70
     8
  9
$HANDSEED
  5
2B8
  9
$SURFTAB1
 70
     6
  9
$SURFTAB2
 70
     6
  9
$SURFTYPE
 70
     6
  9
$SURFU
 70
     6
  9
$SURFV
 70
     6
  9
$UCSBASE
  2

  9
$UCSNAME
  2

  9
$UCSORG
 10
0.0
 20
0.0
 30
0.0
  9
$UCSXDIR
 10
1.0
 20
0.0
 30
0.0
  9
$UCSYDIR
 10
0.0
 20
1.0
 30
0.0
  9
$UCSORTHOREF
  2

  9
$UCSORTHOVIEW
 70
     0
  9
$UCSORGTOP
 10
0.0
 20
0.0
 30
0.0
  9
$UCSORGBOTTOM
 10
0.0
 20
0.0
 30
0.0
  9
$UCSORGLEFT
 10
0.0
 20
0.0
 30
0.0
  9
$UCSORGRIGHT
 10
0.0
 20
0.0
 30
0.0
  9
$UCSORGFRONT
 10
0.0
 20
0.0
 30
0.0
  9
$UCSORGBACK
 10
0.0
 20
0.0
 30
0.0
  9
$PUCSBASE
  2

  9
$PUCSNAME
  2

  9
$PUCSORG
 10
0.0
 20
0.0
 30
0.0
  9
$PUCSXDIR
 10
1.0
 20
0.0
 30
0.0
  9
$PUCSYDIR
 10
0.0
 20
1.0
 30
0.0
  9
$PUCSORTHOREF
  2

  9
$PUCSORTHOVIEW
 70
     0
  9
$PUCSORGTOP
 10
0.0
 20
0.0
 30
0.0
  9
$PUCSORGBOTTOM
 10
0.0
 20
0.0
 30
0.0
  9
$PUCSORGLEFT
 10
0.0
 20
0.0
 30
0.0
  9
$PUCSORGRIGHT
 10
0.0
 20
0.0
 30
0.0
  9
$PUCSORGFRONT
 10
0.0
 20
0.0
 30
0.0
  9
$PUCSORGBACK
 10
0.0
 20
0.0
 30
0.0
  9
$USERI1
 70
     0
  9
$USERI2
 70
     0
  9
$USERI3
 70
     0
  9
$USERI4
 70
     0
  9
$USERI5
 70
     0
  9
$USERR1
 40
0.0
  9
$USERR2
 40
0.0
  9
$USERR3
 40
0.0
  9
$USERR4
 40
0.0
  9
$USERR5
 40
0.0
  9
$WORLDVIEW
 70
     1
  9
$SHADEDGE
 70
     3
  9
$SHADEDIF
 70
    70
  9
$TILEMODE
 70
     1
  9
$MAXACTVP
 70
    64
  9
$PINSBASE
 10
0.0
 20
0.0
 30
0.0
  9
$PLIMCHECK
 70
     0
  9
$PEXTMIN
 10
1.000000000000000E+20
 20
1.000000000000000E+20
 30
1.000000000000000E+20
  9
$PEXTMAX
 10
-1.000000000000000E+20
 20
-1.000000000000000E+20
 30
-1.000000000000000E+20
  9
$PLIMMIN
 10
0.0
 20
0.0
  9
$PLIMMAX
 10
12.0
 20
9.0
  9
$UNITMODE
 70
     0
  9
$VISRETAIN
 70
     1
  9
$PLINEGEN
 70
     0
  9
$PSLTSCALE
 70
     1
  9
$TREEDEPTH
 70
  3020
  9
$CMLSTYLE
  2
Standard
  9
$CMLJUST
 70
     0
  9
$CMLSCALE
 40
1.0
  9
$PROXYGRAPHICS
 70
     1
  9
$MEASUREMENT
 70
     0
  9
$CELWEIGHT
370
    -1
  9
$ENDCAPS
280
     0
  9
$JOINSTYLE
280
     0
  9
$LWDISPLAY
290
     1
  9
$INSUNITS
 70
     5
  9
$HYPERLINKBASE
  1

  9
$STYLESHEET
  1

  9
$XEDIT
290
     1
  9
$CEPSNTYPE
380
     0
  9
$PSTYLEMODE
290
     1
  9
$FINGERPRINTGUID
  2
{9C946C00-6AE0-B643-837A-B15790262E7D}
  9
$VERSIONGUID
  2
{A0E13BD3-268C-3F47-800B-4749EDC62886}
  9
$EXTNAMES
290
     1
  9
$PSVPSCALE
 40
0.0
  9
$OLESTARTUP
290
     0
  9
$SORTENTS
280
   127
  9
$INDEXCTL
280
     0
  9
$HIDETEXT
280
     1
  9
$XCLIPFRAME
280
     2
  9
$HALOGAP
280
     0
  9
$OBSCOLOR
 70
   257
  9
$OBSLTYPE
280
     0
  9
$INTERSECTIONDISPLAY
280
     0
  9
$INTERSECTIONCOLOR
 70
   257
  9
$DIMASSOC
280
     2
  9
$PROJECTNAME
  1

  9
$CAMERADISPLAY
290
     0
  9
$LENSLENGTH
 40
50.0
  9
$CAMERAHEIGHT
 40
0.0
  9
$STEPSPERSEC
 40
2.0
  9
$STEPSIZE
 40
6.0
  9
$3DDWFPREC
 40
2.0
  9
$PSOLWIDTH
 40
0.25
  9
$PSOLHEIGHT
 40
4.0
  9
$LOFTANG1
 40
1.570796326794896
  9
$LOFTANG2
 40
1.570796326794896
  9
$LOFTMAG1
 40
0.0
  9
$LOFTMAG2
 40
0.0
  9
$LOFTPARAM
 70
     7
  9
$LOFTNORMALS
280
     1
  9
$LATITUDE
 40
37.795
  9
$LONGITUDE
 40
-122.394
  9
$NORTHDIRECTION
 40
0.0
  9
$TIMEZONE
 70
 -8000
  9
$LIGHTGLYPHDISPLAY
280
     1
  9
$TILEMODELIGHTSYNCH
280
     1
  9
$CMATERIAL
347
11
  9
$SOLIDHIST
280
     0
  9
$SHOWHIST
280
     1
  9
$DWFFRAME
280
     2
  9
$DGNFRAME
280
     0
  9
$REALWORLDSCALE
290
     1
  9
$INTERFERECOLOR
 62
     1
  9
$INTERFEREOBJVS
345
33
  9
$INTERFEREVPVS
346
30
  9
$CSHADOW
280
     0
  9
$SHADOWPLANELOCATION
 40
0.0
  0
ENDSEC
  0
SECTION
  2
CLASSES
  0
CLASS
  1
ACDBDICTIONARYWDFLT
  2
AcDbDictionaryWithDefault
  3
ObjectDBX Classes
 90
        0
 91
        1
280
     0
281
     0
  0
CLASS
  1
MATERIAL
  2
AcDbMaterial
  3
ObjectDBX Classes
 90
     1153
 91
        3
280
     0
281
     0
  0
CLASS
  1
VISUALSTYLE
  2
AcDbVisualStyle
  3
ObjectDBX Classes
 90
     4095
 91
       24
280
     0
281
     0
  0
CLASS
  1
SCALE
  2
AcDbScale
  3
ObjectDBX Classes
 90
     1153
 91
       17
280
     0
281
     0
  0
CLASS
  1
TABLESTYLE
  2
AcDbTableStyle
  3
ObjectDBX Classes
 90
     4095
 91
        1
280
     0
281
     0
  0
CLASS
  1
MLEADERSTYLE
  2
AcDbMLeaderStyle
  3
ACDB_MLEADERSTYLE_CLASS
 90
     4095
 91
        1
280
     0
281
     0
  0
CLASS
  1
ACDBSECTIONVIEWSTYLE
  2
AcDbSectionViewStyle
  3
ObjectDBX Classes
 90
     1025
 91
        1
280
     0
281
     0
  0
CLASS
  1
ACDBDETAILVIEWSTYLE
  2
AcDbDetailViewStyle
  3
ObjectDBX Classes
 90
     1025
 91
        1
280
     0
281
     0
  0
CLASS
  1
DICTIONARYVAR
  2
AcDbDictionaryVar
  3
ObjectDBX Classes
 90
        0
 91
        5
280
     0
281
     0
  0
CLASS
  1
CELLSTYLEMAP
  2
AcDbCellStyleMap
  3
ObjectDBX Classes
 90
     1152
 91
        2
280
     0
281
     0
  0
ENDSEC
  0
SECTION
  2
TABLES
  0
TABLE
  2
VPORT
  5
8
330
0
100
AcDbSymbolTable
 70
     1
  0
VPORT
  5
57
330
8
100
AcDbSymbolTableRecord
100
AcDbViewportTableRecord
  2
*Active
 70
     0
 10
0.0
 20
0.0
 11
1.0
 21
1.0
 12
10.54504650147298
 22
2.536932126946004
 13
0.0
 23
0.0
 14
1.0
 24
1.0
 15
0.0
 25
0.0
 16
0.0
 26
0.0
 36
1.0
 17
4.999999998749408
 27
-4.999999998749408
 37
0.0
 40
27.30683167217547
 41
2.545333333333333
 42
50.0
 43
0.0
 44
0.0
 50
0.0
 51
0.0
 71
     0
 72
   100
 73
     1
 74
     0
 75
     1
 76
     0
 77
     0
 78
     0
281
     0
 65
     1
110
0.0
120
0.0
130
0.0
111
1.0
121
0.0
131
0.0
112
0.0
122
1.0
132
0.0
 79
     0
146
0.0
348
2F
 60
     3
 61
     5
292
     1
282
     1
141
0.0
142
0.0
 63
   250
421
  3355443
1001
ACAD_NAV_VCDISPLAY
1070
     3
  0
ENDTAB
  0
TABLE
  2
LTYPE
  5
5
330
0
100
AcDbSymbolTable
 70
     1
  0
LTYPE
  5
5B
330
5
100
AcDbSymbolTableRecord
100
AcDbLinetypeTableRecord
  2
ByBlock
 70
     0
  3

 72
    65
 73
     0
 40
0.0
  0
LTYPE
  5
5C
330
5
100
AcDbSymbolTableRecord
100
AcDbLinetypeTableRecord
  2
ByLayer
 70
     0
  3

 72
    65
 73
     0
 40
0.0
  0
LTYPE
  5
5D
330
5
100
AcDbSymbolTableRecord
100
AcDbLinetypeTableRecord
  2
Continuous
 70
     0
  3
Solid line
 72
    65
 73
     0
 40
0.0
  0
ENDTAB
  0
TABLE
  2
LAYER
  5
2
102
{ACAD_XDICTIONARY
360
223
102
}
330
0
100
AcDbSymbolTable
 70
     3
  0
LAYER
  5
54
330
2
100
AcDbSymbolTableRecord
100
AcDbLayerTableRecord
  2
0
 70
     0
 62
     7
  6
Continuous
370
    -3
390
F
347
21
  0
LAYER
  5
78
330
2
100
AcDbSymbolTableRecord
100
AcDbLayerTableRecord
  2
Livello 1
 70
     0
 62
     7
  6
Continuous
370
     0
390
F
347
21
  0
LAYER
  5
1AE
330
2
100
AcDbSymbolTableRecord
100
AcDbLayerTableRecord
  2
Livello 2
 70
     0
 62
     7
  6
Continuous
370
     0
390
F
347
21
  0
ENDTAB
  0
TABLE
  2
STYLE
  5
3
330
0
100
AcDbSymbolTable
 70
     2
  0
STYLE
  5
55
330
3
100
AcDbSymbolTableRecord
100
AcDbTextStyleTableRecord
  2
Standard
 70
     0
 40
0.0
 41
1.0
 50
0.0
 71
     0
 42
0.2
  3
txt
  4

  0
STYLE
  5
5A
330
3
100
AcDbSymbolTableRecord
100
AcDbTextStyleTableRecord
  2
Annotative
 70
     0
 40
0.0
 41
1.0
 50
0.0
 71
     0
 42
0.2
  3
txt
  4

1001
AcadAnnotative
1000
AnnotativeData
1002
{
1070
     1
1070
     1
1002
}
  0
ENDTAB
  0
TABLE
  2
VIEW
  5
6
330
0
100
AcDbSymbolTable
 70
     0
  0
ENDTAB
  0
TABLE
  2
UCS
  5
7
330
0
100
AcDbSymbolTable
 70
     0
  0
ENDTAB
  0
TABLE
  2
APPID
  5
9
330
0
100
AcDbSymbolTable
 70
     4
  0
APPID
  5
56
330
9
100
AcDbSymbolTableRecord
100
AcDbRegAppTableRecord
  2
ACAD
 70
     0
  0
APPID
  5
5E
330
9
100
AcDbSymbolTableRecord
100
AcDbRegAppTableRecord
  2
AcadAnnotative
 70
     0
  0
APPID
  5
222
330
9
100
AcDbSymbolTableRecord
100
AcDbRegAppTableRecord
  2
ACAD_NAV_VCDISPLAY
 70
     0
  0
APPID
  5
22B
330
9
100
AcDbSymbolTableRecord
100
AcDbRegAppTableRecord
  2
ACAD_EXEMPT_FROM_CAD_STANDARDS
 70
     0
  0
ENDTAB
  0
TABLE
  2
DIMSTYLE
  5
A
330
0
100
AcDbSymbolTable
 70
     2
100
AcDbDimStyleTable
 71
     0
  0
DIMSTYLE
105
58
330
A
100
AcDbSymbolTableRecord
100
AcDbDimStyleTableRecord
  2
Standard
 70
     0
340
55
  0
DIMSTYLE
105
59
330
A
100
AcDbSymbolTableRecord
100
AcDbDimStyleTableRecord
  2
Annotative
 70
     0
340
55
1001
AcadAnnotative
1000
AnnotativeData
1002
{
1070
     1
1070
     1
1002
}
  0
ENDTAB
  0
TABLE
  2
BLOCK_RECORD
  5
1
330
0
100
AcDbSymbolTable
 70
     7
  0
BLOCK_RECORD
  5
70
330
1
100
AcDbSymbolTableRecord
100
AcDbBlockTableRecord
  2
*Model_Space
340
73
 70
     0
280
     1
281
     0
  0
BLOCK_RECORD
  5
6C
330
1
100
AcDbSymbolTableRecord
100
AcDbBlockTableRecord
  2
*Paper_Space
340
6F
 70
     0
280
     1
281
     0
  0
BLOCK_RECORD
  5
74
330
1
100
AcDbSymbolTableRecord
100
AcDbBlockTableRecord
  2
*Paper_Space0
340
77
 70
     0
280
     1
281
     0
  0
BLOCK_RECORD
  5
1B0
330
1
100
AcDbSymbolTableRecord
100
AcDbBlockTableRecord
  2
Block_0
340
0
 70
     0
280
     1
281
     0
  0
BLOCK_RECORD
  5
1B4
330
1
100
AcDbSymbolTableRecord
100
AcDbBlockTableRecord
  2
Block_1
340
0
102
{BLKREFS
331
1B5
102
}
 70
     0
280
     1
281
     0
  0
BLOCK_RECORD
  5
1C0
330
1
100
AcDbSymbolTableRecord
100
AcDbBlockTableRecord
  2
Block_2
340
0
 70
     0
280
     1
281
     0
  0
BLOCK_RECORD
  5
1C4
330
1
100
AcDbSymbolTableRecord
100
AcDbBlockTableRecord
  2
Block_3
340
0
102
{BLKREFS
331
1C5
102
}
 70
     0
280
     1
281
     0
  0
BLOCK_RECORD
  5
1D1
330
1
100
AcDbSymbolTableRecord
100
AcDbBlockTableRecord
  2
Block_4
340
0
 70
     0
280
     1
281
     0
  0
BLOCK_RECORD
  5
1D5
330
1
100
AcDbSymbolTableRecord
100
AcDbBlockTableRecord
  2
Block_5
340
0
102
{BLKREFS
331
1D6
102
}
 70
     0
280
     1
281
     0
  0
ENDTAB
  0
ENDSEC
  0
SECTION
  2
BLOCKS
  0
BLOCK
  5
71
330
70
100
AcDbEntity
  8
0
100
AcDbBlockBegin
  2
*Model_Space
 70
     0
 10
0.0
 20
0.0
 30
0.0
  3
*Model_Space
  1

  0
ENDBLK
  5
72
330
70
100
AcDbEntity
  8
0
100
AcDbBlockEnd
  0
BLOCK
  5
6D
330
6C
100
AcDbEntity
 67
     1
  8
0
100
AcDbBlockBegin
  2
*Paper_Space
 70
     0
 10
0.0
 20
0.0
 30
0.0
  3
*Paper_Space
  1

  0
ENDBLK
  5
6E
330
6C
100
AcDbEntity
 67
     1
  8
0
100
AcDbBlockEnd
  0
BLOCK
  5
75
330
74
100
AcDbEntity
 67
     1
  8
0
100
AcDbBlockBegin
  2
*Paper_Space0
 70
     0
 10
0.0
 20
0.0
 30
0.0
  3
*Paper_Space0
  1

  0
ENDBLK
  5
76
330
74
100
AcDbEntity
 67
     1
  8
0
100
AcDbBlockEnd
  0
BLOCK
  5
1B2
330
1B0
100
AcDbEntity
  8
0
100
AcDbBlockBegin
  2
Block_0
 70
     0
 10
0.0
 20
0.0
 30
0.0
  3
Block_0
  1

  0
INSERT
  5
1B5
330
1B0
100
AcDbEntity
  8
Livello 2
100
AcDbBlockReference
  2
Block_1
 10
0.0
 20
0.0
 30
0.0
  0
ENDBLK
  5
1B3
330
1B0
100
AcDbEntity
  8
0
100
AcDbBlockEnd
  0
BLOCK
  5
1B6
330
1B4
100
AcDbEntity
  8
0
100
AcDbBlockBegin
  2
Block_1
 70
     0
 10
0.0
 20
0.0
 30
0.0
  3
Block_1
  1

  0
SPLINE
  5
1B8
330
1B4
100
AcDbEntity
  8
Livello 2
100
AcDbSpline
210
0.0
220
0.0
230
1.0
 70
    11
 71
     3
 72
    29
 73
    25
 74
     0
 42
0.000000001
 43
0.0000000001
 40
0.0
 40
0.0
 40
0.0
 40
0.0
 40
1.0
 40
1.0
 40
1.0
 40
2.0
 40
2.0
 40
2.0
 40
3.0
 40
3.0
 40
3.0
 40
4.0
 40
4.0
 40
4.0
 40
5.0
 40
5.0
 40
5.0
 40
6.0
 40
6.0
 40
6.0
 40
7.0
 40
7.0
 40
7.0
 40
8.0
 40
8.0
 40
8.0
 40
8.0
 10
3.985338133769288
 20
-6.426928980598128
 30
0.0
 10
3.985338133769288
 20
-6.426928980598128
 30
0.0
 10
3.984511310852827
 20
-6.426928980598128
 30
0.0
 10
3.984511310852827
 20
-6.426928980598128
 30
0.0
 10
3.984511310852827
 20
-6.426928980598128
 30
0.0
 10
3.93669338551756
 20
-6.452732745782647
 30
0.0
 10
3.93669338551756
 20
-6.452732745782647
 30
0.0
 10
3.93669338551756
 20
-6.452732745782647
 30
0.0
 10
3.929493135953388
 20
-6.424414060893892
 30
0.0
 10
3.929493135953388
 20
-6.424414060893892
 30
0.0
 10
3.929493135953388
 20
-6.424414060893892
 30
0.0
 10
3.989575601216147
 20
-6.392236869061662
 30
0.0
 10
3.989575601216147
 20
-6.392236869061662
 30
0.0
 10
3.989575601216147
 20
-6.392236869061662
 30
0.0
 10
4.021304930635298
 20
-6.392236869061662
 30
0.0
 10
4.021304930635298
 20
-6.392236869061662
 30
0.0
 10
4.021304930635298
 20
-6.392236869061662
 30
0.0
 10
4.021304930635298
 20
-6.667258841649156
 30
0.0
 10
4.021304930635298
 20
-6.667258841649156
 30
0.0
 10
4.021304930635298
 20
-6.667258841649156
 30
0.0
 10
3.985338133769288
 20
-6.667258841649156
 30
0.0
 10
3.985338133769288
 20
-6.667258841649156
 30
0.0
 10
3.985338133769288
 20
-6.667258841649156
 30
0.0
 10
3.985338133769288
 20
-6.426928980598128
 30
0.0
 10
3.985338133769288
 20
-6.426928980598128
 30
0.0
  0
HATCH
  5
1B9
330
1B4
100
AcDbEntity
  8
Livello 2
 62
   250
420
  1907995
440
 33554687
100
AcDbHatch
 10
0.0
 20
0.0
 30
0.0
210
0.0
220
0.0
230
1.0
  2
SOLID
 70
     1
 71
     1
 91
        1
 92
        1
 93
        1
 72
     4
 94
        3
 73
     0
 74
     0
 95
       29
 96
       25
 40
0.0
 40
0.0
 40
0.0
 40
0.0
 40
1.0
 40
1.0
 40
1.0
 40
2.0
 40
2.0
 40
2.0
 40
3.0
 40
3.0
 40
3.0
 40
4.0
 40
4.0
 40
4.0
 40
5.0
 40
5.0
 40
5.0
 40
6.0
 40
6.0
 40
6.0
 40
7.0
 40
7.0
 40
7.0
 40
8.0
 40
8.0
 40
8.0
 40
8.0
 10
3.985338133769288
 20
-6.426928980598128
 10
3.985338133769288
 20
-6.426928980598128
 10
3.984511310852827
 20
-6.426928980598128
 10
3.984511310852827
 20
-6.426928980598128
 10
3.984511310852827
 20
-6.426928980598128
 10
3.93669338551756
 20
-6.452732745782647
 10
3.93669338551756
 20
-6.452732745782647
 10
3.93669338551756
 20
-6.452732745782647
 10
3.929493135953388
 20
-6.424414060893892
 10
3.929493135953388
 20
-6.424414060893892
 10
3.929493135953388
 20
-6.424414060893892
 10
3.989575601216147
 20
-6.392236869061662
 10
3.989575601216147
 20
-6.392236869061662
 10
3.989575601216147
 20
-6.392236869061662
 10
4.021304930635298
 20
-6.392236869061662
 10
4.021304930635298
 20
-6.392236869061662
 10
4.021304930635298
 20
-6.392236869061662
 10
4.021304930635298
 20
-6.667258841649156
 10
4.021304930635298
 20
-6.667258841649156
 10
4.021304930635298
 20
-6.667258841649156
 10
3.985338133769288
 20
-6.667258841649156
 10
3.985338133769288
 20
-6.667258841649156
 10
3.985338133769288
 20
-6.667258841649156
 10
3.985338133769288
 20
-6.426928980598128
 10
3.985338133769288
 20
-6.426928980598128
 97
        0
 97
        1
330
1B8
 75
     2
 76
     1
 98
        1
 10
0.0
 20
0.0
450
        0
451
        0
460
0.0
461
0.0
452
        0
462
0.0
453
        0
470

  0
SPLINE
  5
1BA
330
1B4
100
AcDbEntity
  8
Livello 2
100
AcDbSpline
210
0.0
220
0.0
230
1.0
 70
    11
 71
     3
 72
    47
 73
    43
 74
     0
 42
0.000000001
 43
0.0000000001
 40
0.0
 40
0.0
 40
0.0
 40
0.0
 40
1.0
 40
1.0
 40
1.0
 40
2.0
 40
2.0
 40
2.0
 40
3.0
 40
3.0
 40
3.0
 40
4.0
 40
4.0
 40
4.0
 40
5.0
 40
5.0
 40
5.0
 40
6.0
 40
6.0
 40
6.0
 40
7.0
 40
7.0
 40
7.0
 40
8.0
 40
8.0
 40
8.0
 40
9.0
 40
9.0
 40
9.0
 40
10.0
 40
10.0
 40
10.0
 40
11.0
 40
11.0
 40
11.0
 40
12.0
 40
12.0
 40
12.0
 40
13.0
 40
13.0
 40
13.0
 40
14.0
 40
14.0
 40
14.0
 40
14.0
 10
4.121729464030328
 20
-6.667258841649156
 30
0.0
 10
4.121729464030328
 20
-6.667258841649156
 30
0.0
 10
4.121729464030328
 20
-6.644417858581951
 30
0.0
 10
4.121729464030328
 20
-6.644417858581951
 30
0.0
 10
4.121729464030328
 20
-6.644417858581951
 30
0.0
 10
4.150909422790395
 20
-6.616064722738342
 30
0.0
 10
4.150909422790395
 20
-6.616064722738342
 30
0.0
 10
4.221154919734641
 20
-6.549229870324497
 30
0.0
 10
4.252884249153792
 20
-6.513676484916719
 30
0.0
 10
4.253297660612021
 20
-6.472197535274311
 30
0.0
 10
4.253297660612021
 20
-6.444292261843787
 30
0.0
 10
4.23975843535499
 20
-6.418488496659266
 30
0.0
 10
4.198727348125665
 20
-6.418488496659266
 30
0.0
 10
4.1737504058576
 20
-6.418488496659266
 30
0.0
 10
4.1530109310364
 20
-6.431166448044985
 30
0.0
 10
4.14033297965068
 20
-6.4417428911847
 30
0.0
 10
4.14033297965068
 20
-6.4417428911847
 30
0.0
 10
4.128481851181421
 20
-6.415525714541951
 30
0.0
 10
4.128481851181421
 20
-6.415525714541951
 30
0.0
 10
4.147533229214851
 20
-6.399437118625834
 30
0.0
 10
4.174611679728916
 20
-6.387585990156575
 30
0.0
 10
4.206341009148066
 20
-6.387585990156575
 30
0.0
 10
4.265562200539511
 20
-6.387585990156575
 30
0.0
 10
4.29053914280757
 20
-6.428203665927671
 30
0.0
 10
4.29053914280757
 20
-6.467546656369222
 30
0.0
 10
4.29053914280757
 20
-6.518327363821806
 30
0.0
 10
4.253711072070252
 20
-6.559358451051132
 30
0.0
 10
4.19576456600835
 20
-6.615203448867031
 30
0.0
 10
4.19576456600835
 20
-6.615203448867031
 30
0.0
 10
4.1737504058576
 20
-6.635529512230005
 30
0.0
 10
4.1737504058576
 20
-6.635529512230005
 30
0.0
 10
4.1737504058576
 20
-6.635529512230005
 30
0.0
 10
4.1737504058576
 20
-6.636356335146465
 30
0.0
 10
4.1737504058576
 20
-6.636356335146465
 30
0.0
 10
4.1737504058576
 20
-6.636356335146465
 30
0.0
 10
4.297291529958663
 20
-6.636356335146465
 30
0.0
 10
4.297291529958663
 20
-6.636356335146465
 30
0.0
 10
4.297291529958663
 20
-6.636356335146465
 30
0.0
 10
4.297291529958663
 20
-6.667258841649156
 30
0.0
 10
4.297291529958663
 20
-6.667258841649156
 30
0.0
 10
4.297291529958663
 20
-6.667258841649156
 30
0.0
 10
4.121729464030328
 20
-6.667258841649156
 30
0.0
 10
4.121729464030328
 20
-6.667258841649156
 30
0.0
  0
HATCH
  5
1BB
330
1B4
100
AcDbEntity
  8
Livello 2
 62
   250
420
  1907995
440
 33554687
100
AcDbHatch
 10
0.0
 20
0.0
 30
0.0
210
0.0
220
0.0
230
1.0
  2
SOLID
 70
     1
 71
     1
 91
        1
 92
        1
 93
        1
 72
     4
 94
        3
 73
     0
 74
     0
 95
       47
 96
       43
 40
0.0
 40
0.0
 40
0.0
 40
0.0
 40
1.0
 40
1.0
 40
1.0
 40
2.0
 40
2.0
 40
2.0
 40
3.0
 40
3.0
 40
3.0
 40
4.0
 40
4.0
 40
4.0
 40
5.0
 40
5.0
 40
5.0
 40
6.0
 40
6.0
 40
6.0
 40
7.0
 40
7.0
 40
7.0
 40
8.0
 40
8.0
 40
8.0
 40
9.0
 40
9.0
 40
9.0
 40
10.0
 40
10.0
 40
10.0
 40
11.0
 40
11.0
 40
11.0
 40
12.0
 40
12.0
 40
12.0
 40
13.0
 40
13.0
 40
13.0
 40
14.0
 40
14.0
 40
14.0
 40
14.0
 10
4.121729464030328
 20
-6.667258841649156
 10
4.121729464030328
 20
-6.667258841649156
 10
4.121729464030328
 20
-6.644417858581951
 10
4.121729464030328
 20
-6.644417858581951
 10
4.121729464030328
 20
-6.644417858581951
 10
4.150909422790395
 20
-6.616064722738342
 10
4.150909422790395
 20
-6.616064722738342
 10
4.221154919734641
 20
-6.549229870324497
 10
4.252884249153792
 20
-6.513676484916719
 10
4.253297660612021
 20
-6.472197535274311
 10
4.253297660612021
 20
-6.444292261843787
 10
4.23975843535499
 20
-6.418488496659266
 10
4.198727348125665
 20
-6.418488496659266
 10
4.1737504058576
 20
-6.418488496659266
 10
4.1530109310364
 20
-6.431166448044985
 10
4.14033297965068
 20
-6.4417428911847
 10
4.14033297965068
 20
-6.4417428911847
 10
4.128481851181421
 20
-6.415525714541951
 10
4.128481851181421
 20
-6.415525714541951
 10
4.147533229214851
 20
-6.399437118625834
 10
4.174611679728916
 20
-6.387585990156575
 10
4.206341009148066
 20
-6.387585990156575
 10
4.265562200539511
 20
-6.387585990156575
 10
4.29053914280757
 20
-6.428203665927671
 10
4.29053914280757
 20
-6.467546656369222
 10
4.29053914280757
 20
-6.518327363821806
 10
4.253711072070252
 20
-6.559358451051132
 10
4.19576456600835
 20
-6.615203448867031
 10
4.19576456600835
 20
-6.615203448867031
 10
4.1737504058576
 20
-6.635529512230005
 10
4.1737504058576
 20
-6.635529512230005
 10
4.1737504058576
 20
-6.635529512230005
 10
4.1737504058576
 20
-6.636356335146465
 10
4.1737504058576
 20
-6.636356335146465
 10
4.1737504058576
 20
-6.636356335146465
 10
4.297291529958663
 20
-6.636356335146465
 10
4.297291529958663
 20
-6.636356335146465
 10
4.297291529958663
 20
-6.636356335146465
 10
4.297291529958663
 20
-6.667258841649156
 10
4.297291529958663
 20
-6.667258841649156
 10
4.297291529958663
 20
-6.667258841649156
 10
4.121729464030328
 20
-6.667258841649156
 10
4.121729464030328
 20
-6.667258841649156
 97
        0
 97
        1
330
1BA
 75
     2
 76
     1
 98
        1
 10
0.0
 20
0.0
450
        0
451
        0
460
0.0
461
0.0
452
        0
462
0.0
453
        0
470

  0
SPLINE
  5
1BC
330
1B4
100
AcDbEntity
  8
Livello 2
100
AcDbSpline
210
0.0
220
0.0
230
1.0
 70
    11
 71
     3
 72
    26
 73
    22
 74
     0
 42
0.000000001
 43
0.0000000001
 40
0.0
 40
0.0
 40
0.0
 40
0.0
 40
1.0
 40
1.0
 40
1.0
 40
2.0
 40
2.0
 40
2.0
 40
3.0
 40
3.0
 40
3.0
 40
4.0
 40
4.0
 40
4.0
 40
5.0
 40
5.0
 40
5.0
 40
6.0
 40
6.0
 40
6.0
 40
7.0
 40
7.0
 40
7.0
 40
7.0
 10
4.453940021672972
 20
-6.563182507039758
 30
0.0
 10
4.453940021672972
 20
-6.563182507039758
 30
0.0
 10
4.453940021672972
 20
-6.471370712357851
 30
0.0
 10
4.453940021672972
 20
-6.471370712357851
 30
0.0
 10
4.453940021672972
 20
-6.456970213229508
 30
0.0
 10
4.454353433131203
 20
-6.442604165056014
 30
0.0
 10
4.455214707002513
 20
-6.428203665927671
 30
0.0
 10
4.455214707002513
 20
-6.428203665927671
 30
0.0
 10
4.453940021672972
 20
-6.428203665927671
 30
0.0
 10
4.453940021672972
 20
-6.428203665927671
 30
0.0
 10
4.445499537734111
 20
-6.444292261843787
 30
0.0
 10
4.438712699628165
 20
-6.456143390313043
 30
0.0
 10
4.431099038605767
 20
-6.468821341698768
 30
0.0
 10
4.431099038605767
 20
-6.468821341698768
 30
0.0
 10
4.363816323778836
 20
-6.562321233168447
 30
0.0
 10
4.363816323778836
 20
-6.562321233168447
 30
0.0
 10
4.363816323778836
 20
-6.562321233168447
 30
0.0
 10
4.363816323778836
 20
-6.563182507039758
 30
0.0
 10
4.363816323778836
 20
-6.563182507039758
 30
0.0
 10
4.363816323778836
 20
-6.563182507039758
 30
0.0
 10
4.453940021672972
 20
-6.563182507039758
 30
0.0
 10
4.453940021672972
 20
-6.563182507039758
 30
0.0
  0
SPLINE
  5
1BD
330
1B4
100
AcDbEntity
  8
Livello 2
100
AcDbSpline
210
0.0
220
0.0
230
1.0
 70
    11
 71
     3
 72
    38
 73
    34
 74
     0
 42
0.000000001
 43
0.0000000001
 40
0.0
 40
0.0
 40
0.0
 40
0.0
 40
1.0
 40
1.0
 40
1.0
 40
2.0
 40
2.0
 40
2.0
 40
3.0
 40
3.0
 40
3.0
 40
4.0
 40
4.0
 40
4.0
 40
5.0
 40
5.0
 40
5.0
 40
6.0
 40
6.0
 40
6.0
 40
7.0
 40
7.0
 40
7.0
 40
8.0
 40
8.0
 40
8.0
 40
9.0
 40
9.0
 40
9.0
 40
10.0
 40
10.0
 40
10.0
 40
11.0
 40
11.0
 40
11.0
 40
11.0
 10
4.453940021672972
 20
-6.667258841649156
 30
0.0
 10
4.453940021672972
 20
-6.667258841649156
 30
0.0
 10
4.453940021672972
 20
-6.592362465799824
 30
0.0
 10
4.453940021672972
 20
-6.592362465799824
 30
0.0
 10
4.453940021672972
 20
-6.592362465799824
 30
0.0
 10
4.326161430125055
 20
-6.592362465799824
 30
0.0
 10
4.326161430125055
 20
-6.592362465799824
 30
0.0
 10
4.326161430125055
 20
-6.592362465799824
 30
0.0
 10
4.326161430125055
 20
-6.567833385944847
 30
0.0
 10
4.326161430125055
 20
-6.567833385944847
 30
0.0
 10
4.326161430125055
 20
-6.567833385944847
 30
0.0
 10
4.448875731309655
 20
-6.392236869061662
 30
0.0
 10
4.448875731309655
 20
-6.392236869061662
 30
0.0
 10
4.448875731309655
 20
-6.392236869061662
 30
0.0
 10
4.489045544667669
 20
-6.392236869061662
 30
0.0
 10
4.489045544667669
 20
-6.392236869061662
 30
0.0
 10
4.489045544667669
 20
-6.392236869061662
 30
0.0
 10
4.489045544667669
 20
-6.563182507039758
 30
0.0
 10
4.489045544667669
 20
-6.563182507039758
 30
0.0
 10
4.489045544667669
 20
-6.563182507039758
 30
0.0
 10
4.527561712192762
 20
-6.563182507039758
 30
0.0
 10
4.527561712192762
 20
-6.563182507039758
 30
0.0
 10
4.527561712192762
 20
-6.563182507039758
 30
0.0
 10
4.527561712192762
 20
-6.592362465799824
 30
0.0
 10
4.527561712192762
 20
-6.592362465799824
 30
0.0
 10
4.527561712192762
 20
-6.592362465799824
 30
0.0
 10
4.489045544667669
 20
-6.592362465799824
 30
0.0
 10
4.489045544667669
 20
-6.592362465799824
 30
0.0
 10
4.489045544667669
 20
-6.592362465799824
 30
0.0
 10
4.489045544667669
 20
-6.667258841649156
 30
0.0
 10
4.489045544667669
 20
-6.667258841649156
 30
0.0
 10
4.489045544667669
 20
-6.667258841649156
 30
0.0
 10
4.453940021672972
 20
-6.667258841649156
 30
0.0
 10
4.453940021672972
 20
-6.667258841649156
 30
0.0
  0
HATCH
  5
1BE
330
1B4
100
AcDbEntity
  8
Livello 2
 62
   250
420
  1907995
440
 33554687
100
AcDbHatch
 10
0.0
 20
0.0
 30
0.0
210
0.0
220
0.0
230
1.0
  2
SOLID
 70
     1
 71
     1
 91
        2
 92
        1
 93
        1
 72
     4
 94
        3
 73
     0
 74
     0
 95
       26
 96
       22
 40
0.0
 40
0.0
 40
0.0
 40
0.0
 40
1.0
 40
1.0
 40
1.0
 40
2.0
 40
2.0
 40
2.0
 40
3.0
 40
3.0
 40
3.0
 40
4.0
 40
4.0
 40
4.0
 40
5.0
 40
5.0
 40
5.0
 40
6.0
 40
6.0
 40
6.0
 40
7.0
 40
7.0
 40
7.0
 40
7.0
 10
4.453940021672972
 20
-6.563182507039758
 10
4.453940021672972
 20
-6.563182507039758
 10
4.453940021672972
 20
-6.471370712357851
 10
4.453940021672972
 20
-6.471370712357851
 10
4.453940021672972
 20
-6.456970213229508
 10
4.454353433131203
 20
-6.442604165056014
 10
4.455214707002513
 20
-6.428203665927671
 10
4.455214707002513
 20
-6.428203665927671
 10
4.453940021672972
 20
-6.428203665927671
 10
4.453940021672972
 20
-6.428203665927671
 10
4.445499537734111
 20
-6.444292261843787
 10
4.438712699628165
 20
-6.456143390313043
 10
4.431099038605767
 20
-6.468821341698768
 10
4.431099038605767
 20
-6.468821341698768
 10
4.363816323778836
 20
-6.562321233168447
 10
4.363816323778836
 20
-6.562321233168447
 10
4.363816323778836
 20
-6.562321233168447
 10
4.363816323778836
 20
-6.563182507039758
 10
4.363816323778836
 20
-6.563182507039758
 10
4.363816323778836
 20
-6.563182507039758
 10
4.453940021672972
 20
-6.563182507039758
 10
4.453940021672972
 20
-6.563182507039758
 97
        0
 97
        1
330
1BC
 92
        1
 93
        1
 72
     4
 94
        3
 73
     0
 74
     0
 95
       38
 96
       34
 40
0.0
 40
0.0
 40
0.0
 40
0.0
 40
1.0
 40
1.0
 40
1.0
 40
2.0
 40
2.0
 40
2.0
 40
3.0
 40
3.0
 40
3.0
 40
4.0
 40
4.0
 40
4.0
 40
5.0
 40
5.0
 40
5.0
 40
6.0
 40
6.0
 40
6.0
 40
7.0
 40
7.0
 40
7.0
 40
8.0
 40
8.0
 40
8.0
 40
9.0
 40
9.0
 40
9.0
 40
10.0
 40
10.0
 40
10.0
 40
11.0
 40
11.0
 40
11.0
 40
11.0
 10
4.453940021672972
 20
-6.667258841649156
 10
4.453940021672972
 20
-6.667258841649156
 10
4.453940021672972
 20
-6.592362465799824
 10
4.453940021672972
 20
-6.592362465799824
 10
4.453940021672972
 20
-6.592362465799824
 10
4.326161430125055
 20
-6.592362465799824
 10
4.326161430125055
 20
-6.592362465799824
 10
4.326161430125055
 20
-6.592362465799824
 10
4.326161430125055
 20
-6.567833385944847
 10
4.326161430125055
 20
-6.567833385944847
 10
4.326161430125055
 20
-6.567833385944847
 10
4.448875731309655
 20
-6.392236869061662
 10
4.448875731309655
 20
-6.392236869061662
 10
4.448875731309655
 20
-6.392236869061662
 10
4.489045544667669
 20
-6.392236869061662
 10
4.489045544667669
 20
-6.392236869061662
 10
4.489045544667669
 20
-6.392236869061662
 10
4.489045544667669
 20
-6.563182507039758
 10
4.489045544667669
 20
-6.563182507039758
 10
4.489045544667669
 20
-6.563182507039758
 10
4.527561712192762
 20
-6.563182507039758
 10
4.527561712192762
 20
-6.563182507039758
 10
4.527561712192762
 20
-6.563182507039758
 10
4.527561712192762
 20
-6.592362465799824
 10
4.527561712192762
 20
-6.592362465799824
 10
4.527561712192762
 20
-6.592362465799824
 10
4.489045544667669
 20
-6.592362465799824
 10
4.489045544667669
 20
-6.592362465799824
 10
4.489045544667669
 20
-6.592362465799824
 10
4.489045544667669
 20
-6.667258841649156
 10
4.489045544667669
 20
-6.667258841649156
 10
4.489045544667669
 20
-6.667258841649156
 10
4.453940021672972
 20
-6.667258841649156
 10
4.453940021672972
 20
-6.667258841649156
 97
        0
 97
        1
330
1BD
 75
     2
 76
     1
 98
        1
 10
0.0
 20
0.0
450
        0
451
        0
460
0.0
461
0.0
452
        0
462
0.0
453
        0
470

  0
ENDBLK
  5
1B7
330
1B4
100
AcDbEntity
  8
0
100
AcDbBlockEnd
  0
BLOCK
  5
1C2
330
1C0
100
AcDbEntity
  8
0
100
AcDbBlockBegin
  2
Block_2
 70
     0
 10
0.0
 20
0.0
 30
0.0
  3
Block_2
  1

  0
INSERT
  5
1C5
330
1C0
100
AcDbEntity
  8
Livello 2
100
AcDbBlockReference
  2
Block_3
 10
0.0
 20
0.0
 30
0.0
  0
ENDBLK
  5
1C3
330
1C0
100
AcDbEntity
  8
0
100
AcDbBlockEnd
  0
BLOCK
  5
1C6
330
1C4
100
AcDbEntity
  8
0
100
AcDbBlockBegin
  2
Block_3
 70
     0
 10
0.0
 20
0.0
 30
0.0
  3
Block_3
  1

  0
SPLINE
  5
1C8
330
1C4
100
AcDbEntity
  8
Livello 2
100
AcDbSpline
210
0.0
220
0.0
230
1.0
 70
    11
 71
     3
 72
    50
 73
    46
 74
     0
 42
0.000000001
 43
0.0000000001
 40
0.0
 40
0.0
 40
0.0
 40
0.0
 40
1.0
 40
1.0
 40
1.0
 40
2.0
 40
2.0
 40
2.0
 40
3.0
 40
3.0
 40
3.0
 40
4.0
 40
4.0
 40
4.0
 40
5.0
 40
5.0
 40
5.0
 40
6.0
 40
6.0
 40
6.0
 40
7.0
 40
7.0
 40
7.0
 40
8.0
 40
8.0
 40
8.0
 40
9.0
 40
9.0
 40
9.0
 40
10.0
 40
10.0
 40
10.0
 40
11.0
 40
11.0
 40
11.0
 40
12.0
 40
12.0
 40
12.0
 40
13.0
 40
13.0
 40
13.0
 40
14.0
 40
14.0
 40
14.0
 40
15.0
 40
15.0
 40
15.0
 40
15.0
 10
8.938024628841882
 20
-3.742458902059176
 30
0.0
 10
8.938024628841882
 20
-3.742458902059176
 30
0.0
 10
8.833087020361171
 20
-3.742458902059176
 30
0.0
 10
8.833087020361171
 20
-3.742458902059176
 30
0.0
 10
8.833087020361171
 20
-3.742458902059176
 30
0.0
 10
8.822510577221455
 20
-3.813117810461648
 30
0.0
 10
8.822510577221455
 20
-3.813117810461648
 30
0.0
 10
8.828849552914313
 20
-3.812273762067763
 30
0.0
 10
8.834775117148945
 20
-3.811429713673877
 30
0.0
 10
8.844938148830431
 20
-3.811429713673877
 30
0.0
 10
8.866091035109866
 20
-3.811429713673877
 30
0.0
 10
8.887243921389297
 20
-3.816080592578963
 30
0.0
 10
8.904159340221875
 20
-3.826226398783026
 30
0.0
 10
8.925760088914392
 20
-3.838508164187942
 30
0.0
 10
8.943502330663429
 20
-3.862193195649033
 30
0.0
 10
8.943502330663429
 20
-3.8968853071855
 30
0.0
 10
8.943502330663429
 20
-3.950628796755398
 30
0.0
 10
8.900783146646331
 20
-3.990815835590836
 30
0.0
 10
8.841114092841804
 20
-3.990815835590836
 30
0.0
 10
8.811072860210423
 20
-3.990815835590836
 30
0.0
 10
8.785716957438987
 20
-3.982358126174548
 30
0.0
 10
8.772591143640182
 20
-3.973900416758258
 30
0.0
 10
8.772591143640182
 20
-3.973900416758258
 30
0.0
 10
8.781892901450357
 20
-3.945547280914653
 30
0.0
 10
8.781892901450357
 20
-3.945547280914653
 30
0.0
 10
8.793330618461387
 20
-3.95231689354317
 30
0.0
 10
8.81572373911551
 20
-3.960774602959459
 30
0.0
 10
8.840700681383573
 20
-3.960774602959459
 30
0.0
 10
8.875806204378269
 20
-3.960774602959459
 30
0.0
 10
8.905847437009647
 20
-3.937933619892251
 30
0.0
 10
8.905847437009647
 20
-3.901122774632355
 30
0.0
 10
8.905434025551418
 20
-3.865586614702004
 30
0.0
 10
8.881731768612898
 20
-3.840196260975713
 30
0.0
 10
8.82674804466831
 20
-3.840196260975713
 30
0.0
 10
8.811072860210423
 20
-3.840196260975713
 30
0.0
 10
8.798808320282935
 20
-3.841884357763487
 30
0.0
 10
8.788645288601449
 20
-3.843159043093028
 30
0.0
 10
8.788645288601449
 20
-3.843159043093028
 30
0.0
 10
8.806421981305337
 20
-3.711142984098255
 30
0.0
 10
8.806421981305337
 20
-3.711142984098255
 30
0.0
 10
8.806421981305337
 20
-3.711142984098255
 30
0.0
 10
8.938024628841882
 20
-3.711142984098255
 30
0.0
 10
8.938024628841882
 20
-3.711142984098255
 30
0.0
 10
8.938024628841882
 20
-3.711142984098255
 30
0.0
 10
8.938024628841882
 20
-3.742458902059176
 30
0.0
 10
8.938024628841882
 20
-3.742458902059176
 30
0.0
  0
HATCH
  5
1C9
330
1C4
100
AcDbEntity
  8
Livello 2
 62
   250
420
  1907995
440
 33554687
100
AcDbHatch
 10
0.0
 20
0.0
 30
0.0
210
0.0
220
0.0
230
1.0
  2
SOLID
 70
     1
 71
     1
 91
        1
 92
        1
 93
        1
 72
     4
 94
        3
 73
     0
 74
     0
 95
       50
 96
       46
 40
0.0
 40
0.0
 40
0.0
 40
0.0
 40
1.0
 40
1.0
 40
1.0
 40
2.0
 40
2.0
 40
2.0
 40
3.0
 40
3.0
 40
3.0
 40
4.0
 40
4.0
 40
4.0
 40
5.0
 40
5.0
 40
5.0
 40
6.0
 40
6.0
 40
6.0
 40
7.0
 40
7.0
 40
7.0
 40
8.0
 40
8.0
 40
8.0
 40
9.0
 40
9.0
 40
9.0
 40
10.0
 40
10.0
 40
10.0
 40
11.0
 40
11.0
 40
11.0
 40
12.0
 40
12.0
 40
12.0
 40
13.0
 40
13.0
 40
13.0
 40
14.0
 40
14.0
 40
14.0
 40
15.0
 40
15.0
 40
15.0
 40
15.0
 10
8.938024628841882
 20
-3.742458902059176
 10
8.938024628841882
 20
-3.742458902059176
 10
8.833087020361171
 20
-3.742458902059176
 10
8.833087020361171
 20
-3.742458902059176
 10
8.833087020361171
 20
-3.742458902059176
 10
8.822510577221455
 20
-3.813117810461648
 10
8.822510577221455
 20
-3.813117810461648
 10
8.828849552914313
 20
-3.812273762067763
 10
8.834775117148945
 20
-3.811429713673877
 10
8.844938148830431
 20
-3.811429713673877
 10
8.866091035109866
 20
-3.811429713673877
 10
8.887243921389297
 20
-3.816080592578963
 10
8.904159340221875
 20
-3.826226398783026
 10
8.925760088914392
 20
-3.838508164187942
 10
8.943502330663429
 20
-3.862193195649033
 10
8.943502330663429
 20
-3.8968853071855
 10
8.943502330663429
 20
-3.950628796755398
 10
8.900783146646331
 20
-3.990815835590836
 10
8.841114092841804
 20
-3.990815835590836
 10
8.811072860210423
 20
-3.990815835590836
 10
8.785716957438987
 20
-3.982358126174548
 10
8.772591143640182
 20
-3.973900416758258
 10
8.772591143640182
 20
-3.973900416758258
 10
8.781892901450357
 20
-3.945547280914653
 10
8.781892901450357
 20
-3.945547280914653
 10
8.793330618461387
 20
-3.95231689354317
 10
8.81572373911551
 20
-3.960774602959459
 10
8.840700681383573
 20
-3.960774602959459
 10
8.875806204378269
 20
-3.960774602959459
 10
8.905847437009647
 20
-3.937933619892251
 10
8.905847437009647
 20
-3.901122774632355
 10
8.905434025551418
 20
-3.865586614702004
 10
8.881731768612898
 20
-3.840196260975713
 10
8.82674804466831
 20
-3.840196260975713
 10
8.811072860210423
 20
-3.840196260975713
 10
8.798808320282935
 20
-3.841884357763487
 10
8.788645288601449
 20
-3.843159043093028
 10
8.788645288601449
 20
-3.843159043093028
 10
8.806421981305337
 20
-3.711142984098255
 10
8.806421981305337
 20
-3.711142984098255
 10
8.806421981305337
 20
-3.711142984098255
 10
8.938024628841882
 20
-3.711142984098255
 10
8.938024628841882
 20
-3.711142984098255
 10
8.938024628841882
 20
-3.711142984098255
 10
8.938024628841882
 20
-3.742458902059176
 10
8.938024628841882
 20
-3.742458902059176
 97
        0
 97
        1
330
1C8
 75
     2
 76
     1
 98
        1
 10
0.0
 20
0.0
450
        0
451
        0
460
0.0
461
0.0
452
        0
462
0.0
453
        0
470

  0
SPLINE
  5
1CA
330
1C4
100
AcDbEntity
  8
Livello 2
100
AcDbSpline
210
0.0
220
0.0
230
1.0
 70
     9
 71
     3
 72
    59
 73
    55
 74
     0
 42
0.000000001
 43
0.0000000001
 40
0.0
 40
0.0
 40
0.0
 40
0.0
 40
1.0
 40
1.0
 40
1.0
 40
2.0
 40
2.0
 40
2.0
 40
3.0
 40
3.0
 40
3.0
 40
4.0
 40
4.0
 40
4.0
 40
5.0
 40
5.0
 40
5.0
 40
6.0
 40
6.0
 40
6.0
 40
7.0
 40
7.0
 40
7.0
 40
8.0
 40
8.0
 40
8.0
 40
9.0
 40
9.0
 40
9.0
 40
10.0
 40
10.0
 40
10.0
 40
11.0
 40
11.0
 40
11.0
 40
12.0
 40
12.0
 40
12.0
 40
13.0
 40
13.0
 40
13.0
 40
14.0
 40
14.0
 40
14.0
 40
15.0
 40
15.0
 40
15.0
 40
16.0
 40
16.0
 40
16.0
 40
17.0
 40
17.0
 40
17.0
 40
18.0
 40
18.0
 40
18.0
 40
18.0
 10
8.999932994711818
 20
-3.943428547191226
 30
0.0
 10
9.010509437851537
 20
-3.950198159819741
 30
0.0
 10
9.035038517706516
 20
-3.960774602959459
 30
0.0
 10
9.060842282891037
 20
-3.960774602959459
 30
0.0
 10
9.108660208226305
 20
-3.960774602959459
 30
0.0
 10
9.123474118812881
 20
-3.93031995886985
 30
0.0
 10
9.123026256399796
 20
-3.907461750325216
 30
0.0
 10
9.122612844941567
 20
-3.868962808277548
 30
0.0
 10
9.0879207334051
 20
-3.852460800903203
 30
0.0
 10
9.051953936539092
 20
-3.852460800903203
 30
0.0
 10
9.051953936539092
 20
-3.852460800903203
 30
0.0
 10
9.03121446171789
 20
-3.852460800903203
 30
0.0
 10
9.03121446171789
 20
-3.852460800903203
 30
0.0
 10
9.03121446171789
 20
-3.852460800903203
 30
0.0
 10
9.03121446171789
 20
-3.824538301995254
 30
0.0
 10
9.03121446171789
 20
-3.824538301995254
 30
0.0
 10
9.03121446171789
 20
-3.824538301995254
 30
0.0
 10
9.051953936539092
 20
-3.824538301995254
 30
0.0
 10
9.051953936539092
 20
-3.824538301995254
 30
0.0
 10
9.079032387053155
 20
-3.824538301995254
 30
0.0
 10
9.113311087131393
 20
-3.810585665279991
 30
0.0
 10
9.113311087131393
 20
-3.777995061989528
 30
0.0
 10
9.113311087131393
 20
-3.755998127316207
 30
0.0
 10
9.099358450416133
 20
-3.736533337824546
 30
0.0
 10
9.065079750337895
 20
-3.736533337824546
 30
0.0
 10
9.043065590187147
 20
-3.736533337824546
 30
0.0
 10
9.021912703907716
 20
-3.746265732570376
 30
0.0
 10
9.010061575438456
 20
-3.754723441986665
 30
0.0
 10
9.010061575438456
 20
-3.754723441986665
 30
0.0
 10
9.00034640617005
 20
-3.727644991472601
 30
0.0
 10
9.00034640617005
 20
-3.727644991472601
 30
0.0
 10
9.014712454343543
 20
-3.717068548332882
 30
0.0
 10
9.04265217872892
 20
-3.706492105193166
 30
0.0
 10
9.072279999902068
 20
-3.706492105193166
 30
0.0
 10
9.126436900930194
 20
-3.706492105193166
 30
0.0
 10
9.150965980785175
 20
-3.738652071547972
 30
0.0
 10
9.150965980785175
 20
-3.772069497754896
 30
0.0
 10
9.150965980785175
 20
-3.800422633598504
 30
0.0
 10
9.134050561952598
 20
-3.824538301995254
 30
0.0
 10
9.100185273332591
 20
-3.836802841922743
 30
0.0
 10
9.100185273332591
 20
-3.836802841922743
 30
0.0
 10
9.100185273332591
 20
-3.837664115794055
 30
0.0
 10
9.100185273332591
 20
-3.837664115794055
 30
0.0
 10
9.134050561952598
 20
-3.844433728422572
 30
0.0
 10
9.161542423924892
 20
-3.869806856671435
 30
0.0
 10
9.161542423924892
 20
-3.908323024196528
 30
0.0
 10
9.161542423924892
 20
-3.95231689354317
 30
0.0
 10
9.127263723846656
 20
-3.990815835590836
 30
0.0
 10
9.061255694349267
 20
-3.990815835590836
 30
0.0
 10
9.030387638801428
 20
-3.990815835590836
 30
0.0
 10
9.003309188287365
 20
-3.981083440845006
 30
0.0
 10
8.989769963030335
 20
-3.972195094493061
 30
0.0
 10
8.989769963030335
 20
-3.972195094493061
 30
0.0
 10
8.999932994711818
 20
-3.943428547191226
 30
0.0
 10
8.999932994711818
 20
-3.943428547191226
 30
0.0
  0
HATCH
  5
1CB
330
1C4
100
AcDbEntity
  8
Livello 2
 62
   250
420
  1907995
440
 33554687
100
AcDbHatch
 10
0.0
 20
0.0
 30
0.0
210
0.0
220
0.0
230
1.0
  2
SOLID
 70
     1
 71
     1
 91
        1
 92
        1
 93
        1
 72
     4
 94
        3
 73
     0
 74
     0
 95
       59
 96
       55
 40
0.0
 40
0.0
 40
0.0
 40
0.0
 40
1.0
 40
1.0
 40
1.0
 40
2.0
 40
2.0
 40
2.0
 40
3.0
 40
3.0
 40
3.0
 40
4.0
 40
4.0
 40
4.0
 40
5.0
 40
5.0
 40
5.0
 40
6.0
 40
6.0
 40
6.0
 40
7.0
 40
7.0
 40
7.0
 40
8.0
 40
8.0
 40
8.0
 40
9.0
 40
9.0
 40
9.0
 40
10.0
 40
10.0
 40
10.0
 40
11.0
 40
11.0
 40
11.0
 40
12.0
 40
12.0
 40
12.0
 40
13.0
 40
13.0
 40
13.0
 40
14.0
 40
14.0
 40
14.0
 40
15.0
 40
15.0
 40
15.0
 40
16.0
 40
16.0
 40
16.0
 40
17.0
 40
17.0
 40
17.0
 40
18.0
 40
18.0
 40
18.0
 40
18.0
 10
8.999932994711818
 20
-3.943428547191226
 10
9.010509437851537
 20
-3.950198159819741
 10
9.035038517706516
 20
-3.960774602959459
 10
9.060842282891037
 20
-3.960774602959459
 10
9.108660208226305
 20
-3.960774602959459
 10
9.123474118812881
 20
-3.93031995886985
 10
9.123026256399796
 20
-3.907461750325216
 10
9.122612844941567
 20
-3.868962808277548
 10
9.0879207334051
 20
-3.852460800903203
 10
9.051953936539092
 20
-3.852460800903203
 10
9.051953936539092
 20
-3.852460800903203
 10
9.03121446171789
 20
-3.852460800903203
 10
9.03121446171789
 20
-3.852460800903203
 10
9.03121446171789
 20
-3.852460800903203
 10
9.03121446171789
 20
-3.824538301995254
 10
9.03121446171789
 20
-3.824538301995254
 10
9.03121446171789
 20
-3.824538301995254
 10
9.051953936539092
 20
-3.824538301995254
 10
9.051953936539092
 20
-3.824538301995254
 10
9.079032387053155
 20
-3.824538301995254
 10
9.113311087131393
 20
-3.810585665279991
 10
9.113311087131393
 20
-3.777995061989528
 10
9.113311087131393
 20
-3.755998127316207
 10
9.099358450416133
 20
-3.736533337824546
 10
9.065079750337895
 20
-3.736533337824546
 10
9.043065590187147
 20
-3.736533337824546
 10
9.021912703907716
 20
-3.746265732570376
 10
9.010061575438456
 20
-3.754723441986665
 10
9.010061575438456
 20
-3.754723441986665
 10
9.00034640617005
 20
-3.727644991472601
 10
9.00034640617005
 20
-3.727644991472601
 10
9.014712454343543
 20
-3.717068548332882
 10
9.04265217872892
 20
-3.706492105193166
 10
9.072279999902068
 20
-3.706492105193166
 10
9.126436900930194
 20
-3.706492105193166
 10
9.150965980785175
 20
-3.738652071547972
 10
9.150965980785175
 20
-3.772069497754896
 10
9.150965980785175
 20
-3.800422633598504
 10
9.134050561952598
 20
-3.824538301995254
 10
9.100185273332591
 20
-3.836802841922743
 10
9.100185273332591
 20
-3.836802841922743
 10
9.100185273332591
 20
-3.837664115794055
 10
9.100185273332591
 20
-3.837664115794055
 10
9.134050561952598
 20
-3.844433728422572
 10
9.161542423924892
 20
-3.869806856671435
 10
9.161542423924892
 20
-3.908323024196528
 10
9.161542423924892
 20
-3.95231689354317
 10
9.127263723846656
 20
-3.990815835590836
 10
9.061255694349267
 20
-3.990815835590836
 10
9.030387638801428
 20
-3.990815835590836
 10
9.003309188287365
 20
-3.981083440845006
 10
8.989769963030335
 20
-3.972195094493061
 10
8.989769963030335
 20
-3.972195094493061
 10
8.999932994711818
 20
-3.943428547191226
 10
8.999932994711818
 20
-3.943428547191226
 97
        0
 97
        1
330
1CA
 75
     2
 76
     1
 98
        1
 10
0.0
 20
0.0
450
        0
451
        0
460
0.0
461
0.0
452
        0
462
0.0
453
        0
470

  0
SPLINE
  5
1CC
330
1C4
100
AcDbEntity
  8
Livello 2
100
AcDbSpline
210
0.0
220
0.0
230
1.0
 70
     9
 71
     3
 72
    17
 73
    13
 74
     0
 42
0.000000001
 43
0.0000000001
 40
0.0
 40
0.0
 40
0.0
 40
0.0
 40
1.0
 40
1.0
 40
1.0
 40
2.0
 40
2.0
 40
2.0
 40
3.0
 40
3.0
 40
3.0
 40
4.0
 40
4.0
 40
4.0
 40
4.0
 10
9.195924476867684
 20
-4.038203123990448
 30
0.0
 10
9.205226234677859
 20
-4.013243407199813
 30
0.0
 10
9.216629500734036
 20
-3.967974852523631
 30
0.0
 10
9.221280379639122
 20
-3.937089571498365
 30
0.0
 10
9.221280379639122
 20
-3.937089571498365
 30
0.0
 10
9.262759329281527
 20
-3.932852104051508
 30
0.0
 10
9.262759329281527
 20
-3.932852104051508
 30
0.0
 10
9.253009709058273
 20
-3.968818900917516
 30
0.0
 10
9.234406193437925
 20
-4.015775552381471
 30
0.0
 10
9.222555064968664
 20
-4.03567097880879
 30
0.0
 10
9.222555064968664
 20
-4.03567097880879
 30
0.0
 10
9.195924476867684
 20
-4.038203123990448
 30
0.0
 10
9.195924476867684
 20
-4.038203123990448
 30
0.0
  0
HATCH
  5
1CD
330
1C4
100
AcDbEntity
  8
Livello 2
 62
   250
420
  1907995
440
 33554687
100
AcDbHatch
 10
0.0
 20
0.0
 30
0.0
210
0.0
220
0.0
230
1.0
  2
SOLID
 70
     1
 71
     1
 91
        1
 92
        1
 93
        1
 72
     4
 94
        3
 73
     0
 74
     0
 95
       17
 96
       13
 40
0.0
 40
0.0
 40
0.0
 40
0.0
 40
1.0
 40
1.0
 40
1.0
 40
2.0
 40
2.0
 40
2.0
 40
3.0
 40
3.0
 40
3.0
 40
4.0
 40
4.0
 40
4.0
 40
4.0
 10
9.195924476867684
 20
-4.038203123990448
 10
9.205226234677859
 20
-4.013243407199813
 10
9.216629500734036
 20
-3.967974852523631
 10
9.221280379639122
 20
-3.937089571498365
 10
9.221280379639122
 20
-3.937089571498365
 10
9.262759329281527
 20
-3.932852104051508
 10
9.262759329281527
 20
-3.932852104051508
 10
9.253009709058273
 20
-3.968818900917516
 10
9.234406193437925
 20
-4.015775552381471
 10
9.222555064968664
 20
-4.03567097880879
 10
9.222555064968664
 20
-4.03567097880879
 10
9.195924476867684
 20
-4.038203123990448
 10
9.195924476867684
 20
-4.038203123990448
 97
        0
 97
        1
330
1CC
 75
     2
 76
     1
 98
        1
 10
0.0
 20
0.0
450
        0
451
        0
460
0.0
461
0.0
452
        0
462
0.0
453
        0
470

  0
SPLINE
  5
1CE
330
1C4
100
AcDbEntity
  8
Livello 2
100
AcDbSpline
210
0.0
220
0.0
230
1.0
 70
    11
 71
     3
 72
    50
 73
    46
 74
     0
 42
0.000000001
 43
0.0000000001
 40
0.0
 40
0.0
 40
0.0
 40
0.0
 40
1.0
 40
1.0
 40
1.0
 40
2.0
 40
2.0
 40
2.0
 40
3.0
 40
3.0
 40
3.0
 40
4.0
 40
4.0
 40
4.0
 40
5.0
 40
5.0
 40
5.0
 40
6.0
 40
6.0
 40
6.0
 40
7.0
 40
7.0
 40
7.0
 40
8.0
 40
8.0
 40
8.0
 40
9.0
 40
9.0
 40
9.0
 40
10.0
 40
10.0
 40
10.0
 40
11.0
 40
11.0
 40
11.0
 40
12.0
 40
12.0
 40
12.0
 40
13.0
 40
13.0
 40
13.0
 40
14.0
 40
14.0
 40
14.0
 40
15.0
 40
15.0
 40
15.0
 40
15.0
 10
9.459991045812083
 20
-3.742458902059176
 30
0.0
 10
9.459991045812083
 20
-3.742458902059176
 30
0.0
 10
9.355053437331372
 20
-3.742458902059176
 30
0.0
 10
9.355053437331372
 20
-3.742458902059176
 30
0.0
 10
9.355053437331372
 20
-3.742458902059176
 30
0.0
 10
9.344476994191655
 20
-3.813117810461648
 30
0.0
 10
9.344476994191655
 20
-3.813117810461648
 30
0.0
 10
9.350815969884516
 20
-3.812273762067763
 30
0.0
 10
9.356741534119146
 20
-3.811429713673877
 30
0.0
 10
9.366904565800632
 20
-3.811429713673877
 30
0.0
 10
9.388057452080069
 20
-3.811429713673877
 30
0.0
 10
9.409210338359502
 20
-3.816080592578963
 30
0.0
 10
9.426125757192076
 20
-3.826226398783026
 30
0.0
 10
9.447726505884595
 20
-3.838508164187942
 30
0.0
 10
9.465468747633632
 20
-3.862193195649033
 30
0.0
 10
9.465468747633632
 20
-3.8968853071855
 30
0.0
 10
9.465468747633632
 20
-3.950628796755398
 30
0.0
 10
9.422749563616532
 20
-3.990815835590836
 30
0.0
 10
9.363080509812007
 20
-3.990815835590836
 30
0.0
 10
9.333039277180626
 20
-3.990815835590836
 30
0.0
 10
9.307683374409188
 20
-3.982358126174548
 30
0.0
 10
9.294557560610382
 20
-3.973900416758258
 30
0.0
 10
9.294557560610382
 20
-3.973900416758258
 30
0.0
 10
9.303859318420562
 20
-3.945547280914653
 30
0.0
 10
9.303859318420562
 20
-3.945547280914653
 30
0.0
 10
9.315297035431591
 20
-3.95231689354317
 30
0.0
 10
9.337724607040568
 20
-3.960774602959459
 30
0.0
 10
9.362667098353773
 20
-3.960774602959459
 30
0.0
 10
9.397772621348472
 20
-3.960774602959459
 30
0.0
 10
9.427813853979847
 20
-3.937933619892251
 30
0.0
 10
9.427813853979847
 20
-3.901122774632355
 30
0.0
 10
9.427400442521618
 20
-3.865586614702004
 30
0.0
 10
9.403698185583099
 20
-3.840196260975713
 30
0.0
 10
9.348714461638516
 20
-3.840196260975713
 30
0.0
 10
9.333039277180626
 20
-3.840196260975713
 30
0.0
 10
9.320774737253136
 20
-3.841884357763487
 30
0.0
 10
9.310646156526503
 20
-3.843159043093028
 30
0.0
 10
9.310646156526503
 20
-3.843159043093028
 30
0.0
 10
9.328388398275539
 20
-3.711142984098255
 30
0.0
 10
9.328388398275539
 20
-3.711142984098255
 30
0.0
 10
9.328388398275539
 20
-3.711142984098255
 30
0.0
 10
9.459991045812083
 20
-3.711142984098255
 30
0.0
 10
9.459991045812083
 20
-3.711142984098255
 30
0.0
 10
9.459991045812083
 20
-3.711142984098255
 30
0.0
 10
9.459991045812083
 20
-3.742458902059176
 30
0.0
 10
9.459991045812083
 20
-3.742458902059176
 30
0.0
  0
HATCH
  5
1CF
330
1C4
100
AcDbEntity
  8
Livello 2
 62
   250
420
  1907995
440
 33554687
100
AcDbHatch
 10
0.0
 20
0.0
 30
0.0
210
0.0
220
0.0
230
1.0
  2
SOLID
 70
     1
 71
     1
 91
        1
 92
        1
 93
        1
 72
     4
 94
        3
 73
     0
 74
     0
 95
       50
 96
       46
 40
0.0
 40
0.0
 40
0.0
 40
0.0
 40
1.0
 40
1.0
 40
1.0
 40
2.0
 40
2.0
 40
2.0
 40
3.0
 40
3.0
 40
3.0
 40
4.0
 40
4.0
 40
4.0
 40
5.0
 40
5.0
 40
5.0
 40
6.0
 40
6.0
 40
6.0
 40
7.0
 40
7.0
 40
7.0
 40
8.0
 40
8.0
 40
8.0
 40
9.0
 40
9.0
 40
9.0
 40
10.0
 40
10.0
 40
10.0
 40
11.0
 40
11.0
 40
11.0
 40
12.0
 40
12.0
 40
12.0
 40
13.0
 40
13.0
 40
13.0
 40
14.0
 40
14.0
 40
14.0
 40
15.0
 40
15.0
 40
15.0
 40
15.0
 10
9.459991045812083
 20
-3.742458902059176
 10
9.459991045812083
 20
-3.742458902059176
 10
9.355053437331372
 20
-3.742458902059176
 10
9.355053437331372
 20
-3.742458902059176
 10
9.355053437331372
 20
-3.742458902059176
 10
9.344476994191655
 20
-3.813117810461648
 10
9.344476994191655
 20
-3.813117810461648
 10
9.350815969884516
 20
-3.812273762067763
 10
9.356741534119146
 20
-3.811429713673877
 10
9.366904565800632
 20
-3.811429713673877
 10
9.388057452080069
 20
-3.811429713673877
 10
9.409210338359502
 20
-3.816080592578963
 10
9.426125757192076
 20
-3.826226398783026
 10
9.447726505884595
 20
-3.838508164187942
 10
9.465468747633632
 20
-3.862193195649033
 10
9.465468747633632
 20
-3.8968853071855
 10
9.465468747633632
 20
-3.950628796755398
 10
9.422749563616532
 20
-3.990815835590836
 10
9.363080509812007
 20
-3.990815835590836
 10
9.333039277180626
 20
-3.990815835590836
 10
9.307683374409188
 20
-3.982358126174548
 10
9.294557560610382
 20
-3.973900416758258
 10
9.294557560610382
 20
-3.973900416758258
 10
9.303859318420562
 20
-3.945547280914653
 10
9.303859318420562
 20
-3.945547280914653
 10
9.315297035431591
 20
-3.95231689354317
 10
9.337724607040568
 20
-3.960774602959459
 10
9.362667098353773
 20
-3.960774602959459
 10
9.397772621348472
 20
-3.960774602959459
 10
9.427813853979847
 20
-3.937933619892251
 10
9.427813853979847
 20
-3.901122774632355
 10
9.427400442521618
 20
-3.865586614702004
 10
9.403698185583099
 20
-3.840196260975713
 10
9.348714461638516
 20
-3.840196260975713
 10
9.333039277180626
 20
-3.840196260975713
 10
9.320774737253136
 20
-3.841884357763487
 10
9.310646156526503
 20
-3.843159043093028
 10
9.310646156526503
 20
-3.843159043093028
 10
9.328388398275539
 20
-3.711142984098255
 10
9.328388398275539
 20
-3.711142984098255
 10
9.328388398275539
 20
-3.711142984098255
 10
9.459991045812083
 20
-3.711142984098255
 10
9.459991045812083
 20
-3.711142984098255
 10
9.459991045812083
 20
-3.711142984098255
 10
9.459991045812083
 20
-3.742458902059176
 10
9.459991045812083
 20
-3.742458902059176
 97
        0
 97
        1
330
1CE
 75
     2
 76
     1
 98
        1
 10
0.0
 20
0.0
450
        0
451
        0
460
0.0
461
0.0
452
        0
462
0.0
453
        0
470

  0
ENDBLK
  5
1C7
330
1C4
100
AcDbEntity
  8
0
100
AcDbBlockEnd
  0
BLOCK
  5
1D3
330
1D1
100
AcDbEntity
  8
0
100
AcDbBlockBegin
  2
Block_4
 70
     0
 10
0.0
 20
0.0
 30
0.0
  3
Block_4
  1

  0
INSERT
  5
1D6
330
1D1
100
AcDbEntity
  8
Livello 2
100
AcDbBlockReference
  2
Block_5
 10
0.0
 20
0.0
 30
0.0
  0
ENDBLK
  5
1D4
330
1D1
100
AcDbEntity
  8
0
100
AcDbBlockEnd
  0
BLOCK
  5
1D7
330
1D5
100
AcDbEntity
  8
0
100
AcDbBlockBegin
  2
Block_5
 70
     0
 10
0.0
 20
0.0
 30
0.0
  3
Block_5
  1

  0
SPLINE
  5
1D9
330
1D5
100
AcDbEntity
  8
Livello 2
100
AcDbSpline
210
0.0
220
0.0
230
1.0
 70
     9
 71
     3
 72
    59
 73
    55
 74
     0
 42
0.000000001
 43
0.0000000001
 40
0.0
 40
0.0
 40
0.0
 40
0.0
 40
1.0
 40
1.0
 40
1.0
 40
2.0
 40
2.0
 40
2.0
 40
3.0
 40
3.0
 40
3.0
 40
4.0
 40
4.0
 40
4.0
 40
5.0
 40
5.0
 40
5.0
 40
6.0
 40
6.0
 40
6.0
 40
7.0
 40
7.0
 40
7.0
 40
8.0
 40
8.0
 40
8.0
 40
9.0
 40
9.0
 40
9.0
 40
10.0
 40
10.0
 40
10.0
 40
11.0
 40
11.0
 40
11.0
 40
12.0
 40
12.0
 40
12.0
 40
13.0
 40
13.0
 40
13.0
 40
14.0
 40
14.0
 40
14.0
 40
15.0
 40
15.0
 40
15.0
 40
16.0
 40
16.0
 40
16.0
 40
17.0
 40
17.0
 40
17.0
 40
18.0
 40
18.0
 40
18.0
 40
18.0
 10
4.000651583201222
 20
-1.509485812339639
 30
0.0
 10
4.01122802634094
 20
-1.516255424968158
 30
0.0
 10
4.035774331673346
 20
-1.526831868107874
 30
0.0
 10
4.061578096857868
 20
-1.526831868107874
 30
0.0
 10
4.109396022193136
 20
-1.526831868107874
 30
0.0
 10
4.124192707302285
 20
-1.496377224018266
 30
0.0
 10
4.123779295844054
 20
-1.473519015473633
 30
0.0
 10
4.123348658908398
 20
-1.435020073425965
 30
0.0
 10
4.088656547371932
 20
-1.41851806605162
 30
0.0
 10
4.052689750505924
 20
-1.41851806605162
 30
0.0
 10
4.052689750505924
 20
-1.41851806605162
 30
0.0
 10
4.031967501162146
 20
-1.41851806605162
 30
0.0
 10
4.031967501162146
 20
-1.41851806605162
 30
0.0
 10
4.031967501162146
 20
-1.41851806605162
 30
0.0
 10
4.031967501162146
 20
-1.39059556714367
 30
0.0
 10
4.031967501162146
 20
-1.39059556714367
 30
0.0
 10
4.031967501162146
 20
-1.39059556714367
 30
0.0
 10
4.052689750505924
 20
-1.39059556714367
 30
0.0
 10
4.052689750505924
 20
-1.39059556714367
 30
0.0
 10
4.079768201019986
 20
-1.39059556714367
 30
0.0
 10
4.114046901098223
 20
-1.376642930428408
 30
0.0
 10
4.114046901098223
 20
-1.344052327137944
 30
0.0
 10
4.114046901098223
 20
-1.322055392464625
 30
0.0
 10
4.100077038905536
 20
-1.30259060297296
 30
0.0
 10
4.065815564304726
 20
-1.30259060297296
 30
0.0
 10
4.043818629631406
 20
-1.30259060297296
 30
0.0
 10
4.022648517874547
 20
-1.312322997718792
 30
0.0
 10
4.010814614882709
 20
-1.320780707135082
 30
0.0
 10
4.010814614882709
 20
-1.320780707135082
 30
0.0
 10
4.001082220136882
 20
-1.293702256621018
 30
0.0
 10
4.001082220136882
 20
-1.293702256621018
 30
0.0
 10
4.015465493787798
 20
-1.283125813481301
 30
0.0
 10
4.043387992695747
 20
-1.272549370341583
 30
0.0
 10
4.072998588391469
 20
-1.272549370341583
 30
0.0
 10
4.1271554894196
 20
-1.272549370341583
 30
0.0
 10
4.151701794752002
 20
-1.304709336696389
 30
0.0
 10
4.151701794752002
 20
-1.338126762903314
 30
0.0
 10
4.151701794752002
 20
-1.366479898746919
 30
0.0
 10
4.134769150442001
 20
-1.39059556714367
 30
0.0
 10
4.100921087299422
 20
-1.402860107071159
 30
0.0
 10
4.100921087299422
 20
-1.402860107071159
 30
0.0
 10
4.100921087299422
 20
-1.403721380942472
 30
0.0
 10
4.100921087299422
 20
-1.403721380942472
 30
0.0
 10
4.134769150442001
 20
-1.410490993570988
 30
0.0
 10
4.162278237891722
 20
-1.43586412181985
 30
0.0
 10
4.162278237891722
 20
-1.474380289344946
 30
0.0
 10
4.162278237891722
 20
-1.518374158691585
 30
0.0
 10
4.127999537813486
 20
-1.556873100739253
 30
0.0
 10
4.062008733793525
 20
-1.556873100739253
 30
0.0
 10
4.031123452768259
 20
-1.556873100739253
 30
0.0
 10
4.004045002254196
 20
-1.547140705993423
 30
0.0
 10
3.990505776997165
 20
-1.538252359641478
 30
0.0
 10
3.990505776997165
 20
-1.538252359641478
 30
0.0
 10
4.000651583201222
 20
-1.509485812339639
 30
0.0
 10
4.000651583201222
 20
-1.509485812339639
 30
0.0
  0
HATCH
  5
1DA
330
1D5
100
AcDbEntity
  8
Livello 2
 62
   250
420
  1907995
440
 33554687
100
AcDbHatch
 10
0.0
 20
0.0
 30
0.0
210
0.0
220
0.0
230
1.0
  2
SOLID
 70
     1
 71
     1
 91
        1
 92
        1
 93
        1
 72
     4
 94
        3
 73
     0
 74
     0
 95
       59
 96
       55
 40
0.0
 40
0.0
 40
0.0
 40
0.0
 40
1.0
 40
1.0
 40
1.0
 40
2.0
 40
2.0
 40
2.0
 40
3.0
 40
3.0
 40
3.0
 40
4.0
 40
4.0
 40
4.0
 40
5.0
 40
5.0
 40
5.0
 40
6.0
 40
6.0
 40
6.0
 40
7.0
 40
7.0
 40
7.0
 40
8.0
 40
8.0
 40
8.0
 40
9.0
 40
9.0
 40
9.0
 40
10.0
 40
10.0
 40
10.0
 40
11.0
 40
11.0
 40
11.0
 40
12.0
 40
12.0
 40
12.0
 40
13.0
 40
13.0
 40
13.0
 40
14.0
 40
14.0
 40
14.0
 40
15.0
 40
15.0
 40
15.0
 40
16.0
 40
16.0
 40
16.0
 40
17.0
 40
17.0
 40
17.0
 40
18.0
 40
18.0
 40
18.0
 40
18.0
 10
4.000651583201222
 20
-1.509485812339639
 10
4.01122802634094
 20
-1.516255424968158
 10
4.035774331673346
 20
-1.526831868107874
 10
4.061578096857868
 20
-1.526831868107874
 10
4.109396022193136
 20
-1.526831868107874
 10
4.124192707302285
 20
-1.496377224018266
 10
4.123779295844054
 20
-1.473519015473633
 10
4.123348658908398
 20
-1.435020073425965
 10
4.088656547371932
 20
-1.41851806605162
 10
4.052689750505924
 20
-1.41851806605162
 10
4.052689750505924
 20
-1.41851806605162
 10
4.031967501162146
 20
-1.41851806605162
 10
4.031967501162146
 20
-1.41851806605162
 10
4.031967501162146
 20
-1.41851806605162
 10
4.031967501162146
 20
-1.39059556714367
 10
4.031967501162146
 20
-1.39059556714367
 10
4.031967501162146
 20
-1.39059556714367
 10
4.052689750505924
 20
-1.39059556714367
 10
4.052689750505924
 20
-1.39059556714367
 10
4.079768201019986
 20
-1.39059556714367
 10
4.114046901098223
 20
-1.376642930428408
 10
4.114046901098223
 20
-1.344052327137944
 10
4.114046901098223
 20
-1.322055392464625
 10
4.100077038905536
 20
-1.30259060297296
 10
4.065815564304726
 20
-1.30259060297296
 10
4.043818629631406
 20
-1.30259060297296
 10
4.022648517874547
 20
-1.312322997718792
 10
4.010814614882709
 20
-1.320780707135082
 10
4.010814614882709
 20
-1.320780707135082
 10
4.001082220136882
 20
-1.293702256621018
 10
4.001082220136882
 20
-1.293702256621018
 10
4.015465493787798
 20
-1.283125813481301
 10
4.043387992695747
 20
-1.272549370341583
 10
4.072998588391469
 20
-1.272549370341583
 10
4.1271554894196
 20
-1.272549370341583
 10
4.151701794752002
 20
-1.304709336696389
 10
4.151701794752002
 20
-1.338126762903314
 10
4.151701794752002
 20
-1.366479898746919
 10
4.134769150442001
 20
-1.39059556714367
 10
4.100921087299422
 20
-1.402860107071159
 10
4.100921087299422
 20
-1.402860107071159
 10
4.100921087299422
 20
-1.403721380942472
 10
4.100921087299422
 20
-1.403721380942472
 10
4.134769150442001
 20
-1.410490993570988
 10
4.162278237891722
 20
-1.43586412181985
 10
4.162278237891722
 20
-1.474380289344946
 10
4.162278237891722
 20
-1.518374158691585
 10
4.127999537813486
 20
-1.556873100739253
 10
4.062008733793525
 20
-1.556873100739253
 10
4.031123452768259
 20
-1.556873100739253
 10
4.004045002254196
 20
-1.547140705993423
 10
3.990505776997165
 20
-1.538252359641478
 10
3.990505776997165
 20
-1.538252359641478
 10
4.000651583201222
 20
-1.509485812339639
 10
4.000651583201222
 20
-1.509485812339639
 97
        0
 97
        1
330
1D9
 75
     2
 76
     1
 98
        1
 10
0.0
 20
0.0
450
        0
451
        0
460
0.0
461
0.0
452
        0
462
0.0
453
        0
470

  0
SPLINE
  5
1DB
330
1D5
100
AcDbEntity
  8
Livello 2
100
AcDbSpline
210
0.0
220
0.0
230
1.0
 70
     9
 71
     3
 72
    17
 73
    13
 74
     0
 42
0.000000001
 43
0.0000000001
 40
0.0
 40
0.0
 40
0.0
 40
0.0
 40
1.0
 40
1.0
 40
1.0
 40
2.0
 40
2.0
 40
2.0
 40
3.0
 40
3.0
 40
3.0
 40
4.0
 40
4.0
 40
4.0
 40
4.0
 10
4.242359482446352
 20
-1.415985920869959
 30
0.0
 10
4.242359482446352
 20
-1.487488877666321
 30
0.0
 10
4.264356417119674
 20
-1.528106553437415
 30
0.0
 10
4.298204480262254
 20
-1.528106553437415
 30
0.0
 10
4.336290010851691
 20
-1.528106553437415
 30
0.0
 10
4.354480115013807
 20
-1.483682047155119
 30
0.0
 10
4.354480115013807
 20
-1.413436550210874
 30
0.0
 10
4.354480115013807
 20
-1.345740423925717
 30
0.0
 10
4.337134059245577
 20
-1.301315917643418
 30
0.0
 10
4.29863511719791
 20
-1.301315917643418
 30
0.0
 10
4.266044513907447
 20
-1.301315917643418
 30
0.0
 10
4.242359482446352
 20
-1.341089545020629
 30
0.0
 10
4.242359482446352
 20
-1.415985920869959
 30
0.0
  0
SPLINE
  5
1DC
330
1D5
100
AcDbEntity
  8
Livello 2
100
AcDbSpline
210
0.0
220
0.0
230
1.0
 70
     9
 71
     3
 72
    17
 73
    13
 74
     0
 42
0.000000001
 43
0.0000000001
 40
0.0
 40
0.0
 40
0.0
 40
0.0
 40
1.0
 40
1.0
 40
1.0
 40
2.0
 40
2.0
 40
2.0
 40
3.0
 40
3.0
 40
3.0
 40
4.0
 40
4.0
 40
4.0
 40
4.0
 10
4.391704371731933
 20
-1.411748453423103
 30
0.0
 10
4.391704371731933
 20
-1.505265570370208
 30
0.0
 10
4.357012260195467
 20
-1.556873100739253
 30
0.0
 10
4.296085746538825
 20
-1.556873100739253
 30
0.0
 10
4.242359482446352
 20
-1.556873100739253
 30
0.0
 10
4.205962048644686
 20
-1.506523030222326
 30
0.0
 10
4.205118000250803
 20
-1.415555283934305
 30
0.0
 10
4.205118000250803
 20
-1.323330077794167
 30
0.0
 10
4.244891627628009
 20
-1.272549370341583
 30
0.0
 10
4.300736625443912
 20
-1.272549370341583
 30
0.0
 10
4.35870035698324
 20
-1.272549370341583
 30
0.0
 10
4.391704371731933
 20
-1.324174126188053
 30
0.0
 10
4.391704371731933
 20
-1.411748453423103
 30
0.0
  0
HATCH
  5
1DD
330
1D5
100
AcDbEntity
  8
Livello 2
 62
   250
420
  1907995
440
 33554687
100
AcDbHatch
 10
0.0
 20
0.0
 30
0.0
210
0.0
220
0.0
230
1.0
  2
SOLID
 70
     1
 71
     1
 91
        2
 92
        1
 93
        1
 72
     4
 94
        3
 73
     0
 74
     0
 95
       17
 96
       13
 40
0.0
 40
0.0
 40
0.0
 40
0.0
 40
1.0
 40
1.0
 40
1.0
 40
2.0
 40
2.0
 40
2.0
 40
3.0
 40
3.0
 40
3.0
 40
4.0
 40
4.0
 40
4.0
 40
4.0
 10
4.242359482446352
 20
-1.415985920869959
 10
4.242359482446352
 20
-1.487488877666321
 10
4.264356417119674
 20
-1.528106553437415
 10
4.298204480262254
 20
-1.528106553437415
 10
4.336290010851691
 20
-1.528106553437415
 10
4.354480115013807
 20
-1.483682047155119
 10
4.354480115013807
 20
-1.413436550210874
 10
4.354480115013807
 20
-1.345740423925717
 10
4.337134059245577
 20
-1.301315917643418
 10
4.29863511719791
 20
-1.301315917643418
 10
4.266044513907447
 20
-1.301315917643418
 10
4.242359482446352
 20
-1.341089545020629
 10
4.242359482446352
 20
-1.415985920869959
 97
        0
 97
        1
330
1DB
 92
        1
 93
        1
 72
     4
 94
        3
 73
     0
 74
     0
 95
       17
 96
       13
 40
0.0
 40
0.0
 40
0.0
 40
0.0
 40
1.0
 40
1.0
 40
1.0
 40
2.0
 40
2.0
 40
2.0
 40
3.0
 40
3.0
 40
3.0
 40
4.0
 40
4.0
 40
4.0
 40
4.0
 10
4.391704371731933
 20
-1.411748453423103
 10
4.391704371731933
 20
-1.505265570370208
 10
4.357012260195467
 20
-1.556873100739253
 10
4.296085746538825
 20
-1.556873100739253
 10
4.242359482446352
 20
-1.556873100739253
 10
4.205962048644686
 20
-1.506523030222326
 10
4.205118000250803
 20
-1.415555283934305
 10
4.205118000250803
 20
-1.323330077794167
 10
4.244891627628009
 20
-1.272549370341583
 10
4.300736625443912
 20
-1.272549370341583
 10
4.35870035698324
 20
-1.272549370341583
 10
4.391704371731933
 20
-1.324174126188053
 10
4.391704371731933
 20
-1.411748453423103
 97
        0
 97
        1
330
1DC
 75
     2
 76
     1
 98
        1
 10
0.0
 20
0.0
450
        0
451
        0
460
0.0
461
0.0
452
        0
462
0.0
453
        0
470

  0
ENDBLK
  5
1D8
330
1D5
100
AcDbEntity
  8
0
100
AcDbBlockEnd
  0
ENDSEC
  0
SECTION
  2
ENTITIES
  0
LINE
  5
79
330
70
100
AcDbEntity
  8
Livello 1
370
    30
100
AcDbLine
 10
7.318266352675187
 20
-3.511774169392442
 30
0.0
 11
7.318266352675187
 21
-3.522027501965828
 31
0.0
  0
SPLINE
  5
7A
330
70
100
AcDbEntity
  8
Livello 1
370
    30
100
AcDbSpline
210
0.0
220
0.0
230
1.0
 70
     8
 71
     3
 72
     8
 73
     4
 74
     0
 42
0.000000001
 43
0.0000000001
 40
0.0
 40
0.0
 40
0.0
 40
0.0
 40
1.0
 40
1.0
 40
1.0
 40
1.0
 10
7.311430797626307
 20
-3.528863057014548
 30
0.0
 10
7.31520597043633
 20
-3.528863057014548
 30
0.0
 10
7.318266352675187
 20
-3.525802674775883
 30
0.0
 10
7.318266352675187
 20
-3.522027501965828
 30
0.0
  0
LINE
  5
7B
330
70
100
AcDbEntity
  8
Livello 1
370
    30
100
AcDbLine
 10
7.311430797626307
 20
-3.528863057014548
 30
0.0
 11
7.308013020101834
 21
-3.528863057014548
 31
0.0
  0
LINE
  5
7C
330
70
100
AcDbEntity
  8
Livello 1
370
    30
100
AcDbLine
 10
7.308013020101834
 20
-3.504938614343496
 30
0.0
 11
7.311430797626307
 21
-3.504938614343496
 31
0.0
  0
SPLINE
  5
7D
330
70
100
AcDbEntity
  8
Livello 1
370
    30
100
AcDbSpline
210
0.0
220
0.0
230
1.0
 70
     8
 71
     3
 72
     8
 73
     4
 74
     0
 42
0.000000001
 43
0.0000000001
 40
0.0
 40
0.0
 40
0.0
 40
0.0
 40
1.0
 40
1.0
 40
1.0
 40
1.0
 10
7.318266352675187
 20
-3.511774169392442
 30
0.0
 10
7.318266352675187
 20
-3.507998996582386
 30
0.0
 10
7.31520597043633
 20
-3.504938614343496
 30
0.0
 10
7.311430797626307
 20
-3.504938614343496
 30
0.0
  0
LINE
  5
7E
330
70
100
AcDbEntity
  8
Livello 1
370
    15
100
AcDbLine
 10
4.377583645222784
 20
-5.475562479437582
 30
0.0
 11
4.377583645222784
 21
-5.462439976370689
 31
0.0
  0
LINE
  5
7F
330
70
100
AcDbEntity
  8
Livello 1
370
    15
100
AcDbLine
 10
3.98390935373229
 20
-5.462439976370689
 30
0.0
 11
3.98390935373229
 21
-5.475562479437582
 31
0.0
  0
SPLINE
  5
80
330
70
100
AcDbEntity
  8
Livello 1
370
    15
100
AcDbSpline
210
0.0
220
0.0
230
1.0
 70
     8
 71
     3
 72
    17
 73
    13
 74
     0
 42
0.000000001
 43
0.0000000001
 40
0.0
 40
0.0
 40
0.0
 40
0.0
 40
1.0
 40
1.0
 40
1.0
 40
2.0
 40
2.0
 40
2.0
 40
3.0
 40
3.0
 40
3.0
 40
4.0
 40
4.0
 40
4.0
 40
4.0
 10
1.54468203561542
 20
-4.543866575989715
 30
0.0
 10
1.472208599256975
 20
-4.281932497174032
 30
0.0
 10
1.201117745561202
 20
-4.128344300214596
 30
0.0
 10
0.9391836667457422
 20
-4.200817736572687
 30
0.0
 10
0.6772495879301854
 20
-4.273291172931259
 30
0.0
 10
0.5236613909703966
 20
-4.544382026626839
 30
0.0
 10
0.5961348273288403
 20
-4.806316105442495
 30
0.0
 10
0.6686082636873162
 20
-5.068250184258661
 30
0.0
 10
0.9396991173829619
 20
-5.221838381218096
 30
0.0
 10
1.20163319619855
 20
-5.149364944859941
 30
0.0
 10
1.368321544185883
 20
-5.103244648354912
 30
0.0
 10
1.498561739111065
 20
-4.973004453429731
 30
0.0
 10
1.54468203561542
 20
-4.806316105442495
 30
0.0
  0
CIRCLE
  5
81
330
70
100
AcDbEntity
  8
Livello 1
370
    15
100
AcDbCircle
 10
3.219599178304209
 20
-4.675091340716098
 30
0.0
 40
0.4920928677236672
  0
CIRCLE
  5
82
330
70
100
AcDbEntity
  8
Livello 1
370
    15
100
AcDbCircle
 10
6.697062854985252
 20
-4.675091340716098
 30
0.0
 40
0.4920928677236513
  0
SPLINE
  5
83
330
70
100
AcDbEntity
  8
Livello 1
370
    15
100
AcDbSpline
210
0.0
220
0.0
230
1.0
 70
     8
 71
     3
 72
    17
 73
    13
 74
     0
 42
0.000000001
 43
0.0000000001
 40
0.0
 40
0.0
 40
0.0
 40
0.0
 40
1.0
 40
1.0
 40
1.0
 40
2.0
 40
2.0
 40
2.0
 40
3.0
 40
3.0
 40
3.0
 40
4.0
 40
4.0
 40
4.0
 40
4.0
 10
7.451265627845432
 20
-3.628526335878283
 30
0.0
 10
7.523739064204037
 20
-3.890460414694161
 30
0.0
 10
7.794829917899842
 20
-4.044048611653694
 30
0.0
 10
8.05676399671524
 20
-3.971575175295603
 30
0.0
 10
8.31869807553115
 20
-3.899101738936709
 30
0.0
 10
8.472286272490842
 20
-3.628010885241352
 30
0.0
 10
8.399812836132046
 20
-3.366076806425443
 30
0.0
 10
8.327339399773697
 20
-3.104142727609564
 30
0.0
 10
8.056248546078341
 20
-2.950554530650095
 30
0.0
 10
7.794314467262494
 20
-3.023027967008892
 30
0.0
 10
7.627626119275002
 20
-3.069148263512798
 30
0.0
 10
7.497385924349815
 20
-3.199388458438013
 30
0.0
 10
7.451265627845432
 20
-3.366076806425443
 30
0.0
  0
CIRCLE
  5
84
330
70
100
AcDbEntity
  8
Livello 1
370
    15
100
AcDbCircle
 10
5.344647232832543
 20
-3.494068458179141
 30
0.0
 40
0.4920928677236513
  0
CIRCLE
  5
85
330
70
100
AcDbEntity
  8
Livello 1
370
    15
100
AcDbCircle
 10
1.133614820503159
 20
-3.494068458179141
 30
0.0
 40
0.4920928677237193
  0
LINE
  5
86
330
70
100
AcDbEntity
  8
Livello 1
370
    15
100
AcDbLine
 10
1.544682042792375
 20
-4.806316094077652
 30
0.0
 11
1.550126075751524
 21
-4.806316094077652
 31
0.0
  0
LINE
  5
87
330
70
100
AcDbEntity
  8
Livello 1
370
    15
100
AcDbLine
 10
1.550126075751524
 20
-4.543866570490486
 30
0.0
 11
1.544682042792375
 21
-4.543866570490486
 31
0.0
  0
SPLINE
  5
88
330
70
100
AcDbEntity
  8
Livello 1
370
    15
100
AcDbSpline
210
0.0
220
0.0
230
1.0
 70
     8
 71
     3
 72
     8
 73
     4
 74
     0
 42
0.000000001
 43
0.0000000001
 40
0.0
 40
0.0
 40
0.0
 40
0.0
 40
1.0
 40
1.0
 40
1.0
 40
1.0
 10
1.550126041272779
 20
-4.806316105442046
 30
0.0
 10
1.56541892352272
 20
-4.771020262209916
 30
0.0
 10
1.574077225988514
 20
-4.733208640779511
 30
0.0
 10
1.575667293191789
 20
-4.694775055423896
 30
0.0
  0
SPLINE
  5
89
330
70
100
AcDbEntity
  8
Livello 1
370
    15
100
AcDbSpline
210
0.0
220
0.0
230
1.0
 70
     8
 71
     3
 72
     8
 73
     4
 74
     0
 42
0.000000001
 43
0.0000000001
 40
0.0
 40
0.0
 40
0.0
 40
0.0
 40
1.0
 40
1.0
 40
1.0
 40
1.0
 10
1.575667293191789
 20
-4.655407626008316
 30
0.0
 10
1.574077225988514
 20
-4.616974040653182
 30
0.0
 10
1.56541892352272
 20
-4.579162419222294
 30
0.0
 10
1.550126041272779
 20
-4.543866575990167
 30
0.0
  0
LINE
  5
8A
330
70
100
AcDbEntity
  8
Livello 1
370
    15
100
AcDbLine
 10
5.000901288183143
 20
-2.18182085821276
 30
0.0
 11
5.000901288183143
 21
-2.004667360130508
 31
0.0
  0
LINE
  5
8B
330
70
100
AcDbEntity
  8
Livello 1
370
    15
100
AcDbLine
 10
3.360591729103796
 20
-2.004667360130508
 30
0.0
 11
3.360591729103796
 21
-2.18182085821276
 31
0.0
  0
LINE
  5
8C
330
70
100
AcDbEntity
  8
Livello 1
370
    15
100
AcDbLine
 10
2.728432757172739
 20
-4.644909638782698
 30
0.0
 11
1.589057334903785
 21
-4.644909638782698
 31
0.0
  0
LINE
  5
8D
330
70
100
AcDbEntity
  8
Livello 1
370
    15
100
AcDbLine
 10
1.589057334903785
 20
-4.705273074670554
 30
0.0
 11
2.728432757172739
 21
-4.705273074670554
 31
0.0
  0
LINE
  5
8E
330
70
100
AcDbEntity
  8
Livello 1
370
    15
100
AcDbLine
 10
4.231434850747422
 20
-3.546558366196631
 30
0.0
 11
4.271985536652171
 21
-3.546558366196631
 31
0.0
  0
LINE
  5
8F
330
70
100
AcDbEntity
  8
Livello 1
370
    15
100
AcDbLine
 10
4.271985536652171
 20
-3.441578561650663
 30
0.0
 11
4.231434850747422
 21
-3.441578561650663
 31
0.0
  0
LINE
  5
90
330
70
100
AcDbEntity
  8
Livello 1
370
    15
100
AcDbLine
 10
4.130058154318098
 20
-4.622601442232563
 30
0.0
 11
4.089507456192227
 21
-4.622601442232563
 31
0.0
  0
LINE
  5
91
330
70
100
AcDbEntity
  8
Livello 1
370
    15
100
AcDbLine
 10
4.089507456192227
 20
-4.727581271221104
 30
0.0
 11
4.130058154318098
 21
-4.727581271221104
 31
0.0
  0
LINE
  5
92
330
70
100
AcDbEntity
  8
Livello 1
370
    15
100
AcDbLine
 10
4.048042656809986
 20
-3.441578561650663
 30
0.0
 11
3.941879614451471
 21
-3.441578561650663
 31
0.0
  0
LINE
  5
93
330
70
100
AcDbEntity
  8
Livello 1
370
    15
100
AcDbLine
 10
3.941879614451471
 20
-3.546558366196631
 30
0.0
 11
4.048042656809986
 21
-3.546558366196631
 31
0.0
  0
LINE
  5
94
330
70
100
AcDbEntity
  8
Livello 1
370
    15
100
AcDbLine
 10
4.313450336034152
 20
-4.727581271221104
 30
0.0
 11
4.419613395197228
 21
-4.727581271221104
 31
0.0
  0
LINE
  5
95
330
70
100
AcDbEntity
  8
Livello 1
370
    15
100
AcDbLine
 10
4.419613395197228
 20
-4.622601442232563
 30
0.0
 11
4.313450336034152
 21
-4.622601442232563
 31
0.0
  0
LINE
  5
96
330
70
100
AcDbEntity
  8
Livello 1
370
    15
100
AcDbLine
 10
4.01671553807033
 20
-4.727581271221104
 30
0.0
 11
4.01671553807033
 21
-5.462439976370689
 31
0.0
  0
LINE
  5
97
330
70
100
AcDbEntity
  8
Livello 1
370
    15
100
AcDbLine
 10
4.01671553807033
 20
-2.18182085821276
 30
0.0
 11
4.01671553807033
 21
-3.441578561650663
 31
0.0
  0
LINE
  5
98
330
70
100
AcDbEntity
  8
Livello 1
370
    15
100
AcDbLine
 10
4.01671553807033
 20
-3.546558366196631
 30
0.0
 11
4.01671553807033
 21
-4.622601442232563
 31
0.0
  0
LINE
  5
99
330
70
100
AcDbEntity
  8
Livello 1
370
    15
100
AcDbLine
 10
4.344777454774289
 20
-3.442232350099556
 30
0.0
 11
4.344777454774289
 21
-2.18182085821276
 31
0.0
  0
LINE
  5
9A
330
70
100
AcDbEntity
  8
Livello 1
370
    15
100
AcDbLine
 10
4.344777454774289
 20
-5.462439976370689
 30
0.0
 11
4.344777454774289
 21
-4.727581271221104
 31
0.0
  0
LINE
  5
9B
330
70
100
AcDbEntity
  8
Livello 1
370
    15
100
AcDbLine
 10
4.344777454774289
 20
-4.622601442232563
 30
0.0
 11
4.344777454774289
 21
-3.546227597833542
 31
0.0
  0
LINE
  5
9C
330
70
100
AcDbEntity
  8
Livello 1
370
    15
100
AcDbLine
 10
4.344777454774289
 20
-3.546558366196631
 30
0.0
 11
4.476002219622746
 21
-3.546558366196631
 31
0.0
  0
LINE
  5
9D
330
70
100
AcDbEntity
  8
Livello 1
370
    15
100
AcDbLine
 10
4.476002219622746
 20
-3.441578561650663
 30
0.0
 11
4.344777454774289
 21
-3.441578561650663
 31
0.0
  0
LINE
  5
9E
330
70
100
AcDbEntity
  8
Livello 1
370
    15
100
AcDbLine
 10
4.01671553807033
 20
-4.622601442232563
 30
0.0
 11
3.885490776276748
 21
-4.622601442232563
 31
0.0
  0
LINE
  5
9F
330
70
100
AcDbEntity
  8
Livello 1
370
    15
100
AcDbLine
 10
3.885490776276748
 20
-4.727581271221104
 30
0.0
 11
4.01671553807033
 21
-4.727581271221104
 31
0.0
  0
SPLINE
  5
A0
330
70
100
AcDbEntity
  8
Livello 1
370
    15
100
AcDbSpline
210
0.0
220
0.0
230
1.0
 70
     8
 71
     3
 72
     8
 73
     4
 74
     0
 42
0.000000001
 43
0.0000000001
 40
0.0
 40
0.0
 40
0.0
 40
0.0
 40
1.0
 40
1.0
 40
1.0
 40
1.0
 10
1.583152281852453
 20
-4.718395513075393
 30
0.0
 10
1.586413586488484
 20
-4.718395513075393
 30
0.0
 10
1.589057396264782
 20
-4.715751703299003
 30
0.0
 10
1.589057396264782
 20
-4.712490398662744
 30
0.0
  0
SPLINE
  5
A1
330
70
100
AcDbEntity
  8
Livello 1
370
    15
100
AcDbSpline
210
0.0
220
0.0
230
1.0
 70
     8
 71
     3
 72
     8
 73
     4
 74
     0
 42
0.000000001
 43
0.0000000001
 40
0.0
 40
0.0
 40
0.0
 40
0.0
 40
1.0
 40
1.0
 40
1.0
 40
1.0
 10
1.589057396264782
 20
-4.637692282769021
 30
0.0
 10
1.589057396264782
 20
-4.63443097813321
 30
0.0
 10
1.586413586488484
 20
-4.631787168356402
 30
0.0
 10
1.583152281852453
 20
-4.631787168356402
 30
0.0
  0
LINE
  5
A2
330
70
100
AcDbEntity
  8
Livello 1
370
    15
100
AcDbLine
 10
1.583152218301211
 20
-4.63178713571667
 30
0.0
 11
1.581839948440495
 21
-4.63178713571667
 31
0.0
  0
LINE
  5
A3
330
70
100
AcDbEntity
  8
Livello 1
370
    15
100
AcDbLine
 10
1.581839948440495
 20
-4.718395479966386
 30
0.0
 11
1.583152218301211
 21
-4.718395479966386
 31
0.0
  0
SPLINE
  5
A4
330
70
100
AcDbEntity
  8
Livello 1
370
    15
100
AcDbSpline
210
0.0
220
0.0
230
1.0
 70
     8
 71
     3
 72
     8
 73
     4
 74
     0
 42
0.000000001
 43
0.0000000001
 40
0.0
 40
0.0
 40
0.0
 40
0.0
 40
1.0
 40
1.0
 40
1.0
 40
1.0
 10
1.575934919792301
 20
-4.712490398662744
 30
0.0
 10
1.575934919792301
 20
-4.715751703299003
 30
0.0
 10
1.578578729568725
 20
-4.718395513075393
 30
0.0
 10
1.58184003420508
 20
-4.718395513075393
 30
0.0
  0
SPLINE
  5
A5
330
70
100
AcDbEntity
  8
Livello 1
370
    15
100
AcDbSpline
210
0.0
220
0.0
230
1.0
 70
     8
 71
     3
 72
     8
 73
     4
 74
     0
 42
0.000000001
 43
0.0000000001
 40
0.0
 40
0.0
 40
0.0
 40
0.0
 40
1.0
 40
1.0
 40
1.0
 40
1.0
 10
1.58184003420508
 20
-4.631787168356402
 30
0.0
 10
1.578578729568725
 20
-4.631787168356402
 30
0.0
 10
1.575934919792301
 20
-4.63443097813321
 30
0.0
 10
1.575934919792301
 20
-4.637692282769021
 30
0.0
  0
LINE
  5
A6
330
70
100
AcDbEntity
  8
Livello 1
370
    15
100
AcDbLine
 10
4.271985536652171
 20
-3.524250157424951
 30
0.0
 11
4.853480792315321
 21
-3.524250157424951
 31
0.0
  0
LINE
  5
A7
330
70
100
AcDbEntity
  8
Livello 1
370
    15
100
AcDbLine
 10
4.853480792315321
 20
-3.463886758200731
 30
0.0
 11
4.271985536652171
 21
-3.463886758200731
 31
0.0
  0
LINE
  5
A8
330
70
100
AcDbEntity
  8
Livello 1
370
    15
100
AcDbLine
 10
4.419613395197228
 20
-4.705273074670554
 30
0.0
 11
6.20589646076741
 21
-4.705273074670554
 31
0.0
  0
LINE
  5
A9
330
70
100
AcDbEntity
  8
Livello 1
370
    15
100
AcDbLine
 10
6.20589646076741
 20
-4.644909638782698
 30
0.0
 11
4.419613395197228
 21
-4.644909638782698
 31
0.0
  0
LINE
  5
AA
330
70
100
AcDbEntity
  8
Livello 1
370
    15
100
AcDbLine
 10
5.000901288183143
 20
-2.18182085821276
 30
0.0
 11
5.000901288183143
 21
-2.004667360130508
 31
0.0
  0
LINE
  5
AB
330
70
100
AcDbEntity
  8
Livello 1
370
    15
100
AcDbLine
 10
3.360591729103796
 20
-2.004667360130508
 30
0.0
 11
3.360591729103796
 21
-2.18182085821276
 31
0.0
  0
LINE
  5
AC
330
70
100
AcDbEntity
  8
Livello 1
370
    15
100
AcDbLine
 10
4.130058154318098
 20
-4.622601442232563
 30
0.0
 11
4.089507456192227
 21
-4.622601442232563
 31
0.0
  0
LINE
  5
AD
330
70
100
AcDbEntity
  8
Livello 1
370
    15
100
AcDbLine
 10
4.089507456192227
 20
-4.727581271221104
 30
0.0
 11
4.130058154318098
 21
-4.727581271221104
 31
0.0
  0
LINE
  5
AE
330
70
100
AcDbEntity
  8
Livello 1
370
    15
100
AcDbLine
 10
4.231434850747422
 20
-3.546558366196631
 30
0.0
 11
4.271985536652171
 21
-3.546558366196631
 31
0.0
  0
LINE
  5
AF
330
70
100
AcDbEntity
  8
Livello 1
370
    15
100
AcDbLine
 10
4.271985536652171
 20
-3.441578561650663
 30
0.0
 11
4.231434850747422
 21
-3.441578561650663
 31
0.0
  0
LINE
  5
B0
330
70
100
AcDbEntity
  8
Livello 1
370
    15
100
AcDbLine
 10
4.313450336034152
 20
-4.727581271221104
 30
0.0
 11
4.419613395197228
 21
-4.727581271221104
 31
0.0
  0
LINE
  5
B1
330
70
100
AcDbEntity
  8
Livello 1
370
    15
100
AcDbLine
 10
4.419613395197228
 20
-4.622601442232563
 30
0.0
 11
4.313450336034152
 21
-4.622601442232563
 31
0.0
  0
LINE
  5
B2
330
70
100
AcDbEntity
  8
Livello 1
370
    15
100
AcDbLine
 10
4.01671553807033
 20
-4.727581271221104
 30
0.0
 11
4.01671553807033
 21
-5.462439976370689
 31
0.0
  0
LINE
  5
B3
330
70
100
AcDbEntity
  8
Livello 1
370
    15
100
AcDbLine
 10
4.01671553807033
 20
-2.18182085821276
 30
0.0
 11
4.01671553807033
 21
-3.441578561650663
 31
0.0
  0
LINE
  5
B4
330
70
100
AcDbEntity
  8
Livello 1
370
    15
100
AcDbLine
 10
4.01671553807033
 20
-3.546558366196631
 30
0.0
 11
4.01671553807033
 21
-4.622601442232563
 31
0.0
  0
LINE
  5
B5
330
70
100
AcDbEntity
  8
Livello 1
370
    15
100
AcDbLine
 10
4.344777454774289
 20
-3.441578561650663
 30
0.0
 11
4.344777454774289
 21
-2.18182085821276
 31
0.0
  0
LINE
  5
B6
330
70
100
AcDbEntity
  8
Livello 1
370
    15
100
AcDbLine
 10
4.344777454774289
 20
-5.462439976370689
 30
0.0
 11
4.344777454774289
 21
-4.727581271221104
 31
0.0
  0
LINE
  5
B7
330
70
100
AcDbEntity
  8
Livello 1
370
    15
100
AcDbLine
 10
4.344777454774289
 20
-4.622601442232563
 30
0.0
 11
4.344777454774289
 21
-3.545973676743849
 31
0.0
  0
LINE
  5
B8
330
70
100
AcDbEntity
  8
Livello 1
370
    15
100
AcDbLine
 10
4.048042656809986
 20
-3.441578561650663
 30
0.0
 11
3.941879614451471
 21
-3.441578561650663
 31
0.0
  0
LINE
  5
B9
330
70
100
AcDbEntity
  8
Livello 1
370
    15
100
AcDbLine
 10
3.941879614451471
 20
-3.546558366196631
 30
0.0
 11
4.048042656809986
 21
-3.546558366196631
 31
0.0
  0
LINE
  5
BA
330
70
100
AcDbEntity
  8
Livello 1
370
    15
100
AcDbLine
 10
4.01671553807033
 20
-4.622601442232563
 30
0.0
 11
3.885490776276748
 21
-4.622601442232563
 31
0.0
  0
LINE
  5
BB
330
70
100
AcDbEntity
  8
Livello 1
370
    15
100
AcDbLine
 10
3.885490776276748
 20
-4.727581271221104
 30
0.0
 11
4.01671553807033
 21
-4.727581271221104
 31
0.0
  0
LINE
  5
BC
330
70
100
AcDbEntity
  8
Livello 1
370
    15
100
AcDbLine
 10
4.344777454774289
 20
-3.546558366196631
 30
0.0
 11
4.476002219622746
 21
-3.546558366196631
 31
0.0
  0
LINE
  5
BD
330
70
100
AcDbEntity
  8
Livello 1
370
    15
100
AcDbLine
 10
4.476002219622746
 20
-3.441578561650663
 30
0.0
 11
4.344777454774289
 21
-3.441578561650663
 31
0.0
  0
LINE
  5
BE
330
70
100
AcDbEntity
  8
Livello 1
370
    15
100
AcDbLine
 10
5.000901288183143
 20
-2.18182085821276
 30
0.0
 11
5.000901288183143
 21
-2.004667360130508
 31
0.0
  0
LINE
  5
BF
330
70
100
AcDbEntity
  8
Livello 1
370
    15
100
AcDbLine
 10
3.360591729103796
 20
-2.004667360130508
 30
0.0
 11
3.360591729103796
 21
-2.18182085821276
 31
0.0
  0
LINE
  5
C0
330
70
100
AcDbEntity
  8
Livello 1
370
    15
100
AcDbLine
 10
5.835813677416002
 20
-3.524250157424951
 30
0.0
 11
7.428559466906535
 21
-3.524250157424951
 31
0.0
  0
LINE
  5
C1
330
70
100
AcDbEntity
  8
Livello 1
370
    15
100
AcDbLine
 10
7.428559466906535
 20
-3.463886758200731
 30
0.0
 11
5.835813677416002
 21
-3.463886758200731
 31
0.0
  0
LINE
  5
C2
330
70
100
AcDbEntity
  8
Livello 1
370
    15
100
AcDbLine
 10
4.130058154318098
 20
-4.622601442232563
 30
0.0
 11
4.089507456192227
 21
-4.622601442232563
 31
0.0
  0
LINE
  5
C3
330
70
100
AcDbEntity
  8
Livello 1
370
    15
100
AcDbLine
 10
4.089507456192227
 20
-4.727581271221104
 30
0.0
 11
4.130058154318098
 21
-4.727581271221104
 31
0.0
  0
LINE
  5
C4
330
70
100
AcDbEntity
  8
Livello 1
370
    15
100
AcDbLine
 10
4.231434850747422
 20
-3.546558366196631
 30
0.0
 11
4.271985536652171
 21
-3.546558366196631
 31
0.0
  0
LINE
  5
C5
330
70
100
AcDbEntity
  8
Livello 1
370
    15
100
AcDbLine
 10
4.271985536652171
 20
-3.441578561650663
 30
0.0
 11
4.231434850747422
 21
-3.441578561650663
 31
0.0
  0
LINE
  5
C6
330
70
100
AcDbEntity
  8
Livello 1
370
    15
100
AcDbLine
 10
4.313450336034152
 20
-4.727581271221104
 30
0.0
 11
4.419613395197228
 21
-4.727581271221104
 31
0.0
  0
LINE
  5
C7
330
70
100
AcDbEntity
  8
Livello 1
370
    15
100
AcDbLine
 10
4.419613395197228
 20
-4.622601442232563
 30
0.0
 11
4.313450336034152
 21
-4.622601442232563
 31
0.0
  0
LINE
  5
C8
330
70
100
AcDbEntity
  8
Livello 1
370
    15
100
AcDbLine
 10
4.048042656809986
 20
-3.441578561650663
 30
0.0
 11
3.941879614451471
 21
-3.441578561650663
 31
0.0
  0
LINE
  5
C9
330
70
100
AcDbEntity
  8
Livello 1
370
    15
100
AcDbLine
 10
3.941879614451471
 20
-3.546558366196631
 30
0.0
 11
4.048042656809986
 21
-3.546558366196631
 31
0.0
  0
LINE
  5
CA
330
70
100
AcDbEntity
  8
Livello 1
370
    15
100
AcDbLine
 10
4.01671553807033
 20
-4.727581271221104
 30
0.0
 11
4.01671553807033
 21
-5.462439976370689
 31
0.0
  0
LINE
  5
CB
330
70
100
AcDbEntity
  8
Livello 1
370
    15
100
AcDbLine
 10
4.01671553807033
 20
-2.18182085821276
 30
0.0
 11
4.01671553807033
 21
-3.441578561650663
 31
0.0
  0
LINE
  5
CC
330
70
100
AcDbEntity
  8
Livello 1
370
    15
100
AcDbLine
 10
4.01671553807033
 20
-3.546558366196631
 30
0.0
 11
4.01671553807033
 21
-4.622601442232563
 31
0.0
  0
LINE
  5
CD
330
70
100
AcDbEntity
  8
Livello 1
370
    15
100
AcDbLine
 10
4.344777454774289
 20
-3.441578561650663
 30
0.0
 11
4.344777454774289
 21
-2.18182085821276
 31
0.0
  0
LINE
  5
CE
330
70
100
AcDbEntity
  8
Livello 1
370
    15
100
AcDbLine
 10
4.344777454774289
 20
-5.462439976370689
 30
0.0
 11
4.344777454774289
 21
-4.727581271221104
 31
0.0
  0
LINE
  5
CF
330
70
100
AcDbEntity
  8
Livello 1
370
    15
100
AcDbLine
 10
4.344777454774289
 20
-4.622601442232563
 30
0.0
 11
4.344777454774289
 21
-3.545973676743849
 31
0.0
  0
LINE
  5
D0
330
70
100
AcDbEntity
  8
Livello 1
370
    15
100
AcDbLine
 10
4.01671553807033
 20
-4.622601442232563
 30
0.0
 11
3.885490776276748
 21
-4.622601442232563
 31
0.0
  0
LINE
  5
D1
330
70
100
AcDbEntity
  8
Livello 1
370
    15
100
AcDbLine
 10
3.885490776276748
 20
-4.727581271221104
 30
0.0
 11
4.01671553807033
 21
-4.727581271221104
 31
0.0
  0
LINE
  5
D2
330
70
100
AcDbEntity
  8
Livello 1
370
    15
100
AcDbLine
 10
4.344777454774289
 20
-3.546558366196631
 30
0.0
 11
4.476002219622746
 21
-3.546558366196631
 31
0.0
  0
LINE
  5
D3
330
70
100
AcDbEntity
  8
Livello 1
370
    15
100
AcDbLine
 10
4.476002219622746
 20
-3.441578561650663
 30
0.0
 11
4.344777454774289
 21
-3.441578561650663
 31
0.0
  0
SPLINE
  5
D4
330
70
100
AcDbEntity
  8
Livello 1
370
    15
100
AcDbSpline
210
0.0
220
0.0
230
1.0
 70
     8
 71
     3
 72
     8
 73
     4
 74
     0
 42
0.000000001
 43
0.0000000001
 40
0.0
 40
0.0
 40
0.0
 40
0.0
 40
1.0
 40
1.0
 40
1.0
 40
1.0
 10
7.434464540999536
 20
-3.450764285819533
 30
0.0
 10
7.431203236363534
 20
-3.450764285819533
 30
0.0
 10
7.42855942658711
 20
-3.453408095595923
 30
0.0
 10
7.42855942658711
 20
-3.456669400232406
 30
0.0
  0
SPLINE
  5
D5
330
70
100
AcDbEntity
  8
Livello 1
370
    15
100
AcDbSpline
210
0.0
220
0.0
230
1.0
 70
     8
 71
     3
 72
     8
 73
     4
 74
     0
 42
0.000000001
 43
0.0000000001
 40
0.0
 40
0.0
 40
0.0
 40
0.0
 40
1.0
 40
1.0
 40
1.0
 40
1.0
 10
7.42855942658711
 20
-3.531467516126356
 30
0.0
 10
7.42855942658711
 20
-3.534728820761941
 30
0.0
 10
7.431203236363534
 20
-3.537372630539038
 30
0.0
 10
7.434464540999536
 20
-3.537372630539038
 30
0.0
  0
LINE
  5
D6
330
70
100
AcDbEntity
  8
Livello 1
370
    15
100
AcDbLine
 10
7.43446458350921
 20
-3.537372636049082
 30
0.0
 11
7.435776853369861
 21
-3.537372636049082
 31
0.0
  0
LINE
  5
D7
330
70
100
AcDbEntity
  8
Livello 1
370
    15
100
AcDbLine
 10
7.435776853369861
 20
-3.450764279577503
 30
0.0
 11
7.43446458350921
 21
-3.450764279577503
 31
0.0
  0
SPLINE
  5
D8
330
70
100
AcDbEntity
  8
Livello 1
370
    15
100
AcDbSpline
210
0.0
220
0.0
230
1.0
 70
     8
 71
     3
 72
     8
 73
     4
 74
     0
 42
0.000000001
 43
0.0000000001
 40
0.0
 40
0.0
 40
0.0
 40
0.0
 40
1.0
 40
1.0
 40
1.0
 40
1.0
 10
7.441681903059557
 20
-3.456669400232406
 30
0.0
 10
7.441681903059557
 20
-3.453408095595923
 30
0.0
 10
7.439038093282943
 20
-3.450764285819533
 30
0.0
 10
7.435776788646878
 20
-3.450764285819533
 30
0.0
  0
SPLINE
  5
D9
330
70
100
AcDbEntity
  8
Livello 1
370
    15
100
AcDbSpline
210
0.0
220
0.0
230
1.0
 70
     8
 71
     3
 72
     8
 73
     4
 74
     0
 42
0.000000001
 43
0.0000000001
 40
0.0
 40
0.0
 40
0.0
 40
0.0
 40
1.0
 40
1.0
 40
1.0
 40
1.0
 10
7.435776788646878
 20
-3.537372630539038
 30
0.0
 10
7.439038093282943
 20
-3.537372630539038
 30
0.0
 10
7.441681903059557
 20
-3.534728820761941
 30
0.0
 10
7.441681903059557
 20
-3.531467516126356
 30
0.0
  0
LINE
  5
DA
330
70
100
AcDbEntity
  8
Livello 1
370
    15
100
AcDbLine
 10
5.000901288183143
 20
-2.18182085821276
 30
0.0
 11
5.000901288183143
 21
-2.004667360130508
 31
0.0
  0
LINE
  5
DB
330
70
100
AcDbEntity
  8
Livello 1
370
    15
100
AcDbLine
 10
3.360591729103796
 20
-2.004667360130508
 30
0.0
 11
3.360591729103796
 21
-2.18182085821276
 31
0.0
  0
LINE
  5
DC
330
70
100
AcDbEntity
  8
Livello 1
370
    15
100
AcDbLine
 10
4.130058154318098
 20
-4.622601442232563
 30
0.0
 11
4.089507456192227
 21
-4.622601442232563
 31
0.0
  0
LINE
  5
DD
330
70
100
AcDbEntity
  8
Livello 1
370
    15
100
AcDbLine
 10
4.089507456192227
 20
-4.727581271221104
 30
0.0
 11
4.130058154318098
 21
-4.727581271221104
 31
0.0
  0
LINE
  5
DE
330
70
100
AcDbEntity
  8
Livello 1
370
    15
100
AcDbLine
 10
4.231434850747422
 20
-3.546558366196631
 30
0.0
 11
4.271985536652171
 21
-3.546558366196631
 31
0.0
  0
LINE
  5
DF
330
70
100
AcDbEntity
  8
Livello 1
370
    15
100
AcDbLine
 10
4.271985536652171
 20
-3.441578561650663
 30
0.0
 11
4.231434850747422
 21
-3.441578561650663
 31
0.0
  0
LINE
  5
E0
330
70
100
AcDbEntity
  8
Livello 1
370
    15
100
AcDbLine
 10
4.048042656809986
 20
-3.441578561650663
 30
0.0
 11
3.941879614451471
 21
-3.441578561650663
 31
0.0
  0
LINE
  5
E1
330
70
100
AcDbEntity
  8
Livello 1
370
    15
100
AcDbLine
 10
3.941879614451471
 20
-3.546558366196631
 30
0.0
 11
4.048042656809986
 21
-3.546558366196631
 31
0.0
  0
LINE
  5
E2
330
70
100
AcDbEntity
  8
Livello 1
370
    15
100
AcDbLine
 10
4.313450336034152
 20
-4.727581271221104
 30
0.0
 11
4.419613395197228
 21
-4.727581271221104
 31
0.0
  0
LINE
  5
E3
330
70
100
AcDbEntity
  8
Livello 1
370
    15
100
AcDbLine
 10
4.419613395197228
 20
-4.622601442232563
 30
0.0
 11
4.313450336034152
 21
-4.622601442232563
 31
0.0
  0
LINE
  5
E4
330
70
100
AcDbEntity
  8
Livello 1
370
    15
100
AcDbLine
 10
4.01671553807033
 20
-4.727581271221104
 30
0.0
 11
4.01671553807033
 21
-5.462439976370689
 31
0.0
  0
LINE
  5
E5
330
70
100
AcDbEntity
  8
Livello 1
370
    15
100
AcDbLine
 10
4.01671553807033
 20
-2.18182085821276
 30
0.0
 11
4.01671553807033
 21
-3.441578561650663
 31
0.0
  0
LINE
  5
E6
330
70
100
AcDbEntity
  8
Livello 1
370
    15
100
AcDbLine
 10
4.01671553807033
 20
-3.546558366196631
 30
0.0
 11
4.01671553807033
 21
-4.622601442232563
 31
0.0
  0
LINE
  5
E7
330
70
100
AcDbEntity
  8
Livello 1
370
    15
100
AcDbLine
 10
4.344777454774289
 20
-3.441578561650663
 30
0.0
 11
4.344777454774289
 21
-2.18182085821276
 31
0.0
  0
LINE
  5
E8
330
70
100
AcDbEntity
  8
Livello 1
370
    15
100
AcDbLine
 10
4.344777454774289
 20
-5.462439976370689
 30
0.0
 11
4.344777454774289
 21
-4.727581271221104
 31
0.0
  0
LINE
  5
E9
330
70
100
AcDbEntity
  8
Livello 1
370
    15
100
AcDbLine
 10
4.344777454774289
 20
-4.622601442232563
 30
0.0
 11
4.344777454774289
 21
-3.545973676743849
 31
0.0
  0
LINE
  5
EA
330
70
100
AcDbEntity
  8
Livello 1
370
    15
100
AcDbLine
 10
4.01671553807033
 20
-4.622601442232563
 30
0.0
 11
3.885490776276748
 21
-4.622601442232563
 31
0.0
  0
LINE
  5
EB
330
70
100
AcDbEntity
  8
Livello 1
370
    15
100
AcDbLine
 10
3.885490776276748
 20
-4.727581271221104
 30
0.0
 11
4.01671553807033
 21
-4.727581271221104
 31
0.0
  0
LINE
  5
EC
330
70
100
AcDbEntity
  8
Livello 1
370
    15
100
AcDbLine
 10
4.344777454774289
 20
-3.546558366196631
 30
0.0
 11
4.476002219622746
 21
-3.546558366196631
 31
0.0
  0
LINE
  5
ED
330
70
100
AcDbEntity
  8
Livello 1
370
    15
100
AcDbLine
 10
4.476002219622746
 20
-3.441578561650663
 30
0.0
 11
4.344777454774289
 21
-3.441578561650663
 31
0.0
  0
LINE
  5
EE
330
70
100
AcDbEntity
  8
Livello 1
370
    15
100
AcDbLine
 10
4.089507456192227
 20
-4.644909638782698
 30
0.0
 11
3.710765593388372
 21
-4.644909638782698
 31
0.0
  0
LINE
  5
EF
330
70
100
AcDbEntity
  8
Livello 1
370
    15
100
AcDbLine
 10
3.710765593388372
 20
-4.705273074670554
 30
0.0
 11
4.089507456192227
 21
-4.705273074670554
 31
0.0
  0
LINE
  5
F0
330
70
100
AcDbEntity
  8
Livello 1
370
    15
100
AcDbLine
 10
3.941879614451471
 20
-3.463886758200731
 30
0.0
 11
1.624781149186075
 21
-3.463886758200731
 31
0.0
  0
LINE
  5
F1
330
70
100
AcDbEntity
  8
Livello 1
370
    15
100
AcDbLine
 10
1.624781149186075
 20
-3.524250157424951
 30
0.0
 11
3.941879614451471
 21
-3.524250157424951
 31
0.0
  0
LINE
  5
F2
330
70
100
AcDbEntity
  8
Livello 1
370
    15
100
AcDbLine
 10
5.000901288183143
 20
-2.18182085821276
 30
0.0
 11
5.000901288183143
 21
-2.004667360130508
 31
0.0
  0
LINE
  5
F3
330
70
100
AcDbEntity
  8
Livello 1
370
    15
100
AcDbLine
 10
3.360591729103796
 20
-2.004667360130508
 30
0.0
 11
3.360591729103796
 21
-2.18182085821276
 31
0.0
  0
LINE
  5
F4
330
70
100
AcDbEntity
  8
Livello 1
370
    15
100
AcDbLine
 10
4.231434850747422
 20
-3.546558366196631
 30
0.0
 11
4.271985536652171
 21
-3.546558366196631
 31
0.0
  0
LINE
  5
F5
330
70
100
AcDbEntity
  8
Livello 1
370
    15
100
AcDbLine
 10
4.271985536652171
 20
-3.441578561650663
 30
0.0
 11
4.231434850747422
 21
-3.441578561650663
 31
0.0
  0
LINE
  5
F6
330
70
100
AcDbEntity
  8
Livello 1
370
    15
100
AcDbLine
 10
4.130058154318098
 20
-4.622601442232563
 30
0.0
 11
4.089507456192227
 21
-4.622601442232563
 31
0.0
  0
LINE
  5
F7
330
70
100
AcDbEntity
  8
Livello 1
370
    15
100
AcDbLine
 10
4.089507456192227
 20
-4.727581271221104
 30
0.0
 11
4.130058154318098
 21
-4.727581271221104
 31
0.0
  0
LINE
  5
F8
330
70
100
AcDbEntity
  8
Livello 1
370
    15
100
AcDbLine
 10
4.048042656809986
 20
-3.441578561650663
 30
0.0
 11
3.941879614451471
 21
-3.441578561650663
 31
0.0
  0
LINE
  5
F9
330
70
100
AcDbEntity
  8
Livello 1
370
    15
100
AcDbLine
 10
3.941879614451471
 20
-3.546558366196631
 30
0.0
 11
4.048042656809986
 21
-3.546558366196631
 31
0.0
  0
LINE
  5
FA
330
70
100
AcDbEntity
  8
Livello 1
370
    15
100
AcDbLine
 10
4.01671553807033
 20
-4.727581271221104
 30
0.0
 11
4.01671553807033
 21
-5.462439976370689
 31
0.0
  0
LINE
  5
FB
330
70
100
AcDbEntity
  8
Livello 1
370
    15
100
AcDbLine
 10
4.01671553807033
 20
-2.18182085821276
 30
0.0
 11
4.01671553807033
 21
-3.441578561650663
 31
0.0
  0
LINE
  5
FC
330
70
100
AcDbEntity
  8
Livello 1
370
    15
100
AcDbLine
 10
4.01671553807033
 20
-3.546558366196631
 30
0.0
 11
4.01671553807033
 21
-4.622601442232563
 31
0.0
  0
LINE
  5
FD
330
70
100
AcDbEntity
  8
Livello 1
370
    15
100
AcDbLine
 10
4.344777454774289
 20
-3.441578561650663
 30
0.0
 11
4.344777454774289
 21
-2.18182085821276
 31
0.0
  0
LINE
  5
FE
330
70
100
AcDbEntity
  8
Livello 1
370
    15
100
AcDbLine
 10
4.344777454774289
 20
-5.462439976370689
 30
0.0
 11
4.344777454774289
 21
-4.727581271221104
 31
0.0
  0
LINE
  5
FF
330
70
100
AcDbEntity
  8
Livello 1
370
    15
100
AcDbLine
 10
4.344777454774289
 20
-4.622601442232563
 30
0.0
 11
4.344777454774289
 21
-3.545973676743849
 31
0.0
  0
LINE
  5
100
330
70
100
AcDbEntity
  8
Livello 1
370
    15
100
AcDbLine
 10
4.313450336034152
 20
-4.727581271221104
 30
0.0
 11
4.419613395197228
 21
-4.727581271221104
 31
0.0
  0
LINE
  5
101
330
70
100
AcDbEntity
  8
Livello 1
370
    15
100
AcDbLine
 10
4.419613395197228
 20
-4.622601442232563
 30
0.0
 11
4.313450336034152
 21
-4.622601442232563
 31
0.0
  0
LINE
  5
102
330
70
100
AcDbEntity
  8
Livello 1
370
    15
100
AcDbLine
 10
4.344777454774289
 20
-3.546558366196631
 30
0.0
 11
4.476002219622746
 21
-3.546558366196631
 31
0.0
  0
LINE
  5
103
330
70
100
AcDbEntity
  8
Livello 1
370
    15
100
AcDbLine
 10
4.476002219622746
 20
-3.441578561650663
 30
0.0
 11
4.344777454774289
 21
-3.441578561650663
 31
0.0
  0
LINE
  5
104
330
70
100
AcDbEntity
  8
Livello 1
370
    15
100
AcDbLine
 10
4.01671553807033
 20
-4.622601442232563
 30
0.0
 11
3.885490776276748
 21
-4.622601442232563
 31
0.0
  0
LINE
  5
105
330
70
100
AcDbEntity
  8
Livello 1
370
    15
100
AcDbLine
 10
3.885490776276748
 20
-4.727581271221104
 30
0.0
 11
4.01671553807033
 21
-4.727581271221104
 31
0.0
  0
LINE
  5
106
330
70
100
AcDbEntity
  8
Livello 1
370
    15
100
AcDbLine
 10
4.180746508643339
 20
-5.462439976370689
 30
0.0
 11
4.377583645222784
 21
-5.462439976370689
 31
0.0
  0
LINE
  5
107
330
70
100
AcDbEntity
  8
Livello 1
370
    15
100
AcDbLine
 10
3.98390935373229
 20
-5.462439976370689
 30
0.0
 11
4.180746508643339
 21
-5.462439976370689
 31
0.0
  0
LINE
  5
108
330
70
100
AcDbEntity
  8
Livello 1
370
    15
100
AcDbLine
 10
4.180746508643339
 20
-5.475562479437582
 30
0.0
 11
4.377583645222784
 21
-5.475562479437582
 31
0.0
  0
LINE
  5
109
330
70
100
AcDbEntity
  8
Livello 1
370
    15
100
AcDbLine
 10
3.98390935373229
 20
-5.475562479437582
 30
0.0
 11
4.180746508643339
 21
-5.475562479437582
 31
0.0
  0
LINE
  5
10A
330
70
100
AcDbEntity
  8
Livello 1
370
    15
100
AcDbLine
 10
1.544682042792375
 20
-4.675091356726801
 30
0.0
 11
1.544682042792375
 21
-4.543866570490486
 31
0.0
  0
LINE
  5
10B
330
70
100
AcDbEntity
  8
Livello 1
370
    15
100
AcDbLine
 10
1.544682042792375
 20
-4.806316094077652
 30
0.0
 11
1.544682042792375
 21
-4.675091356726801
 31
0.0
  0
LINE
  5
10C
330
70
100
AcDbEntity
  8
Livello 1
370
    15
100
AcDbLine
 10
1.550126075751524
 20
-4.675091356726801
 30
0.0
 11
1.550126075751524
 21
-4.543866570490486
 31
0.0
  0
LINE
  5
10D
330
70
100
AcDbEntity
  8
Livello 1
370
    15
100
AcDbLine
 10
1.550126075751524
 20
-4.806316094077652
 30
0.0
 11
1.550126075751524
 21
-4.675091356726801
 31
0.0
  0
LINE
  5
10E
330
70
100
AcDbEntity
  8
Livello 1
370
    15
100
AcDbLine
 10
1.575667332929995
 20
-4.675091356726801
 30
0.0
 11
1.575667332929995
 21
-4.65540760212784
 31
0.0
  0
LINE
  5
10F
330
70
100
AcDbEntity
  8
Livello 1
370
    15
100
AcDbLine
 10
1.575667332929995
 20
-4.694775013555213
 30
0.0
 11
1.575667332929995
 21
-4.675091356726801
 31
0.0
  0
LINE
  5
110
330
70
100
AcDbEntity
  8
Livello 1
370
    15
100
AcDbLine
 10
7.451265599627357
 20
-3.366076802881818
 30
0.0
 11
7.451265599627357
 21
-3.628526338689919
 31
0.0
  0
LINE
  5
111
330
70
100
AcDbEntity
  8
Livello 1
370
    15
100
AcDbLine
 10
4.960760026661664
 20
-2.18182085821276
 30
0.0
 11
5.000901288183143
 21
-2.18182085821276
 31
0.0
  0
LINE
  5
112
330
70
100
AcDbEntity
  8
Livello 1
370
    15
100
AcDbLine
 10
5.000901288183143
 20
-2.18182085821276
 30
0.0
 11
3.360591729103796
 21
-2.18182085821276
 31
0.0
  0
LINE
  5
113
330
70
100
AcDbEntity
  8
Livello 1
370
    15
100
AcDbLine
 10
4.960760026661664
 20
-2.004667360130508
 30
0.0
 11
5.000901288183143
 21
-2.004667360130508
 31
0.0
  0
LINE
  5
114
330
70
100
AcDbEntity
  8
Livello 1
370
    15
100
AcDbLine
 10
5.000901288183143
 20
-2.004667360130508
 30
0.0
 11
3.360591729103796
 21
-2.004667360130508
 31
0.0
  0
SPLINE
  5
115
330
70
100
AcDbEntity
  8
Livello 1
370
    15
100
AcDbSpline
210
0.0
220
0.0
230
1.0
 70
     8
 71
     3
 72
    20
 73
    16
 74
     0
 42
0.000000001
 43
0.0000000001
 40
0.0
 40
0.0
 40
0.0
 40
0.0
 40
1.0
 40
1.0
 40
1.0
 40
2.0
 40
2.0
 40
2.0
 40
3.0
 40
3.0
 40
3.0
 40
4.0
 40
4.0
 40
4.0
 40
5.0
 40
5.0
 40
5.0
 40
5.0
 10
4.178848669399361
 20
-3.494068451702361
 30
0.0
 10
4.179430407609501
 20
-3.49979727971814
 30
0.0
 10
4.180012145819868
 20
-3.505526107734111
 30
0.0
 10
4.181776809626426
 20
-3.510931368725771
 30
0.0
 10
4.183539219896712
 20
-3.516329727013966
 30
0.0
 10
4.186481536420241
 20
-3.52140534416235
 30
0.0
 10
4.19005869215382
 20
-3.525882172073705
 30
0.0
 10
4.193753141236792
 20
-3.530505793186573
 30
0.0
 10
4.198124744272373
 20
-3.534490713204581
 30
0.0
 10
4.203023369886738
 20
-3.537798583573898
 30
0.0
 10
4.20803639033829
 20
-3.541183700772316
 30
0.0
 10
4.213601335294915
 20
-3.543859777586053
 30
0.0
 10
4.219294777994651
 20
-3.545021860683831
 30
0.0
 10
4.223294135000642
 20
-3.545838165585163
 30
0.0
 10
4.227356897361981
 20
-3.545907412158481
 30
0.0
 10
4.231419659723093
 20
-3.545976658731285
 30
0.0
  0
SPLINE
  5
116
330
70
100
AcDbEntity
  8
Livello 1
370
    15
100
AcDbSpline
210
0.0
220
0.0
230
1.0
 70
     8
 71
     3
 72
    20
 73
    16
 74
     0
 42
0.000000001
 43
0.0000000001
 40
0.0
 40
0.0
 40
0.0
 40
0.0
 40
1.0
 40
1.0
 40
1.0
 40
2.0
 40
2.0
 40
2.0
 40
3.0
 40
3.0
 40
3.0
 40
4.0
 40
4.0
 40
4.0
 40
5.0
 40
5.0
 40
5.0
 40
5.0
 10
4.231431526565089
 20
-3.442039107558731
 30
0.0
 10
4.227099039942181
 20
-3.442193879208045
 30
0.0
 10
4.222766553319272
 20
-3.442348650856684
 30
0.0
 10
4.218519192482896
 20
-3.443318355578728
 30
0.0
 10
4.213222354942568
 20
-3.44452766380018
 30
0.0
 10
4.208057907690823
 20
-3.447004381448191
 30
0.0
 10
4.203363536397747
 20
-3.450115795155388
 30
0.0
 10
4.198503545766387
 20
-3.45333698080967
 30
0.0
 10
4.194147385144843
 20
-3.457238437207506
 30
0.0
 10
4.190444419516956
 20
-3.46177013398615
 30
0.0
 10
4.186612601751876
 20
-3.466459520269978
 30
0.0
 10
4.183480228357615
 20
-3.471823771014272
 30
0.0
 10
4.181659387774006
 20
-3.477539003941517
 30
0.0
 10
4.179968293726584
 20
-3.482846989971641
 30
0.0
 10
4.179408481562893
 20
-3.488457720837017
 30
0.0
 10
4.178848669399361
 20
-3.494068451702361
 30
0.0
  0
LWPOLYLINE
  5
117
330
70
100
AcDbEntity
  8
Livello 1
370
    15
100
AcDbPolyline
 90
       26
 70
     0
 43
0.0
 10
4.312828457291761
 20
-3.463886758200731
 10
4.311727187460378
 20
-3.46230293197465
 10
4.304303616143775
 20
-3.45406265061172
 10
4.295368886204276
 20
-3.447693003970452
 10
4.285340781366756
 20
-3.443491799680268
 10
4.274688194658393
 20
-3.441655531137342
 10
4.263909240136169
 20
-3.442270016018606
 10
4.25350792250406
 20
-3.445306558808765
 10
4.243970586747156
 20
-3.450623148483601
 10
4.235743211032497
 20
-3.457971180201099
 10
4.229210483917196
 20
-3.467007089939872
 10
4.224677863536953
 20
-3.477308339907053
 10
4.222357303180555
 20
-3.488393290301169
 10
4.222357303180555
 20
-3.499743613104258
 10
4.224677863536953
 20
-3.510828563498147
 10
4.229210483917196
 20
-3.521129825686041
 10
4.235743211032497
 20
-3.530165735425486
 10
4.243970586747156
 20
-3.537513779364143
 10
4.25350792250406
 20
-3.542830356817626
 10
4.263909240136169
 20
-3.545866887386596
 10
4.274688194658393
 20
-3.546481384489018
 10
4.285340781366756
 20
-3.544645103724485
 10
4.295368886204276
 20
-3.540443923877258
 10
4.304303616143775
 20
-3.534074277236248
 10
4.311727187460378
 20
-3.525833995872643
 10
4.312828457291761
 20
-3.524250157424951
  0
SPLINE
  5
118
330
70
100
AcDbEntity
  8
Livello 1
370
    15
100
AcDbSpline
210
0.0
220
0.0
230
1.0
 70
     9
 71
     3
 72
    62
 73
    58
 74
     0
 42
0.000000001
 43
0.0000000001
 40
0.0
 40
0.0
 40
0.0
 40
0.0
 40
1.0
 40
1.0
 40
1.0
 40
2.0
 40
2.0
 40
2.0
 40
3.0
 40
3.0
 40
3.0
 40
4.0
 40
4.0
 40
4.0
 40
5.0
 40
5.0
 40
5.0
 40
6.0
 40
6.0
 40
6.0
 40
7.0
 40
7.0
 40
7.0
 40
8.0
 40
8.0
 40
8.0
 40
9.0
 40
9.0
 40
9.0
 40
10.0
 40
10.0
 40
10.0
 40
11.0
 40
11.0
 40
11.0
 40
12.0
 40
12.0
 40
12.0
 40
13.0
 40
13.0
 40
13.0
 40
14.0
 40
14.0
 40
14.0
 40
15.0
 40
15.0
 40
15.0
 40
16.0
 40
16.0
 40
16.0
 40
17.0
 40
17.0
 40
17.0
 40
18.0
 40
18.0
 40
18.0
 40
19.0
 40
19.0
 40
19.0
 40
19.0
 10
4.215779308523107
 20
-3.494068451702361
 30
0.0
 10
4.215768965927673
 20
-3.495448701728772
 30
0.0
 10
4.215758623332463
 20
-3.496828951754705
 30
0.0
 10
4.215718788850804
 20
-3.498130358087616
 30
0.0
 10
4.215678980472594
 20
-3.499430911611071
 30
0.0
 10
4.215609718847519
 20
-3.500652724740227
 30
0.0
 10
4.215500248304935
 20
-3.501733233999618
 30
0.0
 10
4.215388937919568
 20
-3.502831903097951
 30
0.0
 10
4.215236055696863
 20
-3.503784478698941
 30
0.0
 10
4.215020563905901
 20
-3.504540774846948
 30
0.0
 10
4.214802267433888
 20
-3.505306914385115
 30
0.0
 10
4.214519721028308
 20
-3.505871631965713
 30
0.0
 10
4.21416678678199
 20
-3.506198735227968
 30
0.0
 10
4.213820320308908
 20
-3.506519844087973
 30
0.0
 10
4.213406022172634
 20
-3.506611967736548
 30
0.0
 10
4.212944465384422
 20
-3.506468898369973
 30
0.0
 10
4.212492857440111
 20
-3.50632891285924
 30
0.0
 10
4.211996006205127
 20
-3.505963764217131
 30
0.0
 10
4.211495390755265
 20
-3.505396751797948
 30
0.0
 10
4.210990034691506
 20
-3.504824370013226
 30
0.0
 10
4.210480842784533
 20
-3.504046283221341
 30
0.0
 10
4.210018060576362
 20
-3.503103994804142
 30
0.0
 10
4.209543448680856
 20
-3.502137619512089
 30
0.0
 10
4.209117649468121
 20
-3.500998540622278
 30
0.0
 10
4.208790337382528
 20
-3.499746277338468
 30
0.0
 10
4.208462187118215
 20
-3.49849080726699
 30
0.0
 10
4.208233029037526
 20
-3.497121572375618
 30
0.0
 10
4.208133224751493
 20
-3.495718077185207
 30
0.0
 10
4.208035742325185
 20
-3.4943472330826
 30
0.0
 10
4.20806166509663
 20
-3.492943704211201
 30
0.0
 10
4.208207334463662
 20
-3.4915893938436
 30
0.0
 10
4.208351115737122
 20
-3.490252637370243
 30
0.0
 10
4.2086115595327
 20
-3.488963831778745
 30
0.0
 10
4.20895715756213
 20
-3.487790537828745
 30
0.0
 10
4.209308458372237
 20
-3.486597883125336
 30
0.0
 10
4.209747746895931
 20
-3.485524583676208
 30
0.0
 10
4.210226799672977
 20
-3.484624816334787
 30
0.0
 10
4.210716307619644
 20
-3.483705411866663
 30
0.0
 10
4.211247334443816
 20
-3.482967196725571
 30
0.0
 10
4.211765040604356
 20
-3.482453758634161
 30
0.0
 10
4.21227954983668
 20
-3.481943491115973
 30
0.0
 10
4.212780902412101
 20
-3.48165523314097
 30
0.0
 10
4.213227045325036
 20
-3.481608854144098
 30
0.0
 10
4.213661630625096
 20
-3.481563676624208
 30
0.0
 10
4.214043829693173
 20
-3.481748008352336
 30
0.0
 10
4.214359784897403
 20
-3.482149180428076
 30
0.0
 10
4.214674312518498
 20
-3.482548539884603
 30
0.0
 10
4.214923193543832
 20
-3.483162784611734
 30
0.0
 10
4.215115205332466
 20
-3.483956802341306
 30
0.0
 10
4.215311783640284
 20
-3.484769703794332
 30
0.0
 10
4.215448755560673
 20
-3.485771030831767
 30
0.0
 10
4.215547324592805
 20
-3.486910142803248
 30
0.0
 10
4.215647412296708
 20
-3.488066805288956
 30
0.0
 10
4.215707904634687
 20
-3.489365531173653
 30
0.0
 10
4.215739711645178
 20
-3.490730923756211
 30
0.0
 10
4.215764974567988
 20
-3.491815395580646
 30
0.0
 10
4.21577214154542
 20
-3.492941923641841
 30
0.0
 10
4.215779308523107
 20
-3.494068451702361
 30
0.0
  0
SPLINE
  5
119
330
70
100
AcDbEntity
  8
Livello 1
370
    15
100
AcDbSpline
210
0.0
220
0.0
230
1.0
 70
     8
 71
     3
 72
    11
 73
     7
 74
     0
 42
0.000000001
 43
0.0000000001
 40
0.0
 40
0.0
 40
0.0
 40
0.0
 40
1.0
 40
1.0
 40
1.0
 40
2.0
 40
2.0
 40
2.0
 40
2.0
 10
4.13942833992166
 20
-4.675091356726801
 30
0.0
 10
4.140781904274728
 20
-4.647706270653631
 30
0.0
 10
4.119679186405344
 20
-4.624408991362396
 30
0.0
 10
4.09229410033217
 20
-4.623055427009777
 30
0.0
 10
4.074927283312357
 20
-4.622197036264332
 30
0.0
 10
4.058377085293392
 20
-4.630487094520402
 30
0.0
 10
4.048664547774017
 20
-4.644909638782698
 30
0.0
  0
SPLINE
  5
11A
330
70
100
AcDbEntity
  8
Livello 1
370
    15
100
AcDbSpline
210
0.0
220
0.0
230
1.0
 70
     8
 71
     3
 72
    11
 73
     7
 74
     0
 42
0.000000001
 43
0.0000000001
 40
0.0
 40
0.0
 40
0.0
 40
0.0
 40
1.0
 40
1.0
 40
1.0
 40
2.0
 40
2.0
 40
2.0
 40
2.0
 10
4.048664547774017
 20
-4.705273074670554
 30
0.0
 10
4.063979936730201
 20
-4.72801542995641
 30
0.0
 10
4.094831834214859
 20
-4.734036175757506
 30
0.0
 10
4.117574189501198
 20
-4.718720786801773
 30
0.0
 10
4.131996667897451
 20
-4.709008254235127
 30
0.0
 10
4.140286695190511
 20
-4.6924581180302
 30
0.0
 10
4.13942833992166
 20
-4.675091356726801
 30
0.0
  0
SPLINE
  5
11B
330
70
100
AcDbEntity
  8
Livello 1
370
    15
100
AcDbSpline
210
0.0
220
0.0
230
1.0
 70
     8
 71
     3
 72
    38
 73
    34
 74
     0
 42
0.000000001
 43
0.0000000001
 40
0.0
 40
0.0
 40
0.0
 40
0.0
 40
1.0
 40
1.0
 40
1.0
 40
2.0
 40
2.0
 40
2.0
 40
3.0
 40
3.0
 40
3.0
 40
4.0
 40
4.0
 40
4.0
 40
5.0
 40
5.0
 40
5.0
 40
6.0
 40
6.0
 40
6.0
 40
7.0
 40
7.0
 40
7.0
 40
8.0
 40
8.0
 40
8.0
 40
9.0
 40
9.0
 40
9.0
 40
10.0
 40
10.0
 40
10.0
 40
11.0
 40
11.0
 40
11.0
 40
11.0
 10
4.130156853202332
 20
-4.72699953931232
 30
0.0
 10
4.131654473316489
 20
-4.727171115123278
 30
0.0
 10
4.133152093430839
 20
-4.727342690933785
 30
0.0
 10
4.134661144704756
 20
-4.727359724246125
 30
0.0
 10
4.139972170826941
 20
-4.727419672086778
 30
0.0
 10
4.145424789099902
 20
-4.72556537806254
 30
0.0
 10
4.150531793301091
 20
-4.723160108719244
 30
0.0
 10
4.155704964211247
 20
-4.720723676535547
 30
0.0
 10
4.160523507434628
 20
-4.717721899594822
 30
0.0
 10
4.164776110134472
 20
-4.713975881786216
 30
0.0
 10
4.169213991438048
 20
-4.710066656408346
 30
0.0
 10
4.173035543837487
 20
-4.705346926852121
 30
0.0
 10
4.175973373894747
 20
-4.700140439379945
 30
0.0
 10
4.178945517715614
 20
-4.694873140296188
 30
0.0
 10
4.181013174936586
 20
-4.689107646258023
 30
0.0
 10
4.181987504124043
 20
-4.683152694422497
 30
0.0
 10
4.182920804738357
 20
-4.677448502983913
 30
0.0
 10
4.182850917736985
 20
-4.671570473767648
 30
0.0
 10
4.181787539891336
 20
-4.665891682123101
 30
0.0
 10
4.1807564382594
 20
-4.660385256203221
 30
0.0
 10
4.178791240436408
 20
-4.65506615667769
 30
0.0
 10
4.176045063797446
 20
-4.650169472932629
 30
0.0
 10
4.173216239630581
 20
-4.645125421096613
 30
0.0
 10
4.169558721406983
 20
-4.640529593258571
 30
0.0
 10
4.165313014465978
 20
-4.636690891276925
 30
0.0
 10
4.160882553648685
 20
-4.632685146425613
 30
0.0
 10
4.155811599721284
 20
-4.629503854475363
 30
0.0
 10
4.150341532747733
 20
-4.626938815784997
 30
0.0
 10
4.144913344583788
 20
-4.624393415021502
 30
0.0
 10
4.139092131195417
 20
-4.622454867574329
 30
0.0
 10
4.133486095135356
 20
-4.622724436978558
 30
0.0
 10
4.132366610661565
 20
-4.622778268021082
 30
0.0
 10
4.131255706851348
 20
-4.622920152523398
 30
0.0
 10
4.130144803041133
 20
-4.623062037025714
 30
0.0
  0
SPLINE
  5
11C
330
70
100
AcDbEntity
  8
Livello 1
370
    15
100
AcDbSpline
210
0.0
220
0.0
230
1.0
 70
     9
 71
     3
 72
    62
 73
    58
 74
     0
 42
0.000000001
 43
0.0000000001
 40
0.0
 40
0.0
 40
0.0
 40
0.0
 40
1.0
 40
1.0
 40
1.0
 40
2.0
 40
2.0
 40
2.0
 40
3.0
 40
3.0
 40
3.0
 40
4.0
 40
4.0
 40
4.0
 40
5.0
 40
5.0
 40
5.0
 40
6.0
 40
6.0
 40
6.0
 40
7.0
 40
7.0
 40
7.0
 40
8.0
 40
8.0
 40
8.0
 40
9.0
 40
9.0
 40
9.0
 40
10.0
 40
10.0
 40
10.0
 40
11.0
 40
11.0
 40
11.0
 40
12.0
 40
12.0
 40
12.0
 40
13.0
 40
13.0
 40
13.0
 40
14.0
 40
14.0
 40
14.0
 40
15.0
 40
15.0
 40
15.0
 40
16.0
 40
16.0
 40
16.0
 40
17.0
 40
17.0
 40
17.0
 40
18.0
 40
18.0
 40
18.0
 40
19.0
 40
19.0
 40
19.0
 40
19.0
 10
4.155441952801093
 20
-4.674435221796058
 30
0.0
 10
4.155386157136962
 20
-4.675813487381573
 30
0.0
 10
4.155330361473055
 20
-4.677191752967566
 30
0.0
 10
4.155131288408074
 20
-4.678492093022709
 30
0.0
 10
4.154932330499223
 20
-4.679791680878853
 30
0.0
 10
4.154590260903365
 20
-4.68101343333341
 30
0.0
 10
4.154186902873142
 20
-4.682093942349117
 30
0.0
 10
4.153777231408533
 20
-4.683191363692574
 30
0.0
 10
4.153304337899188
 20
-4.684143085457261
 30
0.0
 10
4.152808173808527
 20
-4.684899258927525
 30
0.0
 10
4.152305147950568
 20
-4.685665889998203
 30
0.0
 10
4.151778203413131
 20
-4.686231526653243
 30
0.0
 10
4.151282178577774
 20
-4.686560470162808
 30
0.0
 10
4.150793822866925
 20
-4.6868843278207
 30
0.0
 10
4.150335438139556
 20
-4.686978754860396
 30
0.0
 10
4.149937253514168
 20
-4.686837452767305
 30
0.0
 10
4.149546895659105
 20
-4.686698928127235
 30
0.0
 10
4.14921439456256
 20
-4.686333850324691
 30
0.0
 10
4.148943616307298
 20
-4.68576530619483
 30
0.0
 10
4.148670522876406
 20
-4.685191900968542
 30
0.0
 10
4.148460212269303
 20
-4.684411535236232
 30
0.0
 10
4.148298358296909
 20
-4.683465754182003
 30
0.0
 10
4.148132816302191
 20
-4.682498422456588
 30
0.0
 10
4.148017964377774
 20
-4.681358051181065
 30
0.0
 10
4.147934458101683
 20
-4.680104908074321
 30
0.0
 10
4.147850900854248
 20
-4.678851000062516
 30
0.0
 10
4.147798727532809
 20
-4.677484182507606
 30
0.0
 10
4.147766146928428
 20
-4.676084016233375
 30
0.0
 10
4.147734307427912
 20
-4.674715699224655
 30
0.0
 10
4.147721179440417
 20
-4.673315533392716
 30
0.0
 10
4.147728969860006
 20
-4.671964767702973
 30
0.0
 10
4.147736678093731
 20
-4.67062825212379
 30
0.0
 10
4.147764865699292
 20
-4.669340099874704
 30
0.0
 10
4.147827326549114
 20
-4.668167182698644
 30
0.0
 10
4.147890957256772
 20
-4.666972297413217
 30
0.0
 10
4.147990157071267
 20
-4.665897004206007
 30
0.0
 10
4.148145250369433
 20
-4.664995423903733
 30
0.0
 10
4.148303760170342
 20
-4.664073982967226
 30
0.0
 10
4.14852065309919
 20
-4.663333992568919
 30
0.0
 10
4.148811284519176
 20
-4.662819648797313
 30
0.0
 10
4.149099436628883
 20
-4.662309692776139
 30
0.0
 10
4.149460074503196
 20
-4.662021549922973
 30
0.0
 10
4.149884213251841
 20
-4.661975502025542
 30
0.0
 10
4.150296207137984
 20
-4.661930772671468
 30
0.0
 10
4.150768117372756
 20
-4.662114472391816
 30
0.0
 10
4.151265704321049
 20
-4.662513726252853
 30
0.0
 10
4.151760837819693
 20
-4.662911011515415
 30
0.0
 10
4.152281395447531
 20
-4.663521730496061
 30
0.0
 10
4.152777034041768
 20
-4.664310837883363
 30
0.0
 10
4.15328557647552
 20
-4.665120489506278
 30
0.0
 10
4.153767885462542
 20
-4.666117939053589
 30
0.0
 10
4.154182503219931
 20
-4.667252934787511
 30
0.0
 10
4.15460472155185
 20
-4.668408736720316
 30
0.0
 10
4.154956744140161
 20
-4.669707173923002
 30
0.0
 10
4.155156733068364
 20
-4.671073789068291
 30
0.0
 10
4.15531645967667
 20
-4.672165273503324
 30
0.0
 10
4.155379206238881
 20
-4.673300247649692
 30
0.0
 10
4.155441952801093
 20
-4.674435221796058
 30
0.0
  0
SPLINE
  5
11D
330
70
100
AcDbEntity
  8
Livello 1
370
    15
100
AcDbSpline
210
0.0
220
0.0
230
1.0
 70
     8
 71
     3
 72
     8
 73
     4
 74
     0
 42
0.000000001
 43
0.0000000001
 40
0.0
 40
0.0
 40
0.0
 40
0.0
 40
1.0
 40
1.0
 40
1.0
 40
1.0
 10
4.215348655813621
 20
-3.485570057357723
 30
0.0
 10
4.21393719041274
 20
-3.491134170748146
 30
0.0
 10
4.213933376725692
 20
-3.496962173226973
 30
0.0
 10
4.215337558910817
 20
-3.502528129099871
 30
0.0
  0
LWPOLYLINE
  5
11E
330
70
100
AcDbEntity
  8
Livello 1
370
    15
100
AcDbPolyline
 90
        3
 70
     0
 43
0.0
 10
4.149205737860916
 20
-4.674435221796058
 10
4.148912500982821
 20
-4.669664531299511
 10
4.148087761569263
 20
-4.665653807545518
  0
LWPOLYLINE
  5
11F
330
70
100
AcDbEntity
  8
Livello 1
370
    15
100
AcDbPolyline
 90
        3
 70
     0
 43
0.0
 10
4.14823233905798
 20
-4.682718595317973
 10
4.148912500982821
 20
-4.679205912293086
 10
4.149205737860916
 20
-4.674435221796058
  0
SPLINE
  5
120
330
70
100
AcDbEntity
  8
Livello 1
370
    15
100
AcDbSpline
210
0.0
220
0.0
230
1.0
 70
     8
 71
     3
 72
    38
 73
    34
 74
     0
 42
0.000000001
 43
0.0000000001
 40
0.0
 40
0.0
 40
0.0
 40
0.0
 40
1.0
 40
1.0
 40
1.0
 40
2.0
 40
2.0
 40
2.0
 40
3.0
 40
3.0
 40
3.0
 40
4.0
 40
4.0
 40
4.0
 40
5.0
 40
5.0
 40
5.0
 40
6.0
 40
6.0
 40
6.0
 40
7.0
 40
7.0
 40
7.0
 40
8.0
 40
8.0
 40
8.0
 40
9.0
 40
9.0
 40
9.0
 40
10.0
 40
10.0
 40
10.0
 40
11.0
 40
11.0
 40
11.0
 40
11.0
 10
4.048217543020292
 20
-3.545976658731285
 30
0.0
 10
4.049109569011986
 20
-3.546148250237333
 30
0.0
 10
4.050001595004162
 20
-3.546319841743321
 30
0.0
 10
4.050931200158927
 20
-3.546336880327892
 30
0.0
 10
4.054202817555786
 20
-3.546396845280633
 30
0.0
 10
4.057939887137943
 20
-3.544542531429891
 30
0.0
 10
4.061537126102137
 20
-3.542137240358981
 30
0.0
 10
4.065180938210239
 20
-3.539700808191038
 30
0.0
 10
4.068681275512004
 20
-3.536699039536991
 30
0.0
 10
4.071869271410736
 20
-3.532953001204543
 30
0.0
 10
4.075196148862028
 20
-3.529043770811183
 30
0.0
 10
4.078182878522053
 20
-3.524324011666343
 30
0.0
 10
4.080510801135615
 20
-3.519117534355728
 30
0.0
 10
4.082865917040891
 20
-3.513850238332266
 30
0.0
 10
4.084546744484515
 20
-3.508084786673156
 30
0.0
 10
4.085338296042178
 20
-3.50212986272565
 30
0.0
 10
4.08609652067631
 20
-3.496425660660943
 30
0.0
 10
4.086038775895397
 20
-3.490547605246256
 30
0.0
 10
4.085175679975908
 20
-3.484868801541201
 30
0.0
 10
4.084338780166143
 20
-3.479362357088636
 30
0.0
 10
4.082744674283977
 20
-3.474043252787069
 30
0.0
 10
4.080567605545343
 20
-3.469146567908381
 30
0.0
 10
4.078325024885158
 20
-3.464102532957196
 30
0.0
 10
4.075463868680268
 20
-3.459506722659711
 30
0.0
 10
4.072273281776576
 20
-3.455667986252678
 30
0.0
 10
4.068943893926126
 20
-3.451662252280438
 30
0.0
 10
4.065255789296243
 20
-3.448480895359028
 30
0.0
 10
4.061404207693928
 20
-3.445915910761455
 30
0.0
 10
4.05758201554785
 20
-3.443370498253774
 30
0.0
 10
4.053598831729787
 20
-3.441432087512661
 30
0.0
 10
4.05018555673103
 20
-3.441701580839423
 30
0.0
 10
4.049503964939981
 20
-3.441755395560043
 30
0.0
 10
4.048845098547751
 20
-3.441897251559721
 30
0.0
 10
4.048186232155871
 20
-3.442039107558731
 30
0.0
  0
LWPOLYLINE
  5
121
330
70
100
AcDbEntity
  8
Livello 1
370
    15
100
AcDbPolyline
 90
       13
 70
     0
 43
0.0
 10
3.972732377260996
 20
-3.494068451702361
 10
3.972011078580196
 20
-3.482784685873846
 10
3.969880864325711
 20
-3.472028511777701
 10
3.966441313312543
 20
-3.46230293197465
 10
3.961853257303908
 20
-3.45406265061172
 10
3.956331301599651
 20
-3.447693003970452
 10
3.950133608066977
 20
-3.443491799680268
 10
3.943549918303024
 20
-3.441655531137342
 10
3.936888159139621
 20
-3.442270016018606
 10
3.9304598260148
 20
-3.445306558808765
 10
3.924565415234722
 20
-3.450623148483601
 10
3.919480638392371
 20
-3.457971180201099
 10
3.916637289257502
 20
-3.463886758200731
  0
LWPOLYLINE
  5
122
330
70
100
AcDbEntity
  8
Livello 1
370
    15
100
AcDbPolyline
 90
       13
 70
     0
 43
0.0
 10
3.916637289257502
 20
-3.524250157424951
 10
3.919480638392371
 20
-3.530165735425486
 10
3.924565415234722
 20
-3.537513779364143
 10
3.9304598260148
 20
-3.542830356817626
 10
3.936888159139621
 20
-3.545866887386596
 10
3.943549918303024
 20
-3.546481384489018
 10
3.950133608066977
 20
-3.544645103724485
 10
3.956331301599651
 20
-3.540443923877258
 10
3.961853257303908
 20
-3.534074277236248
 10
3.966441313312543
 20
-3.525833995872643
 10
3.969880864325711
 20
-3.516108391626826
 10
3.972011078580196
 20
-3.505352241973191
 10
3.972732377260996
 20
-3.494068451702361
  0
LWPOLYLINE
  5
123
330
70
100
AcDbEntity
  8
Livello 1
370
    15
100
AcDbPolyline
 90
       26
 70
     0
 43
0.0
 10
4.444855712752699
 20
-4.644909638782698
 10
4.444175089475606
 20
-4.643325763671501
 10
4.439587070130443
 20
-4.635085506750405
 10
4.43406510373282
 20
-4.62871588455171
 10
4.427867391676958
 20
-4.624514704704485
 10
4.421283731893601
 20
-4.622678387276028
 10
4.414621968910807
 20
-4.623292872157066
 10
4.408193599122316
 20
-4.626329414947451
 10
4.402299206674076
 20
-4.631646053507401
 10
4.397214408444725
 20
-4.638994060783031
 10
4.393176959853727
 20
-4.648029970521545
 10
4.390375648793447
 20
-4.658331220488087
 10
4.388941462712133
 20
-4.669416195325386
 10
4.388941462712133
 20
-4.680766518127833
 10
4.390375648793447
 20
-4.69185149296423
 10
4.393176959853727
 20
-4.702152742931669
 10
4.397214408444725
 20
-4.711188652670638
 10
4.402299206674076
 20
-4.718536659945818
 10
4.408193599122316
 20
-4.723853200735603
 10
4.414621968910807
 20
-4.726889743525988
 10
4.421283731893601
 20
-4.727504228406996
 10
4.427867391676958
 20
-4.725668008748701
 10
4.43406510373282
 20
-4.721466828901506
 10
4.439587070130443
 20
-4.715097108933099
 10
4.444175089475606
 20
-4.706856852012003
 10
4.444855712752699
 20
-4.705273074670554
  0
SPLINE
  5
124
330
70
100
AcDbEntity
  8
Livello 1
370
    15
100
AcDbSpline
210
0.0
220
0.0
230
1.0
 70
     8
 71
     3
 72
    38
 73
    34
 74
     0
 42
0.000000001
 43
0.0000000001
 40
0.0
 40
0.0
 40
0.0
 40
0.0
 40
1.0
 40
1.0
 40
1.0
 40
2.0
 40
2.0
 40
2.0
 40
3.0
 40
3.0
 40
3.0
 40
4.0
 40
4.0
 40
4.0
 40
5.0
 40
5.0
 40
5.0
 40
6.0
 40
6.0
 40
6.0
 40
7.0
 40
7.0
 40
7.0
 40
8.0
 40
8.0
 40
8.0
 40
9.0
 40
9.0
 40
9.0
 40
10.0
 40
10.0
 40
10.0
 40
11.0
 40
11.0
 40
11.0
 40
11.0
 10
4.313258645593641
 20
-4.623307733207686
 30
0.0
 10
4.311845688391591
 20
-4.623140333374092
 30
0.0
 10
4.310432731189316
 20
-4.622972933540981
 30
0.0
 10
4.308952375143626
 20
-4.623128716212574
 30
0.0
 10
4.305589713249466
 20
-4.623482580037403
 30
0.0
 10
4.301879285862913
 20
-4.625504005456708
 30
0.0
 10
4.298326186353721
 20
-4.628114891940412
 30
0.0
 10
4.294699768687404
 20
-4.630779654029396
 30
0.0
 10
4.291237238805908
 20
-4.634058455217259
 30
0.0
 10
4.288138337445436
 20
-4.638045006726713
 30
0.0
 10
4.284906543924172
 20
-4.64220251606403
 30
0.0
 10
4.282070235065893
 20
-4.647129779095862
 30
0.0
 10
4.279940720495528
 20
-4.652510674994744
 30
0.0
 10
4.277805873473813
 20
-4.657905045029846
 30
0.0
 10
4.276381364895239
 20
-4.663755322632344
 30
0.0
 10
4.275855593719803
 20
-4.669732383726929
 30
0.0
 10
4.275353972836668
 20
-4.675434899957396
 30
0.0
 10
4.275670421990914
 20
-4.681252820059632
 30
0.0
 10
4.276758133665568
 20
-4.686824351578222
 30
0.0
 10
4.277822036648895
 20
-4.692273929020846
 30
0.0
 10
4.279623807674933
 20
-4.697487786126453
 30
0.0
 10
4.28197675773147
 20
-4.702251686240832
 30
0.0
 10
4.284416979995712
 20
-4.707192282022661
 30
0.0
 10
4.287450026616705
 20
-4.711648923501032
 30
0.0
 10
4.290764930338068
 20
-4.715283263143255
 30
0.0
 10
4.294207770989308
 20
-4.719057868173446
 30
0.0
 10
4.297954644823115
 20
-4.721945473926967
 30
0.0
 10
4.301853119365961
 20
-4.724281140325794
 30
0.0
 10
4.305687180978681
 20
-4.726578215446201
 30
0.0
 10
4.309667875011689
 20
-4.728341439480256
 30
0.0
 10
4.312913651685323
 20
-4.727573351845197
 30
0.0
 10
4.313078211525263
 20
-4.72753441004798
 30
0.0
 10
4.313240882291021
 20
-4.727488961621525
 30
0.0
 10
4.313403553056326
 20
-4.727443513193721
 30
0.0
  0
SPLINE
  5
125
330
70
100
AcDbEntity
  8
Livello 1
370
    15
100
AcDbSpline
210
0.0
220
0.0
230
1.0
 70
     8
 71
     3
 72
    14
 73
    10
 74
     0
 42
0.000000001
 43
0.0000000001
 40
0.0
 40
0.0
 40
0.0
 40
0.0
 40
1.0
 40
1.0
 40
1.0
 40
2.0
 40
2.0
 40
2.0
 40
3.0
 40
3.0
 40
3.0
 40
3.0
 10
4.339076689836151
 20
-3.524250157424951
 30
0.0
 10
4.339990781538806
 20
-3.528515683166064
 30
0.0
 10
4.340904873241719
 20
-3.532781208906497
 30
0.0
 10
4.34177794850824
 20
-3.536260440412231
 30
0.0
 10
4.342712112386029
 20
-3.539983111893273
 30
0.0
 10
4.34359931922628
 20
-3.542805606480733
 30
0.0
 10
4.344071011033213
 20
-3.544307210367736
 30
0.0
 10
4.344471503340444
 20
-3.545582154719898
 30
0.0
 10
4.34457245315956
 20
-3.545904876276976
 30
0.0
 10
4.344673402978679
 20
-3.546227597833542
 30
0.0
  0
SPLINE
  5
126
330
70
100
AcDbEntity
  8
Livello 1
370
    15
100
AcDbSpline
210
0.0
220
0.0
230
1.0
 70
     8
 71
     3
 72
    17
 73
    13
 74
     0
 42
0.000000001
 43
0.0000000001
 40
0.0
 40
0.0
 40
0.0
 40
0.0
 40
1.0
 40
1.0
 40
1.0
 40
2.0
 40
2.0
 40
2.0
 40
3.0
 40
3.0
 40
3.0
 40
4.0
 40
4.0
 40
4.0
 40
4.0
 10
4.344569797259255
 20
-3.442232350099556
 30
0.0
 10
4.344577908717599
 20
-3.442192546541853
 30
0.0
 10
4.344586020176361
 20
-3.442152742984151
 30
0.0
 10
4.344412063585413
 20
-3.442731784052343
 30
0.0
 10
4.344144975586583
 20
-3.443620827230509
 30
0.0
 10
4.343448686600454
 20
-3.445968713548678
 30
0.0
 10
4.342616339067491
 20
-3.448781795896767
 30
0.0
 10
4.341759084037009
 20
-3.451679058036642
 30
0.0
 10
4.340757505683694
 20
-3.455069774196468
 30
0.0
 10
4.339901661453706
 20
-3.459726055162235
 30
0.0
 10
4.33965919054925
 20
-3.461045235240458
 30
0.0
 10
4.339428417090693
 20
-3.462465996720933
 30
0.0
 10
4.339197643632168
 20
-3.463886758200731
 30
0.0
  0
SPLINE
  5
127
330
70
100
AcDbEntity
  8
Livello 1
370
    15
100
AcDbSpline
210
0.0
220
0.0
230
1.0
 70
     8
 71
     3
 72
    17
 73
    13
 74
     0
 42
0.000000001
 43
0.0000000001
 40
0.0
 40
0.0
 40
0.0
 40
0.0
 40
1.0
 40
1.0
 40
1.0
 40
2.0
 40
2.0
 40
2.0
 40
3.0
 40
3.0
 40
3.0
 40
4.0
 40
4.0
 40
4.0
 40
4.0
 10
4.016900763464861
 20
-4.726996508440443
 30
0.0
 10
4.016846030086548
 20
-4.727170830460996
 30
0.0
 10
4.016791296708205
 20
-4.727345152480617
 30
0.0
 10
4.016786274714346
 20
-4.727359724246125
 30
0.0
 10
4.016768743713931
 20
-4.727410592014793
 30
0.0
 10
4.017356995479008
 20
-4.725514743710006
 30
0.0
 10
4.018076375212221
 20
-4.723160108719244
 30
0.0
 10
4.018805055737211
 20
-4.720775030877002
 30
0.0
 10
4.019668276831103
 20
-4.717919226440657
 30
0.0
 10
4.020549835735056
 20
-4.713975881786216
 30
0.0
 10
4.02112851594617
 20
-4.711387358765168
 30
0.0
 10
4.021715097885017
 20
-4.708330216718068
 30
0.0
 10
4.022301679824095
 20
-4.705273074670554
 30
0.0
  0
SPLINE
  5
128
330
70
100
AcDbEntity
  8
Livello 1
370
    15
100
AcDbSpline
210
0.0
220
0.0
230
1.0
 70
     8
 71
     3
 72
    17
 73
    13
 74
     0
 42
0.000000001
 43
0.0000000001
 40
0.0
 40
0.0
 40
0.0
 40
0.0
 40
1.0
 40
1.0
 40
1.0
 40
2.0
 40
2.0
 40
2.0
 40
3.0
 40
3.0
 40
3.0
 40
4.0
 40
4.0
 40
4.0
 40
4.0
 10
4.022305957264633
 20
-4.644909638782698
 30
0.0
 10
4.02175799262388
 20
-4.642033538572277
 30
0.0
 10
4.021210027983386
 20
-4.639157438361861
 30
0.0
 10
4.02066664652443
 20
-4.636690891276925
 30
0.0
 10
4.019736723857588
 20
-4.63246973502401
 30
0.0
 10
4.018820224237845
 20
-4.629448062279936
 30
0.0
 10
4.018051590499606
 20
-4.626938815784997
 30
0.0
 10
4.017288830844695
 20
-4.624448745553004
 30
0.0
 10
4.016671685654176
 20
-4.622463299329949
 30
0.0
 10
4.016754866080306
 20
-4.622724436978558
 30
0.0
 10
4.016771659776002
 20
-4.622777159312572
 30
0.0
 10
4.016816999802099
 20
-4.622921455800637
 30
0.0
 10
4.016862339827971
 20
-4.623065752287806
 30
0.0
  0
LINE
  5
129
330
70
100
AcDbEntity
  8
Livello 1
370
    15
100
AcDbLine
 10
4.476002219622746
 20
-3.441578561650663
 30
0.0
 11
4.476002219622746
 21
-3.463886758200731
 31
0.0
  0
LINE
  5
12A
330
70
100
AcDbEntity
  8
Livello 1
370
    15
100
AcDbLine
 10
4.476002219622746
 20
-3.524250157424951
 30
0.0
 11
4.476002219622746
 21
-3.546558366196631
 31
0.0
  0
LINE
  5
12B
330
70
100
AcDbEntity
  8
Livello 1
370
    15
100
AcDbLine
 10
3.885490776276748
 20
-4.644909638782698
 30
0.0
 11
3.885490776276748
 21
-4.622601442232563
 31
0.0
  0
LINE
  5
12C
330
70
100
AcDbEntity
  8
Livello 1
370
    15
100
AcDbLine
 10
3.885490776276748
 20
-4.727581271221104
 30
0.0
 11
3.885490776276748
 21
-4.705273074670554
 31
0.0
  0
LINE
  5
12D
330
70
100
AcDbEntity
  8
Livello 1
370
    15
100
AcDbLine
 10
1.589057334903785
 20
-4.675091356726801
 30
0.0
 11
1.589057334903785
 21
-4.712490363363713
 31
0.0
  0
LINE
  5
12E
330
70
100
AcDbEntity
  8
Livello 1
370
    15
100
AcDbLine
 10
1.589057334903785
 20
-4.63769225231934
 30
0.0
 11
1.589057334903785
 21
-4.675091356726801
 31
0.0
  0
LINE
  5
12F
330
70
100
AcDbEntity
  8
Livello 1
370
    15
100
AcDbLine
 10
1.57593483183792
 20
-4.675091356726801
 30
0.0
 11
1.57593483183792
 21
-4.63769225231934
 31
0.0
  0
LINE
  5
130
330
70
100
AcDbEntity
  8
Livello 1
370
    15
100
AcDbLine
 10
1.57593483183792
 20
-4.712490363363713
 30
0.0
 11
1.57593483183792
 21
-4.675091356726801
 31
0.0
  0
SPLINE
  5
131
330
70
100
AcDbEntity
  8
Livello 1
370
    15
100
AcDbSpline
210
0.0
220
0.0
230
1.0
 70
     8
 71
     3
 72
    11
 73
     7
 74
     0
 42
0.000000001
 43
0.0000000001
 40
0.0
 40
0.0
 40
0.0
 40
0.0
 40
1.0
 40
1.0
 40
1.0
 40
2.0
 40
2.0
 40
2.0
 40
2.0
 10
4.271985536652171
 20
-3.463886758200731
 30
0.0
 10
4.2553166442323
 20
-3.464531035585935
 30
0.0
 10
4.242326127055288
 20
-3.478566132793142
 30
0.0
 10
4.242970404440008
 20
-3.495235025213013
 30
0.0
 10
4.243579757298196
 20
-3.511000342269015
 30
0.0
 10
4.256220219596172
 20
-3.523640804566761
 30
0.0
 10
4.271985536652171
 20
-3.524250157424951
 30
0.0
  0
LWPOLYLINE
  5
132
330
70
100
AcDbEntity
  8
Livello 1
370
    15
100
AcDbPolyline
 90
       13
 70
     0
 43
0.0
 10
4.419613395197228
 20
-4.644909638782698
 10
4.417088679479671
 20
-4.645216832338328
 10
4.412243785319891
 20
-4.647637130386131
 10
4.407995932486158
 20
-4.652281501954351
 10
4.40468925863458
 20
-4.65877392335874
 10
4.40259164917063
 20
-4.666588196091032
 10
4.401873039166358
 20
-4.675091356726801
 10
4.40259164917063
 20
-4.683594517362156
 10
4.40468925863458
 20
-4.691408790094031
 10
4.407995932486158
 20
-4.697901113728737
 10
4.412243785319891
 20
-4.702545583067085
 10
4.417088679479671
 20
-4.704965783345175
 10
4.419613395197228
 20
-4.705273074670554
  0
SPLINE
  5
133
330
70
100
AcDbEntity
  8
Livello 1
370
    15
100
AcDbSpline
210
0.0
220
0.0
230
1.0
 70
     8
 71
     3
 72
    38
 73
    34
 74
     0
 42
0.000000001
 43
0.0000000001
 40
0.0
 40
0.0
 40
0.0
 40
0.0
 40
1.0
 40
1.0
 40
1.0
 40
2.0
 40
2.0
 40
2.0
 40
3.0
 40
3.0
 40
3.0
 40
4.0
 40
4.0
 40
4.0
 40
5.0
 40
5.0
 40
5.0
 40
6.0
 40
6.0
 40
6.0
 40
7.0
 40
7.0
 40
7.0
 40
8.0
 40
8.0
 40
8.0
 40
9.0
 40
9.0
 40
9.0
 40
10.0
 40
10.0
 40
10.0
 40
11.0
 40
11.0
 40
11.0
 40
11.0
 10
4.130156853202332
 20
-4.72699953931232
 30
0.0
 10
4.131654473316489
 20
-4.727171115123278
 30
0.0
 10
4.133152093430839
 20
-4.727342690933785
 30
0.0
 10
4.134661144704756
 20
-4.727359724246125
 30
0.0
 10
4.139972170826941
 20
-4.727419672086778
 30
0.0
 10
4.145424789099902
 20
-4.72556537806254
 30
0.0
 10
4.150531793301091
 20
-4.723160108719244
 30
0.0
 10
4.155704964211247
 20
-4.720723676535547
 30
0.0
 10
4.160523507434628
 20
-4.717721899594822
 30
0.0
 10
4.164776110134472
 20
-4.713975881786216
 30
0.0
 10
4.169213991438048
 20
-4.710066656408346
 30
0.0
 10
4.173035543837487
 20
-4.705346926852121
 30
0.0
 10
4.175973373894747
 20
-4.700140439379945
 30
0.0
 10
4.178945517715614
 20
-4.694873140296188
 30
0.0
 10
4.181013174936586
 20
-4.689107646258023
 30
0.0
 10
4.181987504124043
 20
-4.683152694422497
 30
0.0
 10
4.182920804738357
 20
-4.677448502983913
 30
0.0
 10
4.182850917736985
 20
-4.671570473767648
 30
0.0
 10
4.181787539891336
 20
-4.665891682123101
 30
0.0
 10
4.1807564382594
 20
-4.660385256203221
 30
0.0
 10
4.178791240436408
 20
-4.65506615667769
 30
0.0
 10
4.176045063797446
 20
-4.650169472932629
 30
0.0
 10
4.173216239630581
 20
-4.645125421096613
 30
0.0
 10
4.169558721406983
 20
-4.640529593258571
 30
0.0
 10
4.165313014465978
 20
-4.636690891276925
 30
0.0
 10
4.160882553648685
 20
-4.632685146425613
 30
0.0
 10
4.155811599721284
 20
-4.629503854475363
 30
0.0
 10
4.150341532747733
 20
-4.626938815784997
 30
0.0
 10
4.144913344583788
 20
-4.624393415021502
 30
0.0
 10
4.139092131195417
 20
-4.622454867574329
 30
0.0
 10
4.133486095135356
 20
-4.622724436978558
 30
0.0
 10
4.132366610661565
 20
-4.622778268021082
 30
0.0
 10
4.131255706851348
 20
-4.622920152523398
 30
0.0
 10
4.130144803041133
 20
-4.623062037025714
 30
0.0
  0
SPLINE
  5
134
330
70
100
AcDbEntity
  8
Livello 1
370
    15
100
AcDbSpline
210
0.0
220
0.0
230
1.0
 70
     9
 71
     3
 72
    62
 73
    58
 74
     0
 42
0.000000001
 43
0.0000000001
 40
0.0
 40
0.0
 40
0.0
 40
0.0
 40
1.0
 40
1.0
 40
1.0
 40
2.0
 40
2.0
 40
2.0
 40
3.0
 40
3.0
 40
3.0
 40
4.0
 40
4.0
 40
4.0
 40
5.0
 40
5.0
 40
5.0
 40
6.0
 40
6.0
 40
6.0
 40
7.0
 40
7.0
 40
7.0
 40
8.0
 40
8.0
 40
8.0
 40
9.0
 40
9.0
 40
9.0
 40
10.0
 40
10.0
 40
10.0
 40
11.0
 40
11.0
 40
11.0
 40
12.0
 40
12.0
 40
12.0
 40
13.0
 40
13.0
 40
13.0
 40
14.0
 40
14.0
 40
14.0
 40
15.0
 40
15.0
 40
15.0
 40
16.0
 40
16.0
 40
16.0
 40
17.0
 40
17.0
 40
17.0
 40
18.0
 40
18.0
 40
18.0
 40
19.0
 40
19.0
 40
19.0
 40
19.0
 10
4.155441952801093
 20
-4.674435221796058
 30
0.0
 10
4.155386157136962
 20
-4.675813487381573
 30
0.0
 10
4.155330361473055
 20
-4.677191752967566
 30
0.0
 10
4.155131288408074
 20
-4.678492093022709
 30
0.0
 10
4.154932330499223
 20
-4.679791680878853
 30
0.0
 10
4.154590260903365
 20
-4.68101343333341
 30
0.0
 10
4.154186902873142
 20
-4.682093942349117
 30
0.0
 10
4.153777231408533
 20
-4.683191363692574
 30
0.0
 10
4.153304337899188
 20
-4.684143085457261
 30
0.0
 10
4.152808173808527
 20
-4.684899258927525
 30
0.0
 10
4.152305147950568
 20
-4.685665889998203
 30
0.0
 10
4.151778203413131
 20
-4.686231526653243
 30
0.0
 10
4.151282178577774
 20
-4.686560470162808
 30
0.0
 10
4.150793822866925
 20
-4.6868843278207
 30
0.0
 10
4.150335438139556
 20
-4.686978754860396
 30
0.0
 10
4.149937253514168
 20
-4.686837452767305
 30
0.0
 10
4.149546895659105
 20
-4.686698928127235
 30
0.0
 10
4.14921439456256
 20
-4.686333850324691
 30
0.0
 10
4.148943616307298
 20
-4.68576530619483
 30
0.0
 10
4.148670522876406
 20
-4.685191900968542
 30
0.0
 10
4.148460212269303
 20
-4.684411535236232
 30
0.0
 10
4.148298358296909
 20
-4.683465754182003
 30
0.0
 10
4.148132816302191
 20
-4.682498422456588
 30
0.0
 10
4.148017964377774
 20
-4.681358051181065
 30
0.0
 10
4.147934458101683
 20
-4.680104908074321
 30
0.0
 10
4.147850900854248
 20
-4.678851000062516
 30
0.0
 10
4.147798727532809
 20
-4.677484182507606
 30
0.0
 10
4.147766146928428
 20
-4.676084016233375
 30
0.0
 10
4.147734307427912
 20
-4.674715699224655
 30
0.0
 10
4.147721179440417
 20
-4.673315533392716
 30
0.0
 10
4.147728969860006
 20
-4.671964767702973
 30
0.0
 10
4.147736678093731
 20
-4.67062825212379
 30
0.0
 10
4.147764865699292
 20
-4.669340099874704
 30
0.0
 10
4.147827326549114
 20
-4.668167182698644
 30
0.0
 10
4.147890957256772
 20
-4.666972297413217
 30
0.0
 10
4.147990157071267
 20
-4.665897004206007
 30
0.0
 10
4.148145250369433
 20
-4.664995423903733
 30
0.0
 10
4.148303760170342
 20
-4.664073982967226
 30
0.0
 10
4.14852065309919
 20
-4.663333992568919
 30
0.0
 10
4.148811284519176
 20
-4.662819648797313
 30
0.0
 10
4.149099436628883
 20
-4.662309692776139
 30
0.0
 10
4.149460074503196
 20
-4.662021549922973
 30
0.0
 10
4.149884213251841
 20
-4.661975502025542
 30
0.0
 10
4.150296207137984
 20
-4.661930772671468
 30
0.0
 10
4.150768117372756
 20
-4.662114472391816
 30
0.0
 10
4.151265704321049
 20
-4.662513726252853
 30
0.0
 10
4.151760837819693
 20
-4.662911011515415
 30
0.0
 10
4.152281395447531
 20
-4.663521730496061
 30
0.0
 10
4.152777034041768
 20
-4.664310837883363
 30
0.0
 10
4.15328557647552
 20
-4.665120489506278
 30
0.0
 10
4.153767885462542
 20
-4.666117939053589
 30
0.0
 10
4.154182503219931
 20
-4.667252934787511
 30
0.0
 10
4.15460472155185
 20
-4.668408736720316
 30
0.0
 10
4.154956744140161
 20
-4.669707173923002
 30
0.0
 10
4.155156733068364
 20
-4.671073789068291
 30
0.0
 10
4.15531645967667
 20
-4.672165273503324
 30
0.0
 10
4.155379206238881
 20
-4.673300247649692
 30
0.0
 10
4.155441952801093
 20
-4.674435221796058
 30
0.0
  0
LWPOLYLINE
  5
135
330
70
100
AcDbEntity
  8
Livello 1
370
    15
100
AcDbPolyline
 90
       26
 70
     0
 43
0.0
 10
4.312828457291761
 20
-3.463886758200731
 10
4.311727187460378
 20
-3.46230293197465
 10
4.304303616143775
 20
-3.45406265061172
 10
4.295368886204276
 20
-3.447693003970452
 10
4.285340781366756
 20
-3.443491799680268
 10
4.274688194658393
 20
-3.441655531137342
 10
4.263909240136169
 20
-3.442270016018606
 10
4.25350792250406
 20
-3.445306558808765
 10
4.243970586747156
 20
-3.450623148483601
 10
4.235743211032497
 20
-3.457971180201099
 10
4.229210483917196
 20
-3.467007089939872
 10
4.224677863536953
 20
-3.477308339907053
 10
4.222357303180555
 20
-3.488393290301169
 10
4.222357303180555
 20
-3.499743613104258
 10
4.224677863536953
 20
-3.510828563498147
 10
4.229210483917196
 20
-3.521129825686041
 10
4.235743211032497
 20
-3.530165735425486
 10
4.243970586747156
 20
-3.537513779364143
 10
4.25350792250406
 20
-3.542830356817626
 10
4.263909240136169
 20
-3.545866887386596
 10
4.274688194658393
 20
-3.546481384489018
 10
4.285340781366756
 20
-3.544645103724485
 10
4.295368886204276
 20
-3.540443923877258
 10
4.304303616143775
 20
-3.534074277236248
 10
4.311727187460378
 20
-3.525833995872643
 10
4.312828457291761
 20
-3.524250157424951
  0
SPLINE
  5
136
330
70
100
AcDbEntity
  8
Livello 1
370
    15
100
AcDbSpline
210
0.0
220
0.0
230
1.0
 70
     8
 71
     3
 72
    20
 73
    16
 74
     0
 42
0.000000001
 43
0.0000000001
 40
0.0
 40
0.0
 40
0.0
 40
0.0
 40
1.0
 40
1.0
 40
1.0
 40
2.0
 40
2.0
 40
2.0
 40
3.0
 40
3.0
 40
3.0
 40
4.0
 40
4.0
 40
4.0
 40
5.0
 40
5.0
 40
5.0
 40
5.0
 10
4.178848669399361
 20
-3.494068451702361
 30
0.0
 10
4.179430407609501
 20
-3.49979727971814
 30
0.0
 10
4.180012145819868
 20
-3.505526107734111
 30
0.0
 10
4.181776809626426
 20
-3.510931368725771
 30
0.0
 10
4.183539219896712
 20
-3.516329727013966
 30
0.0
 10
4.186481536420241
 20
-3.52140534416235
 30
0.0
 10
4.19005869215382
 20
-3.525882172073705
 30
0.0
 10
4.193753141236792
 20
-3.530505793186573
 30
0.0
 10
4.198124744272373
 20
-3.534490713204581
 30
0.0
 10
4.203023369886738
 20
-3.537798583573898
 30
0.0
 10
4.20803639033829
 20
-3.541183700772316
 30
0.0
 10
4.213601335294915
 20
-3.543859777586053
 30
0.0
 10
4.219294777994651
 20
-3.545021860683831
 30
0.0
 10
4.223294135000642
 20
-3.545838165585163
 30
0.0
 10
4.227356897361981
 20
-3.545907412158481
 30
0.0
 10
4.231419659723093
 20
-3.545976658731285
 30
0.0
  0
SPLINE
  5
137
330
70
100
AcDbEntity
  8
Livello 1
370
    15
100
AcDbSpline
210
0.0
220
0.0
230
1.0
 70
     8
 71
     3
 72
    20
 73
    16
 74
     0
 42
0.000000001
 43
0.0000000001
 40
0.0
 40
0.0
 40
0.0
 40
0.0
 40
1.0
 40
1.0
 40
1.0
 40
2.0
 40
2.0
 40
2.0
 40
3.0
 40
3.0
 40
3.0
 40
4.0
 40
4.0
 40
4.0
 40
5.0
 40
5.0
 40
5.0
 40
5.0
 10
4.231431526565089
 20
-3.442039107558731
 30
0.0
 10
4.227099039942181
 20
-3.442193879208045
 30
0.0
 10
4.222766553319272
 20
-3.442348650856684
 30
0.0
 10
4.218519192482896
 20
-3.443318355578728
 30
0.0
 10
4.213222354942568
 20
-3.44452766380018
 30
0.0
 10
4.208057907690823
 20
-3.447004381448191
 30
0.0
 10
4.203363536397747
 20
-3.450115795155388
 30
0.0
 10
4.198503545766387
 20
-3.45333698080967
 30
0.0
 10
4.194147385144843
 20
-3.457238437207506
 30
0.0
 10
4.190444419516956
 20
-3.46177013398615
 30
0.0
 10
4.186612601751876
 20
-3.466459520269978
 30
0.0
 10
4.183480228357615
 20
-3.471823771014272
 30
0.0
 10
4.181659387774006
 20
-3.477539003941517
 30
0.0
 10
4.179968293726584
 20
-3.482846989971641
 30
0.0
 10
4.179408481562893
 20
-3.488457720837017
 30
0.0
 10
4.178848669399361
 20
-3.494068451702361
 30
0.0
  0
SPLINE
  5
138
330
70
100
AcDbEntity
  8
Livello 1
370
    15
100
AcDbSpline
210
0.0
220
0.0
230
1.0
 70
     9
 71
     3
 72
    62
 73
    58
 74
     0
 42
0.000000001
 43
0.0000000001
 40
0.0
 40
0.0
 40
0.0
 40
0.0
 40
1.0
 40
1.0
 40
1.0
 40
2.0
 40
2.0
 40
2.0
 40
3.0
 40
3.0
 40
3.0
 40
4.0
 40
4.0
 40
4.0
 40
5.0
 40
5.0
 40
5.0
 40
6.0
 40
6.0
 40
6.0
 40
7.0
 40
7.0
 40
7.0
 40
8.0
 40
8.0
 40
8.0
 40
9.0
 40
9.0
 40
9.0
 40
10.0
 40
10.0
 40
10.0
 40
11.0
 40
11.0
 40
11.0
 40
12.0
 40
12.0
 40
12.0
 40
13.0
 40
13.0
 40
13.0
 40
14.0
 40
14.0
 40
14.0
 40
15.0
 40
15.0
 40
15.0
 40
16.0
 40
16.0
 40
16.0
 40
17.0
 40
17.0
 40
17.0
 40
18.0
 40
18.0
 40
18.0
 40
19.0
 40
19.0
 40
19.0
 40
19.0
 10
4.215779308523107
 20
-3.494068451702361
 30
0.0
 10
4.215768965927673
 20
-3.495448701728772
 30
0.0
 10
4.215758623332463
 20
-3.496828951754705
 30
0.0
 10
4.215718788850804
 20
-3.498130358087616
 30
0.0
 10
4.215678980472594
 20
-3.499430911611071
 30
0.0
 10
4.215609718847519
 20
-3.500652724740227
 30
0.0
 10
4.215500248304935
 20
-3.501733233999618
 30
0.0
 10
4.215388937919568
 20
-3.502831903097951
 30
0.0
 10
4.215236055696863
 20
-3.503784478698941
 30
0.0
 10
4.215020563905901
 20
-3.504540774846948
 30
0.0
 10
4.214802267433888
 20
-3.505306914385115
 30
0.0
 10
4.214519721028308
 20
-3.505871631965713
 30
0.0
 10
4.21416678678199
 20
-3.506198735227968
 30
0.0
 10
4.213820320308908
 20
-3.506519844087973
 30
0.0
 10
4.213406022172634
 20
-3.506611967736548
 30
0.0
 10
4.212944465384422
 20
-3.506468898369973
 30
0.0
 10
4.212492857440111
 20
-3.50632891285924
 30
0.0
 10
4.211996006205127
 20
-3.505963764217131
 30
0.0
 10
4.211495390755265
 20
-3.505396751797948
 30
0.0
 10
4.210990034691506
 20
-3.504824370013226
 30
0.0
 10
4.210480842784533
 20
-3.504046283221341
 30
0.0
 10
4.210018060576362
 20
-3.503103994804142
 30
0.0
 10
4.209543448680856
 20
-3.502137619512089
 30
0.0
 10
4.209117649468121
 20
-3.500998540622278
 30
0.0
 10
4.208790337382528
 20
-3.499746277338468
 30
0.0
 10
4.208462187118215
 20
-3.49849080726699
 30
0.0
 10
4.208233029037526
 20
-3.497121572375618
 30
0.0
 10
4.208133224751493
 20
-3.495718077185207
 30
0.0
 10
4.208035742325185
 20
-3.4943472330826
 30
0.0
 10
4.20806166509663
 20
-3.492943704211201
 30
0.0
 10
4.208207334463662
 20
-3.4915893938436
 30
0.0
 10
4.208351115737122
 20
-3.490252637370243
 30
0.0
 10
4.2086115595327
 20
-3.488963831778745
 30
0.0
 10
4.20895715756213
 20
-3.487790537828745
 30
0.0
 10
4.209308458372237
 20
-3.486597883125336
 30
0.0
 10
4.209747746895931
 20
-3.485524583676208
 30
0.0
 10
4.210226799672977
 20
-3.484624816334787
 30
0.0
 10
4.210716307619644
 20
-3.483705411866663
 30
0.0
 10
4.211247334443816
 20
-3.482967196725571
 30
0.0
 10
4.211765040604356
 20
-3.482453758634161
 30
0.0
 10
4.21227954983668
 20
-3.481943491115973
 30
0.0
 10
4.212780902412101
 20
-3.48165523314097
 30
0.0
 10
4.213227045325036
 20
-3.481608854144098
 30
0.0
 10
4.213661630625096
 20
-3.481563676624208
 30
0.0
 10
4.214043829693173
 20
-3.481748008352336
 30
0.0
 10
4.214359784897403
 20
-3.482149180428076
 30
0.0
 10
4.214674312518498
 20
-3.482548539884603
 30
0.0
 10
4.214923193543832
 20
-3.483162784611734
 30
0.0
 10
4.215115205332466
 20
-3.483956802341306
 30
0.0
 10
4.215311783640284
 20
-3.484769703794332
 30
0.0
 10
4.215448755560673
 20
-3.485771030831767
 30
0.0
 10
4.215547324592805
 20
-3.486910142803248
 30
0.0
 10
4.215647412296708
 20
-3.488066805288956
 30
0.0
 10
4.215707904634687
 20
-3.489365531173653
 30
0.0
 10
4.215739711645178
 20
-3.490730923756211
 30
0.0
 10
4.215764974567988
 20
-3.491815395580646
 30
0.0
 10
4.21577214154542
 20
-3.492941923641841
 30
0.0
 10
4.215779308523107
 20
-3.494068451702361
 30
0.0
  0
LWPOLYLINE
  5
139
330
70
100
AcDbEntity
  8
Livello 1
370
    15
100
AcDbPolyline
 90
        3
 70
     0
 43
0.0
 10
4.149205737860916
 20
-4.674435221796058
 10
4.148912500982821
 20
-4.669664531299511
 10
4.148087761569263
 20
-4.665653807545518
  0
LWPOLYLINE
  5
13A
330
70
100
AcDbEntity
  8
Livello 1
370
    15
100
AcDbPolyline
 90
        3
 70
     0
 43
0.0
 10
4.14823233905798
 20
-4.682718595317973
 10
4.148912500982821
 20
-4.679205912293086
 10
4.149205737860916
 20
-4.674435221796058
  0
SPLINE
  5
13B
330
70
100
AcDbEntity
  8
Livello 1
370
    15
100
AcDbSpline
210
0.0
220
0.0
230
1.0
 70
     8
 71
     3
 72
    20
 73
    16
 74
     0
 42
0.000000001
 43
0.0000000001
 40
0.0
 40
0.0
 40
0.0
 40
0.0
 40
1.0
 40
1.0
 40
1.0
 40
2.0
 40
2.0
 40
2.0
 40
3.0
 40
3.0
 40
3.0
 40
4.0
 40
4.0
 40
4.0
 40
5.0
 40
5.0
 40
5.0
 40
5.0
 10
4.275619650101806
 20
-4.675091356726801
 30
0.0
 10
4.276096832992362
 20
-4.680820172476986
 30
0.0
 10
4.276574015882917
 20
-4.686548988227586
 30
0.0
 10
4.2779931162867
 20
-4.691954249306999
 30
0.0
 10
4.279410405603971
 20
-4.69735261207499
 30
0.0
 10
4.281767209777386
 20
-4.702428245499652
 30
0.0
 10
4.284539702309598
 20
-4.706905052655381
 30
0.0
 10
4.287403127562357
 20
-4.711528690957281
 30
0.0
 10
4.290709955985436
 20
-4.715513577991703
 30
0.0
 10
4.294290567896566
 20
-4.718821464155576
 30
0.0
 10
4.297954708509982
 20
-4.722206516861891
 30
0.0
 10
4.301905555274978
 20
-4.724882614050856
 30
0.0
 10
4.305647477957665
 20
-4.726044716823221
 30
0.0
 10
4.308276069912404
 20
-4.726861060252644
 30
0.0
 10
4.310801565055616
 20
-4.726930299782708
 30
0.0
 10
4.313327060199051
 20
-4.72699953931232
 30
0.0
  0
SPLINE
  5
13C
330
70
100
AcDbEntity
  8
Livello 1
370
    15
100
AcDbSpline
210
0.0
220
0.0
230
1.0
 70
     8
 71
     3
 72
    20
 73
    16
 74
     0
 42
0.000000001
 43
0.0000000001
 40
0.0
 40
0.0
 40
0.0
 40
0.0
 40
1.0
 40
1.0
 40
1.0
 40
2.0
 40
2.0
 40
2.0
 40
3.0
 40
3.0
 40
3.0
 40
4.0
 40
4.0
 40
4.0
 40
5.0
 40
5.0
 40
5.0
 40
5.0
 10
4.313358285514659
 20
-4.623062037025714
 30
0.0
 10
4.310648903032866
 20
-4.623216800989846
 30
0.0
 10
4.307939520551076
 20
-4.623371564954426
 30
0.0
 10
4.305129064390126
 20
-4.624341260603202
 30
0.0
 10
4.301624190810528
 20
-4.625550552072941
 30
0.0
 10
4.29796212569408
 20
-4.628027239413441
 30
0.0
 10
4.294538146152528
 20
-4.631138626852207
 30
0.0
 10
4.290993336652738
 20
-4.634359813081002
 30
0.0
 10
4.287703712987042
 20
-4.638261286109141
 30
0.0
 10
4.284838597630558
 20
-4.642793014567826
 30
0.0
 10
4.281873811403116
 20
-4.647482391589949
 30
0.0
 10
4.279363582583288
 20
-4.652846637084183
 30
0.0
 10
4.277898535966602
 20
-4.658561860080911
 30
0.0
 10
4.276537876570403
 20
-4.663869863103704
 30
0.0
 10
4.276078763335881
 20
-4.669480609915042
 30
0.0
 10
4.275619650101806
 20
-4.675091356726801
 30
0.0
  0
LWPOLYLINE
  5
13D
330
70
100
AcDbEntity
  8
Livello 1
370
    15
100
AcDbPolyline
 90
       26
 70
     0
 43
0.0
 10
4.444855712752699
 20
-4.644909638782698
 10
4.444175089475606
 20
-4.643325763671501
 10
4.439587070130443
 20
-4.635085506750405
 10
4.43406510373282
 20
-4.62871588455171
 10
4.427867391676958
 20
-4.624514704704485
 10
4.421283731893601
 20
-4.622678387276028
 10
4.414621968910807
 20
-4.623292872157066
 10
4.408193599122316
 20
-4.626329414947451
 10
4.402299206674076
 20
-4.631646053507401
 10
4.397214408444725
 20
-4.638994060783031
 10
4.393176959853727
 20
-4.648029970521545
 10
4.390375648793447
 20
-4.658331220488087
 10
4.388941462712133
 20
-4.669416195325386
 10
4.388941462712133
 20
-4.680766518127833
 10
4.390375648793447
 20
-4.69185149296423
 10
4.393176959853727
 20
-4.702152742931669
 10
4.397214408444725
 20
-4.711188652670638
 10
4.402299206674076
 20
-4.718536659945818
 10
4.408193599122316
 20
-4.723853200735603
 10
4.414621968910807
 20
-4.726889743525988
 10
4.421283731893601
 20
-4.727504228406996
 10
4.427867391676958
 20
-4.725668008748701
 10
4.43406510373282
 20
-4.721466828901506
 10
4.439587070130443
 20
-4.715097108933099
 10
4.444175089475606
 20
-4.706856852012003
 10
4.444855712752699
 20
-4.705273074670554
  0
SPLINE
  5
13E
330
70
100
AcDbEntity
  8
Livello 1
370
    15
100
AcDbSpline
210
0.0
220
0.0
230
1.0
 70
     8
 71
     3
 72
    38
 73
    34
 74
     0
 42
0.000000001
 43
0.0000000001
 40
0.0
 40
0.0
 40
0.0
 40
0.0
 40
1.0
 40
1.0
 40
1.0
 40
2.0
 40
2.0
 40
2.0
 40
3.0
 40
3.0
 40
3.0
 40
4.0
 40
4.0
 40
4.0
 40
5.0
 40
5.0
 40
5.0
 40
6.0
 40
6.0
 40
6.0
 40
7.0
 40
7.0
 40
7.0
 40
8.0
 40
8.0
 40
8.0
 40
9.0
 40
9.0
 40
9.0
 40
10.0
 40
10.0
 40
10.0
 40
11.0
 40
11.0
 40
11.0
 40
11.0
 10
4.048217543020292
 20
-3.545976658731285
 30
0.0
 10
4.049109569011986
 20
-3.546148250237333
 30
0.0
 10
4.050001595004162
 20
-3.546319841743321
 30
0.0
 10
4.050931200158927
 20
-3.546336880327892
 30
0.0
 10
4.054202817555786
 20
-3.546396845280633
 30
0.0
 10
4.057939887137943
 20
-3.544542531429891
 30
0.0
 10
4.061537126102137
 20
-3.542137240358981
 30
0.0
 10
4.065180938210239
 20
-3.539700808191038
 30
0.0
 10
4.068681275512004
 20
-3.536699039536991
 30
0.0
 10
4.071869271410736
 20
-3.532953001204543
 30
0.0
 10
4.075196148862028
 20
-3.529043770811183
 30
0.0
 10
4.078182878522053
 20
-3.524324011666343
 30
0.0
 10
4.080510801135615
 20
-3.519117534355728
 30
0.0
 10
4.082865917040891
 20
-3.513850238332266
 30
0.0
 10
4.084546744484515
 20
-3.508084786673156
 30
0.0
 10
4.085338296042178
 20
-3.50212986272565
 30
0.0
 10
4.08609652067631
 20
-3.496425660660943
 30
0.0
 10
4.086038775895397
 20
-3.490547605246256
 30
0.0
 10
4.085175679975908
 20
-3.484868801541201
 30
0.0
 10
4.084338780166143
 20
-3.479362357088636
 30
0.0
 10
4.082744674283977
 20
-3.474043252787069
 30
0.0
 10
4.080567605545343
 20
-3.469146567908381
 30
0.0
 10
4.078325024885158
 20
-3.464102532957196
 30
0.0
 10
4.075463868680268
 20
-3.459506722659711
 30
0.0
 10
4.072273281776576
 20
-3.455667986252678
 30
0.0
 10
4.068943893926126
 20
-3.451662252280438
 30
0.0
 10
4.065255789296243
 20
-3.448480895359028
 30
0.0
 10
4.061404207693928
 20
-3.445915910761455
 30
0.0
 10
4.05758201554785
 20
-3.443370498253774
 30
0.0
 10
4.053598831729787
 20
-3.441432087512661
 30
0.0
 10
4.05018555673103
 20
-3.441701580839423
 30
0.0
 10
4.049503964939981
 20
-3.441755395560043
 30
0.0
 10
4.048845098547751
 20
-3.441897251559721
 30
0.0
 10
4.048186232155871
 20
-3.442039107558731
 30
0.0
  0
SPLINE
  5
13F
330
70
100
AcDbEntity
  8
Livello 1
370
    15
100
AcDbSpline
210
0.0
220
0.0
230
1.0
 70
     8
 71
     3
 72
    17
 73
    13
 74
     0
 42
0.000000001
 43
0.0000000001
 40
0.0
 40
0.0
 40
0.0
 40
0.0
 40
1.0
 40
1.0
 40
1.0
 40
2.0
 40
2.0
 40
2.0
 40
3.0
 40
3.0
 40
3.0
 40
4.0
 40
4.0
 40
4.0
 40
4.0
 10
4.339123002295471
 20
-3.524250157424951
 30
0.0
 10
4.339206124329303
 20
-3.524799290424857
 30
0.0
 10
4.339289246363358
 20
-3.525348423424761
 30
0.0
 10
4.339375236851056
 20
-3.525882172073705
 30
0.0
 10
4.340188835138191
 20
-3.530932230478748
 30
0.0
 10
4.341259216944685
 20
-3.534605084565113
 30
0.0
 10
4.342187782303997
 20
-3.537798583573898
 30
0.0
 10
4.343138019116658
 20
-3.541066614510399
 30
0.0
 10
4.343939742629981
 20
-3.543832654276466
 30
0.0
 10
4.344292252476993
 20
-3.545021860683831
 30
0.0
 10
4.344539101079406
 20
-3.54585461455455
 30
0.0
 10
4.344565671340035
 20
-3.545914145649986
 30
0.0
 10
4.344592241600663
 20
-3.545973676743849
 30
0.0
  0
SPLINE
  5
140
330
70
100
AcDbEntity
  8
Livello 1
370
    15
100
AcDbSpline
210
0.0
220
0.0
230
1.0
 70
     8
 71
     3
 72
    17
 73
    13
 74
     0
 42
0.000000001
 43
0.0000000001
 40
0.0
 40
0.0
 40
0.0
 40
0.0
 40
1.0
 40
1.0
 40
1.0
 40
2.0
 40
2.0
 40
2.0
 40
3.0
 40
3.0
 40
3.0
 40
4.0
 40
4.0
 40
4.0
 40
4.0
 10
4.344630665237779
 20
-3.44204284726359
 30
0.0
 10
4.344576089815029
 20
-3.442186536406424
 30
0.0
 10
4.34452151439299
 20
-3.44233022554788
 30
0.0
 10
4.344229031906364
 20
-3.443318355578728
 30
0.0
 10
4.343863209265069
 20
-3.444554259795123
 30
0.0
 10
4.343125210277093
 20
-3.447111187940508
 30
0.0
 10
4.342248210317036
 20
-3.450115795155388
 30
0.0
 10
4.341340268353676
 20
-3.453226409861551
 30
0.0
 10
4.34028334402397
 20
-3.456816850616196
 30
0.0
 10
4.339473141353717
 20
-3.46177013398615
 30
0.0
 10
4.339360604004816
 20
-3.462458146256958
 30
0.0
 10
4.339252826725068
 20
-3.463172452229198
 30
0.0
 10
4.339145049446028
 20
-3.463886758200731
 30
0.0
  0
SPLINE
  5
141
330
70
100
AcDbEntity
  8
Livello 1
370
    15
100
AcDbSpline
210
0.0
220
0.0
230
1.0
 70
     8
 71
     3
 72
    17
 73
    13
 74
     0
 42
0.000000001
 43
0.0000000001
 40
0.0
 40
0.0
 40
0.0
 40
0.0
 40
1.0
 40
1.0
 40
1.0
 40
2.0
 40
2.0
 40
2.0
 40
3.0
 40
3.0
 40
3.0
 40
4.0
 40
4.0
 40
4.0
 40
4.0
 10
4.016900763464861
 20
-4.726996508440443
 30
0.0
 10
4.016846030086548
 20
-4.727170830460996
 30
0.0
 10
4.016791296708205
 20
-4.727345152480617
 30
0.0
 10
4.016786274714346
 20
-4.727359724246125
 30
0.0
 10
4.016768743713931
 20
-4.727410592014793
 30
0.0
 10
4.017356995479008
 20
-4.725514743710006
 30
0.0
 10
4.018076375212221
 20
-4.723160108719244
 30
0.0
 10
4.018805055737211
 20
-4.720775030877002
 30
0.0
 10
4.019668276831103
 20
-4.717919226440657
 30
0.0
 10
4.020549835735056
 20
-4.713975881786216
 30
0.0
 10
4.02112851594617
 20
-4.711387358765168
 30
0.0
 10
4.021715097885017
 20
-4.708330216718068
 30
0.0
 10
4.022301679824095
 20
-4.705273074670554
 30
0.0
  0
SPLINE
  5
142
330
70
100
AcDbEntity
  8
Livello 1
370
    15
100
AcDbSpline
210
0.0
220
0.0
230
1.0
 70
     8
 71
     3
 72
    17
 73
    13
 74
     0
 42
0.000000001
 43
0.0000000001
 40
0.0
 40
0.0
 40
0.0
 40
0.0
 40
1.0
 40
1.0
 40
1.0
 40
2.0
 40
2.0
 40
2.0
 40
3.0
 40
3.0
 40
3.0
 40
4.0
 40
4.0
 40
4.0
 40
4.0
 10
4.022305957264633
 20
-4.644909638782698
 30
0.0
 10
4.02175799262388
 20
-4.642033538572277
 30
0.0
 10
4.021210027983386
 20
-4.639157438361861
 30
0.0
 10
4.02066664652443
 20
-4.636690891276925
 30
0.0
 10
4.019736723857588
 20
-4.63246973502401
 30
0.0
 10
4.018820224237845
 20
-4.629448062279936
 30
0.0
 10
4.018051590499606
 20
-4.626938815784997
 30
0.0
 10
4.017288830844695
 20
-4.624448745553004
 30
0.0
 10
4.016671685654176
 20
-4.622463299329949
 30
0.0
 10
4.016754866080306
 20
-4.622724436978558
 30
0.0
 10
4.016771659776002
 20
-4.622777159312572
 30
0.0
 10
4.016816999802099
 20
-4.622921455800637
 30
0.0
 10
4.016862339827971
 20
-4.623065752287806
 30
0.0
  0
LWPOLYLINE
  5
143
330
70
100
AcDbEntity
  8
Livello 1
370
    15
100
AcDbPolyline
 90
       13
 70
     0
 43
0.0
 10
3.972732377260996
 20
-3.494068451702361
 10
3.972011078580196
 20
-3.482784685873846
 10
3.969880864325711
 20
-3.472028511777701
 10
3.966441313312543
 20
-3.46230293197465
 10
3.961853257303908
 20
-3.45406265061172
 10
3.956331301599651
 20
-3.447693003970452
 10
3.950133608066977
 20
-3.443491799680268
 10
3.943549918303024
 20
-3.441655531137342
 10
3.936888159139621
 20
-3.442270016018606
 10
3.9304598260148
 20
-3.445306558808765
 10
3.924565415234722
 20
-3.450623148483601
 10
3.919480638392371
 20
-3.457971180201099
 10
3.916637289257502
 20
-3.463886758200731
  0
LWPOLYLINE
  5
144
330
70
100
AcDbEntity
  8
Livello 1
370
    15
100
AcDbPolyline
 90
       13
 70
     0
 43
0.0
 10
3.916637289257502
 20
-3.524250157424951
 10
3.919480638392371
 20
-3.530165735425486
 10
3.924565415234722
 20
-3.537513779364143
 10
3.9304598260148
 20
-3.542830356817626
 10
3.936888159139621
 20
-3.545866887386596
 10
3.943549918303024
 20
-3.546481384489018
 10
3.950133608066977
 20
-3.544645103724485
 10
3.956331301599651
 20
-3.540443923877258
 10
3.961853257303908
 20
-3.534074277236248
 10
3.966441313312543
 20
-3.525833995872643
 10
3.969880864325711
 20
-3.516108391626826
 10
3.972011078580196
 20
-3.505352241973191
 10
3.972732377260996
 20
-3.494068451702361
  0
LINE
  5
145
330
70
100
AcDbEntity
  8
Livello 1
370
    15
100
AcDbLine
 10
3.400732990624921
 20
-2.004667360130508
 30
0.0
 11
5.000901288183143
 21
-2.004667360130508
 31
0.0
  0
LINE
  5
146
330
70
100
AcDbEntity
  8
Livello 1
370
    15
100
AcDbLine
 10
3.360591729103796
 20
-2.004667360130508
 30
0.0
 11
3.400732990624921
 21
-2.004667360130508
 31
0.0
  0
LINE
  5
147
330
70
100
AcDbEntity
  8
Livello 1
370
    15
100
AcDbLine
 10
3.400732990624921
 20
-2.18182085821276
 30
0.0
 11
5.000901288183143
 21
-2.18182085821276
 31
0.0
  0
LINE
  5
148
330
70
100
AcDbEntity
  8
Livello 1
370
    15
100
AcDbLine
 10
3.360591729103796
 20
-2.18182085821276
 30
0.0
 11
3.400732990624921
 21
-2.18182085821276
 31
0.0
  0
SPLINE
  5
149
330
70
100
AcDbEntity
  8
Livello 1
370
    15
100
AcDbSpline
210
0.0
220
0.0
230
1.0
 70
     8
 71
     3
 72
    38
 73
    34
 74
     0
 42
0.000000001
 43
0.0000000001
 40
0.0
 40
0.0
 40
0.0
 40
0.0
 40
1.0
 40
1.0
 40
1.0
 40
2.0
 40
2.0
 40
2.0
 40
3.0
 40
3.0
 40
3.0
 40
4.0
 40
4.0
 40
4.0
 40
5.0
 40
5.0
 40
5.0
 40
6.0
 40
6.0
 40
6.0
 40
7.0
 40
7.0
 40
7.0
 40
8.0
 40
8.0
 40
8.0
 40
9.0
 40
9.0
 40
9.0
 40
10.0
 40
10.0
 40
10.0
 40
11.0
 40
11.0
 40
11.0
 40
11.0
 10
4.130156853202332
 20
-4.72699953931232
 30
0.0
 10
4.131654473316489
 20
-4.727171115123278
 30
0.0
 10
4.133152093430839
 20
-4.727342690933785
 30
0.0
 10
4.134661144704756
 20
-4.727359724246125
 30
0.0
 10
4.139972170826941
 20
-4.727419672086778
 30
0.0
 10
4.145424789099902
 20
-4.72556537806254
 30
0.0
 10
4.150531793301091
 20
-4.723160108719244
 30
0.0
 10
4.155704964211247
 20
-4.720723676535547
 30
0.0
 10
4.160523507434628
 20
-4.717721899594822
 30
0.0
 10
4.164776110134472
 20
-4.713975881786216
 30
0.0
 10
4.169213991438048
 20
-4.710066656408346
 30
0.0
 10
4.173035543837487
 20
-4.705346926852121
 30
0.0
 10
4.175973373894747
 20
-4.700140439379945
 30
0.0
 10
4.178945517715614
 20
-4.694873140296188
 30
0.0
 10
4.181013174936586
 20
-4.689107646258023
 30
0.0
 10
4.181987504124043
 20
-4.683152694422497
 30
0.0
 10
4.182920804738357
 20
-4.677448502983913
 30
0.0
 10
4.182850917736985
 20
-4.671570473767648
 30
0.0
 10
4.181787539891336
 20
-4.665891682123101
 30
0.0
 10
4.1807564382594
 20
-4.660385256203221
 30
0.0
 10
4.178791240436408
 20
-4.65506615667769
 30
0.0
 10
4.176045063797446
 20
-4.650169472932629
 30
0.0
 10
4.173216239630581
 20
-4.645125421096613
 30
0.0
 10
4.169558721406983
 20
-4.640529593258571
 30
0.0
 10
4.165313014465978
 20
-4.636690891276925
 30
0.0
 10
4.160882553648685
 20
-4.632685146425613
 30
0.0
 10
4.155811599721284
 20
-4.629503854475363
 30
0.0
 10
4.150341532747733
 20
-4.626938815784997
 30
0.0
 10
4.144913344583788
 20
-4.624393415021502
 30
0.0
 10
4.139092131195417
 20
-4.622454867574329
 30
0.0
 10
4.133486095135356
 20
-4.622724436978558
 30
0.0
 10
4.132366610661565
 20
-4.622778268021082
 30
0.0
 10
4.131255706851348
 20
-4.622920152523398
 30
0.0
 10
4.130144803041133
 20
-4.623062037025714
 30
0.0
  0
SPLINE
  5
14A
330
70
100
AcDbEntity
  8
Livello 1
370
    15
100
AcDbSpline
210
0.0
220
0.0
230
1.0
 70
     9
 71
     3
 72
    62
 73
    58
 74
     0
 42
0.000000001
 43
0.0000000001
 40
0.0
 40
0.0
 40
0.0
 40
0.0
 40
1.0
 40
1.0
 40
1.0
 40
2.0
 40
2.0
 40
2.0
 40
3.0
 40
3.0
 40
3.0
 40
4.0
 40
4.0
 40
4.0
 40
5.0
 40
5.0
 40
5.0
 40
6.0
 40
6.0
 40
6.0
 40
7.0
 40
7.0
 40
7.0
 40
8.0
 40
8.0
 40
8.0
 40
9.0
 40
9.0
 40
9.0
 40
10.0
 40
10.0
 40
10.0
 40
11.0
 40
11.0
 40
11.0
 40
12.0
 40
12.0
 40
12.0
 40
13.0
 40
13.0
 40
13.0
 40
14.0
 40
14.0
 40
14.0
 40
15.0
 40
15.0
 40
15.0
 40
16.0
 40
16.0
 40
16.0
 40
17.0
 40
17.0
 40
17.0
 40
18.0
 40
18.0
 40
18.0
 40
19.0
 40
19.0
 40
19.0
 40
19.0
 10
4.155441952801093
 20
-4.674435221796058
 30
0.0
 10
4.155386157136962
 20
-4.675813487381573
 30
0.0
 10
4.155330361473055
 20
-4.677191752967566
 30
0.0
 10
4.155131288408074
 20
-4.678492093022709
 30
0.0
 10
4.154932330499223
 20
-4.679791680878853
 30
0.0
 10
4.154590260903365
 20
-4.68101343333341
 30
0.0
 10
4.154186902873142
 20
-4.682093942349117
 30
0.0
 10
4.153777231408533
 20
-4.683191363692574
 30
0.0
 10
4.153304337899188
 20
-4.684143085457261
 30
0.0
 10
4.152808173808527
 20
-4.684899258927525
 30
0.0
 10
4.152305147950568
 20
-4.685665889998203
 30
0.0
 10
4.151778203413131
 20
-4.686231526653243
 30
0.0
 10
4.151282178577774
 20
-4.686560470162808
 30
0.0
 10
4.150793822866925
 20
-4.6868843278207
 30
0.0
 10
4.150335438139556
 20
-4.686978754860396
 30
0.0
 10
4.149937253514168
 20
-4.686837452767305
 30
0.0
 10
4.149546895659105
 20
-4.686698928127235
 30
0.0
 10
4.14921439456256
 20
-4.686333850324691
 30
0.0
 10
4.148943616307298
 20
-4.68576530619483
 30
0.0
 10
4.148670522876406
 20
-4.685191900968542
 30
0.0
 10
4.148460212269303
 20
-4.684411535236232
 30
0.0
 10
4.148298358296909
 20
-4.683465754182003
 30
0.0
 10
4.148132816302191
 20
-4.682498422456588
 30
0.0
 10
4.148017964377774
 20
-4.681358051181065
 30
0.0
 10
4.147934458101683
 20
-4.680104908074321
 30
0.0
 10
4.147850900854248
 20
-4.678851000062516
 30
0.0
 10
4.147798727532809
 20
-4.677484182507606
 30
0.0
 10
4.147766146928428
 20
-4.676084016233375
 30
0.0
 10
4.147734307427912
 20
-4.674715699224655
 30
0.0
 10
4.147721179440417
 20
-4.673315533392716
 30
0.0
 10
4.147728969860006
 20
-4.671964767702973
 30
0.0
 10
4.147736678093731
 20
-4.67062825212379
 30
0.0
 10
4.147764865699292
 20
-4.669340099874704
 30
0.0
 10
4.147827326549114
 20
-4.668167182698644
 30
0.0
 10
4.147890957256772
 20
-4.666972297413217
 30
0.0
 10
4.147990157071267
 20
-4.665897004206007
 30
0.0
 10
4.148145250369433
 20
-4.664995423903733
 30
0.0
 10
4.148303760170342
 20
-4.664073982967226
 30
0.0
 10
4.14852065309919
 20
-4.663333992568919
 30
0.0
 10
4.148811284519176
 20
-4.662819648797313
 30
0.0
 10
4.149099436628883
 20
-4.662309692776139
 30
0.0
 10
4.149460074503196
 20
-4.662021549922973
 30
0.0
 10
4.149884213251841
 20
-4.661975502025542
 30
0.0
 10
4.150296207137984
 20
-4.661930772671468
 30
0.0
 10
4.150768117372756
 20
-4.662114472391816
 30
0.0
 10
4.151265704321049
 20
-4.662513726252853
 30
0.0
 10
4.151760837819693
 20
-4.662911011515415
 30
0.0
 10
4.152281395447531
 20
-4.663521730496061
 30
0.0
 10
4.152777034041768
 20
-4.664310837883363
 30
0.0
 10
4.15328557647552
 20
-4.665120489506278
 30
0.0
 10
4.153767885462542
 20
-4.666117939053589
 30
0.0
 10
4.154182503219931
 20
-4.667252934787511
 30
0.0
 10
4.15460472155185
 20
-4.668408736720316
 30
0.0
 10
4.154956744140161
 20
-4.669707173923002
 30
0.0
 10
4.155156733068364
 20
-4.671073789068291
 30
0.0
 10
4.15531645967667
 20
-4.672165273503324
 30
0.0
 10
4.155379206238881
 20
-4.673300247649692
 30
0.0
 10
4.155441952801093
 20
-4.674435221796058
 30
0.0
  0
LWPOLYLINE
  5
14B
330
70
100
AcDbEntity
  8
Livello 1
370
    15
100
AcDbPolyline
 90
       26
 70
     0
 43
0.0
 10
4.312828457291761
 20
-3.463886758200731
 10
4.311727187460378
 20
-3.46230293197465
 10
4.304303616143775
 20
-3.45406265061172
 10
4.295368886204276
 20
-3.447693003970452
 10
4.285340781366756
 20
-3.443491799680268
 10
4.274688194658393
 20
-3.441655531137342
 10
4.263909240136169
 20
-3.442270016018606
 10
4.25350792250406
 20
-3.445306558808765
 10
4.243970586747156
 20
-3.450623148483601
 10
4.235743211032497
 20
-3.457971180201099
 10
4.229210483917196
 20
-3.467007089939872
 10
4.224677863536953
 20
-3.477308339907053
 10
4.222357303180555
 20
-3.488393290301169
 10
4.222357303180555
 20
-3.499743613104258
 10
4.224677863536953
 20
-3.510828563498147
 10
4.229210483917196
 20
-3.521129825686041
 10
4.235743211032497
 20
-3.530165735425486
 10
4.243970586747156
 20
-3.537513779364143
 10
4.25350792250406
 20
-3.542830356817626
 10
4.263909240136169
 20
-3.545866887386596
 10
4.274688194658393
 20
-3.546481384489018
 10
4.285340781366756
 20
-3.544645103724485
 10
4.295368886204276
 20
-3.540443923877258
 10
4.304303616143775
 20
-3.534074277236248
 10
4.311727187460378
 20
-3.525833995872643
 10
4.312828457291761
 20
-3.524250157424951
  0
SPLINE
  5
14C
330
70
100
AcDbEntity
  8
Livello 1
370
    15
100
AcDbSpline
210
0.0
220
0.0
230
1.0
 70
     8
 71
     3
 72
    20
 73
    16
 74
     0
 42
0.000000001
 43
0.0000000001
 40
0.0
 40
0.0
 40
0.0
 40
0.0
 40
1.0
 40
1.0
 40
1.0
 40
2.0
 40
2.0
 40
2.0
 40
3.0
 40
3.0
 40
3.0
 40
4.0
 40
4.0
 40
4.0
 40
5.0
 40
5.0
 40
5.0
 40
5.0
 10
4.178848669399361
 20
-3.494068451702361
 30
0.0
 10
4.179430407609501
 20
-3.49979727971814
 30
0.0
 10
4.180012145819868
 20
-3.505526107734111
 30
0.0
 10
4.181776809626426
 20
-3.510931368725771
 30
0.0
 10
4.183539219896712
 20
-3.516329727013966
 30
0.0
 10
4.186481536420241
 20
-3.52140534416235
 30
0.0
 10
4.19005869215382
 20
-3.525882172073705
 30
0.0
 10
4.193753141236792
 20
-3.530505793186573
 30
0.0
 10
4.198124744272373
 20
-3.534490713204581
 30
0.0
 10
4.203023369886738
 20
-3.537798583573898
 30
0.0
 10
4.20803639033829
 20
-3.541183700772316
 30
0.0
 10
4.213601335294915
 20
-3.543859777586053
 30
0.0
 10
4.219294777994651
 20
-3.545021860683831
 30
0.0
 10
4.223294135000642
 20
-3.545838165585163
 30
0.0
 10
4.227356897361981
 20
-3.545907412158481
 30
0.0
 10
4.231419659723093
 20
-3.545976658731285
 30
0.0
  0
SPLINE
  5
14D
330
70
100
AcDbEntity
  8
Livello 1
370
    15
100
AcDbSpline
210
0.0
220
0.0
230
1.0
 70
     8
 71
     3
 72
    20
 73
    16
 74
     0
 42
0.000000001
 43
0.0000000001
 40
0.0
 40
0.0
 40
0.0
 40
0.0
 40
1.0
 40
1.0
 40
1.0
 40
2.0
 40
2.0
 40
2.0
 40
3.0
 40
3.0
 40
3.0
 40
4.0
 40
4.0
 40
4.0
 40
5.0
 40
5.0
 40
5.0
 40
5.0
 10
4.231431526565089
 20
-3.442039107558731
 30
0.0
 10
4.227099039942181
 20
-3.442193879208045
 30
0.0
 10
4.222766553319272
 20
-3.442348650856684
 30
0.0
 10
4.218519192482896
 20
-3.443318355578728
 30
0.0
 10
4.213222354942568
 20
-3.44452766380018
 30
0.0
 10
4.208057907690823
 20
-3.447004381448191
 30
0.0
 10
4.203363536397747
 20
-3.450115795155388
 30
0.0
 10
4.198503545766387
 20
-3.45333698080967
 30
0.0
 10
4.194147385144843
 20
-3.457238437207506
 30
0.0
 10
4.190444419516956
 20
-3.46177013398615
 30
0.0
 10
4.186612601751876
 20
-3.466459520269978
 30
0.0
 10
4.183480228357615
 20
-3.471823771014272
 30
0.0
 10
4.181659387774006
 20
-3.477539003941517
 30
0.0
 10
4.179968293726584
 20
-3.482846989971641
 30
0.0
 10
4.179408481562893
 20
-3.488457720837017
 30
0.0
 10
4.178848669399361
 20
-3.494068451702361
 30
0.0
  0
SPLINE
  5
14E
330
70
100
AcDbEntity
  8
Livello 1
370
    15
100
AcDbSpline
210
0.0
220
0.0
230
1.0
 70
     9
 71
     3
 72
    62
 73
    58
 74
     0
 42
0.000000001
 43
0.0000000001
 40
0.0
 40
0.0
 40
0.0
 40
0.0
 40
1.0
 40
1.0
 40
1.0
 40
2.0
 40
2.0
 40
2.0
 40
3.0
 40
3.0
 40
3.0
 40
4.0
 40
4.0
 40
4.0
 40
5.0
 40
5.0
 40
5.0
 40
6.0
 40
6.0
 40
6.0
 40
7.0
 40
7.0
 40
7.0
 40
8.0
 40
8.0
 40
8.0
 40
9.0
 40
9.0
 40
9.0
 40
10.0
 40
10.0
 40
10.0
 40
11.0
 40
11.0
 40
11.0
 40
12.0
 40
12.0
 40
12.0
 40
13.0
 40
13.0
 40
13.0
 40
14.0
 40
14.0
 40
14.0
 40
15.0
 40
15.0
 40
15.0
 40
16.0
 40
16.0
 40
16.0
 40
17.0
 40
17.0
 40
17.0
 40
18.0
 40
18.0
 40
18.0
 40
19.0
 40
19.0
 40
19.0
 40
19.0
 10
4.215779308523107
 20
-3.494068451702361
 30
0.0
 10
4.215768965927673
 20
-3.495448701728772
 30
0.0
 10
4.215758623332463
 20
-3.496828951754705
 30
0.0
 10
4.215718788850804
 20
-3.498130358087616
 30
0.0
 10
4.215678980472594
 20
-3.499430911611071
 30
0.0
 10
4.215609718847519
 20
-3.500652724740227
 30
0.0
 10
4.215500248304935
 20
-3.501733233999618
 30
0.0
 10
4.215388937919568
 20
-3.502831903097951
 30
0.0
 10
4.215236055696863
 20
-3.503784478698941
 30
0.0
 10
4.215020563905901
 20
-3.504540774846948
 30
0.0
 10
4.214802267433888
 20
-3.505306914385115
 30
0.0
 10
4.214519721028308
 20
-3.505871631965713
 30
0.0
 10
4.21416678678199
 20
-3.506198735227968
 30
0.0
 10
4.213820320308908
 20
-3.506519844087973
 30
0.0
 10
4.213406022172634
 20
-3.506611967736548
 30
0.0
 10
4.212944465384422
 20
-3.506468898369973
 30
0.0
 10
4.212492857440111
 20
-3.50632891285924
 30
0.0
 10
4.211996006205127
 20
-3.505963764217131
 30
0.0
 10
4.211495390755265
 20
-3.505396751797948
 30
0.0
 10
4.210990034691506
 20
-3.504824370013226
 30
0.0
 10
4.210480842784533
 20
-3.504046283221341
 30
0.0
 10
4.210018060576362
 20
-3.503103994804142
 30
0.0
 10
4.209543448680856
 20
-3.502137619512089
 30
0.0
 10
4.209117649468121
 20
-3.500998540622278
 30
0.0
 10
4.208790337382528
 20
-3.499746277338468
 30
0.0
 10
4.208462187118215
 20
-3.49849080726699
 30
0.0
 10
4.208233029037526
 20
-3.497121572375618
 30
0.0
 10
4.208133224751493
 20
-3.495718077185207
 30
0.0
 10
4.208035742325185
 20
-3.4943472330826
 30
0.0
 10
4.20806166509663
 20
-3.492943704211201
 30
0.0
 10
4.208207334463662
 20
-3.4915893938436
 30
0.0
 10
4.208351115737122
 20
-3.490252637370243
 30
0.0
 10
4.2086115595327
 20
-3.488963831778745
 30
0.0
 10
4.20895715756213
 20
-3.487790537828745
 30
0.0
 10
4.209308458372237
 20
-3.486597883125336
 30
0.0
 10
4.209747746895931
 20
-3.485524583676208
 30
0.0
 10
4.210226799672977
 20
-3.484624816334787
 30
0.0
 10
4.210716307619644
 20
-3.483705411866663
 30
0.0
 10
4.211247334443816
 20
-3.482967196725571
 30
0.0
 10
4.211765040604356
 20
-3.482453758634161
 30
0.0
 10
4.21227954983668
 20
-3.481943491115973
 30
0.0
 10
4.212780902412101
 20
-3.48165523314097
 30
0.0
 10
4.213227045325036
 20
-3.481608854144098
 30
0.0
 10
4.213661630625096
 20
-3.481563676624208
 30
0.0
 10
4.214043829693173
 20
-3.481748008352336
 30
0.0
 10
4.214359784897403
 20
-3.482149180428076
 30
0.0
 10
4.214674312518498
 20
-3.482548539884603
 30
0.0
 10
4.214923193543832
 20
-3.483162784611734
 30
0.0
 10
4.215115205332466
 20
-3.483956802341306
 30
0.0
 10
4.215311783640284
 20
-3.484769703794332
 30
0.0
 10
4.215448755560673
 20
-3.485771030831767
 30
0.0
 10
4.215547324592805
 20
-3.486910142803248
 30
0.0
 10
4.215647412296708
 20
-3.488066805288956
 30
0.0
 10
4.215707904634687
 20
-3.489365531173653
 30
0.0
 10
4.215739711645178
 20
-3.490730923756211
 30
0.0
 10
4.215764974567988
 20
-3.491815395580646
 30
0.0
 10
4.21577214154542
 20
-3.492941923641841
 30
0.0
 10
4.215779308523107
 20
-3.494068451702361
 30
0.0
  0
LWPOLYLINE
  5
14F
330
70
100
AcDbEntity
  8
Livello 1
370
    15
100
AcDbPolyline
 90
        3
 70
     0
 43
0.0
 10
4.149205737860916
 20
-4.674435221796058
 10
4.148912500982821
 20
-4.669664531299511
 10
4.148087761569263
 20
-4.665653807545518
  0
LWPOLYLINE
  5
150
330
70
100
AcDbEntity
  8
Livello 1
370
    15
100
AcDbPolyline
 90
        3
 70
     0
 43
0.0
 10
4.14823233905798
 20
-4.682718595317973
 10
4.148912500982821
 20
-4.679205912293086
 10
4.149205737860916
 20
-4.674435221796058
  0
SPLINE
  5
151
330
70
100
AcDbEntity
  8
Livello 1
370
    15
100
AcDbSpline
210
0.0
220
0.0
230
1.0
 70
     8
 71
     3
 72
    20
 73
    16
 74
     0
 42
0.000000001
 43
0.0000000001
 40
0.0
 40
0.0
 40
0.0
 40
0.0
 40
1.0
 40
1.0
 40
1.0
 40
2.0
 40
2.0
 40
2.0
 40
3.0
 40
3.0
 40
3.0
 40
4.0
 40
4.0
 40
4.0
 40
5.0
 40
5.0
 40
5.0
 40
5.0
 10
4.275619650101806
 20
-4.675091356726801
 30
0.0
 10
4.276096832992362
 20
-4.680820172476986
 30
0.0
 10
4.276574015882917
 20
-4.686548988227586
 30
0.0
 10
4.2779931162867
 20
-4.691954249306999
 30
0.0
 10
4.279410405603971
 20
-4.69735261207499
 30
0.0
 10
4.281767209777386
 20
-4.702428245499652
 30
0.0
 10
4.284539702309598
 20
-4.706905052655381
 30
0.0
 10
4.287403127562357
 20
-4.711528690957281
 30
0.0
 10
4.290709955985436
 20
-4.715513577991703
 30
0.0
 10
4.294290567896566
 20
-4.718821464155576
 30
0.0
 10
4.297954708509982
 20
-4.722206516861891
 30
0.0
 10
4.301905555274978
 20
-4.724882614050856
 30
0.0
 10
4.305647477957665
 20
-4.726044716823221
 30
0.0
 10
4.308276069912404
 20
-4.726861060252644
 30
0.0
 10
4.310801565055616
 20
-4.726930299782708
 30
0.0
 10
4.313327060199051
 20
-4.72699953931232
 30
0.0
  0
SPLINE
  5
152
330
70
100
AcDbEntity
  8
Livello 1
370
    15
100
AcDbSpline
210
0.0
220
0.0
230
1.0
 70
     8
 71
     3
 72
    20
 73
    16
 74
     0
 42
0.000000001
 43
0.0000000001
 40
0.0
 40
0.0
 40
0.0
 40
0.0
 40
1.0
 40
1.0
 40
1.0
 40
2.0
 40
2.0
 40
2.0
 40
3.0
 40
3.0
 40
3.0
 40
4.0
 40
4.0
 40
4.0
 40
5.0
 40
5.0
 40
5.0
 40
5.0
 10
4.313358285514659
 20
-4.623062037025714
 30
0.0
 10
4.310648903032866
 20
-4.623216800989846
 30
0.0
 10
4.307939520551076
 20
-4.623371564954426
 30
0.0
 10
4.305129064390126
 20
-4.624341260603202
 30
0.0
 10
4.301624190810528
 20
-4.625550552072941
 30
0.0
 10
4.29796212569408
 20
-4.628027239413441
 30
0.0
 10
4.294538146152528
 20
-4.631138626852207
 30
0.0
 10
4.290993336652738
 20
-4.634359813081002
 30
0.0
 10
4.287703712987042
 20
-4.638261286109141
 30
0.0
 10
4.284838597630558
 20
-4.642793014567826
 30
0.0
 10
4.281873811403116
 20
-4.647482391589949
 30
0.0
 10
4.279363582583288
 20
-4.652846637084183
 30
0.0
 10
4.277898535966602
 20
-4.658561860080911
 30
0.0
 10
4.276537876570403
 20
-4.663869863103704
 30
0.0
 10
4.276078763335881
 20
-4.669480609915042
 30
0.0
 10
4.275619650101806
 20
-4.675091356726801
 30
0.0
  0
LWPOLYLINE
  5
153
330
70
100
AcDbEntity
  8
Livello 1
370
    15
100
AcDbPolyline
 90
       26
 70
     0
 43
0.0
 10
4.444855712752699
 20
-4.644909638782698
 10
4.444175089475606
 20
-4.643325763671501
 10
4.439587070130443
 20
-4.635085506750405
 10
4.43406510373282
 20
-4.62871588455171
 10
4.427867391676958
 20
-4.624514704704485
 10
4.421283731893601
 20
-4.622678387276028
 10
4.414621968910807
 20
-4.623292872157066
 10
4.408193599122316
 20
-4.626329414947451
 10
4.402299206674076
 20
-4.631646053507401
 10
4.397214408444725
 20
-4.638994060783031
 10
4.393176959853727
 20
-4.648029970521545
 10
4.390375648793447
 20
-4.658331220488087
 10
4.388941462712133
 20
-4.669416195325386
 10
4.388941462712133
 20
-4.680766518127833
 10
4.390375648793447
 20
-4.69185149296423
 10
4.393176959853727
 20
-4.702152742931669
 10
4.397214408444725
 20
-4.711188652670638
 10
4.402299206674076
 20
-4.718536659945818
 10
4.408193599122316
 20
-4.723853200735603
 10
4.414621968910807
 20
-4.726889743525988
 10
4.421283731893601
 20
-4.727504228406996
 10
4.427867391676958
 20
-4.725668008748701
 10
4.43406510373282
 20
-4.721466828901506
 10
4.439587070130443
 20
-4.715097108933099
 10
4.444175089475606
 20
-4.706856852012003
 10
4.444855712752699
 20
-4.705273074670554
  0
LWPOLYLINE
  5
154
330
70
100
AcDbEntity
  8
Livello 1
370
    15
100
AcDbPolyline
 90
       13
 70
     0
 43
0.0
 10
3.972732377260996
 20
-3.494068451702361
 10
3.972011078580196
 20
-3.482784685873846
 10
3.969880864325711
 20
-3.472028511777701
 10
3.966441313312543
 20
-3.46230293197465
 10
3.961853257303908
 20
-3.45406265061172
 10
3.956331301599651
 20
-3.447693003970452
 10
3.950133608066977
 20
-3.443491799680268
 10
3.943549918303024
 20
-3.441655531137342
 10
3.936888159139621
 20
-3.442270016018606
 10
3.9304598260148
 20
-3.445306558808765
 10
3.924565415234722
 20
-3.450623148483601
 10
3.919480638392371
 20
-3.457971180201099
 10
3.916637289257502
 20
-3.463886758200731
  0
LWPOLYLINE
  5
155
330
70
100
AcDbEntity
  8
Livello 1
370
    15
100
AcDbPolyline
 90
       13
 70
     0
 43
0.0
 10
3.916637289257502
 20
-3.524250157424951
 10
3.919480638392371
 20
-3.530165735425486
 10
3.924565415234722
 20
-3.537513779364143
 10
3.9304598260148
 20
-3.542830356817626
 10
3.936888159139621
 20
-3.545866887386596
 10
3.943549918303024
 20
-3.546481384489018
 10
3.950133608066977
 20
-3.544645103724485
 10
3.956331301599651
 20
-3.540443923877258
 10
3.961853257303908
 20
-3.534074277236248
 10
3.966441313312543
 20
-3.525833995872643
 10
3.969880864325711
 20
-3.516108391626826
 10
3.972011078580196
 20
-3.505352241973191
 10
3.972732377260996
 20
-3.494068451702361
  0
SPLINE
  5
156
330
70
100
AcDbEntity
  8
Livello 1
370
    15
100
AcDbSpline
210
0.0
220
0.0
230
1.0
 70
     8
 71
     3
 72
    38
 73
    34
 74
     0
 42
0.000000001
 43
0.0000000001
 40
0.0
 40
0.0
 40
0.0
 40
0.0
 40
1.0
 40
1.0
 40
1.0
 40
2.0
 40
2.0
 40
2.0
 40
3.0
 40
3.0
 40
3.0
 40
4.0
 40
4.0
 40
4.0
 40
5.0
 40
5.0
 40
5.0
 40
6.0
 40
6.0
 40
6.0
 40
7.0
 40
7.0
 40
7.0
 40
8.0
 40
8.0
 40
8.0
 40
9.0
 40
9.0
 40
9.0
 40
10.0
 40
10.0
 40
10.0
 40
11.0
 40
11.0
 40
11.0
 40
11.0
 10
4.048149861690403
 20
-3.546232278575443
 30
0.0
 10
4.048554405113327
 20
-3.5463378097557
 30
0.0
 10
4.04895894853625
 20
-3.546443340935956
 30
0.0
 10
4.049374089604079
 20
-3.546510373314288
 30
0.0
 10
4.052531380747616
 20
-3.547020177694568
 30
0.0
 10
4.056301653197802
 20
-3.545303162243037
 30
0.0
 10
4.059940149801634
 20
-3.543091512892335
 30
0.0
 10
4.063596681088323
 20
-3.540868901212613
 30
0.0
 10
4.067120126963633
 20
-3.538146740046234
 30
0.0
 10
4.070381968684563
 20
-3.534640158171646
 30
0.0
 10
4.073782921844591
 20
-3.530984027149481
 30
0.0
 10
4.07689948117439
 20
-3.526475140518491
 30
0.0
 10
4.079404850562105
 20
-3.521452784664961
 30
0.0
 10
4.081960288492121
 20
-3.516330059566055
 30
0.0
 10
4.083879863738662
 20
-3.510673137328584
 30
0.0
 10
4.084928248374676
 20
-3.504766330395411
 30
0.0
 10
4.085938261413312
 20
-3.499075716649187
 30
0.0
 10
4.086139689134752
 20
-3.493153175361995
 30
0.0
 10
4.085505556187037
 20
-3.487380734586011
 30
0.0
 10
4.084895087352578
 20
-3.481823705564276
 30
0.0
 10
4.083510255958517
 20
-3.476405783395989
 30
0.0
 10
4.081510084564095
 20
-3.471381640562106
 30
0.0
 10
4.079465973809464
 20
-3.466247128374705
 30
0.0
 10
4.076779190772646
 20
-3.461523886482477
 30
0.0
 10
4.073721036509451
 20
-3.45750129725135
 30
0.0
 10
4.070520212199653
 20
-3.453291044827343
 30
0.0
 10
4.066912557724408
 20
-3.449848344163551
 30
0.0
 10
4.063119999070049
 20
-3.447058940633449
 30
0.0
 10
4.059322012521841
 20
-3.444265544920364
 30
0.0
 10
4.055338592148133
 20
-3.442127317671761
 30
0.0
 10
4.051795267582466
 20
-3.441948596917681
 30
0.0
 10
4.050571111666489
 20
-3.441886852061433
 30
0.0
 10
4.049399484714585
 20
-3.442058990017211
 30
0.0
 10
4.048227857762457
 20
-3.442231127973212
 30
0.0
  0
SPLINE
  5
157
330
70
100
AcDbEntity
  8
Livello 1
370
    15
100
AcDbSpline
210
0.0
220
0.0
230
1.0
 70
     8
 71
     3
 72
    17
 73
    13
 74
     0
 42
0.000000001
 43
0.0000000001
 40
0.0
 40
0.0
 40
0.0
 40
0.0
 40
1.0
 40
1.0
 40
1.0
 40
2.0
 40
2.0
 40
2.0
 40
3.0
 40
3.0
 40
3.0
 40
4.0
 40
4.0
 40
4.0
 40
4.0
 10
4.022316027581613
 20
-4.644909638782698
 30
0.0
 10
4.022111864512301
 20
-4.643656954375358
 30
0.0
 10
4.021907701442763
 20
-4.642404269968084
 30
0.0
 10
4.021694283272601
 20
-4.641229182320906
 30
0.0
 10
4.020819454878401
 20
-4.63641234765045
 30
0.0
 10
4.019789114416131
 20
-4.632899359725056
 30
0.0
 10
4.018902385636533
 20
-4.629896751440544
 30
0.0
 10
4.01800303167792
 20
-4.626851392240436
 30
0.0
 10
4.017251407979876
 20
-4.624331049642155
 30
0.0
 10
4.017016009933441
 20
-4.623548052036193
 30
0.0
 10
4.016886393486426
 20
-4.623116912658916
 30
0.0
 10
4.016913291365828
 20
-4.623212518473629
 30
0.0
 10
4.016940189245001
 20
-4.623308124287897
 30
0.0
  0
SPLINE
  5
158
330
70
100
AcDbEntity
  8
Livello 1
370
    15
100
AcDbSpline
210
0.0
220
0.0
230
1.0
 70
     8
 71
     3
 72
    14
 73
    10
 74
     0
 42
0.000000001
 43
0.0000000001
 40
0.0
 40
0.0
 40
0.0
 40
0.0
 40
1.0
 40
1.0
 40
1.0
 40
2.0
 40
2.0
 40
2.0
 40
3.0
 40
3.0
 40
3.0
 40
3.0
 10
4.01675958348591
 20
-4.727440873402086
 30
0.0
 10
4.016898205483178
 20
-4.727001536239913
 30
0.0
 10
4.017036827480477
 20
-4.726562199077323
 30
0.0
 10
4.017486039537953
 20
-4.725121474065342
 30
0.0
 10
4.017958542177859
 20
-4.723606050871049
 30
0.0
 10
4.018774676517959
 20
-4.720982708739736
 30
0.0
 10
4.019641160717531
 20
-4.717564434383696
 30
0.0
 10
4.020536341328782
 20
-4.714032952876118
 30
0.0
 10
4.021485262019186
 20
-4.709653013773578
 30
0.0
 10
4.022434182709107
 20
-4.705273074670554
 30
0.0
  0
SPLINE
  5
159
330
70
100
AcDbEntity
  8
Livello 1
370
    15
100
AcDbSpline
210
0.0
220
0.0
230
1.0
 70
     8
 71
     3
 72
    17
 73
    13
 74
     0
 42
0.000000001
 43
0.0000000001
 40
0.0
 40
0.0
 40
0.0
 40
0.0
 40
1.0
 40
1.0
 40
1.0
 40
2.0
 40
2.0
 40
2.0
 40
3.0
 40
3.0
 40
3.0
 40
4.0
 40
4.0
 40
4.0
 40
4.0
 10
4.339123002295471
 20
-3.524250157424951
 30
0.0
 10
4.339206124329303
 20
-3.524799290424857
 30
0.0
 10
4.339289246363358
 20
-3.525348423424761
 30
0.0
 10
4.339375236851056
 20
-3.525882172073705
 30
0.0
 10
4.340188835138191
 20
-3.530932230478748
 30
0.0
 10
4.341259216944685
 20
-3.534605084565113
 30
0.0
 10
4.342187782303997
 20
-3.537798583573898
 30
0.0
 10
4.343138019116658
 20
-3.541066614510399
 30
0.0
 10
4.343939742629981
 20
-3.543832654276466
 30
0.0
 10
4.344292252476993
 20
-3.545021860683831
 30
0.0
 10
4.344539101079406
 20
-3.54585461455455
 30
0.0
 10
4.344565671340035
 20
-3.545914145649986
 30
0.0
 10
4.344592241600663
 20
-3.545973676743849
 30
0.0
  0
SPLINE
  5
15A
330
70
100
AcDbEntity
  8
Livello 1
370
    15
100
AcDbSpline
210
0.0
220
0.0
230
1.0
 70
     8
 71
     3
 72
    17
 73
    13
 74
     0
 42
0.000000001
 43
0.0000000001
 40
0.0
 40
0.0
 40
0.0
 40
0.0
 40
1.0
 40
1.0
 40
1.0
 40
2.0
 40
2.0
 40
2.0
 40
3.0
 40
3.0
 40
3.0
 40
4.0
 40
4.0
 40
4.0
 40
4.0
 10
4.344630665237779
 20
-3.44204284726359
 30
0.0
 10
4.344576089815029
 20
-3.442186536406424
 30
0.0
 10
4.34452151439299
 20
-3.44233022554788
 30
0.0
 10
4.344229031906364
 20
-3.443318355578728
 30
0.0
 10
4.343863209265069
 20
-3.444554259795123
 30
0.0
 10
4.343125210277093
 20
-3.447111187940508
 30
0.0
 10
4.342248210317036
 20
-3.450115795155388
 30
0.0
 10
4.341340268353676
 20
-3.453226409861551
 30
0.0
 10
4.34028334402397
 20
-3.456816850616196
 30
0.0
 10
4.339473141353717
 20
-3.46177013398615
 30
0.0
 10
4.339360604004816
 20
-3.462458146256958
 30
0.0
 10
4.339252826725068
 20
-3.463172452229198
 30
0.0
 10
4.339145049446028
 20
-3.463886758200731
 30
0.0
  0
LINE
  5
15B
330
70
100
AcDbEntity
  8
Livello 1
370
    15
100
AcDbLine
 10
7.428559466906535
 20
-3.531467519445703
 30
0.0
 11
7.428559466906535
 21
-3.456669396179981
 31
0.0
  0
LINE
  5
15C
330
70
100
AcDbEntity
  8
Livello 1
370
    15
100
AcDbLine
 10
7.441681969972531
 20
-3.456669396179981
 30
0.0
 11
7.441681969972531
 21
-3.531467519445703
 31
0.0
  0
LINE
  5
15D
330
70
100
AcDbEntity
  8
Livello 1
370
    15
100
AcDbLine
 10
4.180746508643339
 20
-2.18182085821276
 30
0.0
 11
5.000901288183143
 21
-2.18182085821276
 31
0.0
  0
LINE
  5
15E
330
70
100
AcDbEntity
  8
Livello 1
370
    15
100
AcDbLine
 10
5.000901288183143
 20
-2.18182085821276
 30
0.0
 11
3.360591729103796
 21
-2.18182085821276
 31
0.0
  0
LINE
  5
15F
330
70
100
AcDbEntity
  8
Livello 1
370
    15
100
AcDbLine
 10
4.180746508643339
 20
-2.004667360130508
 30
0.0
 11
5.000901288183143
 21
-2.004667360130508
 31
0.0
  0
LINE
  5
160
330
70
100
AcDbEntity
  8
Livello 1
370
    15
100
AcDbLine
 10
5.000901288183143
 20
-2.004667360130508
 30
0.0
 11
3.360591729103796
 21
-2.004667360130508
 31
0.0
  0
SPLINE
  5
161
330
70
100
AcDbEntity
  8
Livello 1
370
    15
100
AcDbSpline
210
0.0
220
0.0
230
1.0
 70
     8
 71
     3
 72
    23
 73
    19
 74
     0
 42
0.000000001
 43
0.0000000001
 40
0.0
 40
0.0
 40
0.0
 40
0.0
 40
1.0
 40
1.0
 40
1.0
 40
2.0
 40
2.0
 40
2.0
 40
3.0
 40
3.0
 40
3.0
 40
4.0
 40
4.0
 40
4.0
 40
5.0
 40
5.0
 40
5.0
 40
6.0
 40
6.0
 40
6.0
 40
6.0
 10
4.180746508643339
 20
-4.688725197251311
 30
0.0
 10
4.181751450322662
 20
-4.683152579726882
 30
0.0
 10
4.182756392001986
 20
-4.677579962201971
 30
0.0
 10
4.182548264352504
 20
-4.672001431478998
 30
0.0
 10
4.182340142805291
 20
-4.666423064321356
 30
0.0
 10
4.180919023064148
 20
-4.660838784312652
 30
0.0
 10
4.178709298166553
 20
-4.655625336070112
 30
0.0
 10
4.176480504157016
 20
-4.650366897689001
 30
0.0
 10
4.17344943551822
 20
-4.645485718972818
 30
0.0
 10
4.169740385367
 20
-4.641229182320906
 30
0.0
 10
4.165853473036214
 20
-4.63676852955919
 30
0.0
 10
4.161221996882518
 20
-4.632993862881936
 30
0.0
 10
4.156122676903671
 20
-4.629896751440544
 30
0.0
 10
4.150950740794089
 20
-4.626755536030426
 30
0.0
 10
4.145297541460831
 20
-4.624311310510523
 30
0.0
 10
4.139589049471783
 20
-4.623548052036193
 30
0.0
 10
4.136441007326705
 20
-4.623127140551289
 30
0.0
 10
4.133276149838757
 20
-4.623217436879039
 30
0.0
 10
4.130111292350397
 20
-4.623307733207686
 30
0.0
  0
SPLINE
  5
162
330
70
100
AcDbEntity
  8
Livello 1
370
    15
100
AcDbSpline
210
0.0
220
0.0
230
1.0
 70
     8
 71
     3
 72
    17
 73
    13
 74
     0
 42
0.000000001
 43
0.0000000001
 40
0.0
 40
0.0
 40
0.0
 40
0.0
 40
1.0
 40
1.0
 40
1.0
 40
2.0
 40
2.0
 40
2.0
 40
3.0
 40
3.0
 40
3.0
 40
4.0
 40
4.0
 40
4.0
 40
4.0
 10
4.13005236144143
 20
-4.727443513193721
 30
0.0
 10
4.135230255426506
 20
-4.727017172764413
 30
0.0
 10
4.14040814941203
 20
-4.726590832333752
 30
0.0
 10
4.145399035798003
 20
-4.725121474065342
 30
0.0
 10
4.150642747341676
 20
-4.723577681977266
 30
0.0
 10
4.155680024768312
 20
-4.720882522419523
 30
0.0
 10
4.160294672385526
 20
-4.717564434383696
 30
0.0
 10
4.165091647863553
 20
-4.714115246435839
 30
0.0
 10
4.169431936986192
 20
-4.709992932905083
 30
0.0
 10
4.172724401187967
 20
-4.705196911787472
 30
0.0
 10
4.176158284411795
 20
-4.700194890368132
 30
0.0
 10
4.178452396527568
 20
-4.694460043809963
 30
0.0
 10
4.180746508643339
 20
-4.688725197251311
 30
0.0
  0
SPLINE
  5
163
330
70
100
AcDbEntity
  8
Livello 1
370
    15
100
AcDbSpline
210
0.0
220
0.0
230
1.0
 70
     9
 71
     3
 72
    62
 73
    58
 74
     0
 42
0.000000001
 43
0.0000000001
 40
0.0
 40
0.0
 40
0.0
 40
0.0
 40
1.0
 40
1.0
 40
1.0
 40
2.0
 40
2.0
 40
2.0
 40
3.0
 40
3.0
 40
3.0
 40
4.0
 40
4.0
 40
4.0
 40
5.0
 40
5.0
 40
5.0
 40
6.0
 40
6.0
 40
6.0
 40
7.0
 40
7.0
 40
7.0
 40
8.0
 40
8.0
 40
8.0
 40
9.0
 40
9.0
 40
9.0
 40
10.0
 40
10.0
 40
10.0
 40
11.0
 40
11.0
 40
11.0
 40
12.0
 40
12.0
 40
12.0
 40
13.0
 40
13.0
 40
13.0
 40
14.0
 40
14.0
 40
14.0
 40
15.0
 40
15.0
 40
15.0
 40
16.0
 40
16.0
 40
16.0
 40
17.0
 40
17.0
 40
17.0
 40
18.0
 40
18.0
 40
18.0
 40
19.0
 40
19.0
 40
19.0
 40
19.0
 10
4.155441952801093
 20
-4.674435221796058
 30
0.0
 10
4.155386157136962
 20
-4.675813487381573
 30
0.0
 10
4.155330361473055
 20
-4.677191752967566
 30
0.0
 10
4.155131288408074
 20
-4.678492093022709
 30
0.0
 10
4.154932330499223
 20
-4.679791680878853
 30
0.0
 10
4.154590260903365
 20
-4.68101343333341
 30
0.0
 10
4.154186902873142
 20
-4.682093942349117
 30
0.0
 10
4.153777231408533
 20
-4.683191363692574
 30
0.0
 10
4.153304337899188
 20
-4.684143085457261
 30
0.0
 10
4.152808173808527
 20
-4.684899258927525
 30
0.0
 10
4.152305147950568
 20
-4.685665889998203
 30
0.0
 10
4.151778203413131
 20
-4.686231526653243
 30
0.0
 10
4.151282178577774
 20
-4.686560470162808
 30
0.0
 10
4.150793822866925
 20
-4.6868843278207
 30
0.0
 10
4.150335438139556
 20
-4.686978754860396
 30
0.0
 10
4.149937253514168
 20
-4.686837452767305
 30
0.0
 10
4.149546895659105
 20
-4.686698928127235
 30
0.0
 10
4.14921439456256
 20
-4.686333850324691
 30
0.0
 10
4.148943616307298
 20
-4.68576530619483
 30
0.0
 10
4.148670522876406
 20
-4.685191900968542
 30
0.0
 10
4.148460212269303
 20
-4.684411535236232
 30
0.0
 10
4.148298358296909
 20
-4.683465754182003
 30
0.0
 10
4.148132816302191
 20
-4.682498422456588
 30
0.0
 10
4.148017964377774
 20
-4.681358051181065
 30
0.0
 10
4.147934458101683
 20
-4.680104908074321
 30
0.0
 10
4.147850900854248
 20
-4.678851000062516
 30
0.0
 10
4.147798727532809
 20
-4.677484182507606
 30
0.0
 10
4.147766146928428
 20
-4.676084016233375
 30
0.0
 10
4.147734307427912
 20
-4.674715699224655
 30
0.0
 10
4.147721179440417
 20
-4.673315533392716
 30
0.0
 10
4.147728969860006
 20
-4.671964767702973
 30
0.0
 10
4.147736678093731
 20
-4.67062825212379
 30
0.0
 10
4.147764865699292
 20
-4.669340099874704
 30
0.0
 10
4.147827326549114
 20
-4.668167182698644
 30
0.0
 10
4.147890957256772
 20
-4.666972297413217
 30
0.0
 10
4.147990157071267
 20
-4.665897004206007
 30
0.0
 10
4.148145250369433
 20
-4.664995423903733
 30
0.0
 10
4.148303760170342
 20
-4.664073982967226
 30
0.0
 10
4.14852065309919
 20
-4.663333992568919
 30
0.0
 10
4.148811284519176
 20
-4.662819648797313
 30
0.0
 10
4.149099436628883
 20
-4.662309692776139
 30
0.0
 10
4.149460074503196
 20
-4.662021549922973
 30
0.0
 10
4.149884213251841
 20
-4.661975502025542
 30
0.0
 10
4.150296207137984
 20
-4.661930772671468
 30
0.0
 10
4.150768117372756
 20
-4.662114472391816
 30
0.0
 10
4.151265704321049
 20
-4.662513726252853
 30
0.0
 10
4.151760837819693
 20
-4.662911011515415
 30
0.0
 10
4.152281395447531
 20
-4.663521730496061
 30
0.0
 10
4.152777034041768
 20
-4.664310837883363
 30
0.0
 10
4.15328557647552
 20
-4.665120489506278
 30
0.0
 10
4.153767885462542
 20
-4.666117939053589
 30
0.0
 10
4.154182503219931
 20
-4.667252934787511
 30
0.0
 10
4.15460472155185
 20
-4.668408736720316
 30
0.0
 10
4.154956744140161
 20
-4.669707173923002
 30
0.0
 10
4.155156733068364
 20
-4.671073789068291
 30
0.0
 10
4.15531645967667
 20
-4.672165273503324
 30
0.0
 10
4.155379206238881
 20
-4.673300247649692
 30
0.0
 10
4.155441952801093
 20
-4.674435221796058
 30
0.0
  0
LWPOLYLINE
  5
164
330
70
100
AcDbEntity
  8
Livello 1
370
    15
100
AcDbPolyline
 90
       26
 70
     0
 43
0.0
 10
4.312828457291761
 20
-3.463886758200731
 10
4.311727187460378
 20
-3.46230293197465
 10
4.304303616143775
 20
-3.45406265061172
 10
4.295368886204276
 20
-3.447693003970452
 10
4.285340781366756
 20
-3.443491799680268
 10
4.274688194658393
 20
-3.441655531137342
 10
4.263909240136169
 20
-3.442270016018606
 10
4.25350792250406
 20
-3.445306558808765
 10
4.243970586747156
 20
-3.450623148483601
 10
4.235743211032497
 20
-3.457971180201099
 10
4.229210483917196
 20
-3.467007089939872
 10
4.224677863536953
 20
-3.477308339907053
 10
4.222357303180555
 20
-3.488393290301169
 10
4.222357303180555
 20
-3.499743613104258
 10
4.224677863536953
 20
-3.510828563498147
 10
4.229210483917196
 20
-3.521129825686041
 10
4.235743211032497
 20
-3.530165735425486
 10
4.243970586747156
 20
-3.537513779364143
 10
4.25350792250406
 20
-3.542830356817626
 10
4.263909240136169
 20
-3.545866887386596
 10
4.274688194658393
 20
-3.546481384489018
 10
4.285340781366756
 20
-3.544645103724485
 10
4.295368886204276
 20
-3.540443923877258
 10
4.304303616143775
 20
-3.534074277236248
 10
4.311727187460378
 20
-3.525833995872643
 10
4.312828457291761
 20
-3.524250157424951
  0
SPLINE
  5
165
330
70
100
AcDbEntity
  8
Livello 1
370
    15
100
AcDbSpline
210
0.0
220
0.0
230
1.0
 70
     8
 71
     3
 72
    17
 73
    13
 74
     0
 42
0.000000001
 43
0.0000000001
 40
0.0
 40
0.0
 40
0.0
 40
0.0
 40
1.0
 40
1.0
 40
1.0
 40
2.0
 40
2.0
 40
2.0
 40
3.0
 40
3.0
 40
3.0
 40
4.0
 40
4.0
 40
4.0
 40
4.0
 10
4.180746508643339
 20
-3.507702267785003
 30
0.0
 10
4.182945637213048
 20
-3.51325276492334
 30
0.0
 10
4.185144765782307
 20
-3.518803262062126
 30
0.0
 10
4.188411853118338
 20
-3.52367578271498
 30
0.0
 10
4.191675157048647
 20
-3.528542660811828
 30
0.0
 10
4.196003947706826
 20
-3.532733131757203
 30
0.0
 10
4.200810808791848
 20
-3.536260440412231
 30
0.0
 10
4.205719238111647
 20
-3.539862280556598
 30
0.0
 10
4.211126154411638
 20
-3.542772637294921
 30
0.0
 10
4.216753685026751
 20
-3.544307210367736
 30
0.0
 10
4.221543350836133
 20
-3.545613305825416
 30
0.0
 10
4.226492828275928
 20
-3.545922792200431
 30
0.0
 10
4.231442305715502
 20
-3.546232278575443
 30
0.0
  0
SPLINE
  5
166
330
70
100
AcDbEntity
  8
Livello 1
370
    15
100
AcDbSpline
210
0.0
220
0.0
230
1.0
 70
     8
 71
     3
 72
    23
 73
    19
 74
     0
 42
0.000000001
 43
0.0000000001
 40
0.0
 40
0.0
 40
0.0
 40
0.0
 40
1.0
 40
1.0
 40
1.0
 40
2.0
 40
2.0
 40
2.0
 40
3.0
 40
3.0
 40
3.0
 40
4.0
 40
4.0
 40
4.0
 40
5.0
 40
5.0
 40
5.0
 40
6.0
 40
6.0
 40
6.0
 40
6.0
 10
4.231399115787511
 20
-3.442231127973212
 30
0.0
 10
4.227893296590518
 20
-3.442197716624606
 30
0.0
 10
4.224387477393461
 20
-3.442164305275364
 30
0.0
 10
4.220915072456397
 20
-3.442731784052343
 30
0.0
 10
4.215596532760178
 20
-3.443600967934093
 30
0.0
 10
4.210356382209723
 20
-3.445879827301915
 30
0.0
 10
4.20552711468817
 20
-3.448781795896767
 30
0.0
 10
4.200553390684341
 20
-3.451770570239048
 30
0.0
 10
4.196015498605413
 20
-3.455420289119785
 30
0.0
 10
4.192174803075973
 20
-3.459726055162235
 30
0.0
 10
4.188183409001177
 20
-3.464200767863665
 30
0.0
 10
4.184944997084511
 20
-3.469384020800433
 30
0.0
 10
4.182624305023296
 20
-3.474987987311694
 30
0.0
 10
4.180327980362477
 20
-3.480533111851131
 30
0.0
 10
4.178930204513521
 20
-3.486490161316332
 30
0.0
 10
4.178876387214105
 20
-3.492408315937725
 30
0.0
 10
4.178829851911731
 20
-3.497525687397343
 30
0.0
 10
4.179788180277553
 20
-3.502613977590836
 30
0.0
 10
4.180746508643339
 20
-3.507702267785003
 30
0.0
  0
SPLINE
  5
167
330
70
100
AcDbEntity
  8
Livello 1
370
    15
100
AcDbSpline
210
0.0
220
0.0
230
1.0
 70
     9
 71
     3
 72
    62
 73
    58
 74
     0
 42
0.000000001
 43
0.0000000001
 40
0.0
 40
0.0
 40
0.0
 40
0.0
 40
1.0
 40
1.0
 40
1.0
 40
2.0
 40
2.0
 40
2.0
 40
3.0
 40
3.0
 40
3.0
 40
4.0
 40
4.0
 40
4.0
 40
5.0
 40
5.0
 40
5.0
 40
6.0
 40
6.0
 40
6.0
 40
7.0
 40
7.0
 40
7.0
 40
8.0
 40
8.0
 40
8.0
 40
9.0
 40
9.0
 40
9.0
 40
10.0
 40
10.0
 40
10.0
 40
11.0
 40
11.0
 40
11.0
 40
12.0
 40
12.0
 40
12.0
 40
13.0
 40
13.0
 40
13.0
 40
14.0
 40
14.0
 40
14.0
 40
15.0
 40
15.0
 40
15.0
 40
16.0
 40
16.0
 40
16.0
 40
17.0
 40
17.0
 40
17.0
 40
18.0
 40
18.0
 40
18.0
 40
19.0
 40
19.0
 40
19.0
 40
19.0
 10
4.215779308523107
 20
-3.494068451702361
 30
0.0
 10
4.215768965927673
 20
-3.495448701728772
 30
0.0
 10
4.215758623332463
 20
-3.496828951754705
 30
0.0
 10
4.215718788850804
 20
-3.498130358087616
 30
0.0
 10
4.215678980472594
 20
-3.499430911611071
 30
0.0
 10
4.215609718847519
 20
-3.500652724740227
 30
0.0
 10
4.215500248304935
 20
-3.501733233999618
 30
0.0
 10
4.215388937919568
 20
-3.502831903097951
 30
0.0
 10
4.215236055696863
 20
-3.503784478698941
 30
0.0
 10
4.215020563905901
 20
-3.504540774846948
 30
0.0
 10
4.214802267433888
 20
-3.505306914385115
 30
0.0
 10
4.214519721028308
 20
-3.505871631965713
 30
0.0
 10
4.21416678678199
 20
-3.506198735227968
 30
0.0
 10
4.213820320308908
 20
-3.506519844087973
 30
0.0
 10
4.213406022172634
 20
-3.506611967736548
 30
0.0
 10
4.212944465384422
 20
-3.506468898369973
 30
0.0
 10
4.212492857440111
 20
-3.50632891285924
 30
0.0
 10
4.211996006205127
 20
-3.505963764217131
 30
0.0
 10
4.211495390755265
 20
-3.505396751797948
 30
0.0
 10
4.210990034691506
 20
-3.504824370013226
 30
0.0
 10
4.210480842784533
 20
-3.504046283221341
 30
0.0
 10
4.210018060576362
 20
-3.503103994804142
 30
0.0
 10
4.209543448680856
 20
-3.502137619512089
 30
0.0
 10
4.209117649468121
 20
-3.500998540622278
 30
0.0
 10
4.208790337382528
 20
-3.499746277338468
 30
0.0
 10
4.208462187118215
 20
-3.49849080726699
 30
0.0
 10
4.208233029037526
 20
-3.497121572375618
 30
0.0
 10
4.208133224751493
 20
-3.495718077185207
 30
0.0
 10
4.208035742325185
 20
-3.4943472330826
 30
0.0
 10
4.20806166509663
 20
-3.492943704211201
 30
0.0
 10
4.208207334463662
 20
-3.4915893938436
 30
0.0
 10
4.208351115737122
 20
-3.490252637370243
 30
0.0
 10
4.2086115595327
 20
-3.488963831778745
 30
0.0
 10
4.20895715756213
 20
-3.487790537828745
 30
0.0
 10
4.209308458372237
 20
-3.486597883125336
 30
0.0
 10
4.209747746895931
 20
-3.485524583676208
 30
0.0
 10
4.210226799672977
 20
-3.484624816334787
 30
0.0
 10
4.210716307619644
 20
-3.483705411866663
 30
0.0
 10
4.211247334443816
 20
-3.482967196725571
 30
0.0
 10
4.211765040604356
 20
-3.482453758634161
 30
0.0
 10
4.21227954983668
 20
-3.481943491115973
 30
0.0
 10
4.212780902412101
 20
-3.48165523314097
 30
0.0
 10
4.213227045325036
 20
-3.481608854144098
 30
0.0
 10
4.213661630625096
 20
-3.481563676624208
 30
0.0
 10
4.214043829693173
 20
-3.481748008352336
 30
0.0
 10
4.214359784897403
 20
-3.482149180428076
 30
0.0
 10
4.214674312518498
 20
-3.482548539884603
 30
0.0
 10
4.214923193543832
 20
-3.483162784611734
 30
0.0
 10
4.215115205332466
 20
-3.483956802341306
 30
0.0
 10
4.215311783640284
 20
-3.484769703794332
 30
0.0
 10
4.215448755560673
 20
-3.485771030831767
 30
0.0
 10
4.215547324592805
 20
-3.486910142803248
 30
0.0
 10
4.215647412296708
 20
-3.488066805288956
 30
0.0
 10
4.215707904634687
 20
-3.489365531173653
 30
0.0
 10
4.215739711645178
 20
-3.490730923756211
 30
0.0
 10
4.215764974567988
 20
-3.491815395580646
 30
0.0
 10
4.21577214154542
 20
-3.492941923641841
 30
0.0
 10
4.215779308523107
 20
-3.494068451702361
 30
0.0
  0
LWPOLYLINE
  5
168
330
70
100
AcDbEntity
  8
Livello 1
370
    15
100
AcDbPolyline
 90
        3
 70
     0
 43
0.0
 10
4.149205737860916
 20
-4.674435221796058
 10
4.148912500982821
 20
-4.669664531299511
 10
4.148087761569263
 20
-4.665653807545518
  0
LWPOLYLINE
  5
169
330
70
100
AcDbEntity
  8
Livello 1
370
    15
100
AcDbPolyline
 90
        3
 70
     0
 43
0.0
 10
4.14823233905798
 20
-4.682718595317973
 10
4.148912500982821
 20
-4.679205912293086
 10
4.149205737860916
 20
-4.674435221796058
  0
LWPOLYLINE
  5
16A
330
70
100
AcDbEntity
  8
Livello 1
370
    15
100
AcDbPolyline
 90
       13
 70
     0
 43
0.0
 10
3.972732377260996
 20
-3.494068451702361
 10
3.972011078580196
 20
-3.482784685873846
 10
3.969880864325711
 20
-3.472028511777701
 10
3.966441313312543
 20
-3.46230293197465
 10
3.961853257303908
 20
-3.45406265061172
 10
3.956331301599651
 20
-3.447693003970452
 10
3.950133608066977
 20
-3.443491799680268
 10
3.943549918303024
 20
-3.441655531137342
 10
3.936888159139621
 20
-3.442270016018606
 10
3.9304598260148
 20
-3.445306558808765
 10
3.924565415234722
 20
-3.450623148483601
 10
3.919480638392371
 20
-3.457971180201099
 10
3.916637289257502
 20
-3.463886758200731
  0
LWPOLYLINE
  5
16B
330
70
100
AcDbEntity
  8
Livello 1
370
    15
100
AcDbPolyline
 90
       13
 70
     0
 43
0.0
 10
3.916637289257502
 20
-3.524250157424951
 10
3.919480638392371
 20
-3.530165735425486
 10
3.924565415234722
 20
-3.537513779364143
 10
3.9304598260148
 20
-3.542830356817626
 10
3.936888159139621
 20
-3.545866887386596
 10
3.943549918303024
 20
-3.546481384489018
 10
3.950133608066977
 20
-3.544645103724485
 10
3.956331301599651
 20
-3.540443923877258
 10
3.961853257303908
 20
-3.534074277236248
 10
3.966441313312543
 20
-3.525833995872643
 10
3.969880864325711
 20
-3.516108391626826
 10
3.972011078580196
 20
-3.505352241973191
 10
3.972732377260996
 20
-3.494068451702361
  0
SPLINE
  5
16C
330
70
100
AcDbEntity
  8
Livello 1
370
    15
100
AcDbSpline
210
0.0
220
0.0
230
1.0
 70
     8
 71
     3
 72
    38
 73
    34
 74
     0
 42
0.000000001
 43
0.0000000001
 40
0.0
 40
0.0
 40
0.0
 40
0.0
 40
1.0
 40
1.0
 40
1.0
 40
2.0
 40
2.0
 40
2.0
 40
3.0
 40
3.0
 40
3.0
 40
4.0
 40
4.0
 40
4.0
 40
5.0
 40
5.0
 40
5.0
 40
6.0
 40
6.0
 40
6.0
 40
7.0
 40
7.0
 40
7.0
 40
8.0
 40
8.0
 40
8.0
 40
9.0
 40
9.0
 40
9.0
 40
10.0
 40
10.0
 40
10.0
 40
11.0
 40
11.0
 40
11.0
 40
11.0
 10
4.048217543020292
 20
-3.545976658731285
 30
0.0
 10
4.049109569011986
 20
-3.546148250237333
 30
0.0
 10
4.050001595004162
 20
-3.546319841743321
 30
0.0
 10
4.050931200158927
 20
-3.546336880327892
 30
0.0
 10
4.054202817555786
 20
-3.546396845280633
 30
0.0
 10
4.057939887137943
 20
-3.544542531429891
 30
0.0
 10
4.061537126102137
 20
-3.542137240358981
 30
0.0
 10
4.065180938210239
 20
-3.539700808191038
 30
0.0
 10
4.068681275512004
 20
-3.536699039536991
 30
0.0
 10
4.071869271410736
 20
-3.532953001204543
 30
0.0
 10
4.075196148862028
 20
-3.529043770811183
 30
0.0
 10
4.078182878522053
 20
-3.524324011666343
 30
0.0
 10
4.080510801135615
 20
-3.519117534355728
 30
0.0
 10
4.082865917040891
 20
-3.513850238332266
 30
0.0
 10
4.084546744484515
 20
-3.508084786673156
 30
0.0
 10
4.085338296042178
 20
-3.50212986272565
 30
0.0
 10
4.08609652067631
 20
-3.496425660660943
 30
0.0
 10
4.086038775895397
 20
-3.490547605246256
 30
0.0
 10
4.085175679975908
 20
-3.484868801541201
 30
0.0
 10
4.084338780166143
 20
-3.479362357088636
 30
0.0
 10
4.082744674283977
 20
-3.474043252787069
 30
0.0
 10
4.080567605545343
 20
-3.469146567908381
 30
0.0
 10
4.078325024885158
 20
-3.464102532957196
 30
0.0
 10
4.075463868680268
 20
-3.459506722659711
 30
0.0
 10
4.072273281776576
 20
-3.455667986252678
 30
0.0
 10
4.068943893926126
 20
-3.451662252280438
 30
0.0
 10
4.065255789296243
 20
-3.448480895359028
 30
0.0
 10
4.061404207693928
 20
-3.445915910761455
 30
0.0
 10
4.05758201554785
 20
-3.443370498253774
 30
0.0
 10
4.053598831729787
 20
-3.441432087512661
 30
0.0
 10
4.05018555673103
 20
-3.441701580839423
 30
0.0
 10
4.049503964939981
 20
-3.441755395560043
 30
0.0
 10
4.048845098547751
 20
-3.441897251559721
 30
0.0
 10
4.048186232155871
 20
-3.442039107558731
 30
0.0
  0
LWPOLYLINE
  5
16D
330
70
100
AcDbEntity
  8
Livello 1
370
    15
100
AcDbPolyline
 90
       26
 70
     0
 43
0.0
 10
4.444855712752699
 20
-4.644909638782698
 10
4.444175089475606
 20
-4.643325763671501
 10
4.439587070130443
 20
-4.635085506750405
 10
4.43406510373282
 20
-4.62871588455171
 10
4.427867391676958
 20
-4.624514704704485
 10
4.421283731893601
 20
-4.622678387276028
 10
4.414621968910807
 20
-4.623292872157066
 10
4.408193599122316
 20
-4.626329414947451
 10
4.402299206674076
 20
-4.631646053507401
 10
4.397214408444725
 20
-4.638994060783031
 10
4.393176959853727
 20
-4.648029970521545
 10
4.390375648793447
 20
-4.658331220488087
 10
4.388941462712133
 20
-4.669416195325386
 10
4.388941462712133
 20
-4.680766518127833
 10
4.390375648793447
 20
-4.69185149296423
 10
4.393176959853727
 20
-4.702152742931669
 10
4.397214408444725
 20
-4.711188652670638
 10
4.402299206674076
 20
-4.718536659945818
 10
4.408193599122316
 20
-4.723853200735603
 10
4.414621968910807
 20
-4.726889743525988
 10
4.421283731893601
 20
-4.727504228406996
 10
4.427867391676958
 20
-4.725668008748701
 10
4.43406510373282
 20
-4.721466828901506
 10
4.439587070130443
 20
-4.715097108933099
 10
4.444175089475606
 20
-4.706856852012003
 10
4.444855712752699
 20
-4.705273074670554
  0
SPLINE
  5
16E
330
70
100
AcDbEntity
  8
Livello 1
370
    15
100
AcDbSpline
210
0.0
220
0.0
230
1.0
 70
     8
 71
     3
 72
    20
 73
    16
 74
     0
 42
0.000000001
 43
0.0000000001
 40
0.0
 40
0.0
 40
0.0
 40
0.0
 40
1.0
 40
1.0
 40
1.0
 40
2.0
 40
2.0
 40
2.0
 40
3.0
 40
3.0
 40
3.0
 40
4.0
 40
4.0
 40
4.0
 40
5.0
 40
5.0
 40
5.0
 40
5.0
 10
4.275619650101806
 20
-4.675091356726801
 30
0.0
 10
4.276096832992362
 20
-4.680820172476986
 30
0.0
 10
4.276574015882917
 20
-4.686548988227586
 30
0.0
 10
4.2779931162867
 20
-4.691954249306999
 30
0.0
 10
4.279410405603971
 20
-4.69735261207499
 30
0.0
 10
4.281767209777386
 20
-4.702428245499652
 30
0.0
 10
4.284539702309598
 20
-4.706905052655381
 30
0.0
 10
4.287403127562357
 20
-4.711528690957281
 30
0.0
 10
4.290709955985436
 20
-4.715513577991703
 30
0.0
 10
4.294290567896566
 20
-4.718821464155576
 30
0.0
 10
4.297954708509982
 20
-4.722206516861891
 30
0.0
 10
4.301905555274978
 20
-4.724882614050856
 30
0.0
 10
4.305647477957665
 20
-4.726044716823221
 30
0.0
 10
4.308276069912404
 20
-4.726861060252644
 30
0.0
 10
4.310801565055616
 20
-4.726930299782708
 30
0.0
 10
4.313327060199051
 20
-4.72699953931232
 30
0.0
  0
SPLINE
  5
16F
330
70
100
AcDbEntity
  8
Livello 1
370
    15
100
AcDbSpline
210
0.0
220
0.0
230
1.0
 70
     8
 71
     3
 72
    20
 73
    16
 74
     0
 42
0.000000001
 43
0.0000000001
 40
0.0
 40
0.0
 40
0.0
 40
0.0
 40
1.0
 40
1.0
 40
1.0
 40
2.0
 40
2.0
 40
2.0
 40
3.0
 40
3.0
 40
3.0
 40
4.0
 40
4.0
 40
4.0
 40
5.0
 40
5.0
 40
5.0
 40
5.0
 10
4.313358285514659
 20
-4.623062037025714
 30
0.0
 10
4.310648903032866
 20
-4.623216800989846
 30
0.0
 10
4.307939520551076
 20
-4.623371564954426
 30
0.0
 10
4.305129064390126
 20
-4.624341260603202
 30
0.0
 10
4.301624190810528
 20
-4.625550552072941
 30
0.0
 10
4.29796212569408
 20
-4.628027239413441
 30
0.0
 10
4.294538146152528
 20
-4.631138626852207
 30
0.0
 10
4.290993336652738
 20
-4.634359813081002
 30
0.0
 10
4.287703712987042
 20
-4.638261286109141
 30
0.0
 10
4.284838597630558
 20
-4.642793014567826
 30
0.0
 10
4.281873811403116
 20
-4.647482391589949
 30
0.0
 10
4.279363582583288
 20
-4.652846637084183
 30
0.0
 10
4.277898535966602
 20
-4.658561860080911
 30
0.0
 10
4.276537876570403
 20
-4.663869863103704
 30
0.0
 10
4.276078763335881
 20
-4.669480609915042
 30
0.0
 10
4.275619650101806
 20
-4.675091356726801
 30
0.0
  0
SPLINE
  5
170
330
70
100
AcDbEntity
  8
Livello 1
370
    15
100
AcDbSpline
210
0.0
220
0.0
230
1.0
 70
     8
 71
     3
 72
    17
 73
    13
 74
     0
 42
0.000000001
 43
0.0000000001
 40
0.0
 40
0.0
 40
0.0
 40
0.0
 40
1.0
 40
1.0
 40
1.0
 40
2.0
 40
2.0
 40
2.0
 40
3.0
 40
3.0
 40
3.0
 40
4.0
 40
4.0
 40
4.0
 40
4.0
 10
4.016900763464861
 20
-4.726996508440443
 30
0.0
 10
4.016846030086548
 20
-4.727170830460996
 30
0.0
 10
4.016791296708205
 20
-4.727345152480617
 30
0.0
 10
4.016786274714346
 20
-4.727359724246125
 30
0.0
 10
4.016768743713931
 20
-4.727410592014793
 30
0.0
 10
4.017356995479008
 20
-4.725514743710006
 30
0.0
 10
4.018076375212221
 20
-4.723160108719244
 30
0.0
 10
4.018805055737211
 20
-4.720775030877002
 30
0.0
 10
4.019668276831103
 20
-4.717919226440657
 30
0.0
 10
4.020549835735056
 20
-4.713975881786216
 30
0.0
 10
4.02112851594617
 20
-4.711387358765168
 30
0.0
 10
4.021715097885017
 20
-4.708330216718068
 30
0.0
 10
4.022301679824095
 20
-4.705273074670554
 30
0.0
  0
SPLINE
  5
171
330
70
100
AcDbEntity
  8
Livello 1
370
    15
100
AcDbSpline
210
0.0
220
0.0
230
1.0
 70
     8
 71
     3
 72
    17
 73
    13
 74
     0
 42
0.000000001
 43
0.0000000001
 40
0.0
 40
0.0
 40
0.0
 40
0.0
 40
1.0
 40
1.0
 40
1.0
 40
2.0
 40
2.0
 40
2.0
 40
3.0
 40
3.0
 40
3.0
 40
4.0
 40
4.0
 40
4.0
 40
4.0
 10
4.022305957264633
 20
-4.644909638782698
 30
0.0
 10
4.02175799262388
 20
-4.642033538572277
 30
0.0
 10
4.021210027983386
 20
-4.639157438361861
 30
0.0
 10
4.02066664652443
 20
-4.636690891276925
 30
0.0
 10
4.019736723857588
 20
-4.63246973502401
 30
0.0
 10
4.018820224237845
 20
-4.629448062279936
 30
0.0
 10
4.018051590499606
 20
-4.626938815784997
 30
0.0
 10
4.017288830844695
 20
-4.624448745553004
 30
0.0
 10
4.016671685654176
 20
-4.622463299329949
 30
0.0
 10
4.016754866080306
 20
-4.622724436978558
 30
0.0
 10
4.016771659776002
 20
-4.622777159312572
 30
0.0
 10
4.016816999802099
 20
-4.622921455800637
 30
0.0
 10
4.016862339827971
 20
-4.623065752287806
 30
0.0
  0
SPLINE
  5
172
330
70
100
AcDbEntity
  8
Livello 1
370
    15
100
AcDbSpline
210
0.0
220
0.0
230
1.0
 70
     8
 71
     3
 72
    17
 73
    13
 74
     0
 42
0.000000001
 43
0.0000000001
 40
0.0
 40
0.0
 40
0.0
 40
0.0
 40
1.0
 40
1.0
 40
1.0
 40
2.0
 40
2.0
 40
2.0
 40
3.0
 40
3.0
 40
3.0
 40
4.0
 40
4.0
 40
4.0
 40
4.0
 10
4.339123002295471
 20
-3.524250157424951
 30
0.0
 10
4.339206124329303
 20
-3.524799290424857
 30
0.0
 10
4.339289246363358
 20
-3.525348423424761
 30
0.0
 10
4.339375236851056
 20
-3.525882172073705
 30
0.0
 10
4.340188835138191
 20
-3.530932230478748
 30
0.0
 10
4.341259216944685
 20
-3.534605084565113
 30
0.0
 10
4.342187782303997
 20
-3.537798583573898
 30
0.0
 10
4.343138019116658
 20
-3.541066614510399
 30
0.0
 10
4.343939742629981
 20
-3.543832654276466
 30
0.0
 10
4.344292252476993
 20
-3.545021860683831
 30
0.0
 10
4.344539101079406
 20
-3.54585461455455
 30
0.0
 10
4.344565671340035
 20
-3.545914145649986
 30
0.0
 10
4.344592241600663
 20
-3.545973676743849
 30
0.0
  0
SPLINE
  5
173
330
70
100
AcDbEntity
  8
Livello 1
370
    15
100
AcDbSpline
210
0.0
220
0.0
230
1.0
 70
     8
 71
     3
 72
    17
 73
    13
 74
     0
 42
0.000000001
 43
0.0000000001
 40
0.0
 40
0.0
 40
0.0
 40
0.0
 40
1.0
 40
1.0
 40
1.0
 40
2.0
 40
2.0
 40
2.0
 40
3.0
 40
3.0
 40
3.0
 40
4.0
 40
4.0
 40
4.0
 40
4.0
 10
4.344630665237779
 20
-3.44204284726359
 30
0.0
 10
4.344576089815029
 20
-3.442186536406424
 30
0.0
 10
4.34452151439299
 20
-3.44233022554788
 30
0.0
 10
4.344229031906364
 20
-3.443318355578728
 30
0.0
 10
4.343863209265069
 20
-3.444554259795123
 30
0.0
 10
4.343125210277093
 20
-3.447111187940508
 30
0.0
 10
4.342248210317036
 20
-3.450115795155388
 30
0.0
 10
4.341340268353676
 20
-3.453226409861551
 30
0.0
 10
4.34028334402397
 20
-3.456816850616196
 30
0.0
 10
4.339473141353717
 20
-3.46177013398615
 30
0.0
 10
4.339360604004816
 20
-3.462458146256958
 30
0.0
 10
4.339252826725068
 20
-3.463172452229198
 30
0.0
 10
4.339145049446028
 20
-3.463886758200731
 30
0.0
  0
SPLINE
  5
174
330
70
100
AcDbEntity
  8
Livello 1
370
    15
100
AcDbSpline
210
0.0
220
0.0
230
1.0
 70
     8
 71
     3
 72
    11
 73
     7
 74
     0
 42
0.000000001
 43
0.0000000001
 40
0.0
 40
0.0
 40
0.0
 40
0.0
 40
1.0
 40
1.0
 40
1.0
 40
2.0
 40
2.0
 40
2.0
 40
2.0
 10
4.118211966169972
 20
-4.675091356726801
 30
0.0
 10
4.118645833906251
 20
-4.658857657270409
 30
0.0
 10
4.105837539609888
 20
-4.645345924387919
 30
0.0
 10
4.089603840153688
 20
-4.644912056651222
 30
0.0
 10
4.089571713509536
 20
-4.64491119802255
 30
0.0
 10
4.089539585479056
 20
-4.644910392065629
 30
0.0
 10
4.089507456192227
 20
-4.644909638782698
 30
0.0
  0
SPLINE
  5
175
330
70
100
AcDbEntity
  8
Livello 1
370
    15
100
AcDbSpline
210
0.0
220
0.0
230
1.0
 70
     8
 71
     3
 72
    11
 73
     7
 74
     0
 42
0.000000001
 43
0.0000000001
 40
0.0
 40
0.0
 40
0.0
 40
0.0
 40
1.0
 40
1.0
 40
1.0
 40
2.0
 40
2.0
 40
2.0
 40
2.0
 10
4.089507456192227
 20
-4.705273074670554
 30
0.0
 10
4.105742651799413
 20
-4.70489226925215
 30
0.0
 10
4.118595174473067
 20
-4.69142233900712
 30
0.0
 10
4.11821436905489
 20
-4.675187143399671
 30
0.0
 10
4.118213620115203
 20
-4.67515521322548
 30
0.0
 10
4.118212819152301
 20
-4.675123284291784
 30
0.0
 10
4.118211966169972
 20
-4.675091356726801
 30
0.0
  0
LWPOLYLINE
  5
176
330
70
100
AcDbEntity
  8
Livello 1
370
    15
100
AcDbPolyline
 90
        7
 70
     0
 43
0.0
 10
3.959619944511977
 20
-3.494068451702361
 10
3.95890133450793
 20
-3.485565291066846
 10
3.956803726571127
 20
-3.477750993892656
 10
3.953497045081503
 20
-3.47125864581499
 10
3.949249228911468
 20
-3.466614225361885
 10
3.944404330932555
 20
-3.464193976198936
 10
3.941879614451471
 20
-3.463886758200731
  0
LWPOLYLINE
  5
177
330
70
100
AcDbEntity
  8
Livello 1
370
    15
100
AcDbPolyline
 90
        7
 70
     0
 43
0.0
 10
3.941879614451471
 20
-3.524250157424951
 10
3.944404330932555
 20
-3.523942951648358
 10
3.949249228911468
 20
-3.521522690264027
 10
3.953497045081503
 20
-3.516878257589538
 10
3.956803726571127
 20
-3.510385909512546
 10
3.95890133450793
 20
-3.502571612337681
 10
3.959619944511977
 20
-3.494068451702361
  0
LWPOLYLINE
  5
178
330
70
100
AcDbEntity
  8
Livello 1
370
    15
100
AcDbPolyline
 90
       26
 70
     0
 43
0.0
 10
4.312828457291761
 20
-3.463886758200731
 10
4.311727187460378
 20
-3.46230293197465
 10
4.304303616143775
 20
-3.45406265061172
 10
4.295368886204276
 20
-3.447693003970452
 10
4.285340781366756
 20
-3.443491799680268
 10
4.274688194658393
 20
-3.441655531137342
 10
4.263909240136169
 20
-3.442270016018606
 10
4.25350792250406
 20
-3.445306558808765
 10
4.243970586747156
 20
-3.450623148483601
 10
4.235743211032497
 20
-3.457971180201099
 10
4.229210483917196
 20
-3.467007089939872
 10
4.224677863536953
 20
-3.477308339907053
 10
4.222357303180555
 20
-3.488393290301169
 10
4.222357303180555
 20
-3.499743613104258
 10
4.224677863536953
 20
-3.510828563498147
 10
4.229210483917196
 20
-3.521129825686041
 10
4.235743211032497
 20
-3.530165735425486
 10
4.243970586747156
 20
-3.537513779364143
 10
4.25350792250406
 20
-3.542830356817626
 10
4.263909240136169
 20
-3.545866887386596
 10
4.274688194658393
 20
-3.546481384489018
 10
4.285340781366756
 20
-3.544645103724485
 10
4.295368886204276
 20
-3.540443923877258
 10
4.304303616143775
 20
-3.534074277236248
 10
4.311727187460378
 20
-3.525833995872643
 10
4.312828457291761
 20
-3.524250157424951
  0
SPLINE
  5
179
330
70
100
AcDbEntity
  8
Livello 1
370
    15
100
AcDbSpline
210
0.0
220
0.0
230
1.0
 70
     8
 71
     3
 72
    20
 73
    16
 74
     0
 42
0.000000001
 43
0.0000000001
 40
0.0
 40
0.0
 40
0.0
 40
0.0
 40
1.0
 40
1.0
 40
1.0
 40
2.0
 40
2.0
 40
2.0
 40
3.0
 40
3.0
 40
3.0
 40
4.0
 40
4.0
 40
4.0
 40
5.0
 40
5.0
 40
5.0
 40
5.0
 10
4.178848669399361
 20
-3.494068451702361
 30
0.0
 10
4.179430407609501
 20
-3.49979727971814
 30
0.0
 10
4.180012145819868
 20
-3.505526107734111
 30
0.0
 10
4.181776809626426
 20
-3.510931368725771
 30
0.0
 10
4.183539219896712
 20
-3.516329727013966
 30
0.0
 10
4.186481536420241
 20
-3.52140534416235
 30
0.0
 10
4.19005869215382
 20
-3.525882172073705
 30
0.0
 10
4.193753141236792
 20
-3.530505793186573
 30
0.0
 10
4.198124744272373
 20
-3.534490713204581
 30
0.0
 10
4.203023369886738
 20
-3.537798583573898
 30
0.0
 10
4.20803639033829
 20
-3.541183700772316
 30
0.0
 10
4.213601335294915
 20
-3.543859777586053
 30
0.0
 10
4.219294777994651
 20
-3.545021860683831
 30
0.0
 10
4.223294135000642
 20
-3.545838165585163
 30
0.0
 10
4.227356897361981
 20
-3.545907412158481
 30
0.0
 10
4.231419659723093
 20
-3.545976658731285
 30
0.0
  0
SPLINE
  5
17A
330
70
100
AcDbEntity
  8
Livello 1
370
    15
100
AcDbSpline
210
0.0
220
0.0
230
1.0
 70
     8
 71
     3
 72
    20
 73
    16
 74
     0
 42
0.000000001
 43
0.0000000001
 40
0.0
 40
0.0
 40
0.0
 40
0.0
 40
1.0
 40
1.0
 40
1.0
 40
2.0
 40
2.0
 40
2.0
 40
3.0
 40
3.0
 40
3.0
 40
4.0
 40
4.0
 40
4.0
 40
5.0
 40
5.0
 40
5.0
 40
5.0
 10
4.231431526565089
 20
-3.442039107558731
 30
0.0
 10
4.227099039942181
 20
-3.442193879208045
 30
0.0
 10
4.222766553319272
 20
-3.442348650856684
 30
0.0
 10
4.218519192482896
 20
-3.443318355578728
 30
0.0
 10
4.213222354942568
 20
-3.44452766380018
 30
0.0
 10
4.208057907690823
 20
-3.447004381448191
 30
0.0
 10
4.203363536397747
 20
-3.450115795155388
 30
0.0
 10
4.198503545766387
 20
-3.45333698080967
 30
0.0
 10
4.194147385144843
 20
-3.457238437207506
 30
0.0
 10
4.190444419516956
 20
-3.46177013398615
 30
0.0
 10
4.186612601751876
 20
-3.466459520269978
 30
0.0
 10
4.183480228357615
 20
-3.471823771014272
 30
0.0
 10
4.181659387774006
 20
-3.477539003941517
 30
0.0
 10
4.179968293726584
 20
-3.482846989971641
 30
0.0
 10
4.179408481562893
 20
-3.488457720837017
 30
0.0
 10
4.178848669399361
 20
-3.494068451702361
 30
0.0
  0
SPLINE
  5
17B
330
70
100
AcDbEntity
  8
Livello 1
370
    15
100
AcDbSpline
210
0.0
220
0.0
230
1.0
 70
     9
 71
     3
 72
    62
 73
    58
 74
     0
 42
0.000000001
 43
0.0000000001
 40
0.0
 40
0.0
 40
0.0
 40
0.0
 40
1.0
 40
1.0
 40
1.0
 40
2.0
 40
2.0
 40
2.0
 40
3.0
 40
3.0
 40
3.0
 40
4.0
 40
4.0
 40
4.0
 40
5.0
 40
5.0
 40
5.0
 40
6.0
 40
6.0
 40
6.0
 40
7.0
 40
7.0
 40
7.0
 40
8.0
 40
8.0
 40
8.0
 40
9.0
 40
9.0
 40
9.0
 40
10.0
 40
10.0
 40
10.0
 40
11.0
 40
11.0
 40
11.0
 40
12.0
 40
12.0
 40
12.0
 40
13.0
 40
13.0
 40
13.0
 40
14.0
 40
14.0
 40
14.0
 40
15.0
 40
15.0
 40
15.0
 40
16.0
 40
16.0
 40
16.0
 40
17.0
 40
17.0
 40
17.0
 40
18.0
 40
18.0
 40
18.0
 40
19.0
 40
19.0
 40
19.0
 40
19.0
 10
4.215779308523107
 20
-3.494068451702361
 30
0.0
 10
4.215768965927673
 20
-3.495448701728772
 30
0.0
 10
4.215758623332463
 20
-3.496828951754705
 30
0.0
 10
4.215718788850804
 20
-3.498130358087616
 30
0.0
 10
4.215678980472594
 20
-3.499430911611071
 30
0.0
 10
4.215609718847519
 20
-3.500652724740227
 30
0.0
 10
4.215500248304935
 20
-3.501733233999618
 30
0.0
 10
4.215388937919568
 20
-3.502831903097951
 30
0.0
 10
4.215236055696863
 20
-3.503784478698941
 30
0.0
 10
4.215020563905901
 20
-3.504540774846948
 30
0.0
 10
4.214802267433888
 20
-3.505306914385115
 30
0.0
 10
4.214519721028308
 20
-3.505871631965713
 30
0.0
 10
4.21416678678199
 20
-3.506198735227968
 30
0.0
 10
4.213820320308908
 20
-3.506519844087973
 30
0.0
 10
4.213406022172634
 20
-3.506611967736548
 30
0.0
 10
4.212944465384422
 20
-3.506468898369973
 30
0.0
 10
4.212492857440111
 20
-3.50632891285924
 30
0.0
 10
4.211996006205127
 20
-3.505963764217131
 30
0.0
 10
4.211495390755265
 20
-3.505396751797948
 30
0.0
 10
4.210990034691506
 20
-3.504824370013226
 30
0.0
 10
4.210480842784533
 20
-3.504046283221341
 30
0.0
 10
4.210018060576362
 20
-3.503103994804142
 30
0.0
 10
4.209543448680856
 20
-3.502137619512089
 30
0.0
 10
4.209117649468121
 20
-3.500998540622278
 30
0.0
 10
4.208790337382528
 20
-3.499746277338468
 30
0.0
 10
4.208462187118215
 20
-3.49849080726699
 30
0.0
 10
4.208233029037526
 20
-3.497121572375618
 30
0.0
 10
4.208133224751493
 20
-3.495718077185207
 30
0.0
 10
4.208035742325185
 20
-3.4943472330826
 30
0.0
 10
4.20806166509663
 20
-3.492943704211201
 30
0.0
 10
4.208207334463662
 20
-3.4915893938436
 30
0.0
 10
4.208351115737122
 20
-3.490252637370243
 30
0.0
 10
4.2086115595327
 20
-3.488963831778745
 30
0.0
 10
4.20895715756213
 20
-3.487790537828745
 30
0.0
 10
4.209308458372237
 20
-3.486597883125336
 30
0.0
 10
4.209747746895931
 20
-3.485524583676208
 30
0.0
 10
4.210226799672977
 20
-3.484624816334787
 30
0.0
 10
4.210716307619644
 20
-3.483705411866663
 30
0.0
 10
4.211247334443816
 20
-3.482967196725571
 30
0.0
 10
4.211765040604356
 20
-3.482453758634161
 30
0.0
 10
4.21227954983668
 20
-3.481943491115973
 30
0.0
 10
4.212780902412101
 20
-3.48165523314097
 30
0.0
 10
4.213227045325036
 20
-3.481608854144098
 30
0.0
 10
4.213661630625096
 20
-3.481563676624208
 30
0.0
 10
4.214043829693173
 20
-3.481748008352336
 30
0.0
 10
4.214359784897403
 20
-3.482149180428076
 30
0.0
 10
4.214674312518498
 20
-3.482548539884603
 30
0.0
 10
4.214923193543832
 20
-3.483162784611734
 30
0.0
 10
4.215115205332466
 20
-3.483956802341306
 30
0.0
 10
4.215311783640284
 20
-3.484769703794332
 30
0.0
 10
4.215448755560673
 20
-3.485771030831767
 30
0.0
 10
4.215547324592805
 20
-3.486910142803248
 30
0.0
 10
4.215647412296708
 20
-3.488066805288956
 30
0.0
 10
4.215707904634687
 20
-3.489365531173653
 30
0.0
 10
4.215739711645178
 20
-3.490730923756211
 30
0.0
 10
4.215764974567988
 20
-3.491815395580646
 30
0.0
 10
4.21577214154542
 20
-3.492941923641841
 30
0.0
 10
4.215779308523107
 20
-3.494068451702361
 30
0.0
  0
SPLINE
  5
17C
330
70
100
AcDbEntity
  8
Livello 1
370
    15
100
AcDbSpline
210
0.0
220
0.0
230
1.0
 70
     8
 71
     3
 72
    38
 73
    34
 74
     0
 42
0.000000001
 43
0.0000000001
 40
0.0
 40
0.0
 40
0.0
 40
0.0
 40
1.0
 40
1.0
 40
1.0
 40
2.0
 40
2.0
 40
2.0
 40
3.0
 40
3.0
 40
3.0
 40
4.0
 40
4.0
 40
4.0
 40
5.0
 40
5.0
 40
5.0
 40
6.0
 40
6.0
 40
6.0
 40
7.0
 40
7.0
 40
7.0
 40
8.0
 40
8.0
 40
8.0
 40
9.0
 40
9.0
 40
9.0
 40
10.0
 40
10.0
 40
10.0
 40
11.0
 40
11.0
 40
11.0
 40
11.0
 10
4.130156853202332
 20
-4.72699953931232
 30
0.0
 10
4.131654473316489
 20
-4.727171115123278
 30
0.0
 10
4.133152093430839
 20
-4.727342690933785
 30
0.0
 10
4.134661144704756
 20
-4.727359724246125
 30
0.0
 10
4.139972170826941
 20
-4.727419672086778
 30
0.0
 10
4.145424789099902
 20
-4.72556537806254
 30
0.0
 10
4.150531793301091
 20
-4.723160108719244
 30
0.0
 10
4.155704964211247
 20
-4.720723676535547
 30
0.0
 10
4.160523507434628
 20
-4.717721899594822
 30
0.0
 10
4.164776110134472
 20
-4.713975881786216
 30
0.0
 10
4.169213991438048
 20
-4.710066656408346
 30
0.0
 10
4.173035543837487
 20
-4.705346926852121
 30
0.0
 10
4.175973373894747
 20
-4.700140439379945
 30
0.0
 10
4.178945517715614
 20
-4.694873140296188
 30
0.0
 10
4.181013174936586
 20
-4.689107646258023
 30
0.0
 10
4.181987504124043
 20
-4.683152694422497
 30
0.0
 10
4.182920804738357
 20
-4.677448502983913
 30
0.0
 10
4.182850917736985
 20
-4.671570473767648
 30
0.0
 10
4.181787539891336
 20
-4.665891682123101
 30
0.0
 10
4.1807564382594
 20
-4.660385256203221
 30
0.0
 10
4.178791240436408
 20
-4.65506615667769
 30
0.0
 10
4.176045063797446
 20
-4.650169472932629
 30
0.0
 10
4.173216239630581
 20
-4.645125421096613
 30
0.0
 10
4.169558721406983
 20
-4.640529593258571
 30
0.0
 10
4.165313014465978
 20
-4.636690891276925
 30
0.0
 10
4.160882553648685
 20
-4.632685146425613
 30
0.0
 10
4.155811599721284
 20
-4.629503854475363
 30
0.0
 10
4.150341532747733
 20
-4.626938815784997
 30
0.0
 10
4.144913344583788
 20
-4.624393415021502
 30
0.0
 10
4.139092131195417
 20
-4.622454867574329
 30
0.0
 10
4.133486095135356
 20
-4.622724436978558
 30
0.0
 10
4.132366610661565
 20
-4.622778268021082
 30
0.0
 10
4.131255706851348
 20
-4.622920152523398
 30
0.0
 10
4.130144803041133
 20
-4.623062037025714
 30
0.0
  0
SPLINE
  5
17D
330
70
100
AcDbEntity
  8
Livello 1
370
    15
100
AcDbSpline
210
0.0
220
0.0
230
1.0
 70
     9
 71
     3
 72
    62
 73
    58
 74
     0
 42
0.000000001
 43
0.0000000001
 40
0.0
 40
0.0
 40
0.0
 40
0.0
 40
1.0
 40
1.0
 40
1.0
 40
2.0
 40
2.0
 40
2.0
 40
3.0
 40
3.0
 40
3.0
 40
4.0
 40
4.0
 40
4.0
 40
5.0
 40
5.0
 40
5.0
 40
6.0
 40
6.0
 40
6.0
 40
7.0
 40
7.0
 40
7.0
 40
8.0
 40
8.0
 40
8.0
 40
9.0
 40
9.0
 40
9.0
 40
10.0
 40
10.0
 40
10.0
 40
11.0
 40
11.0
 40
11.0
 40
12.0
 40
12.0
 40
12.0
 40
13.0
 40
13.0
 40
13.0
 40
14.0
 40
14.0
 40
14.0
 40
15.0
 40
15.0
 40
15.0
 40
16.0
 40
16.0
 40
16.0
 40
17.0
 40
17.0
 40
17.0
 40
18.0
 40
18.0
 40
18.0
 40
19.0
 40
19.0
 40
19.0
 40
19.0
 10
4.155441952801093
 20
-4.674435221796058
 30
0.0
 10
4.155386157136962
 20
-4.675813487381573
 30
0.0
 10
4.155330361473055
 20
-4.677191752967566
 30
0.0
 10
4.155131288408074
 20
-4.678492093022709
 30
0.0
 10
4.154932330499223
 20
-4.679791680878853
 30
0.0
 10
4.154590260903365
 20
-4.68101343333341
 30
0.0
 10
4.154186902873142
 20
-4.682093942349117
 30
0.0
 10
4.153777231408533
 20
-4.683191363692574
 30
0.0
 10
4.153304337899188
 20
-4.684143085457261
 30
0.0
 10
4.152808173808527
 20
-4.684899258927525
 30
0.0
 10
4.152305147950568
 20
-4.685665889998203
 30
0.0
 10
4.151778203413131
 20
-4.686231526653243
 30
0.0
 10
4.151282178577774
 20
-4.686560470162808
 30
0.0
 10
4.150793822866925
 20
-4.6868843278207
 30
0.0
 10
4.150335438139556
 20
-4.686978754860396
 30
0.0
 10
4.149937253514168
 20
-4.686837452767305
 30
0.0
 10
4.149546895659105
 20
-4.686698928127235
 30
0.0
 10
4.14921439456256
 20
-4.686333850324691
 30
0.0
 10
4.148943616307298
 20
-4.68576530619483
 30
0.0
 10
4.148670522876406
 20
-4.685191900968542
 30
0.0
 10
4.148460212269303
 20
-4.684411535236232
 30
0.0
 10
4.148298358296909
 20
-4.683465754182003
 30
0.0
 10
4.148132816302191
 20
-4.682498422456588
 30
0.0
 10
4.148017964377774
 20
-4.681358051181065
 30
0.0
 10
4.147934458101683
 20
-4.680104908074321
 30
0.0
 10
4.147850900854248
 20
-4.678851000062516
 30
0.0
 10
4.147798727532809
 20
-4.677484182507606
 30
0.0
 10
4.147766146928428
 20
-4.676084016233375
 30
0.0
 10
4.147734307427912
 20
-4.674715699224655
 30
0.0
 10
4.147721179440417
 20
-4.673315533392716
 30
0.0
 10
4.147728969860006
 20
-4.671964767702973
 30
0.0
 10
4.147736678093731
 20
-4.67062825212379
 30
0.0
 10
4.147764865699292
 20
-4.669340099874704
 30
0.0
 10
4.147827326549114
 20
-4.668167182698644
 30
0.0
 10
4.147890957256772
 20
-4.666972297413217
 30
0.0
 10
4.147990157071267
 20
-4.665897004206007
 30
0.0
 10
4.148145250369433
 20
-4.664995423903733
 30
0.0
 10
4.148303760170342
 20
-4.664073982967226
 30
0.0
 10
4.14852065309919
 20
-4.663333992568919
 30
0.0
 10
4.148811284519176
 20
-4.662819648797313
 30
0.0
 10
4.149099436628883
 20
-4.662309692776139
 30
0.0
 10
4.149460074503196
 20
-4.662021549922973
 30
0.0
 10
4.149884213251841
 20
-4.661975502025542
 30
0.0
 10
4.150296207137984
 20
-4.661930772671468
 30
0.0
 10
4.150768117372756
 20
-4.662114472391816
 30
0.0
 10
4.151265704321049
 20
-4.662513726252853
 30
0.0
 10
4.151760837819693
 20
-4.662911011515415
 30
0.0
 10
4.152281395447531
 20
-4.663521730496061
 30
0.0
 10
4.152777034041768
 20
-4.664310837883363
 30
0.0
 10
4.15328557647552
 20
-4.665120489506278
 30
0.0
 10
4.153767885462542
 20
-4.666117939053589
 30
0.0
 10
4.154182503219931
 20
-4.667252934787511
 30
0.0
 10
4.15460472155185
 20
-4.668408736720316
 30
0.0
 10
4.154956744140161
 20
-4.669707173923002
 30
0.0
 10
4.155156733068364
 20
-4.671073789068291
 30
0.0
 10
4.15531645967667
 20
-4.672165273503324
 30
0.0
 10
4.155379206238881
 20
-4.673300247649692
 30
0.0
 10
4.155441952801093
 20
-4.674435221796058
 30
0.0
  0
LWPOLYLINE
  5
17E
330
70
100
AcDbEntity
  8
Livello 1
370
    15
100
AcDbPolyline
 90
        3
 70
     0
 43
0.0
 10
4.149205737860916
 20
-4.674435221796058
 10
4.148912500982821
 20
-4.669664531299511
 10
4.148087761569263
 20
-4.665653807545518
  0
LWPOLYLINE
  5
17F
330
70
100
AcDbEntity
  8
Livello 1
370
    15
100
AcDbPolyline
 90
        3
 70
     0
 43
0.0
 10
4.14823233905798
 20
-4.682718595317973
 10
4.148912500982821
 20
-4.679205912293086
 10
4.149205737860916
 20
-4.674435221796058
  0
SPLINE
  5
180
330
70
100
AcDbEntity
  8
Livello 1
370
    15
100
AcDbSpline
210
0.0
220
0.0
230
1.0
 70
     8
 71
     3
 72
    38
 73
    34
 74
     0
 42
0.000000001
 43
0.0000000001
 40
0.0
 40
0.0
 40
0.0
 40
0.0
 40
1.0
 40
1.0
 40
1.0
 40
2.0
 40
2.0
 40
2.0
 40
3.0
 40
3.0
 40
3.0
 40
4.0
 40
4.0
 40
4.0
 40
5.0
 40
5.0
 40
5.0
 40
6.0
 40
6.0
 40
6.0
 40
7.0
 40
7.0
 40
7.0
 40
8.0
 40
8.0
 40
8.0
 40
9.0
 40
9.0
 40
9.0
 40
10.0
 40
10.0
 40
10.0
 40
11.0
 40
11.0
 40
11.0
 40
11.0
 10
4.048217543020292
 20
-3.545976658731285
 30
0.0
 10
4.049109569011986
 20
-3.546148250237333
 30
0.0
 10
4.050001595004162
 20
-3.546319841743321
 30
0.0
 10
4.050931200158927
 20
-3.546336880327892
 30
0.0
 10
4.054202817555786
 20
-3.546396845280633
 30
0.0
 10
4.057939887137943
 20
-3.544542531429891
 30
0.0
 10
4.061537126102137
 20
-3.542137240358981
 30
0.0
 10
4.065180938210239
 20
-3.539700808191038
 30
0.0
 10
4.068681275512004
 20
-3.536699039536991
 30
0.0
 10
4.071869271410736
 20
-3.532953001204543
 30
0.0
 10
4.075196148862028
 20
-3.529043770811183
 30
0.0
 10
4.078182878522053
 20
-3.524324011666343
 30
0.0
 10
4.080510801135615
 20
-3.519117534355728
 30
0.0
 10
4.082865917040891
 20
-3.513850238332266
 30
0.0
 10
4.084546744484515
 20
-3.508084786673156
 30
0.0
 10
4.085338296042178
 20
-3.50212986272565
 30
0.0
 10
4.08609652067631
 20
-3.496425660660943
 30
0.0
 10
4.086038775895397
 20
-3.490547605246256
 30
0.0
 10
4.085175679975908
 20
-3.484868801541201
 30
0.0
 10
4.084338780166143
 20
-3.479362357088636
 30
0.0
 10
4.082744674283977
 20
-3.474043252787069
 30
0.0
 10
4.080567605545343
 20
-3.469146567908381
 30
0.0
 10
4.078325024885158
 20
-3.464102532957196
 30
0.0
 10
4.075463868680268
 20
-3.459506722659711
 30
0.0
 10
4.072273281776576
 20
-3.455667986252678
 30
0.0
 10
4.068943893926126
 20
-3.451662252280438
 30
0.0
 10
4.065255789296243
 20
-3.448480895359028
 30
0.0
 10
4.061404207693928
 20
-3.445915910761455
 30
0.0
 10
4.05758201554785
 20
-3.443370498253774
 30
0.0
 10
4.053598831729787
 20
-3.441432087512661
 30
0.0
 10
4.05018555673103
 20
-3.441701580839423
 30
0.0
 10
4.049503964939981
 20
-3.441755395560043
 30
0.0
 10
4.048845098547751
 20
-3.441897251559721
 30
0.0
 10
4.048186232155871
 20
-3.442039107558731
 30
0.0
  0
LWPOLYLINE
  5
181
330
70
100
AcDbEntity
  8
Livello 1
370
    15
100
AcDbPolyline
 90
       13
 70
     0
 43
0.0
 10
3.972732377260996
 20
-3.494068451702361
 10
3.972011078580196
 20
-3.482784685873846
 10
3.969880864325711
 20
-3.472028511777701
 10
3.966441313312543
 20
-3.46230293197465
 10
3.961853257303908
 20
-3.45406265061172
 10
3.956331301599651
 20
-3.447693003970452
 10
3.950133608066977
 20
-3.443491799680268
 10
3.943549918303024
 20
-3.441655531137342
 10
3.936888159139621
 20
-3.442270016018606
 10
3.9304598260148
 20
-3.445306558808765
 10
3.924565415234722
 20
-3.450623148483601
 10
3.919480638392371
 20
-3.457971180201099
 10
3.916637289257502
 20
-3.463886758200731
  0
LWPOLYLINE
  5
182
330
70
100
AcDbEntity
  8
Livello 1
370
    15
100
AcDbPolyline
 90
       13
 70
     0
 43
0.0
 10
3.916637289257502
 20
-3.524250157424951
 10
3.919480638392371
 20
-3.530165735425486
 10
3.924565415234722
 20
-3.537513779364143
 10
3.9304598260148
 20
-3.542830356817626
 10
3.936888159139621
 20
-3.545866887386596
 10
3.943549918303024
 20
-3.546481384489018
 10
3.950133608066977
 20
-3.544645103724485
 10
3.956331301599651
 20
-3.540443923877258
 10
3.961853257303908
 20
-3.534074277236248
 10
3.966441313312543
 20
-3.525833995872643
 10
3.969880864325711
 20
-3.516108391626826
 10
3.972011078580196
 20
-3.505352241973191
 10
3.972732377260996
 20
-3.494068451702361
  0
SPLINE
  5
183
330
70
100
AcDbEntity
  8
Livello 1
370
    15
100
AcDbSpline
210
0.0
220
0.0
230
1.0
 70
     8
 71
     3
 72
    20
 73
    16
 74
     0
 42
0.000000001
 43
0.0000000001
 40
0.0
 40
0.0
 40
0.0
 40
0.0
 40
1.0
 40
1.0
 40
1.0
 40
2.0
 40
2.0
 40
2.0
 40
3.0
 40
3.0
 40
3.0
 40
4.0
 40
4.0
 40
4.0
 40
5.0
 40
5.0
 40
5.0
 40
5.0
 10
4.275619650101806
 20
-4.675091356726801
 30
0.0
 10
4.276096832992362
 20
-4.680820172476986
 30
0.0
 10
4.276574015882917
 20
-4.686548988227586
 30
0.0
 10
4.2779931162867
 20
-4.691954249306999
 30
0.0
 10
4.279410405603971
 20
-4.69735261207499
 30
0.0
 10
4.281767209777386
 20
-4.702428245499652
 30
0.0
 10
4.284539702309598
 20
-4.706905052655381
 30
0.0
 10
4.287403127562357
 20
-4.711528690957281
 30
0.0
 10
4.290709955985436
 20
-4.715513577991703
 30
0.0
 10
4.294290567896566
 20
-4.718821464155576
 30
0.0
 10
4.297954708509982
 20
-4.722206516861891
 30
0.0
 10
4.301905555274978
 20
-4.724882614050856
 30
0.0
 10
4.305647477957665
 20
-4.726044716823221
 30
0.0
 10
4.308276069912404
 20
-4.726861060252644
 30
0.0
 10
4.310801565055616
 20
-4.726930299782708
 30
0.0
 10
4.313327060199051
 20
-4.72699953931232
 30
0.0
  0
SPLINE
  5
184
330
70
100
AcDbEntity
  8
Livello 1
370
    15
100
AcDbSpline
210
0.0
220
0.0
230
1.0
 70
     8
 71
     3
 72
    20
 73
    16
 74
     0
 42
0.000000001
 43
0.0000000001
 40
0.0
 40
0.0
 40
0.0
 40
0.0
 40
1.0
 40
1.0
 40
1.0
 40
2.0
 40
2.0
 40
2.0
 40
3.0
 40
3.0
 40
3.0
 40
4.0
 40
4.0
 40
4.0
 40
5.0
 40
5.0
 40
5.0
 40
5.0
 10
4.313358285514659
 20
-4.623062037025714
 30
0.0
 10
4.310648903032866
 20
-4.623216800989846
 30
0.0
 10
4.307939520551076
 20
-4.623371564954426
 30
0.0
 10
4.305129064390126
 20
-4.624341260603202
 30
0.0
 10
4.301624190810528
 20
-4.625550552072941
 30
0.0
 10
4.29796212569408
 20
-4.628027239413441
 30
0.0
 10
4.294538146152528
 20
-4.631138626852207
 30
0.0
 10
4.290993336652738
 20
-4.634359813081002
 30
0.0
 10
4.287703712987042
 20
-4.638261286109141
 30
0.0
 10
4.284838597630558
 20
-4.642793014567826
 30
0.0
 10
4.281873811403116
 20
-4.647482391589949
 30
0.0
 10
4.279363582583288
 20
-4.652846637084183
 30
0.0
 10
4.277898535966602
 20
-4.658561860080911
 30
0.0
 10
4.276537876570403
 20
-4.663869863103704
 30
0.0
 10
4.276078763335881
 20
-4.669480609915042
 30
0.0
 10
4.275619650101806
 20
-4.675091356726801
 30
0.0
  0
SPLINE
  5
185
330
70
100
AcDbEntity
  8
Livello 1
370
    15
100
AcDbSpline
210
0.0
220
0.0
230
1.0
 70
     8
 71
     3
 72
    17
 73
    13
 74
     0
 42
0.000000001
 43
0.0000000001
 40
0.0
 40
0.0
 40
0.0
 40
0.0
 40
1.0
 40
1.0
 40
1.0
 40
2.0
 40
2.0
 40
2.0
 40
3.0
 40
3.0
 40
3.0
 40
4.0
 40
4.0
 40
4.0
 40
4.0
 10
4.016900763464861
 20
-4.726996508440443
 30
0.0
 10
4.016846030086548
 20
-4.727170830460996
 30
0.0
 10
4.016791296708205
 20
-4.727345152480617
 30
0.0
 10
4.016786274714346
 20
-4.727359724246125
 30
0.0
 10
4.016768743713931
 20
-4.727410592014793
 30
0.0
 10
4.017356995479008
 20
-4.725514743710006
 30
0.0
 10
4.018076375212221
 20
-4.723160108719244
 30
0.0
 10
4.018805055737211
 20
-4.720775030877002
 30
0.0
 10
4.019668276831103
 20
-4.717919226440657
 30
0.0
 10
4.020549835735056
 20
-4.713975881786216
 30
0.0
 10
4.02112851594617
 20
-4.711387358765168
 30
0.0
 10
4.021715097885017
 20
-4.708330216718068
 30
0.0
 10
4.022301679824095
 20
-4.705273074670554
 30
0.0
  0
SPLINE
  5
186
330
70
100
AcDbEntity
  8
Livello 1
370
    15
100
AcDbSpline
210
0.0
220
0.0
230
1.0
 70
     8
 71
     3
 72
    17
 73
    13
 74
     0
 42
0.000000001
 43
0.0000000001
 40
0.0
 40
0.0
 40
0.0
 40
0.0
 40
1.0
 40
1.0
 40
1.0
 40
2.0
 40
2.0
 40
2.0
 40
3.0
 40
3.0
 40
3.0
 40
4.0
 40
4.0
 40
4.0
 40
4.0
 10
4.022305957264633
 20
-4.644909638782698
 30
0.0
 10
4.02175799262388
 20
-4.642033538572277
 30
0.0
 10
4.021210027983386
 20
-4.639157438361861
 30
0.0
 10
4.02066664652443
 20
-4.636690891276925
 30
0.0
 10
4.019736723857588
 20
-4.63246973502401
 30
0.0
 10
4.018820224237845
 20
-4.629448062279936
 30
0.0
 10
4.018051590499606
 20
-4.626938815784997
 30
0.0
 10
4.017288830844695
 20
-4.624448745553004
 30
0.0
 10
4.016671685654176
 20
-4.622463299329949
 30
0.0
 10
4.016754866080306
 20
-4.622724436978558
 30
0.0
 10
4.016771659776002
 20
-4.622777159312572
 30
0.0
 10
4.016816999802099
 20
-4.622921455800637
 30
0.0
 10
4.016862339827971
 20
-4.623065752287806
 30
0.0
  0
SPLINE
  5
187
330
70
100
AcDbEntity
  8
Livello 1
370
    15
100
AcDbSpline
210
0.0
220
0.0
230
1.0
 70
     8
 71
     3
 72
    17
 73
    13
 74
     0
 42
0.000000001
 43
0.0000000001
 40
0.0
 40
0.0
 40
0.0
 40
0.0
 40
1.0
 40
1.0
 40
1.0
 40
2.0
 40
2.0
 40
2.0
 40
3.0
 40
3.0
 40
3.0
 40
4.0
 40
4.0
 40
4.0
 40
4.0
 10
4.339123002295471
 20
-3.524250157424951
 30
0.0
 10
4.339206124329303
 20
-3.524799290424857
 30
0.0
 10
4.339289246363358
 20
-3.525348423424761
 30
0.0
 10
4.339375236851056
 20
-3.525882172073705
 30
0.0
 10
4.340188835138191
 20
-3.530932230478748
 30
0.0
 10
4.341259216944685
 20
-3.534605084565113
 30
0.0
 10
4.342187782303997
 20
-3.537798583573898
 30
0.0
 10
4.343138019116658
 20
-3.541066614510399
 30
0.0
 10
4.343939742629981
 20
-3.543832654276466
 30
0.0
 10
4.344292252476993
 20
-3.545021860683831
 30
0.0
 10
4.344539101079406
 20
-3.54585461455455
 30
0.0
 10
4.344565671340035
 20
-3.545914145649986
 30
0.0
 10
4.344592241600663
 20
-3.545973676743849
 30
0.0
  0
SPLINE
  5
188
330
70
100
AcDbEntity
  8
Livello 1
370
    15
100
AcDbSpline
210
0.0
220
0.0
230
1.0
 70
     8
 71
     3
 72
    17
 73
    13
 74
     0
 42
0.000000001
 43
0.0000000001
 40
0.0
 40
0.0
 40
0.0
 40
0.0
 40
1.0
 40
1.0
 40
1.0
 40
2.0
 40
2.0
 40
2.0
 40
3.0
 40
3.0
 40
3.0
 40
4.0
 40
4.0
 40
4.0
 40
4.0
 10
4.344630665237779
 20
-3.44204284726359
 30
0.0
 10
4.344576089815029
 20
-3.442186536406424
 30
0.0
 10
4.34452151439299
 20
-3.44233022554788
 30
0.0
 10
4.344229031906364
 20
-3.443318355578728
 30
0.0
 10
4.343863209265069
 20
-3.444554259795123
 30
0.0
 10
4.343125210277093
 20
-3.447111187940508
 30
0.0
 10
4.342248210317036
 20
-3.450115795155388
 30
0.0
 10
4.341340268353676
 20
-3.453226409861551
 30
0.0
 10
4.34028334402397
 20
-3.456816850616196
 30
0.0
 10
4.339473141353717
 20
-3.46177013398615
 30
0.0
 10
4.339360604004816
 20
-3.462458146256958
 30
0.0
 10
4.339252826725068
 20
-3.463172452229198
 30
0.0
 10
4.339145049446028
 20
-3.463886758200731
 30
0.0
  0
LWPOLYLINE
  5
189
330
70
100
AcDbEntity
  8
Livello 1
370
    15
100
AcDbPolyline
 90
       26
 70
     0
 43
0.0
 10
4.444855712752699
 20
-4.644909638782698
 10
4.444175089475606
 20
-4.643325763671501
 10
4.439587070130443
 20
-4.635085506750405
 10
4.43406510373282
 20
-4.62871588455171
 10
4.427867391676958
 20
-4.624514704704485
 10
4.421283731893601
 20
-4.622678387276028
 10
4.414621968910807
 20
-4.623292872157066
 10
4.408193599122316
 20
-4.626329414947451
 10
4.402299206674076
 20
-4.631646053507401
 10
4.397214408444725
 20
-4.638994060783031
 10
4.393176959853727
 20
-4.648029970521545
 10
4.390375648793447
 20
-4.658331220488087
 10
4.388941462712133
 20
-4.669416195325386
 10
4.388941462712133
 20
-4.680766518127833
 10
4.390375648793447
 20
-4.69185149296423
 10
4.393176959853727
 20
-4.702152742931669
 10
4.397214408444725
 20
-4.711188652670638
 10
4.402299206674076
 20
-4.718536659945818
 10
4.408193599122316
 20
-4.723853200735603
 10
4.414621968910807
 20
-4.726889743525988
 10
4.421283731893601
 20
-4.727504228406996
 10
4.427867391676958
 20
-4.725668008748701
 10
4.43406510373282
 20
-4.721466828901506
 10
4.439587070130443
 20
-4.715097108933099
 10
4.444175089475606
 20
-4.706856852012003
 10
4.444855712752699
 20
-4.705273074670554
  0
LINE
  5
18A
330
70
100
AcDbEntity
  8
Livello 1
370
    15
100
AcDbLine
 10
1.583152218301211
 20
-4.675091356726801
 30
0.0
 11
1.583152218301211
 21
-4.63178713571667
 31
0.0
  0
LINE
  5
18B
330
70
100
AcDbEntity
  8
Livello 1
370
    15
100
AcDbLine
 10
1.583152218301211
 20
-4.718395479966386
 30
0.0
 11
1.583152218301211
 21
-4.675091356726801
 31
0.0
  0
LINE
  5
18C
330
70
100
AcDbEntity
  8
Livello 1
370
    15
100
AcDbLine
 10
1.581839948440495
 20
-4.675091356726801
 30
0.0
 11
1.581839948440495
 21
-4.718395479966386
 31
0.0
  0
LINE
  5
18D
330
70
100
AcDbEntity
  8
Livello 1
370
    15
100
AcDbLine
 10
1.581839948440495
 20
-4.63178713571667
 30
0.0
 11
1.581839948440495
 21
-4.675091356726801
 31
0.0
  0
LINE
  5
18E
330
70
100
AcDbEntity
  8
Livello 1
370
    15
100
AcDbLine
 10
7.43446458350921
 20
-3.450764279577503
 30
0.0
 11
7.43446458350921
 21
-3.537372636049082
 31
0.0
  0
LINE
  5
18F
330
70
100
AcDbEntity
  8
Livello 1
370
    15
100
AcDbLine
 10
7.435776853369861
 20
-3.537372636049082
 30
0.0
 11
7.435776853369861
 21
-3.450764279577503
 31
0.0
  0
LINE
  5
190
330
70
100
AcDbEntity
  8
Livello 1
370
    15
100
AcDbLine
 10
7.467446602659522
 20
-3.625235672169787
 30
0.0
 11
7.473339579997557
 21
-3.622663766006035
 31
0.0
  0
LINE
  5
191
330
70
100
AcDbEntity
  8
Livello 1
370
    15
100
AcDbLine
 10
7.473339579997557
 20
-3.365473149619876
 30
0.0
 11
7.467446602659522
 21
-3.362901243456092
 31
0.0
  0
SPLINE
  5
192
330
70
100
AcDbEntity
  8
Livello 1
370
    15
100
AcDbSpline
210
0.0
220
0.0
230
1.0
 70
     8
 71
     3
 72
     8
 73
     4
 74
     0
 42
0.000000001
 43
0.0000000001
 40
0.0
 40
0.0
 40
0.0
 40
0.0
 40
1.0
 40
1.0
 40
1.0
 40
1.0
 10
7.441681969972982
 20
-3.526538773131421
 30
0.0
 10
7.445069392692317
 20
-3.560580264955226
 30
0.0
 10
7.453762756426921
 20
-3.593882041590426
 30
0.0
 10
7.467446602659715
 20
-3.625235672170461
 30
0.0
  0
SPLINE
  5
193
330
70
100
AcDbEntity
  8
Livello 1
370
    15
100
AcDbSpline
210
0.0
220
0.0
230
1.0
 70
     8
 71
     3
 72
     8
 73
     4
 74
     0
 42
0.000000001
 43
0.0000000001
 40
0.0
 40
0.0
 40
0.0
 40
0.0
 40
1.0
 40
1.0
 40
1.0
 40
1.0
 10
7.467446602659715
 20
-3.362901243455417
 30
0.0
 10
7.453762756426921
 20
-3.394254874035261
 30
0.0
 10
7.445069392692317
 20
-3.427556650671358
 30
0.0
 10
7.441681969972982
 20
-3.461598142494489
 30
0.0
  0
LINE
  5
194
330
70
100
AcDbEntity
  8
Livello 1
370
    15
100
AcDbLine
 10
7.467446602659522
 20
-3.494068457813292
 30
0.0
 11
7.467446602659522
 21
-3.362901243456092
 31
0.0
  0
LINE
  5
195
330
70
100
AcDbEntity
  8
Livello 1
370
    15
100
AcDbLine
 10
7.467446602659522
 20
-3.625235672169787
 30
0.0
 11
7.467446602659522
 21
-3.494068457813292
 31
0.0
  0
LINE
  5
196
330
70
100
AcDbEntity
  8
Livello 1
370
    15
100
AcDbLine
 10
7.473339579997557
 20
-3.494068457813292
 30
0.0
 11
7.473339579997557
 21
-3.365473149619876
 31
0.0
  0
LINE
  5
197
330
70
100
AcDbEntity
  8
Livello 1
370
    15
100
AcDbLine
 10
7.473339579997557
 20
-3.622663766006035
 30
0.0
 11
7.473339579997557
 21
-3.494068457813292
 31
0.0
  0
LINE
  5
198
330
70
100
AcDbEntity
  8
Livello 1
370
    15
100
AcDbLine
 10
7.467446602659522
 20
-3.625235672169787
 30
0.0
 11
7.473339579997557
 21
-3.622663766006035
 31
0.0
  0
LINE
  5
199
330
70
100
AcDbEntity
  8
Livello 1
370
    15
100
AcDbLine
 10
7.473339579997557
 20
-3.365473149619876
 30
0.0
 11
7.467446602659522
 21
-3.362901243456092
 31
0.0
  0
SPLINE
  5
19A
330
70
100
AcDbEntity
  8
Livello 1
370
    15
100
AcDbSpline
210
0.0
220
0.0
230
1.0
 70
     8
 71
     3
 72
     8
 73
     4
 74
     0
 42
0.000000001
 43
0.0000000001
 40
0.0
 40
0.0
 40
0.0
 40
0.0
 40
1.0
 40
1.0
 40
1.0
 40
1.0
 10
7.441681969972982
 20
-3.526538773131421
 30
0.0
 10
7.445069392692317
 20
-3.560580264955226
 30
0.0
 10
7.453762756426921
 20
-3.593882041590426
 30
0.0
 10
7.467446602659715
 20
-3.625235672170461
 30
0.0
  0
SPLINE
  5
19B
330
70
100
AcDbEntity
  8
Livello 1
370
    15
100
AcDbSpline
210
0.0
220
0.0
230
1.0
 70
     8
 71
     3
 72
     8
 73
     4
 74
     0
 42
0.000000001
 43
0.0000000001
 40
0.0
 40
0.0
 40
0.0
 40
0.0
 40
1.0
 40
1.0
 40
1.0
 40
1.0
 10
7.467446602659715
 20
-3.362901243455417
 30
0.0
 10
7.453762756426921
 20
-3.394254874035261
 30
0.0
 10
7.445069392692317
 20
-3.427556650671358
 30
0.0
 10
7.441681969972982
 20
-3.461598142494489
 30
0.0
  0
LINE
  5
19C
330
70
100
AcDbEntity
  8
Livello 1
370
    15
100
AcDbLine
 10
7.467446602659522
 20
-3.494068457813292
 30
0.0
 11
7.467446602659522
 21
-3.362901243456092
 31
0.0
  0
LINE
  5
19D
330
70
100
AcDbEntity
  8
Livello 1
370
    15
100
AcDbLine
 10
7.467446602659522
 20
-3.625235672169787
 30
0.0
 11
7.467446602659522
 21
-3.494068457813292
 31
0.0
  0
LINE
  5
19E
330
70
100
AcDbEntity
  8
Livello 1
370
    15
100
AcDbLine
 10
7.473339579997557
 20
-3.494068457813292
 30
0.0
 11
7.473339579997557
 21
-3.365473149619876
 31
0.0
  0
LINE
  5
19F
330
70
100
AcDbEntity
  8
Livello 1
370
    15
100
AcDbLine
 10
7.473339579997557
 20
-3.622663766006035
 30
0.0
 11
7.473339579997557
 21
-3.494068457813292
 31
0.0
  0
LINE
  5
1A0
330
70
100
AcDbEntity
  8
Livello 1
370
    25
100
AcDbLine
 10
7.473339579997557
 20
-3.494068457813292
 30
0.0
 11
7.473339579997557
 21
-3.44205486499829
 31
0.0
  0
LINE
  5
1A1
330
70
100
AcDbEntity
  8
Livello 1
370
    25
100
AcDbLine
 10
7.491046334998111
 20
-3.494068457813292
 30
0.0
 11
7.491046334998111
 21
-3.458654947811441
 31
0.0
  0
LINE
  5
1A2
330
70
100
AcDbEntity
  8
Livello 1
370
    25
100
AcDbLine
 10
7.506539745623792
 20
-3.477131947659521
 30
0.0
 11
7.506539745623792
 21
-3.447755440934823
 31
0.0
  0
LINE
  5
1A3
330
70
100
AcDbEntity
  8
Livello 1
370
    25
100
AcDbLine
 10
7.473339579997557
 20
-3.454228259061623
 30
0.0
 11
7.506539745623792
 21
-3.454228259061623
 31
0.0
  0
LINE
  5
1A4
330
70
100
AcDbEntity
  8
Livello 1
370
    25
100
AcDbLine
 10
7.491046334998111
 20
-3.458654947811441
 30
0.0
 11
7.506539745623792
 21
-3.458654947811441
 31
0.0
  0
LINE
  5
1A5
330
70
100
AcDbEntity
  8
Livello 1
370
    25
100
AcDbLine
 10
7.506539745623792
 20
-3.51100496796639
 30
0.0
 11
7.506539745623792
 21
-3.540381474691536
 31
0.0
  0
LINE
  5
1A6
330
70
100
AcDbEntity
  8
Livello 1
370
    25
100
AcDbLine
 10
7.473339579997557
 20
-3.494068457813292
 30
0.0
 11
7.473339579997557
 21
-3.546082050627396
 31
0.0
  0
LINE
  5
1A7
330
70
100
AcDbEntity
  8
Livello 1
370
    25
100
AcDbLine
 10
7.491046334998111
 20
-3.494068457813292
 30
0.0
 11
7.491046334998111
 21
-3.529481967814468
 31
0.0
  0
LINE
  5
1A8
330
70
100
AcDbEntity
  8
Livello 1
370
    25
100
AcDbLine
 10
7.473339579997557
 20
-3.504415842937939
 30
0.0
 11
7.491046334998111
 21
-3.504415842937939
 31
0.0
  0
LINE
  5
1A9
330
70
100
AcDbEntity
  8
Livello 1
370
    25
100
AcDbLine
 10
7.473339579997557
 20
-3.483721072687973
 30
0.0
 11
7.491046334998111
 21
-3.483721072687973
 31
0.0
  0
LINE
  5
1AA
330
70
100
AcDbEntity
  8
Livello 1
370
    25
100
AcDbLine
 10
7.491046334998111
 20
-3.529481967814468
 30
0.0
 11
7.506539745623792
 21
-3.529481967814468
 31
0.0
  0
LINE
  5
1AB
330
70
100
AcDbEntity
  8
Livello 1
370
    25
100
AcDbLine
 10
7.473339579997557
 20
-3.533908656564961
 30
0.0
 11
7.506539745623792
 21
-3.533908656564961
 31
0.0
  0
LINE
  5
1AC
330
70
100
AcDbEntity
  8
Livello 1
370
    25
100
AcDbLine
 10
7.441681969972531
 20
-3.461598142495163
 30
0.0
 11
7.441681969972531
 21
-3.526538773131421
 31
0.0
  0
CIRCLE
  5
1AD
330
70
100
AcDbEntity
  8
Livello 1
370
    15
100
AcDbCircle
 10
7.923158021438228
 20
-3.499682781702718
 30
0.0
 40
0.4945985948511299
  0
SPLINE
  5
1AF
330
70
100
AcDbEntity
  8
Livello 1
370
    18
100
AcDbSpline
210
0.0
220
0.0
230
1.0
 70
    24
 71
     3
 72
     8
 73
     4
 74
     0
 42
0.000000001
 43
0.0000000001
 40
0.0
 40
0.0
 40
0.0
 40
0.0
 40
1.0
 40
1.0
 40
1.0
 40
1.0
 10
0.5781910471716683
 20
-6.139703342585883
 30
0.0
 10
0.5781910471716683
 20
-6.139703342585883
 30
0.0
 10
8.60914778641303
 20
-6.139703342585883
 30
0.0
 10
8.472146707698598
 20
-6.139703342585883
 30
0.0
  0
LINE
  5
1BF
330
70
100
AcDbEntity
  8
Livello 1
370
    18
100
AcDbLine
 10
8.626272921252294
 20
-2.004667360130508
 30
0.0
 11
8.626272921252294
 21
-5.475562479437582
 31
0.0
  0
LINE
  5
1D0
330
70
100
AcDbEntity
  8
Livello 1
370
    18
100
AcDbLine
 10
3.360591729103796
 20
-1.664060283271956
 30
0.0
 11
4.999999998749408
 21
-1.664060283271956
 31
0.0
  0
MTEXT
  5
22A
330
70
100
AcDbEntity
  8
0
100
AcDbMText
 10
3.691983643673982
 20
-1.181901317332793
 30
0.0
 40
0.4
 41
3.395125530511613
 46
0.0
 71
     1
 72
     5
  1
300 mm
 73
     1
 44
1.0
1001
ACAD
1000
ACAD_MTEXT_COLUMN_INFO_BEGIN
1070
    75
1070
     2
1070
    79
1070
     0
1070
    76
1070
     1
1070
    78
1070
     0
1070
    48
1040
3.395125530511613
1070
    49
1040
2.0
1070
    50
1070
     1
1040
0.0
1000
ACAD_MTEXT_COLUMN_INFO_END
  0
MTEXT
  5
232
330
70
100
AcDbEntity
  8
0
100
AcDbMText
 10
8.758205058640562
 20
-3.56085240984822
 30
0.0
 40
0.4
 41
3.395125530511613
 46
0.0
 71
     1
 72
     5
  1
535 mm
 73
     1
 44
1.0
1001
ACAD
1000
ACAD_MTEXT_COLUMN_INFO_BEGIN
1070
    75
1070
     2
1070
    79
1070
     0
1070
    76
1070
     1
1070
    78
1070
     0
1070
    48
1040
3.395125530511613
1070
    49
1040
2.0
1070
    50
1070
     1
1040
0.0
1000
ACAD_MTEXT_COLUMN_INFO_END
  0
MTEXT
  5
233
330
70
100
AcDbEntity
  8
0
100
AcDbMText
 10
3.436425348216423
 20
-6.2567915130484
 30
0.0
 40
0.4
 41
3.395125530511613
 46
0.0
 71
     1
 72
     5
  1
1240 mm
 73
     1
 44
1.0
1001
ACAD
1000
ACAD_MTEXT_COLUMN_INFO_BEGIN
1070
    75
1070
     2
1070
    79
1070
     0
1070
    76
1070
     1
1070
    78
1070
     0
1070
    48
1040
3.395125530511613
1070
    49
1040
2.0
1070
    50
1070
     1
1040
0.0
1000
ACAD_MTEXT_COLUMN_INFO_END
  0
ENDSEC
  0
SECTION
  2
OBJECTS
  0
DICTIONARY
  5
C
330
0
100
AcDbDictionary
281
     1
  3
ACAD_CIP_PREVIOUS_PRODUCT_INFO
350
221
  3
ACAD_COLOR
350
63
  3
ACAD_DETAILVIEWSTYLE
350
6A
  3
ACAD_GROUP
350
D
  3
ACAD_LAYOUT
350
62
  3
ACAD_MATERIAL
350
10
  3
ACAD_MLEADERSTYLE
350
66
  3
ACAD_MLINESTYLE
350
5F
  3
ACAD_PLOTSETTINGS
350
61
  3
ACAD_PLOTSTYLENAME
350
E
  3
ACAD_SCALELIST
350
42
  3
ACAD_SECTIONVIEWSTYLE
350
68
  3
ACAD_TABLESTYLE
350
64
  3
ACAD_VISUALSTYLE
350
29
  3
ACDB_RECOMPOSE_DATA
350
281
  3
AcDbVariableDictionary
350
1DE
  0
DICTIONARY
  5
223
330
2
100
AcDbDictionary
280
     1
281
     1
  3
ACAD_LAYERSTATES
360
224
  0
XRECORD
  5
221
102
{ACAD_REACTORS
330
C
102
}
330
C
100
AcDbXrecord
280
     1
300
ACD
300
2019
300
ACD_F_S
  0
DICTIONARY
  5
63
102
{ACAD_REACTORS
330
C
102
}
330
C
100
AcDbDictionary
281
     1
  0
DICTIONARY
  5
6A
102
{ACAD_REACTORS
330
C
102
}
330
C
100
AcDbDictionary
281
     1
  3
Imperial24
350
6B
  0
DICTIONARY
  5
D
102
{ACAD_REACTORS
330
C
102
}
330
C
100
AcDbDictionary
281
     1
  0
DICTIONARY
  5
62
102
{ACAD_REACTORS
330
C
102
}
330
C
100
AcDbDictionary
281
     1
  3
Layout1
350
6F
  3
Layout2
350
77
  3
Model
350
73
  0
DICTIONARY
  5
10
102
{ACAD_REACTORS
330
C
102
}
330
C
100
AcDbDictionary
281
     1
  3
ByBlock
350
19
  3
ByLayer
350
11
  3
Global
350
21
  0
DICTIONARY
  5
66
102
{ACAD_REACTORS
330
C
102
}
330
C
100
AcDbDictionary
281
     1
  3
Standard
350
67
  0
DICTIONARY
  5
5F
102
{ACAD_REACTORS
330
C
102
}
330
C
100
AcDbDictionary
281
     1
  3
Standard
350
60
  0
DICTIONARY
  5
61
102
{ACAD_REACTORS
330
C
102
}
330
C
100
AcDbDictionary
281
     1
  0
ACDBDICTIONARYWDFLT
  5
E
102
{ACAD_REACTORS
330
C
102
}
330
C
100
AcDbDictionary
281
     1
  3
Normal
350
F
100
AcDbDictionaryWithDefault
340
F
  0
DICTIONARY
  5
42
102
{ACAD_REACTORS
330
C
102
}
330
C
100
AcDbDictionary
281
     1
  3
A0
350
43
  3
A1
350
44
  3
A2
350
45
  3
A3
350
46
  3
A4
350
47
  3
A5
350
48
  3
A6
350
49
  3
A7
350
4A
  3
A8
350
4B
  3
A9
350
4C
  3
B0
350
4D
  3
B1
350
4E
  3
B2
350
4F
  3
B3
350
50
  3
B4
350
51
  3
B5
350
52
  3
B6
350
53
  0
DICTIONARY
  5
68
102
{ACAD_REACTORS
330
C
102
}
330
C
100
AcDbDictionary
281
     1
  3
Imperial24
350
69
  0
DICTIONARY
  5
64
102
{ACAD_REACTORS
330
C
102
}
330
C
100
AcDbDictionary
281
     1
  3
Standard
350
65
  0
DICTIONARY
  5
29
102
{ACAD_REACTORS
330
C
102
}
330
C
100
AcDbDictionary
281
     1
  3
2dWireframe
350
2F
  3
Basic
350
2E
  3
Brighten
350
35
  3
ColorChange
350
39
  3
Conceptual
350
32
  3
Dim
350
34
  3
EdgeColorOff
350
41
  3
Facepattern
350
38
  3
Flat
350
2A
  3
FlatWithEdges
350
2B
  3
Gouraud
350
2C
  3
GouraudWithEdges
350
2D
  3
Hidden
350
31
  3
JitterOff
350
3F
  3
Linepattern
350
37
  3
OverhangOff
350
40
  3
Realistic
350
33
  3
Shaded
350
3E
  3
Shaded with edges
350
3D
  3
Shades of Gray
350
3A
  3
Sketchy
350
3B
  3
Thicken
350
36
  3
Wireframe
350
30
  3
X-Ray
350
3C
  0
XRECORD
  5
281
102
{ACAD_REACTORS
330
C
102
}
330
C
100
AcDbXrecord
280
     1
 90
        1
330
65
330
22A
330
232
330
233
  0
DICTIONARY
  5
1DE
102
{ACAD_REACTORS
330
C
102
}
330
C
100
AcDbDictionary
281
     1
  3
CANNOSCALE
350
1E3
  3
CMLEADERSTYLE
350
1E0
  3
CTABLESTYLE
350
1DF
  3
CVIEWDETAILSTYLE
350
1E1
  3
CVIEWSECTIONSTYLE
350
1E2
  0
DICTIONARY
  5
224
102
{ACAD_REACTORS
330
223
102
}
330
223
100
AcDbDictionary
281
     1
  0
ACDBDETAILVIEWSTYLE
  5
6B
102
{ACAD_XDICTIONARY
360
2B6
102
}
102
{ACAD_REACTORS
330
6A
102
}
330
6A
100
AcDbModelDocViewStyle
 70
     0
  3
Imperial24
290
     0
100
AcDbDetailViewStyle
 70
     0
 71
     0
 90
        3
 71
     1
340
55
 62
   256
 40
0.24
340
0
 62
   256
 40
0.24
300

 40
0.36
280
     3
 71
     2
340
5D
 90
       25
 62
   256
 71
     3
340
55
 62
   256
 40
0.24
 90
        1
 40
0.75
 90
        1
300
%<\AcVar ViewType \f "%tc1">% %<\AcVar ViewDetailId>%\PSCALE %<\AcVar ViewScale \f "%sn">%
 71
     4
340
5D
 90
       25
 62
   256
340
5D
 90
       25
 62
   256
280
     0
  0
LAYOUT
  5
6F
102
{ACAD_REACTORS
330
62
102
}
330
62
100
AcDbPlotSettings
  1

  2

  4

  6

 40
0.0
 41
0.0
 42
0.0
 43
0.0
 44
0.0
 45
0.0
 46
0.0
 47
0.0
 48
0.0
 49
0.0
140
0.0
141
0.0
142
1.0
143
1.0
 70
   688
 72
     0
 73
     0
 74
     5
  7

 75
    16
147
1.0
 76
     0
 77
     2
 78
   300
148
0.0
149
0.0
100
AcDbLayout
  1
Layout1
 70
     1
 71
     1
 10
0.0
 20
0.0
 11
12.0
 21
9.0
 12
0.0
 22
0.0
 32
0.0
 14
1.000000000000000E+20
 24
1.000000000000000E+20
 34
1.000000000000000E+20
 15
-1.000000000000000E+20
 25
-1.000000000000000E+20
 35
-1.000000000000000E+20
146
0.0
 13
0.0
 23
0.0
 33
0.0
 16
1.0
 26
0.0
 36
0.0
 17
0.0
 27
1.0
 37
0.0
 76
     0
330
6C
  0
LAYOUT
  5
77
102
{ACAD_REACTORS
330
62
102
}
330
62
100
AcDbPlotSettings
  1

  2

  4

  6

 40
0.0
 41
0.0
 42
0.0
 43
0.0
 44
0.0
 45
0.0
 46
0.0
 47
0.0
 48
0.0
 49
0.0
140
0.0
141
0.0
142
1.0
143
1.0
 70
   688
 72
     0
 73
     0
 74
     5
  7

 75
    16
147
1.0
 76
     0
 77
     2
 78
   300
148
0.0
149
0.0
100
AcDbLayout
  1
Layout2
 70
     1
 71
     2
 10
0.0
 20
0.0
 11
12.0
 21
9.0
 12
0.0
 22
0.0
 32
0.0
 14
0.0
 24
0.0
 34
0.0
 15
0.0
 25
0.0
 35
0.0
146
0.0
 13
0.0
 23
0.0
 33
0.0
 16
1.0
 26
0.0
 36
0.0
 17
0.0
 27
1.0
 37
0.0
 76
     0
330
74
  0
LAYOUT
  5
73
102
{ACAD_REACTORS
330
62
102
}
330
62
100
AcDbPlotSettings
  1

  2

  4

  6

 40
0.0
 41
0.0
 42
0.0
 43
0.0
 44
0.0
 45
0.0
 46
0.0
 47
0.0
 48
0.0
 49
0.0
140
0.0
141
0.0
142
1.0
143
1.0
 70
  1712
 72
     0
 73
     0
 74
     0
  7

 75
     0
147
1.0
 76
     0
 77
     2
 78
   300
148
0.0
149
0.0
100
AcDbLayout
  1
Model
 70
     1
 71
     0
 10
0.0
 20
0.0
 11
12.0
 21
9.0
 12
0.0
 22
0.0
 32
0.0
 14
0.0
 24
0.0
 34
0.0
 15
0.0
 25
0.0
 35
0.0
146
0.0
 13
0.0
 23
0.0
 33
0.0
 16
1.0
 26
0.0
 36
0.0
 17
0.0
 27
1.0
 37
0.0
 76
     0
330
70
331
57
  0
MATERIAL
  5
19
102
{ACAD_XDICTIONARY
360
1A
102
}
102
{ACAD_REACTORS
330
10
102
}
330
10
100
AcDbMaterial
  1
ByBlock
 72
     0
 43
0.0208333333333333
 43
0.0
 43
0.0
 43
0.0
 43
0.0
 43
0.0208333333333333
 43
0.0
 43
0.0
 43
0.0
 43
0.0
 43
1.0
 43
0.0
 43
0.0
 43
0.0
 43
0.0
 43
1.0
 77
     0
 47
0.0208333333333333
 47
0.0
 47
0.0
 47
0.0
 47
0.0
 47
0.0208333333333333
 47
0.0
 47
0.0
 47
0.0
 47
0.0
 47
1.0
 47
0.0
 47
0.0
 47
0.0
 47
0.0
 47
1.0
171
     0
 49
0.0208333333333333
 49
0.0
 49
0.0
 49
0.0
 49
0.0
 49
0.0208333333333333
 49
0.0
 49
0.0
 49
0.0
 49
0.0
 49
1.0
 49
0.0
 49
0.0
 49
0.0
 49
0.0
 49
1.0
175
     0
142
0.0208333333333333
142
0.0
142
0.0
142
0.0
142
0.0
142
0.0208333333333333
142
0.0
142
0.0
142
0.0
142
0.0
142
1.0
142
0.0
142
0.0
142
0.0
142
0.0
142
1.0
179
     0
144
0.0208333333333333
144
0.0
144
0.0
144
0.0
144
0.0
144
0.0208333333333333
144
0.0
144
0.0
144
0.0
144
0.0
144
1.0
144
0.0
144
0.0
144
0.0
144
0.0
144
1.0
147
0.0208333333333333
147
0.0
147
0.0
147
0.0
147
0.0
147
0.0208333333333333
147
0.0
147
0.0
147
0.0
147
0.0
147
1.0
147
0.0
147
0.0
147
0.0
147
0.0
147
1.0
  0
MATERIAL
  5
11
102
{ACAD_XDICTIONARY
360
12
102
}
102
{ACAD_REACTORS
330
10
102
}
330
10
100
AcDbMaterial
  1
ByLayer
 72
     0
 43
0.0208333333333333
 43
0.0
 43
0.0
 43
0.0
 43
0.0
 43
0.0208333333333333
 43
0.0
 43
0.0
 43
0.0
 43
0.0
 43
1.0
 43
0.0
 43
0.0
 43
0.0
 43
0.0
 43
1.0
 77
     0
 47
0.0208333333333333
 47
0.0
 47
0.0
 47
0.0
 47
0.0
 47
0.0208333333333333
 47
0.0
 47
0.0
 47
0.0
 47
0.0
 47
1.0
 47
0.0
 47
0.0
 47
0.0
 47
0.0
 47
1.0
171
     0
 49
0.0208333333333333
 49
0.0
 49
0.0
 49
0.0
 49
0.0
 49
0.0208333333333333
 49
0.0
 49
0.0
 49
0.0
 49
0.0
 49
1.0
 49
0.0
 49
0.0
 49
0.0
 49
0.0
 49
1.0
175
     0
142
0.0208333333333333
142
0.0
142
0.0
142
0.0
142
0.0
142
0.0208333333333333
142
0.0
142
0.0
142
0.0
142
0.0
142
1.0
142
0.0
142
0.0
142
0.0
142
0.0
142
1.0
179
     0
144
0.0208333333333333
144
0.0
144
0.0
144
0.0
144
0.0
144
0.0208333333333333
144
0.0
144
0.0
144
0.0
144
0.0
144
1.0
144
0.0
144
0.0
144
0.0
144
0.0
144
1.0
147
0.0208333333333333
147
0.0
147
0.0
147
0.0
147
0.0
147
0.0208333333333333
147
0.0
147
0.0
147
0.0
147
0.0
147
1.0
147
0.0
147
0.0
147
0.0
147
0.0
147
1.0
  0
MATERIAL
  5
21
102
{ACAD_XDICTIONARY
360
22
102
}
102
{ACAD_REACTORS
330
10
102
}
330
10
100
AcDbMaterial
  1
Global
 72
     0
 43
0.0208333333333333
 43
0.0
 43
0.0
 43
0.0
 43
0.0
 43
0.0208333333333333
 43
0.0
 43
0.0
 43
0.0
 43
0.0
 43
1.0
 43
0.0
 43
0.0
 43
0.0
 43
0.0
 43
1.0
 77
     0
 47
0.0208333333333333
 47
0.0
 47
0.0
 47
0.0
 47
0.0
 47
0.0208333333333333
 47
0.0
 47
0.0
 47
0.0
 47
0.0
 47
1.0
 47
0.0
 47
0.0
 47
0.0
 47
0.0
 47
1.0
171
     0
 49
0.0208333333333333
 49
0.0
 49
0.0
 49
0.0
 49
0.0
 49
0.0208333333333333
 49
0.0
 49
0.0
 49
0.0
 49
0.0
 49
1.0
 49
0.0
 49
0.0
 49
0.0
 49
0.0
 49
1.0
175
     0
142
0.0208333333333333
142
0.0
142
0.0
142
0.0
142
0.0
142
0.0208333333333333
142
0.0
142
0.0
142
0.0
142
0.0
142
1.0
142
0.0
142
0.0
142
0.0
142
0.0
142
1.0
179
     0
144
0.0208333333333333
144
0.0
144
0.0
144
0.0
144
0.0
144
0.0208333333333333
144
0.0
144
0.0
144
0.0
144
0.0
144
1.0
144
0.0
144
0.0
144
0.0
144
0.0
144
1.0
147
0.0208333333333333
147
0.0
147
0.0
147
0.0
147
0.0
147
0.0208333333333333
147
0.0
147
0.0
147
0.0
147
0.0
147
1.0
147
0.0
147
0.0
147
0.0
147
0.0
147
1.0
  0
MLEADERSTYLE
  5
67
102
{ACAD_XDICTIONARY
360
2B2
102
}
102
{ACAD_REACTORS
330
66
102
}
330
66
100
AcDbMLeaderStyle
179
     2
170
     2
171
     1
172
     0
 90
        2
 40
0.0
 41
0.0
173
     1
 91
-1056964608
340
5B
 92
       -2
290
     1
 42
0.09
291
     1
 43
0.36
  3
Standard
 44
0.18
300

342
55
174
     1
178
     6
175
     1
176
     0
 93
-1056964608
 45
0.18
292
     0
297
     0
 46
0.18
 94
-1056964608
 47
1.0
 49
1.0
140
1.0
293
     1
141
0.0
294
     1
177
     0
142
1.0
295
     0
296
     0
143
0.125
271
     0
272
     9
273
     9
  0
MLINESTYLE
  5
60
102
{ACAD_REACTORS
330
5F
102
}
330
5F
100
AcDbMlineStyle
  2
STANDARD
 70
     0
  3

 62
   256
 51
90.0
 52
90.0
 71
     2
 49
0.5
 62
   256
  6
BYLAYER
 49
-0.5
 62
   256
  6
BYLAYER
  0
ACDBPLACEHOLDER
  5
F
102
{ACAD_REACTORS
330
E
102
}
330
E
  0
SCALE
  5
43
102
{ACAD_REACTORS
330
42
102
}
330
42
100
AcDbScale
 70
     0
300
1:1
140
1.0
141
1.0
290
     1
  0
SCALE
  5
44
102
{ACAD_REACTORS
330
42
102
}
330
42
100
AcDbScale
 70
     0
300
1/128" = 1'-0"
140
0.0078125
141
12.0
290
     0
  0
SCALE
  5
45
102
{ACAD_REACTORS
330
42
102
}
330
42
100
AcDbScale
 70
     0
300
1/64" = 1'-0"
140
0.015625
141
12.0
290
     0
  0
SCALE
  5
46
102
{ACAD_REACTORS
330
42
102
}
330
42
100
AcDbScale
 70
     0
300
1/32" = 1'-0"
140
0.03125
141
12.0
290
     0
  0
SCALE
  5
47
102
{ACAD_REACTORS
330
42
102
}
330
42
100
AcDbScale
 70
     0
300
1/16" = 1'-0"
140
0.0625
141
12.0
290
     0
  0
SCALE
  5
48
102
{ACAD_REACTORS
330
42
102
}
330
42
100
AcDbScale
 70
     0
300
3/32" = 1'-0"
140
0.09375
141
12.0
290
     0
  0
SCALE
  5
49
102
{ACAD_REACTORS
330
42
102
}
330
42
100
AcDbScale
 70
     0
300
1/8" = 1'-0"
140
0.125
141
12.0
290
     0
  0
SCALE
  5
4A
102
{ACAD_REACTORS
330
42
102
}
330
42
100
AcDbScale
 70
     0
300
3/16" = 1'-0"
140
0.1875
141
12.0
290
     0
  0
SCALE
  5
4B
102
{ACAD_REACTORS
330
42
102
}
330
42
100
AcDbScale
 70
     0
300
1/4" = 1'-0"
140
0.25
141
12.0
290
     0
  0
SCALE
  5
4C
102
{ACAD_REACTORS
330
42
102
}
330
42
100
AcDbScale
 70
     0
300
3/8" = 1'-0"
140
0.375
141
12.0
290
     0
  0
SCALE
  5
4D
102
{ACAD_REACTORS
330
42
102
}
330
42
100
AcDbScale
 70
     0
300
1/2" = 1'-0"
140
0.5
141
12.0
290
     0
  0
SCALE
  5
4E
102
{ACAD_REACTORS
330
42
102
}
330
42
100
AcDbScale
 70
     0
300
3/4" = 1'-0"
140
0.75
141
12.0
290
     0
  0
SCALE
  5
4F
102
{ACAD_REACTORS
330
42
102
}
330
42
100
AcDbScale
 70
     0
300
1" = 1'-0"
140
1.0
141
12.0
290
     0
  0
SCALE
  5
50
102
{ACAD_REACTORS
330
42
102
}
330
42
100
AcDbScale
 70
     0
300
1-1/2" = 1'-0"
140
1.5
141
12.0
290
     0
  0
SCALE
  5
51
102
{ACAD_REACTORS
330
42
102
}
330
42
100
AcDbScale
 70
     0
300
3" = 1'-0"
140
3.0
141
12.0
290
     0
  0
SCALE
  5
52
102
{ACAD_REACTORS
330
42
102
}
330
42
100
AcDbScale
 70
     0
300
6" = 1'-0"
140
6.0
141
12.0
290
     0
  0
SCALE
  5
53
102
{ACAD_REACTORS
330
42
102
}
330
42
100
AcDbScale
 70
     0
300
1'-0" = 1'-0"
140
12.0
141
12.0
290
     0
  0
ACDBSECTIONVIEWSTYLE
  5
69
102
{ACAD_XDICTIONARY
360
2B4
102
}
102
{ACAD_REACTORS
330
68
102
}
330
68
100
AcDbModelDocViewStyle
 70
     0
  3
Imperial24
290
     0
100
AcDbSectionViewStyle
 70
     0
 71
     0
 90
       78
 71
     1
340
55
 62
   256
 40
0.24
340
0
340
0
 62
   256
 40
0.24
300
I, O, Q, S, X, Z
 40
0.48
 90
        3
 40
0.18
 90
        1
 71
     2
340
5D
 90
       25
 62
   256
340
5D
 90
       50
 62
   256
 40
0.24
 40
0.0
 40
0.24
 71
     3
340
55
 62
   256
 40
0.24
 90
        1
 40
0.75
 90
        1
300
%<\AcVar ViewType \f "%tc1">% %<\AcVar ViewSectionStartId>%-%<\AcVar ViewSectionEndId>%\PSCALE %<\AcVar ViewScale \f "%sn">%
 71
     4
 62
   256
 62
   257
300
ANSI31
 40
1.0
 90
        0
290
     0
290
     0
 90
        6
 40
0.0
 40
1.570796326794896
 40
0.2617993877991494
 40
1.308996938995747
 40
-0.2617993877991494
 40
1.832595714594044
  0
TABLESTYLE
  5
65
102
{ACAD_XDICTIONARY
360
1E4
102
}
102
{ACAD_REACTORS
330
64
102
}
330
64
100
AcDbTableStyle
280
     0
  3
Standard
 70
     0
 71
     0
 40
0.06
 41
0.06
280
     0
281
     0
  7
Standard
140
0.18
170
     2
 62
     0
 63
     7
283
     0
 90
      512
 91
        0
  1

274
    -2
284
     1
 64
     0
275
    -2
285
     1
 65
     0
276
    -2
286
     1
 66
     0
277
    -2
287
     1
 67
     0
278
    -2
288
     1
 68
     0
279
    -2
289
     1
 69
     0
  7
Standard
140
0.25
170
     5
 62
     0
 63
     7
283
     0
 90
      512
 91
        0
  1

274
    -2
284
     1
 64
     0
275
    -2
285
     1
 65
     0
276
    -2
286
     1
 66
     0
277
    -2
287
     1
 67
     0
278
    -2
288
     1
 68
     0
279
    -2
289
     1
 69
     0
  7
Standard
140
0.18
170
     5
 62
     0
 63
     7
283
     0
 90
      512
 91
        0
  1

274
    -2
284
     1
 64
     0
275
    -2
285
     1
 65
     0
276
    -2
286
     1
 66
     0
277
    -2
287
     1
 67
     0
278
    -2
288
     1
 68
     0
279
    -2
289
     1
 69
     0
  0
VISUALSTYLE
  5
2F
102
{ACAD_XDICTIONARY
360
28C
102
}
102
{ACAD_REACTORS
330
29
102
}
330
29
100
AcDbVisualStyle
  2
2dWireframe
 70
     4
177
     2
291
     0
 71
     0
176
     1
 72
     2
176
     1
 73
     0
176
     1
 90
        0
176
     1
 40
0.6
176
     1
 41
30.0
176
     1
 63
     7
421
 16777215
176
     1
 74
     1
176
     1
 91
        4
176
     1
 64
     7
176
     1
 65
   257
176
     1
 75
     1
176
     1
175
     1
176
     1
 42
1.0
176
     1
 92
        0
176
     1
 66
   257
176
     1
 43
1.0
176
     1
 76
     1
176
     1
 77
     6
176
     1
 78
     2
176
     1
 67
     7
176
     1
 79
     5
176
     1
170
     0
176
     1
171
     0
176
     1
290
     0
176
     1
 93
        1
176
     1
 44
0.0
176
     1
173
     0
176
     1
1001
ACAD
1000
AcDbSavedByObjectVersion
1070
     0
  0
VISUALSTYLE
  5
2E
102
{ACAD_XDICTIONARY
360
28A
102
}
102
{ACAD_REACTORS
330
29
102
}
330
29
100
AcDbVisualStyle
  2
Basic
 70
     7
177
     2
291
     1
 71
     1
176
     1
 72
     0
176
     1
 73
     1
176
     1
 90
        0
176
     1
 40
0.6
176
     1
 41
30.0
176
     1
 63
     7
421
 16777215
176
     1
 74
     0
176
     1
 91
        4
176
     1
 64
     7
176
     1
 65
   257
176
     1
 75
     1
176
     1
175
     1
176
     1
 42
1.0
176
     1
 92
        8
176
     1
 66
     7
176
     1
 43
1.0
176
     1
 76
     1
176
     1
 77
     6
176
     1
 78
     2
176
     1
 67
     7
176
     1
 79
     5
176
     1
170
     0
176
     1
171
     0
176
     1
290
     0
176
     1
 93
        1
176
     1
 44
0.0
176
     1
173
     0
176
     1
1001
ACAD
1000
AcDbSavedByObjectVersion
1070
     0
  0
VISUALSTYLE
  5
35
102
{ACAD_XDICTIONARY
360
298
102
}
102
{ACAD_REACTORS
330
29
102
}
330
29
100
AcDbVisualStyle
  2
Brighten
 70
    12
177
     2
291
     1
 71
     2
176
     1
 72
     2
176
     1
 73
     0
176
     1
 90
        0
176
     1
 40
0.6
176
     1
 41
30.0
176
     1
 63
     7
421
 16777215
176
     1
 74
     1
176
     1
 91
        4
176
     1
 64
     7
176
     1
 65
   257
176
     1
 75
     1
176
     1
175
     1
176
     1
 42
1.0
176
     1
 92
        8
176
     1
 66
     7
176
     1
 43
1.0
176
     1
 76
     1
176
     1
 77
     6
176
     1
 78
     2
176
     1
 67
     7
176
     1
 79
     5
176
     1
170
     0
176
     1
171
     0
176
     1
290
     0
176
     1
 93
        1
176
     1
 44
50.0
176
     1
173
     0
176
     1
1001
ACAD
1000
AcDbSavedByObjectVersion
1070
     0
  0
VISUALSTYLE
  5
39
102
{ACAD_XDICTIONARY
360
2A0
102
}
102
{ACAD_REACTORS
330
29
102
}
330
29
100
AcDbVisualStyle
  2
ColorChange
 70
    16
177
     2
291
     1
 71
     2
176
     1
 72
     2
176
     1
 73
     3
176
     1
 90
        0
176
     1
 40
0.6
176
     1
 41
30.0
176
     1
 63
     8
421
  8421504
176
     1
 74
     1
176
     1
 91
        4
176
     1
 64
     7
176
     1
 65
   257
176
     1
 75
     1
176
     1
175
     1
176
     1
 42
1.0
176
     1
 92
        8
176
     1
 66
     8
424
  8421504
176
     1
 43
1.0
176
     1
 76
     1
176
     1
 77
     6
176
     1
 78
     2
176
     1
 67
     7
176
     1
 79
     5
176
     1
170
     0
176
     1
171
     0
176
     1
290
     0
176
     1
 93
        1
176
     1
 44
0.0
176
     1
173
     0
176
     1
1001
ACAD
1000
AcDbSavedByObjectVersion
1070
     0
  0
VISUALSTYLE
  5
32
102
{ACAD_XDICTIONARY
360
292
102
}
102
{ACAD_REACTORS
330
29
102
}
330
29
100
AcDbVisualStyle
  2
Conceptual
 70
     9
177
     2
291
     0
 71
     3
176
     1
 72
     2
176
     1
 73
     0
176
     1
 90
        0
176
     1
 40
0.6
176
     1
 41
30.0
176
     1
 63
     7
421
 16777215
176
     1
 74
     2
176
     1
 91
        2
176
     1
 64
     7
176
     1
 65
   257
176
     1
 75
     1
176
     1
175
     1
176
     1
 42
179.0
176
     1
 92
        8
176
     1
 66
     7
176
     1
 43
1.0
176
     1
 76
     1
176
     1
 77
     6
176
     1
 78
     2
176
     1
 67
     7
176
     1
 79
     3
176
     1
170
     0
176
     1
171
     0
176
     1
290
     0
176
     1
 93
        1
176
     1
 44
0.0
176
     1
173
     0
176
     1
1001
ACAD
1000
AcDbSavedByObjectVersion
1070
     0
  0
VISUALSTYLE
  5
34
102
{ACAD_XDICTIONARY
360
296
102
}
102
{ACAD_REACTORS
330
29
102
}
330
29
100
AcDbVisualStyle
  2
Dim
 70
    11
177
     2
291
     1
 71
     2
176
     1
 72
     2
176
     1
 73
     0
176
     1
 90
        0
176
     1
 40
0.6
176
     1
 41
30.0
176
     1
 63
     7
421
 16777215
176
     1
 74
     1
176
     1
 91
        4
176
     1
 64
     7
176
     1
 65
   257
176
     1
 75
     1
176
     1
175
     1
176
     1
 42
1.0
176
     1
 92
        8
176
     1
 66
     7
176
     1
 43
1.0
176
     1
 76
     1
176
     1
 77
     6
176
     1
 78
     2
176
     1
 67
     7
176
     1
 79
     5
176
     1
170
     0
176
     1
171
     0
176
     1
290
     0
176
     1
 93
        1
176
     1
 44
-50.0
176
     1
173
     0
176
     1
1001
ACAD
1000
AcDbSavedByObjectVersion
1070
     0
  0
VISUALSTYLE
  5
41
102
{ACAD_XDICTIONARY
360
2B0
102
}
102
{ACAD_REACTORS
330
29
102
}
330
29
100
AcDbVisualStyle
  2
EdgeColorOff
 70
    22
177
     2
291
     1
 71
     2
176
     0
 72
     2
176
     0
 73
     0
176
     0
 90
        0
176
     0
 40
0.6
176
     0
 41
30.0
176
     0
 63
     7
421
 16777215
176
     0
 74
     1
176
     0
 91
        4
176
     0
 64
     7
176
     0
 65
   257
176
     0
 75
     1
176
     0
175
     1
176
     0
 42
1.0
176
     0
 92
        8
176
     2
 66
     7
176
     0
 43
1.0
176
     0
 76
     1
176
     0
 77
     6
176
     0
 78
     2
176
     0
 67
     7
176
     0
 79
     5
176
     0
170
     0
176
     0
171
     0
176
     0
290
     0
176
     0
 93
        1
176
     0
 44
0.0
176
     0
173
     0
176
     0
1001
ACAD
1000
AcDbSavedByObjectVersion
1070
     0
  0
VISUALSTYLE
  5
38
102
{ACAD_XDICTIONARY
360
29E
102
}
102
{ACAD_REACTORS
330
29
102
}
330
29
100
AcDbVisualStyle
  2
Facepattern
 70
    15
177
     2
291
     1
 71
     2
176
     1
 72
     2
176
     1
 73
     0
176
     1
 90
        0
176
     1
 40
0.6
176
     1
 41
30.0
176
     1
 63
     7
421
 16777215
176
     1
 74
     1
176
     1
 91
        4
176
     1
 64
     7
176
     1
 65
   257
176
     1
 75
     1
176
     1
175
     1
176
     1
 42
1.0
176
     1
 92
        8
176
     1
 66
     7
176
     1
 43
1.0
176
     1
 76
     1
176
     1
 77
     6
176
     1
 78
     2
176
     1
 67
     7
176
     1
 79
     5
176
     1
170
     0
176
     1
171
     0
176
     1
290
     0
176
     1
 93
        1
176
     1
 44
0.0
176
     1
173
     0
176
     1
1001
ACAD
1000
AcDbSavedByObjectVersion
1070
     0
  0
VISUALSTYLE
  5
2A
102
{ACAD_XDICTIONARY
360
282
102
}
102
{ACAD_REACTORS
330
29
102
}
330
29
100
AcDbVisualStyle
  2
Flat
 70
     0
177
     2
291
     1
 71
     2
176
     1
 72
     1
176
     1
 73
     1
176
     1
 90
        2
176
     1
 40
0.6
176
     1
 41
30.0
176
     1
 63
     7
421
 16777215
176
     1
 74
     0
176
     1
 91
        0
176
     1
 64
     7
176
     1
 65
   257
176
     1
 75
     1
176
     1
175
     1
176
     1
 42
1.0
176
     1
 92
        8
176
     1
 66
     7
176
     1
 43
1.0
176
     1
 76
     1
176
     1
 77
     6
176
     1
 78
     2
176
     1
 67
     7
176
     1
 79
     5
176
     1
170
     0
176
     1
171
     0
176
     1
290
     0
176
     1
 93
       13
176
     1
 44
0.0
176
     1
173
     0
176
     1
1001
ACAD
1000
AcDbSavedByObjectVersion
1070
     0
  0
VISUALSTYLE
  5
2B
102
{ACAD_XDICTIONARY
360
284
102
}
102
{ACAD_REACTORS
330
29
102
}
330
29
100
AcDbVisualStyle
  2
FlatWithEdges
 70
     1
177
     2
291
     1
 71
     2
176
     1
 72
     1
176
     1
 73
     1
176
     1
 90
        2
176
     1
 40
0.6
176
     1
 41
30.0
176
     1
 63
     7
421
 16777215
176
     1
 74
     1
176
     1
 91
        0
176
     1
 64
     7
176
     1
 65
   257
176
     1
 75
     1
176
     1
175
     1
176
     1
 42
1.0
176
     1
 92
        0
176
     1
 66
   257
176
     1
 43
1.0
176
     1
 76
     1
176
     1
 77
     6
176
     1
 78
     2
176
     1
 67
     7
176
     1
 79
     5
176
     1
170
     0
176
     1
171
     0
176
     1
290
     0
176
     1
 93
       13
176
     1
 44
0.0
176
     1
173
     0
176
     1
1001
ACAD
1000
AcDbSavedByObjectVersion
1070
     0
  0
VISUALSTYLE
  5
2C
102
{ACAD_XDICTIONARY
360
286
102
}
102
{ACAD_REACTORS
330
29
102
}
330
29
100
AcDbVisualStyle
  2
Gouraud
 70
     2
177
     2
291
     1
 71
     2
176
     1
 72
     2
176
     1
 73
     1
176
     1
 90
        2
176
     1
 40
0.6
176
     1
 41
30.0
176
     1
 63
     7
421
 16777215
176
     1
 74
     0
176
     1
 91
        0
176
     1
 64
     7
176
     1
 65
   257
176
     1
 75
     1
176
     1
175
     1
176
     1
 42
1.0
176
     1
 92
        0
176
     1
 66
     7
176
     1
 43
1.0
176
     1
 76
     1
176
     1
 77
     6
176
     1
 78
     2
176
     1
 67
     7
176
     1
 79
     5
176
     1
170
     0
176
     1
171
     0
176
     1
290
     0
176
     1
 93
       13
176
     1
 44
0.0
176
     1
173
     0
176
     1
1001
ACAD
1000
AcDbSavedByObjectVersion
1070
     0
  0
VISUALSTYLE
  5
2D
102
{ACAD_XDICTIONARY
360
288
102
}
102
{ACAD_REACTORS
330
29
102
}
330
29
100
AcDbVisualStyle
  2
GouraudWithEdges
 70
     3
177
     2
291
     1
 71
     2
176
     1
 72
     2
176
     1
 73
     1
176
     1
 90
        2
176
     1
 40
0.6
176
     1
 41
30.0
176
     1
 63
     7
421
 16777215
176
     1
 74
     1
176
     1
 91
        0
176
     1
 64
     7
176
     1
 65
   257
176
     1
 75
     1
176
     1
175
     1
176
     1
 42
1.0
176
     1
 92
        0
176
     1
 66
   257
176
     1
 43
1.0
176
     1
 76
     1
176
     1
 77
     6
176
     1
 78
     2
176
     1
 67
     7
176
     1
 79
     5
176
     1
170
     0
176
     1
171
     0
176
     1
290
     0
176
     1
 93
       13
176
     1
 44
0.0
176
     1
173
     0
176
     1
1001
ACAD
1000
AcDbSavedByObjectVersion
1070
     0
  0
VISUALSTYLE
  5
31
102
{ACAD_XDICTIONARY
360
290
102
}
102
{ACAD_REACTORS
330
29
102
}
330
29
100
AcDbVisualStyle
  2
Hidden
 70
     6
177
     2
291
     0
 71
     1
176
     1
 72
     2
176
     1
 73
     2
176
     1
 90
        0
176
     1
 40
0.6
176
     1
 41
30.0
176
     1
 63
     7
421
 16777215
176
     1
 74
     2
176
     1
 91
        2
176
     1
 64
     7
176
     1
 65
   257
176
     1
 75
     2
176
     1
175
     1
176
     1
 42
40.0
176
     1
 92
        0
176
     1
 66
   257
176
     1
 43
1.0
176
     1
 76
     1
176
     1
 77
     6
176
     1
 78
     2
176
     1
 67
     7
176
     1
 79
     3
176
     1
170
     0
176
     1
171
     0
176
     1
290
     0
176
     1
 93
        1
176
     1
 44
0.0
176
     1
173
     0
176
     1
1001
ACAD
1000
AcDbSavedByObjectVersion
1070
     0
  0
VISUALSTYLE
  5
3F
102
{ACAD_XDICTIONARY
360
2AC
102
}
102
{ACAD_REACTORS
330
29
102
}
330
29
100
AcDbVisualStyle
  2
JitterOff
 70
    20
177
     2
291
     1
 71
     2
176
     0
 72
     2
176
     0
 73
     0
176
     0
 90
        0
176
     0
 40
0.6
176
     0
 41
30.0
176
     0
 63
     7
421
 16777215
176
     0
 74
     1
176
     0
 91
        4
176
     0
 64
     7
176
     0
 65
   257
176
     0
 75
     1
176
     0
175
     1
176
     0
 42
1.0
176
     0
 92
       10
176
     2
 66
     7
176
     0
 43
1.0
176
     0
 76
     1
176
     0
 77
     6
176
     0
 78
     2
176
     0
 67
     7
176
     0
 79
     5
176
     0
170
     0
176
     0
171
     0
176
     0
290
     0
176
     0
 93
        1
176
     0
 44
0.0
176
     0
173
     0
176
     0
1001
ACAD
1000
AcDbSavedByObjectVersion
1070
     0
  0
VISUALSTYLE
  5
37
102
{ACAD_XDICTIONARY
360
29C
102
}
102
{ACAD_REACTORS
330
29
102
}
330
29
100
AcDbVisualStyle
  2
Linepattern
 70
    14
177
     2
291
     1
 71
     2
176
     1
 72
     2
176
     1
 73
     0
176
     1
 90
        0
176
     1
 40
0.6
176
     1
 41
30.0
176
     1
 63
     7
421
 16777215
176
     1
 74
     1
176
     1
 91
        4
176
     1
 64
     7
176
     1
 65
   257
176
     1
 75
     7
176
     1
175
     7
176
     1
 42
1.0
176
     1
 92
        8
176
     1
 66
     7
176
     1
 43
1.0
176
     1
 76
     1
176
     1
 77
     6
176
     1
 78
     2
176
     1
 67
     7
176
     1
 79
     5
176
     1
170
     0
176
     1
171
     0
176
     1
290
     0
176
     1
 93
        1
176
     1
 44
0.0
176
     1
173
     0
176
     1
1001
ACAD
1000
AcDbSavedByObjectVersion
1070
     0
  0
VISUALSTYLE
  5
40
102
{ACAD_XDICTIONARY
360
2AE
102
}
102
{ACAD_REACTORS
330
29
102
}
330
29
100
AcDbVisualStyle
  2
OverhangOff
 70
    21
177
     2
291
     1
 71
     2
176
     0
 72
     2
176
     0
 73
     0
176
     0
 90
        0
176
     0
 40
0.6
176
     0
 41
30.0
176
     0
 63
     7
421
 16777215
176
     0
 74
     1
176
     0
 91
        4
176
     0
 64
     7
176
     0
 65
   257
176
     0
 75
     1
176
     0
175
     1
176
     0
 42
1.0
176
     0
 92
        9
176
     2
 66
     7
176
     0
 43
1.0
176
     0
 76
     1
176
     0
 77
     6
176
     0
 78
     2
176
     0
 67
     7
176
     0
 79
     5
176
     0
170
     0
176
     0
171
     0
176
     0
290
     0
176
     0
 93
        1
176
     0
 44
0.0
176
     0
173
     0
176
     0
1001
ACAD
1000
AcDbSavedByObjectVersion
1070
     0
  0
VISUALSTYLE
  5
33
102
{ACAD_XDICTIONARY
360
294
102
}
102
{ACAD_REACTORS
330
29
102
}
330
29
100
AcDbVisualStyle
  2
Realistic
 70
     8
177
     2
291
     0
 71
     2
176
     1
 72
     3
176
     1
 73
     0
176
     1
 90
        2
176
     1
 40
0.6
176
     1
 41
30.0
176
     1
 63
     7
421
 16777215
176
     1
 74
     0
176
     1
 91
        0
176
     1
 64
     7
176
     1
 65
   257
176
     1
 75
     1
176
     1
175
     1
176
     1
 42
1.0
176
     1
 92
        8
176
     1
 66
   257
176
     1
 43
1.0
176
     1
 76
     1
176
     1
 77
     6
176
     1
 78
     2
176
     1
 67
     7
176
     1
 79
     3
176
     1
170
     0
176
     1
171
     0
176
     1
290
     0
176
     1
 93
       13
176
     1
 44
0.0
176
     1
173
     0
176
     1
1001
ACAD
1000
AcDbSavedByObjectVersion
1070
     0
  0
VISUALSTYLE
  5
3E
102
{ACAD_XDICTIONARY
360
2AA
102
}
102
{ACAD_REACTORS
330
29
102
}
330
29
100
AcDbVisualStyle
  2
Shaded
 70
    27
177
     2
291
     0
 71
     2
176
     1
 72
     2
176
     1
 73
     1
176
     1
 90
        2
176
     1
 40
0.6
176
     1
 41
30.0
176
     1
 63
     7
421
 16777215
176
     1
 74
     0
176
     1
 91
        4
176
     1
 64
     7
176
     1
 65
   257
176
     1
 75
     1
176
     1
175
     1
176
     1
 42
1.0
176
     1
 92
        8
176
     1
 66
   257
176
     1
 43
1.0
176
     1
 76
     1
176
     1
 77
     6
176
     1
 78
     2
176
     1
 67
     8
425
  7895160
176
     1
 79
     3
176
     1
170
     0
176
     1
171
     0
176
     1
290
     0
176
     1
 93
        5
176
     1
 44
0.0
176
     1
173
     0
176
     1
1001
ACAD
1000
AcDbSavedByObjectVersion
1070
     0
  0
VISUALSTYLE
  5
3D
102
{ACAD_XDICTIONARY
360
2A8
102
}
102
{ACAD_REACTORS
330
29
102
}
330
29
100
AcDbVisualStyle
  2
Shaded with edges
 70
    26
177
     2
291
     0
 71
     2
176
     1
 72
     2
176
     1
 73
     1
176
     1
 90
        2
176
     1
 40
0.6
176
     1
 41
30.0
176
     1
 63
     7
421
 16777215
176
     1
 74
     1
176
     1
 91
        2
176
     1
 64
     7
176
     1
 65
   257
176
     1
 75
     2
176
     1
175
     1
176
     1
 42
1.0
176
     1
 92
        8
176
     1
 66
   257
176
     1
 43
1.0
176
     1
 76
     1
176
     1
 77
     6
176
     1
 78
     2
176
     1
 67
     7
176
     1
 79
     3
176
     1
170
     0
176
     1
171
     0
176
     1
290
     0
176
     1
 93
        5
176
     1
 44
0.0
176
     1
173
     0
176
     1
1001
ACAD
1000
AcDbSavedByObjectVersion
1070
     0
  0
VISUALSTYLE
  5
3A
102
{ACAD_XDICTIONARY
360
2A2
102
}
102
{ACAD_REACTORS
330
29
102
}
330
29
100
AcDbVisualStyle
  2
Shades of Gray
 70
    23
177
     2
291
     0
 71
     2
176
     1
 72
     2
176
     1
 73
     3
176
     1
 90
        0
176
     1
 40
0.6
176
     1
 41
30.0
176
     1
 63
     7
421
 16777215
176
     1
 74
     2
176
     1
 91
        2
176
     1
 64
     7
176
     1
 65
     7
176
     1
 75
     1
176
     1
175
     1
176
     1
 42
40.0
176
     1
 92
        8
176
     1
 66
     7
176
     1
 43
1.0
176
     1
 76
     1
176
     1
 77
     6
176
     1
 78
     2
176
     1
 67
     7
176
     1
 79
     3
176
     1
170
     0
176
     1
171
     0
176
     1
290
     0
176
     1
 93
        1
176
     1
 44
0.0
176
     1
173
     0
176
     1
1001
ACAD
1000
AcDbSavedByObjectVersion
1070
     0
  0
VISUALSTYLE
  5
3B
102
{ACAD_XDICTIONARY
360
2A4
102
}
102
{ACAD_REACTORS
330
29
102
}
330
29
100
AcDbVisualStyle
  2
Sketchy
 70
    24
177
     2
291
     0
 71
     1
176
     1
 72
     2
176
     1
 73
     2
176
     1
 90
        0
176
     1
 40
0.6
176
     1
 41
30.0
176
     1
 63
     7
421
 16777215
176
     1
 74
     2
176
     1
 91
        2
176
     1
 64
     7
176
     1
 65
     7
176
     1
 75
     1
176
     1
175
     1
176
     1
 42
40.0
176
     1
 92
       11
176
     1
 66
     7
176
     1
 43
1.0
176
     1
 76
     1
176
     1
 77
     6
176
     1
 78
     2
176
     1
 67
     7
176
     1
 79
     6
176
     1
170
     0
176
     1
171
     0
176
     1
290
     0
176
     1
 93
        1
176
     1
 44
0.0
176
     1
173
     0
176
     1
1001
ACAD
1000
AcDbSavedByObjectVersion
1070
     0
  0
VISUALSTYLE
  5
36
102
{ACAD_XDICTIONARY
360
29A
102
}
102
{ACAD_REACTORS
330
29
102
}
330
29
100
AcDbVisualStyle
  2
Thicken
 70
    13
177
     2
291
     1
 71
     2
176
     1
 72
     2
176
     1
 73
     0
176
     1
 90
        0
176
     1
 40
0.6
176
     1
 41
30.0
176
     1
 63
     7
421
 16777215
176
     1
 74
     1
176
     1
 91
        4
176
     1
 64
     7
176
     1
 65
   257
176
     1
 75
     1
176
     1
175
     1
176
     1
 42
1.0
176
     1
 92
       12
176
     1
 66
     7
176
     1
 43
1.0
176
     1
 76
     1
176
     1
 77
     6
176
     1
 78
     2
176
     1
 67
     7
176
     1
 79
     5
176
     1
170
     0
176
     1
171
     0
176
     1
290
     0
176
     1
 93
        1
176
     1
 44
0.0
176
     1
173
     0
176
     1
1001
ACAD
1000
AcDbSavedByObjectVersion
1070
     0
  0
VISUALSTYLE
  5
30
102
{ACAD_XDICTIONARY
360
28E
102
}
102
{ACAD_REACTORS
330
29
102
}
330
29
100
AcDbVisualStyle
  2
Wireframe
 70
     5
177
     2
291
     0
 71
     0
176
     1
 72
     2
176
     1
 73
     0
176
     1
 90
        0
176
     1
 40
0.6
176
     1
 41
30.0
176
     1
 63
     7
421
 16777215
176
     1
 74
     1
176
     1
 91
        4
176
     1
 64
     7
176
     1
 65
   257
176
     1
 75
     1
176
     1
175
     1
176
     1
 42
1.0
176
     1
 92
        0
176
     1
 66
   257
176
     1
 43
1.0
176
     1
 76
     1
176
     1
 77
     6
176
     1
 78
     2
176
     1
 67
     7
176
     1
 79
     3
176
     1
170
     0
176
     1
171
     0
176
     1
290
     0
176
     1
 93
        1
176
     1
 44
0.0
176
     1
173
     0
176
     1
1001
ACAD
1000
AcDbSavedByObjectVersion
1070
     0
  0
VISUALSTYLE
  5
3C
102
{ACAD_XDICTIONARY
360
2A6
102
}
102
{ACAD_REACTORS
330
29
102
}
330
29
100
AcDbVisualStyle
  2
X-Ray
 70
    25
177
     2
291
     0
 71
     2
176
     1
 72
     2
176
     1
 73
     1
176
     1
 90
        1
176
     1
 40
0.5
176
     1
 41
30.0
176
     1
 63
     7
421
 16777215
176
     1
 74
     1
176
     1
 91
        0
176
     1
 64
     7
176
     1
 65
   257
176
     1
 75
     1
176
     1
175
     1
176
     1
 42
1.0
176
     1
 92
        8
176
     1
 66
     7
176
     1
 43
1.0
176
     1
 76
     1
176
     1
 77
     6
176
     1
 78
     2
176
     1
 67
     7
176
     1
 79
     3
176
     1
170
     0
176
     1
171
     0
176
     1
290
     0
176
     1
 93
       13
176
     1
 44
0.0
176
     1
173
     0
176
     1
1001
ACAD
1000
AcDbSavedByObjectVersion
1070
     0
  0
DICTIONARYVAR
  5
1E3
102
{ACAD_REACTORS
330
1DE
102
}
330
1DE
100
DictionaryVariables
280
     0
  1
1:1
  0
DICTIONARYVAR
  5
1E0
102
{ACAD_REACTORS
330
1DE
102
}
330
1DE
100
DictionaryVariables
280
     0
  1
STANDARD
  0
DICTIONARYVAR
  5
1DF
102
{ACAD_REACTORS
330
1DE
102
}
330
1DE
100
DictionaryVariables
280
     0
  1
STANDARD
  0
DICTIONARYVAR
  5
1E1
102
{ACAD_REACTORS
330
1DE
102
}
330
1DE
100
DictionaryVariables
280
     0
  1
Imperial24
  0
DICTIONARYVAR
  5
1E2
102
{ACAD_REACTORS
330
1DE
102
}
330
1DE
100
DictionaryVariables
280
     0
  1
Imperial24
  0
DICTIONARY
  5
2B6
330
6B
100
AcDbDictionary
280
     1
281
     1
  3
ACAD_XREC_ROUNDTRIP
360
2B7
  0
DICTIONARY
  5
1A
330
19
100
AcDbDictionary
280
     1
281
     1
  3
BUMPTILE
360
1C
  3
DIFFUSETILE
360
1B
  3
OPACITYTILE
360
1F
  3
REFLECTIONTILE
360
1E
  3
REFRACTIONTILE
360
20
  3
SPECULARTILE
360
1D
  0
DICTIONARY
  5
12
330
11
100
AcDbDictionary
280
     1
281
     1
  3
BUMPTILE
360
14
  3
DIFFUSETILE
360
13
  3
OPACITYTILE
360
17
  3
REFLECTIONTILE
360
16
  3
REFRACTIONTILE
360
18
  3
SPECULARTILE
360
15
  0
DICTIONARY
  5
22
330
21
100
AcDbDictionary
280
     1
281
     1
  3
BUMPTILE
360
24
  3
DIFFUSETILE
360
23
  3
OPACITYTILE
360
27
  3
REFLECTIONTILE
360
26
  3
REFRACTIONTILE
360
28
  3
SPECULARTILE
360
25
  0
DICTIONARY
  5
2B2
330
67
100
AcDbDictionary
280
     1
281
     1
  3
ACAD_XREC_ROUNDTRIP
360
2B3
  0
DICTIONARY
  5
2B4
330
69
100
AcDbDictionary
280
     1
281
     1
  3
ACAD_XREC_ROUNDTRIP
360
2B5
  0
DICTIONARY
  5
1E4
330
65
100
AcDbDictionary
280
     1
281
     1
  3
ACAD_ROUNDTRIP_2008_TABLESTYLE_CELLSTYLEMAP
360
280
  0
DICTIONARY
  5
28C
330
2F
100
AcDbDictionary
280
     1
281
     1
  3
ACAD_XREC_ROUNDTRIP
360
28D
  0
DICTIONARY
  5
28A
330
2E
100
AcDbDictionary
280
     1
281
     1
  3
ACAD_XREC_ROUNDTRIP
360
28B
  0
DICTIONARY
  5
298
330
35
100
AcDbDictionary
280
     1
281
     1
  3
ACAD_XREC_ROUNDTRIP
360
299
  0
DICTIONARY
  5
2A0
330
39
100
AcDbDictionary
280
     1
281
     1
  3
ACAD_XREC_ROUNDTRIP
360
2A1
  0
DICTIONARY
  5
292
330
32
100
AcDbDictionary
280
     1
281
     1
  3
ACAD_XREC_ROUNDTRIP
360
293
  0
DICTIONARY
  5
296
330
34
100
AcDbDictionary
280
     1
281
     1
  3
ACAD_XREC_ROUNDTRIP
360
297
  0
DICTIONARY
  5
2B0
330
41
100
AcDbDictionary
280
     1
281
     1
  3
ACAD_XREC_ROUNDTRIP
360
2B1
  0
DICTIONARY
  5
29E
330
38
100
AcDbDictionary
280
     1
281
     1
  3
ACAD_XREC_ROUNDTRIP
360
29F
  0
DICTIONARY
  5
282
330
2A
100
AcDbDictionary
280
     1
281
     1
  3
ACAD_XREC_ROUNDTRIP
360
283
  0
DICTIONARY
  5
284
330
2B
100
AcDbDictionary
280
     1
281
     1
  3
ACAD_XREC_ROUNDTRIP
360
285
  0
DICTIONARY
  5
286
330
2C
100
AcDbDictionary
280
     1
281
     1
  3
ACAD_XREC_ROUNDTRIP
360
287
  0
DICTIONARY
  5
288
330
2D
100
AcDbDictionary
280
     1
281
     1
  3
ACAD_XREC_ROUNDTRIP
360
289
  0
DICTIONARY
  5
290
330
31
100
AcDbDictionary
280
     1
281
     1
  3
ACAD_XREC_ROUNDTRIP
360
291
  0
DICTIONARY
  5
2AC
330
3F
100
AcDbDictionary
280
     1
281
     1
  3
ACAD_XREC_ROUNDTRIP
360
2AD
  0
DICTIONARY
  5
29C
330
37
100
AcDbDictionary
280
     1
281
     1
  3
ACAD_XREC_ROUNDTRIP
360
29D
  0
DICTIONARY
  5
2AE
330
40
100
AcDbDictionary
280
     1
281
     1
  3
ACAD_XREC_ROUNDTRIP
360
2AF
  0
DICTIONARY
  5
294
330
33
100
AcDbDictionary
280
     1
281
     1
  3
ACAD_XREC_ROUNDTRIP
360
295
  0
DICTIONARY
  5
2AA
330
3E
100
AcDbDictionary
280
     1
281
     1
  3
ACAD_XREC_ROUNDTRIP
360
2AB
  0
DICTIONARY
  5
2A8
330
3D
100
AcDbDictionary
280
     1
281
     1
  3
ACAD_XREC_ROUNDTRIP
360
2A9
  0
DICTIONARY
  5
2A2
330
3A
100
AcDbDictionary
280
     1
281
     1
  3
ACAD_XREC_ROUNDTRIP
360
2A3
  0
DICTIONARY
  5
2A4
330
3B
100
AcDbDictionary
280
     1
281
     1
  3
ACAD_XREC_ROUNDTRIP
360
2A5
  0
DICTIONARY
  5
29A
330
36
100
AcDbDictionary
280
     1
281
     1
  3
ACAD_XREC_ROUNDTRIP
360
29B
  0
DICTIONARY
  5
28E
330
30
100
AcDbDictionary
280
     1
281
     1
  3
ACAD_XREC_ROUNDTRIP
360
28F
  0
DICTIONARY
  5
2A6
330
3C
100
AcDbDictionary
280
     1
281
     1
  3
ACAD_XREC_ROUNDTRIP
360
2A7
  0
XRECORD
  5
2B7
102
{ACAD_REACTORS
330
2B6
102
}
330
2B6
100
AcDbXrecord
280
     1
102
DISPLAYNAME
  1
Imperial24
102
FLAGS
 90
        0
  0
XRECORD
  5
1C
102
{ACAD_REACTORS
330
1A
102
}
330
1A
100
AcDbXrecord
280
     1
270
     1
271
     1
  0
XRECORD
  5
1B
102
{ACAD_REACTORS
330
1A
102
}
330
1A
100
AcDbXrecord
280
     1
270
     1
271
     1
  0
XRECORD
  5
1F
102
{ACAD_REACTORS
330
1A
102
}
330
1A
100
AcDbXrecord
280
     1
270
     1
271
     1
  0
XRECORD
  5
1E
102
{ACAD_REACTORS
330
1A
102
}
330
1A
100
AcDbXrecord
280
     1
270
     1
271
     1
  0
XRECORD
  5
20
102
{ACAD_REACTORS
330
1A
102
}
330
1A
100
AcDbXrecord
280
     1
270
     1
271
     1
  0
XRECORD
  5
1D
102
{ACAD_REACTORS
330
1A
102
}
330
1A
100
AcDbXrecord
280
     1
270
     1
271
     1
  0
XRECORD
  5
14
102
{ACAD_REACTORS
330
12
102
}
330
12
100
AcDbXrecord
280
     1
270
     1
271
     1
  0
XRECORD
  5
13
102
{ACAD_REACTORS
330
12
102
}
330
12
100
AcDbXrecord
280
     1
270
     1
271
     1
  0
XRECORD
  5
17
102
{ACAD_REACTORS
330
12
102
}
330
12
100
AcDbXrecord
280
     1
270
     1
271
     1
  0
XRECORD
  5
16
102
{ACAD_REACTORS
330
12
102
}
330
12
100
AcDbXrecord
280
     1
270
     1
271
     1
  0
XRECORD
  5
18
102
{ACAD_REACTORS
330
12
102
}
330
12
100
AcDbXrecord
280
     1
270
     1
271
     1
  0
XRECORD
  5
15
102
{ACAD_REACTORS
330
12
102
}
330
12
100
AcDbXrecord
280
     1
270
     1
271
     1
  0
XRECORD
  5
24
102
{ACAD_REACTORS
330
22
102
}
330
22
100
AcDbXrecord
280
     1
270
     1
271
     1
  0
XRECORD
  5
23
102
{ACAD_REACTORS
330
22
102
}
330
22
100
AcDbXrecord
280
     1
270
     1
271
     1
  0
XRECORD
  5
27
102
{ACAD_REACTORS
330
22
102
}
330
22
100
AcDbXrecord
280
     1
270
     1
271
     1
  0
XRECORD
  5
26
102
{ACAD_REACTORS
330
22
102
}
330
22
100
AcDbXrecord
280
     1
270
     1
271
     1
  0
XRECORD
  5
28
102
{ACAD_REACTORS
330
22
102
}
330
22
100
AcDbXrecord
280
     1
270
     1
271
     1
  0
XRECORD
  5
25
102
{ACAD_REACTORS
330
22
102
}
330
22
100
AcDbXrecord
280
     1
270
     1
271
     1
  0
XRECORD
  5
2B3
102
{ACAD_REACTORS
330
2B2
102
}
330
2B2
100
AcDbXrecord
280
     1
102
ACAD_ROUNDTRIP_2012_MLEADER_STYLE
298
     1
  0
XRECORD
  5
2B5
102
{ACAD_REACTORS
330
2B4
102
}
330
2B4
100
AcDbXrecord
280
     1
102
DISPLAYNAME
  1
Imperial24
102
FLAGS
 90
        0
  0
CELLSTYLEMAP
  5
280
102
{ACAD_REACTORS
330
1E4
102
}
330
1E4
100
AcDbCellStyleMap
 90
        3
300
CELLSTYLE
  1
TABLEFORMAT_BEGIN
 90
        5
170
     1
 91
        0
 92
    32768
 62
   257
 93
        1
300
CONTENTFORMAT
  1
CONTENTFORMAT_BEGIN
 90
        0
 91
        0
 92
      512
 93
        0
300

 40
0.0
140
1.0
 94
        5
 62
     0
340
55
144
0.25
309
CONTENTFORMAT_END
171
     1
301
MARGIN
  1
CELLMARGIN_BEGIN
 40
0.06
 40
0.06
 40
0.06
 40
0.06
 40
0.18
 40
0.18
309
CELLMARGIN_END
 94
        6
 95
        1
302
GRIDFORMAT
  1
GRIDFORMAT_BEGIN
 90
        0
 91
        1
 62
     0
 92
       -2
340
0
 93
        0
 40
0.045
309
GRIDFORMAT_END
 95
        2
302
GRIDFORMAT
  1
GRIDFORMAT_BEGIN
 90
        0
 91
        1
 62
     0
 92
       -2
340
0
 93
        0
 40
0.045
309
GRIDFORMAT_END
 95
        4
302
GRIDFORMAT
  1
GRIDFORMAT_BEGIN
 90
        0
 91
        1
 62
     0
 92
       -2
340
0
 93
        0
 40
0.045
309
GRIDFORMAT_END
 95
        8
302
GRIDFORMAT
  1
GRIDFORMAT_BEGIN
 90
        0
 91
        1
 62
     0
 92
       -2
340
0
 93
        0
 40
0.045
309
GRIDFORMAT_END
 95
       16
302
GRIDFORMAT
  1
GRIDFORMAT_BEGIN
 90
        0
 91
        1
 62
     0
 92
       -2
340
0
 93
        0
 40
0.045
309
GRIDFORMAT_END
 95
       32
302
GRIDFORMAT
  1
GRIDFORMAT_BEGIN
 90
        0
 91
        1
 62
     0
 92
       -2
340
0
 93
        0
 40
0.045
309
GRIDFORMAT_END
309
TABLEFORMAT_END
  1
CELLSTYLE_BEGIN
 90
        1
 91
        1
300
_TITLE
309
CELLSTYLE_END
300
CELLSTYLE
  1
TABLEFORMAT_BEGIN
 90
        5
170
     1
 91
        0
 92
        0
 62
   257
 93
        1
300
CONTENTFORMAT
  1
CONTENTFORMAT_BEGIN
 90
        0
 91
        0
 92
      512
 93
        0
300

 40
0.0
140
1.0
 94
        5
 62
     0
340
55
144
0.18
309
CONTENTFORMAT_END
171
     1
301
MARGIN
  1
CELLMARGIN_BEGIN
 40
0.06
 40
0.06
 40
0.06
 40
0.06
 40
0.18
 40
0.18
309
CELLMARGIN_END
 94
        6
 95
        1
302
GRIDFORMAT
  1
GRIDFORMAT_BEGIN
 90
        0
 91
        1
 62
     0
 92
       -2
340
0
 93
        0
 40
0.045
309
GRIDFORMAT_END
 95
        2
302
GRIDFORMAT
  1
GRIDFORMAT_BEGIN
 90
        0
 91
        1
 62
     0
 92
       -2
340
0
 93
        0
 40
0.045
309
GRIDFORMAT_END
 95
        4
302
GRIDFORMAT
  1
GRIDFORMAT_BEGIN
 90
        0
 91
        1
 62
     0
 92
       -2
340
0
 93
        0
 40
0.045
309
GRIDFORMAT_END
 95
        8
302
GRIDFORMAT
  1
GRIDFORMAT_BEGIN
 90
        0
 91
        1
 62
     0
 92
       -2
340
0
 93
        0
 40
0.045
309
GRIDFORMAT_END
 95
       16
302
GRIDFORMAT
  1
GRIDFORMAT_BEGIN
 90
        0
 91
        1
 62
     0
 92
       -2
340
0
 93
        0
 40
0.045
309
GRIDFORMAT_END
 95
       32
302
GRIDFORMAT
  1
GRIDFORMAT_BEGIN
 90
        0
 91
        1
 62
     0
 92
       -2
340
0
 93
        0
 40
0.045
309
GRIDFORMAT_END
309
TABLEFORMAT_END
  1
CELLSTYLE_BEGIN
 90
        2
 91
        1
300
_HEADER
309
CELLSTYLE_END
300
CELLSTYLE
  1
TABLEFORMAT_BEGIN
 90
        5
170
     1
 91
        0
 92
        0
 62
   257
 93
        1
300
CONTENTFORMAT
  1
CONTENTFORMAT_BEGIN
 90
        0
 91
        0
 92
      512
 93
        0
300

 40
0.0
140
1.0
 94
        2
 62
     0
340
55
144
0.18
309
CONTENTFORMAT_END
171
     1
301
MARGIN
  1
CELLMARGIN_BEGIN
 40
0.06
 40
0.06
 40
0.06
 40
0.06
 40
0.18
 40
0.18
309
CELLMARGIN_END
 94
        6
 95
        1
302
GRIDFORMAT
  1
GRIDFORMAT_BEGIN
 90
        0
 91
        1
 62
     0
 92
       -2
340
0
 93
        0
 40
0.045
309
GRIDFORMAT_END
 95
        2
302
GRIDFORMAT
  1
GRIDFORMAT_BEGIN
 90
        0
 91
        1
 62
     0
 92
       -2
340
0
 93
        0
 40
0.045
309
GRIDFORMAT_END
 95
        4
302
GRIDFORMAT
  1
GRIDFORMAT_BEGIN
 90
        0
 91
        1
 62
     0
 92
       -2
340
0
 93
        0
 40
0.045
309
GRIDFORMAT_END
 95
        8
302
GRIDFORMAT
  1
GRIDFORMAT_BEGIN
 90
        0
 91
        1
 62
     0
 92
       -2
340
0
 93
        0
 40
0.045
309
GRIDFORMAT_END
 95
       16
302
GRIDFORMAT
  1
GRIDFORMAT_BEGIN
 90
        0
 91
        1
 62
     0
 92
       -2
340
0
 93
        0
 40
0.045
309
GRIDFORMAT_END
 95
       32
302
GRIDFORMAT
  1
GRIDFORMAT_BEGIN
 90
        0
 91
        1
 62
     0
 92
       -2
340
0
 93
        0
 40
0.045
309
GRIDFORMAT_END
309
TABLEFORMAT_END
  1
CELLSTYLE_BEGIN
 90
        3
 91
        2
300
_DATA
309
CELLSTYLE_END
  0
XRECORD
  5
28D
102
{ACAD_REACTORS
330
28C
102
}
330
28C
100
AcDbXrecord
280
     1
102
RTVSPost2010Prop28
280
     1
102
RTVSPost2010PropOp28
 70
     1
102
RTVSPost2010Prop29
280
     1
102
RTVSPost2010PropOp29
 70
     1
102
RTVSPost2010Prop30
280
     0
102
RTVSPost2010PropOp30
 70
     1
102
RTVSPost2010Prop31
280
     0
102
RTVSPost2010PropOp31
 70
     1
102
RTVSPost2010Prop32
280
     0
102
RTVSPost2010PropOp32
 70
     1
102
RTVSPost2010Prop33
280
     0
102
RTVSPost2010PropOp33
 70
     1
102
RTVSPost2010Prop34
280
     0
102
RTVSPost2010PropOp34
 70
     1
102
RTVSPost2010Prop35
280
     0
102
RTVSPost2010PropOp35
 70
     1
102
RTVSPost2010Prop36
280
     0
102
RTVSPost2010PropOp36
 70
     1
102
RTVSPost2010Prop37
 90
       50
102
RTVSPost2010PropOp37
 70
     1
102
RTVSPost2010Prop38
140
0.0
102
RTVSPost2010PropOp38
 70
     1
102
RTVSPost2010Prop39
140
1.0
102
RTVSPost2010PropOp39
 70
     1
102
RTVSPost2010Prop40
 90
        0
102
RTVSPost2010PropOp40
 70
     1
102
RTVSPost2010Prop41ColorIndex
 90
       18
102
RTVSPost2010Prop41ColorRGB
 90
-16777216
102
RTVSPost2010PropOp41
 70
     1
102
RTVSPost2010Prop42
 90
       50
102
RTVSPost2010PropOp42
 70
     1
102
RTVSPost2010Prop43
 90
        3
102
RTVSPost2010PropOp43
 70
     1
102
RTVSPost2010Prop44ColorIndex
 90
        5
102
RTVSPost2010Prop44ColorRGB
 90
      255
102
RTVSPost2010PropOp44
 70
     1
102
RTVSPost2010Prop45
280
     0
102
RTVSPost2010PropOp45
 70
     1
102
RTVSPost2010Prop46
 90
       50
102
RTVSPost2010PropOp46
 70
     1
102
RTVSPost2010Prop47
 90
       50
102
RTVSPost2010PropOp47
 70
     1
102
RTVSPost2010Prop48
 90
       50
102
RTVSPost2010PropOp48
 70
     1
102
RTVSPost2010Prop49
280
     0
102
RTVSPost2010PropOp49
 70
     1
102
RTVSPost2010Prop50
 90
       50
102
RTVSPost2010PropOp50
 70
     1
102
RTVSPost2010Prop51ColorIndex
 90
      256
102
RTVSPost2010Prop51ColorRGB
 90
-16777216
102
RTVSPost2010PropOp51
 70
     0
102
RTVSPost2010Prop52
140
1.0
102
RTVSPost2010PropOp52
 70
     0
102
RTVSPost2010Prop53
 90
        2
102
RTVSPost2010PropOp53
 70
     1
102
RTVSPost2010Prop54
  1
strokes_ogs.tif
102
RTVSPost2010PropOp54
 70
     1
102
RTVSPost2010Prop55
280
     0
102
RTVSPost2010PropOp55
 70
     1
102
RTVSPost2010Prop56
140
1.0
102
RTVSPost2010PropOp56
 70
     1
102
RTVSPost2010Prop57
140
1.0
102
RTVSPost2010PropOp57
 70
     1
  0
XRECORD
  5
28B
102
{ACAD_REACTORS
330
28A
102
}
330
28A
100
AcDbXrecord
280
     1
102
RTVSPost2010Prop28
280
     0
102
RTVSPost2010PropOp28
 70
     1
102
RTVSPost2010Prop29
280
     1
102
RTVSPost2010PropOp29
 70
     1
102
RTVSPost2010Prop30
280
     1
102
RTVSPost2010PropOp30
 70
     1
102
RTVSPost2010Prop31
280
     0
102
RTVSPost2010PropOp31
 70
     1
102
RTVSPost2010Prop32
280
     0
102
RTVSPost2010PropOp32
 70
     1
102
RTVSPost2010Prop33
280
     0
102
RTVSPost2010PropOp33
 70
     1
102
RTVSPost2010Prop34
280
     0
102
RTVSPost2010PropOp34
 70
     1
102
RTVSPost2010Prop35
280
     0
102
RTVSPost2010PropOp35
 70
     1
102
RTVSPost2010Prop36
280
     0
102
RTVSPost2010PropOp36
 70
     1
102
RTVSPost2010Prop37
 90
       50
102
RTVSPost2010PropOp37
 70
     1
102
RTVSPost2010Prop38
140
0.0
102
RTVSPost2010PropOp38
 70
     1
102
RTVSPost2010Prop39
140
1.0
102
RTVSPost2010PropOp39
 70
     1
102
RTVSPost2010Prop40
 90
        0
102
RTVSPost2010PropOp40
 70
     1
102
RTVSPost2010Prop41ColorIndex
 90
       18
102
RTVSPost2010Prop41ColorRGB
 90
-16777216
102
RTVSPost2010PropOp41
 70
     1
102
RTVSPost2010Prop42
 90
       50
102
RTVSPost2010PropOp42
 70
     1
102
RTVSPost2010Prop43
 90
        3
102
RTVSPost2010PropOp43
 70
     1
102
RTVSPost2010Prop44ColorIndex
 90
        5
102
RTVSPost2010Prop44ColorRGB
 90
      255
102
RTVSPost2010PropOp44
 70
     1
102
RTVSPost2010Prop45
280
     0
102
RTVSPost2010PropOp45
 70
     1
102
RTVSPost2010Prop46
 90
       50
102
RTVSPost2010PropOp46
 70
     1
102
RTVSPost2010Prop47
 90
       50
102
RTVSPost2010PropOp47
 70
     1
102
RTVSPost2010Prop48
 90
       50
102
RTVSPost2010PropOp48
 70
     1
102
RTVSPost2010Prop49
280
     0
102
RTVSPost2010PropOp49
 70
     1
102
RTVSPost2010Prop50
 90
       50
102
RTVSPost2010PropOp50
 70
     1
102
RTVSPost2010Prop51ColorIndex
 90
      256
102
RTVSPost2010Prop51ColorRGB
 90
-16777216
102
RTVSPost2010PropOp51
 70
     0
102
RTVSPost2010Prop52
140
1.0
102
RTVSPost2010PropOp52
 70
     0
102
RTVSPost2010Prop53
 90
        2
102
RTVSPost2010PropOp53
 70
     1
102
RTVSPost2010Prop54
  1
strokes_ogs.tif
102
RTVSPost2010PropOp54
 70
     1
102
RTVSPost2010Prop55
280
     0
102
RTVSPost2010PropOp55
 70
     1
102
RTVSPost2010Prop56
140
1.0
102
RTVSPost2010PropOp56
 70
     1
102
RTVSPost2010Prop57
140
1.0
102
RTVSPost2010PropOp57
 70
     1
  0
XRECORD
  5
299
102
{ACAD_REACTORS
330
298
102
}
330
298
100
AcDbXrecord
280
     1
102
RTVSPost2010Prop28
280
     0
102
RTVSPost2010PropOp28
 70
     1
102
RTVSPost2010Prop29
280
     1
102
RTVSPost2010PropOp29
 70
     1
102
RTVSPost2010Prop30
280
     1
102
RTVSPost2010PropOp30
 70
     1
102
RTVSPost2010Prop31
280
     0
102
RTVSPost2010PropOp31
 70
     1
102
RTVSPost2010Prop32
280
     0
102
RTVSPost2010PropOp32
 70
     1
102
RTVSPost2010Prop33
280
     0
102
RTVSPost2010PropOp33
 70
     1
102
RTVSPost2010Prop34
280
     0
102
RTVSPost2010PropOp34
 70
     1
102
RTVSPost2010Prop35
280
     0
102
RTVSPost2010PropOp35
 70
     1
102
RTVSPost2010Prop36
280
     0
102
RTVSPost2010PropOp36
 70
     1
102
RTVSPost2010Prop37
 90
       50
102
RTVSPost2010PropOp37
 70
     1
102
RTVSPost2010Prop38
140
0.0
102
RTVSPost2010PropOp38
 70
     1
102
RTVSPost2010Prop39
140
1.0
102
RTVSPost2010PropOp39
 70
     1
102
RTVSPost2010Prop40
 90
        0
102
RTVSPost2010PropOp40
 70
     1
102
RTVSPost2010Prop41ColorIndex
 90
       18
102
RTVSPost2010Prop41ColorRGB
 90
-16777216
102
RTVSPost2010PropOp41
 70
     1
102
RTVSPost2010Prop42
 90
       50
102
RTVSPost2010PropOp42
 70
     1
102
RTVSPost2010Prop43
 90
        3
102
RTVSPost2010PropOp43
 70
     1
102
RTVSPost2010Prop44ColorIndex
 90
        5
102
RTVSPost2010Prop44ColorRGB
 90
      255
102
RTVSPost2010PropOp44
 70
     1
102
RTVSPost2010Prop45
280
     0
102
RTVSPost2010PropOp45
 70
     1
102
RTVSPost2010Prop46
 90
       50
102
RTVSPost2010PropOp46
 70
     1
102
RTVSPost2010Prop47
 90
       50
102
RTVSPost2010PropOp47
 70
     1
102
RTVSPost2010Prop48
 90
       50
102
RTVSPost2010PropOp48
 70
     1
102
RTVSPost2010Prop49
280
     0
102
RTVSPost2010PropOp49
 70
     1
102
RTVSPost2010Prop50
 90
       50
102
RTVSPost2010PropOp50
 70
     1
102
RTVSPost2010Prop51ColorIndex
 90
      256
102
RTVSPost2010Prop51ColorRGB
 90
-16777216
102
RTVSPost2010PropOp51
 70
     0
102
RTVSPost2010Prop52
140
1.0
102
RTVSPost2010PropOp52
 70
     0
102
RTVSPost2010Prop53
 90
        2
102
RTVSPost2010PropOp53
 70
     1
102
RTVSPost2010Prop54
  1
strokes_ogs.tif
102
RTVSPost2010PropOp54
 70
     1
102
RTVSPost2010Prop55
280
     0
102
RTVSPost2010PropOp55
 70
     1
102
RTVSPost2010Prop56
140
1.0
102
RTVSPost2010PropOp56
 70
     1
102
RTVSPost2010Prop57
140
1.0
102
RTVSPost2010PropOp57
 70
     1
  0
XRECORD
  5
2A1
102
{ACAD_REACTORS
330
2A0
102
}
330
2A0
100
AcDbXrecord
280
     1
102
RTVSPost2010Prop28
280
     0
102
RTVSPost2010PropOp28
 70
     1
102
RTVSPost2010Prop29
280
     1
102
RTVSPost2010PropOp29
 70
     1
102
RTVSPost2010Prop30
280
     1
102
RTVSPost2010PropOp30
 70
     1
102
RTVSPost2010Prop31
280
     0
102
RTVSPost2010PropOp31
 70
     1
102
RTVSPost2010Prop32
280
     0
102
RTVSPost2010PropOp32
 70
     1
102
RTVSPost2010Prop33
280
     0
102
RTVSPost2010PropOp33
 70
     1
102
RTVSPost2010Prop34
280
     0
102
RTVSPost2010PropOp34
 70
     1
102
RTVSPost2010Prop35
280
     0
102
RTVSPost2010PropOp35
 70
     1
102
RTVSPost2010Prop36
280
     0
102
RTVSPost2010PropOp36
 70
     1
102
RTVSPost2010Prop37
 90
       50
102
RTVSPost2010PropOp37
 70
     1
102
RTVSPost2010Prop38
140
0.0
102
RTVSPost2010PropOp38
 70
     1
102
RTVSPost2010Prop39
140
1.0
102
RTVSPost2010PropOp39
 70
     1
102
RTVSPost2010Prop40
 90
        0
102
RTVSPost2010PropOp40
 70
     1
102
RTVSPost2010Prop41ColorIndex
 90
       18
102
RTVSPost2010Prop41ColorRGB
 90
-16777216
102
RTVSPost2010PropOp41
 70
     1
102
RTVSPost2010Prop42
 90
       50
102
RTVSPost2010PropOp42
 70
     1
102
RTVSPost2010Prop43
 90
        3
102
RTVSPost2010PropOp43
 70
     1
102
RTVSPost2010Prop44ColorIndex
 90
        5
102
RTVSPost2010Prop44ColorRGB
 90
      255
102
RTVSPost2010PropOp44
 70
     1
102
RTVSPost2010Prop45
280
     0
102
RTVSPost2010PropOp45
 70
     1
102
RTVSPost2010Prop46
 90
       50
102
RTVSPost2010PropOp46
 70
     1
102
RTVSPost2010Prop47
 90
       50
102
RTVSPost2010PropOp47
 70
     1
102
RTVSPost2010Prop48
 90
       50
102
RTVSPost2010PropOp48
 70
     1
102
RTVSPost2010Prop49
280
     0
102
RTVSPost2010PropOp49
 70
     1
102
RTVSPost2010Prop50
 90
       50
102
RTVSPost2010PropOp50
 70
     1
102
RTVSPost2010Prop51ColorIndex
 90
      256
102
RTVSPost2010Prop51ColorRGB
 90
-16777216
102
RTVSPost2010PropOp51
 70
     0
102
RTVSPost2010Prop52
140
1.0
102
RTVSPost2010PropOp52
 70
     0
102
RTVSPost2010Prop53
 90
        2
102
RTVSPost2010PropOp53
 70
     1
102
RTVSPost2010Prop54
  1
strokes_ogs.tif
102
RTVSPost2010PropOp54
 70
     1
102
RTVSPost2010Prop55
280
     0
102
RTVSPost2010PropOp55
 70
     1
102
RTVSPost2010Prop56
140
1.0
102
RTVSPost2010PropOp56
 70
     1
102
RTVSPost2010Prop57
140
1.0
102
RTVSPost2010PropOp57
 70
     1
  0
XRECORD
  5
293
102
{ACAD_REACTORS
330
292
102
}
330
292
100
AcDbXrecord
280
     1
102
RTVSPost2010Prop28
280
     0
102
RTVSPost2010PropOp28
 70
     1
102
RTVSPost2010Prop29
280
     1
102
RTVSPost2010PropOp29
 70
     1
102
RTVSPost2010Prop30
280
     1
102
RTVSPost2010PropOp30
 70
     1
102
RTVSPost2010Prop31
280
     0
102
RTVSPost2010PropOp31
 70
     1
102
RTVSPost2010Prop32
280
     0
102
RTVSPost2010PropOp32
 70
     1
102
RTVSPost2010Prop33
280
     0
102
RTVSPost2010PropOp33
 70
     1
102
RTVSPost2010Prop34
280
     0
102
RTVSPost2010PropOp34
 70
     1
102
RTVSPost2010Prop35
280
     0
102
RTVSPost2010PropOp35
 70
     1
102
RTVSPost2010Prop36
280
     0
102
RTVSPost2010PropOp36
 70
     1
102
RTVSPost2010Prop37
 90
       50
102
RTVSPost2010PropOp37
 70
     1
102
RTVSPost2010Prop38
140
0.0
102
RTVSPost2010PropOp38
 70
     1
102
RTVSPost2010Prop39
140
1.0
102
RTVSPost2010PropOp39
 70
     1
102
RTVSPost2010Prop40
 90
        0
102
RTVSPost2010PropOp40
 70
     1
102
RTVSPost2010Prop41ColorIndex
 90
       18
102
RTVSPost2010Prop41ColorRGB
 90
-16777216
102
RTVSPost2010PropOp41
 70
     1
102
RTVSPost2010Prop42
 90
       50
102
RTVSPost2010PropOp42
 70
     1
102
RTVSPost2010Prop43
 90
        3
102
RTVSPost2010PropOp43
 70
     1
102
RTVSPost2010Prop44ColorIndex
 90
        5
102
RTVSPost2010Prop44ColorRGB
 90
      255
102
RTVSPost2010PropOp44
 70
     1
102
RTVSPost2010Prop45
280
     0
102
RTVSPost2010PropOp45
 70
     1
102
RTVSPost2010Prop46
 90
       50
102
RTVSPost2010PropOp46
 70
     1
102
RTVSPost2010Prop47
 90
       50
102
RTVSPost2010PropOp47
 70
     1
102
RTVSPost2010Prop48
 90
       50
102
RTVSPost2010PropOp48
 70
     1
102
RTVSPost2010Prop49
280
     0
102
RTVSPost2010PropOp49
 70
     1
102
RTVSPost2010Prop50
 90
       50
102
RTVSPost2010PropOp50
 70
     1
102
RTVSPost2010Prop51ColorIndex
 90
      256
102
RTVSPost2010Prop51ColorRGB
 90
-16777216
102
RTVSPost2010PropOp51
 70
     0
102
RTVSPost2010Prop52
140
1.0
102
RTVSPost2010PropOp52
 70
     0
102
RTVSPost2010Prop53
 90
        2
102
RTVSPost2010PropOp53
 70
     1
102
RTVSPost2010Prop54
  1
strokes_ogs.tif
102
RTVSPost2010PropOp54
 70
     1
102
RTVSPost2010Prop55
280
     0
102
RTVSPost2010PropOp55
 70
     1
102
RTVSPost2010Prop56
140
1.0
102
RTVSPost2010PropOp56
 70
     1
102
RTVSPost2010Prop57
140
1.0
102
RTVSPost2010PropOp57
 70
     1
  0
XRECORD
  5
297
102
{ACAD_REACTORS
330
296
102
}
330
296
100
AcDbXrecord
280
     1
102
RTVSPost2010Prop28
280
     0
102
RTVSPost2010PropOp28
 70
     1
102
RTVSPost2010Prop29
280
     1
102
RTVSPost2010PropOp29
 70
     1
102
RTVSPost2010Prop30
280
     1
102
RTVSPost2010PropOp30
 70
     1
102
RTVSPost2010Prop31
280
     0
102
RTVSPost2010PropOp31
 70
     1
102
RTVSPost2010Prop32
280
     0
102
RTVSPost2010PropOp32
 70
     1
102
RTVSPost2010Prop33
280
     0
102
RTVSPost2010PropOp33
 70
     1
102
RTVSPost2010Prop34
280
     0
102
RTVSPost2010PropOp34
 70
     1
102
RTVSPost2010Prop35
280
     0
102
RTVSPost2010PropOp35
 70
     1
102
RTVSPost2010Prop36
280
     0
102
RTVSPost2010PropOp36
 70
     1
102
RTVSPost2010Prop37
 90
       50
102
RTVSPost2010PropOp37
 70
     1
102
RTVSPost2010Prop38
140
0.0
102
RTVSPost2010PropOp38
 70
     1
102
RTVSPost2010Prop39
140
1.0
102
RTVSPost2010PropOp39
 70
     1
102
RTVSPost2010Prop40
 90
        0
102
RTVSPost2010PropOp40
 70
     1
102
RTVSPost2010Prop41ColorIndex
 90
       18
102
RTVSPost2010Prop41ColorRGB
 90
-16777216
102
RTVSPost2010PropOp41
 70
     1
102
RTVSPost2010Prop42
 90
       50
102
RTVSPost2010PropOp42
 70
     1
102
RTVSPost2010Prop43
 90
        3
102
RTVSPost2010PropOp43
 70
     1
102
RTVSPost2010Prop44ColorIndex
 90
        5
102
RTVSPost2010Prop44ColorRGB
 90
      255
102
RTVSPost2010PropOp44
 70
     1
102
RTVSPost2010Prop45
280
     0
102
RTVSPost2010PropOp45
 70
     1
102
RTVSPost2010Prop46
 90
       50
102
RTVSPost2010PropOp46
 70
     1
102
RTVSPost2010Prop47
 90
       50
102
RTVSPost2010PropOp47
 70
     1
102
RTVSPost2010Prop48
 90
       50
102
RTVSPost2010PropOp48
 70
     1
102
RTVSPost2010Prop49
280
     0
102
RTVSPost2010PropOp49
 70
     1
102
RTVSPost2010Prop50
 90
       50
102
RTVSPost2010PropOp50
 70
     1
102
RTVSPost2010Prop51ColorIndex
 90
      256
102
RTVSPost2010Prop51ColorRGB
 90
-16777216
102
RTVSPost2010PropOp51
 70
     0
102
RTVSPost2010Prop52
140
1.0
102
RTVSPost2010PropOp52
 70
     0
102
RTVSPost2010Prop53
 90
        2
102
RTVSPost2010PropOp53
 70
     1
102
RTVSPost2010Prop54
  1
strokes_ogs.tif
102
RTVSPost2010PropOp54
 70
     1
102
RTVSPost2010Prop55
280
     0
102
RTVSPost2010PropOp55
 70
     1
102
RTVSPost2010Prop56
140
1.0
102
RTVSPost2010PropOp56
 70
     1
102
RTVSPost2010Prop57
140
1.0
102
RTVSPost2010PropOp57
 70
     1
  0
XRECORD
  5
2B1
102
{ACAD_REACTORS
330
2B0
102
}
330
2B0
100
AcDbXrecord
280
     1
102
RTVSPost2010Prop28
280
     0
102
RTVSPost2010PropOp28
 70
     0
102
RTVSPost2010Prop29
280
     1
102
RTVSPost2010PropOp29
 70
     0
102
RTVSPost2010Prop30
280
     1
102
RTVSPost2010PropOp30
 70
     0
102
RTVSPost2010Prop31
280
     0
102
RTVSPost2010PropOp31
 70
     0
102
RTVSPost2010Prop32
280
     0
102
RTVSPost2010PropOp32
 70
     0
102
RTVSPost2010Prop33
280
     0
102
RTVSPost2010PropOp33
 70
     0
102
RTVSPost2010Prop34
280
     0
102
RTVSPost2010PropOp34
 70
     0
102
RTVSPost2010Prop35
280
     0
102
RTVSPost2010PropOp35
 70
     0
102
RTVSPost2010Prop36
280
     0
102
RTVSPost2010PropOp36
 70
     0
102
RTVSPost2010Prop37
 90
       50
102
RTVSPost2010PropOp37
 70
     0
102
RTVSPost2010Prop38
140
0.0
102
RTVSPost2010PropOp38
 70
     0
102
RTVSPost2010Prop39
140
1.0
102
RTVSPost2010PropOp39
 70
     0
102
RTVSPost2010Prop40
 90
        0
102
RTVSPost2010PropOp40
 70
     0
102
RTVSPost2010Prop41ColorIndex
 90
       18
102
RTVSPost2010Prop41ColorRGB
 90
-16777216
102
RTVSPost2010PropOp41
 70
     0
102
RTVSPost2010Prop42
 90
       50
102
RTVSPost2010PropOp42
 70
     0
102
RTVSPost2010Prop43
 90
        3
102
RTVSPost2010PropOp43
 70
     0
102
RTVSPost2010Prop44ColorIndex
 90
        5
102
RTVSPost2010Prop44ColorRGB
 90
      255
102
RTVSPost2010PropOp44
 70
     0
102
RTVSPost2010Prop45
280
     0
102
RTVSPost2010PropOp45
 70
     0
102
RTVSPost2010Prop46
 90
       50
102
RTVSPost2010PropOp46
 70
     0
102
RTVSPost2010Prop47
 90
       50
102
RTVSPost2010PropOp47
 70
     0
102
RTVSPost2010Prop48
 90
       50
102
RTVSPost2010PropOp48
 70
     0
102
RTVSPost2010Prop49
280
     0
102
RTVSPost2010PropOp49
 70
     0
102
RTVSPost2010Prop50
 90
       50
102
RTVSPost2010PropOp50
 70
     0
102
RTVSPost2010Prop51ColorIndex
 90
      256
102
RTVSPost2010Prop51ColorRGB
 90
-16777216
102
RTVSPost2010PropOp51
 70
     0
102
RTVSPost2010Prop52
140
1.0
102
RTVSPost2010PropOp52
 70
     0
102
RTVSPost2010Prop53
 90
        2
102
RTVSPost2010PropOp53
 70
     0
102
RTVSPost2010Prop54
  1
strokes_ogs.tif
102
RTVSPost2010PropOp54
 70
     0
102
RTVSPost2010Prop55
280
     0
102
RTVSPost2010PropOp55
 70
     0
102
RTVSPost2010Prop56
140
1.0
102
RTVSPost2010PropOp56
 70
     0
102
RTVSPost2010Prop57
140
1.0
102
RTVSPost2010PropOp57
 70
     0
  0
XRECORD
  5
29F
102
{ACAD_REACTORS
330
29E
102
}
330
29E
100
AcDbXrecord
280
     1
102
RTVSPost2010Prop28
280
     0
102
RTVSPost2010PropOp28
 70
     1
102
RTVSPost2010Prop29
280
     1
102
RTVSPost2010PropOp29
 70
     1
102
RTVSPost2010Prop30
280
     1
102
RTVSPost2010PropOp30
 70
     1
102
RTVSPost2010Prop31
280
     0
102
RTVSPost2010PropOp31
 70
     1
102
RTVSPost2010Prop32
280
     0
102
RTVSPost2010PropOp32
 70
     1
102
RTVSPost2010Prop33
280
     0
102
RTVSPost2010PropOp33
 70
     1
102
RTVSPost2010Prop34
280
     0
102
RTVSPost2010PropOp34
 70
     1
102
RTVSPost2010Prop35
280
     0
102
RTVSPost2010PropOp35
 70
     1
102
RTVSPost2010Prop36
280
     0
102
RTVSPost2010PropOp36
 70
     1
102
RTVSPost2010Prop37
 90
       50
102
RTVSPost2010PropOp37
 70
     1
102
RTVSPost2010Prop38
140
0.0
102
RTVSPost2010PropOp38
 70
     1
102
RTVSPost2010Prop39
140
1.0
102
RTVSPost2010PropOp39
 70
     1
102
RTVSPost2010Prop40
 90
        0
102
RTVSPost2010PropOp40
 70
     1
102
RTVSPost2010Prop41ColorIndex
 90
       18
102
RTVSPost2010Prop41ColorRGB
 90
-16777216
102
RTVSPost2010PropOp41
 70
     1
102
RTVSPost2010Prop42
 90
       50
102
RTVSPost2010PropOp42
 70
     1
102
RTVSPost2010Prop43
 90
        3
102
RTVSPost2010PropOp43
 70
     1
102
RTVSPost2010Prop44ColorIndex
 90
        5
102
RTVSPost2010Prop44ColorRGB
 90
      255
102
RTVSPost2010PropOp44
 70
     1
102
RTVSPost2010Prop45
280
     0
102
RTVSPost2010PropOp45
 70
     1
102
RTVSPost2010Prop46
 90
       50
102
RTVSPost2010PropOp46
 70
     1
102
RTVSPost2010Prop47
 90
       50
102
RTVSPost2010PropOp47
 70
     1
102
RTVSPost2010Prop48
 90
       50
102
RTVSPost2010PropOp48
 70
     1
102
RTVSPost2010Prop49
280
     0
102
RTVSPost2010PropOp49
 70
     1
102
RTVSPost2010Prop50
 90
       50
102
RTVSPost2010PropOp50
 70
     1
102
RTVSPost2010Prop51ColorIndex
 90
      256
102
RTVSPost2010Prop51ColorRGB
 90
-16777216
102
RTVSPost2010PropOp51
 70
     0
102
RTVSPost2010Prop52
140
1.0
102
RTVSPost2010PropOp52
 70
     0
102
RTVSPost2010Prop53
 90
        2
102
RTVSPost2010PropOp53
 70
     1
102
RTVSPost2010Prop54
  1
strokes_ogs.tif
102
RTVSPost2010PropOp54
 70
     1
102
RTVSPost2010Prop55
280
     0
102
RTVSPost2010PropOp55
 70
     1
102
RTVSPost2010Prop56
140
1.0
102
RTVSPost2010PropOp56
 70
     1
102
RTVSPost2010Prop57
140
1.0
102
RTVSPost2010PropOp57
 70
     1
  0
XRECORD
  5
283
102
{ACAD_REACTORS
330
282
102
}
330
282
100
AcDbXrecord
280
     1
102
RTVSPost2010Prop28
280
     0
102
RTVSPost2010PropOp28
 70
     1
102
RTVSPost2010Prop29
280
     1
102
RTVSPost2010PropOp29
 70
     1
102
RTVSPost2010Prop30
280
     1
102
RTVSPost2010PropOp30
 70
     1
102
RTVSPost2010Prop31
280
     0
102
RTVSPost2010PropOp31
 70
     1
102
RTVSPost2010Prop32
280
     0
102
RTVSPost2010PropOp32
 70
     1
102
RTVSPost2010Prop33
280
     0
102
RTVSPost2010PropOp33
 70
     1
102
RTVSPost2010Prop34
280
     0
102
RTVSPost2010PropOp34
 70
     1
102
RTVSPost2010Prop35
280
     0
102
RTVSPost2010PropOp35
 70
     1
102
RTVSPost2010Prop36
280
     0
102
RTVSPost2010PropOp36
 70
     1
102
RTVSPost2010Prop37
 90
       50
102
RTVSPost2010PropOp37
 70
     1
102
RTVSPost2010Prop38
140
0.0
102
RTVSPost2010PropOp38
 70
     1
102
RTVSPost2010Prop39
140
1.0
102
RTVSPost2010PropOp39
 70
     1
102
RTVSPost2010Prop40
 90
        0
102
RTVSPost2010PropOp40
 70
     1
102
RTVSPost2010Prop41ColorIndex
 90
       18
102
RTVSPost2010Prop41ColorRGB
 90
-16777216
102
RTVSPost2010PropOp41
 70
     1
102
RTVSPost2010Prop42
 90
       50
102
RTVSPost2010PropOp42
 70
     1
102
RTVSPost2010Prop43
 90
        3
102
RTVSPost2010PropOp43
 70
     1
102
RTVSPost2010Prop44ColorIndex
 90
        5
102
RTVSPost2010Prop44ColorRGB
 90
      255
102
RTVSPost2010PropOp44
 70
     1
102
RTVSPost2010Prop45
280
     0
102
RTVSPost2010PropOp45
 70
     1
102
RTVSPost2010Prop46
 90
       50
102
RTVSPost2010PropOp46
 70
     1
102
RTVSPost2010Prop47
 90
       50
102
RTVSPost2010PropOp47
 70
     1
102
RTVSPost2010Prop48
 90
       50
102
RTVSPost2010PropOp48
 70
     1
102
RTVSPost2010Prop49
280
     0
102
RTVSPost2010PropOp49
 70
     1
102
RTVSPost2010Prop50
 90
       50
102
RTVSPost2010PropOp50
 70
     1
102
RTVSPost2010Prop51ColorIndex
 90
      256
102
RTVSPost2010Prop51ColorRGB
 90
-16777216
102
RTVSPost2010PropOp51
 70
     0
102
RTVSPost2010Prop52
140
1.0
102
RTVSPost2010PropOp52
 70
     0
102
RTVSPost2010Prop53
 90
        2
102
RTVSPost2010PropOp53
 70
     1
102
RTVSPost2010Prop54
  1
strokes_ogs.tif
102
RTVSPost2010PropOp54
 70
     1
102
RTVSPost2010Prop55
280
     0
102
RTVSPost2010PropOp55
 70
     1
102
RTVSPost2010Prop56
140
1.0
102
RTVSPost2010PropOp56
 70
     1
102
RTVSPost2010Prop57
140
1.0
102
RTVSPost2010PropOp57
 70
     1
  0
XRECORD
  5
285
102
{ACAD_REACTORS
330
284
102
}
330
284
100
AcDbXrecord
280
     1
102
RTVSPost2010Prop28
280
     0
102
RTVSPost2010PropOp28
 70
     1
102
RTVSPost2010Prop29
280
     1
102
RTVSPost2010PropOp29
 70
     1
102
RTVSPost2010Prop30
280
     1
102
RTVSPost2010PropOp30
 70
     1
102
RTVSPost2010Prop31
280
     0
102
RTVSPost2010PropOp31
 70
     1
102
RTVSPost2010Prop32
280
     0
102
RTVSPost2010PropOp32
 70
     1
102
RTVSPost2010Prop33
280
     0
102
RTVSPost2010PropOp33
 70
     1
102
RTVSPost2010Prop34
280
     0
102
RTVSPost2010PropOp34
 70
     1
102
RTVSPost2010Prop35
280
     0
102
RTVSPost2010PropOp35
 70
     1
102
RTVSPost2010Prop36
280
     0
102
RTVSPost2010PropOp36
 70
     1
102
RTVSPost2010Prop37
 90
       50
102
RTVSPost2010PropOp37
 70
     1
102
RTVSPost2010Prop38
140
0.0
102
RTVSPost2010PropOp38
 70
     1
102
RTVSPost2010Prop39
140
1.0
102
RTVSPost2010PropOp39
 70
     1
102
RTVSPost2010Prop40
 90
        0
102
RTVSPost2010PropOp40
 70
     1
102
RTVSPost2010Prop41ColorIndex
 90
       18
102
RTVSPost2010Prop41ColorRGB
 90
-16777216
102
RTVSPost2010PropOp41
 70
     1
102
RTVSPost2010Prop42
 90
       50
102
RTVSPost2010PropOp42
 70
     1
102
RTVSPost2010Prop43
 90
        3
102
RTVSPost2010PropOp43
 70
     1
102
RTVSPost2010Prop44ColorIndex
 90
        5
102
RTVSPost2010Prop44ColorRGB
 90
      255
102
RTVSPost2010PropOp44
 70
     1
102
RTVSPost2010Prop45
280
     0
102
RTVSPost2010PropOp45
 70
     1
102
RTVSPost2010Prop46
 90
       50
102
RTVSPost2010PropOp46
 70
     1
102
RTVSPost2010Prop47
 90
       50
102
RTVSPost2010PropOp47
 70
     1
102
RTVSPost2010Prop48
 90
       50
102
RTVSPost2010PropOp48
 70
     1
102
RTVSPost2010Prop49
280
     0
102
RTVSPost2010PropOp49
 70
     1
102
RTVSPost2010Prop50
 90
       50
102
RTVSPost2010PropOp50
 70
     1
102
RTVSPost2010Prop51ColorIndex
 90
      256
102
RTVSPost2010Prop51ColorRGB
 90
-16777216
102
RTVSPost2010PropOp51
 70
     0
102
RTVSPost2010Prop52
140
1.0
102
RTVSPost2010PropOp52
 70
     0
102
RTVSPost2010Prop53
 90
        2
102
RTVSPost2010PropOp53
 70
     1
102
RTVSPost2010Prop54
  1
strokes_ogs.tif
102
RTVSPost2010PropOp54
 70
     1
102
RTVSPost2010Prop55
280
     0
102
RTVSPost2010PropOp55
 70
     1
102
RTVSPost2010Prop56
140
1.0
102
RTVSPost2010PropOp56
 70
     1
102
RTVSPost2010Prop57
140
1.0
102
RTVSPost2010PropOp57
 70
     1
  0
XRECORD
  5
287
102
{ACAD_REACTORS
330
286
102
}
330
286
100
AcDbXrecord
280
     1
102
RTVSPost2010Prop28
280
     0
102
RTVSPost2010PropOp28
 70
     1
102
RTVSPost2010Prop29
280
     1
102
RTVSPost2010PropOp29
 70
     1
102
RTVSPost2010Prop30
280
     1
102
RTVSPost2010PropOp30
 70
     1
102
RTVSPost2010Prop31
280
     0
102
RTVSPost2010PropOp31
 70
     1
102
RTVSPost2010Prop32
280
     0
102
RTVSPost2010PropOp32
 70
     1
102
RTVSPost2010Prop33
280
     0
102
RTVSPost2010PropOp33
 70
     1
102
RTVSPost2010Prop34
280
     0
102
RTVSPost2010PropOp34
 70
     1
102
RTVSPost2010Prop35
280
     0
102
RTVSPost2010PropOp35
 70
     1
102
RTVSPost2010Prop36
280
     0
102
RTVSPost2010PropOp36
 70
     1
102
RTVSPost2010Prop37
 90
       50
102
RTVSPost2010PropOp37
 70
     1
102
RTVSPost2010Prop38
140
0.0
102
RTVSPost2010PropOp38
 70
     1
102
RTVSPost2010Prop39
140
1.0
102
RTVSPost2010PropOp39
 70
     1
102
RTVSPost2010Prop40
 90
        0
102
RTVSPost2010PropOp40
 70
     1
102
RTVSPost2010Prop41ColorIndex
 90
       18
102
RTVSPost2010Prop41ColorRGB
 90
-16777216
102
RTVSPost2010PropOp41
 70
     1
102
RTVSPost2010Prop42
 90
       50
102
RTVSPost2010PropOp42
 70
     1
102
RTVSPost2010Prop43
 90
        3
102
RTVSPost2010PropOp43
 70
     1
102
RTVSPost2010Prop44ColorIndex
 90
        5
102
RTVSPost2010Prop44ColorRGB
 90
      255
102
RTVSPost2010PropOp44
 70
     1
102
RTVSPost2010Prop45
280
     0
102
RTVSPost2010PropOp45
 70
     1
102
RTVSPost2010Prop46
 90
       50
102
RTVSPost2010PropOp46
 70
     1
102
RTVSPost2010Prop47
 90
       50
102
RTVSPost2010PropOp47
 70
     1
102
RTVSPost2010Prop48
 90
       50
102
RTVSPost2010PropOp48
 70
     1
102
RTVSPost2010Prop49
280
     0
102
RTVSPost2010PropOp49
 70
     1
102
RTVSPost2010Prop50
 90
       50
102
RTVSPost2010PropOp50
 70
     1
102
RTVSPost2010Prop51ColorIndex
 90
      256
102
RTVSPost2010Prop51ColorRGB
 90
-16777216
102
RTVSPost2010PropOp51
 70
     0
102
RTVSPost2010Prop52
140
1.0
102
RTVSPost2010PropOp52
 70
     0
102
RTVSPost2010Prop53
 90
        2
102
RTVSPost2010PropOp53
 70
     1
102
RTVSPost2010Prop54
  1
strokes_ogs.tif
102
RTVSPost2010PropOp54
 70
     1
102
RTVSPost2010Prop55
280
     0
102
RTVSPost2010PropOp55
 70
     1
102
RTVSPost2010Prop56
140
1.0
102
RTVSPost2010PropOp56
 70
     1
102
RTVSPost2010Prop57
140
1.0
102
RTVSPost2010PropOp57
 70
     1
  0
XRECORD
  5
289
102
{ACAD_REACTORS
330
288
102
}
330
288
100
AcDbXrecord
280
     1
102
RTVSPost2010Prop28
280
     0
102
RTVSPost2010PropOp28
 70
     1
102
RTVSPost2010Prop29
280
     1
102
RTVSPost2010PropOp29
 70
     1
102
RTVSPost2010Prop30
280
     1
102
RTVSPost2010PropOp30
 70
     1
102
RTVSPost2010Prop31
280
     0
102
RTVSPost2010PropOp31
 70
     1
102
RTVSPost2010Prop32
280
     0
102
RTVSPost2010PropOp32
 70
     1
102
RTVSPost2010Prop33
280
     0
102
RTVSPost2010PropOp33
 70
     1
102
RTVSPost2010Prop34
280
     0
102
RTVSPost2010PropOp34
 70
     1
102
RTVSPost2010Prop35
280
     0
102
RTVSPost2010PropOp35
 70
     1
102
RTVSPost2010Prop36
280
     0
102
RTVSPost2010PropOp36
 70
     1
102
RTVSPost2010Prop37
 90
       50
102
RTVSPost2010PropOp37
 70
     1
102
RTVSPost2010Prop38
140
0.0
102
RTVSPost2010PropOp38
 70
     1
102
RTVSPost2010Prop39
140
1.0
102
RTVSPost2010PropOp39
 70
     1
102
RTVSPost2010Prop40
 90
        0
102
RTVSPost2010PropOp40
 70
     1
102
RTVSPost2010Prop41ColorIndex
 90
       18
102
RTVSPost2010Prop41ColorRGB
 90
-16777216
102
RTVSPost2010PropOp41
 70
     1
102
RTVSPost2010Prop42
 90
       50
102
RTVSPost2010PropOp42
 70
     1
102
RTVSPost2010Prop43
 90
        3
102
RTVSPost2010PropOp43
 70
     1
102
RTVSPost2010Prop44ColorIndex
 90
        5
102
RTVSPost2010Prop44ColorRGB
 90
      255
102
RTVSPost2010PropOp44
 70
     1
102
RTVSPost2010Prop45
280
     0
102
RTVSPost2010PropOp45
 70
     1
102
RTVSPost2010Prop46
 90
       50
102
RTVSPost2010PropOp46
 70
     1
102
RTVSPost2010Prop47
 90
       50
102
RTVSPost2010PropOp47
 70
     1
102
RTVSPost2010Prop48
 90
       50
102
RTVSPost2010PropOp48
 70
     1
102
RTVSPost2010Prop49
280
     0
102
RTVSPost2010PropOp49
 70
     1
102
RTVSPost2010Prop50
 90
       50
102
RTVSPost2010PropOp50
 70
     1
102
RTVSPost2010Prop51ColorIndex
 90
      256
102
RTVSPost2010Prop51ColorRGB
 90
-16777216
102
RTVSPost2010PropOp51
 70
     0
102
RTVSPost2010Prop52
140
1.0
102
RTVSPost2010PropOp52
 70
     0
102
RTVSPost2010Prop53
 90
        2
102
RTVSPost2010PropOp53
 70
     1
102
RTVSPost2010Prop54
  1
strokes_ogs.tif
102
RTVSPost2010PropOp54
 70
     1
102
RTVSPost2010Prop55
280
     0
102
RTVSPost2010PropOp55
 70
     1
102
RTVSPost2010Prop56
140
1.0
102
RTVSPost2010PropOp56
 70
     1
102
RTVSPost2010Prop57
140
1.0
102
RTVSPost2010PropOp57
 70
     1
  0
XRECORD
  5
291
102
{ACAD_REACTORS
330
290
102
}
330
290
100
AcDbXrecord
280
     1
102
RTVSPost2010Prop28
280
     0
102
RTVSPost2010PropOp28
 70
     1
102
RTVSPost2010Prop29
280
     1
102
RTVSPost2010PropOp29
 70
     1
102
RTVSPost2010Prop30
280
     1
102
RTVSPost2010PropOp30
 70
     1
102
RTVSPost2010Prop31
280
     0
102
RTVSPost2010PropOp31
 70
     1
102
RTVSPost2010Prop32
280
     0
102
RTVSPost2010PropOp32
 70
     1
102
RTVSPost2010Prop33
280
     0
102
RTVSPost2010PropOp33
 70
     1
102
RTVSPost2010Prop34
280
     0
102
RTVSPost2010PropOp34
 70
     1
102
RTVSPost2010Prop35
280
     0
102
RTVSPost2010PropOp35
 70
     1
102
RTVSPost2010Prop36
280
     0
102
RTVSPost2010PropOp36
 70
     1
102
RTVSPost2010Prop37
 90
       50
102
RTVSPost2010PropOp37
 70
     1
102
RTVSPost2010Prop38
140
0.0
102
RTVSPost2010PropOp38
 70
     1
102
RTVSPost2010Prop39
140
1.0
102
RTVSPost2010PropOp39
 70
     1
102
RTVSPost2010Prop40
 90
        0
102
RTVSPost2010PropOp40
 70
     1
102
RTVSPost2010Prop41ColorIndex
 90
       18
102
RTVSPost2010Prop41ColorRGB
 90
-16777216
102
RTVSPost2010PropOp41
 70
     1
102
RTVSPost2010Prop42
 90
       50
102
RTVSPost2010PropOp42
 70
     1
102
RTVSPost2010Prop43
 90
        3
102
RTVSPost2010PropOp43
 70
     1
102
RTVSPost2010Prop44ColorIndex
 90
        5
102
RTVSPost2010Prop44ColorRGB
 90
      255
102
RTVSPost2010PropOp44
 70
     1
102
RTVSPost2010Prop45
280
     0
102
RTVSPost2010PropOp45
 70
     1
102
RTVSPost2010Prop46
 90
       50
102
RTVSPost2010PropOp46
 70
     1
102
RTVSPost2010Prop47
 90
       50
102
RTVSPost2010PropOp47
 70
     1
102
RTVSPost2010Prop48
 90
       50
102
RTVSPost2010PropOp48
 70
     1
102
RTVSPost2010Prop49
280
     0
102
RTVSPost2010PropOp49
 70
     1
102
RTVSPost2010Prop50
 90
       50
102
RTVSPost2010PropOp50
 70
     1
102
RTVSPost2010Prop51ColorIndex
 90
      256
102
RTVSPost2010Prop51ColorRGB
 90
-16777216
102
RTVSPost2010PropOp51
 70
     0
102
RTVSPost2010Prop52
140
1.0
102
RTVSPost2010PropOp52
 70
     0
102
RTVSPost2010Prop53
 90
        2
102
RTVSPost2010PropOp53
 70
     1
102
RTVSPost2010Prop54
  1
strokes_ogs.tif
102
RTVSPost2010PropOp54
 70
     1
102
RTVSPost2010Prop55
280
     0
102
RTVSPost2010PropOp55
 70
     1
102
RTVSPost2010Prop56
140
1.0
102
RTVSPost2010PropOp56
 70
     1
102
RTVSPost2010Prop57
140
1.0
102
RTVSPost2010PropOp57
 70
     1
  0
XRECORD
  5
2AD
102
{ACAD_REACTORS
330
2AC
102
}
330
2AC
100
AcDbXrecord
280
     1
102
RTVSPost2010Prop28
280
     0
102
RTVSPost2010PropOp28
 70
     0
102
RTVSPost2010Prop29
280
     1
102
RTVSPost2010PropOp29
 70
     0
102
RTVSPost2010Prop30
280
     1
102
RTVSPost2010PropOp30
 70
     0
102
RTVSPost2010Prop31
280
     0
102
RTVSPost2010PropOp31
 70
     0
102
RTVSPost2010Prop32
280
     0
102
RTVSPost2010PropOp32
 70
     0
102
RTVSPost2010Prop33
280
     0
102
RTVSPost2010PropOp33
 70
     0
102
RTVSPost2010Prop34
280
     0
102
RTVSPost2010PropOp34
 70
     0
102
RTVSPost2010Prop35
280
     0
102
RTVSPost2010PropOp35
 70
     0
102
RTVSPost2010Prop36
280
     0
102
RTVSPost2010PropOp36
 70
     0
102
RTVSPost2010Prop37
 90
       50
102
RTVSPost2010PropOp37
 70
     0
102
RTVSPost2010Prop38
140
0.0
102
RTVSPost2010PropOp38
 70
     0
102
RTVSPost2010Prop39
140
1.0
102
RTVSPost2010PropOp39
 70
     0
102
RTVSPost2010Prop40
 90
        0
102
RTVSPost2010PropOp40
 70
     0
102
RTVSPost2010Prop41ColorIndex
 90
       18
102
RTVSPost2010Prop41ColorRGB
 90
-16777216
102
RTVSPost2010PropOp41
 70
     0
102
RTVSPost2010Prop42
 90
       50
102
RTVSPost2010PropOp42
 70
     0
102
RTVSPost2010Prop43
 90
        3
102
RTVSPost2010PropOp43
 70
     0
102
RTVSPost2010Prop44ColorIndex
 90
        5
102
RTVSPost2010Prop44ColorRGB
 90
      255
102
RTVSPost2010PropOp44
 70
     0
102
RTVSPost2010Prop45
280
     0
102
RTVSPost2010PropOp45
 70
     0
102
RTVSPost2010Prop46
 90
       50
102
RTVSPost2010PropOp46
 70
     0
102
RTVSPost2010Prop47
 90
       50
102
RTVSPost2010PropOp47
 70
     0
102
RTVSPost2010Prop48
 90
       50
102
RTVSPost2010PropOp48
 70
     0
102
RTVSPost2010Prop49
280
     0
102
RTVSPost2010PropOp49
 70
     0
102
RTVSPost2010Prop50
 90
       50
102
RTVSPost2010PropOp50
 70
     0
102
RTVSPost2010Prop51ColorIndex
 90
      256
102
RTVSPost2010Prop51ColorRGB
 90
-16777216
102
RTVSPost2010PropOp51
 70
     0
102
RTVSPost2010Prop52
140
1.0
102
RTVSPost2010PropOp52
 70
     0
102
RTVSPost2010Prop53
 90
        2
102
RTVSPost2010PropOp53
 70
     0
102
RTVSPost2010Prop54
  1
strokes_ogs.tif
102
RTVSPost2010PropOp54
 70
     0
102
RTVSPost2010Prop55
280
     0
102
RTVSPost2010PropOp55
 70
     0
102
RTVSPost2010Prop56
140
1.0
102
RTVSPost2010PropOp56
 70
     0
102
RTVSPost2010Prop57
140
1.0
102
RTVSPost2010PropOp57
 70
     0
  0
XRECORD
  5
29D
102
{ACAD_REACTORS
330
29C
102
}
330
29C
100
AcDbXrecord
280
     1
102
RTVSPost2010Prop28
280
     0
102
RTVSPost2010PropOp28
 70
     1
102
RTVSPost2010Prop29
280
     1
102
RTVSPost2010PropOp29
 70
     1
102
RTVSPost2010Prop30
280
     1
102
RTVSPost2010PropOp30
 70
     1
102
RTVSPost2010Prop31
280
     0
102
RTVSPost2010PropOp31
 70
     1
102
RTVSPost2010Prop32
280
     0
102
RTVSPost2010PropOp32
 70
     1
102
RTVSPost2010Prop33
280
     0
102
RTVSPost2010PropOp33
 70
     1
102
RTVSPost2010Prop34
280
     0
102
RTVSPost2010PropOp34
 70
     1
102
RTVSPost2010Prop35
280
     0
102
RTVSPost2010PropOp35
 70
     1
102
RTVSPost2010Prop36
280
     0
102
RTVSPost2010PropOp36
 70
     1
102
RTVSPost2010Prop37
 90
       50
102
RTVSPost2010PropOp37
 70
     1
102
RTVSPost2010Prop38
140
0.0
102
RTVSPost2010PropOp38
 70
     1
102
RTVSPost2010Prop39
140
1.0
102
RTVSPost2010PropOp39
 70
     1
102
RTVSPost2010Prop40
 90
        0
102
RTVSPost2010PropOp40
 70
     1
102
RTVSPost2010Prop41ColorIndex
 90
       18
102
RTVSPost2010Prop41ColorRGB
 90
-16777216
102
RTVSPost2010PropOp41
 70
     1
102
RTVSPost2010Prop42
 90
       50
102
RTVSPost2010PropOp42
 70
     1
102
RTVSPost2010Prop43
 90
        3
102
RTVSPost2010PropOp43
 70
     1
102
RTVSPost2010Prop44ColorIndex
 90
        5
102
RTVSPost2010Prop44ColorRGB
 90
      255
102
RTVSPost2010PropOp44
 70
     1
102
RTVSPost2010Prop45
280
     0
102
RTVSPost2010PropOp45
 70
     1
102
RTVSPost2010Prop46
 90
       50
102
RTVSPost2010PropOp46
 70
     1
102
RTVSPost2010Prop47
 90
       50
102
RTVSPost2010PropOp47
 70
     1
102
RTVSPost2010Prop48
 90
       50
102
RTVSPost2010PropOp48
 70
     1
102
RTVSPost2010Prop49
280
     0
102
RTVSPost2010PropOp49
 70
     1
102
RTVSPost2010Prop50
 90
       50
102
RTVSPost2010PropOp50
 70
     1
102
RTVSPost2010Prop51ColorIndex
 90
      256
102
RTVSPost2010Prop51ColorRGB
 90
-16777216
102
RTVSPost2010PropOp51
 70
     0
102
RTVSPost2010Prop52
140
1.0
102
RTVSPost2010PropOp52
 70
     0
102
RTVSPost2010Prop53
 90
        2
102
RTVSPost2010PropOp53
 70
     1
102
RTVSPost2010Prop54
  1
strokes_ogs.tif
102
RTVSPost2010PropOp54
 70
     1
102
RTVSPost2010Prop55
280
     0
102
RTVSPost2010PropOp55
 70
     1
102
RTVSPost2010Prop56
140
1.0
102
RTVSPost2010PropOp56
 70
     1
102
RTVSPost2010Prop57
140
1.0
102
RTVSPost2010PropOp57
 70
     1
  0
XRECORD
  5
2AF
102
{ACAD_REACTORS
330
2AE
102
}
330
2AE
100
AcDbXrecord
280
     1
102
RTVSPost2010Prop28
280
     0
102
RTVSPost2010PropOp28
 70
     0
102
RTVSPost2010Prop29
280
     1
102
RTVSPost2010PropOp29
 70
     0
102
RTVSPost2010Prop30
280
     1
102
RTVSPost2010PropOp30
 70
     0
102
RTVSPost2010Prop31
280
     0
102
RTVSPost2010PropOp31
 70
     0
102
RTVSPost2010Prop32
280
     0
102
RTVSPost2010PropOp32
 70
     0
102
RTVSPost2010Prop33
280
     0
102
RTVSPost2010PropOp33
 70
     0
102
RTVSPost2010Prop34
280
     0
102
RTVSPost2010PropOp34
 70
     0
102
RTVSPost2010Prop35
280
     0
102
RTVSPost2010PropOp35
 70
     0
102
RTVSPost2010Prop36
280
     0
102
RTVSPost2010PropOp36
 70
     0
102
RTVSPost2010Prop37
 90
       50
102
RTVSPost2010PropOp37
 70
     0
102
RTVSPost2010Prop38
140
0.0
102
RTVSPost2010PropOp38
 70
     0
102
RTVSPost2010Prop39
140
1.0
102
RTVSPost2010PropOp39
 70
     0
102
RTVSPost2010Prop40
 90
        0
102
RTVSPost2010PropOp40
 70
     0
102
RTVSPost2010Prop41ColorIndex
 90
       18
102
RTVSPost2010Prop41ColorRGB
 90
-16777216
102
RTVSPost2010PropOp41
 70
     0
102
RTVSPost2010Prop42
 90
       50
102
RTVSPost2010PropOp42
 70
     0
102
RTVSPost2010Prop43
 90
        3
102
RTVSPost2010PropOp43
 70
     0
102
RTVSPost2010Prop44ColorIndex
 90
        5
102
RTVSPost2010Prop44ColorRGB
 90
      255
102
RTVSPost2010PropOp44
 70
     0
102
RTVSPost2010Prop45
280
     0
102
RTVSPost2010PropOp45
 70
     0
102
RTVSPost2010Prop46
 90
       50
102
RTVSPost2010PropOp46
 70
     0
102
RTVSPost2010Prop47
 90
       50
102
RTVSPost2010PropOp47
 70
     0
102
RTVSPost2010Prop48
 90
       50
102
RTVSPost2010PropOp48
 70
     0
102
RTVSPost2010Prop49
280
     0
102
RTVSPost2010PropOp49
 70
     0
102
RTVSPost2010Prop50
 90
       50
102
RTVSPost2010PropOp50
 70
     0
102
RTVSPost2010Prop51ColorIndex
 90
      256
102
RTVSPost2010Prop51ColorRGB
 90
-16777216
102
RTVSPost2010PropOp51
 70
     0
102
RTVSPost2010Prop52
140
1.0
102
RTVSPost2010PropOp52
 70
     0
102
RTVSPost2010Prop53
 90
        2
102
RTVSPost2010PropOp53
 70
     0
102
RTVSPost2010Prop54
  1
strokes_ogs.tif
102
RTVSPost2010PropOp54
 70
     0
102
RTVSPost2010Prop55
280
     0
102
RTVSPost2010PropOp55
 70
     0
102
RTVSPost2010Prop56
140
1.0
102
RTVSPost2010PropOp56
 70
     0
102
RTVSPost2010Prop57
140
1.0
102
RTVSPost2010PropOp57
 70
     0
  0
XRECORD
  5
295
102
{ACAD_REACTORS
330
294
102
}
330
294
100
AcDbXrecord
280
     1
102
RTVSPost2010Prop28
280
     0
102
RTVSPost2010PropOp28
 70
     1
102
RTVSPost2010Prop29
280
     1
102
RTVSPost2010PropOp29
 70
     1
102
RTVSPost2010Prop30
280
     1
102
RTVSPost2010PropOp30
 70
     1
102
RTVSPost2010Prop31
280
     0
102
RTVSPost2010PropOp31
 70
     1
102
RTVSPost2010Prop32
280
     0
102
RTVSPost2010PropOp32
 70
     1
102
RTVSPost2010Prop33
280
     0
102
RTVSPost2010PropOp33
 70
     1
102
RTVSPost2010Prop34
280
     0
102
RTVSPost2010PropOp34
 70
     1
102
RTVSPost2010Prop35
280
     0
102
RTVSPost2010PropOp35
 70
     1
102
RTVSPost2010Prop36
280
     0
102
RTVSPost2010PropOp36
 70
     1
102
RTVSPost2010Prop37
 90
       50
102
RTVSPost2010PropOp37
 70
     1
102
RTVSPost2010Prop38
140
0.0
102
RTVSPost2010PropOp38
 70
     1
102
RTVSPost2010Prop39
140
1.0
102
RTVSPost2010PropOp39
 70
     1
102
RTVSPost2010Prop40
 90
        0
102
RTVSPost2010PropOp40
 70
     1
102
RTVSPost2010Prop41ColorIndex
 90
       18
102
RTVSPost2010Prop41ColorRGB
 90
-16777216
102
RTVSPost2010PropOp41
 70
     1
102
RTVSPost2010Prop42
 90
       50
102
RTVSPost2010PropOp42
 70
     1
102
RTVSPost2010Prop43
 90
        3
102
RTVSPost2010PropOp43
 70
     1
102
RTVSPost2010Prop44ColorIndex
 90
        5
102
RTVSPost2010Prop44ColorRGB
 90
      255
102
RTVSPost2010PropOp44
 70
     1
102
RTVSPost2010Prop45
280
     0
102
RTVSPost2010PropOp45
 70
     1
102
RTVSPost2010Prop46
 90
       50
102
RTVSPost2010PropOp46
 70
     1
102
RTVSPost2010Prop47
 90
       50
102
RTVSPost2010PropOp47
 70
     1
102
RTVSPost2010Prop48
 90
       50
102
RTVSPost2010PropOp48
 70
     1
102
RTVSPost2010Prop49
280
     0
102
RTVSPost2010PropOp49
 70
     1
102
RTVSPost2010Prop50
 90
       50
102
RTVSPost2010PropOp50
 70
     1
102
RTVSPost2010Prop51ColorIndex
 90
      256
102
RTVSPost2010Prop51ColorRGB
 90
-16777216
102
RTVSPost2010PropOp51
 70
     0
102
RTVSPost2010Prop52
140
1.0
102
RTVSPost2010PropOp52
 70
     0
102
RTVSPost2010Prop53
 90
        2
102
RTVSPost2010PropOp53
 70
     1
102
RTVSPost2010Prop54
  1
strokes_ogs.tif
102
RTVSPost2010PropOp54
 70
     1
102
RTVSPost2010Prop55
280
     0
102
RTVSPost2010PropOp55
 70
     1
102
RTVSPost2010Prop56
140
1.0
102
RTVSPost2010PropOp56
 70
     1
102
RTVSPost2010Prop57
140
1.0
102
RTVSPost2010PropOp57
 70
     1
  0
XRECORD
  5
2AB
102
{ACAD_REACTORS
330
2AA
102
}
330
2AA
100
AcDbXrecord
280
     1
102
RTVSPost2010Prop28
280
     0
102
RTVSPost2010PropOp28
 70
     1
102
RTVSPost2010Prop29
280
     1
102
RTVSPost2010PropOp29
 70
     1
102
RTVSPost2010Prop30
280
     1
102
RTVSPost2010PropOp30
 70
     1
102
RTVSPost2010Prop31
280
     0
102
RTVSPost2010PropOp31
 70
     1
102
RTVSPost2010Prop32
280
     0
102
RTVSPost2010PropOp32
 70
     1
102
RTVSPost2010Prop33
280
     0
102
RTVSPost2010PropOp33
 70
     1
102
RTVSPost2010Prop34
280
     0
102
RTVSPost2010PropOp34
 70
     1
102
RTVSPost2010Prop35
280
     0
102
RTVSPost2010PropOp35
 70
     1
102
RTVSPost2010Prop36
280
     0
102
RTVSPost2010PropOp36
 70
     1
102
RTVSPost2010Prop37
 90
       50
102
RTVSPost2010PropOp37
 70
     1
102
RTVSPost2010Prop38
140
0.0
102
RTVSPost2010PropOp38
 70
     1
102
RTVSPost2010Prop39
140
1.0
102
RTVSPost2010PropOp39
 70
     1
102
RTVSPost2010Prop40
 90
        0
102
RTVSPost2010PropOp40
 70
     1
102
RTVSPost2010Prop41ColorIndex
 90
       18
102
RTVSPost2010Prop41ColorRGB
 90
-16777216
102
RTVSPost2010PropOp41
 70
     1
102
RTVSPost2010Prop42
 90
       50
102
RTVSPost2010PropOp42
 70
     1
102
RTVSPost2010Prop43
 90
        3
102
RTVSPost2010PropOp43
 70
     1
102
RTVSPost2010Prop44ColorIndex
 90
        5
102
RTVSPost2010Prop44ColorRGB
 90
      255
102
RTVSPost2010PropOp44
 70
     1
102
RTVSPost2010Prop45
280
     0
102
RTVSPost2010PropOp45
 70
     1
102
RTVSPost2010Prop46
 90
       50
102
RTVSPost2010PropOp46
 70
     1
102
RTVSPost2010Prop47
 90
       50
102
RTVSPost2010PropOp47
 70
     1
102
RTVSPost2010Prop48
 90
       50
102
RTVSPost2010PropOp48
 70
     1
102
RTVSPost2010Prop49
280
     0
102
RTVSPost2010PropOp49
 70
     1
102
RTVSPost2010Prop50
 90
       50
102
RTVSPost2010PropOp50
 70
     1
102
RTVSPost2010Prop51ColorIndex
 90
      256
102
RTVSPost2010Prop51ColorRGB
 90
-16777216
102
RTVSPost2010PropOp51
 70
     0
102
RTVSPost2010Prop52
140
1.0
102
RTVSPost2010PropOp52
 70
     0
102
RTVSPost2010Prop53
 90
        2
102
RTVSPost2010PropOp53
 70
     1
102
RTVSPost2010Prop54
  1
strokes_ogs.tif
102
RTVSPost2010PropOp54
 70
     1
102
RTVSPost2010Prop55
280
     0
102
RTVSPost2010PropOp55
 70
     1
102
RTVSPost2010Prop56
140
1.0
102
RTVSPost2010PropOp56
 70
     1
102
RTVSPost2010Prop57
140
1.0
102
RTVSPost2010PropOp57
 70
     1
  0
XRECORD
  5
2A9
102
{ACAD_REACTORS
330
2A8
102
}
330
2A8
100
AcDbXrecord
280
     1
102
RTVSPost2010Prop28
280
     0
102
RTVSPost2010PropOp28
 70
     1
102
RTVSPost2010Prop29
280
     1
102
RTVSPost2010PropOp29
 70
     1
102
RTVSPost2010Prop30
280
     1
102
RTVSPost2010PropOp30
 70
     1
102
RTVSPost2010Prop31
280
     0
102
RTVSPost2010PropOp31
 70
     1
102
RTVSPost2010Prop32
280
     0
102
RTVSPost2010PropOp32
 70
     1
102
RTVSPost2010Prop33
280
     0
102
RTVSPost2010PropOp33
 70
     1
102
RTVSPost2010Prop34
280
     0
102
RTVSPost2010PropOp34
 70
     1
102
RTVSPost2010Prop35
280
     0
102
RTVSPost2010PropOp35
 70
     1
102
RTVSPost2010Prop36
280
     0
102
RTVSPost2010PropOp36
 70
     1
102
RTVSPost2010Prop37
 90
       50
102
RTVSPost2010PropOp37
 70
     1
102
RTVSPost2010Prop38
140
0.0
102
RTVSPost2010PropOp38
 70
     1
102
RTVSPost2010Prop39
140
1.0
102
RTVSPost2010PropOp39
 70
     1
102
RTVSPost2010Prop40
 90
        0
102
RTVSPost2010PropOp40
 70
     1
102
RTVSPost2010Prop41ColorIndex
 90
       18
102
RTVSPost2010Prop41ColorRGB
 90
-16777216
102
RTVSPost2010PropOp41
 70
     1
102
RTVSPost2010Prop42
 90
       50
102
RTVSPost2010PropOp42
 70
     1
102
RTVSPost2010Prop43
 90
        3
102
RTVSPost2010PropOp43
 70
     1
102
RTVSPost2010Prop44ColorIndex
 90
        5
102
RTVSPost2010Prop44ColorRGB
 90
      255
102
RTVSPost2010PropOp44
 70
     1
102
RTVSPost2010Prop45
280
     0
102
RTVSPost2010PropOp45
 70
     1
102
RTVSPost2010Prop46
 90
       50
102
RTVSPost2010PropOp46
 70
     1
102
RTVSPost2010Prop47
 90
       50
102
RTVSPost2010PropOp47
 70
     1
102
RTVSPost2010Prop48
 90
       50
102
RTVSPost2010PropOp48
 70
     1
102
RTVSPost2010Prop49
280
     0
102
RTVSPost2010PropOp49
 70
     1
102
RTVSPost2010Prop50
 90
       50
102
RTVSPost2010PropOp50
 70
     1
102
RTVSPost2010Prop51ColorIndex
 90
      256
102
RTVSPost2010Prop51ColorRGB
 90
-16777216
102
RTVSPost2010PropOp51
 70
     0
102
RTVSPost2010Prop52
140
1.0
102
RTVSPost2010PropOp52
 70
     0
102
RTVSPost2010Prop53
 90
        2
102
RTVSPost2010PropOp53
 70
     1
102
RTVSPost2010Prop54
  1
strokes_ogs.tif
102
RTVSPost2010PropOp54
 70
     1
102
RTVSPost2010Prop55
280
     0
102
RTVSPost2010PropOp55
 70
     1
102
RTVSPost2010Prop56
140
1.0
102
RTVSPost2010PropOp56
 70
     1
102
RTVSPost2010Prop57
140
1.0
102
RTVSPost2010PropOp57
 70
     1
  0
XRECORD
  5
2A3
102
{ACAD_REACTORS
330
2A2
102
}
330
2A2
100
AcDbXrecord
280
     1
102
RTVSPost2010Prop28
280
     0
102
RTVSPost2010PropOp28
 70
     1
102
RTVSPost2010Prop29
280
     1
102
RTVSPost2010PropOp29
 70
     1
102
RTVSPost2010Prop30
280
     1
102
RTVSPost2010PropOp30
 70
     1
102
RTVSPost2010Prop31
280
     0
102
RTVSPost2010PropOp31
 70
     1
102
RTVSPost2010Prop32
280
     0
102
RTVSPost2010PropOp32
 70
     1
102
RTVSPost2010Prop33
280
     0
102
RTVSPost2010PropOp33
 70
     1
102
RTVSPost2010Prop34
280
     0
102
RTVSPost2010PropOp34
 70
     1
102
RTVSPost2010Prop35
280
     0
102
RTVSPost2010PropOp35
 70
     1
102
RTVSPost2010Prop36
280
     0
102
RTVSPost2010PropOp36
 70
     1
102
RTVSPost2010Prop37
 90
       50
102
RTVSPost2010PropOp37
 70
     1
102
RTVSPost2010Prop38
140
0.0
102
RTVSPost2010PropOp38
 70
     1
102
RTVSPost2010Prop39
140
1.0
102
RTVSPost2010PropOp39
 70
     1
102
RTVSPost2010Prop40
 90
        0
102
RTVSPost2010PropOp40
 70
     1
102
RTVSPost2010Prop41ColorIndex
 90
       18
102
RTVSPost2010Prop41ColorRGB
 90
-16777216
102
RTVSPost2010PropOp41
 70
     1
102
RTVSPost2010Prop42
 90
       50
102
RTVSPost2010PropOp42
 70
     1
102
RTVSPost2010Prop43
 90
        3
102
RTVSPost2010PropOp43
 70
     1
102
RTVSPost2010Prop44ColorIndex
 90
        5
102
RTVSPost2010Prop44ColorRGB
 90
      255
102
RTVSPost2010PropOp44
 70
     1
102
RTVSPost2010Prop45
280
     0
102
RTVSPost2010PropOp45
 70
     1
102
RTVSPost2010Prop46
 90
       50
102
RTVSPost2010PropOp46
 70
     1
102
RTVSPost2010Prop47
 90
       50
102
RTVSPost2010PropOp47
 70
     1
102
RTVSPost2010Prop48
 90
       50
102
RTVSPost2010PropOp48
 70
     1
102
RTVSPost2010Prop49
280
     0
102
RTVSPost2010PropOp49
 70
     1
102
RTVSPost2010Prop50
 90
       50
102
RTVSPost2010PropOp50
 70
     1
102
RTVSPost2010Prop51ColorIndex
 90
      256
102
RTVSPost2010Prop51ColorRGB
 90
-16777216
102
RTVSPost2010PropOp51
 70
     0
102
RTVSPost2010Prop52
140
1.0
102
RTVSPost2010PropOp52
 70
     0
102
RTVSPost2010Prop53
 90
        2
102
RTVSPost2010PropOp53
 70
     1
102
RTVSPost2010Prop54
  1
strokes_ogs.tif
102
RTVSPost2010PropOp54
 70
     1
102
RTVSPost2010Prop55
280
     0
102
RTVSPost2010PropOp55
 70
     1
102
RTVSPost2010Prop56
140
1.0
102
RTVSPost2010PropOp56
 70
     1
102
RTVSPost2010Prop57
140
1.0
102
RTVSPost2010PropOp57
 70
     1
  0
XRECORD
  5
2A5
102
{ACAD_REACTORS
330
2A4
102
}
330
2A4
100
AcDbXrecord
280
     1
102
RTVSPost2010Prop28
280
     0
102
RTVSPost2010PropOp28
 70
     1
102
RTVSPost2010Prop29
280
     1
102
RTVSPost2010PropOp29
 70
     1
102
RTVSPost2010Prop30
280
     1
102
RTVSPost2010PropOp30
 70
     1
102
RTVSPost2010Prop31
280
     0
102
RTVSPost2010PropOp31
 70
     1
102
RTVSPost2010Prop32
280
     0
102
RTVSPost2010PropOp32
 70
     1
102
RTVSPost2010Prop33
280
     0
102
RTVSPost2010PropOp33
 70
     1
102
RTVSPost2010Prop34
280
     0
102
RTVSPost2010PropOp34
 70
     1
102
RTVSPost2010Prop35
280
     0
102
RTVSPost2010PropOp35
 70
     1
102
RTVSPost2010Prop36
280
     0
102
RTVSPost2010PropOp36
 70
     1
102
RTVSPost2010Prop37
 90
       50
102
RTVSPost2010PropOp37
 70
     1
102
RTVSPost2010Prop38
140
0.0
102
RTVSPost2010PropOp38
 70
     1
102
RTVSPost2010Prop39
140
1.0
102
RTVSPost2010PropOp39
 70
     1
102
RTVSPost2010Prop40
 90
        0
102
RTVSPost2010PropOp40
 70
     1
102
RTVSPost2010Prop41ColorIndex
 90
       18
102
RTVSPost2010Prop41ColorRGB
 90
-16777216
102
RTVSPost2010PropOp41
 70
     1
102
RTVSPost2010Prop42
 90
       50
102
RTVSPost2010PropOp42
 70
     1
102
RTVSPost2010Prop43
 90
        3
102
RTVSPost2010PropOp43
 70
     1
102
RTVSPost2010Prop44ColorIndex
 90
        5
102
RTVSPost2010Prop44ColorRGB
 90
      255
102
RTVSPost2010PropOp44
 70
     1
102
RTVSPost2010Prop45
280
     0
102
RTVSPost2010PropOp45
 70
     1
102
RTVSPost2010Prop46
 90
       50
102
RTVSPost2010PropOp46
 70
     1
102
RTVSPost2010Prop47
 90
       50
102
RTVSPost2010PropOp47
 70
     1
102
RTVSPost2010Prop48
 90
       50
102
RTVSPost2010PropOp48
 70
     1
102
RTVSPost2010Prop49
280
     0
102
RTVSPost2010PropOp49
 70
     1
102
RTVSPost2010Prop50
 90
       50
102
RTVSPost2010PropOp50
 70
     1
102
RTVSPost2010Prop51ColorIndex
 90
      256
102
RTVSPost2010Prop51ColorRGB
 90
-16777216
102
RTVSPost2010PropOp51
 70
     0
102
RTVSPost2010Prop52
140
1.0
102
RTVSPost2010PropOp52
 70
     0
102
RTVSPost2010Prop53
 90
        2
102
RTVSPost2010PropOp53
 70
     1
102
RTVSPost2010Prop54
  1
strokes_ogs.tif
102
RTVSPost2010PropOp54
 70
     1
102
RTVSPost2010Prop55
280
     0
102
RTVSPost2010PropOp55
 70
     1
102
RTVSPost2010Prop56
140
1.0
102
RTVSPost2010PropOp56
 70
     1
102
RTVSPost2010Prop57
140
1.0
102
RTVSPost2010PropOp57
 70
     1
  0
XRECORD
  5
29B
102
{ACAD_REACTORS
330
29A
102
}
330
29A
100
AcDbXrecord
280
     1
102
RTVSPost2010Prop28
280
     0
102
RTVSPost2010PropOp28
 70
     1
102
RTVSPost2010Prop29
280
     1
102
RTVSPost2010PropOp29
 70
     1
102
RTVSPost2010Prop30
280
     1
102
RTVSPost2010PropOp30
 70
     1
102
RTVSPost2010Prop31
280
     0
102
RTVSPost2010PropOp31
 70
     1
102
RTVSPost2010Prop32
280
     0
102
RTVSPost2010PropOp32
 70
     1
102
RTVSPost2010Prop33
280
     0
102
RTVSPost2010PropOp33
 70
     1
102
RTVSPost2010Prop34
280
     0
102
RTVSPost2010PropOp34
 70
     1
102
RTVSPost2010Prop35
280
     0
102
RTVSPost2010PropOp35
 70
     1
102
RTVSPost2010Prop36
280
     0
102
RTVSPost2010PropOp36
 70
     1
102
RTVSPost2010Prop37
 90
       50
102
RTVSPost2010PropOp37
 70
     1
102
RTVSPost2010Prop38
140
0.0
102
RTVSPost2010PropOp38
 70
     1
102
RTVSPost2010Prop39
140
1.0
102
RTVSPost2010PropOp39
 70
     1
102
RTVSPost2010Prop40
 90
        0
102
RTVSPost2010PropOp40
 70
     1
102
RTVSPost2010Prop41ColorIndex
 90
       18
102
RTVSPost2010Prop41ColorRGB
 90
-16777216
102
RTVSPost2010PropOp41
 70
     1
102
RTVSPost2010Prop42
 90
       50
102
RTVSPost2010PropOp42
 70
     1
102
RTVSPost2010Prop43
 90
        3
102
RTVSPost2010PropOp43
 70
     1
102
RTVSPost2010Prop44ColorIndex
 90
        5
102
RTVSPost2010Prop44ColorRGB
 90
      255
102
RTVSPost2010PropOp44
 70
     1
102
RTVSPost2010Prop45
280
     0
102
RTVSPost2010PropOp45
 70
     1
102
RTVSPost2010Prop46
 90
       50
102
RTVSPost2010PropOp46
 70
     1
102
RTVSPost2010Prop47
 90
       50
102
RTVSPost2010PropOp47
 70
     1
102
RTVSPost2010Prop48
 90
       50
102
RTVSPost2010PropOp48
 70
     1
102
RTVSPost2010Prop49
280
     0
102
RTVSPost2010PropOp49
 70
     1
102
RTVSPost2010Prop50
 90
       50
102
RTVSPost2010PropOp50
 70
     1
102
RTVSPost2010Prop51ColorIndex
 90
      256
102
RTVSPost2010Prop51ColorRGB
 90
-16777216
102
RTVSPost2010PropOp51
 70
     0
102
RTVSPost2010Prop52
140
1.0
102
RTVSPost2010PropOp52
 70
     0
102
RTVSPost2010Prop53
 90
        2
102
RTVSPost2010PropOp53
 70
     1
102
RTVSPost2010Prop54
  1
strokes_ogs.tif
102
RTVSPost2010PropOp54
 70
     1
102
RTVSPost2010Prop55
280
     0
102
RTVSPost2010PropOp55
 70
     1
102
RTVSPost2010Prop56
140
1.0
102
RTVSPost2010PropOp56
 70
     1
102
RTVSPost2010Prop57
140
1.0
102
RTVSPost2010PropOp57
 70
     1
  0
XRECORD
  5
28F
102
{ACAD_REACTORS
330
28E
102
}
330
28E
100
AcDbXrecord
280
     1
102
RTVSPost2010Prop28
280
     0
102
RTVSPost2010PropOp28
 70
     1
102
RTVSPost2010Prop29
280
     1
102
RTVSPost2010PropOp29
 70
     1
102
RTVSPost2010Prop30
280
     1
102
RTVSPost2010PropOp30
 70
     1
102
RTVSPost2010Prop31
280
     0
102
RTVSPost2010PropOp31
 70
     1
102
RTVSPost2010Prop32
280
     0
102
RTVSPost2010PropOp32
 70
     1
102
RTVSPost2010Prop33
280
     0
102
RTVSPost2010PropOp33
 70
     1
102
RTVSPost2010Prop34
280
     0
102
RTVSPost2010PropOp34
 70
     1
102
RTVSPost2010Prop35
280
     0
102
RTVSPost2010PropOp35
 70
     1
102
RTVSPost2010Prop36
280
     0
102
RTVSPost2010PropOp36
 70
     1
102
RTVSPost2010Prop37
 90
       50
102
RTVSPost2010PropOp37
 70
     1
102
RTVSPost2010Prop38
140
0.0
102
RTVSPost2010PropOp38
 70
     1
102
RTVSPost2010Prop39
140
1.0
102
RTVSPost2010PropOp39
 70
     1
102
RTVSPost2010Prop40
 90
        0
102
RTVSPost2010PropOp40
 70
     1
102
RTVSPost2010Prop41ColorIndex
 90
       18
102
RTVSPost2010Prop41ColorRGB
 90
-16777216
102
RTVSPost2010PropOp41
 70
     1
102
RTVSPost2010Prop42
 90
       50
102
RTVSPost2010PropOp42
 70
     1
102
RTVSPost2010Prop43
 90
        3
102
RTVSPost2010PropOp43
 70
     1
102
RTVSPost2010Prop44ColorIndex
 90
        5
102
RTVSPost2010Prop44ColorRGB
 90
      255
102
RTVSPost2010PropOp44
 70
     1
102
RTVSPost2010Prop45
280
     0
102
RTVSPost2010PropOp45
 70
     1
102
RTVSPost2010Prop46
 90
       50
102
RTVSPost2010PropOp46
 70
     1
102
RTVSPost2010Prop47
 90
       50
102
RTVSPost2010PropOp47
 70
     1
102
RTVSPost2010Prop48
 90
       50
102
RTVSPost2010PropOp48
 70
     1
102
RTVSPost2010Prop49
280
     0
102
RTVSPost2010PropOp49
 70
     1
102
RTVSPost2010Prop50
 90
       50
102
RTVSPost2010PropOp50
 70
     1
102
RTVSPost2010Prop51ColorIndex
 90
      256
102
RTVSPost2010Prop51ColorRGB
 90
-16777216
102
RTVSPost2010PropOp51
 70
     0
102
RTVSPost2010Prop52
140
1.0
102
RTVSPost2010PropOp52
 70
     0
102
RTVSPost2010Prop53
 90
        2
102
RTVSPost2010PropOp53
 70
     1
102
RTVSPost2010Prop54
  1
strokes_ogs.tif
102
RTVSPost2010PropOp54
 70
     1
102
RTVSPost2010Prop55
280
     0
102
RTVSPost2010PropOp55
 70
     1
102
RTVSPost2010Prop56
140
1.0
102
RTVSPost2010PropOp56
 70
     1
102
RTVSPost2010Prop57
140
1.0
102
RTVSPost2010PropOp57
 70
     1
  0
XRECORD
  5
2A7
102
{ACAD_REACTORS
330
2A6
102
}
330
2A6
100
AcDbXrecord
280
     1
102
RTVSPost2010Prop28
280
     0
102
RTVSPost2010PropOp28
 70
     1
102
RTVSPost2010Prop29
280
     1
102
RTVSPost2010PropOp29
 70
     1
102
RTVSPost2010Prop30
280
     1
102
RTVSPost2010PropOp30
 70
     1
102
RTVSPost2010Prop31
280
     0
102
RTVSPost2010PropOp31
 70
     1
102
RTVSPost2010Prop32
280
     0
102
RTVSPost2010PropOp32
 70
     1
102
RTVSPost2010Prop33
280
     0
102
RTVSPost2010PropOp33
 70
     1
102
RTVSPost2010Prop34
280
     0
102
RTVSPost2010PropOp34
 70
     1
102
RTVSPost2010Prop35
280
     0
102
RTVSPost2010PropOp35
 70
     1
102
RTVSPost2010Prop36
280
     0
102
RTVSPost2010PropOp36
 70
     1
102
RTVSPost2010Prop37
 90
       50
102
RTVSPost2010PropOp37
 70
     1
102
RTVSPost2010Prop38
140
0.0
102
RTVSPost2010PropOp38
 70
     1
102
RTVSPost2010Prop39
140
1.0
102
RTVSPost2010PropOp39
 70
     1
102
RTVSPost2010Prop40
 90
        0
102
RTVSPost2010PropOp40
 70
     1
102
RTVSPost2010Prop41ColorIndex
 90
       18
102
RTVSPost2010Prop41ColorRGB
 90
-16777216
102
RTVSPost2010PropOp41
 70
     1
102
RTVSPost2010Prop42
 90
       50
102
RTVSPost2010PropOp42
 70
     1
102
RTVSPost2010Prop43
 90
        3
102
RTVSPost2010PropOp43
 70
     1
102
RTVSPost2010Prop44ColorIndex
 90
        5
102
RTVSPost2010Prop44ColorRGB
 90
      255
102
RTVSPost2010PropOp44
 70
     1
102
RTVSPost2010Prop45
280
     0
102
RTVSPost2010PropOp45
 70
     1
102
RTVSPost2010Prop46
 90
       50
102
RTVSPost2010PropOp46
 70
     1
102
RTVSPost2010Prop47
 90
       50
102
RTVSPost2010PropOp47
 70
     1
102
RTVSPost2010Prop48
 90
       50
102
RTVSPost2010PropOp48
 70
     1
102
RTVSPost2010Prop49
280
     0
102
RTVSPost2010PropOp49
 70
     1
102
RTVSPost2010Prop50
 90
       50
102
RTVSPost2010PropOp50
 70
     1
102
RTVSPost2010Prop51ColorIndex
 90
      256
102
RTVSPost2010Prop51ColorRGB
 90
-16777216
102
RTVSPost2010PropOp51
 70
     0
102
RTVSPost2010Prop52
140
1.0
102
RTVSPost2010PropOp52
 70
     0
102
RTVSPost2010Prop53
 90
        2
102
RTVSPost2010PropOp53
 70
     1
102
RTVSPost2010Prop54
  1
strokes_ogs.tif
102
RTVSPost2010PropOp54
 70
     1
102
RTVSPost2010Prop55
280
     0
102
RTVSPost2010PropOp55
 70
     1
102
RTVSPost2010Prop56
140
1.0
102
RTVSPost2010PropOp56
 70
     1
102
RTVSPost2010Prop57
140
1.0
102
RTVSPost2010PropOp57
 70
     1
  0
ENDSEC
  0
EOF
