  0
SECTION
  2
HEADER
  9
$ACADVER
  1
AC1027
  9
$ACADMAINTVER
 70
   125
  9
$DWGCODEPAGE
  3
ANSI_1252
  9
$LASTSAVEDBY
  1
ufficio.tecnico
  9
$REQUIREDVERSIONS
160
                 0
  9
$INSBASE
 10
0.0
 20
0.0
 30
0.0
  9
$EXTMIN
 10
4.715233288751746
 20
-15.99952882215409
 30
0.0
  9
$EXTMAX
 10
15.98190130893855
 20
-13.71832198164917
 30
0.0
  9
$LIMMIN
 10
0.0
 20
0.0
  9
$LIMMAX
 10
12.0
 20
9.0
  9
$ORTHOMODE
 70
     1
  9
$REGENMODE
 70
     1
  9
$FILLMODE
 70
     1
  9
$QTEXTMODE
 70
     0
  9
$MIRRTEXT
 70
     0
  9
$LTSCALE
 40
1.0
  9
$ATTMODE
 70
     1
  9
$TEXTSIZE
 40
0.2
  9
$TRACEWID
 40
0.05
  9
$TEXTSTYLE
  7
Standard
  9
$CLAYER
  8
0
  9
$CELTYPE
  6
ByLayer
  9
$CECOLOR
 62
   256
  9
$CELTSCALE
 40
1.0
  9
$DISPSILH
 70
     0
  9
$DIMSCALE
 40
1.0
  9
$DIMASZ
 40
0.18
  9
$DIMEXO
 40
0.0625
  9
$DIMDLI
 40
0.38
  9
$DIMRND
 40
0.0
  9
$DIMDLE
 40
0.0
  9
$DIMEXE
 40
0.18
  9
$DIMTP
 40
0.0
  9
$DIMTM
 40
0.0
  9
$DIMTXT
 40
0.18
  9
$DIMCEN
 40
0.09
  9
$DIMTSZ
 40
0.0
  9
$DIMTOL
 70
     0
  9
$DIMLIM
 70
     0
  9
$DIMTIH
 70
     1
  9
$DIMTOH
 70
     1
  9
$DIMSE1
 70
     0
  9
$DIMSE2
 70
     0
  9
$DIMTAD
 70
     0
  9
$DIMZIN
 70
     0
  9
$DIMBLK
  1

  9
$DIMASO
 70
     1
  9
$DIMSHO
 70
     1
  9
$DIMPOST
  1

  9
$DIMAPOST
  1

  9
$DIMALT
 70
     0
  9
$DIMALTD
 70
     2
  9
$DIMALTF
 40
25.4
  9
$DIMLFAC
 40
1.0
  9
$DIMTOFL
 70
     0
  9
$DIMTVP
 40
0.0
  9
$DIMTIX
 70
     0
  9
$DIMSOXD
 70
     0
  9
$DIMSAH
 70
     0
  9
$DIMBLK1
  1

  9
$DIMBLK2
  1

  9
$DIMSTYLE
  2
Standard
  9
$DIMCLRD
 70
     0
  9
$DIMCLRE
 70
     0
  9
$DIMCLRT
 70
     0
  9
$DIMTFAC
 40
1.0
  9
$DIMGAP
 40
0.09
  9
$DIMJUST
 70
     0
  9
$DIMSD1
 70
     0
  9
$DIMSD2
 70
     0
  9
$DIMTOLJ
 70
     1
  9
$DIMTZIN
 70
     0
  9
$DIMALTZ
 70
     0
  9
$DIMALTTZ
 70
     0
  9
$DIMUPT
 70
     0
  9
$DIMDEC
 70
     4
  9
$DIMTDEC
 70
     4
  9
$DIMALTU
 70
     2
  9
$DIMALTTD
 70
     2
  9
$DIMTXSTY
  7
Standard
  9
$DIMAUNIT
 70
     0
  9
$DIMADEC
 70
     0
  9
$DIMALTRND
 40
0.0
  9
$DIMAZIN
 70
     0
  9
$DIMDSEP
 70
    46
  9
$DIMATFIT
 70
     3
  9
$DIMFRAC
 70
     0
  9
$DIMLDRBLK
  1

  9
$DIMLUNIT
 70
     2
  9
$DIMLWD
 70
    -2
  9
$DIMLWE
 70
    -2
  9
$DIMTMOVE
 70
     0
  9
$DIMFXL
 40
1.0
  9
$DIMFXLON
 70
     0
  9
$DIMJOGANG
 40
0.7853981633974483
  9
$DIMTFILL
 70
     0
  9
$DIMTFILLCLR
 70
     0
  9
$DIMARCSYM
 70
     0
  9
$DIMLTYPE
  6

  9
$DIMLTEX1
  6

  9
$DIMLTEX2
  6

  9
$DIMTXTDIRECTION
 70
     0
  9
$LUNITS
 70
     2
  9
$LUPREC
 70
     4
  9
$SKETCHINC
 40
0.1
  9
$FILLETRAD
 40
0.0
  9
$AUNITS
 70
     0
  9
$AUPREC
 70
     0
  9
$MENU
  1
.
  9
$ELEVATION
 40
0.0
  9
$PELEVATION
 40
0.0
  9
$THICKNESS
 40
0.0
  9
$LIMCHECK
 70
     0
  9
$CHAMFERA
 40
0.0
  9
$CHAMFERB
 40
0.0
  9
$CHAMFERC
 40
0.0
  9
$CHAMFERD
 40
0.0
  9
$SKPOLY
 70
     0
  9
$TDCREATE
 40
2459858.678518518
  9
$TDUCREATE
 40
2459858.595185185
  9
$TDUPDATE
 40
2459864.603668982
  9
$TDUUPDATE
 40
2459864.520335648
  9
$TDINDWG
 40
0.0010879630
  9
$TDUSRTIMER
 40
0.0010879630
  9
$USRTIMER
 70
     1
  9
$ANGBASE
 50
0.0
  9
$ANGDIR
 70
     0
  9
$PDMODE
 70
     0
  9
$PDSIZE
 40
0.0
  9
$PLINEWID
 40
0.0
  9
$SPLFRAME
 70
     0
  9
$SPLINETYPE
 70
     6
  9
$SPLINESEGS
 70
     8
  9
$HANDSEED
  5
224
  9
$SURFTAB1
 70
     6
  9
$SURFTAB2
 70
     6
  9
$SURFTYPE
 70
     6
  9
$SURFU
 70
     6
  9
$SURFV
 70
     6
  9
$UCSBASE
  2

  9
$UCSNAME
  2

  9
$UCSORG
 10
0.0
 20
0.0
 30
0.0
  9
$UCSXDIR
 10
1.0
 20
0.0
 30
0.0
  9
$UCSYDIR
 10
0.0
 20
1.0
 30
0.0
  9
$UCSORTHOREF
  2

  9
$UCSORTHOVIEW
 70
     0
  9
$UCSORGTOP
 10
0.0
 20
0.0
 30
0.0
  9
$UCSORGBOTTOM
 10
0.0
 20
0.0
 30
0.0
  9
$UCSORGLEFT
 10
0.0
 20
0.0
 30
0.0
  9
$UCSORGRIGHT
 10
0.0
 20
0.0
 30
0.0
  9
$UCSORGFRONT
 10
0.0
 20
0.0
 30
0.0
  9
$UCSORGBACK
 10
0.0
 20
0.0
 30
0.0
  9
$PUCSBASE
  2

  9
$PUCSNAME
  2

  9
$PUCSORG
 10
0.0
 20
0.0
 30
0.0
  9
$PUCSXDIR
 10
1.0
 20
0.0
 30
0.0
  9
$PUCSYDIR
 10
0.0
 20
1.0
 30
0.0
  9
$PUCSORTHOREF
  2

  9
$PUCSORTHOVIEW
 70
     0
  9
$PUCSORGTOP
 10
0.0
 20
0.0
 30
0.0
  9
$PUCSORGBOTTOM
 10
0.0
 20
0.0
 30
0.0
  9
$PUCSORGLEFT
 10
0.0
 20
0.0
 30
0.0
  9
$PUCSORGRIGHT
 10
0.0
 20
0.0
 30
0.0
  9
$PUCSORGFRONT
 10
0.0
 20
0.0
 30
0.0
  9
$PUCSORGBACK
 10
0.0
 20
0.0
 30
0.0
  9
$USERI1
 70
     0
  9
$USERI2
 70
     0
  9
$USERI3
 70
     0
  9
$USERI4
 70
     0
  9
$USERI5
 70
     0
  9
$USERR1
 40
0.0
  9
$USERR2
 40
0.0
  9
$USERR3
 40
0.0
  9
$USERR4
 40
0.0
  9
$USERR5
 40
0.0
  9
$WORLDVIEW
 70
     1
  9
$SHADEDGE
 70
     3
  9
$SHADEDIF
 70
    70
  9
$TILEMODE
 70
     1
  9
$MAXACTVP
 70
    64
  9
$PINSBASE
 10
0.0
 20
0.0
 30
0.0
  9
$PLIMCHECK
 70
     0
  9
$PEXTMIN
 10
1.000000000000000E+20
 20
1.000000000000000E+20
 30
1.000000000000000E+20
  9
$PEXTMAX
 10
-1.000000000000000E+20
 20
-1.000000000000000E+20
 30
-1.000000000000000E+20
  9
$PLIMMIN
 10
0.0
 20
0.0
  9
$PLIMMAX
 10
12.0
 20
9.0
  9
$UNITMODE
 70
     0
  9
$VISRETAIN
 70
     1
  9
$PLINEGEN
 70
     0
  9
$PSLTSCALE
 70
     1
  9
$TREEDEPTH
 70
  3020
  9
$CMLSTYLE
  2
Standard
  9
$CMLJUST
 70
     0
  9
$CMLSCALE
 40
1.0
  9
$PROXYGRAPHICS
 70
     1
  9
$MEASUREMENT
 70
     0
  9
$CELWEIGHT
370
    -1
  9
$ENDCAPS
280
     0
  9
$JOINSTYLE
280
     0
  9
$LWDISPLAY
290
     1
  9
$INSUNITS
 70
     5
  9
$HYPERLINKBASE
  1

  9
$STYLESHEET
  1

  9
$XEDIT
290
     1
  9
$CEPSNTYPE
380
     0
  9
$PSTYLEMODE
290
     1
  9
$FINGERPRINTGUID
  2
{19E0371A-0C37-EC48-A3A5-501678A80F92}
  9
$VERSIONGUID
  2
{F3C6B184-9A02-B242-9651-1E2662A62E72}
  9
$EXTNAMES
290
     1
  9
$PSVPSCALE
 40
0.0
  9
$OLESTARTUP
290
     0
  9
$SORTENTS
280
   127
  9
$INDEXCTL
280
     0
  9
$HIDETEXT
280
     1
  9
$XCLIPFRAME
280
     2
  9
$HALOGAP
280
     0
  9
$OBSCOLOR
 70
   257
  9
$OBSLTYPE
280
     0
  9
$INTERSECTIONDISPLAY
280
     0
  9
$INTERSECTIONCOLOR
 70
   257
  9
$DIMASSOC
280
     2
  9
$PROJECTNAME
  1

  9
$CAMERADISPLAY
290
     0
  9
$LENSLENGTH
 40
50.0
  9
$CAMERAHEIGHT
 40
0.0
  9
$STEPSPERSEC
 40
2.0
  9
$STEPSIZE
 40
6.0
  9
$3DDWFPREC
 40
2.0
  9
$PSOLWIDTH
 40
0.25
  9
$PSOLHEIGHT
 40
4.0
  9
$LOFTANG1
 40
1.570796326794896
  9
$LOFTANG2
 40
1.570796326794896
  9
$LOFTMAG1
 40
0.0
  9
$LOFTMAG2
 40
0.0
  9
$LOFTPARAM
 70
     7
  9
$LOFTNORMALS
280
     1
  9
$LATITUDE
 40
37.795
  9
$LONGITUDE
 40
-122.394
  9
$NORTHDIRECTION
 40
0.0
  9
$TIMEZONE
 70
 -8000
  9
$LIGHTGLYPHDISPLAY
280
     1
  9
$TILEMODELIGHTSYNCH
280
     1
  9
$CMATERIAL
347
11
  9
$SOLIDHIST
280
     0
  9
$SHOWHIST
280
     1
  9
$DWFFRAME
280
     2
  9
$DGNFRAME
280
     0
  9
$REALWORLDSCALE
290
     1
  9
$INTERFERECOLOR
 62
     1
  9
$INTERFEREOBJVS
345
33
  9
$INTERFEREVPVS
346
30
  9
$CSHADOW
280
     0
  9
$SHADOWPLANELOCATION
 40
0.0
  0
ENDSEC
  0
SECTION
  2
CLASSES
  0
CLASS
  1
ACDBDICTIONARYWDFLT
  2
AcDbDictionaryWithDefault
  3
ObjectDBX Classes
 90
        0
 91
        1
280
     0
281
     0
  0
CLASS
  1
MATERIAL
  2
AcDbMaterial
  3
ObjectDBX Classes
 90
     1153
 91
        3
280
     0
281
     0
  0
CLASS
  1
VISUALSTYLE
  2
AcDbVisualStyle
  3
ObjectDBX Classes
 90
     4095
 91
       24
280
     0
281
     0
  0
CLASS
  1
SCALE
  2
AcDbScale
  3
ObjectDBX Classes
 90
     1153
 91
       17
280
     0
281
     0
  0
CLASS
  1
TABLESTYLE
  2
AcDbTableStyle
  3
ObjectDBX Classes
 90
     4095
 91
        1
280
     0
281
     0
  0
CLASS
  1
MLEADERSTYLE
  2
AcDbMLeaderStyle
  3
ACDB_MLEADERSTYLE_CLASS
 90
     4095
 91
        1
280
     0
281
     0
  0
CLASS
  1
ACDBSECTIONVIEWSTYLE
  2
AcDbSectionViewStyle
  3
ObjectDBX Classes
 90
     1025
 91
        1
280
     0
281
     0
  0
CLASS
  1
ACDBDETAILVIEWSTYLE
  2
AcDbDetailViewStyle
  3
ObjectDBX Classes
 90
     1025
 91
        1
280
     0
281
     0
  0
CLASS
  1
DICTIONARYVAR
  2
AcDbDictionaryVar
  3
ObjectDBX Classes
 90
        0
 91
        5
280
     0
281
     0
  0
CLASS
  1
SORTENTSTABLE
  2
AcDbSortentsTable
  3
ObjectDBX Classes
 90
        0
 91
        3
280
     0
281
     0
  0
CLASS
  1
CELLSTYLEMAP
  2
AcDbCellStyleMap
  3
ObjectDBX Classes
 90
     1152
 91
        1
280
     0
281
     0
  0
ENDSEC
  0
SECTION
  2
TABLES
  0
TABLE
  2
VPORT
  5
8
330
0
100
AcDbSymbolTable
 70
     1
1001
ACAD
1000
DbSaveVer
1071
      249
  0
VPORT
  5
57
330
8
100
AcDbSymbolTableRecord
100
AcDbViewportTableRecord
  2
*Active
 70
     0
 10
0.0
 20
0.0
 11
1.0
 21
1.0
 12
1.659316317302241
 22
-1.598744745412902
 13
0.0
 23
0.0
 14
1.0
 24
1.0
 15
0.0
 25
0.0
 16
0.0
 26
0.0
 36
1.0
 17
10.50000721959722
 27
-14.85000416295415
 37
0.0
 40
12.08064967238004
 41
1.855329949238578
 42
50.0
 43
0.0
 44
0.0
 50
0.0
 51
0.0
 71
     0
 72
   100
 73
     1
 74
     1
 75
     0
 76
     0
 77
     0
 78
     0
281
     0
 65
     1
110
0.0
120
0.0
130
0.0
111
1.0
121
0.0
131
0.0
112
0.0
122
1.0
132
0.0
 79
     0
146
0.0
348
2F
 60
     3
 61
     5
292
     1
282
     1
141
0.0
142
0.0
 63
   250
421
  3355443
1001
ACAD_NAV_VCDISPLAY
1070
     3
  0
ENDTAB
  0
TABLE
  2
LTYPE
  5
5
330
0
100
AcDbSymbolTable
 70
     3
  0
LTYPE
  5
5B
330
5
100
AcDbSymbolTableRecord
100
AcDbLinetypeTableRecord
  2
ByBlock
 70
     0
  3

 72
    65
 73
     0
 40
0.0
  0
LTYPE
  5
5C
330
5
100
AcDbSymbolTableRecord
100
AcDbLinetypeTableRecord
  2
ByLayer
 70
     0
  3

 72
    65
 73
     0
 40
0.0
  0
LTYPE
  5
5D
330
5
100
AcDbSymbolTableRecord
100
AcDbLinetypeTableRecord
  2
Continuous
 70
     0
  3
Solid line
 72
    65
 73
     0
 40
0.0
  0
ENDTAB
  0
TABLE
  2
LAYER
  5
2
330
0
100
AcDbSymbolTable
 70
     2
  0
LAYER
  5
54
330
2
100
AcDbSymbolTableRecord
100
AcDbLayerTableRecord
  2
0
 70
     0
 62
     7
  6
Continuous
370
    -3
390
F
347
21
348
0
  0
LAYER
  5
78
330
2
100
AcDbSymbolTableRecord
100
AcDbLayerTableRecord
  2
Livello 1
 70
     0
 62
     7
  6
Continuous
370
     0
390
F
347
21
348
0
  0
ENDTAB
  0
TABLE
  2
STYLE
  5
3
330
0
100
AcDbSymbolTable
 70
     2
  0
STYLE
  5
55
330
3
100
AcDbSymbolTableRecord
100
AcDbTextStyleTableRecord
  2
Standard
 70
     0
 40
0.0
 41
1.0
 50
0.0
 71
     0
 42
0.2
  3
txt
  4

  0
STYLE
  5
5A
330
3
100
AcDbSymbolTableRecord
100
AcDbTextStyleTableRecord
  2
Annotative
 70
     0
 40
0.0
 41
1.0
 50
0.0
 71
     0
 42
0.2
  3
txt
  4

1001
AcadAnnotative
1000
AnnotativeData
1002
{
1070
     1
1070
     1
1002
}
  0
ENDTAB
  0
TABLE
  2
VIEW
  5
6
330
0
100
AcDbSymbolTable
 70
     0
  0
ENDTAB
  0
TABLE
  2
UCS
  5
7
330
0
100
AcDbSymbolTable
 70
     0
  0
ENDTAB
  0
TABLE
  2
APPID
  5
9
330
0
100
AcDbSymbolTable
 70
     4
  0
APPID
  5
56
330
9
100
AcDbSymbolTableRecord
100
AcDbRegAppTableRecord
  2
ACAD
 70
     0
  0
APPID
  5
5E
330
9
100
AcDbSymbolTableRecord
100
AcDbRegAppTableRecord
  2
AcadAnnotative
 70
     0
  0
APPID
  5
1FF
330
9
100
AcDbSymbolTableRecord
100
AcDbRegAppTableRecord
  2
ACAD_EXEMPT_FROM_CAD_STANDARDS
 70
     0
  0
APPID
  5
20C
330
9
100
AcDbSymbolTableRecord
100
AcDbRegAppTableRecord
  2
ACAD_NAV_VCDISPLAY
 70
     0
  0
ENDTAB
  0
TABLE
  2
DIMSTYLE
  5
A
330
0
100
AcDbSymbolTable
 70
     3
100
AcDbDimStyleTable
 71
     1
340
58
  0
DIMSTYLE
105
58
330
A
100
AcDbSymbolTableRecord
100
AcDbDimStyleTableRecord
  2
Standard
 70
     0
340
55
  0
DIMSTYLE
105
59
330
A
100
AcDbSymbolTableRecord
100
AcDbDimStyleTableRecord
  2
Annotative
 70
     0
340
55
1001
AcadAnnotative
1000
AnnotativeData
1002
{
1070
     1
1070
     1
1002
}
  0
ENDTAB
  0
TABLE
  2
BLOCK_RECORD
  5
1
330
0
100
AcDbSymbolTable
 70
    18
  0
BLOCK_RECORD
  5
70
102
{ACAD_XDICTIONARY
360
185
102
}
330
1
100
AcDbSymbolTableRecord
100
AcDbBlockTableRecord
  2
*Model_Space
340
73
 70
     0
280
     1
281
     0
  0
BLOCK_RECORD
  5
6C
330
1
100
AcDbSymbolTableRecord
100
AcDbBlockTableRecord
  2
*Paper_Space
340
6F
 70
     0
280
     1
281
     0
  0
BLOCK_RECORD
  5
74
330
1
100
AcDbSymbolTableRecord
100
AcDbBlockTableRecord
  2
*Paper_Space0
340
77
 70
     0
280
     1
281
     0
  0
BLOCK_RECORD
  5
7B
330
1
100
AcDbSymbolTableRecord
100
AcDbBlockTableRecord
  2
Block_0
340
0
 70
     0
280
     1
281
     0
  0
BLOCK_RECORD
  5
7F
330
1
100
AcDbSymbolTableRecord
100
AcDbBlockTableRecord
  2
Block_1
340
0
102
{BLKREFS
331
80
102
}
 70
     0
280
     1
281
     0
  0
BLOCK_RECORD
  5
90
330
1
100
AcDbSymbolTableRecord
100
AcDbBlockTableRecord
  2
Block_2
340
0
 70
     0
280
     1
281
     0
  0
BLOCK_RECORD
  5
97
330
1
100
AcDbSymbolTableRecord
100
AcDbBlockTableRecord
  2
Block_3
340
0
 70
     0
280
     1
281
     0
  0
BLOCK_RECORD
  5
9E
330
1
100
AcDbSymbolTableRecord
100
AcDbBlockTableRecord
  2
Block_4
340
0
 70
     0
280
     1
281
     0
  0
BLOCK_RECORD
  5
A2
330
1
100
AcDbSymbolTableRecord
100
AcDbBlockTableRecord
  2
Block_5
340
0
102
{BLKREFS
331
A3
102
}
 70
     0
280
     1
281
     0
  0
BLOCK_RECORD
  5
A6
330
1
100
AcDbSymbolTableRecord
100
AcDbBlockTableRecord
  2
Block_6
340
0
102
{BLKREFS
331
A7
102
}
 70
     0
280
     1
281
     0
  0
BLOCK_RECORD
  5
AF
330
1
100
AcDbSymbolTableRecord
100
AcDbBlockTableRecord
  2
Block_7
340
0
102
{BLKREFS
331
B0
102
}
 70
     0
280
     1
281
     0
  0
BLOCK_RECORD
  5
B6
330
1
100
AcDbSymbolTableRecord
100
AcDbBlockTableRecord
  2
Block_8
340
0
102
{BLKREFS
331
B7
102
}
 70
     0
280
     1
281
     0
  0
BLOCK_RECORD
  5
BD
330
1
100
AcDbSymbolTableRecord
100
AcDbBlockTableRecord
  2
Block_9
340
0
 70
     0
280
     1
281
     0
  0
BLOCK_RECORD
  5
C1
330
1
100
AcDbSymbolTableRecord
100
AcDbBlockTableRecord
  2
Block_10
340
0
102
{BLKREFS
331
C2
102
}
 70
     0
280
     1
281
     0
  0
BLOCK_RECORD
  5
CB
330
1
100
AcDbSymbolTableRecord
100
AcDbBlockTableRecord
  2
Block_11
340
0
 70
     0
280
     1
281
     0
  0
BLOCK_RECORD
  5
D2
330
1
100
AcDbSymbolTableRecord
100
AcDbBlockTableRecord
  2
Block_12
340
0
 70
     0
280
     1
281
     0
  0
BLOCK_RECORD
  5
D9
330
1
100
AcDbSymbolTableRecord
100
AcDbBlockTableRecord
  2
Block_13
340
0
 70
     0
280
     1
281
     0
  0
ENDTAB
  0
ENDSEC
  0
SECTION
  2
BLOCKS
  0
BLOCK
  5
71
330
70
100
AcDbEntity
  8
0
100
AcDbBlockBegin
  2
*Model_Space
 70
     0
 10
0.0
 20
0.0
 30
0.0
  3
*Model_Space
  1

  0
ENDBLK
  5
72
330
70
100
AcDbEntity
  8
0
100
AcDbBlockEnd
  0
BLOCK
  5
6D
330
6C
100
AcDbEntity
 67
     1
  8
0
100
AcDbBlockBegin
  2
*Paper_Space
 70
     0
 10
0.0
 20
0.0
 30
0.0
  3
*Paper_Space
  1

  0
ENDBLK
  5
6E
330
6C
100
AcDbEntity
 67
     1
  8
0
100
AcDbBlockEnd
  0
BLOCK
  5
75
330
74
100
AcDbEntity
 67
     1
  8
0
100
AcDbBlockBegin
  2
*Paper_Space0
 70
     0
 10
0.0
 20
0.0
 30
0.0
  3
*Paper_Space0
  1

  0
ENDBLK
  5
76
330
74
100
AcDbEntity
 67
     1
  8
0
100
AcDbBlockEnd
  0
BLOCK
  5
7D
330
7B
100
AcDbEntity
  8
0
100
AcDbBlockBegin
  2
Block_0
 70
     0
 10
0.0
 20
0.0
 30
0.0
  3
Block_0
  1

  0
INSERT
  5
80
330
7B
100
AcDbEntity
  8
Livello 1
100
AcDbBlockReference
  2
Block_1
 10
0.0
 20
0.0
 30
0.0
  0
ENDBLK
  5
7E
330
7B
100
AcDbEntity
  8
0
100
AcDbBlockEnd
  0
BLOCK
  5
81
330
7F
100
AcDbEntity
  8
0
100
AcDbBlockBegin
  2
Block_1
 70
     0
 10
0.0
 20
0.0
 30
0.0
  3
Block_1
  1

  0
SPLINE
  5
83
330
7F
100
AcDbEntity
  8
Livello 1
100
AcDbSpline
210
0.0
220
0.0
230
1.0
 70
     9
 71
     3
 72
    17
 73
    13
 74
     0
 42
0.000000001
 43
0.0000000001
 40
0.0
 40
0.0
 40
0.0
 40
0.0
 40
1.0
 40
1.0
 40
1.0
 40
2.0
 40
2.0
 40
2.0
 40
3.0
 40
3.0
 40
3.0
 40
4.0
 40
4.0
 40
4.0
 40
4.0
 10
10.0286901830397
 20
-15.36912217497716
 30
0.0
 10
10.03547702114564
 20
-15.37759710987088
 30
0.0
 10
10.04589843498852
 20
-15.38341932124095
 30
0.0
 10
10.05945488572298
 20
-15.38341932124095
 30
0.0
 10
10.08877264830246
 20
-15.38341932124095
 30
0.0
 10
10.10331095125021
 20
-15.35675428218511
 30
0.0
 10
10.10331095125021
 20
-15.33012369408413
 30
0.0
 10
10.10331095125021
 20
-15.31847927134399
 30
0.0
 10
10.10064100224914
 20
-15.30711045624267
 30
0.0
 10
10.09481879087907
 20
-15.29767089461308
 30
0.0
 10
10.09481879087907
 20
-15.29767089461308
 30
0.0
 10
10.0286901830397
 20
-15.36912217497716
 30
0.0
 10
10.0286901830397
 20
-15.36912217497716
 30
0.0
  0
SPLINE
  5
84
330
7F
100
AcDbEntity
  8
Livello 1
100
AcDbSpline
210
0.0
220
0.0
230
1.0
 70
     9
 71
     3
 72
    17
 73
    13
 74
     0
 42
0.000000001
 43
0.0000000001
 40
0.0
 40
0.0
 40
0.0
 40
0.0
 40
1.0
 40
1.0
 40
1.0
 40
2.0
 40
2.0
 40
2.0
 40
3.0
 40
3.0
 40
3.0
 40
4.0
 40
4.0
 40
4.0
 40
4.0
 10
10.09046074509023
 20
-15.29136636987507
 30
0.0
 10
10.08344997577775
 20
-15.28265027829739
 30
0.0
 10
10.07302856193486
 20
-15.27682806692732
 30
0.0
 10
10.05945488572298
 20
-15.27682806692732
 30
0.0
 10
10.03015434862093
 20
-15.27682806692732
 30
0.0
 10
10.01561604567318
 20
-15.3034586550283
 30
0.0
 10
10.01561604567318
 20
-15.33012369408413
 30
0.0
 10
10.01561604567318
 20
-15.34173366586943
 30
0.0
 10
10.01828599467424
 20
-15.3531369319256
 30
0.0
 10
10.02433213725086
 20
-15.36281765023916
 30
0.0
 10
10.02433213725086
 20
-15.36281765023916
 30
0.0
 10
10.09046074509023
 20
-15.29136636987507
 30
0.0
 10
10.09046074509023
 20
-15.29136636987507
 30
0.0
  0
SPLINE
  5
85
330
7F
100
AcDbEntity
  8
Livello 1
100
AcDbSpline
210
0.0
220
0.0
230
1.0
 70
    11
 71
     3
 72
    41
 73
    37
 74
     0
 42
0.000000001
 43
0.0000000001
 40
0.0
 40
0.0
 40
0.0
 40
0.0
 40
1.0
 40
1.0
 40
1.0
 40
2.0
 40
2.0
 40
2.0
 40
3.0
 40
3.0
 40
3.0
 40
4.0
 40
4.0
 40
4.0
 40
5.0
 40
5.0
 40
5.0
 40
6.0
 40
6.0
 40
6.0
 40
7.0
 40
7.0
 40
7.0
 40
8.0
 40
8.0
 40
8.0
 40
9.0
 40
9.0
 40
9.0
 40
10.0
 40
10.0
 40
10.0
 40
11.0
 40
11.0
 40
11.0
 40
12.0
 40
12.0
 40
12.0
 40
12.0
 10
10.11857272424987
 20
-15.27172932560915
 30
0.0
 10
10.11857272424987
 20
-15.27172932560915
 30
0.0
 10
10.10548136140592
 20
-15.28602647187294
 30
0.0
 10
10.10548136140592
 20
-15.28602647187294
 30
0.0
 10
10.11421467846103
 20
-15.29815320798102
 30
0.0
 10
10.11857272424987
 20
-15.31365613766464
 30
0.0
 10
10.11857272424987
 20
-15.33012369408413
 30
0.0
 10
10.11857272424987
 20
-15.36595268713073
 30
0.0
 10
10.0977298965641
 20
-15.39623507644608
 30
0.0
 10
10.05945488572298
 20
-15.39623507644608
 30
0.0
 10
10.04226385925158
 20
-15.39623507644608
 30
0.0
 10
10.02844902635573
 20
-15.39017170839204
 30
0.0
 10
10.01876830804218
 20
-15.37976752002658
 30
0.0
 10
10.01876830804218
 20
-15.37976752002658
 30
0.0
 10
10.00447116177839
 20
-15.39527044971021
 30
0.0
 10
10.00447116177839
 20
-15.39527044971021
 30
0.0
 10
10.00447116177839
 20
-15.39527044971021
 30
0.0
 10
9.999148489253684
 20
-15.39041286507601
 30
0.0
 10
9.999148489253684
 20
-15.39041286507601
 30
0.0
 10
9.999148489253684
 20
-15.39041286507601
 30
0.0
 10
10.0139279488854
 20
-15.37418646534048
 30
0.0
 10
10.0139279488854
 20
-15.37418646534048
 30
0.0
 10
10.00495347514633
 20
-15.36257649355519
 30
0.0
 10
10.00035427267352
 20
-15.3468324071876
 30
0.0
 10
10.00035427267352
 20
-15.33012369408413
 30
0.0
 10
10.00035427267352
 20
-15.29426025008268
 30
0.0
 10
10.02119710035928
 20
-15.26397786076733
 30
0.0
 10
10.05945488572298
 20
-15.26397786076733
 30
0.0
 10
10.07690429435577
 20
-15.26397786076733
 30
0.0
 10
10.09096028393559
 20
-15.27028238550534
 30
0.0
 10
10.10064100224914
 20
-15.28044541718683
 30
0.0
 10
10.10064100224914
 20
-15.28044541718683
 30
0.0
 10
10.11323282624773
 20
-15.2669061919298
 30
0.0
 10
10.11323282624773
 20
-15.2669061919298
 30
0.0
 10
10.11323282624773
 20
-15.2669061919298
 30
0.0
 10
10.11857272424987
 20
-15.27172932560915
 30
0.0
 10
10.11857272424987
 20
-15.27172932560915
 30
0.0
  0
HATCH
  5
86
330
7F
100
AcDbEntity
  8
Livello 1
 62
    18
420
        0
440
 33554687
100
AcDbHatch
 10
0.0
 20
0.0
 30
0.0
210
0.0
220
0.0
230
1.0
  2
SOLID
 70
     1
 71
     1
 91
        3
 92
        1
 93
        1
 72
     4
 94
        3
 73
     0
 74
     0
 95
       17
 96
       13
 40
0.0
 40
0.0
 40
0.0
 40
0.0
 40
1.0
 40
1.0
 40
1.0
 40
2.0
 40
2.0
 40
2.0
 40
3.0
 40
3.0
 40
3.0
 40
4.0
 40
4.0
 40
4.0
 40
4.0
 10
10.0286901830397
 20
-15.36912217497716
 10
10.03547702114564
 20
-15.37759710987088
 10
10.04589843498852
 20
-15.38341932124095
 10
10.05945488572298
 20
-15.38341932124095
 10
10.08877264830246
 20
-15.38341932124095
 10
10.10331095125021
 20
-15.35675428218511
 10
10.10331095125021
 20
-15.33012369408413
 10
10.10331095125021
 20
-15.31847927134399
 10
10.10064100224914
 20
-15.30711045624267
 10
10.09481879087907
 20
-15.29767089461308
 10
10.09481879087907
 20
-15.29767089461308
 10
10.0286901830397
 20
-15.36912217497716
 10
10.0286901830397
 20
-15.36912217497716
 97
        0
 97
        1
330
83
 92
        1
 93
        1
 72
     4
 94
        3
 73
     0
 74
     0
 95
       17
 96
       13
 40
0.0
 40
0.0
 40
0.0
 40
0.0
 40
1.0
 40
1.0
 40
1.0
 40
2.0
 40
2.0
 40
2.0
 40
3.0
 40
3.0
 40
3.0
 40
4.0
 40
4.0
 40
4.0
 40
4.0
 10
10.09046074509023
 20
-15.29136636987507
 10
10.08344997577775
 20
-15.28265027829739
 10
10.07302856193486
 20
-15.27682806692732
 10
10.05945488572298
 20
-15.27682806692732
 10
10.03015434862093
 20
-15.27682806692732
 10
10.01561604567318
 20
-15.3034586550283
 10
10.01561604567318
 20
-15.33012369408413
 10
10.01561604567318
 20
-15.34173366586943
 10
10.01828599467424
 20
-15.3531369319256
 10
10.02433213725086
 20
-15.36281765023916
 10
10.02433213725086
 20
-15.36281765023916
 10
10.09046074509023
 20
-15.29136636987507
 10
10.09046074509023
 20
-15.29136636987507
 97
        0
 97
        1
330
84
 92
        1
 93
        1
 72
     4
 94
        3
 73
     0
 74
     0
 95
       41
 96
       37
 40
0.0
 40
0.0
 40
0.0
 40
0.0
 40
1.0
 40
1.0
 40
1.0
 40
2.0
 40
2.0
 40
2.0
 40
3.0
 40
3.0
 40
3.0
 40
4.0
 40
4.0
 40
4.0
 40
5.0
 40
5.0
 40
5.0
 40
6.0
 40
6.0
 40
6.0
 40
7.0
 40
7.0
 40
7.0
 40
8.0
 40
8.0
 40
8.0
 40
9.0
 40
9.0
 40
9.0
 40
10.0
 40
10.0
 40
10.0
 40
11.0
 40
11.0
 40
11.0
 40
12.0
 40
12.0
 40
12.0
 40
12.0
 10
10.11857272424987
 20
-15.27172932560915
 10
10.11857272424987
 20
-15.27172932560915
 10
10.10548136140592
 20
-15.28602647187294
 10
10.10548136140592
 20
-15.28602647187294
 10
10.11421467846103
 20
-15.29815320798102
 10
10.11857272424987
 20
-15.31365613766464
 10
10.11857272424987
 20
-15.33012369408413
 10
10.11857272424987
 20
-15.36595268713073
 10
10.0977298965641
 20
-15.39623507644608
 10
10.05945488572298
 20
-15.39623507644608
 10
10.04226385925158
 20
-15.39623507644608
 10
10.02844902635573
 20
-15.39017170839204
 10
10.01876830804218
 20
-15.37976752002658
 10
10.01876830804218
 20
-15.37976752002658
 10
10.00447116177839
 20
-15.39527044971021
 10
10.00447116177839
 20
-15.39527044971021
 10
10.00447116177839
 20
-15.39527044971021
 10
9.999148489253684
 20
-15.39041286507601
 10
9.999148489253684
 20
-15.39041286507601
 10
9.999148489253684
 20
-15.39041286507601
 10
10.0139279488854
 20
-15.37418646534048
 10
10.0139279488854
 20
-15.37418646534048
 10
10.00495347514633
 20
-15.36257649355519
 10
10.00035427267352
 20
-15.3468324071876
 10
10.00035427267352
 20
-15.33012369408413
 10
10.00035427267352
 20
-15.29426025008268
 10
10.02119710035928
 20
-15.26397786076733
 10
10.05945488572298
 20
-15.26397786076733
 10
10.07690429435577
 20
-15.26397786076733
 10
10.09096028393559
 20
-15.27028238550534
 10
10.10064100224914
 20
-15.28044541718683
 10
10.10064100224914
 20
-15.28044541718683
 10
10.11323282624773
 20
-15.2669061919298
 10
10.11323282624773
 20
-15.2669061919298
 10
10.11323282624773
 20
-15.2669061919298
 10
10.11857272424987
 20
-15.27172932560915
 10
10.11857272424987
 20
-15.27172932560915
 97
        0
 97
        1
330
85
 75
     2
 76
     1
 98
        1
 10
0.0
 20
0.0
450
        0
451
        0
460
0.0
461
0.0
452
        0
462
0.0
453
        0
470

  0
SPLINE
  5
87
330
7F
100
AcDbEntity
  8
Livello 1
100
AcDbSpline
210
0.0
220
0.0
230
1.0
 70
     9
 71
     3
 72
    17
 73
    13
 74
     0
 42
0.000000001
 43
0.0000000001
 40
0.0
 40
0.0
 40
0.0
 40
0.0
 40
1.0
 40
1.0
 40
1.0
 40
2.0
 40
2.0
 40
2.0
 40
3.0
 40
3.0
 40
3.0
 40
4.0
 40
4.0
 40
4.0
 40
4.0
 10
10.22202894167192
 20
-15.33980441239769
 30
0.0
 10
10.22202894167192
 20
-15.36378227697502
 30
0.0
 10
10.2348791478319
 20
-15.38341932124095
 30
0.0
 10
10.26442084161792
 20
-15.38341932124095
 30
0.0
 10
10.28863986287922
 20
-15.38341932124095
 30
0.0
 10
10.30512464477615
 20
-15.36329996360709
 30
0.0
 10
10.30512464477615
 20
-15.33980441239769
 30
0.0
 10
10.30512464477615
 20
-15.31510307776844
 30
0.0
 10
10.29010402846046
 20
-15.29498372013458
 30
0.0
 10
10.26417968493395
 20
-15.29498372013458
 30
0.0
 10
10.23753187135554
 20
-15.29498372013458
 30
0.0
 10
10.22202894167192
 20
-15.31486192108448
 30
0.0
 10
10.22202894167192
 20
-15.33980441239769
 30
0.0
  0
SPLINE
  5
88
330
7F
100
AcDbEntity
  8
Livello 1
100
AcDbSpline
210
0.0
220
0.0
230
1.0
 70
     9
 71
     3
 72
    35
 73
    31
 74
     0
 42
0.000000001
 43
0.0000000001
 40
0.0
 40
0.0
 40
0.0
 40
0.0
 40
1.0
 40
1.0
 40
1.0
 40
2.0
 40
2.0
 40
2.0
 40
3.0
 40
3.0
 40
3.0
 40
4.0
 40
4.0
 40
4.0
 40
5.0
 40
5.0
 40
5.0
 40
6.0
 40
6.0
 40
6.0
 40
7.0
 40
7.0
 40
7.0
 40
8.0
 40
8.0
 40
8.0
 40
9.0
 40
9.0
 40
9.0
 40
10.0
 40
10.0
 40
10.0
 40
10.0
 10
10.30100775567127
 20
-15.26590711423908
 30
0.0
 10
10.2983378066702
 20
-15.24726914766388
 30
0.0
 10
10.28526366930368
 20
-15.23441894150389
 30
0.0
 10
10.26562662503776
 20
-15.23441894150389
 30
0.0
 10
10.22614583077679
 20
-15.23441894150389
 30
0.0
 10
10.21887667930292
 20
-15.27948079045096
 30
0.0
 10
10.21887667930292
 20
-15.31024549313424
 30
0.0
 10
10.21887667930292
 20
-15.31024549313424
 30
0.0
 10
10.21937621814828
 20
-15.31024549313424
 30
0.0
 10
10.21937621814828
 20
-15.31024549313424
 30
0.0
 10
10.22736883967406
 20
-15.29353678003078
 30
0.0
 10
10.24528333619736
 20
-15.28216796492946
 30
0.0
 10
10.26442084161792
 20
-15.28216796492946
 30
0.0
 10
10.2983378066702
 20
-15.28216796492946
 30
0.0
 10
10.3203864177758
 20
-15.30566351613886
 30
0.0
 10
10.3203864177758
 20
-15.33883978566182
 30
0.0
 10
10.3203864177758
 20
-15.3717748985008
 30
0.0
 10
10.29639132772104
 20
-15.39623507644608
 30
0.0
 10
10.26297390151412
 20
-15.39623507644608
 30
0.0
 10
10.22178778498795
 20
-15.39623507644608
 30
0.0
 10
10.20361490630326
 20
-15.37225721186874
 30
0.0
 10
10.20361490630326
 20
-15.30614582950679
 30
0.0
 10
10.20361490630326
 20
-15.28602647187294
 30
0.0
 10
10.20871364762143
 20
-15.22160318629876
 30
0.0
 10
10.26417968493395
 20
-15.22160318629876
 30
0.0
 10
10.29397976088136
 20
-15.22160318629876
 30
0.0
 10
10.31263495293399
 20
-15.23638264593049
 30
0.0
 10
10.31626952867093
 20
-15.26590711423908
 30
0.0
 10
10.31626952867093
 20
-15.26590711423908
 30
0.0
 10
10.30100775567127
 20
-15.26590711423908
 30
0.0
 10
10.30100775567127
 20
-15.26590711423908
 30
0.0
  0
HATCH
  5
89
330
7F
100
AcDbEntity
  8
Livello 1
 62
    18
420
        0
440
 33554687
100
AcDbHatch
 10
0.0
 20
0.0
 30
0.0
210
0.0
220
0.0
230
1.0
  2
SOLID
 70
     1
 71
     1
 91
        2
 92
        1
 93
        1
 72
     4
 94
        3
 73
     0
 74
     0
 95
       17
 96
       13
 40
0.0
 40
0.0
 40
0.0
 40
0.0
 40
1.0
 40
1.0
 40
1.0
 40
2.0
 40
2.0
 40
2.0
 40
3.0
 40
3.0
 40
3.0
 40
4.0
 40
4.0
 40
4.0
 40
4.0
 10
10.22202894167192
 20
-15.33980441239769
 10
10.22202894167192
 20
-15.36378227697502
 10
10.2348791478319
 20
-15.38341932124095
 10
10.26442084161792
 20
-15.38341932124095
 10
10.28863986287922
 20
-15.38341932124095
 10
10.30512464477615
 20
-15.36329996360709
 10
10.30512464477615
 20
-15.33980441239769
 10
10.30512464477615
 20
-15.31510307776844
 10
10.29010402846046
 20
-15.29498372013458
 10
10.26417968493395
 20
-15.29498372013458
 10
10.23753187135554
 20
-15.29498372013458
 10
10.22202894167192
 20
-15.31486192108448
 10
10.22202894167192
 20
-15.33980441239769
 97
        0
 97
        1
330
87
 92
        1
 93
        1
 72
     4
 94
        3
 73
     0
 74
     0
 95
       35
 96
       31
 40
0.0
 40
0.0
 40
0.0
 40
0.0
 40
1.0
 40
1.0
 40
1.0
 40
2.0
 40
2.0
 40
2.0
 40
3.0
 40
3.0
 40
3.0
 40
4.0
 40
4.0
 40
4.0
 40
5.0
 40
5.0
 40
5.0
 40
6.0
 40
6.0
 40
6.0
 40
7.0
 40
7.0
 40
7.0
 40
8.0
 40
8.0
 40
8.0
 40
9.0
 40
9.0
 40
9.0
 40
10.0
 40
10.0
 40
10.0
 40
10.0
 10
10.30100775567127
 20
-15.26590711423908
 10
10.2983378066702
 20
-15.24726914766388
 10
10.28526366930368
 20
-15.23441894150389
 10
10.26562662503776
 20
-15.23441894150389
 10
10.22614583077679
 20
-15.23441894150389
 10
10.21887667930292
 20
-15.27948079045096
 10
10.21887667930292
 20
-15.31024549313424
 10
10.21887667930292
 20
-15.31024549313424
 10
10.21937621814828
 20
-15.31024549313424
 10
10.21937621814828
 20
-15.31024549313424
 10
10.22736883967406
 20
-15.29353678003078
 10
10.24528333619736
 20
-15.28216796492946
 10
10.26442084161792
 20
-15.28216796492946
 10
10.2983378066702
 20
-15.28216796492946
 10
10.3203864177758
 20
-15.30566351613886
 10
10.3203864177758
 20
-15.33883978566182
 10
10.3203864177758
 20
-15.3717748985008
 10
10.29639132772104
 20
-15.39623507644608
 10
10.26297390151412
 20
-15.39623507644608
 10
10.22178778498795
 20
-15.39623507644608
 10
10.20361490630326
 20
-15.37225721186874
 10
10.20361490630326
 20
-15.30614582950679
 10
10.20361490630326
 20
-15.28602647187294
 10
10.20871364762143
 20
-15.22160318629876
 10
10.26417968493395
 20
-15.22160318629876
 10
10.29397976088136
 20
-15.22160318629876
 10
10.31263495293399
 20
-15.23638264593049
 10
10.31626952867093
 20
-15.26590711423908
 10
10.31626952867093
 20
-15.26590711423908
 10
10.30100775567127
 20
-15.26590711423908
 10
10.30100775567127
 20
-15.26590711423908
 97
        0
 97
        1
330
88
 75
     2
 76
     1
 98
        1
 10
0.0
 20
0.0
450
        0
451
        0
460
0.0
461
0.0
452
        0
462
0.0
453
        0
470

  0
SPLINE
  5
8A
330
7F
100
AcDbEntity
  8
Livello 1
100
AcDbSpline
210
0.0
220
0.0
230
1.0
 70
     9
 71
     3
 72
    17
 73
    13
 74
     0
 42
0.000000001
 43
0.0000000001
 40
0.0
 40
0.0
 40
0.0
 40
0.0
 40
1.0
 40
1.0
 40
1.0
 40
2.0
 40
2.0
 40
2.0
 40
3.0
 40
3.0
 40
3.0
 40
4.0
 40
4.0
 40
4.0
 40
4.0
 10
10.35197794337554
 20
-15.30879855303044
 30
0.0
 10
10.35197794337554
 20
-15.33835747229388
 30
0.0
 10
10.35705945921629
 20
-15.38341932124095
 30
0.0
 10
10.39581678342535
 20
-15.38341932124095
 30
0.0
 10
10.43457410763441
 20
-15.38341932124095
 30
0.0
 10
10.43967284895258
 20
-15.33835747229388
 30
0.0
 10
10.43967284895258
 20
-15.30879855303044
 30
0.0
 10
10.43967284895258
 20
-15.27948079045096
 30
0.0
 10
10.43457410763441
 20
-15.23441894150389
 30
0.0
 10
10.39581678342535
 20
-15.23441894150389
 30
0.0
 10
10.35705945921629
 20
-15.23441894150389
 30
0.0
 10
10.35197794337554
 20
-15.27948079045096
 30
0.0
 10
10.35197794337554
 20
-15.30879855303044
 30
0.0
  0
SPLINE
  5
8B
330
7F
100
AcDbEntity
  8
Livello 1
100
AcDbSpline
210
0.0
220
0.0
230
1.0
 70
     9
 71
     3
 72
    17
 73
    13
 74
     0
 42
0.000000001
 43
0.0000000001
 40
0.0
 40
0.0
 40
0.0
 40
0.0
 40
1.0
 40
1.0
 40
1.0
 40
2.0
 40
2.0
 40
2.0
 40
3.0
 40
3.0
 40
3.0
 40
4.0
 40
4.0
 40
4.0
 40
4.0
 10
10.45493462195223
 20
-15.30879855303044
 30
0.0
 10
10.45493462195223
 20
-15.34852050397537
 30
0.0
 10
10.44523667816126
 20
-15.39623507644608
 30
0.0
 10
10.39581678342535
 20
-15.39623507644608
 30
0.0
 10
10.34641411416687
 20
-15.39623507644608
 30
0.0
 10
10.33671617037589
 20
-15.34852050397537
 30
0.0
 10
10.33671617037589
 20
-15.3090397097144
 30
0.0
 10
10.33671617037589
 20
-15.26931775876947
 30
0.0
 10
10.34641411416687
 20
-15.22160318629876
 30
0.0
 10
10.39581678342535
 20
-15.22160318629876
 30
0.0
 10
10.44523667816126
 20
-15.22160318629876
 30
0.0
 10
10.45493462195223
 20
-15.26931775876947
 30
0.0
 10
10.45493462195223
 20
-15.30879855303044
 30
0.0
  0
HATCH
  5
8C
330
7F
100
AcDbEntity
  8
Livello 1
 62
    18
420
        0
440
 33554687
100
AcDbHatch
 10
0.0
 20
0.0
 30
0.0
210
0.0
220
0.0
230
1.0
  2
SOLID
 70
     1
 71
     1
 91
        2
 92
        1
 93
        1
 72
     4
 94
        3
 73
     0
 74
     0
 95
       17
 96
       13
 40
0.0
 40
0.0
 40
0.0
 40
0.0
 40
1.0
 40
1.0
 40
1.0
 40
2.0
 40
2.0
 40
2.0
 40
3.0
 40
3.0
 40
3.0
 40
4.0
 40
4.0
 40
4.0
 40
4.0
 10
10.35197794337554
 20
-15.30879855303044
 10
10.35197794337554
 20
-15.33835747229388
 10
10.35705945921629
 20
-15.38341932124095
 10
10.39581678342535
 20
-15.38341932124095
 10
10.43457410763441
 20
-15.38341932124095
 10
10.43967284895258
 20
-15.33835747229388
 10
10.43967284895258
 20
-15.30879855303044
 10
10.43967284895258
 20
-15.27948079045096
 10
10.43457410763441
 20
-15.23441894150389
 10
10.39581678342535
 20
-15.23441894150389
 10
10.35705945921629
 20
-15.23441894150389
 10
10.35197794337554
 20
-15.27948079045096
 10
10.35197794337554
 20
-15.30879855303044
 97
        0
 97
        1
330
8A
 92
        1
 93
        1
 72
     4
 94
        3
 73
     0
 74
     0
 95
       17
 96
       13
 40
0.0
 40
0.0
 40
0.0
 40
0.0
 40
1.0
 40
1.0
 40
1.0
 40
2.0
 40
2.0
 40
2.0
 40
3.0
 40
3.0
 40
3.0
 40
4.0
 40
4.0
 40
4.0
 40
4.0
 10
10.45493462195223
 20
-15.30879855303044
 10
10.45493462195223
 20
-15.34852050397537
 10
10.44523667816126
 20
-15.39623507644608
 10
10.39581678342535
 20
-15.39623507644608
 10
10.34641411416687
 20
-15.39623507644608
 10
10.33671617037589
 20
-15.34852050397537
 10
10.33671617037589
 20
-15.3090397097144
 10
10.33671617037589
 20
-15.26931775876947
 10
10.34641411416687
 20
-15.22160318629876
 10
10.39581678342535
 20
-15.22160318629876
 10
10.44523667816126
 20
-15.22160318629876
 10
10.45493462195223
 20
-15.26931775876947
 10
10.45493462195223
 20
-15.30879855303044
 97
        0
 97
        1
330
8B
 75
     2
 76
     1
 98
        1
 10
0.0
 20
0.0
450
        0
451
        0
460
0.0
461
0.0
452
        0
462
0.0
453
        0
470

  0
SPLINE
  5
8D
330
7F
100
AcDbEntity
  8
Livello 1
100
AcDbSpline
210
0.0
220
0.0
230
1.0
 70
     9
 71
     3
 72
    17
 73
    13
 74
     0
 42
0.000000001
 43
0.0000000001
 40
0.0
 40
0.0
 40
0.0
 40
0.0
 40
1.0
 40
1.0
 40
1.0
 40
2.0
 40
2.0
 40
2.0
 40
3.0
 40
3.0
 40
3.0
 40
4.0
 40
4.0
 40
4.0
 40
4.0
 10
10.48650892207455
 20
-15.30879855303044
 30
0.0
 10
10.48650892207455
 20
-15.33835747229388
 30
0.0
 10
10.49159043791529
 20
-15.38341932124095
 30
0.0
 10
10.53034776212435
 20
-15.38341932124095
 30
0.0
 10
10.56910508633341
 20
-15.38341932124095
 30
0.0
 10
10.57420382765158
 20
-15.33835747229388
 30
0.0
 10
10.57420382765158
 20
-15.30879855303044
 30
0.0
 10
10.57420382765158
 20
-15.27948079045096
 30
0.0
 10
10.56910508633341
 20
-15.23441894150389
 30
0.0
 10
10.53034776212435
 20
-15.23441894150389
 30
0.0
 10
10.49159043791529
 20
-15.23441894150389
 30
0.0
 10
10.48650892207455
 20
-15.27948079045096
 30
0.0
 10
10.48650892207455
 20
-15.30879855303044
 30
0.0
  0
SPLINE
  5
8E
330
7F
100
AcDbEntity
  8
Livello 1
100
AcDbSpline
210
0.0
220
0.0
230
1.0
 70
     9
 71
     3
 72
    17
 73
    13
 74
     0
 42
0.000000001
 43
0.0000000001
 40
0.0
 40
0.0
 40
0.0
 40
0.0
 40
1.0
 40
1.0
 40
1.0
 40
2.0
 40
2.0
 40
2.0
 40
3.0
 40
3.0
 40
3.0
 40
4.0
 40
4.0
 40
4.0
 40
4.0
 10
10.58946560065124
 20
-15.30879855303044
 30
0.0
 10
10.58946560065124
 20
-15.34852050397537
 30
0.0
 10
10.57978488233769
 20
-15.39623507644608
 30
0.0
 10
10.53034776212435
 20
-15.39623507644608
 30
0.0
 10
10.48094509286587
 20
-15.39623507644608
 30
0.0
 10
10.47124714907489
 20
-15.34852050397537
 30
0.0
 10
10.47124714907489
 20
-15.3090397097144
 30
0.0
 10
10.47124714907489
 20
-15.26931775876947
 30
0.0
 10
10.48094509286587
 20
-15.22160318629876
 30
0.0
 10
10.53034776212435
 20
-15.22160318629876
 30
0.0
 10
10.57978488233769
 20
-15.22160318629876
 30
0.0
 10
10.58946560065124
 20
-15.26931775876947
 30
0.0
 10
10.58946560065124
 20
-15.30879855303044
 30
0.0
  0
HATCH
  5
8F
330
7F
100
AcDbEntity
  8
Livello 1
 62
    18
420
        0
440
 33554687
100
AcDbHatch
 10
0.0
 20
0.0
 30
0.0
210
0.0
220
0.0
230
1.0
  2
SOLID
 70
     1
 71
     1
 91
        2
 92
        1
 93
        1
 72
     4
 94
        3
 73
     0
 74
     0
 95
       17
 96
       13
 40
0.0
 40
0.0
 40
0.0
 40
0.0
 40
1.0
 40
1.0
 40
1.0
 40
2.0
 40
2.0
 40
2.0
 40
3.0
 40
3.0
 40
3.0
 40
4.0
 40
4.0
 40
4.0
 40
4.0
 10
10.48650892207455
 20
-15.30879855303044
 10
10.48650892207455
 20
-15.33835747229388
 10
10.49159043791529
 20
-15.38341932124095
 10
10.53034776212435
 20
-15.38341932124095
 10
10.56910508633341
 20
-15.38341932124095
 10
10.57420382765158
 20
-15.33835747229388
 10
10.57420382765158
 20
-15.30879855303044
 10
10.57420382765158
 20
-15.27948079045096
 10
10.56910508633341
 20
-15.23441894150389
 10
10.53034776212435
 20
-15.23441894150389
 10
10.49159043791529
 20
-15.23441894150389
 10
10.48650892207455
 20
-15.27948079045096
 10
10.48650892207455
 20
-15.30879855303044
 97
        0
 97
        1
330
8D
 92
        1
 93
        1
 72
     4
 94
        3
 73
     0
 74
     0
 95
       17
 96
       13
 40
0.0
 40
0.0
 40
0.0
 40
0.0
 40
1.0
 40
1.0
 40
1.0
 40
2.0
 40
2.0
 40
2.0
 40
3.0
 40
3.0
 40
3.0
 40
4.0
 40
4.0
 40
4.0
 40
4.0
 10
10.58946560065124
 20
-15.30879855303044
 10
10.58946560065124
 20
-15.34852050397537
 10
10.57978488233769
 20
-15.39623507644608
 10
10.53034776212435
 20
-15.39623507644608
 10
10.48094509286587
 20
-15.39623507644608
 10
10.47124714907489
 20
-15.34852050397537
 10
10.47124714907489
 20
-15.3090397097144
 10
10.47124714907489
 20
-15.26931775876947
 10
10.48094509286587
 20
-15.22160318629876
 10
10.53034776212435
 20
-15.22160318629876
 10
10.57978488233769
 20
-15.22160318629876
 10
10.58946560065124
 20
-15.26931775876947
 10
10.58946560065124
 20
-15.30879855303044
 97
        0
 97
        1
330
8E
 75
     2
 76
     1
 98
        1
 10
0.0
 20
0.0
450
        0
451
        0
460
0.0
461
0.0
452
        0
462
0.0
453
        0
470

  0
ENDBLK
  5
82
330
7F
100
AcDbEntity
  8
0
100
AcDbBlockEnd
  0
BLOCK
  5
92
330
90
100
AcDbEntity
  8
0
100
AcDbBlockBegin
  2
Block_2
 70
     0
 10
0.0
 20
0.0
 30
0.0
  3
Block_2
  1

  0
LINE
  5
94
330
90
100
AcDbEntity
  8
Livello 1
 62
    18
420
        0
370
     9
100
AcDbLine
 10
9.990169533691643
 20
-15.31128294573441
 30
0.0
 11
5.69630968291828
 21
-15.31128294573441
 31
0.0
  0
LWPOLYLINE
  5
95
330
90
100
AcDbEntity
  8
Livello 1
100
AcDbPolyline
 90
        3
 70
     1
 43
0.0
 10
5.439596910235075
 20
-15.31216002880594
 10
5.694493862982277
 20
-15.22718267224312
 10
5.694493862982277
 20
-15.39538321922569
  0
HATCH
  5
96
330
90
100
AcDbEntity
  8
Livello 1
 62
    18
420
        0
440
 33554687
100
AcDbHatch
 10
0.0
 20
0.0
 30
0.0
210
0.0
220
0.0
230
1.0
  2
SOLID
 70
     1
 71
     1
 91
        1
 92
        1
 93
        3
 72
     1
 10
5.439596910235075
 20
-15.31216002880594
 11
5.694493862982277
 21
-15.22718267224312
 72
     1
 10
5.694493862982277
 20
-15.22718267224312
 11
5.694493862982277
 21
-15.39538321922569
 72
     1
 10
5.694493862982277
 20
-15.39538321922569
 11
5.439596910235075
 21
-15.31216002880594
 97
        1
330
95
 75
     0
 76
     1
 98
        1
 10
0.0
 20
0.0
450
        0
451
        0
460
0.0
461
0.0
452
        0
462
0.0
453
        0
470

  0
ENDBLK
  5
93
330
90
100
AcDbEntity
  8
0
100
AcDbBlockEnd
  0
BLOCK
  5
99
330
97
100
AcDbEntity
  8
0
100
AcDbBlockBegin
  2
Block_3
 70
     0
 10
0.0
 20
0.0
 30
0.0
  3
Block_3
  1

  0
LINE
  5
9B
330
97
100
AcDbEntity
  8
Livello 1
 62
    18
420
        0
370
     9
100
AcDbLine
 10
10.63424202428401
 20
-15.31128294573441
 30
0.0
 11
14.9941670713499
 21
-15.31128294573441
 31
0.0
  0
LWPOLYLINE
  5
9C
330
97
100
AcDbEntity
  8
Livello 1
100
AcDbPolyline
 90
        3
 70
     1
 43
0.0
 10
15.25087984403324
 20
-15.31040586266293
 10
14.995982891286
 20
-15.39538321922569
 10
14.995982891286
 20
-15.22718267224312
  0
HATCH
  5
9D
330
97
100
AcDbEntity
  8
Livello 1
 62
    18
420
        0
440
 33554687
100
AcDbHatch
 10
0.0
 20
0.0
 30
0.0
210
0.0
220
0.0
230
1.0
  2
SOLID
 70
     1
 71
     1
 91
        1
 92
        1
 93
        3
 72
     1
 10
15.25087984403324
 20
-15.31040586266293
 11
14.995982891286
 21
-15.39538321922569
 72
     1
 10
14.995982891286
 20
-15.39538321922569
 11
14.995982891286
 21
-15.22718267224312
 72
     1
 10
14.995982891286
 20
-15.22718267224312
 11
15.25087984403324
 21
-15.31040586266293
 97
        1
330
9C
 75
     0
 76
     1
 98
        1
 10
0.0
 20
0.0
450
        0
451
        0
460
0.0
461
0.0
452
        0
462
0.0
453
        0
470

  0
ENDBLK
  5
9A
330
97
100
AcDbEntity
  8
0
100
AcDbBlockEnd
  0
BLOCK
  5
A0
330
9E
100
AcDbEntity
  8
0
100
AcDbBlockBegin
  2
Block_4
 70
     0
 10
0.0
 20
0.0
 30
0.0
  3
Block_4
  1

  0
INSERT
  5
A3
330
9E
100
AcDbEntity
  8
Livello 1
100
AcDbBlockReference
  2
Block_5
 10
0.0
 20
0.0
 30
0.0
  0
INSERT
  5
B0
330
9E
100
AcDbEntity
  8
Livello 1
100
AcDbBlockReference
  2
Block_7
 10
0.0
 20
0.0
 30
0.0
  0
INSERT
  5
B7
330
9E
100
AcDbEntity
  8
Livello 1
100
AcDbBlockReference
  2
Block_8
 10
0.0
 20
0.0
 30
0.0
  0
ENDBLK
  5
A1
330
9E
100
AcDbEntity
  8
0
100
AcDbBlockEnd
  0
BLOCK
  5
A4
330
A2
100
AcDbEntity
  8
0
100
AcDbBlockBegin
  2
Block_5
 70
     0
 10
0.0
 20
0.0
 30
0.0
  3
Block_5
  1

  0
INSERT
  5
A7
330
A2
100
AcDbEntity
  8
Livello 1
100
AcDbBlockReference
  2
Block_6
 10
0.0
 20
0.0
 30
0.0
  0
ENDBLK
  5
A5
330
A2
100
AcDbEntity
  8
0
100
AcDbBlockEnd
  0
BLOCK
  5
A8
330
A6
100
AcDbEntity
  8
0
100
AcDbBlockBegin
  2
Block_6
 70
     0
 10
0.0
 20
0.0
 30
0.0
  3
Block_6
  1

  0
SPLINE
  5
AA
330
A6
100
AcDbEntity
  8
Livello 1
100
AcDbSpline
210
0.0
220
0.0
230
1.0
 70
     9
 71
     3
 72
    26
 73
    22
 74
     0
 42
0.000000001
 43
0.0000000001
 40
0.0
 40
0.0
 40
0.0
 40
0.0
 40
1.0
 40
1.0
 40
1.0
 40
2.0
 40
2.0
 40
2.0
 40
3.0
 40
3.0
 40
3.0
 40
4.0
 40
4.0
 40
4.0
 40
5.0
 40
5.0
 40
5.0
 40
6.0
 40
6.0
 40
6.0
 40
7.0
 40
7.0
 40
7.0
 40
7.0
 10
4.715233288751746
 20
-14.52796766129856
 30
0.0
 10
4.741881102330154
 20
-14.52700303456269
 30
0.0
 10
4.758348658749648
 20
-14.52652072119476
 30
0.0
 10
4.762947861222457
 20
-14.49527370514354
 30
0.0
 10
4.762947861222457
 20
-14.49527370514354
 30
0.0
 10
4.775315754014504
 20
-14.49527370514354
 30
0.0
 10
4.775315754014504
 20
-14.49527370514354
 30
0.0
 10
4.775315754014504
 20
-14.49527370514354
 30
0.0
 10
4.775315754014504
 20
-14.66484130492754
 30
0.0
 10
4.775315754014504
 20
-14.66484130492754
 30
0.0
 10
4.775315754014504
 20
-14.66484130492754
 30
0.0
 10
4.760053981014847
 20
-14.66484130492754
 30
0.0
 10
4.760053981014847
 20
-14.66484130492754
 30
0.0
 10
4.760053981014847
 20
-14.66484130492754
 30
0.0
 10
4.760053981014847
 20
-14.5388886139868
 30
0.0
 10
4.760053981014847
 20
-14.5388886139868
 30
0.0
 10
4.760053981014847
 20
-14.5388886139868
 30
0.0
 10
4.715233288751746
 20
-14.5388886139868
 30
0.0
 10
4.715233288751746
 20
-14.5388886139868
 30
0.0
 10
4.715233288751746
 20
-14.5388886139868
 30
0.0
 10
4.715233288751746
 20
-14.52796766129856
 30
0.0
 10
4.715233288751746
 20
-14.52796766129856
 30
0.0
  0
HATCH
  5
AB
330
A6
100
AcDbEntity
  8
Livello 1
 62
    18
420
        0
440
 33554687
100
AcDbHatch
 10
0.0
 20
0.0
 30
0.0
210
0.0
220
0.0
230
1.0
  2
SOLID
 70
     1
 71
     1
 91
        1
 92
        1
 93
        1
 72
     4
 94
        3
 73
     0
 74
     0
 95
       26
 96
       22
 40
0.0
 40
0.0
 40
0.0
 40
0.0
 40
1.0
 40
1.0
 40
1.0
 40
2.0
 40
2.0
 40
2.0
 40
3.0
 40
3.0
 40
3.0
 40
4.0
 40
4.0
 40
4.0
 40
5.0
 40
5.0
 40
5.0
 40
6.0
 40
6.0
 40
6.0
 40
7.0
 40
7.0
 40
7.0
 40
7.0
 10
4.715233288751746
 20
-14.52796766129856
 10
4.741881102330154
 20
-14.52700303456269
 10
4.758348658749648
 20
-14.52652072119476
 10
4.762947861222457
 20
-14.49527370514354
 10
4.762947861222457
 20
-14.49527370514354
 10
4.775315754014504
 20
-14.49527370514354
 10
4.775315754014504
 20
-14.49527370514354
 10
4.775315754014504
 20
-14.49527370514354
 10
4.775315754014504
 20
-14.66484130492754
 10
4.775315754014504
 20
-14.66484130492754
 10
4.775315754014504
 20
-14.66484130492754
 10
4.760053981014847
 20
-14.66484130492754
 10
4.760053981014847
 20
-14.66484130492754
 10
4.760053981014847
 20
-14.66484130492754
 10
4.760053981014847
 20
-14.5388886139868
 10
4.760053981014847
 20
-14.5388886139868
 10
4.760053981014847
 20
-14.5388886139868
 10
4.715233288751746
 20
-14.5388886139868
 10
4.715233288751746
 20
-14.5388886139868
 10
4.715233288751746
 20
-14.5388886139868
 10
4.715233288751746
 20
-14.52796766129856
 10
4.715233288751746
 20
-14.52796766129856
 97
        0
 97
        1
330
AA
 75
     2
 76
     1
 98
        1
 10
0.0
 20
0.0
450
        0
451
        0
460
0.0
461
0.0
452
        0
462
0.0
453
        0
470

  0
SPLINE
  5
AC
330
A6
100
AcDbEntity
  8
Livello 1
100
AcDbSpline
210
0.0
220
0.0
230
1.0
 70
    11
 71
     3
 72
    17
 73
    13
 74
     0
 42
0.000000001
 43
0.0000000001
 40
0.0
 40
0.0
 40
0.0
 40
0.0
 40
1.0
 40
1.0
 40
1.0
 40
2.0
 40
2.0
 40
2.0
 40
3.0
 40
3.0
 40
3.0
 40
4.0
 40
4.0
 40
4.0
 40
4.0
 10
4.911793211662676
 20
-14.60985758098295
 30
0.0
 10
4.911793211662676
 20
-14.60985758098295
 30
0.0
 10
4.911793211662676
 20
-14.51756347293311
 30
0.0
 10
4.911793211662676
 20
-14.51756347293311
 30
0.0
 10
4.911793211662676
 20
-14.51756347293311
 30
0.0
 10
4.911310898294741
 20
-14.51756347293311
 30
0.0
 10
4.911310898294741
 20
-14.51756347293311
 30
0.0
 10
4.911310898294741
 20
-14.51756347293311
 30
0.0
 10
4.847352700611078
 20
-14.60985758098295
 30
0.0
 10
4.847352700611078
 20
-14.60985758098295
 30
0.0
 10
4.847352700611078
 20
-14.60985758098295
 30
0.0
 10
4.911793211662676
 20
-14.60985758098295
 30
0.0
 10
4.911793211662676
 20
-14.60985758098295
 30
0.0
  0
SPLINE
  5
AD
330
A6
100
AcDbEntity
  8
Livello 1
100
AcDbSpline
210
0.0
220
0.0
230
1.0
 70
    11
 71
     3
 72
    38
 73
    34
 74
     0
 42
0.000000001
 43
0.0000000001
 40
0.0
 40
0.0
 40
0.0
 40
0.0
 40
1.0
 40
1.0
 40
1.0
 40
2.0
 40
2.0
 40
2.0
 40
3.0
 40
3.0
 40
3.0
 40
4.0
 40
4.0
 40
4.0
 40
5.0
 40
5.0
 40
5.0
 40
6.0
 40
6.0
 40
6.0
 40
7.0
 40
7.0
 40
7.0
 40
8.0
 40
8.0
 40
8.0
 40
9.0
 40
9.0
 40
9.0
 40
10.0
 40
10.0
 40
10.0
 40
11.0
 40
11.0
 40
11.0
 40
11.0
 10
4.833555093192652
 20
-14.60789387655636
 30
0.0
 10
4.833555093192652
 20
-14.60789387655636
 30
0.0
 10
4.912034368346644
 20
-14.49527370514354
 30
0.0
 10
4.912034368346644
 20
-14.49527370514354
 30
0.0
 10
4.912034368346644
 20
-14.49527370514354
 30
0.0
 10
4.925849201242495
 20
-14.49527370514354
 30
0.0
 10
4.925849201242495
 20
-14.49527370514354
 30
0.0
 10
4.925849201242495
 20
-14.49527370514354
 30
0.0
 10
4.925849201242495
 20
-14.60985758098295
 30
0.0
 10
4.925849201242495
 20
-14.60985758098295
 30
0.0
 10
4.925849201242495
 20
-14.60985758098295
 30
0.0
 10
4.951274005923639
 20
-14.60985758098295
 30
0.0
 10
4.951274005923639
 20
-14.60985758098295
 30
0.0
 10
4.951274005923639
 20
-14.60985758098295
 30
0.0
 10
4.951274005923639
 20
-14.62267333618808
 30
0.0
 10
4.951274005923639
 20
-14.62267333618808
 30
0.0
 10
4.951274005923639
 20
-14.62267333618808
 30
0.0
 10
4.925849201242495
 20
-14.62267333618808
 30
0.0
 10
4.925849201242495
 20
-14.62267333618808
 30
0.0
 10
4.925849201242495
 20
-14.62267333618808
 30
0.0
 10
4.925849201242495
 20
-14.66484130492754
 30
0.0
 10
4.925849201242495
 20
-14.66484130492754
 30
0.0
 10
4.925849201242495
 20
-14.66484130492754
 30
0.0
 10
4.911793211662676
 20
-14.66484130492754
 30
0.0
 10
4.911793211662676
 20
-14.66484130492754
 30
0.0
 10
4.911793211662676
 20
-14.66484130492754
 30
0.0
 10
4.911793211662676
 20
-14.62267333618808
 30
0.0
 10
4.911793211662676
 20
-14.62267333618808
 30
0.0
 10
4.911793211662676
 20
-14.62267333618808
 30
0.0
 10
4.833555093192652
 20
-14.62267333618808
 30
0.0
 10
4.833555093192652
 20
-14.62267333618808
 30
0.0
 10
4.833555093192652
 20
-14.62267333618808
 30
0.0
 10
4.833555093192652
 20
-14.60789387655636
 30
0.0
 10
4.833555093192652
 20
-14.60789387655636
 30
0.0
  0
HATCH
  5
AE
330
A6
100
AcDbEntity
  8
Livello 1
 62
    18
420
        0
440
 33554687
100
AcDbHatch
 10
0.0
 20
0.0
 30
0.0
210
0.0
220
0.0
230
1.0
  2
SOLID
 70
     1
 71
     1
 91
        2
 92
        1
 93
        1
 72
     4
 94
        3
 73
     0
 74
     0
 95
       17
 96
       13
 40
0.0
 40
0.0
 40
0.0
 40
0.0
 40
1.0
 40
1.0
 40
1.0
 40
2.0
 40
2.0
 40
2.0
 40
3.0
 40
3.0
 40
3.0
 40
4.0
 40
4.0
 40
4.0
 40
4.0
 10
4.911793211662676
 20
-14.60985758098295
 10
4.911793211662676
 20
-14.60985758098295
 10
4.911793211662676
 20
-14.51756347293311
 10
4.911793211662676
 20
-14.51756347293311
 10
4.911793211662676
 20
-14.51756347293311
 10
4.911310898294741
 20
-14.51756347293311
 10
4.911310898294741
 20
-14.51756347293311
 10
4.911310898294741
 20
-14.51756347293311
 10
4.847352700611078
 20
-14.60985758098295
 10
4.847352700611078
 20
-14.60985758098295
 10
4.847352700611078
 20
-14.60985758098295
 10
4.911793211662676
 20
-14.60985758098295
 10
4.911793211662676
 20
-14.60985758098295
 97
        0
 97
        1
330
AC
 92
        1
 93
        1
 72
     4
 94
        3
 73
     0
 74
     0
 95
       38
 96
       34
 40
0.0
 40
0.0
 40
0.0
 40
0.0
 40
1.0
 40
1.0
 40
1.0
 40
2.0
 40
2.0
 40
2.0
 40
3.0
 40
3.0
 40
3.0
 40
4.0
 40
4.0
 40
4.0
 40
5.0
 40
5.0
 40
5.0
 40
6.0
 40
6.0
 40
6.0
 40
7.0
 40
7.0
 40
7.0
 40
8.0
 40
8.0
 40
8.0
 40
9.0
 40
9.0
 40
9.0
 40
10.0
 40
10.0
 40
10.0
 40
11.0
 40
11.0
 40
11.0
 40
11.0
 10
4.833555093192652
 20
-14.60789387655636
 10
4.833555093192652
 20
-14.60789387655636
 10
4.912034368346644
 20
-14.49527370514354
 10
4.912034368346644
 20
-14.49527370514354
 10
4.912034368346644
 20
-14.49527370514354
 10
4.925849201242495
 20
-14.49527370514354
 10
4.925849201242495
 20
-14.49527370514354
 10
4.925849201242495
 20
-14.49527370514354
 10
4.925849201242495
 20
-14.60985758098295
 10
4.925849201242495
 20
-14.60985758098295
 10
4.925849201242495
 20
-14.60985758098295
 10
4.951274005923639
 20
-14.60985758098295
 10
4.951274005923639
 20
-14.60985758098295
 10
4.951274005923639
 20
-14.60985758098295
 10
4.951274005923639
 20
-14.62267333618808
 10
4.951274005923639
 20
-14.62267333618808
 10
4.951274005923639
 20
-14.62267333618808
 10
4.925849201242495
 20
-14.62267333618808
 10
4.925849201242495
 20
-14.62267333618808
 10
4.925849201242495
 20
-14.62267333618808
 10
4.925849201242495
 20
-14.66484130492754
 10
4.925849201242495
 20
-14.66484130492754
 10
4.925849201242495
 20
-14.66484130492754
 10
4.911793211662676
 20
-14.66484130492754
 10
4.911793211662676
 20
-14.66484130492754
 10
4.911793211662676
 20
-14.66484130492754
 10
4.911793211662676
 20
-14.62267333618808
 10
4.911793211662676
 20
-14.62267333618808
 10
4.911793211662676
 20
-14.62267333618808
 10
4.833555093192652
 20
-14.62267333618808
 10
4.833555093192652
 20
-14.62267333618808
 10
4.833555093192652
 20
-14.62267333618808
 10
4.833555093192652
 20
-14.60789387655636
 10
4.833555093192652
 20
-14.60789387655636
 97
        0
 97
        1
330
AD
 75
     2
 76
     1
 98
        1
 10
0.0
 20
0.0
450
        0
451
        0
460
0.0
461
0.0
452
        0
462
0.0
453
        0
470

  0
ENDBLK
  5
A9
330
A6
100
AcDbEntity
  8
0
100
AcDbBlockEnd
  0
BLOCK
  5
B1
330
AF
100
AcDbEntity
  8
0
100
AcDbBlockBegin
  2
Block_7
 70
     0
 10
0.0
 20
0.0
 30
0.0
  3
Block_7
  1

  0
LINE
  5
B3
330
AF
100
AcDbEntity
  8
Livello 1
 62
    18
420
        0
370
     9
100
AcDbLine
 10
4.821226403466036
 20
-14.45816430544502
 30
0.0
 11
4.821226403466036
 21
-14.40545753366036
 31
0.0
  0
LWPOLYLINE
  5
B4
330
AF
100
AcDbEntity
  8
Livello 1
100
AcDbPolyline
 90
        3
 70
     1
 43
0.0
 10
4.820349320394563
 20
-14.14874476097712
 10
4.905326676957291
 20
-14.40364171372429
 10
4.737126129974718
 20
-14.40364171372429
  0
HATCH
  5
B5
330
AF
100
AcDbEntity
  8
Livello 1
 62
    18
420
        0
440
 33554687
100
AcDbHatch
 10
0.0
 20
0.0
 30
0.0
210
0.0
220
0.0
230
1.0
  2
SOLID
 70
     1
 71
     1
 91
        1
 92
        1
 93
        3
 72
     1
 10
4.820349320394563
 20
-14.14874476097712
 11
4.905326676957291
 21
-14.40364171372429
 72
     1
 10
4.905326676957291
 20
-14.40364171372429
 11
4.737126129974718
 21
-14.40364171372429
 72
     1
 10
4.737126129974718
 20
-14.40364171372429
 11
4.820349320394563
 21
-14.14874476097712
 97
        1
330
B4
 75
     0
 76
     1
 98
        1
 10
0.0
 20
0.0
450
        0
451
        0
460
0.0
461
0.0
452
        0
462
0.0
453
        0
470

  0
ENDBLK
  5
B2
330
AF
100
AcDbEntity
  8
0
100
AcDbBlockEnd
  0
BLOCK
  5
B8
330
B6
100
AcDbEntity
  8
0
100
AcDbBlockBegin
  2
Block_8
 70
     0
 10
0.0
 20
0.0
 30
0.0
  3
Block_8
  1

  0
LINE
  5
BA
330
B6
100
AcDbEntity
  8
Livello 1
 62
    18
420
        0
370
     9
100
AcDbLine
 10
4.821226403466036
 20
-14.74483017551171
 30
0.0
 11
4.821226403466036
 21
-14.78841774521504
 31
0.0
  0
LWPOLYLINE
  5
BB
330
B6
100
AcDbEntity
  8
Livello 1
100
AcDbPolyline
 90
        3
 70
     1
 43
0.0
 10
4.822103486537542
 20
-15.04513051789835
 10
4.737126129974718
 20
-14.79023356515121
 10
4.905326676957291
 20
-14.79023356515121
  0
HATCH
  5
BC
330
B6
100
AcDbEntity
  8
Livello 1
 62
    18
420
        0
440
 33554687
100
AcDbHatch
 10
0.0
 20
0.0
 30
0.0
210
0.0
220
0.0
230
1.0
  2
SOLID
 70
     1
 71
     1
 91
        1
 92
        1
 93
        3
 72
     1
 10
4.822103486537542
 20
-15.04513051789835
 11
4.737126129974718
 21
-14.79023356515121
 72
     1
 10
4.737126129974718
 20
-14.79023356515121
 11
4.905326676957291
 21
-14.79023356515121
 72
     1
 10
4.905326676957291
 20
-14.79023356515121
 11
4.822103486537542
 21
-15.04513051789835
 97
        1
330
BB
 75
     0
 76
     1
 98
        1
 10
0.0
 20
0.0
450
        0
451
        0
460
0.0
461
0.0
452
        0
462
0.0
453
        0
470

  0
ENDBLK
  5
B9
330
B6
100
AcDbEntity
  8
0
100
AcDbBlockEnd
  0
BLOCK
  5
BF
330
BD
100
AcDbEntity
  8
0
100
AcDbBlockBegin
  2
Block_9
 70
     0
 10
0.0
 20
0.0
 30
0.0
  3
Block_9
  1

  0
INSERT
  5
C2
330
BD
100
AcDbEntity
  8
Livello 1
100
AcDbBlockReference
  2
Block_10
 10
0.0
 20
0.0
 30
0.0
  0
ENDBLK
  5
C0
330
BD
100
AcDbEntity
  8
0
100
AcDbBlockEnd
  0
BLOCK
  5
C3
330
C1
100
AcDbEntity
  8
0
100
AcDbBlockBegin
  2
Block_10
 70
     0
 10
0.0
 20
0.0
 30
0.0
  3
Block_10
  1

  0
SPLINE
  5
C5
330
C1
100
AcDbEntity
  8
Livello 1
100
AcDbSpline
210
0.0
220
0.0
230
1.0
 70
    11
 71
     3
 72
    17
 73
    13
 74
     0
 42
0.000000001
 43
0.0000000001
 40
0.0
 40
0.0
 40
0.0
 40
0.0
 40
1.0
 40
1.0
 40
1.0
 40
2.0
 40
2.0
 40
2.0
 40
3.0
 40
3.0
 40
3.0
 40
4.0
 40
4.0
 40
4.0
 40
4.0
 10
15.80788953597858
 20
-14.28526068436271
 30
0.0
 10
15.80788953597858
 20
-14.28526068436271
 30
0.0
 10
15.80788953597858
 20
-14.19296657631287
 30
0.0
 10
15.80788953597858
 20
-14.19296657631287
 30
0.0
 10
15.80788953597858
 20
-14.19296657631287
 30
0.0
 10
15.80740722261064
 20
-14.19296657631287
 30
0.0
 10
15.80740722261064
 20
-14.19296657631287
 30
0.0
 10
15.80740722261064
 20
-14.19296657631287
 30
0.0
 10
15.74343179944956
 20
-14.28526068436271
 30
0.0
 10
15.74343179944956
 20
-14.28526068436271
 30
0.0
 10
15.74343179944956
 20
-14.28526068436271
 30
0.0
 10
15.80788953597858
 20
-14.28526068436271
 30
0.0
 10
15.80788953597858
 20
-14.28526068436271
 30
0.0
  0
SPLINE
  5
C6
330
C1
100
AcDbEntity
  8
Livello 1
100
AcDbSpline
210
0.0
220
0.0
230
1.0
 70
    11
 71
     3
 72
    38
 73
    34
 74
     0
 42
0.000000001
 43
0.0000000001
 40
0.0
 40
0.0
 40
0.0
 40
0.0
 40
1.0
 40
1.0
 40
1.0
 40
2.0
 40
2.0
 40
2.0
 40
3.0
 40
3.0
 40
3.0
 40
4.0
 40
4.0
 40
4.0
 40
5.0
 40
5.0
 40
5.0
 40
6.0
 40
6.0
 40
6.0
 40
7.0
 40
7.0
 40
7.0
 40
8.0
 40
8.0
 40
8.0
 40
9.0
 40
9.0
 40
9.0
 40
10.0
 40
10.0
 40
10.0
 40
11.0
 40
11.0
 40
11.0
 40
11.0
 10
15.72965141750856
 20
-14.28331420541354
 30
0.0
 10
15.72965141750856
 20
-14.28331420541354
 30
0.0
 10
15.80813069266255
 20
-14.1706768085233
 30
0.0
 10
15.80813069266255
 20
-14.1706768085233
 30
0.0
 10
15.80813069266255
 20
-14.1706768085233
 30
0.0
 10
15.8219455255584
 20
-14.1706768085233
 30
0.0
 10
15.8219455255584
 20
-14.1706768085233
 30
0.0
 10
15.8219455255584
 20
-14.1706768085233
 30
0.0
 10
15.8219455255584
 20
-14.28526068436271
 30
0.0
 10
15.8219455255584
 20
-14.28526068436271
 30
0.0
 10
15.8219455255584
 20
-14.28526068436271
 30
0.0
 10
15.84737033023954
 20
-14.28526068436271
 30
0.0
 10
15.84737033023954
 20
-14.28526068436271
 30
0.0
 10
15.84737033023954
 20
-14.28526068436271
 30
0.0
 10
15.84737033023954
 20
-14.29809366504527
 30
0.0
 10
15.84737033023954
 20
-14.29809366504527
 30
0.0
 10
15.84737033023954
 20
-14.29809366504527
 30
0.0
 10
15.8219455255584
 20
-14.29809366504527
 30
0.0
 10
15.8219455255584
 20
-14.29809366504527
 30
0.0
 10
15.8219455255584
 20
-14.29809366504527
 30
0.0
 10
15.8219455255584
 20
-14.3402444083073
 30
0.0
 10
15.8219455255584
 20
-14.3402444083073
 30
0.0
 10
15.8219455255584
 20
-14.3402444083073
 30
0.0
 10
15.80788953597858
 20
-14.3402444083073
 30
0.0
 10
15.80788953597858
 20
-14.3402444083073
 30
0.0
 10
15.80788953597858
 20
-14.3402444083073
 30
0.0
 10
15.80788953597858
 20
-14.29809366504527
 30
0.0
 10
15.80788953597858
 20
-14.29809366504527
 30
0.0
 10
15.80788953597858
 20
-14.29809366504527
 30
0.0
 10
15.72965141750856
 20
-14.29809366504527
 30
0.0
 10
15.72965141750856
 20
-14.29809366504527
 30
0.0
 10
15.72965141750856
 20
-14.29809366504527
 30
0.0
 10
15.72965141750856
 20
-14.28331420541354
 30
0.0
 10
15.72965141750856
 20
-14.28331420541354
 30
0.0
  0
HATCH
  5
C7
330
C1
100
AcDbEntity
  8
Livello 1
 62
    18
420
        0
440
 33554687
100
AcDbHatch
 10
0.0
 20
0.0
 30
0.0
210
0.0
220
0.0
230
1.0
  2
SOLID
 70
     1
 71
     1
 91
        2
 92
        1
 93
        1
 72
     4
 94
        3
 73
     0
 74
     0
 95
       17
 96
       13
 40
0.0
 40
0.0
 40
0.0
 40
0.0
 40
1.0
 40
1.0
 40
1.0
 40
2.0
 40
2.0
 40
2.0
 40
3.0
 40
3.0
 40
3.0
 40
4.0
 40
4.0
 40
4.0
 40
4.0
 10
15.80788953597858
 20
-14.28526068436271
 10
15.80788953597858
 20
-14.28526068436271
 10
15.80788953597858
 20
-14.19296657631287
 10
15.80788953597858
 20
-14.19296657631287
 10
15.80788953597858
 20
-14.19296657631287
 10
15.80740722261064
 20
-14.19296657631287
 10
15.80740722261064
 20
-14.19296657631287
 10
15.80740722261064
 20
-14.19296657631287
 10
15.74343179944956
 20
-14.28526068436271
 10
15.74343179944956
 20
-14.28526068436271
 10
15.74343179944956
 20
-14.28526068436271
 10
15.80788953597858
 20
-14.28526068436271
 10
15.80788953597858
 20
-14.28526068436271
 97
        0
 97
        1
330
C5
 92
        1
 93
        1
 72
     4
 94
        3
 73
     0
 74
     0
 95
       38
 96
       34
 40
0.0
 40
0.0
 40
0.0
 40
0.0
 40
1.0
 40
1.0
 40
1.0
 40
2.0
 40
2.0
 40
2.0
 40
3.0
 40
3.0
 40
3.0
 40
4.0
 40
4.0
 40
4.0
 40
5.0
 40
5.0
 40
5.0
 40
6.0
 40
6.0
 40
6.0
 40
7.0
 40
7.0
 40
7.0
 40
8.0
 40
8.0
 40
8.0
 40
9.0
 40
9.0
 40
9.0
 40
10.0
 40
10.0
 40
10.0
 40
11.0
 40
11.0
 40
11.0
 40
11.0
 10
15.72965141750856
 20
-14.28331420541354
 10
15.72965141750856
 20
-14.28331420541354
 10
15.80813069266255
 20
-14.1706768085233
 10
15.80813069266255
 20
-14.1706768085233
 10
15.80813069266255
 20
-14.1706768085233
 10
15.8219455255584
 20
-14.1706768085233
 10
15.8219455255584
 20
-14.1706768085233
 10
15.8219455255584
 20
-14.1706768085233
 10
15.8219455255584
 20
-14.28526068436271
 10
15.8219455255584
 20
-14.28526068436271
 10
15.8219455255584
 20
-14.28526068436271
 10
15.84737033023954
 20
-14.28526068436271
 10
15.84737033023954
 20
-14.28526068436271
 10
15.84737033023954
 20
-14.28526068436271
 10
15.84737033023954
 20
-14.29809366504527
 10
15.84737033023954
 20
-14.29809366504527
 10
15.84737033023954
 20
-14.29809366504527
 10
15.8219455255584
 20
-14.29809366504527
 10
15.8219455255584
 20
-14.29809366504527
 10
15.8219455255584
 20
-14.29809366504527
 10
15.8219455255584
 20
-14.3402444083073
 10
15.8219455255584
 20
-14.3402444083073
 10
15.8219455255584
 20
-14.3402444083073
 10
15.80788953597858
 20
-14.3402444083073
 10
15.80788953597858
 20
-14.3402444083073
 10
15.80788953597858
 20
-14.3402444083073
 10
15.80788953597858
 20
-14.29809366504527
 10
15.80788953597858
 20
-14.29809366504527
 10
15.80788953597858
 20
-14.29809366504527
 10
15.72965141750856
 20
-14.29809366504527
 10
15.72965141750856
 20
-14.29809366504527
 10
15.72965141750856
 20
-14.29809366504527
 10
15.72965141750856
 20
-14.28331420541354
 10
15.72965141750856
 20
-14.28331420541354
 97
        0
 97
        1
330
C6
 75
     2
 76
     1
 98
        1
 10
0.0
 20
0.0
450
        0
451
        0
460
0.0
461
0.0
452
        0
462
0.0
453
        0
470

  0
SPLINE
  5
C8
330
C1
100
AcDbEntity
  8
Livello 1
100
AcDbSpline
210
0.0
220
0.0
230
1.0
 70
    11
 71
     3
 72
    17
 73
    13
 74
     0
 42
0.000000001
 43
0.0000000001
 40
0.0
 40
0.0
 40
0.0
 40
0.0
 40
1.0
 40
1.0
 40
1.0
 40
2.0
 40
2.0
 40
2.0
 40
3.0
 40
3.0
 40
3.0
 40
4.0
 40
4.0
 40
4.0
 40
4.0
 10
15.94242051467759
 20
-14.28526068436271
 30
0.0
 10
15.94242051467759
 20
-14.28526068436271
 30
0.0
 10
15.94242051467759
 20
-14.19296657631287
 30
0.0
 10
15.94242051467759
 20
-14.19296657631287
 30
0.0
 10
15.94242051467759
 20
-14.19296657631287
 30
0.0
 10
15.94193820130965
 20
-14.19296657631287
 30
0.0
 10
15.94193820130965
 20
-14.19296657631287
 30
0.0
 10
15.94193820130965
 20
-14.19296657631287
 30
0.0
 10
15.87799722910341
 20
-14.28526068436271
 30
0.0
 10
15.87799722910341
 20
-14.28526068436271
 30
0.0
 10
15.87799722910341
 20
-14.28526068436271
 30
0.0
 10
15.94242051467759
 20
-14.28526068436271
 30
0.0
 10
15.94242051467759
 20
-14.28526068436271
 30
0.0
  0
SPLINE
  5
C9
330
C1
100
AcDbEntity
  8
Livello 1
100
AcDbSpline
210
0.0
220
0.0
230
1.0
 70
    11
 71
     3
 72
    38
 73
    34
 74
     0
 42
0.000000001
 43
0.0000000001
 40
0.0
 40
0.0
 40
0.0
 40
0.0
 40
1.0
 40
1.0
 40
1.0
 40
2.0
 40
2.0
 40
2.0
 40
3.0
 40
3.0
 40
3.0
 40
4.0
 40
4.0
 40
4.0
 40
5.0
 40
5.0
 40
5.0
 40
6.0
 40
6.0
 40
6.0
 40
7.0
 40
7.0
 40
7.0
 40
8.0
 40
8.0
 40
8.0
 40
9.0
 40
9.0
 40
9.0
 40
10.0
 40
10.0
 40
10.0
 40
11.0
 40
11.0
 40
11.0
 40
11.0
 10
15.86418239620756
 20
-14.28331420541354
 30
0.0
 10
15.86418239620756
 20
-14.28331420541354
 30
0.0
 10
15.94266167136155
 20
-14.1706768085233
 30
0.0
 10
15.94266167136155
 20
-14.1706768085233
 30
0.0
 10
15.94266167136155
 20
-14.1706768085233
 30
0.0
 10
15.95647650425741
 20
-14.1706768085233
 30
0.0
 10
15.95647650425741
 20
-14.1706768085233
 30
0.0
 10
15.95647650425741
 20
-14.1706768085233
 30
0.0
 10
15.95647650425741
 20
-14.28526068436271
 30
0.0
 10
15.95647650425741
 20
-14.28526068436271
 30
0.0
 10
15.95647650425741
 20
-14.28526068436271
 30
0.0
 10
15.98190130893855
 20
-14.28526068436271
 30
0.0
 10
15.98190130893855
 20
-14.28526068436271
 30
0.0
 10
15.98190130893855
 20
-14.28526068436271
 30
0.0
 10
15.98190130893855
 20
-14.29809366504527
 30
0.0
 10
15.98190130893855
 20
-14.29809366504527
 30
0.0
 10
15.98190130893855
 20
-14.29809366504527
 30
0.0
 10
15.95647650425741
 20
-14.29809366504527
 30
0.0
 10
15.95647650425741
 20
-14.29809366504527
 30
0.0
 10
15.95647650425741
 20
-14.29809366504527
 30
0.0
 10
15.95647650425741
 20
-14.3402444083073
 30
0.0
 10
15.95647650425741
 20
-14.3402444083073
 30
0.0
 10
15.95647650425741
 20
-14.3402444083073
 30
0.0
 10
15.94242051467759
 20
-14.3402444083073
 30
0.0
 10
15.94242051467759
 20
-14.3402444083073
 30
0.0
 10
15.94242051467759
 20
-14.3402444083073
 30
0.0
 10
15.94242051467759
 20
-14.29809366504527
 30
0.0
 10
15.94242051467759
 20
-14.29809366504527
 30
0.0
 10
15.94242051467759
 20
-14.29809366504527
 30
0.0
 10
15.86418239620756
 20
-14.29809366504527
 30
0.0
 10
15.86418239620756
 20
-14.29809366504527
 30
0.0
 10
15.86418239620756
 20
-14.29809366504527
 30
0.0
 10
15.86418239620756
 20
-14.28331420541354
 30
0.0
 10
15.86418239620756
 20
-14.28331420541354
 30
0.0
  0
HATCH
  5
CA
330
C1
100
AcDbEntity
  8
Livello 1
 62
    18
420
        0
440
 33554687
100
AcDbHatch
 10
0.0
 20
0.0
 30
0.0
210
0.0
220
0.0
230
1.0
  2
SOLID
 70
     1
 71
     1
 91
        2
 92
        1
 93
        1
 72
     4
 94
        3
 73
     0
 74
     0
 95
       17
 96
       13
 40
0.0
 40
0.0
 40
0.0
 40
0.0
 40
1.0
 40
1.0
 40
1.0
 40
2.0
 40
2.0
 40
2.0
 40
3.0
 40
3.0
 40
3.0
 40
4.0
 40
4.0
 40
4.0
 40
4.0
 10
15.94242051467759
 20
-14.28526068436271
 10
15.94242051467759
 20
-14.28526068436271
 10
15.94242051467759
 20
-14.19296657631287
 10
15.94242051467759
 20
-14.19296657631287
 10
15.94242051467759
 20
-14.19296657631287
 10
15.94193820130965
 20
-14.19296657631287
 10
15.94193820130965
 20
-14.19296657631287
 10
15.94193820130965
 20
-14.19296657631287
 10
15.87799722910341
 20
-14.28526068436271
 10
15.87799722910341
 20
-14.28526068436271
 10
15.87799722910341
 20
-14.28526068436271
 10
15.94242051467759
 20
-14.28526068436271
 10
15.94242051467759
 20
-14.28526068436271
 97
        0
 97
        1
330
C8
 92
        1
 93
        1
 72
     4
 94
        3
 73
     0
 74
     0
 95
       38
 96
       34
 40
0.0
 40
0.0
 40
0.0
 40
0.0
 40
1.0
 40
1.0
 40
1.0
 40
2.0
 40
2.0
 40
2.0
 40
3.0
 40
3.0
 40
3.0
 40
4.0
 40
4.0
 40
4.0
 40
5.0
 40
5.0
 40
5.0
 40
6.0
 40
6.0
 40
6.0
 40
7.0
 40
7.0
 40
7.0
 40
8.0
 40
8.0
 40
8.0
 40
9.0
 40
9.0
 40
9.0
 40
10.0
 40
10.0
 40
10.0
 40
11.0
 40
11.0
 40
11.0
 40
11.0
 10
15.86418239620756
 20
-14.28331420541354
 10
15.86418239620756
 20
-14.28331420541354
 10
15.94266167136155
 20
-14.1706768085233
 10
15.94266167136155
 20
-14.1706768085233
 10
15.94266167136155
 20
-14.1706768085233
 10
15.95647650425741
 20
-14.1706768085233
 10
15.95647650425741
 20
-14.1706768085233
 10
15.95647650425741
 20
-14.1706768085233
 10
15.95647650425741
 20
-14.28526068436271
 10
15.95647650425741
 20
-14.28526068436271
 10
15.95647650425741
 20
-14.28526068436271
 10
15.98190130893855
 20
-14.28526068436271
 10
15.98190130893855
 20
-14.28526068436271
 10
15.98190130893855
 20
-14.28526068436271
 10
15.98190130893855
 20
-14.29809366504527
 10
15.98190130893855
 20
-14.29809366504527
 10
15.98190130893855
 20
-14.29809366504527
 10
15.95647650425741
 20
-14.29809366504527
 10
15.95647650425741
 20
-14.29809366504527
 10
15.95647650425741
 20
-14.29809366504527
 10
15.95647650425741
 20
-14.3402444083073
 10
15.95647650425741
 20
-14.3402444083073
 10
15.95647650425741
 20
-14.3402444083073
 10
15.94242051467759
 20
-14.3402444083073
 10
15.94242051467759
 20
-14.3402444083073
 10
15.94242051467759
 20
-14.3402444083073
 10
15.94242051467759
 20
-14.29809366504527
 10
15.94242051467759
 20
-14.29809366504527
 10
15.94242051467759
 20
-14.29809366504527
 10
15.86418239620756
 20
-14.29809366504527
 10
15.86418239620756
 20
-14.29809366504527
 10
15.86418239620756
 20
-14.29809366504527
 10
15.86418239620756
 20
-14.28331420541354
 10
15.86418239620756
 20
-14.28331420541354
 97
        0
 97
        1
330
C9
 75
     2
 76
     1
 98
        1
 10
0.0
 20
0.0
450
        0
451
        0
460
0.0
461
0.0
452
        0
462
0.0
453
        0
470

  0
ENDBLK
  5
C4
330
C1
100
AcDbEntity
  8
0
100
AcDbBlockEnd
  0
BLOCK
  5
CD
330
CB
100
AcDbEntity
  8
0
100
AcDbBlockBegin
  2
Block_11
 70
     0
 10
0.0
 20
0.0
 30
0.0
  3
Block_11
  1

  0
LINE
  5
CF
330
CB
100
AcDbEntity
  8
Livello 1
 62
    18
420
        0
370
     9
100
AcDbLine
 10
15.85186189820207
 20
-14.02774152611707
 30
0.0
 11
15.85186189820207
 21
-13.97503475433244
 31
0.0
  0
LWPOLYLINE
  5
D0
330
CB
100
AcDbEntity
  8
Livello 1
100
AcDbPolyline
 90
        3
 70
     1
 43
0.0
 10
15.8509848151306
 20
-13.71832198164917
 10
15.93596217169336
 20
-13.9732189343964
 10
15.76776162471079
 20
-13.9732189343964
  0
HATCH
  5
D1
330
CB
100
AcDbEntity
  8
Livello 1
 62
    18
420
        0
440
 33554687
100
AcDbHatch
 10
0.0
 20
0.0
 30
0.0
210
0.0
220
0.0
230
1.0
  2
SOLID
 70
     1
 71
     1
 91
        1
 92
        1
 93
        3
 72
     1
 10
15.8509848151306
 20
-13.71832198164917
 11
15.93596217169336
 21
-13.9732189343964
 72
     1
 10
15.93596217169336
 20
-13.9732189343964
 11
15.76776162471079
 21
-13.9732189343964
 72
     1
 10
15.76776162471079
 20
-13.9732189343964
 11
15.8509848151306
 21
-13.71832198164917
 97
        1
330
D0
 75
     0
 76
     1
 98
        1
 10
0.0
 20
0.0
450
        0
451
        0
460
0.0
461
0.0
452
        0
462
0.0
453
        0
470

  0
ENDBLK
  5
CE
330
CB
100
AcDbEntity
  8
0
100
AcDbBlockEnd
  0
BLOCK
  5
D4
330
D2
100
AcDbEntity
  8
0
100
AcDbBlockBegin
  2
Block_12
 70
     0
 10
0.0
 20
0.0
 30
0.0
  3
Block_12
  1

  0
LINE
  5
D6
330
D2
100
AcDbEntity
  8
Livello 1
 62
    18
420
        0
370
     9
100
AcDbLine
 10
15.85186189820207
 20
-14.4202407294907
 30
0.0
 11
15.85186189820207
 21
-14.46382829919397
 31
0.0
  0
LWPOLYLINE
  5
D7
330
D2
100
AcDbEntity
  8
Livello 1
100
AcDbPolyline
 90
        3
 70
     1
 43
0.0
 10
15.85273898127355
 20
-14.72054107187737
 10
15.76776162471079
 20
-14.4656441191302
 10
15.93596217169336
 20
-14.4656441191302
  0
HATCH
  5
D8
330
D2
100
AcDbEntity
  8
Livello 1
 62
    18
420
        0
440
 33554687
100
AcDbHatch
 10
0.0
 20
0.0
 30
0.0
210
0.0
220
0.0
230
1.0
  2
SOLID
 70
     1
 71
     1
 91
        1
 92
        1
 93
        3
 72
     1
 10
15.85273898127355
 20
-14.72054107187737
 11
15.76776162471079
 21
-14.4656441191302
 72
     1
 10
15.76776162471079
 20
-14.4656441191302
 11
15.93596217169336
 21
-14.4656441191302
 72
     1
 10
15.93596217169336
 20
-14.4656441191302
 11
15.85273898127355
 21
-14.72054107187737
 97
        1
330
D7
 75
     0
 76
     1
 98
        1
 10
0.0
 20
0.0
450
        0
451
        0
460
0.0
461
0.0
452
        0
462
0.0
453
        0
470

  0
ENDBLK
  5
D5
330
D2
100
AcDbEntity
  8
0
100
AcDbBlockEnd
  0
BLOCK
  5
DB
330
D9
100
AcDbEntity
  8
0
100
AcDbBlockBegin
  2
Block_13
 70
     0
 10
0.0
 20
0.0
 30
0.0
  3
Block_13
  1

  0
LINE
  5
DD
330
D9
100
AcDbEntity
  8
Livello 1
 62
    28
420
  1250058
370
     9
100
AcDbLine
 10
6.305047904947768
 20
-14.46086135823779
 30
0.0
 11
6.242266534932258
 21
-14.60033307722363
 31
0.0
  0
LINE
  5
DE
330
D9
100
AcDbEntity
  8
Livello 1
 62
    28
420
  1250058
370
     9
100
AcDbLine
 10
14.48795061832291
 20
-14.46086135823779
 30
0.0
 11
6.305047904947768
 21
-14.46086135823779
 31
0.0
  0
LINE
  5
DF
330
D9
100
AcDbEntity
  8
Livello 1
 62
    28
420
  1250058
370
     9
100
AcDbLine
 10
11.11486104397838
 20
-14.46086135823779
 30
0.0
 11
11.1063088407324
 21
-14.46086135823779
 31
0.0
  0
LINE
  5
E0
330
D9
100
AcDbEntity
  8
Livello 1
 62
    28
420
  1250058
370
     9
100
AcDbLine
 10
10.99058392927187
 20
-14.46086135823779
 30
0.0
 11
10.97857544345054
 21
-14.46086135823779
 31
0.0
  0
LINE
  5
E1
330
D9
100
AcDbEntity
  8
Livello 1
 62
    28
420
  1250058
370
     9
100
AcDbLine
 10
10.95072954421083
 20
-14.46086135823779
 30
0.0
 11
10.92999184875843
 21
-14.46086135823779
 31
0.0
  0
LINE
  5
E2
330
D9
100
AcDbEntity
  8
Livello 1
 62
    28
420
  1250058
370
     9
100
AcDbLine
 10
10.70581791988421
 20
-14.46086135823779
 30
0.0
 11
10.65633066101464
 21
-14.46086135823779
 31
0.0
  0
LINE
  5
E3
330
D9
100
AcDbEntity
  8
Livello 1
 62
    28
420
  1250058
370
     9
100
AcDbLine
 10
14.48795061832291
 20
-14.46086135823779
 30
0.0
 11
14.55072398700602
 21
-14.60033307722363
 31
0.0
  0
LINE
  5
E4
330
D9
100
AcDbEntity
  8
Livello 1
 62
    28
420
  1250058
370
     9
100
AcDbLine
 10
13.36164035663682
 20
-14.59314102812492
 30
0.0
 11
13.36164035663682
 21
-14.59578680784521
 31
0.0
  0
LINE
  5
E5
330
D9
100
AcDbEntity
  8
Livello 1
 62
    28
420
  1250058
370
     9
100
AcDbLine
 10
13.3660096195152
 20
-14.59132438359866
 30
0.0
 11
13.39239288704512
 21
-14.59132438359866
 31
0.0
  0
SPLINE
  5
E6
330
D9
100
AcDbEntity
  8
Livello 1
 62
    28
420
  1250058
370
     9
100
AcDbSpline
210
0.0
220
0.0
230
1.0
 70
     8
 71
     3
 72
     8
 73
     4
 74
     0
 42
0.000000001
 43
0.0000000001
 40
0.0
 40
0.0
 40
0.0
 40
0.0
 40
1.0
 40
1.0
 40
1.0
 40
1.0
 10
13.36164035663682
 20
-14.59314102812492
 30
0.0
 10
13.36164035663682
 20
-14.59241437031439
 30
0.0
 10
13.3623763305545
 20
-14.59178087376172
 30
0.0
 10
13.36400665252407
 20
-14.59132438359866
 30
0.0
  0
LINE
  5
E7
330
D9
100
AcDbEntity
  8
Livello 1
 62
    28
420
  1250058
370
     9
100
AcDbLine
 10
13.53177144125219
 20
-14.59132438359866
 30
0.0
 11
13.56107194586861
 21
-14.59132438359866
 31
0.0
  0
SPLINE
  5
E8
330
D9
100
AcDbEntity
  8
Livello 1
 62
    28
420
  1250058
370
     9
100
AcDbSpline
210
0.0
220
0.0
230
1.0
 70
     8
 71
     3
 72
     8
 73
     4
 74
     0
 42
0.000000001
 43
0.0000000001
 40
0.0
 40
0.0
 40
0.0
 40
0.0
 40
1.0
 40
1.0
 40
1.0
 40
1.0
 10
13.56107194586861
 20
-14.59132438359866
 30
0.0
 10
13.5627009780457
 20
-14.59178087376172
 30
0.0
 10
13.56343695196338
 20
-14.59241437031439
 30
0.0
 10
13.56343695196338
 20
-14.59314102812492
 30
0.0
  0
SPLINE
  5
E9
330
D9
100
AcDbEntity
  8
Livello 1
 62
    28
420
  1250058
370
     9
100
AcDbSpline
210
0.0
220
0.0
230
1.0
 70
     8
 71
     3
 72
     8
 73
     4
 74
     0
 42
0.000000001
 43
0.0000000001
 40
0.0
 40
0.0
 40
0.0
 40
0.0
 40
1.0
 40
1.0
 40
1.0
 40
1.0
 10
13.52813815229149
 20
-14.59050456453043
 30
0.0
 10
13.52976976326284
 20
-14.59050456453043
 30
0.0
 10
13.53068145456396
 20
-14.59086789343566
 30
0.0
 10
13.53177144125219
 20
-14.59132438359866
 30
0.0
  0
LINE
  5
EA
330
D9
100
AcDbEntity
  8
Livello 1
 62
    28
420
  1250058
370
     9
100
AcDbLine
 10
10.39631759718729
 20
-14.59578680784521
 30
0.0
 11
5.698223435634951
 21
-14.59578680784521
 31
0.0
  0
SPLINE
  5
EB
330
D9
100
AcDbEntity
  8
Livello 1
 62
    28
420
  1250058
370
     9
100
AcDbSpline
210
0.0
220
0.0
230
1.0
 70
    24
 71
     3
 72
    26
 73
    22
 74
     0
 42
0.000000001
 43
0.0000000001
 40
0.0
 40
0.0
 40
0.0
 40
0.0
 40
1.0
 40
1.0
 40
1.0
 40
2.0
 40
2.0
 40
2.0
 40
3.0
 40
3.0
 40
3.0
 40
4.0
 40
4.0
 40
4.0
 40
5.0
 40
5.0
 40
5.0
 40
6.0
 40
6.0
 40
6.0
 40
7.0
 40
7.0
 40
7.0
 40
7.0
 10
15.09458876512491
 20
-14.59578680784521
 30
0.0
 10
15.09622840322005
 20
-14.59578680784521
 30
0.0
 10
15.09294912702991
 20
-14.59578680784521
 30
0.0
 10
15.09222246923766
 20
-14.59578680784521
 30
0.0
 10
15.08512358157604
 20
-14.59578680784521
 30
0.0
 10
15.07839733893598
 20
-14.59578680784521
 30
0.0
 10
15.07129845127436
 20
-14.59578680784521
 30
0.0
 10
15.03763928969761
 20
-14.59578680784521
 30
0.0
 10
15.00379380561007
 20
-14.59578680784521
 30
0.0
 10
14.97031165041853
 20
-14.59578680784521
 30
0.0
 10
14.81674463701365
 20
-14.59578680784521
 30
0.0
 10
14.66316962511708
 20
-14.59578680784521
 30
0.0
 10
14.50942428769311
 20
-14.59578680784521
 30
0.0
 10
14.31381490853361
 20
-14.59578680784521
 30
0.0
 10
14.11803522149779
 20
-14.59578680784521
 30
0.0
 10
13.92224752714462
 20
-14.59578680784521
 30
0.0
 10
13.53049513205318
 20
-14.59578680784521
 30
0.0
 10
13.13892905947252
 20
-14.59578680784521
 30
0.0
 10
12.74717666438108
 20
-14.59578680784521
 30
0.0
 10
11.96349486781286
 20
-14.59578680784521
 30
0.0
 10
11.17999939375554
 20
-14.59578680784521
 30
0.0
 10
10.39631759718729
 20
-14.59578680784521
 30
0.0
  0
LINE
  5
EC
330
D9
100
AcDbEntity
  8
Livello 1
 62
    28
420
  1250058
370
     9
100
AcDbLine
 10
14.83348571460936
 20
-14.59314102812492
 30
0.0
 11
14.83348571460936
 21
-14.59578680784521
 31
0.0
  0
LINE
  5
ED
330
D9
100
AcDbEntity
  8
Livello 1
 62
    28
420
  1250058
370
     9
100
AcDbLine
 10
14.6318754417937
 20
-14.59314102812492
 30
0.0
 11
14.6318754417937
 21
-14.59578680784521
 31
0.0
  0
SPLINE
  5
EE
330
D9
100
AcDbEntity
  8
Livello 1
 62
    28
420
  1250058
370
     9
100
AcDbSpline
210
0.0
220
0.0
230
1.0
 70
     8
 71
     3
 72
     8
 73
     4
 74
     0
 42
0.000000001
 43
0.0000000001
 40
0.0
 40
0.0
 40
0.0
 40
0.0
 40
1.0
 40
1.0
 40
1.0
 40
1.0
 10
14.66226464330588
 20
-14.59132438359866
 30
0.0
 10
14.66335594763261
 20
-14.59078404830372
 30
0.0
 10
14.664630939193
 20
-14.59050456453043
 30
0.0
 10
14.66644758367335
 20
-14.59050456453043
 30
0.0
  0
LINE
  5
EF
330
D9
100
AcDbEntity
  8
Livello 1
 62
    28
420
  1250058
370
     9
100
AcDbLine
 10
10.4892925300786
 20
-14.59050456453043
 30
0.0
 11
10.46491222953988
 21
-14.59050456453043
 31
0.0
  0
LINE
  5
F0
330
D9
100
AcDbEntity
  8
Livello 1
 62
    28
420
  1250058
370
     9
100
AcDbLine
 10
10.46199628224579
 20
-14.59050456453043
 30
0.0
 11
10.33062959600326
 21
-14.59050456453043
 31
0.0
  0
LINE
  5
F1
330
D9
100
AcDbEntity
  8
Livello 1
 62
    28
420
  1250058
370
     9
100
AcDbLine
 10
10.32662366202097
 20
-14.59050456453043
 30
0.0
 11
10.31006890693598
 21
-14.59050456453043
 31
0.0
  0
SPLINE
  5
F2
330
D9
100
AcDbEntity
  8
Livello 1
 62
    28
420
  1250058
370
     9
100
AcDbSpline
210
0.0
220
0.0
230
1.0
 70
     8
 71
     3
 72
     8
 73
     4
 74
     0
 42
0.000000001
 43
0.0000000001
 40
0.0
 40
0.0
 40
0.0
 40
0.0
 40
1.0
 40
1.0
 40
1.0
 40
1.0
 10
10.2978740986039
 20
-14.59132438359866
 30
0.0
 10
10.2962356678246
 20
-14.59178087376172
 30
0.0
 10
10.29550780271668
 20
-14.59241437031439
 30
0.0
 10
10.29550780271668
 20
-14.59314102812492
 30
0.0
  0
SPLINE
  5
F3
330
D9
100
AcDbEntity
  8
Livello 1
 62
    28
420
  1250058
370
     9
100
AcDbSpline
210
0.0
220
0.0
230
1.0
 70
    24
 71
     3
 72
    17
 73
    13
 74
     0
 42
0.000000001
 43
0.0000000001
 40
0.0
 40
0.0
 40
0.0
 40
0.0
 40
1.0
 40
1.0
 40
1.0
 40
2.0
 40
2.0
 40
2.0
 40
3.0
 40
3.0
 40
3.0
 40
4.0
 40
4.0
 40
4.0
 40
4.0
 10
14.63405541517005
 20
-14.59132438359866
 30
0.0
 10
14.6318754417937
 20
-14.59132438359866
 30
0.0
 10
14.63642171105729
 20
-14.59132438359866
 30
0.0
 10
14.63769802025631
 20
-14.59132438359866
 30
0.0
 10
14.63878800694455
 20
-14.59132438359866
 30
0.0
 10
14.64006563319375
 20
-14.59132438359866
 30
0.0
 10
14.64115430283167
 20
-14.59132438359866
 30
0.0
 10
14.64352059871892
 20
-14.59132438359866
 30
0.0
 10
14.64588689460617
 20
-14.59132438359866
 30
0.0
 10
14.64825319049342
 20
-14.59132438359866
 30
0.0
 10
14.65298578226779
 20
-14.59132438359866
 30
0.0
 10
14.65771837404228
 20
-14.59132438359866
 30
0.0
 10
14.66226464330588
 20
-14.59132438359866
 30
0.0
  0
SPLINE
  5
F4
330
D9
100
AcDbEntity
  8
Livello 1
 62
    28
420
  1250058
370
     9
100
AcDbSpline
210
0.0
220
0.0
230
1.0
 70
     8
 71
     3
 72
     8
 73
     4
 74
     0
 42
0.000000001
 43
0.0000000001
 40
0.0
 40
0.0
 40
0.0
 40
0.0
 40
1.0
 40
1.0
 40
1.0
 40
1.0
 10
10.49730439804324
 20
-14.59314102812492
 30
0.0
 10
10.49730439804324
 20
-14.59132438359866
 30
0.0
 10
10.49493810215599
 20
-14.59050456453043
 30
0.0
 10
10.48911552369339
 20
-14.59050456453043
 30
0.0
  0
LINE
  5
F5
330
D9
100
AcDbEntity
  8
Livello 1
 62
    28
420
  1250058
370
     9
100
AcDbLine
 10
10.49730439804324
 20
-14.59314102812492
 30
0.0
 11
10.49730439804324
 21
-14.59578680784521
 31
0.0
  0
LINE
  5
F6
330
D9
100
AcDbEntity
  8
Livello 1
 62
    28
420
  1250058
370
     9
100
AcDbLine
 10
10.29550780271668
 20
-14.59578680784521
 30
0.0
 11
10.29550780271668
 21
-14.59314102812492
 31
0.0
  0
LINE
  5
F7
330
D9
100
AcDbEntity
  8
Livello 1
 62
    28
420
  1250058
370
     9
100
AcDbLine
 10
7.395863728325656
 20
-14.59050456453043
 30
0.0
 11
7.264861501716129
 21
-14.59050456453043
 31
0.0
  0
LINE
  5
F8
330
D9
100
AcDbEntity
  8
Livello 1
 62
    28
420
  1250058
370
     9
100
AcDbLine
 10
7.26158109478904
 20
-14.59050456453043
 30
0.0
 11
7.239380767626721
 21
-14.59050456453043
 31
0.0
  0
SPLINE
  5
F9
330
D9
100
AcDbEntity
  8
Livello 1
 62
    28
420
  1250058
370
     9
100
AcDbSpline
210
0.0
220
0.0
230
1.0
 70
     8
 71
     3
 72
     8
 73
     4
 74
     0
 42
0.000000001
 43
0.0000000001
 40
0.0
 40
0.0
 40
0.0
 40
0.0
 40
1.0
 40
1.0
 40
1.0
 40
1.0
 10
14.6318754417937
 20
-14.59314102812492
 30
0.0
 10
14.6318754417937
 20
-14.59241437031439
 30
0.0
 10
14.63242641005777
 20
-14.59178087376172
 30
0.0
 10
14.63405541517005
 20
-14.59132438359866
 30
0.0
  0
LINE
  5
FA
330
D9
100
AcDbEntity
  8
Livello 1
 62
    28
420
  1250058
370
     9
100
AcDbLine
 10
14.80273318420119
 20
-14.59132438359866
 30
0.0
 11
14.83111941872224
 21
-14.59132438359866
 31
0.0
  0
SPLINE
  5
FB
330
D9
100
AcDbEntity
  8
Livello 1
 62
    28
420
  1250058
370
     9
100
AcDbSpline
210
0.0
220
0.0
230
1.0
 70
    24
 71
     3
 72
    20
 73
    16
 74
     0
 42
0.000000001
 43
0.0000000001
 40
0.0
 40
0.0
 40
0.0
 40
0.0
 40
1.0
 40
1.0
 40
1.0
 40
2.0
 40
2.0
 40
2.0
 40
3.0
 40
3.0
 40
3.0
 40
4.0
 40
4.0
 40
4.0
 40
5.0
 40
5.0
 40
5.0
 40
5.0
 10
7.421157009167338
 20
-14.59050456453043
 30
0.0
 10
7.421706660574206
 20
-14.59050456453043
 30
0.0
 10
7.422433318366384
 20
-14.59050456453043
 30
0.0
 10
7.423159976158467
 20
-14.59050456453043
 30
0.0
 10
7.42424996284667
 20
-14.59050456453043
 30
0.0
 10
7.421883666959453
 20
-14.59050456453043
 30
0.0
 10
7.421520338063396
 20
-14.59050456453043
 30
0.0
 10
7.42025447965239
 20
-14.59050456453043
 30
0.0
 10
7.418977035790931
 20
-14.59050456453043
 30
0.0
 10
7.417700726591917
 20
-14.59050456453043
 30
0.0
 10
7.415334430704699
 20
-14.59050456453043
 30
0.0
 10
7.412968134817482
 20
-14.59050456453043
 30
0.0
 10
7.410424832544986
 20
-14.59050456453043
 30
0.0
 10
7.405515234385305
 20
-14.59050456453043
 30
0.0
 10
7.40078377678142
 20
-14.59050456453043
 30
0.0
 10
7.395863728325656
 20
-14.59050456453043
 30
0.0
  0
SPLINE
  5
FC
330
D9
100
AcDbEntity
  8
Livello 1
 62
    28
420
  1250058
370
     9
100
AcDbSpline
210
0.0
220
0.0
230
1.0
 70
     8
 71
     3
 72
     8
 73
     4
 74
     0
 42
0.000000001
 43
0.0000000001
 40
0.0
 40
0.0
 40
0.0
 40
0.0
 40
1.0
 40
1.0
 40
1.0
 40
1.0
 10
14.7981869149376
 20
-14.59050456453043
 30
0.0
 10
14.79981723690704
 20
-14.59050456453043
 30
0.0
 10
14.80073021721006
 20
-14.59086789343566
 30
0.0
 10
14.80182020389817
 20
-14.59132438359866
 30
0.0
  0
SPLINE
  5
FD
330
D9
100
AcDbEntity
  8
Livello 1
 62
    28
420
  1250058
370
     9
100
AcDbSpline
210
0.0
220
0.0
230
1.0
 70
     8
 71
     3
 72
     8
 73
     4
 74
     0
 42
0.000000001
 43
0.0000000001
 40
0.0
 40
0.0
 40
0.0
 40
0.0
 40
1.0
 40
1.0
 40
1.0
 40
1.0
 10
14.83111941872224
 20
-14.59132438359866
 30
0.0
 10
14.83275905681724
 20
-14.59178087376172
 30
0.0
 10
14.83348571460936
 20
-14.59241437031439
 30
0.0
 10
14.83348571460936
 20
-14.59314102812492
 30
0.0
  0
LINE
  5
FE
330
D9
100
AcDbEntity
  8
Livello 1
 62
    28
420
  1250058
370
     9
100
AcDbLine
 10
6.060313287006394
 20
-14.59050456453043
 30
0.0
 11
5.968968676084623
 21
-14.59050456453043
 31
0.0
  0
LINE
  5
FF
330
D9
100
AcDbEntity
  8
Livello 1
 62
    28
420
  1250058
370
     9
100
AcDbLine
 10
5.959512808661284
 20
-14.59314102812492
 30
0.0
 11
5.959512808661284
 21
-14.59578680784521
 31
0.0
  0
LINE
  5
100
330
D9
100
AcDbEntity
  8
Livello 1
 62
    28
420
  1250058
370
     9
100
AcDbLine
 10
6.161113765351471
 20
-14.59314102812492
 30
0.0
 11
6.161113765351471
 21
-14.59578680784521
 31
0.0
  0
SPLINE
  5
101
330
D9
100
AcDbEntity
  8
Livello 1
 62
    28
420
  1250058
370
     9
100
AcDbSpline
210
0.0
220
0.0
230
1.0
 70
    24
 71
     3
 72
    20
 73
    16
 74
     0
 42
0.000000001
 43
0.0000000001
 40
0.0
 40
0.0
 40
0.0
 40
0.0
 40
1.0
 40
1.0
 40
1.0
 40
2.0
 40
2.0
 40
2.0
 40
3.0
 40
3.0
 40
3.0
 40
4.0
 40
4.0
 40
4.0
 40
5.0
 40
5.0
 40
5.0
 40
5.0
 10
6.151471575417354
 20
-14.59050456453043
 30
0.0
 10
6.151657897928165
 20
-14.59050456453043
 30
0.0
 10
6.152747884616369
 20
-14.59050456453043
 30
0.0
 10
6.1521982332095
 20
-14.59050456453043
 30
0.0
 10
6.148928273144891
 20
-14.59050456453043
 30
0.0
 10
6.145835319465526
 20
-14.59050456453043
 30
0.0
 10
6.142920474565665
 20
-14.59050456453043
 30
0.0
 10
6.138914540482179
 20
-14.59050456453043
 30
0.0
 10
6.134916820332396
 20
-14.59050456453043
 30
0.0
 10
6.131097208860918
 20
-14.59050456453043
 30
0.0
 10
6.12308534089634
 20
-14.59050456453043
 30
0.0
 10
6.115259795442573
 20
-14.59050456453043
 30
0.0
 10
6.107443566114306
 20
-14.59050456453043
 30
0.0
 10
6.091606152695962
 20
-14.59050456453043
 30
0.0
 10
6.075778055403149
 20
-14.59050456453043
 30
0.0
 10
6.060313287006394
 20
-14.59050456453043
 30
0.0
  0
LINE
  5
102
330
D9
100
AcDbEntity
  8
Livello 1
 62
    28
420
  1250058
370
     9
100
AcDbLine
 10
6.130370551068772
 20
-14.59132438359866
 30
0.0
 11
6.158747469464254
 21
-14.59132438359866
 31
0.0
  0
SPLINE
  5
103
330
D9
100
AcDbEntity
  8
Livello 1
 62
    28
420
  1250058
370
     9
100
AcDbSpline
210
0.0
220
0.0
230
1.0
 70
     8
 71
     3
 72
     8
 73
     4
 74
     0
 42
0.000000001
 43
0.0000000001
 40
0.0
 40
0.0
 40
0.0
 40
0.0
 40
1.0
 40
1.0
 40
1.0
 40
1.0
 10
6.125814965679647
 20
-14.59050456453043
 30
0.0
 10
6.127455705778275
 20
-14.59050456453043
 30
0.0
 10
6.128544590462889
 20
-14.59086789343566
 30
0.0
 10
6.129271248255036
 20
-14.59132438359866
 30
0.0
  0
SPLINE
  5
104
330
D9
100
AcDbEntity
  8
Livello 1
 62
    28
420
  1250058
370
     9
100
AcDbSpline
210
0.0
220
0.0
230
1.0
 70
    24
 71
     3
 72
    20
 73
    16
 74
     0
 42
0.000000001
 43
0.0000000001
 40
0.0
 40
0.0
 40
0.0
 40
0.0
 40
1.0
 40
1.0
 40
1.0
 40
2.0
 40
2.0
 40
2.0
 40
3.0
 40
3.0
 40
3.0
 40
4.0
 40
4.0
 40
4.0
 40
5.0
 40
5.0
 40
5.0
 40
5.0
 10
14.82384352467527
 20
-14.59050456453043
 30
0.0
 10
14.82402053106049
 20
-14.59050456453043
 30
0.0
 10
14.82511051774872
 20
-14.59050456453043
 30
0.0
 10
14.82457018246739
 20
-14.59050456453043
 30
0.0
 10
14.82147722878802
 20
-14.59050456453043
 30
0.0
 10
14.81819795259788
 20
-14.59050456453043
 30
0.0
 10
14.81510499891852
 20
-14.59050456453043
 30
0.0
 10
14.81128538744704
 20
-14.59050456453043
 30
0.0
 10
14.80727945346478
 20
-14.59050456453043
 30
0.0
 10
14.8034598419933
 20
-14.59050456453043
 30
0.0
 10
14.79545861112995
 20
-14.59050456453043
 30
0.0
 10
14.78763306547857
 20
-14.59050456453043
 30
0.0
 10
14.77980751982706
 20
-14.59050456453043
 30
0.0
 10
14.76397810195394
 20
-14.59050456453043
 30
0.0
 10
14.748150004661
 20
-14.59050456453043
 30
0.0
 10
14.73267592013875
 20
-14.59050456453043
 30
0.0
  0
SPLINE
  5
105
330
D9
100
AcDbEntity
  8
Livello 1
 62
    28
420
  1250058
370
     9
100
AcDbSpline
210
0.0
220
0.0
230
1.0
 70
     8
 71
     3
 72
     8
 73
     4
 74
     0
 42
0.000000001
 43
0.0000000001
 40
0.0
 40
0.0
 40
0.0
 40
0.0
 40
1.0
 40
1.0
 40
1.0
 40
1.0
 10
6.158747469464254
 20
-14.59132438359866
 30
0.0
 10
6.160387107559357
 20
-14.59178087376172
 30
0.0
 10
6.161113765351471
 20
-14.59241437031439
 30
0.0
 10
6.161113765351471
 20
-14.59314102812492
 30
0.0
  0
SPLINE
  5
106
330
D9
100
AcDbEntity
  8
Livello 1
 62
    28
420
  1250058
370
     9
100
AcDbSpline
210
0.0
220
0.0
230
1.0
 70
     8
 71
     3
 72
     8
 73
     4
 74
     0
 42
0.000000001
 43
0.0000000001
 40
0.0
 40
0.0
 40
0.0
 40
0.0
 40
1.0
 40
1.0
 40
1.0
 40
1.0
 10
5.990079016558738
 20
-14.59132438359866
 30
0.0
 10
5.990991996861663
 20
-14.59078404830372
 30
0.0
 10
5.992258989935145
 20
-14.59050456453043
 30
0.0
 10
5.994084950541027
 20
-14.59050456453043
 30
0.0
  0
LINE
  5
107
330
D9
100
AcDbEntity
  8
Livello 1
 62
    28
420
  1250058
370
     9
100
AcDbLine
 10
14.73267592013875
 20
-14.59050456453043
 30
0.0
 11
14.64134062534257
 21
-14.59050456453043
 31
0.0
  0
SPLINE
  5
108
330
D9
100
AcDbEntity
  8
Livello 1
 62
    28
420
  1250058
370
     9
100
AcDbSpline
210
0.0
220
0.0
230
1.0
 70
    24
 71
     3
 72
    17
 73
    13
 74
     0
 42
0.000000001
 43
0.0000000001
 40
0.0
 40
0.0
 40
0.0
 40
0.0
 40
1.0
 40
1.0
 40
1.0
 40
2.0
 40
2.0
 40
2.0
 40
3.0
 40
3.0
 40
3.0
 40
4.0
 40
4.0
 40
4.0
 40
4.0
 10
5.961692782037691
 20
-14.59132438359866
 30
0.0
 10
5.959512808661284
 20
-14.59132438359866
 30
0.0
 10
5.964059077924908
 20
-14.59132438359866
 30
0.0
 10
5.965335387123923
 20
-14.59132438359866
 30
0.0
 10
5.966425373812127
 20
-14.59132438359866
 30
0.0
 10
5.96770168301114
 20
-14.59132438359866
 30
0.0
 10
5.968791669699376
 20
-14.59132438359866
 30
0.0
 10
5.971157965586562
 20
-14.59132438359866
 30
0.0
 10
5.973524261473779
 20
-14.59132438359866
 30
0.0
 10
5.975882339409907
 20
-14.59132438359866
 30
0.0
 10
5.980436826624622
 20
-14.59132438359866
 30
0.0
 10
5.985346424784303
 20
-14.59132438359866
 30
0.0
 10
5.990079016558738
 20
-14.59132438359866
 30
0.0
  0
SPLINE
  5
109
330
D9
100
AcDbEntity
  8
Livello 1
 62
    28
420
  1250058
370
     9
100
AcDbSpline
210
0.0
220
0.0
230
1.0
 70
     8
 71
     3
 72
     8
 73
     4
 74
     0
 42
0.000000001
 43
0.0000000001
 40
0.0
 40
0.0
 40
0.0
 40
0.0
 40
1.0
 40
1.0
 40
1.0
 40
1.0
 10
5.959512808661284
 20
-14.59314102812492
 30
0.0
 10
5.959512808661284
 20
-14.59241437031439
 30
0.0
 10
5.96005314394262
 20
-14.59178087376172
 30
0.0
 10
5.961692782037691
 20
-14.59132438359866
 30
0.0
  0
SPLINE
  5
10A
330
D9
100
AcDbEntity
  8
Livello 1
 62
    28
420
  1250058
370
     9
100
AcDbSpline
210
0.0
220
0.0
230
1.0
 70
    24
 71
     3
 72
    20
 73
    16
 74
     0
 42
0.000000001
 43
0.0000000001
 40
0.0
 40
0.0
 40
0.0
 40
0.0
 40
1.0
 40
1.0
 40
1.0
 40
2.0
 40
2.0
 40
2.0
 40
3.0
 40
3.0
 40
3.0
 40
4.0
 40
4.0
 40
4.0
 40
5.0
 40
5.0
 40
5.0
 40
5.0
 10
13.55342211700761
 20
-14.59050456453043
 30
0.0
 10
13.55397176841451
 20
-14.59050456453043
 30
0.0
 10
13.55469842620663
 20
-14.59050456453043
 30
0.0
 10
13.55542508399874
 20
-14.59050456453043
 30
0.0
 10
13.55615174179098
 20
-14.59050456453043
 30
0.0
 10
13.55433509731063
 20
-14.59050456453043
 30
0.0
 10
13.55397176841451
 20
-14.59050456453043
 30
0.0
 10
13.55306007770171
 20
-14.59050456453043
 30
0.0
 10
13.55196880142338
 20
-14.59050456453043
 30
0.0
 10
13.55087881473515
 20
-14.59050456453043
 30
0.0
 10
13.54869884135881
 20
-14.59050456453043
 30
0.0
 10
13.54650955185677
 20
-14.59050456453043
 30
0.0
 10
13.54432957848043
 20
-14.59050456453043
 30
0.0
 10
13.53996031560205
 20
-14.59050456453043
 30
0.0
 10
13.53541404633846
 20
-14.59050456453043
 30
0.0
 10
13.53123110597086
 20
-14.59050456453043
 30
0.0
  0
LINE
  5
10B
330
D9
100
AcDbEntity
  8
Livello 1
 62
    28
420
  1250058
370
     9
100
AcDbLine
 10
13.52813815229149
 20
-14.59050456453043
 30
0.0
 11
13.39694847243427
 21
-14.59050456453043
 31
0.0
  0
LINE
  5
10C
330
D9
100
AcDbEntity
  8
Livello 1
 62
    28
420
  1250058
370
     9
100
AcDbLine
 10
7.229375248796547
 20
-14.59314102812492
 30
0.0
 11
7.229375248796547
 21
-14.59578680784521
 31
0.0
  0
LINE
  5
10D
330
D9
100
AcDbEntity
  8
Livello 1
 62
    28
420
  1250058
370
     9
100
AcDbLine
 10
7.431162527997512
 20
-14.59314102812492
 30
0.0
 11
7.431162527997512
 21
-14.59578680784521
 31
0.0
  0
LINE
  5
10E
330
D9
100
AcDbEntity
  8
Livello 1
 62
    28
420
  1250058
370
     9
100
AcDbLine
 10
13.39257920955589
 20
-14.59050456453043
 30
0.0
 11
13.37165519159259
 21
-14.59050456453043
 31
0.0
  0
SPLINE
  5
10F
330
D9
100
AcDbEntity
  8
Livello 1
 62
    28
420
  1250058
370
     9
100
AcDbSpline
210
0.0
220
0.0
230
1.0
 70
     8
 71
     3
 72
     8
 73
     4
 74
     0
 42
0.000000001
 43
0.0000000001
 40
0.0
 40
0.0
 40
0.0
 40
0.0
 40
1.0
 40
1.0
 40
1.0
 40
1.0
 10
7.428805548235859
 20
-14.59132438359866
 30
0.0
 10
7.430435870205366
 20
-14.59178087376172
 30
0.0
 10
7.431162527997512
 20
-14.59241437031439
 30
0.0
 10
7.431162527997512
 20
-14.59314102812492
 30
0.0
  0
LINE
  5
110
330
D9
100
AcDbEntity
  8
Livello 1
 62
    28
420
  1250058
370
     9
100
AcDbLine
 10
7.400055984818755
 20
-14.59132438359866
 30
0.0
 11
7.426616258733919
 21
-14.59132438359866
 31
0.0
  0
SPLINE
  5
111
330
D9
100
AcDbEntity
  8
Livello 1
 62
    28
420
  1250058
370
     9
100
AcDbSpline
210
0.0
220
0.0
230
1.0
 70
     8
 71
     3
 72
     8
 73
     4
 74
     0
 42
0.000000001
 43
0.0000000001
 40
0.0
 40
0.0
 40
0.0
 40
0.0
 40
1.0
 40
1.0
 40
1.0
 40
1.0
 10
15.09567875181315
 20
-14.59578680784521
 30
0.0
 10
15.10150133027575
 20
-14.59578680784521
 30
0.0
 10
15.10369061977766
 20
-14.59660662691341
 30
0.0
 10
15.10369061977766
 20
-14.59842327143967
 30
0.0
  0
LINE
  5
112
330
D9
100
AcDbEntity
  8
Livello 1
 62
    28
420
  1250058
370
     9
100
AcDbLine
 10
10.2978740986039
 20
-14.59132438359866
 30
0.0
 11
10.32608332673964
 21
-14.59132438359866
 31
0.0
  0
SPLINE
  5
113
330
D9
100
AcDbEntity
  8
Livello 1
 62
    28
420
  1250058
370
     9
100
AcDbSpline
210
0.0
220
0.0
230
1.0
 70
     8
 71
     3
 72
     8
 73
     4
 74
     0
 42
0.000000001
 43
0.0000000001
 40
0.0
 40
0.0
 40
0.0
 40
0.0
 40
1.0
 40
1.0
 40
1.0
 40
1.0
 10
10.46199628224579
 20
-14.59050456453043
 30
0.0
 10
10.46363592034093
 20
-14.59050456453043
 30
0.0
 10
10.46436257813304
 20
-14.59078404830372
 30
0.0
 10
10.46546188094671
 20
-14.59123122234096
 30
0.0
  0
LINE
  5
114
330
D9
100
AcDbEntity
  8
Livello 1
 62
    28
420
  1250058
370
     9
100
AcDbLine
 10
10.46546188094671
 20
-14.59132438359866
 30
0.0
 11
10.49493810215599
 21
-14.59132438359866
 31
0.0
  0
SPLINE
  5
115
330
D9
100
AcDbEntity
  8
Livello 1
 62
    28
420
  1250058
370
     9
100
AcDbSpline
210
0.0
220
0.0
230
1.0
 70
     8
 71
     3
 72
     8
 73
     4
 74
     0
 42
0.000000001
 43
0.0000000001
 40
0.0
 40
0.0
 40
0.0
 40
0.0
 40
1.0
 40
1.0
 40
1.0
 40
1.0
 10
10.32608332673964
 20
-14.59123122234096
 30
0.0
 10
10.32735152791503
 20
-14.59069088704599
 30
0.0
 10
10.32844962262685
 20
-14.59050456453043
 30
0.0
 10
10.3302662671072
 20
-14.59050456453043
 30
0.0
  0
SPLINE
  5
116
330
D9
100
AcDbEntity
  8
Livello 1
 62
    28
420
  1250058
370
     9
100
AcDbSpline
210
0.0
220
0.0
230
1.0
 70
     8
 71
     3
 72
     8
 73
     4
 74
     0
 42
0.000000001
 43
0.0000000001
 40
0.0
 40
0.0
 40
0.0
 40
0.0
 40
1.0
 40
1.0
 40
1.0
 40
1.0
 10
7.229375248796547
 20
-14.59314102812492
 30
0.0
 10
7.229375248796547
 20
-14.59241437031439
 30
0.0
 10
7.230101906588661
 20
-14.59178087376172
 30
0.0
 10
7.231741544683733
 20
-14.59132438359866
 30
0.0
  0
SPLINE
  5
117
330
D9
100
AcDbEntity
  8
Livello 1
 62
    28
420
  1250058
370
     9
100
AcDbSpline
210
0.0
220
0.0
230
1.0
 70
    24
 71
     3
 72
    17
 73
    13
 74
     0
 42
0.000000001
 43
0.0000000001
 40
0.0
 40
0.0
 40
0.0
 40
0.0
 40
1.0
 40
1.0
 40
1.0
 40
2.0
 40
2.0
 40
2.0
 40
3.0
 40
3.0
 40
3.0
 40
4.0
 40
4.0
 40
4.0
 40
4.0
 10
7.231741544683733
 20
-14.59132438359866
 30
0.0
 10
7.229375248796547
 20
-14.59132438359866
 30
0.0
 10
7.23410784057095
 20
-14.59132438359866
 30
0.0
 10
7.235197827259153
 20
-14.59132438359866
 30
0.0
 10
7.236474136458167
 20
-14.59132438359866
 30
0.0
 10
7.237751575709115
 20
-14.59132438359866
 30
0.0
 10
7.238840432345385
 20
-14.59132438359866
 30
0.0
 10
7.241020405721791
 20
-14.59132438359866
 30
0.0
 10
7.24338670160901
 20
-14.59132438359866
 30
0.0
 10
7.245939320007038
 20
-14.59132438359866
 30
0.0
 10
7.25048558927063
 20
-14.59132438359866
 30
0.0
 10
7.255395187430344
 20
-14.59132438359866
 30
0.0
 10
7.260127779204779
 20
-14.59132438359866
 30
0.0
  0
SPLINE
  5
118
330
D9
100
AcDbEntity
  8
Livello 1
 62
    28
420
  1250058
370
     9
100
AcDbSpline
210
0.0
220
0.0
230
1.0
 70
     8
 71
     3
 72
     8
 73
     4
 74
     0
 42
0.000000001
 43
0.0000000001
 40
0.0
 40
0.0
 40
0.0
 40
0.0
 40
1.0
 40
1.0
 40
1.0
 40
1.0
 10
7.260491108100836
 20
-14.59114737720895
 30
0.0
 10
7.261404088403761
 20
-14.59069088704599
 30
0.0
 10
7.262494075091964
 20
-14.59050456453043
 30
0.0
 10
7.263947390676257
 20
-14.59050456453043
 30
0.0
  0
LINE
  5
119
330
D9
100
AcDbEntity
  8
Livello 1
 62
    28
420
  1250058
370
     9
100
AcDbLine
 10
13.56343695196338
 20
-14.59314102812492
 30
0.0
 11
13.56343695196338
 21
-14.59578680784521
 31
0.0
  0
LINE
  5
11A
330
D9
100
AcDbEntity
  8
Livello 1
 62
    28
420
  1250058
370
     9
100
AcDbLine
 10
13.39112589397167
 20
-14.59314102812492
 30
0.0
 11
13.36382964613873
 21
-14.59314102812492
 31
0.0
  0
SPLINE
  5
11B
330
D9
100
AcDbEntity
  8
Livello 1
 62
    28
420
  1250058
370
     9
100
AcDbSpline
210
0.0
220
0.0
230
1.0
 70
    24
 71
     3
 72
    23
 73
    19
 74
     0
 42
0.000000001
 43
0.0000000001
 40
0.0
 40
0.0
 40
0.0
 40
0.0
 40
1.0
 40
1.0
 40
1.0
 40
2.0
 40
2.0
 40
2.0
 40
3.0
 40
3.0
 40
3.0
 40
4.0
 40
4.0
 40
4.0
 40
5.0
 40
5.0
 40
5.0
 40
6.0
 40
6.0
 40
6.0
 40
6.0
 10
13.56124766246147
 20
-14.59314102812492
 30
0.0
 10
13.56197432025359
 20
-14.59314102812492
 30
0.0
 10
13.56489155743673
 20
-14.59314102812492
 30
0.0
 10
13.56343695196338
 20
-14.59314102812492
 30
0.0
 10
13.56252397166049
 20
-14.59314102812492
 30
0.0
 10
13.56179731386825
 20
-14.59314102812492
 30
0.0
 10
13.56088562335308
 20
-14.59314102812492
 30
0.0
 10
13.55524807761353
 20
-14.59314102812492
 30
0.0
 10
13.54960250553613
 20
-14.59314102812492
 30
0.0
 10
13.54377992707353
 20
-14.59314102812492
 30
0.0
 10
13.53650403302656
 20
-14.59314102812492
 30
0.0
 10
13.52922813897973
 20
-14.59314102812492
 30
0.0
 10
13.52194421761134
 20
-14.59314102812492
 30
0.0
 10
13.5073911407134
 20
-14.59314102812492
 30
0.0
 10
13.49301635900495
 20
-14.59314102812492
 30
0.0
 10
13.47827824840024
 20
-14.59314102812492
 30
0.0
 10
13.44935167859799
 20
-14.59314102812492
 30
0.0
 10
13.42023878628483
 20
-14.59314102812492
 30
0.0
 10
13.39112589397167
 20
-14.59314102812492
 30
0.0
  0
SPLINE
  5
11C
330
D9
100
AcDbEntity
  8
Livello 1
 62
    28
420
  1250058
370
     9
100
AcDbSpline
210
0.0
220
0.0
230
1.0
 70
     8
 71
     3
 72
     8
 73
     4
 74
     0
 42
0.000000001
 43
0.0000000001
 40
0.0
 40
0.0
 40
0.0
 40
0.0
 40
1.0
 40
1.0
 40
1.0
 40
1.0
 10
13.3967621499235
 20
-14.59050456453043
 30
0.0
 10
13.39221588065977
 20
-14.59078404830372
 30
0.0
 10
13.39057624256477
 20
-14.59151070611425
 30
0.0
 10
13.39112589397167
 20
-14.59314102812492
 30
0.0
  0
LINE
  5
11D
330
D9
100
AcDbEntity
  8
Livello 1
 62
    28
420
  1250058
370
     9
100
AcDbLine
 10
14.73267592013875
 20
-14.59578680784521
 30
0.0
 11
14.73267592013875
 21
-14.59314102812492
 31
0.0
  0
LINE
  5
11E
330
D9
100
AcDbEntity
  8
Livello 1
 62
    28
420
  1250058
370
     9
100
AcDbLine
 10
14.73267592013875
 20
-14.59314102812492
 30
0.0
 11
14.63332875737793
 21
-14.59314102812492
 31
0.0
  0
SPLINE
  5
11F
330
D9
100
AcDbEntity
  8
Livello 1
 62
    28
420
  1250058
370
     9
100
AcDbSpline
210
0.0
220
0.0
230
1.0
 70
    24
 71
     3
 72
    11
 73
     7
 74
     0
 42
0.000000001
 43
0.0000000001
 40
0.0
 40
0.0
 40
0.0
 40
0.0
 40
1.0
 40
1.0
 40
1.0
 40
2.0
 40
2.0
 40
2.0
 40
2.0
 10
14.83184607651435
 20
-14.59314102812492
 30
0.0
 10
14.83293606320259
 20
-14.59314102812492
 30
0.0
 10
14.83348571460936
 20
-14.59314102812492
 30
0.0
 10
14.83348571460936
 20
-14.59314102812492
 30
0.0
 10
14.83348571460936
 20
-14.59314102812492
 30
0.0
 10
14.79163899956208
 20
-14.59314102812492
 30
0.0
 10
14.73267592013875
 20
-14.59314102812492
 30
0.0
  0
LINE
  5
120
330
D9
100
AcDbEntity
  8
Livello 1
 62
    28
420
  1250058
370
     9
100
AcDbLine
 10
14.73267592013875
 20
-14.59050456453043
 30
0.0
 11
14.73267592013875
 21
-14.59314102812492
 31
0.0
  0
LINE
  5
121
330
D9
100
AcDbEntity
  8
Livello 1
 62
    28
420
  1250058
370
     9
100
AcDbLine
 10
6.060313287006394
 20
-14.59314102812492
 30
0.0
 11
6.060313287006394
 21
-14.59578680784521
 31
0.0
  0
SPLINE
  5
122
330
D9
100
AcDbEntity
  8
Livello 1
 62
    28
420
  1250058
370
     9
100
AcDbSpline
210
0.0
220
0.0
230
1.0
 70
    24
 71
     3
 72
    20
 73
    16
 74
     0
 42
0.000000001
 43
0.0000000001
 40
0.0
 40
0.0
 40
0.0
 40
0.0
 40
1.0
 40
1.0
 40
1.0
 40
2.0
 40
2.0
 40
2.0
 40
3.0
 40
3.0
 40
3.0
 40
4.0
 40
4.0
 40
4.0
 40
5.0
 40
5.0
 40
5.0
 40
5.0
 10
6.159483443381932
 20
-14.59314102812492
 30
0.0
 10
6.15966044976721
 20
-14.59314102812492
 30
0.0
 10
6.160750436455414
 20
-14.59314102812492
 30
0.0
 10
6.160210101174079
 20
-14.59314102812492
 30
0.0
 10
6.156753818598658
 20
-14.59314102812492
 30
0.0
 10
6.153288219897704
 20
-14.59314102812492
 30
0.0
 10
6.150018259833126
 20
-14.59314102812492
 30
0.0
 10
6.145648996954716
 20
-14.59314102812492
 30
0.0
 10
6.14146605658718
 20
-14.59314102812492
 30
0.0
 10
6.137096793708803
 20
-14.59314102812492
 30
0.0
 10
6.1287309129737
 20
-14.59314102812492
 30
0.0
 10
6.120178709727786
 20
-14.59314102812492
 30
0.0
 10
6.111440183971063
 20
-14.59314102812492
 30
0.0
 10
6.094522099990047
 20
-14.59314102812492
 30
0.0
 10
6.077231370987409
 20
-14.59314102812492
 30
0.0
 10
6.060313287006394
 20
-14.59314102812492
 30
0.0
  0
LINE
  5
123
330
D9
100
AcDbEntity
  8
Livello 1
 62
    28
420
  1250058
370
     9
100
AcDbLine
 10
6.060313287006394
 20
-14.59314102812492
 30
0.0
 11
6.060313287006394
 21
-14.59050456453043
 31
0.0
  0
LINE
  5
124
330
D9
100
AcDbEntity
  8
Livello 1
 62
    28
420
  1250058
370
     9
100
AcDbLine
 10
6.060313287006394
 20
-14.59314102812492
 30
0.0
 11
5.960966124245577
 21
-14.59314102812492
 31
0.0
  0
LINE
  5
125
330
D9
100
AcDbEntity
  8
Livello 1
 62
    28
420
  1250058
370
     9
100
AcDbLine
 10
7.401509300403016
 20
-14.59314102812492
 30
0.0
 11
7.401509300403016
 21
-14.59578680784521
 31
0.0
  0
SPLINE
  5
126
330
D9
100
AcDbEntity
  8
Livello 1
 62
    28
420
  1250058
370
     9
100
AcDbSpline
210
0.0
220
0.0
230
1.0
 70
    24
 71
     3
 72
    20
 73
    16
 74
     0
 42
0.000000001
 43
0.0000000001
 40
0.0
 40
0.0
 40
0.0
 40
0.0
 40
1.0
 40
1.0
 40
1.0
 40
2.0
 40
2.0
 40
2.0
 40
3.0
 40
3.0
 40
3.0
 40
4.0
 40
4.0
 40
4.0
 40
5.0
 40
5.0
 40
5.0
 40
5.0
 10
7.428982554621105
 20
-14.59314102812492
 30
0.0
 10
7.429709212413252
 20
-14.59314102812492
 30
0.0
 10
7.430435870205366
 20
-14.59314102812492
 30
0.0
 10
7.431162527997512
 20
-14.59314102812492
 30
0.0
 10
7.43226183081128
 20
-14.59314102812492
 30
0.0
 10
7.429895534924062
 20
-14.59314102812492
 30
0.0
 10
7.429345883517163
 20
-14.59314102812492
 30
0.0
 10
7.42806957431818
 20
-14.59314102812492
 30
0.0
 10
7.426802581244698
 20
-14.59314102812492
 30
0.0
 10
7.425339949534873
 20
-14.59314102812492
 30
0.0
 10
7.422796647262409
 20
-14.59314102812492
 30
0.0
 10
7.420068157136831
 20
-14.59314102812492
 30
0.0
 10
7.417523720206639
 20
-14.59314102812492
 30
0.0
 10
7.412242611485292
 20
-14.59314102812492
 30
0.0
 10
7.406968549969597
 20
-14.59314102812492
 30
0.0
 10
7.401509300403016
 20
-14.59314102812492
 30
0.0
  0
SPLINE
  5
127
330
D9
100
AcDbEntity
  8
Livello 1
 62
    28
420
  1250058
370
     9
100
AcDbSpline
210
0.0
220
0.0
230
1.0
 70
     8
 71
     3
 72
     8
 73
     4
 74
     0
 42
0.000000001
 43
0.0000000001
 40
0.0
 40
0.0
 40
0.0
 40
0.0
 40
1.0
 40
1.0
 40
1.0
 40
1.0
 10
7.401509300403016
 20
-14.59314102812492
 30
0.0
 10
7.402235958195194
 20
-14.59151070611425
 30
0.0
 10
7.40078377678142
 20
-14.59078404830372
 30
0.0
 10
7.395863728325656
 20
-14.59050456453043
 30
0.0
  0
LINE
  5
128
330
D9
100
AcDbEntity
  8
Livello 1
 62
    28
420
  1250058
370
     9
100
AcDbLine
 10
7.401509300403016
 20
-14.59314102812492
 30
0.0
 11
7.231564538298486
 21
-14.59314102812492
 31
0.0
  0
LINE
  5
129
330
D9
100
AcDbEntity
  8
Livello 1
 62
    28
420
  1250058
370
     9
100
AcDbLine
 10
10.49730439804324
 20
-14.59314102812492
 30
0.0
 11
10.29569412522746
 21
-14.59314102812492
 31
0.0
  0
LINE
  5
12A
330
D9
100
AcDbEntity
  8
Livello 1
 62
    28
420
  1250058
370
     9
100
AcDbLine
 10
10.39631759718729
 20
-14.59842327143967
 30
0.0
 11
10.39631759718729
 21
-14.59578680784521
 31
0.0
  0
LINE
  5
12B
330
D9
100
AcDbEntity
  8
Livello 1
 62
    28
420
  1250058
370
     9
100
AcDbLine
 10
10.39631759718729
 20
-14.59842327143967
 30
0.0
 11
5.690211567670374
 21
-14.59842327143967
 31
0.0
  0
SPLINE
  5
12C
330
D9
100
AcDbEntity
  8
Livello 1
 62
    28
420
  1250058
370
     9
100
AcDbSpline
210
0.0
220
0.0
230
1.0
 70
    24
 71
     3
 72
    26
 73
    22
 74
     0
 42
0.000000001
 43
0.0000000001
 40
0.0
 40
0.0
 40
0.0
 40
0.0
 40
1.0
 40
1.0
 40
1.0
 40
2.0
 40
2.0
 40
2.0
 40
3.0
 40
3.0
 40
3.0
 40
4.0
 40
4.0
 40
4.0
 40
5.0
 40
5.0
 40
5.0
 40
6.0
 40
6.0
 40
6.0
 40
7.0
 40
7.0
 40
7.0
 40
7.0
 10
15.10277763947477
 20
-14.59842327143967
 30
0.0
 10
15.104230955059
 20
-14.59842327143967
 30
0.0
 10
15.10096099499442
 20
-14.59842327143967
 30
0.0
 10
15.1002343372023
 20
-14.59842327143967
 30
0.0
 10
15.09313544954068
 20
-14.59842327143967
 30
0.0
 10
15.08640121910054
 20
-14.59842327143967
 30
0.0
 10
15.07930100311344
 20
-14.59842327143967
 30
0.0
 10
15.04564184153668
 20
-14.59842327143967
 30
0.0
 10
15.01179635744902
 20
-14.59842327143967
 30
0.0
 10
14.97796151507325
 20
-14.59842327143967
 30
0.0
 10
14.8242068535714
 20
-14.59842327143967
 30
0.0
 10
14.67045351765573
 20
-14.59842327143967
 30
0.0
 10
14.51651385922917
 20
-14.59842327143967
 30
0.0
 10
14.3205491584909
 20
-14.59842327143967
 30
0.0
 10
14.12422112885639
 20
-14.59842327143967
 30
0.0
 10
13.92825642811813
 20
-14.59842327143967
 30
0.0
 10
13.53595438161979
 20
-14.59842327143967
 30
0.0
 10
13.14347532873611
 20
-14.59842327143967
 30
0.0
 10
12.75136892087411
 20
-14.59842327143967
 30
0.0
 10
11.96622449259623
 20
-14.59842327143967
 30
0.0
 10
11.18145393901815
 20
-14.59842327143967
 30
0.0
 10
10.39631759718729
 20
-14.59842327143967
 30
0.0
  0
SPLINE
  5
12D
330
D9
100
AcDbEntity
  8
Livello 1
 62
    28
420
  1250058
370
     9
100
AcDbSpline
210
0.0
220
0.0
230
1.0
 70
    24
 71
     3
 72
    26
 73
    22
 74
     0
 42
0.000000001
 43
0.0000000001
 40
0.0
 40
0.0
 40
0.0
 40
0.0
 40
1.0
 40
1.0
 40
1.0
 40
2.0
 40
2.0
 40
2.0
 40
3.0
 40
3.0
 40
3.0
 40
4.0
 40
4.0
 40
4.0
 40
5.0
 40
5.0
 40
5.0
 40
6.0
 40
6.0
 40
6.0
 40
7.0
 40
7.0
 40
7.0
 40
7.0
 10
5.69840044202023
 20
-14.76546140659539
 30
0.0
 10
5.696584888658746
 20
-14.76546140659539
 30
0.0
 10
5.699863073730055
 20
-14.76546140659539
 30
0.0
 10
5.700590822742166
 20
-14.76546140659539
 30
0.0
 10
5.70767930305829
 20
-14.76546140659539
 30
0.0
 10
5.714601184334664
 20
-14.76546140659539
 30
0.0
 10
5.721513749485506
 20
-14.76546140659539
 30
0.0
 10
5.755172911062291
 20
-14.76546140659539
 30
0.0
 10
5.788832072639076
 20
-14.76546140659539
 30
0.0
 10
5.822500550341394
 20
-14.76546140659539
 30
0.0
 10
5.976254984441026
 20
-14.76546140659539
 30
0.0
 10
6.129634577151093
 20
-14.76546140659539
 30
0.0
 10
6.283387913066753
 20
-14.76546140659539
 30
0.0
 10
6.479175607419866
 20
-14.76546140659539
 30
0.0
 10
6.674964417607812
 20
-14.76546140659539
 30
0.0
 10
6.870741680000557
 20
-14.76546140659539
 30
0.0
 10
7.262494075091964
 20
-14.76546140659539
 30
0.0
 10
7.654060147672625
 20
-14.76546140659539
 30
0.0
 10
8.045626220253286
 20
-14.76546140659539
 30
0.0
 10
8.829132180689867
 20
-14.76546140659539
 30
0.0
 10
9.612812807004383
 20
-14.76546140659539
 30
0.0
 10
10.39631759718729
 20
-14.76546140659539
 30
0.0
  0
LINE
  5
12E
330
D9
100
AcDbEntity
  8
Livello 1
 62
    28
420
  1250058
370
     9
100
AcDbLine
 10
10.39631759718729
 20
-14.76546140659539
 30
0.0
 11
15.09458876512491
 21
-14.76546140659539
 31
0.0
  0
SPLINE
  5
12F
330
D9
100
AcDbEntity
  8
Livello 1
 62
    28
420
  1250058
370
     9
100
AcDbSpline
210
0.0
220
0.0
230
1.0
 70
     8
 71
     3
 72
     8
 73
     4
 74
     0
 42
0.000000001
 43
0.0000000001
 40
0.0
 40
0.0
 40
0.0
 40
0.0
 40
1.0
 40
1.0
 40
1.0
 40
1.0
 10
15.10369061977766
 20
-14.76427825862196
 30
0.0
 10
15.10369061977766
 20
-14.76509807769016
 30
0.0
 10
15.10150133027575
 20
-14.76546140659539
 30
0.0
 10
15.09567875181315
 20
-14.76546140659539
 30
0.0
  0
LINE
  5
130
330
D9
100
AcDbEntity
  8
Livello 1
 62
    28
420
  1250058
370
     9
100
AcDbLine
 10
15.10369061977766
 20
-14.59842327143967
 30
0.0
 11
15.10369061977766
 21
-14.76436210375394
 31
0.0
  0
SPLINE
  5
131
330
D9
100
AcDbEntity
  8
Livello 1
 62
    28
420
  1250058
370
     9
100
AcDbSpline
210
0.0
220
0.0
230
1.0
 70
    24
 71
     3
 72
    26
 73
    22
 74
     0
 42
0.000000001
 43
0.0000000001
 40
0.0
 40
0.0
 40
0.0
 40
0.0
 40
1.0
 40
1.0
 40
1.0
 40
2.0
 40
2.0
 40
2.0
 40
3.0
 40
3.0
 40
3.0
 40
4.0
 40
4.0
 40
4.0
 40
5.0
 40
5.0
 40
5.0
 40
6.0
 40
6.0
 40
6.0
 40
7.0
 40
7.0
 40
7.0
 40
7.0
 10
15.10277763947477
 20
-14.76427825862196
 30
0.0
 10
15.104230955059
 20
-14.76427825862196
 30
0.0
 10
15.10096099499442
 20
-14.76427825862196
 30
0.0
 10
15.1002343372023
 20
-14.76427825862196
 30
0.0
 10
15.09313544954068
 20
-14.76427825862196
 30
0.0
 10
15.08640121910054
 20
-14.76427825862196
 30
0.0
 10
15.07930100311344
 20
-14.76427825862196
 30
0.0
 10
15.04564184153668
 20
-14.76427825862196
 30
0.0
 10
15.01179635744902
 20
-14.76427825862196
 30
0.0
 10
14.97796151507325
 20
-14.76427825862196
 30
0.0
 10
14.8242068535714
 20
-14.76427825862196
 30
0.0
 10
14.67045351765573
 20
-14.76427825862196
 30
0.0
 10
14.51651385922917
 20
-14.76427825862196
 30
0.0
 10
14.3205491584909
 20
-14.76427825862196
 30
0.0
 10
14.12422112885639
 20
-14.76427825862196
 30
0.0
 10
13.92825642811813
 20
-14.76427825862196
 30
0.0
 10
13.53595438161979
 20
-14.76427825862196
 30
0.0
 10
13.14347532873611
 20
-14.76427825862196
 30
0.0
 10
12.75136892087411
 20
-14.76427825862196
 30
0.0
 10
11.96622449259623
 20
-14.76427825862196
 30
0.0
 10
11.18145393901815
 20
-14.76427825862196
 30
0.0
 10
10.39631759718729
 20
-14.76427825862196
 30
0.0
  0
LINE
  5
132
330
D9
100
AcDbEntity
  8
Livello 1
 62
    28
420
  1250058
370
     9
100
AcDbLine
 10
10.39631759718729
 20
-14.76427825862196
 30
0.0
 11
5.690211567670374
 21
-14.76427825862196
 31
0.0
  0
LINE
  5
133
330
D9
100
AcDbEntity
  8
Livello 1
 62
    28
420
  1250058
370
     9
100
AcDbLine
 10
10.39631759718729
 20
-14.76546140659539
 30
0.0
 11
10.39631759718729
 21
-14.76427825862196
 31
0.0
  0
LINE
  5
134
330
D9
100
AcDbEntity
  8
Livello 1
 62
    28
420
  1250058
370
     9
100
AcDbLine
 10
13.39112589397167
 20
-14.59578680784521
 30
0.0
 11
13.39112589397167
 21
-14.59314102812492
 31
0.0
  0
LINE
  5
135
330
D9
100
AcDbEntity
  8
Livello 1
 62
    28
420
  1250058
370
     9
100
AcDbLine
 10
13.21681186898869
 20
-14.06274603934512
 30
0.0
 11
13.2220847960444
 21
-14.46150417091635
 31
0.0
  0
LINE
  5
136
330
D9
100
AcDbEntity
  8
Livello 1
 62
    28
420
  1250058
370
     9
100
AcDbLine
 10
7.573270706987927
 20
-14.46150417091635
 30
0.0
 11
7.578729956554476
 21
-14.06274603934512
 31
0.0
  0
SPLINE
  5
137
330
D9
100
AcDbEntity
  8
Livello 1
 62
    28
420
  1250058
370
     9
100
AcDbSpline
210
0.0
220
0.0
230
1.0
 70
    24
 71
     3
 72
    23
 73
    19
 74
     0
 42
0.000000001
 43
0.0000000001
 40
0.0
 40
0.0
 40
0.0
 40
0.0
 40
1.0
 40
1.0
 40
1.0
 40
2.0
 40
2.0
 40
2.0
 40
3.0
 40
3.0
 40
3.0
 40
4.0
 40
4.0
 40
4.0
 40
5.0
 40
5.0
 40
5.0
 40
6.0
 40
6.0
 40
6.0
 40
6.0
 10
13.20243708728011
 20
-14.05301068790969
 30
0.0
 10
13.21080296801531
 20
-14.05301068790969
 30
0.0
 10
13.19406189041948
 20
-14.05301068790969
 30
0.0
 10
13.189878950052
 20
-14.05301068790969
 30
0.0
 10
13.17386453024828
 20
-14.05301068790969
 30
0.0
 10
13.15822275546625
 20
-14.05301068790969
 30
0.0
 10
13.14202201315188
 20
-14.05301068790969
 30
0.0
 10
13.07379070969535
 20
-14.05301068790969
 30
0.0
 10
13.00555940623883
 20
-14.05301068790969
 30
0.0
 10
12.93714178027152
 20
-14.05301068790969
 30
0.0
 10
12.8487131166438
 20
-14.05301068790969
 30
0.0
 10
12.75992112412009
 20
-14.05301068790969
 30
0.0
 10
12.67148314436681
 20
-14.05301068790969
 30
0.0
 10
12.4940761657046
 20
-14.05301068790969
 30
0.0
 10
12.31704183206395
 20
-14.05301068790969
 30
0.0
 10
12.13981185978696
 20
-14.05301068790969
 30
0.0
 10
11.78536123135853
 20
-14.05301068790969
 30
0.0
 10
11.43073359654477
 20
-14.05301068790969
 30
0.0
 10
11.07628296811635
 20
-14.05301068790969
 30
0.0
  0
LINE
  5
138
330
D9
100
AcDbEntity
  8
Livello 1
 62
    28
420
  1250058
370
     9
100
AcDbLine
 10
11.07628296811635
 20
-14.05301068790969
 30
0.0
 11
7.59292773187775
 21
-14.05301068790969
 31
0.0
  0
LINE
  5
139
330
D9
100
AcDbEntity
  8
Livello 1
 62
    28
420
  1250058
370
     9
100
AcDbLine
 10
11.04025751065235
 20
-14.46150417091635
 30
0.0
 11
11.03260897158383
 21
-14.46150417091635
 31
0.0
  0
LINE
  5
13A
330
D9
100
AcDbEntity
  8
Livello 1
 62
    28
420
  1250058
370
     9
100
AcDbLine
 10
10.9289018620702
 20
-14.46150417091635
 30
0.0
 11
10.91852369821843
 21
-14.46150417091635
 31
0.0
  0
LINE
  5
13B
330
D9
100
AcDbEntity
  8
Livello 1
 62
    28
420
  1250058
370
     9
100
AcDbLine
 10
10.89341673988753
 20
-14.46150417091635
 30
0.0
 11
10.87486023974454
 21
-14.46150417091635
 31
0.0
  0
LINE
  5
13C
330
D9
100
AcDbEntity
  8
Livello 1
 62
    28
420
  1250058
370
     9
100
AcDbLine
 10
10.67433873168392
 20
-14.46150417091635
 30
0.0
 11
10.63012561562062
 21
-14.46150417091635
 31
0.0
  0
SPLINE
  5
13D
330
D9
100
AcDbEntity
  8
Livello 1
 62
    28
420
  1250058
370
     9
100
AcDbSpline
210
0.0
220
0.0
230
1.0
 70
     8
 71
     3
 72
     8
 73
     4
 74
     0
 42
0.000000001
 43
0.0000000001
 40
0.0
 40
0.0
 40
0.0
 40
0.0
 40
1.0
 40
1.0
 40
1.0
 40
1.0
 10
13.20280041617623
 20
-14.05301068790969
 30
0.0
 10
13.20771129520175
 20
-14.05455716478845
 30
0.0
 10
13.21171722928527
 20
-14.05656013183021
 30
0.0
 10
13.21517223089356
 20
-14.05938291794013
 30
0.0
  0
SPLINE
  5
13E
330
D9
100
AcDbEntity
  8
Livello 1
 62
    28
420
  1250058
370
     9
100
AcDbSpline
210
0.0
220
0.0
230
1.0
 70
     8
 71
     3
 72
     8
 73
     4
 74
     0
 42
0.000000001
 43
0.0000000001
 40
0.0
 40
0.0
 40
0.0
 40
0.0
 40
1.0
 40
1.0
 40
1.0
 40
1.0
 10
7.57836662765842
 20
-14.06274603934512
 30
0.0
 10
7.581282574952505
 20
-14.05774327980364
 30
0.0
 10
7.585279192809261
 20
-14.05492049369368
 30
0.0
 10
7.592741409366971
 20
-14.05301068790969
 30
0.0
  0
LINE
  5
13F
330
D9
100
AcDbEntity
  8
Livello 1
 62
    28
420
  1250058
370
     9
100
AcDbLine
 10
13.16330936001131
 20
-14.04182202085319
 30
0.0
 11
13.16349568252209
 21
-14.05301068790969
 31
0.0
  0
LINE
  5
140
330
D9
100
AcDbEntity
  8
Livello 1
 62
    28
420
  1250058
370
     9
100
AcDbLine
 10
7.632046143021117
 20
-14.05301068790969
 30
0.0
 11
7.632223149406331
 21
-14.04182202085319
 31
0.0
  0
LINE
  5
141
330
D9
100
AcDbEntity
  8
Livello 1
 62
    28
420
  1250058
370
     9
100
AcDbLine
 10
11.07973925069171
 20
-14.06274603934512
 30
0.0
 11
7.578729956554476
 21
-14.06274603934512
 31
0.0
  0
SPLINE
  5
142
330
D9
100
AcDbEntity
  8
Livello 1
 62
    28
420
  1250058
370
     9
100
AcDbSpline
210
0.0
220
0.0
230
1.0
 70
     8
 71
     3
 72
     8
 73
     4
 74
     0
 42
0.000000001
 43
0.0000000001
 40
0.0
 40
0.0
 40
0.0
 40
0.0
 40
1.0
 40
1.0
 40
1.0
 40
1.0
 10
11.07628296811635
 20
-14.05301068790969
 30
0.0
 10
11.07973925069171
 20
-14.05601048040941
 30
0.0
 10
11.08082923737994
 20
-14.05883326651937
 30
0.0
 10
11.07973925069171
 20
-14.06274603934512
 30
0.0
  0
SPLINE
  5
143
330
D9
100
AcDbEntity
  8
Livello 1
 62
    28
420
  1250058
370
     9
100
AcDbSpline
210
0.0
220
0.0
230
1.0
 70
    24
 71
     3
 72
    23
 73
    19
 74
     0
 42
0.000000001
 43
0.0000000001
 40
0.0
 40
0.0
 40
0.0
 40
0.0
 40
1.0
 40
1.0
 40
1.0
 40
2.0
 40
2.0
 40
2.0
 40
3.0
 40
3.0
 40
3.0
 40
4.0
 40
4.0
 40
4.0
 40
5.0
 40
5.0
 40
5.0
 40
6.0
 40
6.0
 40
6.0
 40
6.0
 10
13.21681186898869
 20
-14.06274603934512
 30
0.0
 10
13.22517774972376
 20
-14.06274603934512
 30
0.0
 10
13.20843667212806
 20
-14.06274603934512
 30
0.0
 10
13.20425373176046
 20
-14.06274603934512
 30
0.0
 10
13.18824059233075
 20
-14.06274603934512
 30
0.0
 10
13.17222489215328
 20
-14.06274603934512
 30
0.0
 10
13.15639679486047
 20
-14.06274603934512
 30
0.0
 10
13.08761583999704
 20
-14.06274603934512
 30
0.0
 10
13.01884420125918
 20
-14.06274603934512
 30
0.0
 10
12.95024025278109
 20
-14.06274603934512
 30
0.0
 10
12.86127125387204
 20
-14.06274603934512
 30
0.0
 10
12.77229293883742
 20
-14.06274603934512
 30
0.0
 10
12.68312830129215
 20
-14.06274603934512
 30
0.0
 10
12.50499592795154
 20
-14.06274603934512
 30
0.0
 10
12.32668528060728
 20
-14.06274603934512
 30
0.0
 10
12.14855038554371
 20
-14.06274603934512
 30
0.0
 10
11.79227379650938
 20
-14.06274603934512
 30
0.0
 10
11.43600652360048
 20
-14.06274603934512
 30
0.0
 10
11.07973925069171
 20
-14.06274603934512
 30
0.0
  0
ENDBLK
  5
DC
330
D9
100
AcDbEntity
  8
0
100
AcDbBlockEnd
  0
ENDSEC
  0
SECTION
  2
ENTITIES
  0
SPLINE
  5
7A
330
70
100
AcDbEntity
  8
Livello 1
370
     9
100
AcDbSpline
210
0.0
220
0.0
230
1.0
 70
     8
 71
     3
 72
     8
 73
     4
 74
     0
 42
0.000000001
 43
0.0000000001
 40
0.0
 40
0.0
 40
0.0
 40
0.0
 40
1.0
 40
1.0
 40
1.0
 40
1.0
 10
15.36028514320777
 20
-14.8177750987126
 30
0.0
 10
15.36028514320777
 20
-14.81987400410041
 30
0.0
 10
15.35775307726581
 20
-14.82076206685815
 30
0.0
 10
15.35163196673224
 20
-14.82076206685815
 30
0.0
  0
LINE
  5
198
330
70
100
AcDbEntity
  8
Livello 1
370
     9
100
AcDbLine
 10
6.305047904947768
 20
-14.46086135823779
 30
0.0
 11
6.242266534932258
 21
-14.60033307722363
 31
0.0
  0
LINE
  5
199
330
70
100
AcDbEntity
  8
Livello 1
370
     9
100
AcDbLine
 10
14.48795061832291
 20
-14.46086135823779
 30
0.0
 11
6.305047904947768
 21
-14.46086135823779
 31
0.0
  0
LINE
  5
19A
330
70
100
AcDbEntity
  8
Livello 1
370
     9
100
AcDbLine
 10
11.11486104397838
 20
-14.46086135823779
 30
0.0
 11
11.1063088407324
 21
-14.46086135823779
 31
0.0
  0
LINE
  5
19B
330
70
100
AcDbEntity
  8
Livello 1
370
     9
100
AcDbLine
 10
10.99058392927187
 20
-14.46086135823779
 30
0.0
 11
10.97857544345054
 21
-14.46086135823779
 31
0.0
  0
LINE
  5
19C
330
70
100
AcDbEntity
  8
Livello 1
370
     9
100
AcDbLine
 10
10.95072954421083
 20
-14.46086135823779
 30
0.0
 11
10.92999184875843
 21
-14.46086135823779
 31
0.0
  0
LINE
  5
19D
330
70
100
AcDbEntity
  8
Livello 1
370
     9
100
AcDbLine
 10
10.70581791988421
 20
-14.46086135823779
 30
0.0
 11
10.65633066101464
 21
-14.46086135823779
 31
0.0
  0
LINE
  5
19E
330
70
100
AcDbEntity
  8
Livello 1
370
     9
100
AcDbLine
 10
14.48795061832291
 20
-14.46086135823779
 30
0.0
 11
14.55072398700602
 21
-14.60033307722363
 31
0.0
  0
LINE
  5
19F
330
70
100
AcDbEntity
  8
Livello 1
370
     9
100
AcDbLine
 10
13.36164035663682
 20
-14.59314102812492
 30
0.0
 11
13.36164035663682
 21
-14.59578680784521
 31
0.0
  0
LINE
  5
1A0
330
70
100
AcDbEntity
  8
Livello 1
370
     9
100
AcDbLine
 10
13.3660096195152
 20
-14.59132438359866
 30
0.0
 11
13.39239288704512
 21
-14.59132438359866
 31
0.0
  0
SPLINE
  5
1A1
330
70
100
AcDbEntity
  8
Livello 1
370
     9
100
AcDbSpline
210
0.0
220
0.0
230
1.0
 70
     8
 71
     3
 72
     8
 73
     4
 74
     0
 42
0.000000001
 43
0.0000000001
 40
0.0
 40
0.0
 40
0.0
 40
0.0
 40
1.0
 40
1.0
 40
1.0
 40
1.0
 10
13.36164035663682
 20
-14.59314102812492
 30
0.0
 10
13.36164035663682
 20
-14.59241437031439
 30
0.0
 10
13.3623763305545
 20
-14.59178087376172
 30
0.0
 10
13.36400665252407
 20
-14.59132438359866
 30
0.0
  0
LINE
  5
1A2
330
70
100
AcDbEntity
  8
Livello 1
370
     9
100
AcDbLine
 10
13.53177144125219
 20
-14.59132438359866
 30
0.0
 11
13.56107194586861
 21
-14.59132438359866
 31
0.0
  0
SPLINE
  5
1A3
330
70
100
AcDbEntity
  8
Livello 1
370
     9
100
AcDbSpline
210
0.0
220
0.0
230
1.0
 70
     8
 71
     3
 72
     8
 73
     4
 74
     0
 42
0.000000001
 43
0.0000000001
 40
0.0
 40
0.0
 40
0.0
 40
0.0
 40
1.0
 40
1.0
 40
1.0
 40
1.0
 10
13.56107194586861
 20
-14.59132438359866
 30
0.0
 10
13.5627009780457
 20
-14.59178087376172
 30
0.0
 10
13.56343695196338
 20
-14.59241437031439
 30
0.0
 10
13.56343695196338
 20
-14.59314102812492
 30
0.0
  0
SPLINE
  5
1A4
330
70
100
AcDbEntity
  8
Livello 1
370
     9
100
AcDbSpline
210
0.0
220
0.0
230
1.0
 70
     8
 71
     3
 72
     8
 73
     4
 74
     0
 42
0.000000001
 43
0.0000000001
 40
0.0
 40
0.0
 40
0.0
 40
0.0
 40
1.0
 40
1.0
 40
1.0
 40
1.0
 10
13.52813815229149
 20
-14.59050456453043
 30
0.0
 10
13.52976976326284
 20
-14.59050456453043
 30
0.0
 10
13.53068145456396
 20
-14.59086789343566
 30
0.0
 10
13.53177144125219
 20
-14.59132438359866
 30
0.0
  0
LINE
  5
1A5
330
70
100
AcDbEntity
  8
Livello 1
370
     9
100
AcDbLine
 10
10.39631759718729
 20
-14.59578680784521
 30
0.0
 11
5.698223435634951
 21
-14.59578680784521
 31
0.0
  0
SPLINE
  5
1A6
330
70
100
AcDbEntity
  8
Livello 1
370
     9
100
AcDbSpline
210
0.0
220
0.0
230
1.0
 70
    24
 71
     3
 72
    26
 73
    22
 74
     0
 42
0.000000001
 43
0.0000000001
 40
0.0
 40
0.0
 40
0.0
 40
0.0
 40
1.0
 40
1.0
 40
1.0
 40
2.0
 40
2.0
 40
2.0
 40
3.0
 40
3.0
 40
3.0
 40
4.0
 40
4.0
 40
4.0
 40
5.0
 40
5.0
 40
5.0
 40
6.0
 40
6.0
 40
6.0
 40
7.0
 40
7.0
 40
7.0
 40
7.0
 10
15.09458876512491
 20
-14.59578680784521
 30
0.0
 10
15.09622840322005
 20
-14.59578680784521
 30
0.0
 10
15.09294912702991
 20
-14.59578680784521
 30
0.0
 10
15.09222246923766
 20
-14.59578680784521
 30
0.0
 10
15.08512358157604
 20
-14.59578680784521
 30
0.0
 10
15.07839733893598
 20
-14.59578680784521
 30
0.0
 10
15.07129845127436
 20
-14.59578680784521
 30
0.0
 10
15.03763928969761
 20
-14.59578680784521
 30
0.0
 10
15.00379380561007
 20
-14.59578680784521
 30
0.0
 10
14.97031165041853
 20
-14.59578680784521
 30
0.0
 10
14.81674463701365
 20
-14.59578680784521
 30
0.0
 10
14.66316962511708
 20
-14.59578680784521
 30
0.0
 10
14.50942428769311
 20
-14.59578680784521
 30
0.0
 10
14.31381490853361
 20
-14.59578680784521
 30
0.0
 10
14.11803522149779
 20
-14.59578680784521
 30
0.0
 10
13.92224752714462
 20
-14.59578680784521
 30
0.0
 10
13.53049513205318
 20
-14.59578680784521
 30
0.0
 10
13.13892905947252
 20
-14.59578680784521
 30
0.0
 10
12.74717666438108
 20
-14.59578680784521
 30
0.0
 10
11.96349486781286
 20
-14.59578680784521
 30
0.0
 10
11.17999939375554
 20
-14.59578680784521
 30
0.0
 10
10.39631759718729
 20
-14.59578680784521
 30
0.0
  0
LINE
  5
1A7
330
70
100
AcDbEntity
  8
Livello 1
370
     9
100
AcDbLine
 10
14.83348571460936
 20
-14.59314102812492
 30
0.0
 11
14.83348571460936
 21
-14.59578680784521
 31
0.0
  0
LINE
  5
1A8
330
70
100
AcDbEntity
  8
Livello 1
370
     9
100
AcDbLine
 10
14.6318754417937
 20
-14.59314102812492
 30
0.0
 11
14.6318754417937
 21
-14.59578680784521
 31
0.0
  0
SPLINE
  5
1A9
330
70
100
AcDbEntity
  8
Livello 1
370
     9
100
AcDbSpline
210
0.0
220
0.0
230
1.0
 70
     8
 71
     3
 72
     8
 73
     4
 74
     0
 42
0.000000001
 43
0.0000000001
 40
0.0
 40
0.0
 40
0.0
 40
0.0
 40
1.0
 40
1.0
 40
1.0
 40
1.0
 10
14.66226464330588
 20
-14.59132438359866
 30
0.0
 10
14.66335594763261
 20
-14.59078404830372
 30
0.0
 10
14.664630939193
 20
-14.59050456453043
 30
0.0
 10
14.66644758367335
 20
-14.59050456453043
 30
0.0
  0
LINE
  5
1AA
330
70
100
AcDbEntity
  8
Livello 1
370
     9
100
AcDbLine
 10
10.4892925300786
 20
-14.59050456453043
 30
0.0
 11
10.46491222953988
 21
-14.59050456453043
 31
0.0
  0
LINE
  5
1AB
330
70
100
AcDbEntity
  8
Livello 1
370
     9
100
AcDbLine
 10
10.46199628224579
 20
-14.59050456453043
 30
0.0
 11
10.33062959600326
 21
-14.59050456453043
 31
0.0
  0
LINE
  5
1AC
330
70
100
AcDbEntity
  8
Livello 1
370
     9
100
AcDbLine
 10
10.32662366202097
 20
-14.59050456453043
 30
0.0
 11
10.31006890693598
 21
-14.59050456453043
 31
0.0
  0
SPLINE
  5
1AD
330
70
100
AcDbEntity
  8
Livello 1
370
     9
100
AcDbSpline
210
0.0
220
0.0
230
1.0
 70
     8
 71
     3
 72
     8
 73
     4
 74
     0
 42
0.000000001
 43
0.0000000001
 40
0.0
 40
0.0
 40
0.0
 40
0.0
 40
1.0
 40
1.0
 40
1.0
 40
1.0
 10
10.2978740986039
 20
-14.59132438359866
 30
0.0
 10
10.2962356678246
 20
-14.59178087376172
 30
0.0
 10
10.29550780271668
 20
-14.59241437031439
 30
0.0
 10
10.29550780271668
 20
-14.59314102812492
 30
0.0
  0
SPLINE
  5
1AE
330
70
100
AcDbEntity
  8
Livello 1
370
     9
100
AcDbSpline
210
0.0
220
0.0
230
1.0
 70
    24
 71
     3
 72
    17
 73
    13
 74
     0
 42
0.000000001
 43
0.0000000001
 40
0.0
 40
0.0
 40
0.0
 40
0.0
 40
1.0
 40
1.0
 40
1.0
 40
2.0
 40
2.0
 40
2.0
 40
3.0
 40
3.0
 40
3.0
 40
4.0
 40
4.0
 40
4.0
 40
4.0
 10
14.63405541517005
 20
-14.59132438359866
 30
0.0
 10
14.6318754417937
 20
-14.59132438359866
 30
0.0
 10
14.63642171105729
 20
-14.59132438359866
 30
0.0
 10
14.63769802025631
 20
-14.59132438359866
 30
0.0
 10
14.63878800694455
 20
-14.59132438359866
 30
0.0
 10
14.64006563319375
 20
-14.59132438359866
 30
0.0
 10
14.64115430283167
 20
-14.59132438359866
 30
0.0
 10
14.64352059871892
 20
-14.59132438359866
 30
0.0
 10
14.64588689460617
 20
-14.59132438359866
 30
0.0
 10
14.64825319049342
 20
-14.59132438359866
 30
0.0
 10
14.65298578226779
 20
-14.59132438359866
 30
0.0
 10
14.65771837404228
 20
-14.59132438359866
 30
0.0
 10
14.66226464330588
 20
-14.59132438359866
 30
0.0
  0
SPLINE
  5
1AF
330
70
100
AcDbEntity
  8
Livello 1
370
     9
100
AcDbSpline
210
0.0
220
0.0
230
1.0
 70
     8
 71
     3
 72
     8
 73
     4
 74
     0
 42
0.000000001
 43
0.0000000001
 40
0.0
 40
0.0
 40
0.0
 40
0.0
 40
1.0
 40
1.0
 40
1.0
 40
1.0
 10
10.49730439804324
 20
-14.59314102812492
 30
0.0
 10
10.49730439804324
 20
-14.59132438359866
 30
0.0
 10
10.49493810215599
 20
-14.59050456453043
 30
0.0
 10
10.48911552369339
 20
-14.59050456453043
 30
0.0
  0
LINE
  5
1B0
330
70
100
AcDbEntity
  8
Livello 1
370
     9
100
AcDbLine
 10
10.49730439804324
 20
-14.59314102812492
 30
0.0
 11
10.49730439804324
 21
-14.59578680784521
 31
0.0
  0
LINE
  5
1B1
330
70
100
AcDbEntity
  8
Livello 1
370
     9
100
AcDbLine
 10
10.29550780271668
 20
-14.59578680784521
 30
0.0
 11
10.29550780271668
 21
-14.59314102812492
 31
0.0
  0
LINE
  5
1B2
330
70
100
AcDbEntity
  8
Livello 1
370
     9
100
AcDbLine
 10
7.395863728325656
 20
-14.59050456453043
 30
0.0
 11
7.264861501716129
 21
-14.59050456453043
 31
0.0
  0
LINE
  5
1B3
330
70
100
AcDbEntity
  8
Livello 1
370
     9
100
AcDbLine
 10
7.26158109478904
 20
-14.59050456453043
 30
0.0
 11
7.239380767626721
 21
-14.59050456453043
 31
0.0
  0
SPLINE
  5
1B4
330
70
100
AcDbEntity
  8
Livello 1
370
     9
100
AcDbSpline
210
0.0
220
0.0
230
1.0
 70
     8
 71
     3
 72
     8
 73
     4
 74
     0
 42
0.000000001
 43
0.0000000001
 40
0.0
 40
0.0
 40
0.0
 40
0.0
 40
1.0
 40
1.0
 40
1.0
 40
1.0
 10
14.6318754417937
 20
-14.59314102812492
 30
0.0
 10
14.6318754417937
 20
-14.59241437031439
 30
0.0
 10
14.63242641005777
 20
-14.59178087376172
 30
0.0
 10
14.63405541517005
 20
-14.59132438359866
 30
0.0
  0
LINE
  5
1B5
330
70
100
AcDbEntity
  8
Livello 1
370
     9
100
AcDbLine
 10
14.80273318420119
 20
-14.59132438359866
 30
0.0
 11
14.83111941872224
 21
-14.59132438359866
 31
0.0
  0
SPLINE
  5
1B6
330
70
100
AcDbEntity
  8
Livello 1
370
     9
100
AcDbSpline
210
0.0
220
0.0
230
1.0
 70
    24
 71
     3
 72
    20
 73
    16
 74
     0
 42
0.000000001
 43
0.0000000001
 40
0.0
 40
0.0
 40
0.0
 40
0.0
 40
1.0
 40
1.0
 40
1.0
 40
2.0
 40
2.0
 40
2.0
 40
3.0
 40
3.0
 40
3.0
 40
4.0
 40
4.0
 40
4.0
 40
5.0
 40
5.0
 40
5.0
 40
5.0
 10
7.421157009167338
 20
-14.59050456453043
 30
0.0
 10
7.421706660574206
 20
-14.59050456453043
 30
0.0
 10
7.422433318366384
 20
-14.59050456453043
 30
0.0
 10
7.423159976158467
 20
-14.59050456453043
 30
0.0
 10
7.42424996284667
 20
-14.59050456453043
 30
0.0
 10
7.421883666959453
 20
-14.59050456453043
 30
0.0
 10
7.421520338063396
 20
-14.59050456453043
 30
0.0
 10
7.42025447965239
 20
-14.59050456453043
 30
0.0
 10
7.418977035790931
 20
-14.59050456453043
 30
0.0
 10
7.417700726591917
 20
-14.59050456453043
 30
0.0
 10
7.415334430704699
 20
-14.59050456453043
 30
0.0
 10
7.412968134817482
 20
-14.59050456453043
 30
0.0
 10
7.410424832544986
 20
-14.59050456453043
 30
0.0
 10
7.405515234385305
 20
-14.59050456453043
 30
0.0
 10
7.40078377678142
 20
-14.59050456453043
 30
0.0
 10
7.395863728325656
 20
-14.59050456453043
 30
0.0
  0
SPLINE
  5
1B7
330
70
100
AcDbEntity
  8
Livello 1
370
     9
100
AcDbSpline
210
0.0
220
0.0
230
1.0
 70
     8
 71
     3
 72
     8
 73
     4
 74
     0
 42
0.000000001
 43
0.0000000001
 40
0.0
 40
0.0
 40
0.0
 40
0.0
 40
1.0
 40
1.0
 40
1.0
 40
1.0
 10
14.7981869149376
 20
-14.59050456453043
 30
0.0
 10
14.79981723690704
 20
-14.59050456453043
 30
0.0
 10
14.80073021721006
 20
-14.59086789343566
 30
0.0
 10
14.80182020389817
 20
-14.59132438359866
 30
0.0
  0
SPLINE
  5
1B8
330
70
100
AcDbEntity
  8
Livello 1
370
     9
100
AcDbSpline
210
0.0
220
0.0
230
1.0
 70
     8
 71
     3
 72
     8
 73
     4
 74
     0
 42
0.000000001
 43
0.0000000001
 40
0.0
 40
0.0
 40
0.0
 40
0.0
 40
1.0
 40
1.0
 40
1.0
 40
1.0
 10
14.83111941872224
 20
-14.59132438359866
 30
0.0
 10
14.83275905681724
 20
-14.59178087376172
 30
0.0
 10
14.83348571460936
 20
-14.59241437031439
 30
0.0
 10
14.83348571460936
 20
-14.59314102812492
 30
0.0
  0
LINE
  5
1B9
330
70
100
AcDbEntity
  8
Livello 1
370
     9
100
AcDbLine
 10
6.060313287006394
 20
-14.59050456453043
 30
0.0
 11
5.968968676084623
 21
-14.59050456453043
 31
0.0
  0
LINE
  5
1BA
330
70
100
AcDbEntity
  8
Livello 1
370
     9
100
AcDbLine
 10
5.959512808661284
 20
-14.59314102812492
 30
0.0
 11
5.959512808661284
 21
-14.59578680784521
 31
0.0
  0
LINE
  5
1BB
330
70
100
AcDbEntity
  8
Livello 1
370
     9
100
AcDbLine
 10
6.161113765351471
 20
-14.59314102812492
 30
0.0
 11
6.161113765351471
 21
-14.59578680784521
 31
0.0
  0
SPLINE
  5
1BC
330
70
100
AcDbEntity
  8
Livello 1
370
     9
100
AcDbSpline
210
0.0
220
0.0
230
1.0
 70
    24
 71
     3
 72
    20
 73
    16
 74
     0
 42
0.000000001
 43
0.0000000001
 40
0.0
 40
0.0
 40
0.0
 40
0.0
 40
1.0
 40
1.0
 40
1.0
 40
2.0
 40
2.0
 40
2.0
 40
3.0
 40
3.0
 40
3.0
 40
4.0
 40
4.0
 40
4.0
 40
5.0
 40
5.0
 40
5.0
 40
5.0
 10
6.151471575417354
 20
-14.59050456453043
 30
0.0
 10
6.151657897928165
 20
-14.59050456453043
 30
0.0
 10
6.152747884616369
 20
-14.59050456453043
 30
0.0
 10
6.1521982332095
 20
-14.59050456453043
 30
0.0
 10
6.148928273144891
 20
-14.59050456453043
 30
0.0
 10
6.145835319465526
 20
-14.59050456453043
 30
0.0
 10
6.142920474565665
 20
-14.59050456453043
 30
0.0
 10
6.138914540482179
 20
-14.59050456453043
 30
0.0
 10
6.134916820332396
 20
-14.59050456453043
 30
0.0
 10
6.131097208860918
 20
-14.59050456453043
 30
0.0
 10
6.12308534089634
 20
-14.59050456453043
 30
0.0
 10
6.115259795442573
 20
-14.59050456453043
 30
0.0
 10
6.107443566114306
 20
-14.59050456453043
 30
0.0
 10
6.091606152695962
 20
-14.59050456453043
 30
0.0
 10
6.075778055403149
 20
-14.59050456453043
 30
0.0
 10
6.060313287006394
 20
-14.59050456453043
 30
0.0
  0
LINE
  5
1BD
330
70
100
AcDbEntity
  8
Livello 1
370
     9
100
AcDbLine
 10
6.130370551068772
 20
-14.59132438359866
 30
0.0
 11
6.158747469464254
 21
-14.59132438359866
 31
0.0
  0
SPLINE
  5
1BE
330
70
100
AcDbEntity
  8
Livello 1
370
     9
100
AcDbSpline
210
0.0
220
0.0
230
1.0
 70
     8
 71
     3
 72
     8
 73
     4
 74
     0
 42
0.000000001
 43
0.0000000001
 40
0.0
 40
0.0
 40
0.0
 40
0.0
 40
1.0
 40
1.0
 40
1.0
 40
1.0
 10
6.125814965679647
 20
-14.59050456453043
 30
0.0
 10
6.127455705778275
 20
-14.59050456453043
 30
0.0
 10
6.128544590462889
 20
-14.59086789343566
 30
0.0
 10
6.129271248255036
 20
-14.59132438359866
 30
0.0
  0
SPLINE
  5
1BF
330
70
100
AcDbEntity
  8
Livello 1
370
     9
100
AcDbSpline
210
0.0
220
0.0
230
1.0
 70
    24
 71
     3
 72
    20
 73
    16
 74
     0
 42
0.000000001
 43
0.0000000001
 40
0.0
 40
0.0
 40
0.0
 40
0.0
 40
1.0
 40
1.0
 40
1.0
 40
2.0
 40
2.0
 40
2.0
 40
3.0
 40
3.0
 40
3.0
 40
4.0
 40
4.0
 40
4.0
 40
5.0
 40
5.0
 40
5.0
 40
5.0
 10
14.82384352467527
 20
-14.59050456453043
 30
0.0
 10
14.82402053106049
 20
-14.59050456453043
 30
0.0
 10
14.82511051774872
 20
-14.59050456453043
 30
0.0
 10
14.82457018246739
 20
-14.59050456453043
 30
0.0
 10
14.82147722878802
 20
-14.59050456453043
 30
0.0
 10
14.81819795259788
 20
-14.59050456453043
 30
0.0
 10
14.81510499891852
 20
-14.59050456453043
 30
0.0
 10
14.81128538744704
 20
-14.59050456453043
 30
0.0
 10
14.80727945346478
 20
-14.59050456453043
 30
0.0
 10
14.8034598419933
 20
-14.59050456453043
 30
0.0
 10
14.79545861112995
 20
-14.59050456453043
 30
0.0
 10
14.78763306547857
 20
-14.59050456453043
 30
0.0
 10
14.77980751982706
 20
-14.59050456453043
 30
0.0
 10
14.76397810195394
 20
-14.59050456453043
 30
0.0
 10
14.748150004661
 20
-14.59050456453043
 30
0.0
 10
14.73267592013875
 20
-14.59050456453043
 30
0.0
  0
SPLINE
  5
1C0
330
70
100
AcDbEntity
  8
Livello 1
370
     9
100
AcDbSpline
210
0.0
220
0.0
230
1.0
 70
     8
 71
     3
 72
     8
 73
     4
 74
     0
 42
0.000000001
 43
0.0000000001
 40
0.0
 40
0.0
 40
0.0
 40
0.0
 40
1.0
 40
1.0
 40
1.0
 40
1.0
 10
6.158747469464254
 20
-14.59132438359866
 30
0.0
 10
6.160387107559357
 20
-14.59178087376172
 30
0.0
 10
6.161113765351471
 20
-14.59241437031439
 30
0.0
 10
6.161113765351471
 20
-14.59314102812492
 30
0.0
  0
SPLINE
  5
1C1
330
70
100
AcDbEntity
  8
Livello 1
370
     9
100
AcDbSpline
210
0.0
220
0.0
230
1.0
 70
     8
 71
     3
 72
     8
 73
     4
 74
     0
 42
0.000000001
 43
0.0000000001
 40
0.0
 40
0.0
 40
0.0
 40
0.0
 40
1.0
 40
1.0
 40
1.0
 40
1.0
 10
5.990079016558738
 20
-14.59132438359866
 30
0.0
 10
5.990991996861663
 20
-14.59078404830372
 30
0.0
 10
5.992258989935145
 20
-14.59050456453043
 30
0.0
 10
5.994084950541027
 20
-14.59050456453043
 30
0.0
  0
LINE
  5
1C2
330
70
100
AcDbEntity
  8
Livello 1
370
     9
100
AcDbLine
 10
14.73267592013875
 20
-14.59050456453043
 30
0.0
 11
14.64134062534257
 21
-14.59050456453043
 31
0.0
  0
SPLINE
  5
1C3
330
70
100
AcDbEntity
  8
Livello 1
370
     9
100
AcDbSpline
210
0.0
220
0.0
230
1.0
 70
    24
 71
     3
 72
    17
 73
    13
 74
     0
 42
0.000000001
 43
0.0000000001
 40
0.0
 40
0.0
 40
0.0
 40
0.0
 40
1.0
 40
1.0
 40
1.0
 40
2.0
 40
2.0
 40
2.0
 40
3.0
 40
3.0
 40
3.0
 40
4.0
 40
4.0
 40
4.0
 40
4.0
 10
5.961692782037691
 20
-14.59132438359866
 30
0.0
 10
5.959512808661284
 20
-14.59132438359866
 30
0.0
 10
5.964059077924908
 20
-14.59132438359866
 30
0.0
 10
5.965335387123923
 20
-14.59132438359866
 30
0.0
 10
5.966425373812127
 20
-14.59132438359866
 30
0.0
 10
5.96770168301114
 20
-14.59132438359866
 30
0.0
 10
5.968791669699376
 20
-14.59132438359866
 30
0.0
 10
5.971157965586562
 20
-14.59132438359866
 30
0.0
 10
5.973524261473779
 20
-14.59132438359866
 30
0.0
 10
5.975882339409907
 20
-14.59132438359866
 30
0.0
 10
5.980436826624622
 20
-14.59132438359866
 30
0.0
 10
5.985346424784303
 20
-14.59132438359866
 30
0.0
 10
5.990079016558738
 20
-14.59132438359866
 30
0.0
  0
SPLINE
  5
1C4
330
70
100
AcDbEntity
  8
Livello 1
370
     9
100
AcDbSpline
210
0.0
220
0.0
230
1.0
 70
     8
 71
     3
 72
     8
 73
     4
 74
     0
 42
0.000000001
 43
0.0000000001
 40
0.0
 40
0.0
 40
0.0
 40
0.0
 40
1.0
 40
1.0
 40
1.0
 40
1.0
 10
5.959512808661284
 20
-14.59314102812492
 30
0.0
 10
5.959512808661284
 20
-14.59241437031439
 30
0.0
 10
5.96005314394262
 20
-14.59178087376172
 30
0.0
 10
5.961692782037691
 20
-14.59132438359866
 30
0.0
  0
SPLINE
  5
1C5
330
70
100
AcDbEntity
  8
Livello 1
370
     9
100
AcDbSpline
210
0.0
220
0.0
230
1.0
 70
    24
 71
     3
 72
    20
 73
    16
 74
     0
 42
0.000000001
 43
0.0000000001
 40
0.0
 40
0.0
 40
0.0
 40
0.0
 40
1.0
 40
1.0
 40
1.0
 40
2.0
 40
2.0
 40
2.0
 40
3.0
 40
3.0
 40
3.0
 40
4.0
 40
4.0
 40
4.0
 40
5.0
 40
5.0
 40
5.0
 40
5.0
 10
13.55342211700761
 20
-14.59050456453043
 30
0.0
 10
13.55397176841451
 20
-14.59050456453043
 30
0.0
 10
13.55469842620663
 20
-14.59050456453043
 30
0.0
 10
13.55542508399874
 20
-14.59050456453043
 30
0.0
 10
13.55615174179098
 20
-14.59050456453043
 30
0.0
 10
13.55433509731063
 20
-14.59050456453043
 30
0.0
 10
13.55397176841451
 20
-14.59050456453043
 30
0.0
 10
13.55306007770171
 20
-14.59050456453043
 30
0.0
 10
13.55196880142338
 20
-14.59050456453043
 30
0.0
 10
13.55087881473515
 20
-14.59050456453043
 30
0.0
 10
13.54869884135881
 20
-14.59050456453043
 30
0.0
 10
13.54650955185677
 20
-14.59050456453043
 30
0.0
 10
13.54432957848043
 20
-14.59050456453043
 30
0.0
 10
13.53996031560205
 20
-14.59050456453043
 30
0.0
 10
13.53541404633846
 20
-14.59050456453043
 30
0.0
 10
13.53123110597086
 20
-14.59050456453043
 30
0.0
  0
LINE
  5
1C6
330
70
100
AcDbEntity
  8
Livello 1
370
     9
100
AcDbLine
 10
13.52813815229149
 20
-14.59050456453043
 30
0.0
 11
13.39694847243427
 21
-14.59050456453043
 31
0.0
  0
LINE
  5
1C7
330
70
100
AcDbEntity
  8
Livello 1
370
     9
100
AcDbLine
 10
7.229375248796547
 20
-14.59314102812492
 30
0.0
 11
7.229375248796547
 21
-14.59578680784521
 31
0.0
  0
LINE
  5
1C8
330
70
100
AcDbEntity
  8
Livello 1
370
     9
100
AcDbLine
 10
7.431162527997512
 20
-14.59314102812492
 30
0.0
 11
7.431162527997512
 21
-14.59578680784521
 31
0.0
  0
LINE
  5
1C9
330
70
100
AcDbEntity
  8
Livello 1
370
     9
100
AcDbLine
 10
13.39257920955589
 20
-14.59050456453043
 30
0.0
 11
13.37165519159259
 21
-14.59050456453043
 31
0.0
  0
SPLINE
  5
1CA
330
70
100
AcDbEntity
  8
Livello 1
370
     9
100
AcDbSpline
210
0.0
220
0.0
230
1.0
 70
     8
 71
     3
 72
     8
 73
     4
 74
     0
 42
0.000000001
 43
0.0000000001
 40
0.0
 40
0.0
 40
0.0
 40
0.0
 40
1.0
 40
1.0
 40
1.0
 40
1.0
 10
7.428805548235859
 20
-14.59132438359866
 30
0.0
 10
7.430435870205366
 20
-14.59178087376172
 30
0.0
 10
7.431162527997512
 20
-14.59241437031439
 30
0.0
 10
7.431162527997512
 20
-14.59314102812492
 30
0.0
  0
LINE
  5
1CB
330
70
100
AcDbEntity
  8
Livello 1
370
     9
100
AcDbLine
 10
7.400055984818755
 20
-14.59132438359866
 30
0.0
 11
7.426616258733919
 21
-14.59132438359866
 31
0.0
  0
SPLINE
  5
1CC
330
70
100
AcDbEntity
  8
Livello 1
370
     9
100
AcDbSpline
210
0.0
220
0.0
230
1.0
 70
     8
 71
     3
 72
     8
 73
     4
 74
     0
 42
0.000000001
 43
0.0000000001
 40
0.0
 40
0.0
 40
0.0
 40
0.0
 40
1.0
 40
1.0
 40
1.0
 40
1.0
 10
15.09567875181315
 20
-14.59578680784521
 30
0.0
 10
15.10150133027575
 20
-14.59578680784521
 30
0.0
 10
15.10369061977766
 20
-14.59660662691341
 30
0.0
 10
15.10369061977766
 20
-14.59842327143967
 30
0.0
  0
LINE
  5
1CD
330
70
100
AcDbEntity
  8
Livello 1
370
     9
100
AcDbLine
 10
10.2978740986039
 20
-14.59132438359866
 30
0.0
 11
10.32608332673964
 21
-14.59132438359866
 31
0.0
  0
SPLINE
  5
1CE
330
70
100
AcDbEntity
  8
Livello 1
370
     9
100
AcDbSpline
210
0.0
220
0.0
230
1.0
 70
     8
 71
     3
 72
     8
 73
     4
 74
     0
 42
0.000000001
 43
0.0000000001
 40
0.0
 40
0.0
 40
0.0
 40
0.0
 40
1.0
 40
1.0
 40
1.0
 40
1.0
 10
10.46199628224579
 20
-14.59050456453043
 30
0.0
 10
10.46363592034093
 20
-14.59050456453043
 30
0.0
 10
10.46436257813304
 20
-14.59078404830372
 30
0.0
 10
10.46546188094671
 20
-14.59123122234096
 30
0.0
  0
LINE
  5
1CF
330
70
100
AcDbEntity
  8
Livello 1
370
     9
100
AcDbLine
 10
10.46546188094671
 20
-14.59132438359866
 30
0.0
 11
10.49493810215599
 21
-14.59132438359866
 31
0.0
  0
SPLINE
  5
1D0
330
70
100
AcDbEntity
  8
Livello 1
370
     9
100
AcDbSpline
210
0.0
220
0.0
230
1.0
 70
     8
 71
     3
 72
     8
 73
     4
 74
     0
 42
0.000000001
 43
0.0000000001
 40
0.0
 40
0.0
 40
0.0
 40
0.0
 40
1.0
 40
1.0
 40
1.0
 40
1.0
 10
10.32608332673964
 20
-14.59123122234096
 30
0.0
 10
10.32735152791503
 20
-14.59069088704599
 30
0.0
 10
10.32844962262685
 20
-14.59050456453043
 30
0.0
 10
10.3302662671072
 20
-14.59050456453043
 30
0.0
  0
SPLINE
  5
1D1
330
70
100
AcDbEntity
  8
Livello 1
370
     9
100
AcDbSpline
210
0.0
220
0.0
230
1.0
 70
     8
 71
     3
 72
     8
 73
     4
 74
     0
 42
0.000000001
 43
0.0000000001
 40
0.0
 40
0.0
 40
0.0
 40
0.0
 40
1.0
 40
1.0
 40
1.0
 40
1.0
 10
7.229375248796547
 20
-14.59314102812492
 30
0.0
 10
7.229375248796547
 20
-14.59241437031439
 30
0.0
 10
7.230101906588661
 20
-14.59178087376172
 30
0.0
 10
7.231741544683733
 20
-14.59132438359866
 30
0.0
  0
SPLINE
  5
1D2
330
70
100
AcDbEntity
  8
Livello 1
370
     9
100
AcDbSpline
210
0.0
220
0.0
230
1.0
 70
    24
 71
     3
 72
    17
 73
    13
 74
     0
 42
0.000000001
 43
0.0000000001
 40
0.0
 40
0.0
 40
0.0
 40
0.0
 40
1.0
 40
1.0
 40
1.0
 40
2.0
 40
2.0
 40
2.0
 40
3.0
 40
3.0
 40
3.0
 40
4.0
 40
4.0
 40
4.0
 40
4.0
 10
7.231741544683733
 20
-14.59132438359866
 30
0.0
 10
7.229375248796547
 20
-14.59132438359866
 30
0.0
 10
7.23410784057095
 20
-14.59132438359866
 30
0.0
 10
7.235197827259153
 20
-14.59132438359866
 30
0.0
 10
7.236474136458167
 20
-14.59132438359866
 30
0.0
 10
7.237751575709115
 20
-14.59132438359866
 30
0.0
 10
7.238840432345385
 20
-14.59132438359866
 30
0.0
 10
7.241020405721791
 20
-14.59132438359866
 30
0.0
 10
7.24338670160901
 20
-14.59132438359866
 30
0.0
 10
7.245939320007038
 20
-14.59132438359866
 30
0.0
 10
7.25048558927063
 20
-14.59132438359866
 30
0.0
 10
7.255395187430344
 20
-14.59132438359866
 30
0.0
 10
7.260127779204779
 20
-14.59132438359866
 30
0.0
  0
SPLINE
  5
1D3
330
70
100
AcDbEntity
  8
Livello 1
370
     9
100
AcDbSpline
210
0.0
220
0.0
230
1.0
 70
     8
 71
     3
 72
     8
 73
     4
 74
     0
 42
0.000000001
 43
0.0000000001
 40
0.0
 40
0.0
 40
0.0
 40
0.0
 40
1.0
 40
1.0
 40
1.0
 40
1.0
 10
7.260491108100836
 20
-14.59114737720895
 30
0.0
 10
7.261404088403761
 20
-14.59069088704599
 30
0.0
 10
7.262494075091964
 20
-14.59050456453043
 30
0.0
 10
7.263947390676257
 20
-14.59050456453043
 30
0.0
  0
LINE
  5
1D4
330
70
100
AcDbEntity
  8
Livello 1
370
     9
100
AcDbLine
 10
13.56343695196338
 20
-14.59314102812492
 30
0.0
 11
13.56343695196338
 21
-14.59578680784521
 31
0.0
  0
LINE
  5
1D5
330
70
100
AcDbEntity
  8
Livello 1
370
     9
100
AcDbLine
 10
13.39112589397167
 20
-14.59314102812492
 30
0.0
 11
13.36382964613873
 21
-14.59314102812492
 31
0.0
  0
SPLINE
  5
1D6
330
70
100
AcDbEntity
  8
Livello 1
370
     9
100
AcDbSpline
210
0.0
220
0.0
230
1.0
 70
    24
 71
     3
 72
    23
 73
    19
 74
     0
 42
0.000000001
 43
0.0000000001
 40
0.0
 40
0.0
 40
0.0
 40
0.0
 40
1.0
 40
1.0
 40
1.0
 40
2.0
 40
2.0
 40
2.0
 40
3.0
 40
3.0
 40
3.0
 40
4.0
 40
4.0
 40
4.0
 40
5.0
 40
5.0
 40
5.0
 40
6.0
 40
6.0
 40
6.0
 40
6.0
 10
13.56124766246147
 20
-14.59314102812492
 30
0.0
 10
13.56197432025359
 20
-14.59314102812492
 30
0.0
 10
13.56489155743673
 20
-14.59314102812492
 30
0.0
 10
13.56343695196338
 20
-14.59314102812492
 30
0.0
 10
13.56252397166049
 20
-14.59314102812492
 30
0.0
 10
13.56179731386825
 20
-14.59314102812492
 30
0.0
 10
13.56088562335308
 20
-14.59314102812492
 30
0.0
 10
13.55524807761353
 20
-14.59314102812492
 30
0.0
 10
13.54960250553613
 20
-14.59314102812492
 30
0.0
 10
13.54377992707353
 20
-14.59314102812492
 30
0.0
 10
13.53650403302656
 20
-14.59314102812492
 30
0.0
 10
13.52922813897973
 20
-14.59314102812492
 30
0.0
 10
13.52194421761134
 20
-14.59314102812492
 30
0.0
 10
13.5073911407134
 20
-14.59314102812492
 30
0.0
 10
13.49301635900495
 20
-14.59314102812492
 30
0.0
 10
13.47827824840024
 20
-14.59314102812492
 30
0.0
 10
13.44935167859799
 20
-14.59314102812492
 30
0.0
 10
13.42023878628483
 20
-14.59314102812492
 30
0.0
 10
13.39112589397167
 20
-14.59314102812492
 30
0.0
  0
SPLINE
  5
1D7
330
70
100
AcDbEntity
  8
Livello 1
370
     9
100
AcDbSpline
210
0.0
220
0.0
230
1.0
 70
     8
 71
     3
 72
     8
 73
     4
 74
     0
 42
0.000000001
 43
0.0000000001
 40
0.0
 40
0.0
 40
0.0
 40
0.0
 40
1.0
 40
1.0
 40
1.0
 40
1.0
 10
13.3967621499235
 20
-14.59050456453043
 30
0.0
 10
13.39221588065977
 20
-14.59078404830372
 30
0.0
 10
13.39057624256477
 20
-14.59151070611425
 30
0.0
 10
13.39112589397167
 20
-14.59314102812492
 30
0.0
  0
LINE
  5
1D8
330
70
100
AcDbEntity
  8
Livello 1
370
     9
100
AcDbLine
 10
14.73267592013875
 20
-14.59578680784521
 30
0.0
 11
14.73267592013875
 21
-14.59314102812492
 31
0.0
  0
LINE
  5
1D9
330
70
100
AcDbEntity
  8
Livello 1
370
     9
100
AcDbLine
 10
14.73267592013875
 20
-14.59314102812492
 30
0.0
 11
14.63332875737793
 21
-14.59314102812492
 31
0.0
  0
SPLINE
  5
1DA
330
70
100
AcDbEntity
  8
Livello 1
370
     9
100
AcDbSpline
210
0.0
220
0.0
230
1.0
 70
    24
 71
     3
 72
    11
 73
     7
 74
     0
 42
0.000000001
 43
0.0000000001
 40
0.0
 40
0.0
 40
0.0
 40
0.0
 40
1.0
 40
1.0
 40
1.0
 40
2.0
 40
2.0
 40
2.0
 40
2.0
 10
14.83184607651435
 20
-14.59314102812492
 30
0.0
 10
14.83293606320259
 20
-14.59314102812492
 30
0.0
 10
14.83348571460936
 20
-14.59314102812492
 30
0.0
 10
14.83348571460936
 20
-14.59314102812492
 30
0.0
 10
14.83348571460936
 20
-14.59314102812492
 30
0.0
 10
14.79163899956208
 20
-14.59314102812492
 30
0.0
 10
14.73267592013875
 20
-14.59314102812492
 30
0.0
  0
LINE
  5
1DB
330
70
100
AcDbEntity
  8
Livello 1
370
     9
100
AcDbLine
 10
14.73267592013875
 20
-14.59050456453043
 30
0.0
 11
14.73267592013875
 21
-14.59314102812492
 31
0.0
  0
LINE
  5
1DC
330
70
100
AcDbEntity
  8
Livello 1
370
     9
100
AcDbLine
 10
6.060313287006394
 20
-14.59314102812492
 30
0.0
 11
6.060313287006394
 21
-14.59578680784521
 31
0.0
  0
SPLINE
  5
1DD
330
70
100
AcDbEntity
  8
Livello 1
370
     9
100
AcDbSpline
210
0.0
220
0.0
230
1.0
 70
    24
 71
     3
 72
    20
 73
    16
 74
     0
 42
0.000000001
 43
0.0000000001
 40
0.0
 40
0.0
 40
0.0
 40
0.0
 40
1.0
 40
1.0
 40
1.0
 40
2.0
 40
2.0
 40
2.0
 40
3.0
 40
3.0
 40
3.0
 40
4.0
 40
4.0
 40
4.0
 40
5.0
 40
5.0
 40
5.0
 40
5.0
 10
6.159483443381932
 20
-14.59314102812492
 30
0.0
 10
6.15966044976721
 20
-14.59314102812492
 30
0.0
 10
6.160750436455414
 20
-14.59314102812492
 30
0.0
 10
6.160210101174079
 20
-14.59314102812492
 30
0.0
 10
6.156753818598658
 20
-14.59314102812492
 30
0.0
 10
6.153288219897704
 20
-14.59314102812492
 30
0.0
 10
6.150018259833126
 20
-14.59314102812492
 30
0.0
 10
6.145648996954716
 20
-14.59314102812492
 30
0.0
 10
6.14146605658718
 20
-14.59314102812492
 30
0.0
 10
6.137096793708803
 20
-14.59314102812492
 30
0.0
 10
6.1287309129737
 20
-14.59314102812492
 30
0.0
 10
6.120178709727786
 20
-14.59314102812492
 30
0.0
 10
6.111440183971063
 20
-14.59314102812492
 30
0.0
 10
6.094522099990047
 20
-14.59314102812492
 30
0.0
 10
6.077231370987409
 20
-14.59314102812492
 30
0.0
 10
6.060313287006394
 20
-14.59314102812492
 30
0.0
  0
LINE
  5
1DE
330
70
100
AcDbEntity
  8
Livello 1
370
     9
100
AcDbLine
 10
6.060313287006394
 20
-14.59314102812492
 30
0.0
 11
6.060313287006394
 21
-14.59050456453043
 31
0.0
  0
LINE
  5
1DF
330
70
100
AcDbEntity
  8
Livello 1
370
     9
100
AcDbLine
 10
6.060313287006394
 20
-14.59314102812492
 30
0.0
 11
5.960966124245577
 21
-14.59314102812492
 31
0.0
  0
LINE
  5
1E0
330
70
100
AcDbEntity
  8
Livello 1
370
     9
100
AcDbLine
 10
7.401509300403016
 20
-14.59314102812492
 30
0.0
 11
7.401509300403016
 21
-14.59578680784521
 31
0.0
  0
SPLINE
  5
1E1
330
70
100
AcDbEntity
  8
Livello 1
370
     9
100
AcDbSpline
210
0.0
220
0.0
230
1.0
 70
    24
 71
     3
 72
    20
 73
    16
 74
     0
 42
0.000000001
 43
0.0000000001
 40
0.0
 40
0.0
 40
0.0
 40
0.0
 40
1.0
 40
1.0
 40
1.0
 40
2.0
 40
2.0
 40
2.0
 40
3.0
 40
3.0
 40
3.0
 40
4.0
 40
4.0
 40
4.0
 40
5.0
 40
5.0
 40
5.0
 40
5.0
 10
7.428982554621105
 20
-14.59314102812492
 30
0.0
 10
7.429709212413252
 20
-14.59314102812492
 30
0.0
 10
7.430435870205366
 20
-14.59314102812492
 30
0.0
 10
7.431162527997512
 20
-14.59314102812492
 30
0.0
 10
7.43226183081128
 20
-14.59314102812492
 30
0.0
 10
7.429895534924062
 20
-14.59314102812492
 30
0.0
 10
7.429345883517163
 20
-14.59314102812492
 30
0.0
 10
7.42806957431818
 20
-14.59314102812492
 30
0.0
 10
7.426802581244698
 20
-14.59314102812492
 30
0.0
 10
7.425339949534873
 20
-14.59314102812492
 30
0.0
 10
7.422796647262409
 20
-14.59314102812492
 30
0.0
 10
7.420068157136831
 20
-14.59314102812492
 30
0.0
 10
7.417523720206639
 20
-14.59314102812492
 30
0.0
 10
7.412242611485292
 20
-14.59314102812492
 30
0.0
 10
7.406968549969597
 20
-14.59314102812492
 30
0.0
 10
7.401509300403016
 20
-14.59314102812492
 30
0.0
  0
SPLINE
  5
1E2
330
70
100
AcDbEntity
  8
Livello 1
370
     9
100
AcDbSpline
210
0.0
220
0.0
230
1.0
 70
     8
 71
     3
 72
     8
 73
     4
 74
     0
 42
0.000000001
 43
0.0000000001
 40
0.0
 40
0.0
 40
0.0
 40
0.0
 40
1.0
 40
1.0
 40
1.0
 40
1.0
 10
7.401509300403016
 20
-14.59314102812492
 30
0.0
 10
7.402235958195194
 20
-14.59151070611425
 30
0.0
 10
7.40078377678142
 20
-14.59078404830372
 30
0.0
 10
7.395863728325656
 20
-14.59050456453043
 30
0.0
  0
LINE
  5
1E3
330
70
100
AcDbEntity
  8
Livello 1
370
     9
100
AcDbLine
 10
7.401509300403016
 20
-14.59314102812492
 30
0.0
 11
7.231564538298486
 21
-14.59314102812492
 31
0.0
  0
LINE
  5
1E4
330
70
100
AcDbEntity
  8
Livello 1
370
     9
100
AcDbLine
 10
10.49730439804324
 20
-14.59314102812492
 30
0.0
 11
10.29569412522746
 21
-14.59314102812492
 31
0.0
  0
LINE
  5
1E5
330
70
100
AcDbEntity
  8
Livello 1
370
     9
100
AcDbLine
 10
10.39631759718729
 20
-14.59842327143967
 30
0.0
 11
10.39631759718729
 21
-14.59578680784521
 31
0.0
  0
LINE
  5
1E6
330
70
100
AcDbEntity
  8
Livello 1
370
     9
100
AcDbLine
 10
10.39631759718729
 20
-14.59842327143967
 30
0.0
 11
5.690211567670374
 21
-14.59842327143967
 31
0.0
  0
SPLINE
  5
1E7
330
70
100
AcDbEntity
  8
Livello 1
370
     9
100
AcDbSpline
210
0.0
220
0.0
230
1.0
 70
    24
 71
     3
 72
    26
 73
    22
 74
     0
 42
0.000000001
 43
0.0000000001
 40
0.0
 40
0.0
 40
0.0
 40
0.0
 40
1.0
 40
1.0
 40
1.0
 40
2.0
 40
2.0
 40
2.0
 40
3.0
 40
3.0
 40
3.0
 40
4.0
 40
4.0
 40
4.0
 40
5.0
 40
5.0
 40
5.0
 40
6.0
 40
6.0
 40
6.0
 40
7.0
 40
7.0
 40
7.0
 40
7.0
 10
15.10277763947477
 20
-14.59842327143967
 30
0.0
 10
15.104230955059
 20
-14.59842327143967
 30
0.0
 10
15.10096099499442
 20
-14.59842327143967
 30
0.0
 10
15.1002343372023
 20
-14.59842327143967
 30
0.0
 10
15.09313544954068
 20
-14.59842327143967
 30
0.0
 10
15.08640121910054
 20
-14.59842327143967
 30
0.0
 10
15.07930100311344
 20
-14.59842327143967
 30
0.0
 10
15.04564184153668
 20
-14.59842327143967
 30
0.0
 10
15.01179635744902
 20
-14.59842327143967
 30
0.0
 10
14.97796151507325
 20
-14.59842327143967
 30
0.0
 10
14.8242068535714
 20
-14.59842327143967
 30
0.0
 10
14.67045351765573
 20
-14.59842327143967
 30
0.0
 10
14.51651385922917
 20
-14.59842327143967
 30
0.0
 10
14.3205491584909
 20
-14.59842327143967
 30
0.0
 10
14.12422112885639
 20
-14.59842327143967
 30
0.0
 10
13.92825642811813
 20
-14.59842327143967
 30
0.0
 10
13.53595438161979
 20
-14.59842327143967
 30
0.0
 10
13.14347532873611
 20
-14.59842327143967
 30
0.0
 10
12.75136892087411
 20
-14.59842327143967
 30
0.0
 10
11.96622449259623
 20
-14.59842327143967
 30
0.0
 10
11.18145393901815
 20
-14.59842327143967
 30
0.0
 10
10.39631759718729
 20
-14.59842327143967
 30
0.0
  0
SPLINE
  5
1E8
330
70
100
AcDbEntity
  8
Livello 1
370
     9
100
AcDbSpline
210
0.0
220
0.0
230
1.0
 70
    24
 71
     3
 72
    26
 73
    22
 74
     0
 42
0.000000001
 43
0.0000000001
 40
0.0
 40
0.0
 40
0.0
 40
0.0
 40
1.0
 40
1.0
 40
1.0
 40
2.0
 40
2.0
 40
2.0
 40
3.0
 40
3.0
 40
3.0
 40
4.0
 40
4.0
 40
4.0
 40
5.0
 40
5.0
 40
5.0
 40
6.0
 40
6.0
 40
6.0
 40
7.0
 40
7.0
 40
7.0
 40
7.0
 10
5.69840044202023
 20
-14.76546140659539
 30
0.0
 10
5.696584888658746
 20
-14.76546140659539
 30
0.0
 10
5.699863073730055
 20
-14.76546140659539
 30
0.0
 10
5.700590822742166
 20
-14.76546140659539
 30
0.0
 10
5.70767930305829
 20
-14.76546140659539
 30
0.0
 10
5.714601184334664
 20
-14.76546140659539
 30
0.0
 10
5.721513749485506
 20
-14.76546140659539
 30
0.0
 10
5.755172911062291
 20
-14.76546140659539
 30
0.0
 10
5.788832072639076
 20
-14.76546140659539
 30
0.0
 10
5.822500550341394
 20
-14.76546140659539
 30
0.0
 10
5.976254984441026
 20
-14.76546140659539
 30
0.0
 10
6.129634577151093
 20
-14.76546140659539
 30
0.0
 10
6.283387913066753
 20
-14.76546140659539
 30
0.0
 10
6.479175607419866
 20
-14.76546140659539
 30
0.0
 10
6.674964417607812
 20
-14.76546140659539
 30
0.0
 10
6.870741680000557
 20
-14.76546140659539
 30
0.0
 10
7.262494075091964
 20
-14.76546140659539
 30
0.0
 10
7.654060147672625
 20
-14.76546140659539
 30
0.0
 10
8.045626220253286
 20
-14.76546140659539
 30
0.0
 10
8.829132180689867
 20
-14.76546140659539
 30
0.0
 10
9.612812807004383
 20
-14.76546140659539
 30
0.0
 10
10.39631759718729
 20
-14.76546140659539
 30
0.0
  0
LINE
  5
1E9
330
70
100
AcDbEntity
  8
Livello 1
370
     9
100
AcDbLine
 10
10.39631759718729
 20
-14.76546140659539
 30
0.0
 11
15.09458876512491
 21
-14.76546140659539
 31
0.0
  0
SPLINE
  5
1EA
330
70
100
AcDbEntity
  8
Livello 1
370
     9
100
AcDbSpline
210
0.0
220
0.0
230
1.0
 70
     8
 71
     3
 72
     8
 73
     4
 74
     0
 42
0.000000001
 43
0.0000000001
 40
0.0
 40
0.0
 40
0.0
 40
0.0
 40
1.0
 40
1.0
 40
1.0
 40
1.0
 10
15.10369061977766
 20
-14.76427825862196
 30
0.0
 10
15.10369061977766
 20
-14.76509807769016
 30
0.0
 10
15.10150133027575
 20
-14.76546140659539
 30
0.0
 10
15.09567875181315
 20
-14.76546140659539
 30
0.0
  0
LINE
  5
1EB
330
70
100
AcDbEntity
  8
Livello 1
370
     9
100
AcDbLine
 10
15.10369061977766
 20
-14.59842327143967
 30
0.0
 11
15.10369061977766
 21
-14.76436210375394
 31
0.0
  0
SPLINE
  5
1EC
330
70
100
AcDbEntity
  8
Livello 1
370
     9
100
AcDbSpline
210
0.0
220
0.0
230
1.0
 70
    24
 71
     3
 72
    26
 73
    22
 74
     0
 42
0.000000001
 43
0.0000000001
 40
0.0
 40
0.0
 40
0.0
 40
0.0
 40
1.0
 40
1.0
 40
1.0
 40
2.0
 40
2.0
 40
2.0
 40
3.0
 40
3.0
 40
3.0
 40
4.0
 40
4.0
 40
4.0
 40
5.0
 40
5.0
 40
5.0
 40
6.0
 40
6.0
 40
6.0
 40
7.0
 40
7.0
 40
7.0
 40
7.0
 10
15.10277763947477
 20
-14.76427825862196
 30
0.0
 10
15.104230955059
 20
-14.76427825862196
 30
0.0
 10
15.10096099499442
 20
-14.76427825862196
 30
0.0
 10
15.1002343372023
 20
-14.76427825862196
 30
0.0
 10
15.09313544954068
 20
-14.76427825862196
 30
0.0
 10
15.08640121910054
 20
-14.76427825862196
 30
0.0
 10
15.07930100311344
 20
-14.76427825862196
 30
0.0
 10
15.04564184153668
 20
-14.76427825862196
 30
0.0
 10
15.01179635744902
 20
-14.76427825862196
 30
0.0
 10
14.97796151507325
 20
-14.76427825862196
 30
0.0
 10
14.8242068535714
 20
-14.76427825862196
 30
0.0
 10
14.67045351765573
 20
-14.76427825862196
 30
0.0
 10
14.51651385922917
 20
-14.76427825862196
 30
0.0
 10
14.3205491584909
 20
-14.76427825862196
 30
0.0
 10
14.12422112885639
 20
-14.76427825862196
 30
0.0
 10
13.92825642811813
 20
-14.76427825862196
 30
0.0
 10
13.53595438161979
 20
-14.76427825862196
 30
0.0
 10
13.14347532873611
 20
-14.76427825862196
 30
0.0
 10
12.75136892087411
 20
-14.76427825862196
 30
0.0
 10
11.96622449259623
 20
-14.76427825862196
 30
0.0
 10
11.18145393901815
 20
-14.76427825862196
 30
0.0
 10
10.39631759718729
 20
-14.76427825862196
 30
0.0
  0
LINE
  5
1ED
330
70
100
AcDbEntity
  8
Livello 1
370
     9
100
AcDbLine
 10
10.39631759718729
 20
-14.76427825862196
 30
0.0
 11
5.690211567670374
 21
-14.76427825862196
 31
0.0
  0
LINE
  5
1EE
330
70
100
AcDbEntity
  8
Livello 1
370
     9
100
AcDbLine
 10
10.39631759718729
 20
-14.76546140659539
 30
0.0
 11
10.39631759718729
 21
-14.76427825862196
 31
0.0
  0
LINE
  5
1EF
330
70
100
AcDbEntity
  8
Livello 1
370
     9
100
AcDbLine
 10
13.39112589397167
 20
-14.59578680784521
 30
0.0
 11
13.39112589397167
 21
-14.59314102812492
 31
0.0
  0
LINE
  5
1F0
330
70
100
AcDbEntity
  8
Livello 1
370
     9
100
AcDbLine
 10
13.21681186898869
 20
-14.06274603934512
 30
0.0
 11
13.2220847960444
 21
-14.46150417091635
 31
0.0
  0
LINE
  5
1F1
330
70
100
AcDbEntity
  8
Livello 1
370
     9
100
AcDbLine
 10
7.573270706987927
 20
-14.46150417091635
 30
0.0
 11
7.578729956554476
 21
-14.06274603934512
 31
0.0
  0
SPLINE
  5
1F2
330
70
100
AcDbEntity
  8
Livello 1
370
     9
100
AcDbSpline
210
0.0
220
0.0
230
1.0
 70
    24
 71
     3
 72
    23
 73
    19
 74
     0
 42
0.000000001
 43
0.0000000001
 40
0.0
 40
0.0
 40
0.0
 40
0.0
 40
1.0
 40
1.0
 40
1.0
 40
2.0
 40
2.0
 40
2.0
 40
3.0
 40
3.0
 40
3.0
 40
4.0
 40
4.0
 40
4.0
 40
5.0
 40
5.0
 40
5.0
 40
6.0
 40
6.0
 40
6.0
 40
6.0
 10
13.20243708728011
 20
-14.05301068790969
 30
0.0
 10
13.21080296801531
 20
-14.05301068790969
 30
0.0
 10
13.19406189041948
 20
-14.05301068790969
 30
0.0
 10
13.189878950052
 20
-14.05301068790969
 30
0.0
 10
13.17386453024828
 20
-14.05301068790969
 30
0.0
 10
13.15822275546625
 20
-14.05301068790969
 30
0.0
 10
13.14202201315188
 20
-14.05301068790969
 30
0.0
 10
13.07379070969535
 20
-14.05301068790969
 30
0.0
 10
13.00555940623883
 20
-14.05301068790969
 30
0.0
 10
12.93714178027152
 20
-14.05301068790969
 30
0.0
 10
12.8487131166438
 20
-14.05301068790969
 30
0.0
 10
12.75992112412009
 20
-14.05301068790969
 30
0.0
 10
12.67148314436681
 20
-14.05301068790969
 30
0.0
 10
12.4940761657046
 20
-14.05301068790969
 30
0.0
 10
12.31704183206395
 20
-14.05301068790969
 30
0.0
 10
12.13981185978696
 20
-14.05301068790969
 30
0.0
 10
11.78536123135853
 20
-14.05301068790969
 30
0.0
 10
11.43073359654477
 20
-14.05301068790969
 30
0.0
 10
11.07628296811635
 20
-14.05301068790969
 30
0.0
  0
LINE
  5
1F3
330
70
100
AcDbEntity
  8
Livello 1
370
     9
100
AcDbLine
 10
11.07628296811635
 20
-14.05301068790969
 30
0.0
 11
7.59292773187775
 21
-14.05301068790969
 31
0.0
  0
LINE
  5
1F4
330
70
100
AcDbEntity
  8
Livello 1
370
     9
100
AcDbLine
 10
11.04025751065235
 20
-14.46150417091635
 30
0.0
 11
11.03260897158383
 21
-14.46150417091635
 31
0.0
  0
LINE
  5
1F5
330
70
100
AcDbEntity
  8
Livello 1
370
     9
100
AcDbLine
 10
10.9289018620702
 20
-14.46150417091635
 30
0.0
 11
10.91852369821843
 21
-14.46150417091635
 31
0.0
  0
LINE
  5
1F6
330
70
100
AcDbEntity
  8
Livello 1
370
     9
100
AcDbLine
 10
10.89341673988753
 20
-14.46150417091635
 30
0.0
 11
10.87486023974454
 21
-14.46150417091635
 31
0.0
  0
LINE
  5
1F7
330
70
100
AcDbEntity
  8
Livello 1
370
     9
100
AcDbLine
 10
10.67433873168392
 20
-14.46150417091635
 30
0.0
 11
10.63012561562062
 21
-14.46150417091635
 31
0.0
  0
SPLINE
  5
1F8
330
70
100
AcDbEntity
  8
Livello 1
370
     9
100
AcDbSpline
210
0.0
220
0.0
230
1.0
 70
     8
 71
     3
 72
     8
 73
     4
 74
     0
 42
0.000000001
 43
0.0000000001
 40
0.0
 40
0.0
 40
0.0
 40
0.0
 40
1.0
 40
1.0
 40
1.0
 40
1.0
 10
13.20280041617623
 20
-14.05301068790969
 30
0.0
 10
13.20771129520175
 20
-14.05455716478845
 30
0.0
 10
13.21171722928527
 20
-14.05656013183021
 30
0.0
 10
13.21517223089356
 20
-14.05938291794013
 30
0.0
  0
SPLINE
  5
1F9
330
70
100
AcDbEntity
  8
Livello 1
370
     9
100
AcDbSpline
210
0.0
220
0.0
230
1.0
 70
     8
 71
     3
 72
     8
 73
     4
 74
     0
 42
0.000000001
 43
0.0000000001
 40
0.0
 40
0.0
 40
0.0
 40
0.0
 40
1.0
 40
1.0
 40
1.0
 40
1.0
 10
7.57836662765842
 20
-14.06274603934512
 30
0.0
 10
7.581282574952505
 20
-14.05774327980364
 30
0.0
 10
7.585279192809261
 20
-14.05492049369368
 30
0.0
 10
7.592741409366971
 20
-14.05301068790969
 30
0.0
  0
LINE
  5
1FA
330
70
100
AcDbEntity
  8
Livello 1
370
     9
100
AcDbLine
 10
13.16330936001131
 20
-14.04182202085319
 30
0.0
 11
13.16349568252209
 21
-14.05301068790969
 31
0.0
  0
LINE
  5
1FB
330
70
100
AcDbEntity
  8
Livello 1
370
     9
100
AcDbLine
 10
7.632046143021117
 20
-14.05301068790969
 30
0.0
 11
7.632223149406331
 21
-14.04182202085319
 31
0.0
  0
LINE
  5
1FC
330
70
100
AcDbEntity
  8
Livello 1
370
     9
100
AcDbLine
 10
11.07973925069171
 20
-14.06274603934512
 30
0.0
 11
7.578729956554476
 21
-14.06274603934512
 31
0.0
  0
SPLINE
  5
1FD
330
70
100
AcDbEntity
  8
Livello 1
370
     9
100
AcDbSpline
210
0.0
220
0.0
230
1.0
 70
     8
 71
     3
 72
     8
 73
     4
 74
     0
 42
0.000000001
 43
0.0000000001
 40
0.0
 40
0.0
 40
0.0
 40
0.0
 40
1.0
 40
1.0
 40
1.0
 40
1.0
 10
11.07628296811635
 20
-14.05301068790969
 30
0.0
 10
11.07973925069171
 20
-14.05601048040941
 30
0.0
 10
11.08082923737994
 20
-14.05883326651937
 30
0.0
 10
11.07973925069171
 20
-14.06274603934512
 30
0.0
  0
SPLINE
  5
1FE
330
70
100
AcDbEntity
  8
Livello 1
370
     9
100
AcDbSpline
210
0.0
220
0.0
230
1.0
 70
    24
 71
     3
 72
    23
 73
    19
 74
     0
 42
0.000000001
 43
0.0000000001
 40
0.0
 40
0.0
 40
0.0
 40
0.0
 40
1.0
 40
1.0
 40
1.0
 40
2.0
 40
2.0
 40
2.0
 40
3.0
 40
3.0
 40
3.0
 40
4.0
 40
4.0
 40
4.0
 40
5.0
 40
5.0
 40
5.0
 40
6.0
 40
6.0
 40
6.0
 40
6.0
 10
13.21681186898869
 20
-14.06274603934512
 30
0.0
 10
13.22517774972376
 20
-14.06274603934512
 30
0.0
 10
13.20843667212806
 20
-14.06274603934512
 30
0.0
 10
13.20425373176046
 20
-14.06274603934512
 30
0.0
 10
13.18824059233075
 20
-14.06274603934512
 30
0.0
 10
13.17222489215328
 20
-14.06274603934512
 30
0.0
 10
13.15639679486047
 20
-14.06274603934512
 30
0.0
 10
13.08761583999704
 20
-14.06274603934512
 30
0.0
 10
13.01884420125918
 20
-14.06274603934512
 30
0.0
 10
12.95024025278109
 20
-14.06274603934512
 30
0.0
 10
12.86127125387204
 20
-14.06274603934512
 30
0.0
 10
12.77229293883742
 20
-14.06274603934512
 30
0.0
 10
12.68312830129215
 20
-14.06274603934512
 30
0.0
 10
12.50499592795154
 20
-14.06274603934512
 30
0.0
 10
12.32668528060728
 20
-14.06274603934512
 30
0.0
 10
12.14855038554371
 20
-14.06274603934512
 30
0.0
 10
11.79227379650938
 20
-14.06274603934512
 30
0.0
 10
11.43600652360048
 20
-14.06274603934512
 30
0.0
 10
11.07973925069171
 20
-14.06274603934512
 30
0.0
  0
LINE
  5
206
330
70
100
AcDbEntity
  8
0
100
AcDbLine
 10
5.698223435634951
 20
-14.59578680784521
 30
0.0
 11
5.69840044202023
 21
-14.76546140659539
 31
0.0
  0
LINE
  5
207
330
70
100
AcDbEntity
  8
0
100
AcDbLine
 10
5.690211567670374
 20
-15.49396110023075
 30
0.0
 11
15.09458876512491
 21
-15.49396110023075
 31
0.0
  0
LINE
  5
208
330
70
100
AcDbEntity
  8
0
100
AcDbLine
 10
15.24289947084971
 20
-14.76546140659539
 30
0.0
 11
15.24289947084971
 21
-14.06274603934512
 31
0.0
  0
LINE
  5
209
330
70
100
AcDbEntity
  8
0
100
AcDbLine
 10
5.58177002603187
 20
-14.76427825862196
 30
0.0
 11
5.58177002603187
 21
-14.59842327143967
 31
0.0
  0
MTEXT
  5
20B
330
70
100
AcDbEntity
  8
0
100
AcDbMText
 10
10.18416620755314
 20
-15.79952882215409
 30
0.0
 40
0.2
 41
1.450063284119238
 46
0.0
 71
     1
 72
     5
  1
600
 73
     1
 44
1.0
1001
ACAD
1000
ACAD_MTEXT_COLUMN_INFO_BEGIN
1070
    75
1070
     2
1070
    79
1070
     0
1070
    76
1070
     1
1070
    78
1070
     0
1070
    48
1040
1.450063284119238
1070
    49
1040
1.0
1070
    50
1070
     1
1040
0.0
1000
ACAD_MTEXT_COLUMN_INFO_END
  0
MTEXT
  5
214
330
70
100
AcDbEntity
  8
0
100
AcDbMText
 10
15.33071762922958
 20
-14.28135261947498
 30
0.0
 40
0.2
 41
1.450063284119238
 46
0.0
 71
     1
 72
     5
  1
44
 73
     1
 44
1.0
1001
ACAD
1000
ACAD_MTEXT_COLUMN_INFO_BEGIN
1070
    75
1070
     2
1070
    79
1070
     0
1070
    76
1070
     1
1070
    78
1070
     0
1070
    48
1040
1.450063284119238
1070
    49
1040
1.0
1070
    50
1070
     1
1040
0.0
1000
ACAD_MTEXT_COLUMN_INFO_END
  0
MTEXT
  5
21C
330
70
100
AcDbEntity
  8
0
100
AcDbMText
 10
5.243168244904717
 20
-14.56817139941585
 30
0.0
 40
0.2
 41
1.450063284119238
 46
0.0
 71
     1
 72
     5
  1
14
 73
     1
 44
1.0
1001
ACAD
1000
ACAD_MTEXT_COLUMN_INFO_BEGIN
1070
    75
1070
     2
1070
    79
1070
     0
1070
    76
1070
     1
1070
    78
1070
     0
1070
    48
1040
1.450063284119238
1070
    49
1040
1.0
1070
    50
1070
     1
1040
0.0
1000
ACAD_MTEXT_COLUMN_INFO_END
  0
ENDSEC
  0
SECTION
  2
OBJECTS
  0
DICTIONARY
  5
C
330
0
100
AcDbDictionary
281
     1
  3
ACAD_CIP_PREVIOUS_PRODUCT_INFO
350
184
  3
ACAD_COLOR
350
63
  3
ACAD_DETAILVIEWSTYLE
350
6A
  3
ACAD_GROUP
350
D
  3
ACAD_LAYOUT
350
62
  3
ACAD_MATERIAL
350
10
  3
ACAD_MLEADERSTYLE
350
66
  3
ACAD_MLINESTYLE
350
5F
  3
ACAD_PLOTSETTINGS
350
61
  3
ACAD_PLOTSTYLENAME
350
E
  3
ACAD_SCALELIST
350
42
  3
ACAD_SECTIONVIEWSTYLE
350
68
  3
ACAD_TABLESTYLE
350
64
  3
ACAD_VISUALSTYLE
350
29
  3
ACDB_RECOMPOSE_DATA
350
21F
  3
AcDbVariableDictionary
350
17A
  0
DICTIONARY
  5
185
330
70
100
AcDbDictionary
280
     1
281
     1
  3
ACAD_SORTENTS
360
186
  0
XRECORD
  5
184
102
{ACAD_REACTORS
330
C
102
}
330
C
100
AcDbXrecord
280
     1
300
ACD
300
2022
300

  0
DICTIONARY
  5
63
102
{ACAD_REACTORS
330
C
102
}
330
C
100
AcDbDictionary
281
     1
  0
DICTIONARY
  5
6A
102
{ACAD_REACTORS
330
C
102
}
330
C
100
AcDbDictionary
281
     1
  3
Imperial24
350
6B
  0
DICTIONARY
  5
D
102
{ACAD_REACTORS
330
C
102
}
330
C
100
AcDbDictionary
281
     1
  0
DICTIONARY
  5
62
102
{ACAD_REACTORS
330
C
102
}
330
C
100
AcDbDictionary
281
     1
  3
Layout1
350
6F
  3
Layout2
350
77
  3
Model
350
73
  0
DICTIONARY
  5
10
102
{ACAD_REACTORS
330
C
102
}
330
C
100
AcDbDictionary
281
     1
  3
ByBlock
350
19
  3
ByLayer
350
11
  3
Global
350
21
  0
DICTIONARY
  5
66
102
{ACAD_REACTORS
330
C
102
}
330
C
100
AcDbDictionary
281
     1
  3
Standard
350
67
  0
DICTIONARY
  5
5F
102
{ACAD_REACTORS
330
C
102
}
330
C
100
AcDbDictionary
281
     1
  3
Standard
350
60
  0
DICTIONARY
  5
61
102
{ACAD_REACTORS
330
C
102
}
330
C
100
AcDbDictionary
281
     1
  0
ACDBDICTIONARYWDFLT
  5
E
102
{ACAD_REACTORS
330
C
102
}
330
C
100
AcDbDictionary
281
     1
  3
Normal
350
F
100
AcDbDictionaryWithDefault
340
F
  0
DICTIONARY
  5
42
102
{ACAD_REACTORS
330
C
102
}
330
C
100
AcDbDictionary
281
     1
  3
A0
350
43
  3
A1
350
44
  3
A2
350
45
  3
A3
350
46
  3
A4
350
47
  3
A5
350
48
  3
A6
350
49
  3
A7
350
4A
  3
A8
350
4B
  3
A9
350
4C
  3
B0
350
4D
  3
B1
350
4E
  3
B2
350
4F
  3
B3
350
50
  3
B4
350
51
  3
B5
350
52
  3
B6
350
53
  0
DICTIONARY
  5
68
102
{ACAD_REACTORS
330
C
102
}
330
C
100
AcDbDictionary
281
     1
  3
Imperial24
350
69
  0
DICTIONARY
  5
64
102
{ACAD_REACTORS
330
C
102
}
330
C
100
AcDbDictionary
281
     1
  3
Standard
350
65
  0
DICTIONARY
  5
29
102
{ACAD_REACTORS
330
C
102
}
330
C
100
AcDbDictionary
281
     1
  3
2dWireframe
350
2F
  3
Basic
350
2E
  3
Brighten
350
35
  3
ColorChange
350
39
  3
Conceptual
350
32
  3
Dim
350
34
  3
EdgeColorOff
350
41
  3
Facepattern
350
38
  3
Flat
350
2A
  3
FlatWithEdges
350
2B
  3
Gouraud
350
2C
  3
GouraudWithEdges
350
2D
  3
Hidden
350
31
  3
JitterOff
350
3F
  3
Linepattern
350
37
  3
OverhangOff
350
40
  3
Realistic
350
33
  3
Shaded
350
3E
  3
Shaded with edges
350
3D
  3
Shades of Gray
350
3A
  3
Sketchy
350
3B
  3
Thicken
350
36
  3
Wireframe
350
30
  3
X-Ray
350
3C
  0
XRECORD
  5
21F
102
{ACAD_REACTORS
330
C
102
}
330
C
100
AcDbXrecord
280
     1
 90
        1
330
65
330
20B
330
214
330
21C
  0
DICTIONARY
  5
17A
102
{ACAD_REACTORS
330
C
102
}
330
C
100
AcDbDictionary
281
     1
  3
CANNOSCALE
350
17F
  3
CMLEADERSTYLE
350
17C
  3
CTABLESTYLE
350
17B
  3
CVIEWDETAILSTYLE
350
17D
  3
CVIEWSECTIONSTYLE
350
17E
  0
SORTENTSTABLE
  5
186
102
{ACAD_REACTORS
330
185
102
}
330
185
100
AcDbSortentsTable
330
70
  0
ACDBDETAILVIEWSTYLE
  5
6B
102
{ACAD_XDICTIONARY
360
222
102
}
102
{ACAD_REACTORS
330
6A
102
}
330
6A
100
AcDbModelDocViewStyle
 70
     0
  3
Imperial24
290
     0
100
AcDbDetailViewStyle
 70
     0
 71
     0
 90
        3
 71
     1
340
55
 62
   256
 40
0.24
340
0
 62
   256
 40
0.24
300

 40
0.36
280
     3
 71
     2
340
5D
 90
       25
 62
   256
 71
     3
340
55
 62
   256
 40
0.24
 90
        1
 40
0.75
 90
        1
300
%<\AcVar ViewType \f "%tc1">% %<\AcVar ViewDetailId>%\PSCALE %<\AcVar ViewScale \f "%sn">%
 71
     4
340
5D
 90
       25
 62
   256
340
5D
 90
       25
 62
   256
280
     0
  0
LAYOUT
  5
6F
102
{ACAD_REACTORS
330
62
102
}
330
62
100
AcDbPlotSettings
  1

  2

  4

  6

 40
0.0
 41
0.0
 42
0.0
 43
0.0
 44
0.0
 45
0.0
 46
0.0
 47
0.0
 48
0.0
 49
0.0
140
0.0
141
0.0
142
1.0
143
1.0
 70
   688
 72
     0
 73
     0
 74
     5
  7

 75
    16
147
1.0
 76
     0
 77
     2
 78
   300
148
0.0
149
0.0
100
AcDbLayout
  1
Layout1
 70
     1
 71
     1
 10
0.0
 20
0.0
 11
12.0
 21
9.0
 12
0.0
 22
0.0
 32
0.0
 14
1.000000000000000E+20
 24
1.000000000000000E+20
 34
1.000000000000000E+20
 15
-1.000000000000000E+20
 25
-1.000000000000000E+20
 35
-1.000000000000000E+20
146
0.0
 13
0.0
 23
0.0
 33
0.0
 16
1.0
 26
0.0
 36
0.0
 17
0.0
 27
1.0
 37
0.0
 76
     0
330
6C
  0
LAYOUT
  5
77
102
{ACAD_REACTORS
330
62
102
}
330
62
100
AcDbPlotSettings
  1

  2

  4

  6

 40
0.0
 41
0.0
 42
0.0
 43
0.0
 44
0.0
 45
0.0
 46
0.0
 47
0.0
 48
0.0
 49
0.0
140
0.0
141
0.0
142
1.0
143
1.0
 70
   688
 72
     0
 73
     0
 74
     5
  7

 75
    16
147
1.0
 76
     0
 77
     2
 78
   300
148
0.0
149
0.0
100
AcDbLayout
  1
Layout2
 70
     1
 71
     2
 10
0.0
 20
0.0
 11
12.0
 21
9.0
 12
0.0
 22
0.0
 32
0.0
 14
0.0
 24
0.0
 34
0.0
 15
0.0
 25
0.0
 35
0.0
146
0.0
 13
0.0
 23
0.0
 33
0.0
 16
1.0
 26
0.0
 36
0.0
 17
0.0
 27
1.0
 37
0.0
 76
     0
330
74
  0
LAYOUT
  5
73
102
{ACAD_REACTORS
330
62
102
}
330
62
100
AcDbPlotSettings
  1

  2

  4

  6

 40
0.0
 41
0.0
 42
0.0
 43
0.0
 44
0.0
 45
0.0
 46
0.0
 47
0.0
 48
0.0
 49
0.0
140
0.0
141
0.0
142
1.0
143
1.0
 70
  1712
 72
     0
 73
     0
 74
     0
  7

 75
     0
147
1.0
 76
     0
 77
     2
 78
   300
148
0.0
149
0.0
100
AcDbLayout
  1
Model
 70
     1
 71
     0
 10
0.0
 20
0.0
 11
12.0
 21
9.0
 12
0.0
 22
0.0
 32
0.0
 14
0.0
 24
0.0
 34
0.0
 15
0.0
 25
0.0
 35
0.0
146
0.0
 13
0.0
 23
0.0
 33
0.0
 16
1.0
 26
0.0
 36
0.0
 17
0.0
 27
1.0
 37
0.0
 76
     0
330
70
331
57
  0
MATERIAL
  5
19
102
{ACAD_XDICTIONARY
360
1A
102
}
102
{ACAD_REACTORS
330
10
102
}
330
10
100
AcDbMaterial
  1
ByBlock
 72
     0
 43
0.0208333333333333
 43
0.0
 43
0.0
 43
0.0
 43
0.0
 43
0.0208333333333333
 43
0.0
 43
0.0
 43
0.0
 43
0.0
 43
1.0
 43
0.0
 43
0.0
 43
0.0
 43
0.0
 43
1.0
 77
     0
 47
0.0208333333333333
 47
0.0
 47
0.0
 47
0.0
 47
0.0
 47
0.0208333333333333
 47
0.0
 47
0.0
 47
0.0
 47
0.0
 47
1.0
 47
0.0
 47
0.0
 47
0.0
 47
0.0
 47
1.0
171
     0
 49
0.0208333333333333
 49
0.0
 49
0.0
 49
0.0
 49
0.0
 49
0.0208333333333333
 49
0.0
 49
0.0
 49
0.0
 49
0.0
 49
1.0
 49
0.0
 49
0.0
 49
0.0
 49
0.0
 49
1.0
175
     0
142
0.0208333333333333
142
0.0
142
0.0
142
0.0
142
0.0
142
0.0208333333333333
142
0.0
142
0.0
142
0.0
142
0.0
142
1.0
142
0.0
142
0.0
142
0.0
142
0.0
142
1.0
179
     0
144
0.0208333333333333
144
0.0
144
0.0
144
0.0
144
0.0
144
0.0208333333333333
144
0.0
144
0.0
144
0.0
144
0.0
144
1.0
144
0.0
144
0.0
144
0.0
144
0.0
144
1.0
147
0.0208333333333333
147
0.0
147
0.0
147
0.0
147
0.0
147
0.0208333333333333
147
0.0
147
0.0
147
0.0
147
0.0
147
1.0
147
0.0
147
0.0
147
0.0
147
0.0
147
1.0
  0
MATERIAL
  5
11
102
{ACAD_XDICTIONARY
360
12
102
}
102
{ACAD_REACTORS
330
10
102
}
330
10
100
AcDbMaterial
  1
ByLayer
 72
     0
 43
0.0208333333333333
 43
0.0
 43
0.0
 43
0.0
 43
0.0
 43
0.0208333333333333
 43
0.0
 43
0.0
 43
0.0
 43
0.0
 43
1.0
 43
0.0
 43
0.0
 43
0.0
 43
0.0
 43
1.0
 77
     0
 47
0.0208333333333333
 47
0.0
 47
0.0
 47
0.0
 47
0.0
 47
0.0208333333333333
 47
0.0
 47
0.0
 47
0.0
 47
0.0
 47
1.0
 47
0.0
 47
0.0
 47
0.0
 47
0.0
 47
1.0
171
     0
 49
0.0208333333333333
 49
0.0
 49
0.0
 49
0.0
 49
0.0
 49
0.0208333333333333
 49
0.0
 49
0.0
 49
0.0
 49
0.0
 49
1.0
 49
0.0
 49
0.0
 49
0.0
 49
0.0
 49
1.0
175
     0
142
0.0208333333333333
142
0.0
142
0.0
142
0.0
142
0.0
142
0.0208333333333333
142
0.0
142
0.0
142
0.0
142
0.0
142
1.0
142
0.0
142
0.0
142
0.0
142
0.0
142
1.0
179
     0
144
0.0208333333333333
144
0.0
144
0.0
144
0.0
144
0.0
144
0.0208333333333333
144
0.0
144
0.0
144
0.0
144
0.0
144
1.0
144
0.0
144
0.0
144
0.0
144
0.0
144
1.0
147
0.0208333333333333
147
0.0
147
0.0
147
0.0
147
0.0
147
0.0208333333333333
147
0.0
147
0.0
147
0.0
147
0.0
147
1.0
147
0.0
147
0.0
147
0.0
147
0.0
147
1.0
  0
MATERIAL
  5
21
102
{ACAD_XDICTIONARY
360
22
102
}
102
{ACAD_REACTORS
330
10
102
}
330
10
100
AcDbMaterial
  1
Global
 72
     0
 43
0.0208333333333333
 43
0.0
 43
0.0
 43
0.0
 43
0.0
 43
0.0208333333333333
 43
0.0
 43
0.0
 43
0.0
 43
0.0
 43
1.0
 43
0.0
 43
0.0
 43
0.0
 43
0.0
 43
1.0
 77
     0
 47
0.0208333333333333
 47
0.0
 47
0.0
 47
0.0
 47
0.0
 47
0.0208333333333333
 47
0.0
 47
0.0
 47
0.0
 47
0.0
 47
1.0
 47
0.0
 47
0.0
 47
0.0
 47
0.0
 47
1.0
171
     0
 49
0.0208333333333333
 49
0.0
 49
0.0
 49
0.0
 49
0.0
 49
0.0208333333333333
 49
0.0
 49
0.0
 49
0.0
 49
0.0
 49
1.0
 49
0.0
 49
0.0
 49
0.0
 49
0.0
 49
1.0
175
     0
142
0.0208333333333333
142
0.0
142
0.0
142
0.0
142
0.0
142
0.0208333333333333
142
0.0
142
0.0
142
0.0
142
0.0
142
1.0
142
0.0
142
0.0
142
0.0
142
0.0
142
1.0
179
     0
144
0.0208333333333333
144
0.0
144
0.0
144
0.0
144
0.0
144
0.0208333333333333
144
0.0
144
0.0
144
0.0
144
0.0
144
1.0
144
0.0
144
0.0
144
0.0
144
0.0
144
1.0
147
0.0208333333333333
147
0.0
147
0.0
147
0.0
147
0.0
147
0.0208333333333333
147
0.0
147
0.0
147
0.0
147
0.0
147
1.0
147
0.0
147
0.0
147
0.0
147
0.0
147
1.0
  0
MLEADERSTYLE
  5
67
102
{ACAD_REACTORS
330
66
102
}
330
66
100
AcDbMLeaderStyle
179
     2
170
     2
171
     1
172
     0
 90
        2
 40
0.0
 41
0.0
173
     1
 91
-1056964608
340
5B
 92
       -2
290
     1
 42
0.09
291
     1
 43
0.36
  3
Standard
 44
0.18
300

342
55
174
     1
178
     6
175
     1
176
     0
 93
-1056964608
 45
0.18
292
     0
297
     0
 46
0.18
 94
-1056964608
 47
1.0
 49
1.0
140
1.0
293
     1
141
0.0
294
     1
177
     0
142
1.0
295
     0
296
     0
143
0.125
271
     0
272
     9
273
     9
298
     1
  0
MLINESTYLE
  5
60
102
{ACAD_REACTORS
330
5F
102
}
330
5F
100
AcDbMlineStyle
  2
STANDARD
 70
     0
  3

 62
   256
 51
90.0
 52
90.0
 71
     2
 49
0.5
 62
   256
  6
BYLAYER
 49
-0.5
 62
   256
  6
BYLAYER
  0
ACDBPLACEHOLDER
  5
F
102
{ACAD_REACTORS
330
E
102
}
330
E
  0
SCALE
  5
43
102
{ACAD_REACTORS
330
42
102
}
330
42
100
AcDbScale
 70
     0
300
1:1
140
1.0
141
1.0
290
     1
  0
SCALE
  5
44
102
{ACAD_REACTORS
330
42
102
}
330
42
100
AcDbScale
 70
     0
300
1/128" = 1'-0"
140
0.0078125
141
12.0
290
     0
  0
SCALE
  5
45
102
{ACAD_REACTORS
330
42
102
}
330
42
100
AcDbScale
 70
     0
300
1/64" = 1'-0"
140
0.015625
141
12.0
290
     0
  0
SCALE
  5
46
102
{ACAD_REACTORS
330
42
102
}
330
42
100
AcDbScale
 70
     0
300
1/32" = 1'-0"
140
0.03125
141
12.0
290
     0
  0
SCALE
  5
47
102
{ACAD_REACTORS
330
42
102
}
330
42
100
AcDbScale
 70
     0
300
1/16" = 1'-0"
140
0.0625
141
12.0
290
     0
  0
SCALE
  5
48
102
{ACAD_REACTORS
330
42
102
}
330
42
100
AcDbScale
 70
     0
300
3/32" = 1'-0"
140
0.09375
141
12.0
290
     0
  0
SCALE
  5
49
102
{ACAD_REACTORS
330
42
102
}
330
42
100
AcDbScale
 70
     0
300
1/8" = 1'-0"
140
0.125
141
12.0
290
     0
  0
SCALE
  5
4A
102
{ACAD_REACTORS
330
42
102
}
330
42
100
AcDbScale
 70
     0
300
3/16" = 1'-0"
140
0.1875
141
12.0
290
     0
  0
SCALE
  5
4B
102
{ACAD_REACTORS
330
42
102
}
330
42
100
AcDbScale
 70
     0
300
1/4" = 1'-0"
140
0.25
141
12.0
290
     0
  0
SCALE
  5
4C
102
{ACAD_REACTORS
330
42
102
}
330
42
100
AcDbScale
 70
     0
300
3/8" = 1'-0"
140
0.375
141
12.0
290
     0
  0
SCALE
  5
4D
102
{ACAD_REACTORS
330
42
102
}
330
42
100
AcDbScale
 70
     0
300
1/2" = 1'-0"
140
0.5
141
12.0
290
     0
  0
SCALE
  5
4E
102
{ACAD_REACTORS
330
42
102
}
330
42
100
AcDbScale
 70
     0
300
3/4" = 1'-0"
140
0.75
141
12.0
290
     0
  0
SCALE
  5
4F
102
{ACAD_REACTORS
330
42
102
}
330
42
100
AcDbScale
 70
     0
300
1" = 1'-0"
140
1.0
141
12.0
290
     0
  0
SCALE
  5
50
102
{ACAD_REACTORS
330
42
102
}
330
42
100
AcDbScale
 70
     0
300
1-1/2" = 1'-0"
140
1.5
141
12.0
290
     0
  0
SCALE
  5
51
102
{ACAD_REACTORS
330
42
102
}
330
42
100
AcDbScale
 70
     0
300
3" = 1'-0"
140
3.0
141
12.0
290
     0
  0
SCALE
  5
52
102
{ACAD_REACTORS
330
42
102
}
330
42
100
AcDbScale
 70
     0
300
6" = 1'-0"
140
6.0
141
12.0
290
     0
  0
SCALE
  5
53
102
{ACAD_REACTORS
330
42
102
}
330
42
100
AcDbScale
 70
     0
300
1'-0" = 1'-0"
140
12.0
141
12.0
290
     0
  0
ACDBSECTIONVIEWSTYLE
  5
69
102
{ACAD_XDICTIONARY
360
220
102
}
102
{ACAD_REACTORS
330
68
102
}
330
68
100
AcDbModelDocViewStyle
 70
     0
  3
Imperial24
290
     0
100
AcDbSectionViewStyle
 70
     0
 71
     0
 90
       78
 71
     1
340
55
 62
   256
 40
0.24
340
0
340
0
 62
   256
 40
0.24
300
I, O, Q, S, X, Z
 40
0.48
 90
        3
 40
0.18
 90
        1
 71
     2
340
5D
 90
       25
 62
   256
340
5D
 90
       50
 62
   256
 40
0.24
 40
0.0
 40
0.24
 71
     3
340
55
 62
   256
 40
0.24
 90
        1
 40
0.75
 90
        1
300
%<\AcVar ViewType \f "%tc1">% %<\AcVar ViewSectionStartId>%-%<\AcVar ViewSectionEndId>%\PSCALE %<\AcVar ViewScale \f "%sn">%
 71
     4
 62
   256
 62
   257
300
ANSI31
 40
1.0
 90
        0
290
     0
290
     0
 90
        6
 40
0.0
 40
1.570796326794896
 40
0.2617993877991494
 40
1.308996938995747
 40
-0.2617993877991494
 40
1.832595714594046
  0
TABLESTYLE
  5
65
102
{ACAD_XDICTIONARY
360
21D
102
}
102
{ACAD_REACTORS
330
64
102
}
330
64
100
AcDbTableStyle
280
     0
  3
Standard
 70
     0
 71
     0
 40
0.06
 41
0.06
280
     0
281
     0
  7
Standard
140
0.18
170
     2
 62
     0
 63
     7
283
     0
 90
      512
 91
        0
  1

274
    -2
284
     1
 64
     0
275
    -2
285
     1
 65
     0
276
    -2
286
     1
 66
     0
277
    -2
287
     1
 67
     0
278
    -2
288
     1
 68
     0
279
    -2
289
     1
 69
     0
  7
Standard
140
0.25
170
     5
 62
     0
 63
     7
283
     0
 90
      512
 91
        0
  1

274
    -2
284
     1
 64
     0
275
    -2
285
     1
 65
     0
276
    -2
286
     1
 66
     0
277
    -2
287
     1
 67
     0
278
    -2
288
     1
 68
     0
279
    -2
289
     1
 69
     0
  7
Standard
140
0.18
170
     5
 62
     0
 63
     7
283
     0
 90
      512
 91
        0
  1

274
    -2
284
     1
 64
     0
275
    -2
285
     1
 65
     0
276
    -2
286
     1
 66
     0
277
    -2
287
     1
 67
     0
278
    -2
288
     1
 68
     0
279
    -2
289
     1
 69
     0
  0
VISUALSTYLE
  5
2F
102
{ACAD_REACTORS
330
29
102
}
330
29
100
AcDbVisualStyle
  2
2dWireframe
 70
     4
177
     3
291
     0
 70
    58
 90
        0
176
     1
 90
        2
176
     1
 90
        0
176
     1
 90
        0
176
     1
 40
0.6
176
     1
 40
30.0
176
     1
 62
     7
420
 16777215
176
     1
 90
        1
176
     1
 90
        4
176
     1
 62
     7
176
     1
 62
   257
176
     1
 90
        1
176
     1
 90
        1
176
     1
 40
1.0
176
     1
 90
        0
176
     1
 62
   257
176
     1
 40
1.0
176
     1
 90
        1
176
     1
 90
        6
176
     1
 90
        2
176
     1
 62
     7
176
     1
 90
        5
176
     1
 90
        0
176
     1
 90
        0
176
     1
290
     0
176
     1
 90
        1
176
     1
 40
0.0
176
     1
 90
        0
176
     1
290
     1
176
     1
290
     1
176
     1
290
     0
176
     1
290
     0
176
     1
290
     0
176
     1
290
     0
176
     1
290
     0
176
     1
290
     0
176
     1
290
     0
176
     1
 90
       50
176
     1
 40
0.0
176
     1
 40
1.0
176
     1
 90
        0
176
     1
 62
    18
420
        0
176
     1
 90
       50
176
     1
 90
        3
176
     1
 62
     5
420
      255
176
     1
290
     0
176
     1
 90
       50
176
     1
 90
       50
176
     1
 90
       50
176
     1
290
     0
176
     1
 90
       50
176
     1
 62
   256
176
     0
 40
1.0
176
     0
 90
        2
176
     1
  1
strokes_ogs.tif
176
     1
290
     0
176
     1
 40
1.0
176
     1
 40
1.0
176
     1
1001
ACAD
1000
AcDbSavedByObjectVersion
1070
     0
  0
VISUALSTYLE
  5
2E
102
{ACAD_REACTORS
330
29
102
}
330
29
100
AcDbVisualStyle
  2
Basic
 70
     7
177
     3
291
     1
 70
    58
 90
        1
176
     1
 90
        0
176
     1
 90
        1
176
     1
 90
        0
176
     1
 40
0.6
176
     1
 40
30.0
176
     1
 62
     7
420
 16777215
176
     1
 90
        0
176
     1
 90
        4
176
     1
 62
     7
176
     1
 62
   257
176
     1
 90
        1
176
     1
 90
        1
176
     1
 40
1.0
176
     1
 90
        8
176
     1
 62
     7
176
     1
 40
1.0
176
     1
 90
        1
176
     1
 90
        6
176
     1
 90
        2
176
     1
 62
     7
176
     1
 90
        5
176
     1
 90
        0
176
     1
 90
        0
176
     1
290
     0
176
     1
 90
        1
176
     1
 40
0.0
176
     1
 90
        0
176
     1
290
     0
176
     1
290
     1
176
     1
290
     1
176
     1
290
     0
176
     1
290
     0
176
     1
290
     0
176
     1
290
     0
176
     1
290
     0
176
     1
290
     0
176
     1
 90
       50
176
     1
 40
0.0
176
     1
 40
1.0
176
     1
 90
        0
176
     1
 62
    18
420
        0
176
     1
 90
       50
176
     1
 90
        3
176
     1
 62
     5
420
      255
176
     1
290
     0
176
     1
 90
       50
176
     1
 90
       50
176
     1
 90
       50
176
     1
290
     0
176
     1
 90
       50
176
     1
 62
   256
176
     0
 40
1.0
176
     0
 90
        2
176
     1
  1
strokes_ogs.tif
176
     1
290
     0
176
     1
 40
1.0
176
     1
 40
1.0
176
     1
1001
ACAD
1000
AcDbSavedByObjectVersion
1070
     0
  0
VISUALSTYLE
  5
35
102
{ACAD_REACTORS
330
29
102
}
330
29
100
AcDbVisualStyle
  2
Brighten
 70
    12
177
     3
291
     1
 70
    58
 90
        2
176
     1
 90
        2
176
     1
 90
        0
176
     1
 90
        0
176
     1
 40
0.6
176
     1
 40
30.0
176
     1
 62
     7
420
 16777215
176
     1
 90
        1
176
     1
 90
        4
176
     1
 62
     7
176
     1
 62
   257
176
     1
 90
        1
176
     1
 90
        1
176
     1
 40
1.0
176
     1
 90
        8
176
     1
 62
     7
176
     1
 40
1.0
176
     1
 90
        1
176
     1
 90
        6
176
     1
 90
        2
176
     1
 62
     7
176
     1
 90
        5
176
     1
 90
        0
176
     1
 90
        0
176
     1
290
     0
176
     1
 90
        1
176
     1
 40
50.0
176
     1
 90
        0
176
     1
290
     0
176
     1
290
     1
176
     1
290
     1
176
     1
290
     0
176
     1
290
     0
176
     1
290
     0
176
     1
290
     0
176
     1
290
     0
176
     1
290
     0
176
     1
 90
       50
176
     1
 40
0.0
176
     1
 40
1.0
176
     1
 90
        0
176
     1
 62
    18
420
        0
176
     1
 90
       50
176
     1
 90
        3
176
     1
 62
     5
420
      255
176
     1
290
     0
176
     1
 90
       50
176
     1
 90
       50
176
     1
 90
       50
176
     1
290
     0
176
     1
 90
       50
176
     1
 62
   256
176
     0
 40
1.0
176
     0
 90
        2
176
     1
  1
strokes_ogs.tif
176
     1
290
     0
176
     1
 40
1.0
176
     1
 40
1.0
176
     1
1001
ACAD
1000
AcDbSavedByObjectVersion
1070
     0
  0
VISUALSTYLE
  5
39
102
{ACAD_REACTORS
330
29
102
}
330
29
100
AcDbVisualStyle
  2
ColorChange
 70
    16
177
     3
291
     1
 70
    58
 90
        2
176
     1
 90
        2
176
     1
 90
        3
176
     1
 90
        0
176
     1
 40
0.6
176
     1
 40
30.0
176
     1
 62
     8
420
  8421504
176
     1
 90
        1
176
     1
 90
        4
176
     1
 62
     7
176
     1
 62
   257
176
     1
 90
        1
176
     1
 90
        1
176
     1
 40
1.0
176
     1
 90
        8
176
     1
 62
     8
420
  8421504
176
     1
 40
1.0
176
     1
 90
        1
176
     1
 90
        6
176
     1
 90
        2
176
     1
 62
     7
176
     1
 90
        5
176
     1
 90
        0
176
     1
 90
        0
176
     1
290
     0
176
     1
 90
        1
176
     1
 40
0.0
176
     1
 90
        0
176
     1
290
     0
176
     1
290
     1
176
     1
290
     1
176
     1
290
     0
176
     1
290
     0
176
     1
290
     0
176
     1
290
     0
176
     1
290
     0
176
     1
290
     0
176
     1
 90
       50
176
     1
 40
0.0
176
     1
 40
1.0
176
     1
 90
        0
176
     1
 62
    18
420
        0
176
     1
 90
       50
176
     1
 90
        3
176
     1
 62
     5
420
      255
176
     1
290
     0
176
     1
 90
       50
176
     1
 90
       50
176
     1
 90
       50
176
     1
290
     0
176
     1
 90
       50
176
     1
 62
   256
176
     0
 40
1.0
176
     0
 90
        2
176
     1
  1
strokes_ogs.tif
176
     1
290
     0
176
     1
 40
1.0
176
     1
 40
1.0
176
     1
1001
ACAD
1000
AcDbSavedByObjectVersion
1070
     0
  0
VISUALSTYLE
  5
32
102
{ACAD_REACTORS
330
29
102
}
330
29
100
AcDbVisualStyle
  2
Conceptual
 70
     9
177
     3
291
     0
 70
    58
 90
        3
176
     1
 90
        2
176
     1
 90
        0
176
     1
 90
        0
176
     1
 40
0.6
176
     1
 40
30.0
176
     1
 62
     7
420
 16777215
176
     1
 90
        2
176
     1
 90
        2
176
     1
 62
     7
176
     1
 62
   257
176
     1
 90
        1
176
     1
 90
        1
176
     1
 40
179.0
176
     1
 90
        8
176
     1
 62
     7
176
     1
 40
1.0
176
     1
 90
        1
176
     1
 90
        6
176
     1
 90
        2
176
     1
 62
     7
176
     1
 90
        3
176
     1
 90
        0
176
     1
 90
        0
176
     1
290
     0
176
     1
 90
        1
176
     1
 40
0.0
176
     1
 90
        0
176
     1
290
     0
176
     1
290
     1
176
     1
290
     1
176
     1
290
     0
176
     1
290
     0
176
     1
290
     0
176
     1
290
     0
176
     1
290
     0
176
     1
290
     0
176
     1
 90
       50
176
     1
 40
0.0
176
     1
 40
1.0
176
     1
 90
        0
176
     1
 62
    18
420
        0
176
     1
 90
       50
176
     1
 90
        3
176
     1
 62
     5
420
      255
176
     1
290
     0
176
     1
 90
       50
176
     1
 90
       50
176
     1
 90
       50
176
     1
290
     0
176
     1
 90
       50
176
     1
 62
   256
176
     0
 40
1.0
176
     0
 90
        2
176
     1
  1
strokes_ogs.tif
176
     1
290
     0
176
     1
 40
1.0
176
     1
 40
1.0
176
     1
1001
ACAD
1000
AcDbSavedByObjectVersion
1070
     0
  0
VISUALSTYLE
  5
34
102
{ACAD_REACTORS
330
29
102
}
330
29
100
AcDbVisualStyle
  2
Dim
 70
    11
177
     3
291
     1
 70
    58
 90
        2
176
     1
 90
        2
176
     1
 90
        0
176
     1
 90
        0
176
     1
 40
0.6
176
     1
 40
30.0
176
     1
 62
     7
420
 16777215
176
     1
 90
        1
176
     1
 90
        4
176
     1
 62
     7
176
     1
 62
   257
176
     1
 90
        1
176
     1
 90
        1
176
     1
 40
1.0
176
     1
 90
        8
176
     1
 62
     7
176
     1
 40
1.0
176
     1
 90
        1
176
     1
 90
        6
176
     1
 90
        2
176
     1
 62
     7
176
     1
 90
        5
176
     1
 90
        0
176
     1
 90
        0
176
     1
290
     0
176
     1
 90
        1
176
     1
 40
-50.0
176
     1
 90
        0
176
     1
290
     0
176
     1
290
     1
176
     1
290
     1
176
     1
290
     0
176
     1
290
     0
176
     1
290
     0
176
     1
290
     0
176
     1
290
     0
176
     1
290
     0
176
     1
 90
       50
176
     1
 40
0.0
176
     1
 40
1.0
176
     1
 90
        0
176
     1
 62
    18
420
        0
176
     1
 90
       50
176
     1
 90
        3
176
     1
 62
     5
420
      255
176
     1
290
     0
176
     1
 90
       50
176
     1
 90
       50
176
     1
 90
       50
176
     1
290
     0
176
     1
 90
       50
176
     1
 62
   256
176
     0
 40
1.0
176
     0
 90
        2
176
     1
  1
strokes_ogs.tif
176
     1
290
     0
176
     1
 40
1.0
176
     1
 40
1.0
176
     1
1001
ACAD
1000
AcDbSavedByObjectVersion
1070
     0
  0
VISUALSTYLE
  5
41
102
{ACAD_REACTORS
330
29
102
}
330
29
100
AcDbVisualStyle
  2
EdgeColorOff
 70
    22
177
     3
291
     1
 70
    58
 90
        2
176
     0
 90
        2
176
     0
 90
        0
176
     0
 90
        0
176
     0
 40
0.6
176
     0
 40
30.0
176
     0
 62
     7
420
 16777215
176
     0
 90
        1
176
     0
 90
        4
176
     0
 62
     7
176
     0
 62
   257
176
     0
 90
        1
176
     0
 90
        1
176
     0
 40
1.0
176
     0
 90
        8
176
     2
 62
     7
176
     0
 40
1.0
176
     0
 90
        1
176
     0
 90
        6
176
     0
 90
        2
176
     0
 62
     7
176
     0
 90
        5
176
     0
 90
        0
176
     0
 90
        0
176
     0
290
     0
176
     0
 90
        1
176
     0
 40
0.0
176
     0
 90
        0
176
     0
290
     0
176
     0
290
     1
176
     0
290
     1
176
     0
290
     0
176
     0
290
     0
176
     0
290
     0
176
     0
290
     0
176
     0
290
     0
176
     0
290
     0
176
     0
 90
       50
176
     0
 40
0.0
176
     0
 40
1.0
176
     0
 90
        0
176
     0
 62
    18
420
        0
176
     0
 90
       50
176
     0
 90
        3
176
     0
 62
     5
420
      255
176
     0
290
     0
176
     0
 90
       50
176
     0
 90
       50
176
     0
 90
       50
176
     0
290
     0
176
     0
 90
       50
176
     0
 62
   256
176
     0
 40
1.0
176
     0
 90
        2
176
     0
  1
strokes_ogs.tif
176
     0
290
     0
176
     0
 40
1.0
176
     0
 40
1.0
176
     0
1001
ACAD
1000
AcDbSavedByObjectVersion
1070
     0
  0
VISUALSTYLE
  5
38
102
{ACAD_REACTORS
330
29
102
}
330
29
100
AcDbVisualStyle
  2
Facepattern
 70
    15
177
     3
291
     1
 70
    58
 90
        2
176
     1
 90
        2
176
     1
 90
        0
176
     1
 90
        0
176
     1
 40
0.6
176
     1
 40
30.0
176
     1
 62
     7
420
 16777215
176
     1
 90
        1
176
     1
 90
        4
176
     1
 62
     7
176
     1
 62
   257
176
     1
 90
        1
176
     1
 90
        1
176
     1
 40
1.0
176
     1
 90
        8
176
     1
 62
     7
176
     1
 40
1.0
176
     1
 90
        1
176
     1
 90
        6
176
     1
 90
        2
176
     1
 62
     7
176
     1
 90
        5
176
     1
 90
        0
176
     1
 90
        0
176
     1
290
     0
176
     1
 90
        1
176
     1
 40
0.0
176
     1
 90
        0
176
     1
290
     0
176
     1
290
     1
176
     1
290
     1
176
     1
290
     0
176
     1
290
     0
176
     1
290
     0
176
     1
290
     0
176
     1
290
     0
176
     1
290
     0
176
     1
 90
       50
176
     1
 40
0.0
176
     1
 40
1.0
176
     1
 90
        0
176
     1
 62
    18
420
        0
176
     1
 90
       50
176
     1
 90
        3
176
     1
 62
     5
420
      255
176
     1
290
     0
176
     1
 90
       50
176
     1
 90
       50
176
     1
 90
       50
176
     1
290
     0
176
     1
 90
       50
176
     1
 62
   256
176
     0
 40
1.0
176
     0
 90
        2
176
     1
  1
strokes_ogs.tif
176
     1
290
     0
176
     1
 40
1.0
176
     1
 40
1.0
176
     1
1001
ACAD
1000
AcDbSavedByObjectVersion
1070
     0
  0
VISUALSTYLE
  5
2A
102
{ACAD_REACTORS
330
29
102
}
330
29
100
AcDbVisualStyle
  2
Flat
 70
     0
177
     3
291
     1
 70
    58
 90
        2
176
     1
 90
        1
176
     1
 90
        1
176
     1
 90
        2
176
     1
 40
0.6
176
     1
 40
30.0
176
     1
 62
     7
420
 16777215
176
     1
 90
        0
176
     1
 90
        0
176
     1
 62
     7
176
     1
 62
   257
176
     1
 90
        1
176
     1
 90
        1
176
     1
 40
1.0
176
     1
 90
        8
176
     1
 62
     7
176
     1
 40
1.0
176
     1
 90
        1
176
     1
 90
        6
176
     1
 90
        2
176
     1
 62
     7
176
     1
 90
        5
176
     1
 90
        0
176
     1
 90
        0
176
     1
290
     0
176
     1
 90
       13
176
     1
 40
0.0
176
     1
 90
        0
176
     1
290
     0
176
     1
290
     1
176
     1
290
     1
176
     1
290
     0
176
     1
290
     0
176
     1
290
     0
176
     1
290
     0
176
     1
290
     0
176
     1
290
     0
176
     1
 90
       50
176
     1
 40
0.0
176
     1
 40
1.0
176
     1
 90
        0
176
     1
 62
    18
420
        0
176
     1
 90
       50
176
     1
 90
        3
176
     1
 62
     5
420
      255
176
     1
290
     0
176
     1
 90
       50
176
     1
 90
       50
176
     1
 90
       50
176
     1
290
     0
176
     1
 90
       50
176
     1
 62
   256
176
     0
 40
1.0
176
     0
 90
        2
176
     1
  1
strokes_ogs.tif
176
     1
290
     0
176
     1
 40
1.0
176
     1
 40
1.0
176
     1
1001
ACAD
1000
AcDbSavedByObjectVersion
1070
     0
  0
VISUALSTYLE
  5
2B
102
{ACAD_REACTORS
330
29
102
}
330
29
100
AcDbVisualStyle
  2
FlatWithEdges
 70
     1
177
     3
291
     1
 70
    58
 90
        2
176
     1
 90
        1
176
     1
 90
        1
176
     1
 90
        2
176
     1
 40
0.6
176
     1
 40
30.0
176
     1
 62
     7
420
 16777215
176
     1
 90
        1
176
     1
 90
        0
176
     1
 62
     7
176
     1
 62
   257
176
     1
 90
        1
176
     1
 90
        1
176
     1
 40
1.0
176
     1
 90
        0
176
     1
 62
   257
176
     1
 40
1.0
176
     1
 90
        1
176
     1
 90
        6
176
     1
 90
        2
176
     1
 62
     7
176
     1
 90
        5
176
     1
 90
        0
176
     1
 90
        0
176
     1
290
     0
176
     1
 90
       13
176
     1
 40
0.0
176
     1
 90
        0
176
     1
290
     0
176
     1
290
     1
176
     1
290
     1
176
     1
290
     0
176
     1
290
     0
176
     1
290
     0
176
     1
290
     0
176
     1
290
     0
176
     1
290
     0
176
     1
 90
       50
176
     1
 40
0.0
176
     1
 40
1.0
176
     1
 90
        0
176
     1
 62
    18
420
        0
176
     1
 90
       50
176
     1
 90
        3
176
     1
 62
     5
420
      255
176
     1
290
     0
176
     1
 90
       50
176
     1
 90
       50
176
     1
 90
       50
176
     1
290
     0
176
     1
 90
       50
176
     1
 62
   256
176
     0
 40
1.0
176
     0
 90
        2
176
     1
  1
strokes_ogs.tif
176
     1
290
     0
176
     1
 40
1.0
176
     1
 40
1.0
176
     1
1001
ACAD
1000
AcDbSavedByObjectVersion
1070
     0
  0
VISUALSTYLE
  5
2C
102
{ACAD_REACTORS
330
29
102
}
330
29
100
AcDbVisualStyle
  2
Gouraud
 70
     2
177
     3
291
     1
 70
    58
 90
        2
176
     1
 90
        2
176
     1
 90
        1
176
     1
 90
        2
176
     1
 40
0.6
176
     1
 40
30.0
176
     1
 62
     7
420
 16777215
176
     1
 90
        0
176
     1
 90
        0
176
     1
 62
     7
176
     1
 62
   257
176
     1
 90
        1
176
     1
 90
        1
176
     1
 40
1.0
176
     1
 90
        0
176
     1
 62
     7
176
     1
 40
1.0
176
     1
 90
        1
176
     1
 90
        6
176
     1
 90
        2
176
     1
 62
     7
176
     1
 90
        5
176
     1
 90
        0
176
     1
 90
        0
176
     1
290
     0
176
     1
 90
       13
176
     1
 40
0.0
176
     1
 90
        0
176
     1
290
     0
176
     1
290
     1
176
     1
290
     1
176
     1
290
     0
176
     1
290
     0
176
     1
290
     0
176
     1
290
     0
176
     1
290
     0
176
     1
290
     0
176
     1
 90
       50
176
     1
 40
0.0
176
     1
 40
1.0
176
     1
 90
        0
176
     1
 62
    18
420
        0
176
     1
 90
       50
176
     1
 90
        3
176
     1
 62
     5
420
      255
176
     1
290
     0
176
     1
 90
       50
176
     1
 90
       50
176
     1
 90
       50
176
     1
290
     0
176
     1
 90
       50
176
     1
 62
   256
176
     0
 40
1.0
176
     0
 90
        2
176
     1
  1
strokes_ogs.tif
176
     1
290
     0
176
     1
 40
1.0
176
     1
 40
1.0
176
     1
1001
ACAD
1000
AcDbSavedByObjectVersion
1070
     0
  0
VISUALSTYLE
  5
2D
102
{ACAD_REACTORS
330
29
102
}
330
29
100
AcDbVisualStyle
  2
GouraudWithEdges
 70
     3
177
     3
291
     1
 70
    58
 90
        2
176
     1
 90
        2
176
     1
 90
        1
176
     1
 90
        2
176
     1
 40
0.6
176
     1
 40
30.0
176
     1
 62
     7
420
 16777215
176
     1
 90
        1
176
     1
 90
        0
176
     1
 62
     7
176
     1
 62
   257
176
     1
 90
        1
176
     1
 90
        1
176
     1
 40
1.0
176
     1
 90
        0
176
     1
 62
   257
176
     1
 40
1.0
176
     1
 90
        1
176
     1
 90
        6
176
     1
 90
        2
176
     1
 62
     7
176
     1
 90
        5
176
     1
 90
        0
176
     1
 90
        0
176
     1
290
     0
176
     1
 90
       13
176
     1
 40
0.0
176
     1
 90
        0
176
     1
290
     0
176
     1
290
     1
176
     1
290
     1
176
     1
290
     0
176
     1
290
     0
176
     1
290
     0
176
     1
290
     0
176
     1
290
     0
176
     1
290
     0
176
     1
 90
       50
176
     1
 40
0.0
176
     1
 40
1.0
176
     1
 90
        0
176
     1
 62
    18
420
        0
176
     1
 90
       50
176
     1
 90
        3
176
     1
 62
     5
420
      255
176
     1
290
     0
176
     1
 90
       50
176
     1
 90
       50
176
     1
 90
       50
176
     1
290
     0
176
     1
 90
       50
176
     1
 62
   256
176
     0
 40
1.0
176
     0
 90
        2
176
     1
  1
strokes_ogs.tif
176
     1
290
     0
176
     1
 40
1.0
176
     1
 40
1.0
176
     1
1001
ACAD
1000
AcDbSavedByObjectVersion
1070
     0
  0
VISUALSTYLE
  5
31
102
{ACAD_REACTORS
330
29
102
}
330
29
100
AcDbVisualStyle
  2
Hidden
 70
     6
177
     3
291
     0
 70
    58
 90
        1
176
     1
 90
        2
176
     1
 90
        2
176
     1
 90
        0
176
     1
 40
0.6
176
     1
 40
30.0
176
     1
 62
     7
420
 16777215
176
     1
 90
        2
176
     1
 90
        2
176
     1
 62
     7
176
     1
 62
   257
176
     1
 90
        2
176
     1
 90
        1
176
     1
 40
40.0
176
     1
 90
        0
176
     1
 62
   257
176
     1
 40
1.0
176
     1
 90
        1
176
     1
 90
        6
176
     1
 90
        2
176
     1
 62
     7
176
     1
 90
        3
176
     1
 90
        0
176
     1
 90
        0
176
     1
290
     0
176
     1
 90
        1
176
     1
 40
0.0
176
     1
 90
        0
176
     1
290
     0
176
     1
290
     1
176
     1
290
     1
176
     1
290
     0
176
     1
290
     0
176
     1
290
     0
176
     1
290
     0
176
     1
290
     0
176
     1
290
     0
176
     1
 90
       50
176
     1
 40
0.0
176
     1
 40
1.0
176
     1
 90
        0
176
     1
 62
    18
420
        0
176
     1
 90
       50
176
     1
 90
        3
176
     1
 62
     5
420
      255
176
     1
290
     0
176
     1
 90
       50
176
     1
 90
       50
176
     1
 90
       50
176
     1
290
     0
176
     1
 90
       50
176
     1
 62
   256
176
     0
 40
1.0
176
     0
 90
        2
176
     1
  1
strokes_ogs.tif
176
     1
290
     0
176
     1
 40
1.0
176
     1
 40
1.0
176
     1
1001
ACAD
1000
AcDbSavedByObjectVersion
1070
     0
  0
VISUALSTYLE
  5
3F
102
{ACAD_REACTORS
330
29
102
}
330
29
100
AcDbVisualStyle
  2
JitterOff
 70
    20
177
     3
291
     1
 70
    58
 90
        2
176
     0
 90
        2
176
     0
 90
        0
176
     0
 90
        0
176
     0
 40
0.6
176
     0
 40
30.0
176
     0
 62
     7
420
 16777215
176
     0
 90
        1
176
     0
 90
        4
176
     0
 62
     7
176
     0
 62
   257
176
     0
 90
        1
176
     0
 90
        1
176
     0
 40
1.0
176
     0
 90
       10
176
     2
 62
     7
176
     0
 40
1.0
176
     0
 90
        1
176
     0
 90
        6
176
     0
 90
        2
176
     0
 62
     7
176
     0
 90
        5
176
     0
 90
        0
176
     0
 90
        0
176
     0
290
     0
176
     0
 90
        1
176
     0
 40
0.0
176
     0
 90
        0
176
     0
290
     0
176
     0
290
     1
176
     0
290
     1
176
     0
290
     0
176
     0
290
     0
176
     0
290
     0
176
     0
290
     0
176
     0
290
     0
176
     0
290
     0
176
     0
 90
       50
176
     0
 40
0.0
176
     0
 40
1.0
176
     0
 90
        0
176
     0
 62
    18
420
        0
176
     0
 90
       50
176
     0
 90
        3
176
     0
 62
     5
420
      255
176
     0
290
     0
176
     0
 90
       50
176
     0
 90
       50
176
     0
 90
       50
176
     0
290
     0
176
     0
 90
       50
176
     0
 62
   256
176
     0
 40
1.0
176
     0
 90
        2
176
     0
  1
strokes_ogs.tif
176
     0
290
     0
176
     0
 40
1.0
176
     0
 40
1.0
176
     0
1001
ACAD
1000
AcDbSavedByObjectVersion
1070
     0
  0
VISUALSTYLE
  5
37
102
{ACAD_REACTORS
330
29
102
}
330
29
100
AcDbVisualStyle
  2
Linepattern
 70
    14
177
     3
291
     1
 70
    58
 90
        2
176
     1
 90
        2
176
     1
 90
        0
176
     1
 90
        0
176
     1
 40
0.6
176
     1
 40
30.0
176
     1
 62
     7
420
 16777215
176
     1
 90
        1
176
     1
 90
        4
176
     1
 62
     7
176
     1
 62
   257
176
     1
 90
        7
176
     1
 90
        7
176
     1
 40
1.0
176
     1
 90
        8
176
     1
 62
     7
176
     1
 40
1.0
176
     1
 90
        1
176
     1
 90
        6
176
     1
 90
        2
176
     1
 62
     7
176
     1
 90
        5
176
     1
 90
        0
176
     1
 90
        0
176
     1
290
     0
176
     1
 90
        1
176
     1
 40
0.0
176
     1
 90
        0
176
     1
290
     0
176
     1
290
     1
176
     1
290
     1
176
     1
290
     0
176
     1
290
     0
176
     1
290
     0
176
     1
290
     0
176
     1
290
     0
176
     1
290
     0
176
     1
 90
       50
176
     1
 40
0.0
176
     1
 40
1.0
176
     1
 90
        0
176
     1
 62
    18
420
        0
176
     1
 90
       50
176
     1
 90
        3
176
     1
 62
     5
420
      255
176
     1
290
     0
176
     1
 90
       50
176
     1
 90
       50
176
     1
 90
       50
176
     1
290
     0
176
     1
 90
       50
176
     1
 62
   256
176
     0
 40
1.0
176
     0
 90
        2
176
     1
  1
strokes_ogs.tif
176
     1
290
     0
176
     1
 40
1.0
176
     1
 40
1.0
176
     1
1001
ACAD
1000
AcDbSavedByObjectVersion
1070
     0
  0
VISUALSTYLE
  5
40
102
{ACAD_REACTORS
330
29
102
}
330
29
100
AcDbVisualStyle
  2
OverhangOff
 70
    21
177
     3
291
     1
 70
    58
 90
        2
176
     0
 90
        2
176
     0
 90
        0
176
     0
 90
        0
176
     0
 40
0.6
176
     0
 40
30.0
176
     0
 62
     7
420
 16777215
176
     0
 90
        1
176
     0
 90
        4
176
     0
 62
     7
176
     0
 62
   257
176
     0
 90
        1
176
     0
 90
        1
176
     0
 40
1.0
176
     0
 90
        9
176
     2
 62
     7
176
     0
 40
1.0
176
     0
 90
        1
176
     0
 90
        6
176
     0
 90
        2
176
     0
 62
     7
176
     0
 90
        5
176
     0
 90
        0
176
     0
 90
        0
176
     0
290
     0
176
     0
 90
        1
176
     0
 40
0.0
176
     0
 90
        0
176
     0
290
     0
176
     0
290
     1
176
     0
290
     1
176
     0
290
     0
176
     0
290
     0
176
     0
290
     0
176
     0
290
     0
176
     0
290
     0
176
     0
290
     0
176
     0
 90
       50
176
     0
 40
0.0
176
     0
 40
1.0
176
     0
 90
        0
176
     0
 62
    18
420
        0
176
     0
 90
       50
176
     0
 90
        3
176
     0
 62
     5
420
      255
176
     0
290
     0
176
     0
 90
       50
176
     0
 90
       50
176
     0
 90
       50
176
     0
290
     0
176
     0
 90
       50
176
     0
 62
   256
176
     0
 40
1.0
176
     0
 90
        2
176
     0
  1
strokes_ogs.tif
176
     0
290
     0
176
     0
 40
1.0
176
     0
 40
1.0
176
     0
1001
ACAD
1000
AcDbSavedByObjectVersion
1070
     0
  0
VISUALSTYLE
  5
33
102
{ACAD_REACTORS
330
29
102
}
330
29
100
AcDbVisualStyle
  2
Realistic
 70
     8
177
     3
291
     0
 70
    58
 90
        2
176
     1
 90
        3
176
     1
 90
        0
176
     1
 90
        2
176
     1
 40
0.6
176
     1
 40
30.0
176
     1
 62
     7
420
 16777215
176
     1
 90
        0
176
     1
 90
        0
176
     1
 62
     7
176
     1
 62
   257
176
     1
 90
        1
176
     1
 90
        1
176
     1
 40
1.0
176
     1
 90
        8
176
     1
 62
   257
176
     1
 40
1.0
176
     1
 90
        1
176
     1
 90
        6
176
     1
 90
        2
176
     1
 62
     7
176
     1
 90
        3
176
     1
 90
        0
176
     1
 90
        0
176
     1
290
     0
176
     1
 90
       13
176
     1
 40
0.0
176
     1
 90
        0
176
     1
290
     0
176
     1
290
     1
176
     1
290
     1
176
     1
290
     0
176
     1
290
     0
176
     1
290
     0
176
     1
290
     0
176
     1
290
     0
176
     1
290
     0
176
     1
 90
       50
176
     1
 40
0.0
176
     1
 40
1.0
176
     1
 90
        0
176
     1
 62
    18
420
        0
176
     1
 90
       50
176
     1
 90
        3
176
     1
 62
     5
420
      255
176
     1
290
     0
176
     1
 90
       50
176
     1
 90
       50
176
     1
 90
       50
176
     1
290
     0
176
     1
 90
       50
176
     1
 62
   256
176
     0
 40
1.0
176
     0
 90
        2
176
     1
  1
strokes_ogs.tif
176
     1
290
     0
176
     1
 40
1.0
176
     1
 40
1.0
176
     1
1001
ACAD
1000
AcDbSavedByObjectVersion
1070
     0
  0
VISUALSTYLE
  5
3E
102
{ACAD_REACTORS
330
29
102
}
330
29
100
AcDbVisualStyle
  2
Shaded
 70
    27
177
     3
291
     0
 70
    58
 90
        2
176
     1
 90
        2
176
     1
 90
        1
176
     1
 90
        2
176
     1
 40
0.6
176
     1
 40
30.0
176
     1
 62
     7
420
 16777215
176
     1
 90
        0
176
     1
 90
        4
176
     1
 62
     7
176
     1
 62
   257
176
     1
 90
        1
176
     1
 90
        1
176
     1
 40
1.0
176
     1
 90
        8
176
     1
 62
   257
176
     1
 40
1.0
176
     1
 90
        1
176
     1
 90
        6
176
     1
 90
        2
176
     1
 62
     8
420
  7895160
176
     1
 90
        3
176
     1
 90
        0
176
     1
 90
        0
176
     1
290
     0
176
     1
 90
        5
176
     1
 40
0.0
176
     1
 90
        0
176
     1
290
     0
176
     1
290
     1
176
     1
290
     1
176
     1
290
     0
176
     1
290
     0
176
     1
290
     0
176
     1
290
     0
176
     1
290
     0
176
     1
290
     0
176
     1
 90
       50
176
     1
 40
0.0
176
     1
 40
1.0
176
     1
 90
        0
176
     1
 62
    18
420
        0
176
     1
 90
       50
176
     1
 90
        3
176
     1
 62
     5
420
      255
176
     1
290
     0
176
     1
 90
       50
176
     1
 90
       50
176
     1
 90
       50
176
     1
290
     0
176
     1
 90
       50
176
     1
 62
   256
176
     0
 40
1.0
176
     0
 90
        2
176
     1
  1
strokes_ogs.tif
176
     1
290
     0
176
     1
 40
1.0
176
     1
 40
1.0
176
     1
1001
ACAD
1000
AcDbSavedByObjectVersion
1070
     0
  0
VISUALSTYLE
  5
3D
102
{ACAD_REACTORS
330
29
102
}
330
29
100
AcDbVisualStyle
  2
Shaded with edges
 70
    26
177
     3
291
     0
 70
    58
 90
        2
176
     1
 90
        2
176
     1
 90
        1
176
     1
 90
        2
176
     1
 40
0.6
176
     1
 40
30.0
176
     1
 62
     7
420
 16777215
176
     1
 90
        1
176
     1
 90
        2
176
     1
 62
     7
176
     1
 62
   257
176
     1
 90
        2
176
     1
 90
        1
176
     1
 40
1.0
176
     1
 90
        8
176
     1
 62
   257
176
     1
 40
1.0
176
     1
 90
        1
176
     1
 90
        6
176
     1
 90
        2
176
     1
 62
     7
176
     1
 90
        3
176
     1
 90
        0
176
     1
 90
        0
176
     1
290
     0
176
     1
 90
        5
176
     1
 40
0.0
176
     1
 90
        0
176
     1
290
     0
176
     1
290
     1
176
     1
290
     1
176
     1
290
     0
176
     1
290
     0
176
     1
290
     0
176
     1
290
     0
176
     1
290
     0
176
     1
290
     0
176
     1
 90
       50
176
     1
 40
0.0
176
     1
 40
1.0
176
     1
 90
        0
176
     1
 62
    18
420
        0
176
     1
 90
       50
176
     1
 90
        3
176
     1
 62
     5
420
      255
176
     1
290
     0
176
     1
 90
       50
176
     1
 90
       50
176
     1
 90
       50
176
     1
290
     0
176
     1
 90
       50
176
     1
 62
   256
176
     0
 40
1.0
176
     0
 90
        2
176
     1
  1
strokes_ogs.tif
176
     1
290
     0
176
     1
 40
1.0
176
     1
 40
1.0
176
     1
1001
ACAD
1000
AcDbSavedByObjectVersion
1070
     0
  0
VISUALSTYLE
  5
3A
102
{ACAD_REACTORS
330
29
102
}
330
29
100
AcDbVisualStyle
  2
Shades of Gray
 70
    23
177
     3
291
     0
 70
    58
 90
        2
176
     1
 90
        2
176
     1
 90
        3
176
     1
 90
        0
176
     1
 40
0.6
176
     1
 40
30.0
176
     1
 62
     7
420
 16777215
176
     1
 90
        2
176
     1
 90
        2
176
     1
 62
     7
176
     1
 62
     7
176
     1
 90
        1
176
     1
 90
        1
176
     1
 40
40.0
176
     1
 90
        8
176
     1
 62
     7
176
     1
 40
1.0
176
     1
 90
        1
176
     1
 90
        6
176
     1
 90
        2
176
     1
 62
     7
176
     1
 90
        3
176
     1
 90
        0
176
     1
 90
        0
176
     1
290
     0
176
     1
 90
        1
176
     1
 40
0.0
176
     1
 90
        0
176
     1
290
     0
176
     1
290
     1
176
     1
290
     1
176
     1
290
     0
176
     1
290
     0
176
     1
290
     0
176
     1
290
     0
176
     1
290
     0
176
     1
290
     0
176
     1
 90
       50
176
     1
 40
0.0
176
     1
 40
1.0
176
     1
 90
        0
176
     1
 62
    18
420
        0
176
     1
 90
       50
176
     1
 90
        3
176
     1
 62
     5
420
      255
176
     1
290
     0
176
     1
 90
       50
176
     1
 90
       50
176
     1
 90
       50
176
     1
290
     0
176
     1
 90
       50
176
     1
 62
   256
176
     0
 40
1.0
176
     0
 90
        2
176
     1
  1
strokes_ogs.tif
176
     1
290
     0
176
     1
 40
1.0
176
     1
 40
1.0
176
     1
1001
ACAD
1000
AcDbSavedByObjectVersion
1070
     0
  0
VISUALSTYLE
  5
3B
102
{ACAD_REACTORS
330
29
102
}
330
29
100
AcDbVisualStyle
  2
Sketchy
 70
    24
177
     3
291
     0
 70
    58
 90
        1
176
     1
 90
        2
176
     1
 90
        2
176
     1
 90
        0
176
     1
 40
0.6
176
     1
 40
30.0
176
     1
 62
     7
420
 16777215
176
     1
 90
        2
176
     1
 90
        2
176
     1
 62
     7
176
     1
 62
     7
176
     1
 90
        1
176
     1
 90
        1
176
     1
 40
40.0
176
     1
 90
       11
176
     1
 62
     7
176
     1
 40
1.0
176
     1
 90
        1
176
     1
 90
        6
176
     1
 90
        2
176
     1
 62
     7
176
     1
 90
        6
176
     1
 90
        0
176
     1
 90
        0
176
     1
290
     0
176
     1
 90
        1
176
     1
 40
0.0
176
     1
 90
        0
176
     1
290
     0
176
     1
290
     1
176
     1
290
     1
176
     1
290
     0
176
     1
290
     0
176
     1
290
     0
176
     1
290
     0
176
     1
290
     0
176
     1
290
     0
176
     1
 90
       50
176
     1
 40
0.0
176
     1
 40
1.0
176
     1
 90
        0
176
     1
 62
    18
420
        0
176
     1
 90
       50
176
     1
 90
        3
176
     1
 62
     5
420
      255
176
     1
290
     0
176
     1
 90
       50
176
     1
 90
       50
176
     1
 90
       50
176
     1
290
     0
176
     1
 90
       50
176
     1
 62
   256
176
     0
 40
1.0
176
     0
 90
        2
176
     1
  1
strokes_ogs.tif
176
     1
290
     0
176
     1
 40
1.0
176
     1
 40
1.0
176
     1
1001
ACAD
1000
AcDbSavedByObjectVersion
1070
     0
  0
VISUALSTYLE
  5
36
102
{ACAD_REACTORS
330
29
102
}
330
29
100
AcDbVisualStyle
  2
Thicken
 70
    13
177
     3
291
     1
 70
    58
 90
        2
176
     1
 90
        2
176
     1
 90
        0
176
     1
 90
        0
176
     1
 40
0.6
176
     1
 40
30.0
176
     1
 62
     7
420
 16777215
176
     1
 90
        1
176
     1
 90
        4
176
     1
 62
     7
176
     1
 62
   257
176
     1
 90
        1
176
     1
 90
        1
176
     1
 40
1.0
176
     1
 90
       12
176
     1
 62
     7
176
     1
 40
1.0
176
     1
 90
        1
176
     1
 90
        6
176
     1
 90
        2
176
     1
 62
     7
176
     1
 90
        5
176
     1
 90
        0
176
     1
 90
        0
176
     1
290
     0
176
     1
 90
        1
176
     1
 40
0.0
176
     1
 90
        0
176
     1
290
     0
176
     1
290
     1
176
     1
290
     1
176
     1
290
     0
176
     1
290
     0
176
     1
290
     0
176
     1
290
     0
176
     1
290
     0
176
     1
290
     0
176
     1
 90
       50
176
     1
 40
0.0
176
     1
 40
1.0
176
     1
 90
        0
176
     1
 62
    18
420
        0
176
     1
 90
       50
176
     1
 90
        3
176
     1
 62
     5
420
      255
176
     1
290
     0
176
     1
 90
       50
176
     1
 90
       50
176
     1
 90
       50
176
     1
290
     0
176
     1
 90
       50
176
     1
 62
   256
176
     0
 40
1.0
176
     0
 90
        2
176
     1
  1
strokes_ogs.tif
176
     1
290
     0
176
     1
 40
1.0
176
     1
 40
1.0
176
     1
1001
ACAD
1000
AcDbSavedByObjectVersion
1070
     0
  0
VISUALSTYLE
  5
30
102
{ACAD_REACTORS
330
29
102
}
330
29
100
AcDbVisualStyle
  2
Wireframe
 70
     5
177
     3
291
     0
 70
    58
 90
        0
176
     1
 90
        2
176
     1
 90
        0
176
     1
 90
        0
176
     1
 40
0.6
176
     1
 40
30.0
176
     1
 62
     7
420
 16777215
176
     1
 90
        1
176
     1
 90
        4
176
     1
 62
     7
176
     1
 62
   257
176
     1
 90
        1
176
     1
 90
        1
176
     1
 40
1.0
176
     1
 90
        0
176
     1
 62
   257
176
     1
 40
1.0
176
     1
 90
        1
176
     1
 90
        6
176
     1
 90
        2
176
     1
 62
     7
176
     1
 90
        3
176
     1
 90
        0
176
     1
 90
        0
176
     1
290
     0
176
     1
 90
        1
176
     1
 40
0.0
176
     1
 90
        0
176
     1
290
     0
176
     1
290
     1
176
     1
290
     1
176
     1
290
     0
176
     1
290
     0
176
     1
290
     0
176
     1
290
     0
176
     1
290
     0
176
     1
290
     0
176
     1
 90
       50
176
     1
 40
0.0
176
     1
 40
1.0
176
     1
 90
        0
176
     1
 62
    18
420
        0
176
     1
 90
       50
176
     1
 90
        3
176
     1
 62
     5
420
      255
176
     1
290
     0
176
     1
 90
       50
176
     1
 90
       50
176
     1
 90
       50
176
     1
290
     0
176
     1
 90
       50
176
     1
 62
   256
176
     0
 40
1.0
176
     0
 90
        2
176
     1
  1
strokes_ogs.tif
176
     1
290
     0
176
     1
 40
1.0
176
     1
 40
1.0
176
     1
1001
ACAD
1000
AcDbSavedByObjectVersion
1070
     0
  0
VISUALSTYLE
  5
3C
102
{ACAD_REACTORS
330
29
102
}
330
29
100
AcDbVisualStyle
  2
X-Ray
 70
    25
177
     3
291
     0
 70
    58
 90
        2
176
     1
 90
        2
176
     1
 90
        1
176
     1
 90
        1
176
     1
 40
0.5
176
     1
 40
30.0
176
     1
 62
     7
420
 16777215
176
     1
 90
        1
176
     1
 90
        0
176
     1
 62
     7
176
     1
 62
   257
176
     1
 90
        1
176
     1
 90
        1
176
     1
 40
1.0
176
     1
 90
        8
176
     1
 62
     7
176
     1
 40
1.0
176
     1
 90
        1
176
     1
 90
        6
176
     1
 90
        2
176
     1
 62
     7
176
     1
 90
        3
176
     1
 90
        0
176
     1
 90
        0
176
     1
290
     0
176
     1
 90
       13
176
     1
 40
0.0
176
     1
 90
        0
176
     1
290
     0
176
     1
290
     1
176
     1
290
     1
176
     1
290
     0
176
     1
290
     0
176
     1
290
     0
176
     1
290
     0
176
     1
290
     0
176
     1
290
     0
176
     1
 90
       50
176
     1
 40
0.0
176
     1
 40
1.0
176
     1
 90
        0
176
     1
 62
    18
420
        0
176
     1
 90
       50
176
     1
 90
        3
176
     1
 62
     5
420
      255
176
     1
290
     0
176
     1
 90
       50
176
     1
 90
       50
176
     1
 90
       50
176
     1
290
     0
176
     1
 90
       50
176
     1
 62
   256
176
     0
 40
1.0
176
     0
 90
        2
176
     1
  1
strokes_ogs.tif
176
     1
290
     0
176
     1
 40
1.0
176
     1
 40
1.0
176
     1
1001
ACAD
1000
AcDbSavedByObjectVersion
1070
     0
  0
DICTIONARYVAR
  5
17F
102
{ACAD_REACTORS
330
17A
102
}
330
17A
100
DictionaryVariables
280
     0
  1
1:1
  0
DICTIONARYVAR
  5
17C
102
{ACAD_REACTORS
330
17A
102
}
330
17A
100
DictionaryVariables
280
     0
  1
STANDARD
  0
DICTIONARYVAR
  5
17B
102
{ACAD_REACTORS
330
17A
102
}
330
17A
100
DictionaryVariables
280
     0
  1
STANDARD
  0
DICTIONARYVAR
  5
17D
102
{ACAD_REACTORS
330
17A
102
}
330
17A
100
DictionaryVariables
280
     0
  1
Imperial24
  0
DICTIONARYVAR
  5
17E
102
{ACAD_REACTORS
330
17A
102
}
330
17A
100
DictionaryVariables
280
     0
  1
Imperial24
  0
DICTIONARY
  5
222
330
6B
100
AcDbDictionary
280
     1
281
     1
  3
ACAD_XREC_ROUNDTRIP
360
223
  0
DICTIONARY
  5
1A
330
19
100
AcDbDictionary
280
     1
281
     1
  3
BUMPTILE
360
1C
  3
DIFFUSETILE
360
1B
  3
OPACITYTILE
360
1F
  3
REFLECTIONTILE
360
1E
  3
REFRACTIONTILE
360
20
  3
SPECULARTILE
360
1D
  0
DICTIONARY
  5
12
330
11
100
AcDbDictionary
280
     1
281
     1
  3
BUMPTILE
360
14
  3
DIFFUSETILE
360
13
  3
OPACITYTILE
360
17
  3
REFLECTIONTILE
360
16
  3
REFRACTIONTILE
360
18
  3
SPECULARTILE
360
15
  0
DICTIONARY
  5
22
330
21
100
AcDbDictionary
280
     1
281
     1
  3
BUMPTILE
360
24
  3
DIFFUSETILE
360
23
  3
OPACITYTILE
360
27
  3
REFLECTIONTILE
360
26
  3
REFRACTIONTILE
360
28
  3
SPECULARTILE
360
25
  0
DICTIONARY
  5
220
330
69
100
AcDbDictionary
280
     1
281
     1
  3
ACAD_XREC_ROUNDTRIP
360
221
  0
DICTIONARY
  5
21D
330
65
100
AcDbDictionary
280
     1
281
     1
  3
ACAD_ROUNDTRIP_2008_TABLESTYLE_CELLSTYLEMAP
360
21E
  0
XRECORD
  5
223
102
{ACAD_REACTORS
330
222
102
}
330
222
100
AcDbXrecord
280
     1
102
DISPLAYNAME
  1
Imperial24
102
FLAGS
 90
        0
  0
XRECORD
  5
1C
102
{ACAD_REACTORS
330
1A
102
}
330
1A
100
AcDbXrecord
280
     1
270
     1
271
     1
  0
XRECORD
  5
1B
102
{ACAD_REACTORS
330
1A
102
}
330
1A
100
AcDbXrecord
280
     1
270
     1
271
     1
  0
XRECORD
  5
1F
102
{ACAD_REACTORS
330
1A
102
}
330
1A
100
AcDbXrecord
280
     1
270
     1
271
     1
  0
XRECORD
  5
1E
102
{ACAD_REACTORS
330
1A
102
}
330
1A
100
AcDbXrecord
280
     1
270
     1
271
     1
  0
XRECORD
  5
20
102
{ACAD_REACTORS
330
1A
102
}
330
1A
100
AcDbXrecord
280
     1
270
     1
271
     1
  0
XRECORD
  5
1D
102
{ACAD_REACTORS
330
1A
102
}
330
1A
100
AcDbXrecord
280
     1
270
     1
271
     1
  0
XRECORD
  5
14
102
{ACAD_REACTORS
330
12
102
}
330
12
100
AcDbXrecord
280
     1
270
     1
271
     1
  0
XRECORD
  5
13
102
{ACAD_REACTORS
330
12
102
}
330
12
100
AcDbXrecord
280
     1
270
     1
271
     1
  0
XRECORD
  5
17
102
{ACAD_REACTORS
330
12
102
}
330
12
100
AcDbXrecord
280
     1
270
     1
271
     1
  0
XRECORD
  5
16
102
{ACAD_REACTORS
330
12
102
}
330
12
100
AcDbXrecord
280
     1
270
     1
271
     1
  0
XRECORD
  5
18
102
{ACAD_REACTORS
330
12
102
}
330
12
100
AcDbXrecord
280
     1
270
     1
271
     1
  0
XRECORD
  5
15
102
{ACAD_REACTORS
330
12
102
}
330
12
100
AcDbXrecord
280
     1
270
     1
271
     1
  0
XRECORD
  5
24
102
{ACAD_REACTORS
330
22
102
}
330
22
100
AcDbXrecord
280
     1
270
     1
271
     1
  0
XRECORD
  5
23
102
{ACAD_REACTORS
330
22
102
}
330
22
100
AcDbXrecord
280
     1
270
     1
271
     1
  0
XRECORD
  5
27
102
{ACAD_REACTORS
330
22
102
}
330
22
100
AcDbXrecord
280
     1
270
     1
271
     1
  0
XRECORD
  5
26
102
{ACAD_REACTORS
330
22
102
}
330
22
100
AcDbXrecord
280
     1
270
     1
271
     1
  0
XRECORD
  5
28
102
{ACAD_REACTORS
330
22
102
}
330
22
100
AcDbXrecord
280
     1
270
     1
271
     1
  0
XRECORD
  5
25
102
{ACAD_REACTORS
330
22
102
}
330
22
100
AcDbXrecord
280
     1
270
     1
271
     1
  0
XRECORD
  5
221
102
{ACAD_REACTORS
330
220
102
}
330
220
100
AcDbXrecord
280
     1
102
DISPLAYNAME
  1
Imperial24
102
FLAGS
 90
        0
  0
CELLSTYLEMAP
  5
21E
102
{ACAD_REACTORS
330
21D
102
}
330
21D
100
AcDbCellStyleMap
 90
        3
300
CELLSTYLE
  1
TABLEFORMAT_BEGIN
 90
        5
170
     1
 91
        0
 92
    32768
 62
   257
 93
        1
300
CONTENTFORMAT
  1
CONTENTFORMAT_BEGIN
 90
        0
 91
        0
 92
      512
 93
        0
300

 40
0.0
140
1.0
 94
        5
 62
     0
340
55
144
0.25
309
CONTENTFORMAT_END
171
     0
 94
        0
309
TABLEFORMAT_END
  1
CELLSTYLE_BEGIN
 90
        1
 91
        1
300
_TITLE
309
CELLSTYLE_END
300
CELLSTYLE
  1
TABLEFORMAT_BEGIN
 90
        5
170
     1
 91
        0
 92
        0
 62
   257
 93
        1
300
CONTENTFORMAT
  1
CONTENTFORMAT_BEGIN
 90
        0
 91
        0
 92
      512
 93
        0
300

 40
0.0
140
1.0
 94
        5
 62
     0
340
55
144
0.18
309
CONTENTFORMAT_END
171
     0
 94
        0
309
TABLEFORMAT_END
  1
CELLSTYLE_BEGIN
 90
        2
 91
        1
300
_HEADER
309
CELLSTYLE_END
300
CELLSTYLE
  1
TABLEFORMAT_BEGIN
 90
        5
170
     1
 91
        0
 92
        0
 62
   257
 93
        1
300
CONTENTFORMAT
  1
CONTENTFORMAT_BEGIN
 90
        0
 91
        0
 92
      512
 93
        0
300

 40
0.0
140
1.0
 94
        2
 62
     0
340
55
144
0.18
309
CONTENTFORMAT_END
171
     0
 94
        0
309
TABLEFORMAT_END
  1
CELLSTYLE_BEGIN
 90
        3
 91
        2
300
_DATA
309
CELLSTYLE_END
  0
ENDSEC
  0
EOF
